  0
SECTION
  2
HEADER
  9
$ACADVER
  1
AC1021
  9
$ACADMAINTVER
 70
    50
  9
$DWGCODEPAGE
  3
ANSI_936
  9
$LASTSAVEDBY
  1
ko69185
  9
$CUSTOMPROPERTYTAG
  1
AmdtFileType
  9
$CUSTOMPROPERTY
  1
84
  9
$INSBASE
 10
0.0
 20
0.0
 30
0.0
  9
$EXTMIN
 10
-15373.26798501515
 20
1562.394474061842
 30
0.0
  9
$EXTMAX
 10
3238.888531198195
 20
11527.71779480649
 30
0.0
  9
$LIMMIN
 10
0.0
 20
0.0
  9
$LIMMAX
 10
17.0
 20
11.0
  9
$ORTHOMODE
 70
     0
  9
$REGENMODE
 70
     1
  9
$FILLMODE
 70
     1
  9
$QTEXTMODE
 70
     0
  9
$MIRRTEXT
 70
     1
  9
$LTSCALE
 40
1.0
  9
$ATTMODE
 70
     1
  9
$TEXTSIZE
 40
0.2
  9
$TRACEWID
 40
0.05
  9
$TEXTSTYLE
  7
STANDARD
  9
$CLAYER
  8
0
  9
$CELTYPE
  6
ByLayer
  9
$CECOLOR
 62
   256
  9
$CELTSCALE
 40
1.0
  9
$DISPSILH
 70
     0
  9
$DIMSCALE
 40
1.0
  9
$DIMASZ
 40
0.12
  9
$DIMEXO
 40
0.05
  9
$DIMDLI
 40
0.5
  9
$DIMRND
 40
0.0
  9
$DIMDLE
 40
0.0
  9
$DIMEXE
 40
0.1
  9
$DIMTP
 40
0.1
  9
$DIMTM
 40
0.1
  9
$DIMTXT
 40
0.12
  9
$DIMCEN
 40
0.0
  9
$DIMTSZ
 40
0.0
  9
$DIMTOL
 70
     0
  9
$DIMLIM
 70
     0
  9
$DIMTIH
 70
     1
  9
$DIMTOH
 70
     1
  9
$DIMSE1
 70
     0
  9
$DIMSE2
 70
     0
  9
$DIMTAD
 70
     0
  9
$DIMZIN
 70
     7
  9
$DIMBLK
  1

  9
$DIMASO
 70
     1
  9
$DIMSHO
 70
     1
  9
$DIMPOST
  1

  9
$DIMAPOST
  1
mm
  9
$DIMALT
 70
     0
  9
$DIMALTD
 70
     2
  9
$DIMALTF
 40
25.4
  9
$DIMLFAC
 40
1.0
  9
$DIMTOFL
 70
     0
  9
$DIMTVP
 40
0.0
  9
$DIMTIX
 70
     0
  9
$DIMSOXD
 70
     0
  9
$DIMSAH
 70
     0
  9
$DIMBLK1
  1

  9
$DIMBLK2
  1

  9
$DIMSTYLE
  2
AM_ANSI
  9
$DIMCLRD
 70
   256
  9
$DIMCLRE
 70
   256
  9
$DIMCLRT
 70
   140
  9
$DIMTFAC
 40
0.71
  9
$DIMGAP
 40
0.06
  9
$DIMJUST
 70
     0
  9
$DIMSD1
 70
     0
  9
$DIMSD2
 70
     0
  9
$DIMTOLJ
 70
     1
  9
$DIMTZIN
 70
     7
  9
$DIMALTZ
 70
     0
  9
$DIMALTTZ
 70
     0
  9
$DIMUPT
 70
     0
  9
$DIMDEC
 70
     4
  9
$DIMTDEC
 70
     4
  9
$DIMALTU
 70
     2
  9
$DIMALTTD
 70
     4
  9
$DIMTXSTY
  7
STANDARD
  9
$DIMAUNIT
 70
     0
  9
$DIMADEC
 70
     0
  9
$DIMALTRND
 40
0.0
  9
$DIMAZIN
 70
     2
  9
$DIMDSEP
 70
    46
  9
$DIMATFIT
 70
     3
  9
$DIMFRAC
 70
     0
  9
$DIMLDRBLK
  1

  9
$DIMLUNIT
 70
     2
  9
$DIMLWD
 70
    -1
  9
$DIMLWE
 70
    -1
  9
$DIMTMOVE
 70
     0
  9
$DIMFXL
 40
1.0
  9
$DIMFXLON
 70
     0
  9
$DIMJOGANG
 40
0.7853981633974483
  9
$DIMTFILL
 70
     0
  9
$DIMTFILLCLR
 70
     0
  9
$DIMARCSYM
 70
     1
  9
$DIMLTYPE
  6
ByBlock
  9
$DIMLTEX1
  6
ByBlock
  9
$DIMLTEX2
  6
ByBlock
  9
$LUNITS
 70
     2
  9
$LUPREC
 70
     4
  9
$SKETCHINC
 40
0.1
  9
$FILLETRAD
 40
0.125
  9
$AUNITS
 70
     0
  9
$AUPREC
 70
     0
  9
$MENU
  1
.
  9
$ELEVATION
 40
0.0
  9
$PELEVATION
 40
0.0
  9
$THICKNESS
 40
0.0
  9
$LIMCHECK
 70
     0
  9
$CHAMFERA
 40
0.125
  9
$CHAMFERB
 40
0.125
  9
$CHAMFERC
 40
1.0
  9
$CHAMFERD
 40
0.0
  9
$SKPOLY
 70
     0
  9
$TDCREATE
 40
2455294.494064884
  9
$TDUCREATE
 40
2455294.160731551
  9
$TDUPDATE
 40
2455309.588040289
  9
$TDUUPDATE
 40
2455309.254706956
  9
$TDINDWG
 40
0.0198205324
  9
$TDUSRTIMER
 40
0.0198205324
  9
$USRTIMER
 70
     1
  9
$ANGBASE
 50
0.0
  9
$ANGDIR
 70
     0
  9
$PDMODE
 70
     0
  9
$PDSIZE
 40
0.0
  9
$PLINEWID
 40
0.0
  9
$SPLFRAME
 70
     0
  9
$SPLINETYPE
 70
     6
  9
$SPLINESEGS
 70
     8
  9
$HANDSEED
  5
936
  9
$SURFTAB1
 70
     6
  9
$SURFTAB2
 70
     6
  9
$SURFTYPE
 70
     6
  9
$SURFU
 70
     6
  9
$SURFV
 70
     6
  9
$UCSBASE
  2

  9
$UCSNAME
  2

  9
$UCSORG
 10
0.0
 20
0.0
 30
0.0
  9
$UCSXDIR
 10
1.0
 20
0.0
 30
0.0
  9
$UCSYDIR
 10
0.0
 20
1.0
 30
0.0
  9
$UCSORTHOREF
  2

  9
$UCSORTHOVIEW
 70
     0
  9
$UCSORGTOP
 10
0.0
 20
0.0
 30
0.0
  9
$UCSORGBOTTOM
 10
0.0
 20
0.0
 30
0.0
  9
$UCSORGLEFT
 10
0.0
 20
0.0
 30
0.0
  9
$UCSORGRIGHT
 10
0.0
 20
0.0
 30
0.0
  9
$UCSORGFRONT
 10
0.0
 20
0.0
 30
0.0
  9
$UCSORGBACK
 10
0.0
 20
0.0
 30
0.0
  9
$PUCSBASE
  2

  9
$PUCSNAME
  2

  9
$PUCSORG
 10
0.0
 20
0.0
 30
0.0
  9
$PUCSXDIR
 10
1.0
 20
0.0
 30
0.0
  9
$PUCSYDIR
 10
0.0
 20
1.0
 30
0.0
  9
$PUCSORTHOREF
  2

  9
$PUCSORTHOVIEW
 70
     0
  9
$PUCSORGTOP
 10
0.0
 20
0.0
 30
0.0
  9
$PUCSORGBOTTOM
 10
0.0
 20
0.0
 30
0.0
  9
$PUCSORGLEFT
 10
0.0
 20
0.0
 30
0.0
  9
$PUCSORGRIGHT
 10
0.0
 20
0.0
 30
0.0
  9
$PUCSORGFRONT
 10
0.0
 20
0.0
 30
0.0
  9
$PUCSORGBACK
 10
0.0
 20
0.0
 30
0.0
  9
$USERI1
 70
     0
  9
$USERI2
 70
     0
  9
$USERI3
 70
     0
  9
$USERI4
 70
     0
  9
$USERI5
 70
     0
  9
$USERR1
 40
0.0
  9
$USERR2
 40
0.0
  9
$USERR3
 40
0.0
  9
$USERR4
 40
0.0
  9
$USERR5
 40
0.0
  9
$WORLDVIEW
 70
     1
  9
$SHADEDGE
 70
     3
  9
$SHADEDIF
 70
    70
  9
$TILEMODE
 70
     1
  9
$MAXACTVP
 70
    64
  9
$PINSBASE
 10
0.0
 20
0.0
 30
0.0
  9
$PLIMCHECK
 70
     0
  9
$PEXTMIN
 10
1.000000000000000E+20
 20
1.000000000000000E+20
 30
1.000000000000000E+20
  9
$PEXTMAX
 10
-1.000000000000000E+20
 20
-1.000000000000000E+20
 30
-1.000000000000000E+20
  9
$PLIMMIN
 10
0.0
 20
0.0
  9
$PLIMMAX
 10
12.0
 20
9.0
  9
$UNITMODE
 70
     0
  9
$VISRETAIN
 70
     1
  9
$PLINEGEN
 70
     0
  9
$PSLTSCALE
 70
     1
  9
$TREEDEPTH
 70
  3020
  9
$CMLSTYLE
  2
Standard
  9
$CMLJUST
 70
     0
  9
$CMLSCALE
 40
1.0
  9
$PROXYGRAPHICS
 70
     1
  9
$MEASUREMENT
 70
     0
  9
$CELWEIGHT
370
    -1
  9
$ENDCAPS
280
     0
  9
$JOINSTYLE
280
     0
  9
$LWDISPLAY
290
     0
  9
$INSUNITS
 70
     1
  9
$HYPERLINKBASE
  1

  9
$STYLESHEET
  1

  9
$XEDIT
290
     1
  9
$CEPSNTYPE
380
     0
  9
$PSTYLEMODE
290
     1
  9
$FINGERPRINTGUID
  2
{06A00FB7-C769-485E-9A8A-348B4DB22770}
  9
$VERSIONGUID
  2
{E2B6CA32-6F64-4C74-8986-B6A66A230BA7}
  9
$EXTNAMES
290
     1
  9
$PSVPSCALE
 40
0.0
  9
$OLESTARTUP
290
     0
  9
$SORTENTS
280
   127
  9
$INDEXCTL
280
     0
  9
$HIDETEXT
280
     0
  9
$XCLIPFRAME
290
     0
  9
$HALOGAP
280
     0
  9
$OBSCOLOR
 70
   257
  9
$OBSLTYPE
280
     0
  9
$INTERSECTIONDISPLAY
280
     0
  9
$INTERSECTIONCOLOR
 70
   257
  9
$DIMASSOC
280
     2
  9
$PROJECTNAME
  1

  9
$CAMERADISPLAY
290
     0
  9
$LENSLENGTH
 40
50.0
  9
$CAMERAHEIGHT
 40
0.0
  9
$STEPSPERSEC
 40
2.0
  9
$STEPSIZE
 40
6.0
  9
$3DDWFPREC
 40
2.0
  9
$PSOLWIDTH
 40
0.25
  9
$PSOLHEIGHT
 40
4.0
  9
$LOFTANG1
 40
1.570796326794896
  9
$LOFTANG2
 40
1.570796326794896
  9
$LOFTMAG1
 40
0.0
  9
$LOFTMAG2
 40
0.0
  9
$LOFTPARAM
 70
     7
  9
$LOFTNORMALS
280
     1
  9
$LATITUDE
 40
37.795
  9
$LONGITUDE
 40
-122.394
  9
$NORTHDIRECTION
 40
0.0
  9
$TIMEZONE
 70
 -8000
  9
$LIGHTGLYPHDISPLAY
280
     1
  9
$TILEMODELIGHTSYNCH
280
     1
  9
$CMATERIAL
347
293
  9
$SOLIDHIST
280
     1
  9
$SHOWHIST
280
     1
  9
$DWFFRAME
280
     2
  9
$DGNFRAME
280
     0
  9
$REALWORLDSCALE
290
     1
  9
$INTERFERECOLOR
 62
     1
  9
$INTERFEREOBJVS
345
2A0
  9
$INTERFEREVPVS
346
29D
  9
$CSHADOW
280
     0
  9
$SHADOWPLANELOCATION
 40
0.0
  0
ENDSEC
  0
SECTION
  2
CLASSES
  0
CLASS
  1
ACDBDICTIONARYWDFLT
  2
AcDbDictionaryWithDefault
  3
ObjectDBX Classes
 90
        0
 91
        1
280
     0
281
     0
  0
CLASS
  1
ACME_DOCUMENT
  2
AcMeDbDoc
  3
AcMeServices
 90
     1024
 91
        2
280
     0
281
     0
  0
CLASS
  1
AMGSETTINGSOBJ
  2
AmgSettingsObj
  3
"AcadM|Product Description: AutoCAD Mechanical|Company: Autodesk, Inc."
 90
     1024
 91
        4
280
     0
281
     0
  0
CLASS
  1
ACMESCOPE
  2
AcMeScope
  3
AcMeServices
 90
     1024
 91
        1
280
     0
281
     0
  0
CLASS
  1
ACMECOMMANDHISTORY
  2
AcMeCommandHistory
  3
AcMeServices
 90
     1024
 91
        1
280
     0
281
     0
  0
CLASS
  1
ACIMSYSVARMAN
  2
AcImSysVarManager
  3
AcMeServices
 90
     1024
 91
        5
280
     0
281
     0
  0
CLASS
  1
ACIMREALSYSVAR
  2
AcImRealSysVar
  3
AcMeServices
 90
     1024
 91
        4
280
     0
281
     0
  0
CLASS
  1
ACIMINTSYSVAR
  2
AcImIntSysVar
  3
AcMeServices
 90
     1024
 91
       52
280
     0
281
     0
  0
CLASS
  1
ACMEDRAWINGMAN
  2
AcMeDrawingMan
  3
AcMeServices
 90
     1024
 91
        1
280
     0
281
     0
  0
CLASS
  1
ACMEVIEW
  2
AcMeView
  3
AcMeServices
 90
     1024
 91
        1
280
     0
281
     0
  0
CLASS
  1
ACDBENTITYCACHE
  2
AcMeEntityCache
  3
AcMeServices
 90
     1024
 91
        1
280
     0
281
     0
  0
CLASS
  1
GSMANAGER
  2
AcMeGSManager
  3
AcMeServices
 90
     1024
 91
        1
280
     0
281
     0
  0
CLASS
  1
AMDTINTERNALREACTOR
  2
AmdtInternalReactor
  3
AcMeServices
 90
     1024
 91
        2
280
     0
281
     0
  0
CLASS
  1
ACMESTATEMGR
  2
AcMeStateMgr
  3
AcMeServices
 90
     1024
 91
        1
280
     0
281
     0
  0
CLASS
  1
ACGREFMASTER
  2
AcGrefMaster
  3
AcAttribServices
 90
     1024
 91
        1
280
     0
281
     0
  0
CLASS
  1
ACME_DATABASE
  2
AcMeDbDatabase
  3
AcMeServices
 90
     1024
 91
        2
280
     0
281
     0
  0
CLASS
  1
ACRFINSADJUSTERMGR
  2
AcRfInsAdjusterMgr
  3
AcMeServices
 90
     1024
 91
        1
280
     0
281
     0
  0
CLASS
  1
ACGREFACADMASTER
  2
AcGrefacadMaster
  3
AcGrefServices
 90
     1024
 91
        1
280
     0
281
     0
  0
CLASS
  1
AMIMASTER
  2
AmiMaster
  3
AmiServices
 90
     1024
 91
        1
280
     0
281
     0
  0
CLASS
  1
ACMDATADICTIONARY
  2
AcmDataDictionary
  3
"AcmSymBB|Product Description: AutoCAD Mechanical|Company: Autodesk, Inc."
 90
     1024
 91
        1
280
     0
281
     0
  0
CLASS
  1
ACMDATAENTRYBLOCK
  2
AcmDataEntryBlock
  3
AcmSymBB|Product Description: AutoCAD Mechanical|Company: Autodesk, Inc.
 90
     1024
 91
        1
280
     0
281
     0
  0
CLASS
  1
ACIMSTRSYSVAR
  2
AcImStrSysVar
  3
AcMeServices
 90
     1024
 91
        5
280
     0
281
     0
  0
CLASS
  1
ACMSTANDARDANSI
  2
AcmStandardANSI
  3
"Amdt_StdImp|Product Description: AutoCAD Mechanical|Company: Autodesk, Inc."
 90
     1024
 91
        1
280
     0
281
     0
  0
CLASS
  1
AMGOBJPROPCFG
  2
AmgObjPropCfg
  3
"AmgLay|Product Description: AutoCAD Mechanical|Company: Autodesk, Inc."
 90
     1025
 91
        1
280
     0
281
     0
  0
CLASS
  1
ACMSURFSTANDARDANSI
  2
AcmSurfTextStdANSI
  3
"Amdt_StdImp|Product Description: AutoCAD Mechanical|Company: Autodesk, Inc."
 90
     1024
 91
        1
280
     0
281
     0
  0
CLASS
  1
ACMFCFSTANDARDANSI
  2
AcmFCFStdANSI
  3
"Amdt_StdImp|Product Description: AutoCAD Mechanical|Company: Autodesk, Inc."
 90
     1024
 91
        1
280
     0
281
     0
  0
CLASS
  1
ACMWELDSTANDARDANSI
  2
AcmWeldingStdANSI
  3
"Amdt_StdImp|Product Description: AutoCAD Mechanical|Company: Autodesk, Inc."
 90
     1024
 91
        1
280
     0
281
     0
  0
CLASS
  1
ACMIDSTANDARDANSI
  2
AcmIdStdANSI
  3
"Amdt_StdImp|Product Description: AutoCAD Mechanical|Company: Autodesk, Inc."
 90
     1024
 91
        1
280
     0
281
     0
  0
CLASS
  1
ACMDATUMSTANDARDANSI
  2
AcmDatumStdANSI
  3
"Amdt_StdImp|Product Description: AutoCAD Mechanical|Company: Autodesk, Inc."
 90
     1024
 91
        1
280
     0
281
     0
  0
CLASS
  1
ACMBOMSTANDARDANSI
  2
AcmBOMStdANSI
  3
"Amdt_StdImp|Product Description: AutoCAD Mechanical|Company: Autodesk, Inc."
 90
     1024
 91
        1
280
     0
281
     0
  0
CLASS
  1
ACMDETAILSTANDARDANSI
  2
AmdtDetailSymStdANSI
  3
"Amdt_StdImp|Product Description: AutoCAD Mechanical|Company: Autodesk, Inc."
 90
     1024
 91
        1
280
     0
281
     0
  0
CLASS
  1
ACMSECTIONSTANDARDANSI
  2
AmdtSectionSymStdANSI
  3
"Amdt_StdImp|Product Description: AutoCAD Mechanical|Company: Autodesk, Inc."
 90
     1024
 91
        1
280
     0
281
     0
  0
CLASS
  1
ACMCENTERLINESTANDARDANSI
  2
AmdtCenterLineStdANSI
  3
"Amdt_StdImp|Product Description: AutoCAD Mechanical|Company: Autodesk, Inc."
 90
     1024
 91
        1
280
     0
281
     0
  0
CLASS
  1
ACMNOTESTANDARDANSI
  2
AmdtNoteStdANSI
  3
"Amdt_StdImp|Product Description: AutoCAD Mechanical|Company: Autodesk, Inc."
 90
     1024
 91
        1
280
     0
281
     0
  0
CLASS
  1
ACAMGLAYSTD
  2
AcAmgLayStd
  3
"AmgLay|Product Description: AutoCAD Mechanical|Company: Autodesk, Inc."
 90
     1024
 91
        2
280
     0
281
     0
  0
CLASS
  1
ACAMGDIMSTD
  2
AcAmgDimStd
  3
"AmgDim|Product Description: AutoCAD Mechanical|Company: Autodesk, Inc."
 90
     1024
 91
        2
280
     0
281
     0
  0
CLASS
  1
ACAMGHOLECHARTSTDANSI
  2
AcAmgHoleChartStdANSI
  3
AmgDim|Product Description: AutoCAD Mechanical|Company: Autodesk, Inc.
 90
     1024
 91
        1
280
     0
281
     0
  0
CLASS
  1
ACAMGTITLESTD
  2
AcAmgTitleStd
  3
"AmgTitle|Product Description: AutoCAD Mechanical|Company: Autodesk, Inc."
 90
     4095
 91
        2
280
     0
281
     0
  0
CLASS
  1
LAYER_INDEX
  2
AcDbLayerIndex
  3
ObjectDBX Classes
 90
        0
 91
        0
280
     0
281
     0
  0
CLASS
  1
IDBUFFER
  2
AcDbIdBuffer
  3
ObjectDBX Classes
 90
        0
 91
        0
280
     0
281
     0
  0
CLASS
  1
DICTIONARYVAR
  2
AcDbDictionaryVar
  3
ObjectDBX Classes
 90
        0
 91
        9
280
     0
281
     0
  0
CLASS
  1
AM_DRAWING_MGR
  2
AcDmDwgMgr
  3
AcMechDwgViewMgmt
 90
     1024
 91
        1
280
     0
281
     0
  0
CLASS
  1
AM_DWG_DOCUMENT
  2
AcDmDwgDocument
  3
AcMechDwgViewMgmt
 90
     1024
 91
        1
280
     0
281
     0
  0
CLASS
  1
AM_DWG_SHEET
  2
AcDmSheet
  3
AcMechDwgViewMgmt
 90
     1024
 91
        2
280
     0
281
     0
  0
CLASS
  1
AM_VIEWDIMPARMAP
  2
AcDmViewDimParMap
  3
AcMechDwgViewMgmt
 90
     1024
 91
        2
280
     0
281
     0
  0
CLASS
  1
AM_DWGMGR_NAME
  2
AcDmDwgMgrName
  3
AcMechDwgViewMgmt
 90
     1024
 91
        1
280
     0
281
     0
  0
CLASS
  1
AMDTMENUSTATEMGR
  2
AmdtMenuStateMgr
  3
McadcomServices
 90
     1024
 91
        1
280
     0
281
     0
  0
CLASS
  1
AMDTMCOMMENUSTATE
  2
AmdtMcomMenuState
  3
McadcomServices
 90
     1024
 91
        1
280
     0
281
     0
  0
CLASS
  1
MAPIAMMOUDLE
  2
MApiAmModule
  3
MApiAmServices
 90
     1024
 91
        1
280
     0
281
     0
  0
CLASS
  1
AMDTADMENUSTATE
  2
AmdtAdMenuState
  3
DesignerServices
 90
     1024
 91
        1
280
     0
281
     0
  0
CLASS
  1
ADAPPL
  2
AcAdAppl
  3
DesignerServices
 90
     1024
 91
        1
280
     0
281
     0
  0
CLASS
  1
DEPMGR
  2
AcAdDepMgr
  3
DesignerServices
 90
     1024
 91
        1
280
     0
281
     0
  0
CLASS
  1
PARAMMGR
  2
AcAdParamMgr
  3
DesignerServices
 90
     1024
 91
        1
280
     0
281
     0
  0
CLASS
  1
PARAMSCOPE
  2
AcAdParamScope
  3
DesignerServices
 90
     1024
 91
        1
280
     0
281
     0
  0
CLASS
  1
NAMEDAPPL
  2
AcAdNamedAppl
  3
DesignerServices
 90
     1024
 91
        1
280
     0
281
     0
  0
CLASS
  1
AMDTDMMENUSTATE
  2
AmdtDmMenuState
  3
AcMechDwgViewMgmt
 90
     1024
 91
        1
280
     0
281
     0
  0
CLASS
  1
AMDTAMMENUSTATE
  2
AmdtAmMenuState
  3
DesignerAssemblies
 90
     1024
 91
        1
280
     0
281
     0
  0
CLASS
  1
ACAMPROJECT
  2
AcAmProject
  3
DesignerAssemblies
 90
     1024
 91
        1
280
     0
281
     0
  0
CLASS
  1
ACAMGRCOMPDEF
  2
AcAmGrCompDef
  3
DesignerAssemblies
 90
     1024
 91
        1
280
     0
281
     0
  0
CLASS
  1
ACCMCONTEXT
  2
AcCmContext
  3
DesignerAssemblies
 90
     1024
 91
        1
280
     0
281
     0
  0
CLASS
  1
ACAMCOMPDEF
  2
AcAmCompDef
  3
DesignerAssemblies
 90
     1024
 91
        1
280
     0
281
     0
  0
CLASS
  1
ACAMCOMPDEFMGR
  2
AcAmCompDefMgr
  3
DesignerAssemblies
 90
     1024
 91
        1
280
     0
281
     0
  0
CLASS
  1
AMCONTEXTMGR
  2
AcAmContextMgr
  3
DesignerAssemblies
 90
     1024
 91
        1
280
     0
281
     0
  0
CLASS
  1
ACAMCONTEXTMODELER
  2
AcAmContextModeler
  3
DesignerAssemblies
 90
     1024
 91
        1
280
     0
281
     0
  0
CLASS
  1
ACMTHREADLINESTANDARDANSI
  2
AmdtThreadLineStdANSI
  3
"Amdt_StdImp|Product Description: AutoCAD Mechanical|Company: Autodesk, Inc."
 90
     1024
 91
        1
280
     0
281
     0
  0
CLASS
  1
CATALOGSTATE
  2
AcAmCatalogState
  3
DesignerAssemblies
 90
     1024
 91
        1
280
     0
281
     0
  0
CLASS
  1
ACAMGRCOMPDEFSET
  2
AcAmGrCompDefSet
  3
DesignerAssemblies
 90
     1024
 91
        1
280
     0
281
     0
  0
CLASS
  1
AMDTBROWSERDBTAB
  2
AmdtBrowserDbTab
  3
McadcomServices
 90
     1024
 91
        1
280
     0
281
     0
  0
CLASS
  1
CBROWSERAPPOBJECT
  2
CBrowserAppObject
  3
McadcomServices
 90
     1024
 91
        3
280
     0
281
     0
  0
CLASS
  1
DM_PLACEHOLDER
  2
AcDmSelsetPlaceholder
  3
AcMechDwgViewMgmt
 90
     1024
 91
        1
280
     0
281
     0
  0
CLASS
  1
TABLESTYLE
  2
AcDbTableStyle
  3
ObjectDBX Classes
 90
     4095
 91
        1
280
     0
281
     0
  0
CLASS
  1
AMDTNOTETEMPLATEDB
  2
AmdtNoteTemplateDB
  3
AcmSymBB|Product Description: AutoCAD Mechanical|Company: Autodesk, Inc.
 90
     1024
 91
       10
280
     0
281
     0
  0
CLASS
  1
MATERIAL
  2
AcDbMaterial
  3
ObjectDBX Classes
 90
     1153
 91
        3
280
     0
281
     0
  0
CLASS
  1
VISUALSTYLE
  2
AcDbVisualStyle
  3
ObjectDBX Classes
 90
     4095
 91
       16
280
     0
281
     0
  0
CLASS
  1
ACRFATTGENMGR
  2
AcRfAttGeneralMgr
  3
AcAttribServices
 90
     1024
 91
        1
280
     0
281
     0
  0
CLASS
  1
ACRFOBJATTMGR
  2
AcRfObjAttGroupMgr
  3
AcAttribServices
 90
     1024
 91
        1
280
     0
281
     0
  0
CLASS
  1
ACRFMCADAPIATTHOLDER
  2
AcRfMCADAPIAttHolder
  3
AcAttribServices
 90
     1024
 91
        1
280
     0
281
     0
  0
CLASS
  1
AMDTSYSATTR
  2
AmdtSystemAttribute
  3
AcAttribServices
 90
     1024
 91
        2
280
     0
281
     0
  0
CLASS
  1
ACMTAPERSTANDARDANSI
  2
AcmTaperStdANSI
  3
"Amdt_StdImp|Product Description: AutoCAD Mechanical|Company: Autodesk, Inc."
 90
     1024
 91
        1
280
     0
281
     0
  0
CLASS
  1
CAMSSTRUCTBTNSTATE
  2
StructBtnState
  3
DesignerAssemblies
 90
     1024
 91
        0
280
     0
281
     0
  0
CLASS
  1
SCALE
  2
AcDbScale
  3
ObjectDBX Classes
 90
     1153
 91
       33
280
     0
281
     0
  0
CLASS
  1
MLEADERSTYLE
  2
AcDbMLeaderStyle
  3
ACDB_MLEADERSTYLE_CLASS
 90
     4095
 91
        1
280
     0
281
     0
  0
CLASS
  1
ACMANOOTATIONVIEWSTANDARDANSI
  2
AmdtAnViewStdANSI
  3
"Amdt_StdImp|Product Description: AutoCAD Mechanical|Company: Autodesk, Inc."
 90
     1024
 91
        1
280
     0
281
     0
  0
CLASS
  1
CELLSTYLEMAP
  2
AcDbCellStyleMap
  3
ObjectDBX Classes
 90
     1152
 91
        2
280
     0
281
     0
  0
CLASS
  1
EXACXREFPANELOBJECT
  2
ExAcXREFPanelObject
  3
EXAC_ESW
 90
     1025
 91
        1
280
     0
281
     0
  0
CLASS
  1
NPOCOLLECTION
  2
AcDbImpNonPersistentObjectsCollection
  3
ObjectDBX Classes
 90
     1153
 91
        1
280
     0
281
     0
  0
CLASS
  1
SORTENTSTABLE
  2
AcDbSortentsTable
  3
ObjectDBX Classes
 90
        0
 91
        0
280
     0
281
     0
  0
CLASS
  1
ACMSTANDARDISO
  2
AcmStandardISO
  3
"Amdt_StdImp|Product Description: AutoCAD Mechanical|Company: Autodesk, Inc."
 90
     1024
 91
        1
280
     0
281
     0
  0
CLASS
  1
AMDTEDGESTANDARDISO
  2
AmdtEdgeStdISO
  3
"Amdt_StdImp|Product Description: AutoCAD Mechanical|Company: Autodesk, Inc."
 90
     1024
 91
        1
280
     0
281
     0
  0
CLASS
  1
ACMSURFSTANDARDISO
  2
AcmSurfTextStdISO
  3
"Amdt_StdImp|Product Description: AutoCAD Mechanical|Company: Autodesk, Inc."
 90
     1024
 91
        1
280
     0
281
     0
  0
CLASS
  1
ACMFCFSTANDARDISO
  2
AcmFCFStdISO
  3
"Amdt_StdImp|Product Description: AutoCAD Mechanical|Company: Autodesk, Inc."
 90
     1024
 91
        1
280
     0
281
     0
  0
CLASS
  1
ACMWELDSTANDARDISO
  2
AcmWeldingStdISO
  3
"Amdt_StdImp|Product Description: AutoCAD Mechanical|Company: Autodesk, Inc."
 90
     1024
 91
        1
280
     0
281
     0
  0
CLASS
  1
ACMIDSTANDARDISO
  2
AcmIdStdISO
  3
"Amdt_StdImp|Product Description: AutoCAD Mechanical|Company: Autodesk, Inc."
 90
     1024
 91
        1
280
     0
281
     0
  0
CLASS
  1
ACMDATUMSTANDARDISO
  2
AcmDatumStdISO
  3
"Amdt_StdImp|Product Description: AutoCAD Mechanical|Company: Autodesk, Inc."
 90
     1024
 91
        1
280
     0
281
     0
  0
CLASS
  1
ACMBOMSTANDARDISO
  2
AcmBOMStdISO
  3
"Amdt_StdImp|Product Description: AutoCAD Mechanical|Company: Autodesk, Inc."
 90
     1024
 91
        1
280
     0
281
     0
  0
CLASS
  1
ACMDETAILSTANDARDISO
  2
AmdtDetailSymStdISO
  3
"Amdt_StdImp|Product Description: AutoCAD Mechanical|Company: Autodesk, Inc."
 90
     1024
 91
        1
280
     0
281
     0
  0
CLASS
  1
ACMSECTIONSTANDARDISO
  2
AmdtSectionSymStdISO
  3
"Amdt_StdImp|Product Description: AutoCAD Mechanical|Company: Autodesk, Inc."
 90
     1024
 91
        1
280
     0
281
     0
  0
CLASS
  1
ACMCENTERLINESTANDARDISO
  2
AmdtCenterLineStdISO
  3
"Amdt_StdImp|Product Description: AutoCAD Mechanical|Company: Autodesk, Inc."
 90
     1024
 91
        1
280
     0
281
     0
  0
CLASS
  1
ACMTHREADLINESTANDARDISO
  2
AmdtThreadLineStdISO
  3
"Amdt_StdImp|Product Description: AutoCAD Mechanical|Company: Autodesk, Inc."
 90
     1024
 91
        1
280
     0
281
     0
  0
CLASS
  1
ACMNOTESTANDARDISO
  2
AmdtNoteStdISO
  3
"Amdt_StdImp|Product Description: AutoCAD Mechanical|Company: Autodesk, Inc."
 90
     1024
 91
        1
280
     0
281
     0
  0
CLASS
  1
ACAMGHOLECHARTSTDISO
  2
AcAmgHoleChartStdISO
  3
AmgDim|Product Description: AutoCAD Mechanical|Company: Autodesk, Inc.
 90
     1024
 91
        1
280
     0
281
     0
  0
CLASS
  1
ACMTAPERSTANDARDISO
  2
AcmTaperStdISO
  3
"Amdt_StdImp|Product Description: AutoCAD Mechanical|Company: Autodesk, Inc."
 90
     1024
 91
        1
280
     0
281
     0
  0
CLASS
  1
ACMANOOTATIONVIEWSTANDARDISO
  2
AmdtAnViewStdISO
  3
"Amdt_StdImp|Product Description: AutoCAD Mechanical|Company: Autodesk, Inc."
 90
     1024
 91
        1
280
     0
281
     0
  0
CLASS
  1
ACAMGFILTERDAT
  2
AcAmgFilterDat
  3
"AcadM|Product Description: AutoCAD Mechanical|Company: Autodesk, Inc."
 90
     1024
 91
        6
280
     0
281
     0
  0
ENDSEC
  0
SECTION
  2
TABLES
  0
TABLE
  2
VPORT
  5
8
102
{ACAD_XDICTIONARY
360
579
102
}
330
0
100
AcDbSymbolTable
 70
     1
  0
VPORT
  5
291
330
8
100
AcDbSymbolTableRecord
100
AcDbViewportTableRecord
  2
*Active
 70
     0
 10
0.0
 20
0.0
 11
1.0
 21
1.0
 12
1373.974630062794
 22
1991.522906269863
 13
0.0
 23
0.0
 14
0.125
 24
0.125
 15
1.0
 25
1.0
 16
0.0
 26
0.0
 36
1.0
 17
0.0
 27
0.0
 37
0.0
 40
1353.231542123684
 41
1.442643391521196
 42
50.0
 43
0.0
 44
0.0
 50
0.0
 51
0.0
 71
     0
 72
   100
 73
     1
 74
     3
 75
     0
 76
     0
 77
     0
 78
     0
281
     0
 65
     1
110
0.0
120
0.0
130
0.0
111
1.0
121
0.0
131
0.0
112
0.0
122
1.0
132
0.0
 79
     0
146
0.0
348
29C
 60
     3
 61
     5
292
     1
282
     0
141
0.0
142
0.0
 63
   250
421
  3355443
  0
ENDTAB
  0
TABLE
  2
LTYPE
  5
5
330
0
100
AcDbSymbolTable
 70
    20
  0
LTYPE
  5
14
330
5
100
AcDbSymbolTableRecord
100
AcDbLinetypeTableRecord
  2
ByBlock
 70
     0
  3

 72
    65
 73
     0
 40
0.0
  0
LTYPE
  5
15
330
5
100
AcDbSymbolTableRecord
100
AcDbLinetypeTableRecord
  2
ByLayer
 70
     0
  3

 72
    65
 73
     0
 40
0.0
  0
LTYPE
  5
16
330
5
100
AcDbSymbolTableRecord
100
AcDbLinetypeTableRecord
  2
Continuous
 70
     0
  3
Solid line
 72
    65
 73
     0
 40
0.0
  0
LTYPE
  5
6C
330
5
100
AcDbSymbolTableRecord
100
AcDbLinetypeTableRecord
  2
AM_ISO02W050
 70
     0
  3
__ __ __ __ __ __ __ __ __ __ __ __ __ __ __
 72
    65
 73
     2
 40
7.5
 49
6.0
 74
     0
 49
-1.5
 74
     0
  0
LTYPE
  5
6D
330
5
100
AcDbSymbolTableRecord
100
AcDbLinetypeTableRecord
  2
AM_ISO08W050
 70
     0
  3
____ . ____ . ____ . ____ . ____ . ____ . ____
 72
    65
 73
     4
 40
18.0
 49
12.0
 74
     0
 49
-1.5
 74
     0
 49
3.0
 74
     0
 49
-1.5
 74
     0
  0
LTYPE
  5
6E
330
5
100
AcDbSymbolTableRecord
100
AcDbLinetypeTableRecord
  2
AM_ISO09W050
 70
     0
  3
_____ . . _____ . . _____ . . ____ .. ____
 72
    65
 73
     6
 40
22.5
 49
12.0
 74
     0
 49
-1.5
 74
     0
 49
3.0
 74
     0
 49
-1.5
 74
     0
 49
3.0
 74
     0
 49
-1.5
 74
     0
  0
LTYPE
  5
6F
330
5
100
AcDbSymbolTableRecord
100
AcDbLinetypeTableRecord
  2
Amconstr
 70
     0
  3
_______________________
 72
    65
 73
     2
 40
9999.0
 49
9999.0
 74
     0
 49
0.0
 74
     0
  0
LTYPE
  5
70
330
5
100
AcDbSymbolTableRecord
100
AcDbLinetypeTableRecord
  2
AM_ISO08W050x2
 70
     0
  3
__ . __ . __ . __ . __ . __
 72
    65
 73
     4
 40
9.0
 49
6.0
 74
     0
 49
-0.75
 74
     0
 49
1.5
 74
     0
 49
-0.75
 74
     0
  0
LTYPE
  5
71
330
5
100
AcDbSymbolTableRecord
100
AcDbLinetypeTableRecord
  2
AM_ISO02W050x2
 70
     0
  3
 _ _ _ _ _ _ _ _ _ _ _ _
 72
    65
 73
     2
 40
3.75
 49
3.0
 74
     0
 49
-0.75
 74
     0
  0
LTYPE
  5
74
330
5
100
AcDbSymbolTableRecord
100
AcDbLinetypeTableRecord
  2
Amzigzag
 70
     0
  3
/\/-/\/-/\/-/\/-/\/-/\/
 72
    65
 73
     2
 40
11.0001
 49
0.0001
 74
     4
 75
   136
340
254
 46
0.04
 50
0.0
 44
0.0
 45
0.0
 49
-11.0
 74
     0
  0
LTYPE
  5
75
330
5
100
AcDbSymbolTableRecord
100
AcDbLinetypeTableRecord
  2
HIDDEN
 70
     0
  3
Hidden __ __ __ __ __ __ __ __ __ __ __ __ __ _
 72
    65
 73
     2
 40
0.375
 49
0.25
 74
     0
 49
-0.125
 74
     0
  0
LTYPE
  5
76
330
5
100
AcDbSymbolTableRecord
100
AcDbLinetypeTableRecord
  2
CENTER
 70
     0
  3
Center ____ _ ____ _ ____ _ ____ _ ____ _ ____
 72
    65
 73
     4
 40
2.0
 49
1.25
 74
     0
 49
-0.25
 74
     0
 49
0.25
 74
     0
 49
-0.25
 74
     0
  0
LTYPE
  5
77
330
5
100
AcDbSymbolTableRecord
100
AcDbLinetypeTableRecord
  2
PHANTOM2
 70
     0
  3
Phantom (.5x) ___ _ _ ___ _ _ ___ _ _ ___ _ _
 72
    65
 73
     6
 40
1.25
 49
0.625
 74
     0
 49
-0.125
 74
     0
 49
0.125
 74
     0
 49
-0.125
 74
     0
 49
0.125
 74
     0
 49
-0.125
 74
     0
  0
LTYPE
  5
78
330
5
100
AcDbSymbolTableRecord
100
AcDbLinetypeTableRecord
  2
CENTER2
 70
     0
  3
Center (.5x) ___ _ ___ _ ___ _ ___ _ ___ _ ___
 72
    65
 73
     4
 40
1.125
 49
0.75
 74
     0
 49
-0.125
 74
     0
 49
0.125
 74
     0
 49
-0.125
 74
     0
  0
LTYPE
  5
79
330
5
100
AcDbSymbolTableRecord
100
AcDbLinetypeTableRecord
  2
HIDDEN2
 70
     0
  3
Hidden (.5x) _ _ _ _ _ _ _ _ _ _ _ _ _ _ _ _ _
 72
    65
 73
     2
 40
0.1875
 49
0.125
 74
     0
 49
-0.0625
 74
     0
  0
LTYPE
  5
7A
330
5
100
AcDbSymbolTableRecord
100
AcDbLinetypeTableRecord
  2
Amzigzag2
 70
     0
  3
/\/-/\/-/\/-/\/-/\/-/\/
 72
    65
 73
     2
 40
0.4401
 49
0.0001
 74
     4
 75
   136
340
254
 46
0.0016
 50
0.0
 44
0.0
 45
0.0
 49
-0.4400000000000001
 74
     0
  0
LTYPE
  5
87
330
5
100
AcDbSymbolTableRecord
100
AcDbLinetypeTableRecord
  2
ACANSTGB
 70
     0
  3
__ . . __ . .
 72
    65
 73
     6
 40
0.35433070866
 49
0.15748031496
 74
     0
 49
-0.03937007874
 74
     0
 49
0.03937007874
 74
     0
 49
-0.03937007874
 74
     0
 49
0.03937007874
 74
     0
 49
-0.03937007874
 74
     0
  0
LTYPE
  5
88
330
5
100
AcDbSymbolTableRecord
100
AcDbLinetypeTableRecord
  2
ACANSTGL
 70
     0
  3
_ _ _ _ _
 72
    65
 73
     2
 40
0.11811023622
 49
0.07874015748
 74
     0
 49
-0.03937007874
 74
     0
  0
LTYPE
  5
38F
330
5
100
AcDbSymbolTableRecord
100
AcDbLinetypeTableRecord
  2
ACISOWELD
 70
     0
  3
_ _ _ _ _
 72
    65
 73
     2
 40
2.0
 49
2.0
 74
     0
 49
-1.0
 74
     0
  0
LTYPE
  5
390
330
5
100
AcDbSymbolTableRecord
100
AcDbLinetypeTableRecord
  2
ACISOTGB
 70
     0
  3
__ . . __ . .
 72
    65
 73
     6
 40
9.0
 49
4.0
 74
     0
 49
-1.0
 74
     0
 49
1.0
 74
     0
 49
-1.0
 74
     0
 49
1.0
 74
     0
 49
-1.0
 74
     0
  0
LTYPE
  5
391
330
5
100
AcDbSymbolTableRecord
100
AcDbLinetypeTableRecord
  2
ACISOTGL
 70
     0
  3
_ _ _ _ _
 72
    65
 73
     2
 40
3.0
 49
2.0
 74
     0
 49
-1.0
 74
     0
  0
ENDTAB
  0
TABLE
  2
LAYER
  5
2
102
{ACAD_XDICTIONARY
360
39F
102
}
330
0
100
AcDbSymbolTable
 70
     4
  0
LAYER
  5
10
102
{ACAD_XDICTIONARY
360
4CB
102
}
330
2
100
AcDbSymbolTableRecord
100
AcDbLayerTableRecord
  2
0
 70
     0
 62
     7
  6
Continuous
370
    -3
390
F
347
295
  0
LAYER
  5
392
102
{ACAD_XDICTIONARY
360
4CD
102
}
330
2
100
AcDbSymbolTableRecord
100
AcDbLayerTableRecord
  2
Dimension
 70
     0
 62
     2
  6
Continuous
370
    25
390
F
347
295
  0
LAYER
  5
5CF
102
{ACAD_XDICTIONARY
360
5D0
102
}
330
2
100
AcDbSymbolTableRecord
100
AcDbLayerTableRecord
  2
02___PRT_ALL_AXES
 70
     0
 62
     7
  6
Continuous
370
    -3
390
F
347
295
  0
LAYER
  5
5D1
102
{ACAD_XDICTIONARY
360
5D2
102
}
330
2
100
AcDbSymbolTableRecord
100
AcDbLayerTableRecord
  2
ALL_FEATURES
 70
     0
 62
     7
  6
Continuous
370
    -3
390
F
347
295
  0
ENDTAB
  0
TABLE
  2
STYLE
  5
3
330
0
100
AcDbSymbolTable
 70
    10
  0
STYLE
  5
11
330
3
100
AcDbSymbolTableRecord
100
AcDbTextStyleTableRecord
  2
STANDARD
 70
     0
 40
0.0
 41
1.0
 50
0.0
 71
     0
 42
0.2
  3
ROMANS.SHX
  4

  0
STYLE
  5
73
330
3
100
AcDbSymbolTableRecord
100
AcDbTextStyleTableRecord
  2

 70
     1
 40
0.0
 41
1.0
 50
0.0
 71
     0
 42
0.2
  3
ltypeshp.shx
  4

  0
STYLE
  5
7B
330
3
100
AcDbSymbolTableRecord
100
AcDbTextStyleTableRecord
  2
ACANSTS
 70
     0
 40
1.0
 41
1.0
 50
0.0
 71
     0
 42
0.2
  3
romans.shx
  4

  0
STYLE
  5
86
330
3
100
AcDbSymbolTableRecord
100
AcDbTextStyleTableRecord
  2
ACANSGDT
 70
     0
 40
0.0
 41
1.0
 50
0.0
 71
     0
 42
0.2
  3
amgdt.shx
  4

  0
STYLE
  5
13F
330
3
100
AcDbSymbolTableRecord
100
AcDbTextStyleTableRecord
  2
USER1
 70
     0
 40
0.0
 41
1.0
 50
0.0
 71
     0
 42
0.2
  3
TXT.SHX
  4

  0
STYLE
  5
140
330
3
100
AcDbSymbolTableRecord
100
AcDbTextStyleTableRecord
  2
USER2
 70
     0
 40
0.0
 41
1.0
 50
0.0
 71
     0
 42
0.2
  3
SIMPLEX.SHX
  4

  0
STYLE
  5
141
330
3
100
AcDbSymbolTableRecord
100
AcDbTextStyleTableRecord
  2
USER3
 70
     0
 40
0.0
 41
1.0
 50
0.0
 71
     0
 42
0.2
  3
ITALIC.SHX
  4

  0
STYLE
  5
254
330
3
100
AcDbSymbolTableRecord
100
AcDbTextStyleTableRecord
  2

 70
     1
 40
0.0
 41
1.0
 50
0.0
 71
     0
 42
0.2
  3
genltshp.shx
  4

  0
STYLE
  5
393
330
3
100
AcDbSymbolTableRecord
100
AcDbTextStyleTableRecord
  2
ACISOTS
 70
     0
 40
1.0
 41
1.0
 50
0.0
 71
     0
 42
2.5
  3
isocp.shx
  4

  0
STYLE
  5
394
330
3
100
AcDbSymbolTableRecord
100
AcDbTextStyleTableRecord
  2
ACISOGDT
 70
     0
 40
0.0
 41
1.0
 50
0.0
 71
     0
 42
2.5
  3
amgdt.shx
  4

  0
ENDTAB
  0
TABLE
  2
VIEW
  5
6
330
0
100
AcDbSymbolTable
 70
     0
  0
ENDTAB
  0
TABLE
  2
UCS
  5
7
330
0
100
AcDbSymbolTable
 70
     0
  0
ENDTAB
  0
TABLE
  2
APPID
  5
9
330
0
100
AcDbSymbolTable
 70
    15
  0
APPID
  5
12
330
9
100
AcDbSymbolTableRecord
100
AcDbRegAppTableRecord
  2
ACAD
 70
     0
  0
APPID
  5
4E
330
9
100
AcDbSymbolTableRecord
100
AcDbRegAppTableRecord
  2
MCAD_NO_VIS
 70
     0
  0
APPID
  5
4F
330
9
100
AcDbSymbolTableRecord
100
AcDbRegAppTableRecord
  2
ACAD_TEMP_GRAPHIC
 70
     0
  0
APPID
  5
60
330
9
100
AcDbSymbolTableRecord
100
AcDbRegAppTableRecord
  2
ACATTRIBSERVICES
 70
     0
  0
APPID
  5
F7
330
9
100
AcDbSymbolTableRecord
100
AcDbRegAppTableRecord
  2
AD_DRAW
 70
     0
  0
APPID
  5
115
330
9
100
AcDbSymbolTableRecord
100
AcDbRegAppTableRecord
  2
DESIGNERASSEMBLIES
 70
     0
  0
APPID
  5
11A
330
9
100
AcDbSymbolTableRecord
100
AcDbRegAppTableRecord
  2
ACADM_DIM_EDIT
 70
     0
  0
APPID
  5
11B
330
9
100
AcDbSymbolTableRecord
100
AcDbRegAppTableRecord
  2
AMDT_DM_ADJ
 70
     0
  0
APPID
  5
1D3
330
9
100
AcDbSymbolTableRecord
100
AcDbRegAppTableRecord
  2
ACAD_DSTYLE_DIMARC_LENGTH_SYMBOL
 70
     0
  0
APPID
  5
1D4
330
9
100
AcDbSymbolTableRecord
100
AcDbRegAppTableRecord
  2
ACAD_DSTYLE_DIMJOGGED_JOGANGLE_SYMBOL
 70
     0
  0
APPID
  5
2EE
330
9
100
AcDbSymbolTableRecord
100
AcDbRegAppTableRecord
  2
ACAD_MLEADERVER
 70
     0
  0
APPID
  5
39E
330
9
100
AcDbSymbolTableRecord
100
AcDbRegAppTableRecord
  2
ACAD_PSEXT
 70
     0
  0
APPID
  5
57C
330
9
100
AcDbSymbolTableRecord
100
AcDbRegAppTableRecord
  2
ACAD_DSTYLE_DIM_LINETYPE
 70
     0
  0
APPID
  5
57D
330
9
100
AcDbSymbolTableRecord
100
AcDbRegAppTableRecord
  2
ACAD_DSTYLE_DIM_EXT1_LINETYPE
 70
     0
  0
APPID
  5
57E
330
9
100
AcDbSymbolTableRecord
100
AcDbRegAppTableRecord
  2
ACAD_DSTYLE_DIM_EXT2_LINETYPE
 70
     0
  0
ENDTAB
  0
TABLE
  2
DIMSTYLE
  5
A
330
0
100
AcDbSymbolTable
 70
    17
100
AcDbDimStyleTable
 71
     1
340
8C
  0
DIMSTYLE
105
27
330
A
100
AcDbSymbolTableRecord
100
AcDbDimStyleTableRecord
  2
Standard
 70
     0
340
11
  0
DIMSTYLE
105
8C
102
{ACAD_REACTORS
330
6A
102
}
330
A
100
AcDbSymbolTableRecord
100
AcDbDimStyleTableRecord
  2
AM_ANSI
 70
     0
  4
mm
 41
0.12
 42
0.05
 43
0.5
 44
0.1
 47
0.1
 48
0.1
 78
     7
 79
     2
 90
     1
140
0.12
141
0.0
146
0.71
147
0.06
176
   256
177
   256
178
   140
274
     4
284
     7
340
11
345
14
346
14
347
14
371
    -1
372
    -1
1001
ACAD_DSTYLE_DIMJOGGED_JOGANGLE_SYMBOL
1070
   384
1040
0.7853981633974483
  0
DIMSTYLE
105
8D
330
A
100
AcDbSymbolTableRecord
100
AcDbDimStyleTableRecord
  2
AM_ANSI$3
 70
     0
  4
mm
 41
0.12
 42
0.05
 43
0.5
 44
0.1
 47
0.1
 48
0.1
 78
     7
 79
     2
 90
     1
140
0.12
141
0.0
146
0.71
147
0.06
176
   256
177
   256
178
   140
274
     4
284
     7
288
     1
289
     0
340
11
345
14
346
14
347
14
371
    -1
372
    -1
1001
ACAD_DSTYLE_DIMJOGGED_JOGANGLE_SYMBOL
1070
   384
1040
0.7853981633974483
  0
DIMSTYLE
105
8E
330
A
100
AcDbSymbolTableRecord
100
AcDbDimStyleTableRecord
  2
AM_ANSI$4
 70
     0
  4
mm
 41
0.12
 42
0.05
 43
0.5
 44
0.1
 47
0.1
 48
0.1
 78
     7
 79
     2
 90
     1
140
0.12
141
0.0
146
0.71
147
0.06
176
   256
177
   256
178
   140
274
     4
284
     7
340
11
345
14
346
14
347
14
371
    -1
372
    -1
1001
ACAD_DSTYLE_DIMJOGGED_JOGANGLE_SYMBOL
1070
   384
1040
0.7853981633974483
  0
DIMSTYLE
105
8F
330
A
100
AcDbSymbolTableRecord
100
AcDbDimStyleTableRecord
  2
AM_ANSI$7
 70
     0
  4
mm
 41
0.12
 42
0.05
 43
0.5
 44
0.1
 47
0.1
 48
0.1
 78
     7
 79
     2
 90
     1
140
0.12
141
0.0
146
0.71
147
0.06
176
   256
177
   256
178
   140
274
     4
284
     7
340
11
345
14
346
14
347
14
371
    -1
372
    -1
1001
ACAD_DSTYLE_DIMJOGGED_JOGANGLE_SYMBOL
1070
   384
1040
0.7853981633974483
  0
DIMSTYLE
105
90
330
A
100
AcDbSymbolTableRecord
100
AcDbDimStyleTableRecord
  2
AM_ANSI$SF
 70
     0
  4
mm
 41
0.12
 42
0.05
 43
0.5
 44
0.1
 47
0.1
 48
0.1
 75
     1
 76
     1
 78
     7
 79
     2
 90
     1
140
0.12
141
0.0
146
0.71
147
0.06
176
   256
177
   256
178
   140
274
     4
284
     7
340
11
345
14
346
14
347
14
371
    -1
372
    -1
1001
ACAD_DSTYLE_DIMJOGGED_JOGANGLE_SYMBOL
1070
   384
1040
0.7853981633974483
  0
DIMSTYLE
105
95
330
A
100
AcDbSymbolTableRecord
100
AcDbDimStyleTableRecord
  2
AM_ANSI$SH
 70
     0
  4
mm
 41
0.12
 42
0.05
 43
0.5
 44
0.1
 47
0.1
 48
0.1
 75
     1
 76
     1
 78
     7
 79
     2
 90
     1
140
0.12
141
0.0
146
0.71
147
0.06
173
     1
176
   256
177
   256
178
   140
274
     4
284
     7
340
11
343
91
345
14
346
14
347
14
371
    -1
372
    -1
1001
ACAD_DSTYLE_DIMJOGGED_JOGANGLE_SYMBOL
1070
   384
1040
0.7853981633974483
  0
DIMSTYLE
105
395
330
A
100
AcDbSymbolTableRecord
100
AcDbDimStyleTableRecord
  2
ISO-25
 70
     0
 41
7.0
 42
0.625
 43
3.75
 44
1.25
 77
     1
 78
     8
140
5.0
141
2.5
143
0.03937007874016
147
0.625
171
     3
172
     1
271
     0
272
     0
274
     3
278
    44
283
     0
284
     8
340
11
  0
DIMSTYLE
105
396
330
A
100
AcDbSymbolTableRecord
100
AcDbDimStyleTableRecord
  2
Copie de ISO-25
 70
     0
 41
7.0
 42
0.25
 43
20.0
 44
1.0
 46
10.0
 76
     1
 77
     1
 78
     8
140
5.0
141
2.5
143
0.03937007874016
147
0.625
171
     3
172
     1
173
     1
271
     0
272
     0
274
     3
278
    44
283
     0
284
     8
340
11
344
38C
  0
DIMSTYLE
105
397
330
A
100
AcDbSymbolTableRecord
100
AcDbDimStyleTableRecord
  2
AM_ISO
 70
     0
  4
"
 41
2.5
 42
1.0
 43
10.0
 44
1.0
 47
0.1
 48
0.1
 73
     0
 74
     0
 77
     1
 78
     8
 79
     2
 90
     1
140
3.5
141
0.0
143
0.0393701
146
0.71
147
1.5
172
     1
176
   256
177
   256
178
     2
271
     2
272
     3
274
     4
283
     0
284
     8
340
11
371
    -1
372
    -1
1001
ACAD_DSTYLE_DIMJOGGED_JOGANGLE_SYMBOL
1070
   384
1040
0.7853981633974483
  0
DIMSTYLE
105
398
330
A
100
AcDbSymbolTableRecord
100
AcDbDimStyleTableRecord
  2
AM_ISO$3
 70
     0
  4
"
 41
2.5
 42
1.0
 43
10.0
 44
1.0
 47
0.1
 48
0.1
 73
     0
 77
     1
 78
     8
 79
     2
 90
     1
140
3.5
141
0.0
143
0.0393701
146
0.71
147
1.5
176
   256
177
   256
178
     2
271
     2
272
     3
274
     4
283
     0
284
     8
288
     1
289
     0
340
11
371
    -1
372
    -1
1001
ACAD_DSTYLE_DIMJOGGED_JOGANGLE_SYMBOL
1070
   384
1040
0.7853981633974483
  0
DIMSTYLE
105
399
330
A
100
AcDbSymbolTableRecord
100
AcDbDimStyleTableRecord
  2
AM_ISO$4
 70
     0
  4
"
 41
2.5
 42
1.0
 43
10.0
 44
1.0
 47
0.1
 48
0.1
 73
     0
 77
     1
 78
     8
 79
     2
 90
     1
140
3.5
141
0.0
143
0.0393701
146
0.71
147
1.5
176
   256
177
   256
178
     2
271
     2
272
     3
274
     4
283
     0
284
     8
288
     1
289
     0
340
11
371
    -1
372
    -1
1001
ACAD_DSTYLE_DIMJOGGED_JOGANGLE_SYMBOL
1070
   384
1040
0.7853981633974483
  0
DIMSTYLE
105
39A
330
A
100
AcDbSymbolTableRecord
100
AcDbDimStyleTableRecord
  2
AM_ISO$6
 70
     0
  4
"
 41
2.5
 42
1.0
 43
10.0
 44
1.0
 47
0.1
 48
0.1
 73
     0
 74
     0
 78
     8
 79
     2
 90
     1
140
3.5
141
0.0
143
0.0393701
146
0.71
147
1.5
172
     1
176
   256
177
   256
178
     2
271
     2
272
     3
274
     4
283
     0
284
     8
340
11
371
    -1
372
    -1
1001
ACAD_DSTYLE_DIMJOGGED_JOGANGLE_SYMBOL
1070
   384
1040
0.7853981633974483
  0
DIMSTYLE
105
39B
330
A
100
AcDbSymbolTableRecord
100
AcDbDimStyleTableRecord
  2
AM_ISO$7
 70
     0
  4
"
 41
2.5
 42
1.0
 43
10.0
 44
1.0
 47
0.1
 48
0.1
 73
     0
 74
     0
 77
     1
 78
     8
 79
     2
 90
     1
140
5.0
141
0.0
143
0.0393701
146
0.71
147
1.5
172
     1
176
   256
177
   256
178
     2
271
     2
272
     3
274
     4
283
     0
284
     8
340
11
371
    -1
372
    -1
1001
ACAD_DSTYLE_DIMJOGGED_JOGANGLE_SYMBOL
1070
   384
1040
0.7853981633974483
  0
DIMSTYLE
105
39C
330
A
100
AcDbSymbolTableRecord
100
AcDbDimStyleTableRecord
  2
AM_ISO$SF
 70
     0
  4
"
 41
2.5
 42
1.0
 43
10.0
 44
1.0
 47
0.1
 48
0.1
 73
     0
 74
     0
 75
     1
 76
     1
 77
     1
 78
     8
 79
     2
 90
     1
140
3.5
141
0.0
143
0.0393701
146
0.71
147
1.5
172
     1
176
   256
177
   256
178
     2
271
     2
272
     3
274
     4
283
     0
284
     8
340
11
371
    -1
372
    -1
1001
ACAD_DSTYLE_DIMJOGGED_JOGANGLE_SYMBOL
1070
   384
1040
0.7853981633974483
  0
DIMSTYLE
105
39D
330
A
100
AcDbSymbolTableRecord
100
AcDbDimStyleTableRecord
  2
AM_ISO$SH
 70
     0
  4
"
 41
2.5
 42
1.0
 43
10.0
 44
1.0
 47
0.1
 48
0.1
 73
     0
 74
     0
 75
     1
 76
     1
 77
     1
 78
     8
 79
     2
 90
     1
140
3.5
141
0.0
143
0.0393701
144
2.0
146
0.71
147
1.5
172
     1
173
     1
176
   256
177
   256
178
     2
271
     2
272
     3
274
     4
283
     0
284
     8
340
11
343
91
371
    -1
372
    -1
1001
ACAD_DSTYLE_DIMJOGGED_JOGANGLE_SYMBOL
1070
   384
1040
0.7853981633974483
  0
ENDTAB
  0
TABLE
  2
BLOCK_RECORD
  5
1
330
0
100
AcDbSymbolTable
 70
     7
  0
BLOCK_RECORD
  5
1F
102
{ACAD_XDICTIONARY
360
99
102
}
330
1
100
AcDbSymbolTableRecord
100
AcDbBlockTableRecord
  2
*Model_Space
340
22
 70
     0
280
     1
281
     0
  0
BLOCK_RECORD
  5
1B
330
1
100
AcDbSymbolTableRecord
100
AcDbBlockTableRecord
  2
*Paper_Space
340
1E
 70
     0
280
     1
281
     0
  0
BLOCK_RECORD
  5
23
330
1
100
AcDbSymbolTableRecord
100
AcDbBlockTableRecord
  2
*Paper_Space0
340
26
 70
     0
280
     1
281
     0
  0
BLOCK_RECORD
  5
91
330
1
100
AcDbSymbolTableRecord
100
AcDbBlockTableRecord
  2
GENAXEH
340
0
 70
     0
280
     1
281
     0
  0
BLOCK_RECORD
  5
38C
330
1
100
AcDbSymbolTableRecord
100
AcDbBlockTableRecord
  2
_None
340
0
 70
     0
280
     1
281
     0
  0
BLOCK_RECORD
  5
471
102
{ACAD_XDICTIONARY
360
4C7
102
}
330
1
100
AcDbSymbolTableRecord
100
AcDbBlockTableRecord
  2
A$C0D323CD7
340
0
 70
     1
280
     1
281
     0
  0
ENDTAB
  0
ENDSEC
  0
SECTION
  2
BLOCKS
  0
BLOCK
  5
20
330
1F
100
AcDbEntity
  8
0
100
AcDbBlockBegin
  2
*Model_Space
 70
     0
 10
0.0
 20
0.0
 30
0.0
  3
*Model_Space
  1

  0
ENDBLK
  5
21
330
1F
100
AcDbEntity
  8
0
100
AcDbBlockEnd
  0
BLOCK
  5
1C
330
1B
100
AcDbEntity
 67
     1
  8
0
100
AcDbBlockBegin
  2
*Paper_Space
 70
     0
 10
0.0
 20
0.0
 30
0.0
  3
*Paper_Space
  1

  0
ENDBLK
  5
1D
330
1B
100
AcDbEntity
 67
     1
  8
0
100
AcDbBlockEnd
  0
BLOCK
  5
24
330
23
100
AcDbEntity
 67
     1
  8
0
100
AcDbBlockBegin
  2
*Paper_Space0
 70
     0
 10
0.0
 20
0.0
 30
0.0
  3
*Paper_Space0
  1

  0
ENDBLK
  5
25
330
23
100
AcDbEntity
 67
     1
  8
0
100
AcDbBlockEnd
  0
BLOCK
  5
93
330
91
100
AcDbEntity
  8
0
100
AcDbBlockBegin
  2
GENAXEH
 70
     0
 10
0.0
 20
0.0
 30
0.0
  3
GENAXEH
  1

  0
LINE
  5
92
330
91
100
AcDbEntity
  8
0
100
AcDbLine
 10
-1.0
 20
0.0
 30
0.0
 11
1.0
 21
0.0
 31
0.0
  0
ENDBLK
  5
94
330
91
100
AcDbEntity
  8
0
100
AcDbBlockEnd
  0
BLOCK
  5
38D
330
38C
100
AcDbEntity
  8
0
100
AcDbBlockBegin
  2
_None
 70
     0
 10
0.0
 20
0.0
 30
0.0
  3
_None
  1

  0
ENDBLK
  5
38E
330
38C
100
AcDbEntity
  8
0
100
AcDbBlockEnd
  0
BLOCK
  5
4C8
330
471
100
AcDbEntity
  8
0
100
AcDbBlockBegin
  2
A$C0D323CD7
 70
     0
 10
0.0
 20
0.0
 30
0.0
  3
A$C0D323CD7
  1

  0
LINE
  5
472
330
471
100
AcDbEntity
  8
0
370
    35
100
AcDbLine
 10
221.2550758077017
 20
1233.706342246696
 30
0.0
 11
730.6300669502274
 21
1233.706342246696
 31
0.0
  0
ARC
  5
473
330
471
100
AcDbEntity
  8
0
370
    35
100
AcDbCircle
 10
221.2550758077017
 20
1238.706342246696
 30
0.0
 40
4.999999999999999
100
AcDbArc
 50
226.6612314562431
 51
270.0
  0
ARC
  5
474
330
471
100
AcDbEntity
  8
0
370
    35
100
AcDbCircle
 10
315.3205006165084
 20
1276.338192888978
 30
0.0
 40
423.0272267415036
100
AcDbArc
 50
327.3733272161622
 51
353.4272921167653
  0
ARC
  5
475
330
471
100
AcDbEntity
  8
0
370
    35
100
AcDbCircle
 10
730.6300669502274
 20
1228.706342246698
 30
0.0
 40
4.999999999999999
100
AcDbArc
 50
350.9147464328382
 51
90.0
  0
ARC
  5
476
330
471
100
AcDbEntity
  8
0
370
    35
100
AcDbCircle
 10
600.6917565431144
 20
1231.103274012089
 30
0.0
 40
292.7984818470625
100
AcDbArc
 50
179.490616251053
 51
218.6437495185628
  0
ARC
  5
477
330
471
100
AcDbEntity
  8
0
370
    35
100
AcDbCircle
 10
-941.9233712966375
 20
1169.86352905077
 30
0.0
 40
1593.512676569365
100
AcDbArc
 50
348.1615199596087
 51
355.6233250831374
  0
LINE
  5
478
330
471
100
AcDbEntity
  8
0
370
    35
100
AcDbLine
 10
60.85323516058301
 20
1254.888684421011
 30
0.0
 11
138.6437208391438
 21
842.9489594705227
 31
0.0
  0
LINE
  5
479
330
471
100
AcDbEntity
  8
0
370
    35
100
AcDbLine
 10
138.6437208391438
 20
842.9489594705209
 30
0.0
 11
617.6950161890967
 21
842.9489594705682
 31
0.0
  0
LINE
  5
47A
330
471
100
AcDbEntity
  8
0
370
    35
100
AcDbLine
 10
65.76983758045784
 20
1260.798091175369
 30
0.0
 11
191.7508712969178
 21
1260.798091175369
 31
0.0
  0
ARC
  5
47B
330
471
100
AcDbEntity
  8
0
370
    35
100
AcDbCircle
 10
65.76983758045784
 20
1255.798091175369
 30
0.0
 40
4.999999999999999
100
AcDbArc
 50
90.0
 51
190.4793623872004
  0
LINE
  5
47C
330
471
100
AcDbEntity
  8
0
370
    35
100
AcDbLine
 10
217.8235226320506
 20
1235.069799547555
 30
0.0
 11
195.1824244725688
 21
1259.43463387451
 31
0.0
  0
ARC
  5
47D
330
471
100
AcDbEntity
  8
0
370
    35
100
AcDbCircle
 10
191.7508712969178
 20
1255.798091175369
 30
0.0
 40
4.999999999999999
100
AcDbArc
 50
46.66123145624307
 51
90.0
  0
ARC
  5
47E
330
471
100
AcDbEntity
  8
0
370
    35
100
AcDbCircle
 10
16164.07378489651
 20
764.0173125642868
 30
0.0
 40
15951.30025060118
100
AcDbArc
 50
178.3117769881136
 51
179.7164827554353
  0
LINE
  5
47F
330
471
100
AcDbEntity
  8
0
370
    35
100
AcDbLine
 10
372.0032980505424
 20
1048.25760158795
 30
0.0
 11
672.6377423668203
 21
1048.25760158795
 31
0.0
  0
LINE
  5
480
330
471
100
AcDbEntity
  8
0
370
    35
100
AcDbLine
 10
14.12596683116894
 20
1624.574110617022
 30
0.0
 11
184.4944631544789
 21
1624.574110617022
 31
0.0
  0
ARC
  5
481
330
471
100
AcDbEntity
  8
0
370
    35
100
AcDbCircle
 10
136.0850110806826
 20
1579.823268823244
 30
0.0
 40
65.92505511060963
100
AcDbArc
 50
3.390578722921905
 51
42.75102405474772
  0
ARC
  5
482
330
471
100
AcDbEntity
  8
0
370
    35
100
AcDbCircle
 10
172.6123010072627
 20
1546.903724639416
 30
0.0
 40
176.4953454867487
100
AcDbArc
 50
153.8916238383281
 51
167.9591576237356
  0
LINE
  5
483
330
471
100
AcDbEntity
  8
0
370
    35
100
AcDbLine
 10
0.0000038972214895
 20
1583.722223588744
 30
0.0
 11
201.8946687539577
 21
1583.722223588744
 31
0.0
  0
LINE
  5
484
330
471
100
AcDbEntity
  8
0
370
    35
100
AcDbLine
 10
2.733778402806223
 20
1583.722223588744
 30
0.0
 11
12.34453293499277
 21
1261.120461465487
 31
0.0
  0
LINE
  5
485
330
471
100
AcDbEntity
  8
0
370
    35
100
AcDbLine
 10
12.34453293499277
 20
1261.120461465487
 30
0.0
 11
192.8687189324704
 21
1261.120461465488
 31
0.0
  0
LINE
  5
486
330
471
100
AcDbEntity
  8
0
370
    35
100
AcDbLine
 10
198.447273250364
 20
1583.722223588744
 30
0.0
 11
192.8687189324704
 21
1261.120461465487
 31
0.0
  0
LINE
  5
487
330
471
100
AcDbEntity
  8
0
370
    35
100
AcDbLine
 10
2.176821821747893
 20
365.57954741096
 30
0.0
 11
2.176821821747893
 21
32.51389637142532
 31
0.0
  0
ARC
  5
488
330
471
100
AcDbEntity
  8
0
370
    35
100
AcDbCircle
 10
97.13358415238722
 20
149.5232114776873
 30
0.0
 40
150.6916272855066
100
AcDbArc
 50
230.9395769893662
 51
310.7416846085993
  0
CIRCLE
  5
489
330
471
100
AcDbEntity
  8
0
370
    35
100
AcDbCircle
 10
113.311551998748
 20
199.8323336259437
 30
0.0
 40
29.37854228007564
  0
ARC
  5
48A
330
471
100
AcDbEntity
  8
0
370
    35
100
AcDbCircle
 10
-1320.864496470985
 20
194.8167003858726
 30
0.0
 40
1524.709020902971
100
AcDbArc
 50
353.9965625608881
 51
6.207543385313373
  0
ARC
  5
48B
330
471
100
AcDbEntity
  8
0
370
    35
100
AcDbCircle
 10
448.35448716001
 20
194.2170486240384
 30
0.0
 40
127.7516323296364
100
AcDbArc
 50
177.5977560761246
 51
255.959564671689
  0
ARC
  5
48C
330
471
100
AcDbEntity
  8
0
370
    35
100
AcDbCircle
 10
471.5541225215205
 20
342.9058947296435
 30
0.0
 40
277.9580125312458
100
AcDbArc
 50
258.7571232729894
 51
309.5364022128663
  0
ARC
  5
48D
330
471
100
AcDbEntity
  8
0
370
    35
100
AcDbCircle
 10
598.6141082274447
 20
206.4615146024771
 30
0.0
 40
92.51949084055627
100
AcDbArc
 50
302.6238825733817
 51
342.4865481866892
  0
ARC
  5
48E
330
471
100
AcDbEntity
  8
0
370
    35
100
AcDbCircle
 10
626.1522388661509
 20
202.563951522091
 30
0.0
 40
65.24521748293711
100
AcDbArc
 50
338.4699380050274
 51
357.5293759490599
  0
ARC
  5
48F
330
471
100
AcDbEntity
  8
0
370
    35
100
AcDbCircle
 10
809.4045396904332
 20
199.4191893527823
 30
0.0
 40
398.3394844572585
100
AcDbArc
 50
174.288865180037
 51
185.711134819963
  0
ARC
  5
490
330
471
100
AcDbEntity
  8
0
370
    35
100
AcDbCircle
 10
426.1263926718751
 20
252.4452478235708
 30
0.0
 40
93.58521733456816
100
AcDbArc
 50
261.9631911362343
 51
281.5866474577039
  0
ARC
  5
491
330
471
100
AcDbEntity
  8
0
370
    35
100
AcDbCircle
 10
435.2798234807417
 20
209.3082941856929
 30
0.0
 40
49.48976847067016
100
AcDbArc
 50
281.2360131493879
 51
335.3605107874817
  0
ARC
  5
492
330
471
100
AcDbEntity
  8
0
370
    35
100
AcDbCircle
 10
460.3542150165416
 20
198.4229077165
 30
0.0
 40
22.16728845369287
100
AcDbArc
 50
333.9143800815364
 51
3.353304726148834
  0
CIRCLE
  5
493
330
471
100
AcDbEntity
  8
0
370
    35
100
AcDbCircle
 10
249.224287871621
 20
120.3486658876482
 30
0.0
 40
7.354791558851198
  0
ARC
  5
494
330
471
100
AcDbEntity
  8
0
370
    35
100
AcDbCircle
 10
33.36175591909736
 20
8224.992112616149
 30
0.0
 40
8172.616166939473
100
AcDbArc
 50
271.1496088382292
 51
271.9122857006277
  0
ARC
  5
495
330
471
100
AcDbEntity
  8
0
370
    35
100
AcDbCircle
 10
445.7173505401446
 20
311.0546298810514
 30
0.0
 40
289.9652757630413
100
AcDbArc
 50
241.2117788289877
 51
266.5229260675924
  0
ARC
  5
496
330
471
100
AcDbEntity
  8
0
370
    35
100
AcDbCircle
 10
461.9741403060983
 20
389.892193542104
 30
0.0
 40
369.8208238258552
100
AcDbArc
 50
264.749419369754
 51
290.1681227168195
  0
ARC
  5
497
330
471
100
AcDbEntity
  8
0
370
    35
100
AcDbCircle
 10
475.9552534688013
 20
340.5950694498688
 30
0.0
 40
318.7495268540413
100
AcDbArc
 50
290.8642471758682
 51
318.3396671127445
  0
ARC
  5
498
330
471
100
AcDbEntity
  8
0
370
    35
100
AcDbCircle
 10
576.181100613005
 20
224.9675770889617
 30
0.0
 40
168.1771333295509
100
AcDbArc
 50
325.0884932685018
 51
344.4446973144524
  0
ARC
  5
499
330
471
100
AcDbEntity
  8
0
370
    35
100
AcDbCircle
 10
1829.688228875704
 20
1581.047609839931
 30
0.0
 40
738.7399726035147
100
AcDbArc
 50
177.0231027928112
 51
179.8396850336968
  0
ARC
  5
49A
330
471
100
AcDbEntity
  8
0
370
    35
100
AcDbCircle
 10
1269.491149432477
 20
-882.935272878446
 30
0.0
 40
2508.638769928079
100
AcDbArc
 50
89.04959651079598
 51
94.05843537244575
  0
LINE
  5
49B
330
471
100
AcDbEntity
  8
0
370
    35
100
AcDbLine
 10
1290.709272169377
 20
1583.114619317415
 30
0.0
 11
1090.95114804514
 21
1583.114619317415
 31
0.0
  0
ARC
  5
49C
330
471
100
AcDbEntity
  8
0
370
    35
100
AcDbCircle
 10
11748.4341627546
 20
1794.412086337775
 30
0.0
 40
10655.87428142569
100
AcDbArc
 50
181.1362039634724
 51
182.8322473957555
  0
ARC
  5
49D
330
471
100
AcDbEntity
  8
0
370
    35
100
AcDbCircle
 10
1111.718178711846
 20
1266.78334975449
 30
0.0
 40
6.239998073762667
100
AcDbArc
 50
169.8317956661169
 51
265.4465400828604
  0
LINE
  5
49E
330
471
100
AcDbEntity
  8
0
370
    35
100
AcDbLine
 10
1111.222790027605
 20
1260.563047027766
 30
0.0
 11
1417.969770271666
 21
1260.563047027766
 31
0.0
  0
LINE
  5
49F
330
471
100
AcDbEntity
  8
0
370
    35
100
AcDbLine
 10
1111.222790027609
 20
1260.563047027766
 30
0.0
 11
1111.222790027609
 21
1229.919900190229
 31
0.0
  0
ARC
  5
4A0
330
471
100
AcDbEntity
  8
0
370
    35
100
AcDbCircle
 10
1112.789355653564
 20
1222.708094575732
 30
0.0
 40
7.37999106244168
100
AcDbArc
 50
102.2555318651734
 51
175.0199363137867
  0
ARC
  5
4A1
330
471
100
AcDbEntity
  8
0
370
    35
100
AcDbCircle
 10
1505.233999286778
 20
1225.40598652571
 30
0.0
 40
399.8020679211773
100
AcDbArc
 50
180.2948253294599
 51
205.0493657350803
  0
LINE
  5
4A2
330
471
100
AcDbEntity
  8
0
370
    35
100
AcDbLine
 10
1143.035984505623
 20
1056.130200889843
 30
0.0
 11
1313.905686607672
 21
1056.130200889843
 31
0.0
  0
ARC
  5
4A3
330
471
100
AcDbEntity
  8
0
370
    35
100
AcDbCircle
 10
22558.94499910188
 20
3646.403082848786
 30
0.0
 40
21587.54865432403
100
AcDbArc
 50
186.7235211857158
 51
187.4976828800068
  0
ARC
  5
4A4
330
471
100
AcDbEntity
  8
0
370
    35
100
AcDbCircle
 10
3768.242587848079
 20
1146.615953731759
 30
0.0
 40
2613.340897522081
100
AcDbArc
 50
181.9842371934701
 51
186.9691138383568
  0
LINE
  5
4A5
330
471
100
AcDbEntity
  8
0
370
    35
100
AcDbLine
 10
1290.625783826443
 20
829.5281211423008
 30
0.0
 11
1155.96688032322
 21
829.5281211423008
 31
0.0
  0
LINE
  5
4A6
330
471
100
AcDbEntity
  8
0
370
    35
100
AcDbLine
 10
2.176821821747893
 20
34.08511984092732
 30
0.0
 11
2.176821821747893
 21
367.150770880462
 31
0.0
  0
ARC
  5
4A7
330
471
100
AcDbEntity
  8
0
370
    35
100
AcDbCircle
 10
97.13358415238722
 20
250.1414557742001
 30
0.0
 40
150.6916272855066
100
AcDbArc
 50
49.25831539143458
 51
129.0604230106668
  0
CIRCLE
  5
4A8
330
471
100
AcDbEntity
  8
0
370
    35
100
AcDbCircle
 10
113.311551998748
 20
199.8323336259437
 30
0.0
 40
29.37854228007564
  0
ARC
  5
4A9
330
471
100
AcDbEntity
  8
0
370
    35
100
AcDbCircle
 10
-1320.864496470985
 20
204.8479668660148
 30
0.0
 40
1524.709020902971
100
AcDbArc
 50
353.7924566147385
 51
6.003437439163723
  0
ARC
  5
4AA
330
471
100
AcDbEntity
  8
0
370
    35
100
AcDbCircle
 10
448.35448716001
 20
205.4476186278489
 30
0.0
 40
127.7516323296364
100
AcDbArc
 50
104.0404353283109
 51
182.4022439238754
  0
ARC
  5
4AB
330
471
100
AcDbEntity
  8
0
370
    35
100
AcDbCircle
 10
471.5541225215205
 20
56.75877252224385
 30
0.0
 40
277.9580125312458
100
AcDbArc
 50
50.46359778713367
 51
101.2428767270105
  0
ARC
  5
4AC
330
471
100
AcDbEntity
  8
0
370
    35
100
AcDbCircle
 10
598.6141082274447
 20
193.2031526494102
 30
0.0
 40
92.51949084055627
100
AcDbArc
 50
17.51345181319831
 51
57.37611742659016
  0
ARC
  5
4AD
330
471
100
AcDbEntity
  8
0
370
    35
100
AcDbCircle
 10
626.1522388661509
 20
197.1007157297963
 30
0.0
 40
65.24521748293711
100
AcDbArc
 50
2.470624050940038
 51
21.53006199502116
  0
ARC
  5
4AE
330
471
100
AcDbEntity
  8
0
370
    35
100
AcDbCircle
 10
809.4045396904332
 20
200.245477899105
 30
0.0
 40
398.3394844572585
100
AcDbArc
 50
174.2888651799851
 51
185.7111348200147
  0
ARC
  5
4AF
330
471
100
AcDbEntity
  8
0
370
    35
100
AcDbCircle
 10
426.1263926718751
 20
147.2194194283166
 30
0.0
 40
93.58521733456816
100
AcDbArc
 50
78.41335254229602
 51
98.03680886376572
  0
ARC
  5
4B0
330
471
100
AcDbEntity
  8
0
370
    35
100
AcDbCircle
 10
435.2798234807417
 20
190.3563730661945
 30
0.0
 40
49.48976847067016
100
AcDbArc
 50
24.63948921251841
 51
78.76398685061214
  0
ARC
  5
4B1
330
471
100
AcDbEntity
  8
0
370
    35
100
AcDbCircle
 10
460.3542150165416
 20
201.2417595353873
 30
0.0
 40
22.16728845369287
100
AcDbArc
 50
356.6466952738512
 51
26.08561991846363
  0
CIRCLE
  5
4B2
330
471
100
AcDbEntity
  8
0
370
    35
100
AcDbCircle
 10
249.224287871621
 20
279.3160013642391
 30
0.0
 40
7.354791558851198
  0
ARC
  5
4B3
330
471
100
AcDbEntity
  8
0
370
    35
100
AcDbCircle
 10
33.36175591909736
 20
-7825.32744536426
 30
0.0
 40
8172.616166939473
100
AcDbArc
 50
88.08771429937221
 51
88.85039116177088
  0
ARC
  5
4B4
330
471
100
AcDbEntity
  8
0
370
    35
100
AcDbCircle
 10
445.7173505401446
 20
88.61003737083596
 30
0.0
 40
289.9652757630413
100
AcDbArc
 50
93.47707393240476
 51
118.7882211710122
  0
ARC
  5
4B5
330
471
100
AcDbEntity
  8
0
370
    35
100
AcDbCircle
 10
461.9741403060983
 20
9.772473709783326
 30
0.0
 40
369.8208238258552
100
AcDbArc
 50
69.83187728318052
 51
95.25058063024596
  0
ARC
  5
4B6
330
471
100
AcDbEntity
  8
0
370
    35
100
AcDbCircle
 10
475.9552534688013
 20
59.06959780201853
 30
0.0
 40
318.7495268540413
100
AcDbArc
 50
41.66033288725551
 51
69.13575282413177
  0
ARC
  5
4B7
330
471
100
AcDbEntity
  8
0
370
    35
100
AcDbCircle
 10
576.181100613005
 20
174.6970901629256
 30
0.0
 40
168.1771333295509
100
AcDbArc
 50
15.55530268559803
 51
34.91150673149823
  0
ARC
  5
4B8
330
471
100
AcDbEntity
  8
0
370
    35
100
AcDbCircle
 10
751.7303154630503
 20
1581.047609839931
 30
0.0
 40
738.7399726035147
100
AcDbArc
 50
0.1603149663031507
 51
2.976897207188761
  0
ARC
  5
4B9
330
471
100
AcDbEntity
  8
0
370
    35
100
AcDbCircle
 10
1311.927394906277
 20
-882.935272878446
 30
0.0
 40
2508.638769928079
100
AcDbArc
 50
85.94156462776201
 51
90.95040348920401
  0
LINE
  5
4BA
330
471
100
AcDbEntity
  8
0
370
    35
100
AcDbLine
 10
1290.709272169377
 20
1583.114619317415
 30
0.0
 11
1490.467396293614
 21
1583.114619317415
 31
0.0
  0
ARC
  5
4BB
330
471
100
AcDbEntity
  8
0
370
    35
100
AcDbCircle
 10
-9167.015618415847
 20
1794.412086337775
 30
0.0
 40
10655.87428142569
100
AcDbArc
 50
357.1677526042445
 51
358.8637960365276
  0
ARC
  5
4BC
330
471
100
AcDbEntity
  8
0
370
    35
100
AcDbCircle
 10
1469.700365626908
 20
1266.78334975449
 30
0.0
 40
6.239998073762667
100
AcDbArc
 50
274.5534599169321
 51
10.16820433393436
  0
LINE
  5
4BD
330
471
100
AcDbEntity
  8
0
370
    35
100
AcDbLine
 10
1470.195754311149
 20
1260.563047027766
 30
0.0
 11
1163.448774067088
 21
1260.563047027766
 31
0.0
  0
LINE
  5
4BE
330
471
100
AcDbEntity
  8
0
370
    35
100
AcDbLine
 10
1470.195754311146
 20
1260.563047027766
 30
0.0
 11
1470.195754311146
 21
1229.919900190229
 31
0.0
  0
ARC
  5
4BF
330
471
100
AcDbEntity
  8
0
370
    35
100
AcDbCircle
 10
1468.62918868519
 20
1222.708094575732
 30
0.0
 40
7.37999106244168
100
AcDbArc
 50
4.980063686213194
 51
77.74446813482659
  0
ARC
  5
4C0
330
471
100
AcDbEntity
  8
0
370
    35
100
AcDbCircle
 10
1076.184545051976
 20
1225.40598652571
 30
0.0
 40
399.8020679211773
100
AcDbArc
 50
334.9506342649197
 51
359.7051746705401
  0
LINE
  5
4C1
330
471
100
AcDbEntity
  8
0
370
    35
100
AcDbLine
 10
1438.382559833131
 20
1056.130200889843
 30
0.0
 11
1267.512857731083
 21
1056.130200889843
 31
0.0
  0
ARC
  5
4C2
330
471
100
AcDbEntity
  8
0
370
    35
100
AcDbCircle
 10
-19977.52645476313
 20
3646.403082848786
 30
0.0
 40
21587.54865432403
100
AcDbArc
 50
352.5023171199932
 51
353.276478814336
  0
ARC
  5
4C3
330
471
100
AcDbEntity
  8
0
370
    35
100
AcDbCircle
 10
-1186.824043509324
 20
1146.615953731759
 30
0.0
 40
2613.340897522081
100
AcDbArc
 50
353.0308861616431
 51
358.015762806582
  0
LINE
  5
4C4
330
471
100
AcDbEntity
  8
0
370
    35
100
AcDbLine
 10
1290.792760512311
 20
829.5281211423008
 30
0.0
 11
1425.451664015534
 21
829.5281211423008
 31
0.0
  0
LINE
  5
4C5
330
471
100
AcDbEntity
  8
0
370
    35
100
AcDbLine
 10
1111.222790027609
 20
1229.919900190229
 30
0.0
 11
1470.195754311146
 21
1229.919900190229
 31
0.0
  0
ARC
  5
4C6
330
471
100
AcDbEntity
  8
0
370
    35
100
AcDbCircle
 10
669.119149899678
 20
199.8323336259482
 30
0.0
 40
71.9062261782065
100
AcDbArc
 50
343.8801839591862
 51
16.11981604091377
  0
ENDBLK
  5
4C9
330
471
100
AcDbEntity
  8
0
100
AcDbBlockEnd
  0
ENDSEC
  0
SECTION
  2
ENTITIES
  0
LINE
  5
502
330
1F
100
AcDbEntity
  8
0
370
    35
100
AcDbLine
 10
1210.380262823821
 20
1953.151856838446
 30
0.0
 11
1719.755253966347
 21
1953.151856838446
 31
0.0
  0
ARC
  5
503
330
1F
100
AcDbEntity
  8
0
370
    35
100
AcDbCircle
 10
1210.380262823821
 20
1958.151856838446
 30
0.0
 40
4.999999999999999
100
AcDbArc
 50
226.6612314562433
 51
270.0
  0
ARC
  5
504
330
1F
100
AcDbEntity
  8
0
370
    35
100
AcDbCircle
 10
1304.445687632628
 20
1995.783707480728
 30
0.0
 40
423.0272267415036
100
AcDbArc
 50
327.3733272161624
 51
353.4272921167659
  0
ARC
  5
505
330
1F
100
AcDbEntity
  8
0
370
    35
100
AcDbCircle
 10
1719.755253966347
 20
1948.151856838448
 30
0.0
 40
4.999999999999999
100
AcDbArc
 50
350.9147464328399
 51
90.0
  0
ARC
  5
506
330
1F
100
AcDbEntity
  8
0
370
    35
100
AcDbCircle
 10
1589.816943559234
 20
1950.548788603839
 30
0.0
 40
292.7984818470625
100
AcDbArc
 50
179.4906162510536
 51
218.6437495185638
  0
ARC
  5
507
330
1F
100
AcDbEntity
  8
0
370
    35
100
AcDbCircle
 10
47.20181571948194
 20
1889.30904364252
 30
0.0
 40
1593.512676569365
100
AcDbArc
 50
348.1615199596068
 51
355.6233250831343
  0
LINE
  5
508
330
1F
100
AcDbEntity
  8
0
370
    35
100
AcDbLine
 10
1049.978422176702
 20
1974.334199012761
 30
0.0
 11
1127.768907855263
 21
1562.394474062273
 31
0.0
  0
LINE
  5
509
330
1F
100
AcDbEntity
  8
0
370
    35
100
AcDbLine
 10
1127.768907855263
 20
1562.394474062271
 30
0.0
 11
1606.820203205216
 21
1562.394474062318
 31
0.0
  0
LINE
  5
50A
330
1F
100
AcDbEntity
  8
0
370
    35
100
AcDbLine
 10
1054.895024596577
 20
1980.243605767119
 30
0.0
 11
1180.876058313037
 21
1980.243605767119
 31
0.0
  0
ARC
  5
50B
330
1F
100
AcDbEntity
  8
0
370
    35
100
AcDbCircle
 10
1054.895024596577
 20
1975.243605767119
 30
0.0
 40
4.999999999999999
100
AcDbArc
 50
90.0
 51
190.4793623871974
  0
LINE
  5
50C
330
1F
100
AcDbEntity
  8
0
370
    35
100
AcDbLine
 10
1206.94870964817
 20
1954.515314139306
 30
0.0
 11
1184.307611488688
 21
1978.88014846626
 31
0.0
  0
ARC
  5
50D
330
1F
100
AcDbEntity
  8
0
370
    35
100
AcDbCircle
 10
1180.876058313037
 20
1975.243605767119
 30
0.0
 40
4.999999999999999
100
AcDbArc
 50
46.66123145624328
 51
90.0
  0
ARC
  5
50E
330
1F
100
AcDbEntity
  8
0
370
    35
100
AcDbCircle
 10
17153.19897191263
 20
1483.462827156037
 30
0.0
 40
15951.30025060118
100
AcDbArc
 50
178.3117769881136
 51
179.7164827554351
  0
LINE
  5
50F
330
1F
100
AcDbEntity
  8
0
370
    35
100
AcDbLine
 10
1361.128485066662
 20
1767.7031161797
 30
0.0
 11
1661.76292938294
 21
1767.7031161797
 31
0.0
  0
LINE
  5
510
330
1F
100
AcDbEntity
  8
0
370
    35
100
AcDbLine
 10
1003.251153847288
 20
2344.019625208773
 30
0.0
 11
1173.619650170598
 21
2344.019625208773
 31
0.0
  0
ARC
  5
511
330
1F
100
AcDbEntity
  8
0
370
    35
100
AcDbCircle
 10
1125.210198096802
 20
2299.268783414995
 30
0.0
 40
65.92505511060963
100
AcDbArc
 50
3.390578722919593
 51
42.75102405474622
  0
ARC
  5
512
330
1F
100
AcDbEntity
  8
0
370
    35
100
AcDbCircle
 10
1161.737488023382
 20
2266.349239231166
 30
0.0
 40
176.4953454867487
100
AcDbArc
 50
153.8916238383286
 51
167.9591576237387
  0
LINE
  5
513
330
1F
100
AcDbEntity
  8
0
370
    35
100
AcDbLine
 10
989.125190913341
 20
2303.167738180494
 30
0.0
 11
1191.019855770077
 21
2303.167738180494
 31
0.0
  0
LINE
  5
514
330
1F
100
AcDbEntity
  8
0
370
    35
100
AcDbLine
 10
991.8589654189258
 20
2303.167738180494
 30
0.0
 11
1001.469719951112
 21
1980.565976057237
 31
0.0
  0
LINE
  5
515
330
1F
100
AcDbEntity
  8
0
370
    35
100
AcDbLine
 10
1001.469719951112
 20
1980.565976057237
 30
0.0
 11
1181.99390594859
 21
1980.565976057238
 31
0.0
  0
LINE
  5
516
330
1F
100
AcDbEntity
  8
0
370
    35
100
AcDbLine
 10
1187.572460266483
 20
2303.167738180494
 30
0.0
 11
1181.99390594859
 21
1980.565976057237
 31
0.0
  0
LINE
  5
783
330
1F
100
AcDbEntity
  8
0
  6
Continuous
100
AcDbLine
 10
1716.410479727145
 20
1963.271926220053
 30
0.0
 11
1716.375651933567
 21
1962.921060657943
 31
0.0
  0
LINE
  5
784
330
1F
100
AcDbEntity
  8
0
  6
Continuous
100
AcDbLine
 10
1716.41048053624
 20
1963.718115458596
 30
0.0
 11
1716.410480595723
 21
1963.271926124886
 31
0.0
  0
LINE
  5
785
330
1F
100
AcDbEntity
  8
0
  6
Continuous
100
AcDbLine
 10
1726.886119809373
 20
1971.014281653224
 30
0.0
 11
1724.284502761131
 21
2000.750900602562
 31
0.0
  0
LINE
  5
786
330
1F
100
AcDbEntity
  8
0
  6
Continuous
100
AcDbLine
 10
1727.108897708401
 20
1968.467918674519
 30
0.0
 11
1726.886119809373
 21
1971.014281653224
 31
0.0
  0
LINE
  5
787
330
1F
100
AcDbEntity
  8
0
  6
Continuous
100
AcDbLine
 10
1724.284502761131
 20
2000.750900602562
 30
0.0
 11
1723.751446693937
 21
2006.843759375167
 31
0.0
  0
LINE
  5
788
330
1F
100
AcDbEntity
  8
0
  6
Continuous
100
AcDbLine
 10
1715.137650909385
 20
1968.467918674519
 30
0.0
 11
1716.410312803066
 21
1963.718119920595
 31
0.0
  0
LWPOLYLINE
  5
789
330
1F
100
AcDbEntity
  8
0
  6
Continuous
100
AcDbPolyline
 90
        4
 70
     0
 43
0.0
 10
1197.286799537273
 20
1998.913565956172
 10
1197.820075096117
 20
2000.074244534494
 10
1198.222986451618
 20
2001.28341676334
 10
1198.491496608971
 20
2002.527473410773
  0
LINE
  5
798
330
1F
100
AcDbEntity
  8
0
  6
Continuous
100
AcDbLine
 10
1197.224513298814
 20
1998.797095561347
 30
0.0
 11
1197.286799537273
 21
1998.913565956172
 31
0.0
  0
LINE
  5
799
330
1F
100
AcDbEntity
  8
0
  6
Continuous
100
AcDbLine
 10
1191.073531251979
 20
1990.383460374062
 30
0.0
 11
1191.214187159128
 21
1990.52961586365
 31
0.0
  0
LINE
  5
79A
330
1F
100
AcDbEntity
  8
0
  6
Continuous
100
AcDbLine
 10
1626.639312309588
 20
1954.787295412693
 30
0.0
 11
1626.74873530544
 21
1956.875210579126
 31
0.0
  0
LINE
  5
79B
330
1F
100
AcDbEntity
  8
0
  6
Continuous
100
AcDbLine
 10
1190.679945751366
 20
1989.982310317978
 30
0.0
 11
1190.867394180324
 21
1990.172075813501
 31
0.0
  0
LINE
  5
79C
330
1F
100
AcDbEntity
  8
0
  6
Continuous
100
AcDbLine
 10
1190.867394180324
 20
1990.172075813501
 30
0.0
 11
1191.073531251979
 21
1990.383460374062
 31
0.0
  0
LINE
  5
79D
330
1F
100
AcDbEntity
  8
0
  6
Continuous
100
AcDbLine
 10
1217.991702815128
 20
1968.467918674519
 30
0.0
 11
1215.819920099068
 21
1965.36629152829
 31
0.0
  0
LINE
  5
7A1
330
1F
100
AcDbEntity
  8
0
  6
Continuous
100
AcDbLine
 10
1595.471868176104
 20
1954.787295388874
 30
0.0
 11
1595.120743619334
 21
1961.487150942041
 31
0.0
  0
LINE
  5
7A2
330
1F
100
AcDbEntity
  8
0
  6
Continuous
100
AcDbLine
 10
1187.54997679167
 20
1978.677755127732
 30
0.0
 11
1187.642153290752
 21
1978.71499685348
 31
0.0
  0
LINE
  5
7A4
330
1F
100
AcDbEntity
  8
0
  6
Continuous
100
AcDbLine
 10
1343.702190027614
 20
1958.287400877975
 30
0.0
 11
1343.705498132227
 21
1958.292055988062
 31
0.0
  0
LINE
  5
7A5
330
1F
100
AcDbEntity
  8
0
  6
Continuous
100
AcDbLine
 10
1343.705498132227
 20
1958.292055988062
 30
0.0
 11
1343.712098040449
 21
1958.301971449409
 31
0.0
  0
LINE
  5
7A6
330
1F
100
AcDbEntity
  8
0
  6
Continuous
100
AcDbLine
 10
1343.705650004715
 20
1958.29195598118
 30
0.0
 11
1343.703243354357
 21
1958.288217829092
 31
0.0
  0
LWPOLYLINE
  5
7A7
330
1F
100
AcDbEntity
  8
0
  6
Continuous
100
AcDbPolyline
 90
        6
 70
     0
 43
0.0
 10
1343.703243354357
 20
1958.288217829092
 10
1343.677946522032
 20
1958.243956903721
 10
1343.592679530191
 20
1958.064476222806
 10
1343.483256772304
 20
1957.760316466231
 10
1343.37977604264
 20
1957.335033513078
 10
1343.335627486796
 20
1957.042809523826
  0
LINE
  5
7A8
330
1F
100
AcDbEntity
  8
0
  6
Continuous
100
AcDbLine
 10
1337.352412736548
 20
1961.034487205411
 30
0.0
 11
1337.155093263376
 21
1960.903355536881
 31
0.0
  0
LINE
  5
7A9
330
1F
100
AcDbEntity
  8
0
  6
Continuous
100
AcDbLine
 10
1337.155093263376
 20
1960.903355536881
 30
0.0
 11
1337.155847723535
 21
1960.903907579767
 31
0.0
  0
LINE
  5
7AA
330
1F
100
AcDbEntity
  8
0
  6
Continuous
100
AcDbLine
 10
1688.236649145301
 20
2010.79460650509
 30
0.0
 11
1723.751446693937
 21
2006.843759375167
 31
0.0
  0
LWPOLYLINE
  5
7AB
330
1F
100
AcDbEntity
  8
0
  6
Continuous
100
AcDbPolyline
 90
        8
 70
     0
 43
0.0
 10
1396.163249007359
 20
2015.167051979318
 10
1442.303830338837
 20
2015.65571942651
 10
1486.794155861633
 20
2015.931136342518
 10
1529.743331738263
 20
2015.985072022459
 10
1571.256175423708
 20
2015.743987267971
 10
1611.440837012074
 20
2014.982792705653
 10
1650.400583940531
 20
2013.45183805232
 10
1688.236649145301
 20
2010.79460650509
  0
LWPOLYLINE
  5
7AC
330
1F
100
AcDbEntity
  8
0
  6
Continuous
100
AcDbPolyline
 90
        5
 70
     0
 43
0.0
 10
1194.064636230735
 20
2012.672261757316
 10
1246.678578112637
 20
2013.284357247884
 10
1298.48959895912
 20
2013.878697283308
 10
1348.262487028266
 20
2014.527848466584
 10
1396.163249007359
 20
2015.167051979318
  0
LINE
  5
7AD
330
1F
100
AcDbEntity
  8
0
  6
Continuous
100
AcDbLine
 10
1186.326474245855
 20
1981.636535828939
 30
0.0
 11
1187.146033467218
 21
1981.737165047104
 31
0.0
  0
LINE
  5
7AE
330
1F
100
AcDbEntity
  8
0
  6
Continuous
100
AcDbLine
 10
1187.502840200885
 20
1978.831207468371
 30
0.0
 11
1186.683280967611
 21
1978.730578250196
 31
0.0
  0
LINE
  5
7B1
330
1F
100
AcDbEntity
  8
0
  6
Continuous
100
AcDbLine
 10
1187.26359162303
 20
1981.819349410954
 30
0.0
 11
1188.434703949512
 21
1981.819349410954
 31
0.0
  0
LINE
  5
7B2
330
1F
100
AcDbEntity
  8
0
  6
Continuous
100
AcDbLine
 10
1187.26359162303
 20
1981.609856676378
 30
0.0
 11
1188.434703949512
 21
1981.620331593265
 31
0.0
  0
LWPOLYLINE
  5
7B4
330
1F
100
AcDbEntity
  8
0
  6
Continuous
100
AcDbPolyline
 90
        4
 70
     0
 43
0.0
 10
1338.574171545087
 20
1961.452036858666
 10
1338.130439109033
 20
1961.362057679578
 10
1337.727389254959
 20
1961.224053448637
 10
1337.352412736548
 20
1961.034487205411
  0
LWPOLYLINE
  5
7B5
330
1F
100
AcDbEntity
  8
0
  6
Continuous
100
AcDbPolyline
 90
        8
 70
     0
 43
0.0
 10
1344.932409455842
 20
1959.497682427911
 10
1344.981667751667
 20
1959.516624782338
 10
1345.001984632843
 20
1959.524570732364
 10
1344.880338354297
 20
1959.454540758908
 10
1344.638279850225
 20
1959.283979444381
 10
1344.304167889464
 20
1958.992742911741
 10
1343.912255318082
 20
1958.563955088453
 10
1343.702148418587
 20
1958.287346097295
  0
LINE
  5
7B7
330
1F
100
AcDbEntity
  8
0
  6
Continuous
100
AcDbLine
 10
1201.087205016165
 20
1968.467918674519
 30
0.0
 11
1727.108897708401
 21
1968.467918674519
 31
0.0
  0
LINE
  5
7B8
330
1F
100
AcDbEntity
  8
0
  6
Continuous
100
AcDbLine
 10
1216.413520606935
 20
1963.718120027662
 30
0.0
 11
1716.410479334485
 21
1963.718119920595
 31
0.0
  0
LINE
  5
7B9
330
1F
100
AcDbEntity
  8
0
  6
Continuous
100
AcDbLine
 10
1714.625539167054
 20
1961.487150942041
 30
0.0
 11
1631.428808152156
 21
1961.487152191417
 31
0.0
  0
LINE
  5
7BA
330
1F
100
AcDbEntity
  8
0
  6
Continuous
100
AcDbLine
 10
1624.077911231695
 20
1961.487150942041
 30
0.0
 11
1333.810861257678
 21
1961.487150942041
 31
0.0
  0
LINE
  5
7BB
330
1F
100
AcDbEntity
  8
0
  6
Continuous
100
AcDbLine
 10
1318.274984623046
 20
1961.487150942041
 30
0.0
 11
1224.289308973947
 21
1961.487150942041
 31
0.0
  0
LWPOLYLINE
  5
7BC
330
1F
100
AcDbEntity
  8
0
  6
Continuous
100
AcDbPolyline
 90
        3
 70
     0
 43
0.0
 10
1631.605297407083
 20
1961.487149692739
 10
1631.433276063166
 20
1961.485553104263
 10
1631.216050659234
 20
1961.478940476483
  0
LINE
  5
7BD
330
1F
100
AcDbEntity
  8
0
  6
Continuous
100
AcDbLine
 10
1339.089936484215
 20
1961.487141589842
 30
0.0
 11
1338.574171545087
 21
1961.452036858666
 31
0.0
  0
LINE
  5
7C0
330
1F
100
AcDbEntity
  8
0
  6
Continuous
100
AcDbLine
 10
1317.461157004903
 20
1961.405280365468
 30
0.0
 11
1316.378337625736
 21
1961.487141470855
 31
0.0
  0
LINE
  5
7C2
330
1F
100
AcDbEntity
  8
0
  6
Continuous
100
AcDbLine
 10
1333.230020357456
 20
1955.962846808215
 30
0.0
 11
1330.345960304425
 21
1955.962846772495
 31
0.0
  0
LINE
  5
7C3
330
1F
100
AcDbEntity
  8
0
  6
Continuous
100
AcDbLine
 10
1324.441278791546
 20
1955.962846784396
 30
0.0
 11
1323.526238428993
 21
1955.962846808215
 31
0.0
  0
LINE
  5
7C4
330
1F
100
AcDbEntity
  8
0
  6
Continuous
100
AcDbLine
 10
1340.332339061476
 20
1953.753125149884
 30
0.0
 11
1326.196647578208
 21
1953.753125149884
 31
0.0
  0
LINE
  5
7C6
330
1F
100
AcDbEntity
  8
0
  6
Continuous
100
AcDbLine
 10
1623.669256874158
 20
1951.968349967077
 30
0.0
 11
1598.441923599625
 21
1951.968349967077
 31
0.0
  0
LINE
  5
7CC
330
1F
100
AcDbEntity
  8
0
  6
Continuous
100
AcDbLine
 10
1631.428808152156
 20
1961.487152191417
 30
0.0
 11
1631.202396224747
 21
1961.482268737125
 31
0.0
  0
LWPOLYLINE
  5
7CD
330
1F
100
AcDbEntity
  8
0
  6
Continuous
100
AcDbPolyline
 90
        3
 70
     0
 43
0.0
 10
1631.216050659234
 20
1961.478940476483
 10
1631.001181396467
 20
1961.467272306446
 10
1630.788748078182
 20
1961.450621936492
  0
LINE
  5
7CE
330
1F
100
AcDbEntity
  8
0
  6
Continuous
100
AcDbLine
 10
1631.202396224747
 20
1961.482268737125
 30
0.0
 11
1630.62370674016
 21
1961.425943350323
 31
0.0
  0
LINE
  5
7D5
330
1F
100
AcDbEntity
  8
0
  6
Continuous
100
AcDbLine
 10
1630.62370674016
 20
1961.425943350323
 30
0.0
 11
1630.03438470723
 21
1961.296286191602
 31
0.0
  0
LINE
  5
7D6
330
1F
100
AcDbEntity
  8
0
  6
Continuous
100
AcDbLine
 10
1318.412921805951
 20
1961.196677329475
 30
0.0
 11
1317.461157004903
 21
1961.405280365468
 31
0.0
  0
LWPOLYLINE
  5
7D7
330
1F
100
AcDbEntity
  8
0
  6
Continuous
100
AcDbPolyline
 90
        3
 70
     0
 43
0.0
 10
1223.613034871565
 20
1961.117725312449
 10
1223.146696687227
 20
1961.21737328499
 10
1222.753931885678
 20
1961.309425028287
  0
LINE
  5
7DC
330
1F
100
AcDbEntity
  8
0
  6
Continuous
100
AcDbLine
 10
1224.124336563926
 20
1961.020356307449
 30
0.0
 11
1223.613034871565
 21
1961.117725312449
 31
0.0
  0
LINE
  5
7DE
330
1F
100
AcDbEntity
  8
0
  6
Continuous
100
AcDbLine
 10
1224.256285849871
 20
1960.997227893666
 30
0.0
 11
1224.124336563926
 21
1961.020356307449
 31
0.0
  0
LINE
  5
7DF
330
1F
100
AcDbEntity
  8
0
  6
Continuous
100
AcDbLine
 10
1226.109566534451
 20
1960.68314203856
 30
0.0
 11
1224.261839415835
 21
1960.996086732231
 31
0.0
  0
LWPOLYLINE
  5
7E2
330
1F
100
AcDbEntity
  8
0
  6
Continuous
100
AcDbPolyline
 90
        4
 70
     0
 43
0.0
 10
1630.03438470723
 20
1961.296286191602
 10
1629.46258894051
 20
1961.087913058389
 10
1628.920844016615
 20
1960.798073231351
 10
1628.425450441932
 20
1960.43175607333
  0
LINE
  5
7E3
330
1F
100
AcDbEntity
  8
0
  6
Continuous
100
AcDbLine
 10
1218.656969316573
 20
1962.209830555666
 30
0.0
 11
1216.168902533004
 21
1962.859000395807
 31
0.0
  0
LINE
  5
7E5
330
1F
100
AcDbEntity
  8
0
  6
Continuous
100
AcDbLine
 10
1343.334919906709
 20
1957.036753960104
 30
0.0
 11
1343.335609746113
 21
1957.042700878587
 31
0.0
  0
LWPOLYLINE
  5
7E6
330
1F
100
AcDbEntity
  8
0
  6
Continuous
100
AcDbPolyline
 90
        4
 70
     0
 43
0.0
 10
1343.334919906709
 20
1957.036753960104
 10
1343.331119572974
 20
1957.002328276379
 10
1343.319429985669
 20
1956.865618911739
 10
1343.316369667354
 20
1956.814025011491
  0
LINE
  5
7E7
330
1F
100
AcDbEntity
  8
0
  6
Continuous
100
AcDbLine
 10
1343.303745500344
 20
1956.572070595537
 30
0.0
 11
1343.315095159407
 21
1956.788634847337
 31
0.0
  0
LINE
  5
7E8
330
1F
100
AcDbEntity
  8
0
  6
Continuous
100
AcDbLine
 10
1343.316574369158
 20
1956.816860269644
 30
0.0
 11
1343.31711584618
 21
1956.827426995428
 31
0.0
  0
LINE
  5
7EA
330
1F
100
AcDbEntity
  8
0
  6
Continuous
100
AcDbLine
 10
1215.576952882656
 20
1963.432928064535
 30
0.0
 11
1214.288352851432
 21
1963.913268107651
 31
0.0
  0
LINE
  5
7EB
330
1F
100
AcDbEntity
  8
0
  6
Continuous
100
AcDbLine
 10
1214.288352851432
 20
1963.913268107651
 30
0.0
 11
1212.872843656042
 21
1964.43473478483
 31
0.0
  0
LINE
  5
7EC
330
1F
100
AcDbEntity
  8
0
  6
Continuous
100
AcDbLine
 10
1212.872843656042
 20
1964.43473478483
 30
0.0
 11
1211.545636117632
 21
1964.917933918752
 31
0.0
  0
LINE
  5
7ED
330
1F
100
AcDbEntity
  8
0
  6
Continuous
100
AcDbLine
 10
1211.545636117632
 20
1964.917933918752
 30
0.0
 11
1210.457769203848
 21
1965.308338069516
 31
0.0
  0
LINE
  5
7EE
330
1F
100
AcDbEntity
  8
0
  6
Continuous
100
AcDbLine
 10
1201.125159866741
 20
1968.576088972399
 30
0.0
 11
1195.719099254269
 21
1970.476285530588
 31
0.0
  0
LINE
  5
7EF
330
1F
100
AcDbEntity
  8
0
  6
Continuous
100
AcDbLine
 10
1210.457769203848
 20
1965.308338069516
 30
0.0
 11
1209.413416953311
 21
1965.676689788039
 31
0.0
  0
LINE
  5
7F0
330
1F
100
AcDbEntity
  8
0
  6
Continuous
100
AcDbLine
 10
1209.413412753134
 20
1965.676691251578
 30
0.0
 11
1201.433442275498
 21
1968.467918674519
 31
0.0
  0
LWPOLYLINE
  5
7F1
330
1F
100
AcDbEntity
  8
0
  6
Continuous
100
AcDbPolyline
 90
        4
 70
     0
 43
0.0
 10
1323.25070356314
 20
1956.309584732655
 10
1323.242832978241
 20
1956.361849529859
 10
1323.221131516035
 20
1956.482423693948
 10
1323.196218588862
 20
1956.594631343686
  0
LINE
  5
7F2
330
1F
100
AcDbEntity
  8
0
  6
Continuous
100
AcDbLine
 10
1323.196218588862
 20
1956.594631343686
 30
0.0
 11
1323.16881331833
 21
1956.698274261784
 31
0.0
  0
LINE
  5
7F3
330
1F
100
AcDbEntity
  8
0
  6
Continuous
100
AcDbLine
 10
1323.170070930406
 20
1956.693874600622
 30
0.0
 11
1323.168676330868
 21
1956.698752914708
 31
0.0
  0
LINE
  5
7F4
330
1F
100
AcDbEntity
  8
0
  6
Continuous
100
AcDbLine
 10
1323.170240912393
 20
1956.694175751655
 30
0.0
 11
1323.156417388374
 21
1956.741617741291
 31
0.0
  0
LINE
  5
7F5
330
1F
100
AcDbEntity
  8
0
  6
Continuous
100
AcDbLine
 10
1323.156417388374
 20
1956.741617741291
 30
0.0
 11
1323.062990880329
 21
1957.020094095154
 31
0.0
  0
LINE
  5
7F6
330
1F
100
AcDbEntity
  8
0
  6
Continuous
100
AcDbLine
 10
1323.062990880329
 20
1957.020094095154
 30
0.0
 11
1322.907564173794
 21
1957.395813984264
 31
0.0
  0
LWPOLYLINE
  5
7F7
330
1F
100
AcDbEntity
  8
0
  6
Continuous
100
AcDbPolyline
 90
        9
 70
     0
 43
0.0
 10
1322.907564173794
 20
1957.395813984264
 10
1322.676453932868
 20
1957.851303579301
 10
1322.357519378962
 20
1958.364881347821
 10
1321.942960759071
 20
1958.90978496685
 10
1321.429412463098
 20
1959.458138722918
 10
1320.814029642734
 20
1959.985944445561
 10
1320.101616067868
 20
1960.466514974536
 10
1319.296302838769
 20
1960.877948560161
 10
1318.412921805951
 20
1961.196677329475
  0
LINE
  5
7F8
330
1F
100
AcDbEntity
  8
0
  6
Continuous
100
AcDbLine
 10
1198.524848476757
 20
2002.852526269175
 30
0.0
 11
1198.204792584315
 21
2003.091771693872
 31
0.0
  0
LINE
  5
7F9
330
1F
100
AcDbEntity
  8
0
  6
Continuous
100
AcDbLine
 10
1198.204792584315
 20
2003.091771693872
 30
0.0
 11
1194.910969090667
 21
2005.554990182961
 31
0.0
  0
LINE
  5
7FA
330
1F
100
AcDbEntity
  8
0
  6
Continuous
100
AcDbLine
 10
1628.425450441932
 20
1960.43175607333
 30
0.0
 11
1627.983088974964
 21
1959.993527693522
 31
0.0
  0
LWPOLYLINE
  5
7FD
330
1F
100
AcDbEntity
  8
0
  6
Continuous
100
AcDbPolyline
 90
        7
 70
     0
 43
0.0
 10
1627.983088974964
 20
1959.993527693522
 10
1627.602311021027
 20
1959.493798388222
 10
1627.287752724022
 20
1958.94347977325
 10
1627.0428612582
 20
1958.355688232641
 10
1626.872447009169
 20
1957.757781371591
 10
1626.775350777272
 20
1957.186678430826
 10
1626.748679846552
 20
1956.874282543663
  0
LINE
  5
7FE
330
1F
100
AcDbEntity
  8
0
  6
Continuous
100
AcDbLine
 10
1191.624614821703
 20
1972.626375398941
 30
0.0
 11
1190.733922576315
 21
1973.383629332322
 31
0.0
  0
LINE
  5
7FF
330
1F
100
AcDbEntity
  8
0
  6
Continuous
100
AcDbLine
 10
1190.933142537593
 20
1973.193462190972
 30
0.0
 11
1190.735684304103
 21
1973.381848079082
 31
0.0
  0
LWPOLYLINE
  5
812
330
1F
100
AcDbEntity
  8
0
  6
Continuous
100
AcDbPolyline
 90
        5
 70
     0
 43
0.0
 10
1200.864310035917
 20
1969.983444017805
 10
1200.745352116587
 20
1970.300454643523
 10
1200.660389202857
 20
1970.60899939044
 10
1200.595322415522
 20
1970.923981095588
 10
1200.541641768025
 20
1971.263287025832
  0
LINE
  5
831
330
1F
100
AcDbEntity
  8
0
  6
Continuous
100
AcDbLine
 10
1186.64251011065
 20
1978.913929799135
 30
0.0
 11
1186.986758571174
 21
1981.71760855153
 31
0.0
  0
LINE
  5
834
330
1F
100
AcDbEntity
  8
0
  6
Continuous
100
AcDbLine
 10
1198.491496608971
 20
2002.527473410773
 30
0.0
 11
1198.624687194156
 21
2003.82557112315
 31
0.0
  0
LINE
  5
83A
330
1F
100
AcDbEntity
  8
0
  6
Continuous
100
AcDbLine
 10
1187.376014814066
 20
1983.911661727962
 30
0.0
 11
1187.388867313334
 21
1984.099628193917
 31
0.0
  0
LINE
  5
83B
330
1F
100
AcDbEntity
  8
0
  6
Continuous
100
AcDbLine
 10
1187.364838159225
 20
1983.733118375265
 30
0.0
 11
1187.376014814066
 21
1983.911661727962
 31
0.0
  0
LINE
  5
83C
330
1F
100
AcDbEntity
  8
0
  6
Continuous
100
AcDbLine
 10
1187.355117964217
 20
1983.563230551629
 30
0.0
 11
1187.364838159225
 21
1983.733118375265
 31
0.0
  0
LINE
  5
83D
330
1F
100
AcDbEntity
  8
0
  6
Continuous
100
AcDbLine
 10
1187.346633214418
 20
1983.400482578297
 30
0.0
 11
1187.355117964217
 21
1983.563230551629
 31
0.0
  0
LINE
  5
83E
330
1F
100
AcDbEntity
  8
0
  6
Continuous
100
AcDbLine
 10
1187.339281201879
 20
1983.245016249747
 30
0.0
 11
1187.346633214418
 21
1983.400482578297
 31
0.0
  0
LINE
  5
83F
330
1F
100
AcDbEntity
  8
0
  6
Continuous
100
AcDbLine
 10
1198.624905888631
 20
2003.827225788226
 30
0.0
 11
1198.625088518688
 21
2003.831280892622
 31
0.0
  0
LINE
  5
840
330
1F
100
AcDbEntity
  8
0
  6
Continuous
100
AcDbLine
 10
1187.332975781555
 20
1983.097190032083
 30
0.0
 11
1187.339281201879
 21
1983.245016249747
 31
0.0
  0
LINE
  5
841
330
1F
100
AcDbEntity
  8
0
  6
Continuous
100
AcDbLine
 10
1187.326064703662
 20
1982.912975794225
 30
0.0
 11
1187.332975781555
 21
1983.097190032083
 31
0.0
  0
LINE
  5
842
330
1F
100
AcDbEntity
  8
0
  6
Continuous
100
AcDbLine
 10
1187.320487745291
 20
1982.737765295009
 30
0.0
 11
1187.326064703662
 21
1982.912975794225
 31
0.0
  0
LINE
  5
843
330
1F
100
AcDbEntity
  8
0
  6
Continuous
100
AcDbLine
 10
1187.31596927755
 20
1982.56473317342
 30
0.0
 11
1187.320487745291
 21
1982.737765295009
 31
0.0
  0
LINE
  5
844
330
1F
100
AcDbEntity
  8
0
  6
Continuous
100
AcDbLine
 10
1187.314382410162
 20
1982.492410799029
 30
0.0
 11
1187.31596927755
 21
1982.56473317342
 31
0.0
  0
LINE
  5
845
330
1F
100
AcDbEntity
  8
0
  6
Continuous
100
AcDbLine
 10
1193.984709524191
 20
2008.125843430224
 30
0.0
 11
1193.973270816774
 21
2007.470520684689
 31
0.0
  0
LINE
  5
846
330
1F
100
AcDbEntity
  8
0
  6
Continuous
100
AcDbLine
 10
1186.674478979949
 20
1979.174295408579
 30
0.0
 11
1186.667938242955
 21
1978.799576385663
 31
0.0
  0
LINE
  5
847
330
1F
100
AcDbEntity
  8
0
  6
Continuous
100
AcDbLine
 10
1195.605977169077
 20
1970.376238839231
 30
0.0
 11
1195.607075448337
 21
1970.502089512719
 31
0.0
  0
LINE
  5
848
330
1F
100
AcDbEntity
  8
0
  6
Continuous
100
AcDbLine
 10
1193.978990283532
 20
2008.09283270439
 30
0.0
 11
1193.978990283532
 21
2007.798188619515
 31
0.0
  0
LINE
  5
849
330
1F
100
AcDbEntity
  8
0
  6
Continuous
100
AcDbLine
 10
1187.26359162303
 20
1981.60985660494
 30
0.0
 11
1187.26359162303
 21
1981.819349422864
 31
0.0
  0
LINE
  5
84A
330
1F
100
AcDbEntity
  8
0
  6
Continuous
100
AcDbLine
 10
1200.342192546445
 20
1974.628757261251
 30
0.0
 11
1200.150383745125
 21
1988.159493532645
 31
0.0
  0
LWPOLYLINE
  5
84C
330
1F
100
AcDbEntity
  8
0
  6
Continuous
100
AcDbPolyline
 90
        5
 70
     0
 43
0.0
 10
1200.420481019692
 20
1972.521695633489
 10
1200.391496044698
 20
1973.029096747269
 10
1200.368155361667
 20
1973.58233557578
 10
1200.350918538356
 20
1974.176753879579
 10
1200.342455515228
 20
1974.628847975462
  0
LWPOLYLINE
  5
84E
330
1F
100
AcDbEntity
  8
0
  6
Continuous
100
AcDbPolyline
 90
        3
 70
     0
 43
0.0
 10
1200.49527987676
 20
1971.640366782835
 10
1200.455014087409
 20
1972.059412220426
 10
1200.420481019692
 20
1972.521695633489
  0
LINE
  5
850
330
1F
100
AcDbEntity
  8
0
  6
Continuous
100
AcDbLine
 10
1200.541641768025
 20
1971.263287025832
 30
0.0
 11
1200.49527987676
 21
1971.640366782835
 31
0.0
  0
LWPOLYLINE
  5
853
330
1F
100
AcDbEntity
  8
0
  6
Continuous
100
AcDbPolyline
 90
        7
 70
     0
 43
0.0
 10
1716.375651933567
 20
1962.921060657943
 10
1716.250115713746
 20
1962.532527189561
 10
1716.040529683007
 20
1962.183949899575
 10
1715.757182058944
 20
1961.891643168161
 10
1715.41457274785
 20
1961.670954741129
 10
1715.025062983588
 20
1961.532404559349
 10
1714.625704508655
 20
1961.487150942041
  0
ARC
  5
861
330
1F
100
AcDbEntity
  8
0
  6
Continuous
100
AcDbCircle
 10
1542.18460475726
 20
-678.0207132717285
 30
0.0
 40
2693.918745972997
100
AcDbArc
 50
88.84423426921868
 51
89.23469354208981
  0
ARC
  5
862
330
1F
100
AcDbEntity
  8
0
  6
Continuous
100
AcDbCircle
 10
1555.986416812203
 20
3.406476452263177
 30
0.0
 40
2012.351800642001
100
AcDbArc
 50
88.28654115619162
 51
88.84577868809623
  0
ARC
  5
863
330
1F
100
AcDbEntity
  8
0
  6
Continuous
100
AcDbCircle
 10
1568.245814898179
 20
414.0822788469693
 30
0.0
 40
1601.493057660655
100
AcDbArc
 50
87.60981079881307
 51
88.28562107308922
  0
ARC
  5
864
330
1F
100
AcDbEntity
  8
0
  6
Continuous
100
AcDbCircle
 10
1568.273164876337
 20
414.3443334248727
 30
0.0
 40
1601.230181538848
100
AcDbArc
 50
87.61039757069784
 51
88.28631875810705
  0
ARC
  5
865
330
1F
100
AcDbEntity
  8
0
  6
Continuous
100
AcDbCircle
 10
1578.880567176321
 20
670.0195319458599
 30
0.0
 40
1345.334956659117
100
AcDbArc
 50
86.87967665898069
 51
87.6077557400834
  0
ARC
  5
866
330
1F
100
AcDbEntity
  8
0
  6
Continuous
100
AcDbCircle
 10
1578.948263734674
 20
671.3166539335709
 30
0.0
 40
1344.03623050359
100
AcDbArc
 50
86.87954834050371
 51
87.60833107900065
  0
ARC
  5
867
330
1F
100
AcDbEntity
  8
0
  6
Continuous
100
AcDbCircle
 10
1630.809975872972
 20
666.6449335134634
 30
0.0
 40
1343.417660241295
100
AcDbArc
 50
86.03294545838997
 51
86.29460990758223
  0
ARC
  5
868
330
1F
100
AcDbEntity
  8
0
  6
Continuous
100
AcDbCircle
 10
1585.227630490631
 20
789.8381987236243
 30
0.0
 40
1225.348454192222
100
AcDbArc
 50
86.69329735490393
 51
86.87105265310178
  0
ARC
  5
869
330
1F
100
AcDbEntity
  8
0
  6
Continuous
100
AcDbCircle
 10
1599.514350744567
 20
1017.427748953993
 30
0.0
 40
997.3143999317912
100
AcDbArc
 50
84.44110837449256
 51
86.75852520020312
  0
ARC
  5
86A
330
1F
100
AcDbEntity
  8
0
  6
Continuous
100
AcDbCircle
 10
1619.024688334101
 20
1224.557400562776
 30
0.0
 40
789.2691672925142
100
AcDbArc
 50
82.82132217139047
 51
84.39422592251357
  0
ARC
  5
86B
330
1F
100
AcDbEntity
  8
0
  6
Continuous
100
AcDbCircle
 10
1598.442416851986
 20
1954.942975271785
 30
0.0
 40
2.974625304682176
100
AcDbArc
 50
183.0000004219111
 51
270.000002137489
  0
ARC
  5
86C
330
1F
100
AcDbEntity
  8
0
  6
Continuous
100
AcDbCircle
 10
1623.668763621797
 20
1954.942975271785
 30
0.0
 40
2.974625304682176
100
AcDbArc
 50
269.9999976860918
 51
357.0000000055004
  0
ARC
  5
86D
330
1F
100
AcDbEntity
  8
0
  6
Continuous
100
AcDbCircle
 10
1714.610468299365
 20
1963.275223830204
 30
0.0
 40
1.799960978147743
100
AcDbArc
 50
337.5259684340995
 51
356.3122084777191
  0
ARC
  5
86E
330
1F
100
AcDbEntity
  8
0
  6
Continuous
100
AcDbCircle
 10
1714.62553873871
 20
1963.271928349888
 30
0.0
 40
1.784777419727535
100
AcDbArc
 50
270.0004986203088
 51
337.4387875343941
  0
ARC
  5
870
330
1F
100
AcDbEntity
  8
0
  6
Continuous
100
AcDbCircle
 10
1714.652014926677
 20
1963.272117678846
 30
0.0
 40
1.758300648744097
100
AcDbArc
 50
356.3261373372985
 51
359.993761052305
  0
ARC
  5
87A
330
1F
100
AcDbEntity
  8
0
  6
Continuous
100
AcDbCircle
 10
1340.333196824471
 20
1956.727750454555
 30
0.0
 40
2.974625304682176
100
AcDbArc
 50
269.9994144435995
 51
356.9999999999839
  0
ARC
  5
87B
330
1F
100
AcDbEntity
  8
0
  6
Continuous
100
AcDbCircle
 10
1326.195789827169
 20
1956.727750454555
 30
0.0
 40
2.974625304682176
100
AcDbArc
 50
188.0901248776208
 51
270.000585556394
  0
ARC
  5
881
330
1F
100
AcDbEntity
  8
0
  6
Continuous
100
AcDbCircle
 10
1128.760261455161
 20
2051.613589674966
 30
0.0
 40
87.36414898841649
100
AcDbArc
 50
315.1337452553883
 51
321.6918823319913
  0
ARC
  5
884
330
1F
100
AcDbEntity
  8
0
  6
Continuous
100
AcDbCircle
 10
1232.808801378543
 20
1981.065847455763
 30
0.0
 40
45.51841562767079
100
AcDbArc
 50
177.4265303638046
 51
177.7277025405965
  0
ARC
  5
885
330
1F
100
AcDbEntity
  8
0
  6
Continuous
100
AcDbCircle
 10
1226.11072324725
 20
1983.480747725746
 30
0.0
 40
22.30983602959481
100
AcDbArc
 50
262.5710869626042
 51
264.9255089939869
  0
ARC
  5
886
330
1F
100
AcDbEntity
  8
0
  6
Continuous
100
AcDbCircle
 10
1224.289308973947
 20
1983.796840727167
 30
0.0
 40
22.30968978511633
100
AcDbArc
 50
255.3767774729059
 51
270.0000007589917
  0
ARC
  5
887
330
1F
100
AcDbEntity
  8
0
  6
Continuous
100
AcDbCircle
 10
1217.137840143375
 20
1960.852225916183
 30
0.0
 40
3.005158358020588
100
AcDbArc
 50
116.6650163482006
 51
119.4289884312961
  0
ARC
  5
888
330
1F
100
AcDbEntity
  8
0
  6
Continuous
100
AcDbCircle
 10
1217.390349136731
 20
1964.267960775124
 30
0.0
 40
1.916397093403954
100
AcDbArc
 50
145.0315483435952
 51
155.2040141967008
  0
ARC
  5
889
330
1F
100
AcDbEntity
  8
0
  6
Continuous
100
AcDbCircle
 10
1217.282655528548
 20
1964.265307897163
 30
0.0
 40
1.806103995849454
100
AcDbArc
 50
195.9364454761093
 51
206.1394774419883
  0
ARC
  5
88A
330
1F
100
AcDbEntity
  8
0
  6
Continuous
100
AcDbCircle
 10
1217.256281286956
 20
1964.279631765105
 30
0.0
 40
1.789018176445404
100
AcDbArc
 50
229.4901919431825
 51
232.5688571040036
  0
ARC
  5
88B
330
1F
100
AcDbEntity
  8
0
  6
Continuous
100
AcDbCircle
 10
1217.25183184243
 20
1964.274974049181
 30
0.0
 40
1.782570366736473
100
AcDbArc
 50
214.2425517341041
 51
229.4932036492055
  0
ARC
  5
88C
330
1F
100
AcDbEntity
  8
0
  6
Continuous
100
AcDbCircle
 10
1198.825880260092
 20
2008.001439685898
 30
0.0
 40
4.847751558948526
100
AcDbArc
 50
172.5352311688035
 51
178.9197580330999
  0
ARC
  5
88D
330
1F
100
AcDbEntity
  8
0
  6
Continuous
100
AcDbCircle
 10
1198.700415942885
 20
2008.038089068584
 30
0.0
 40
4.716725549091914
100
AcDbArc
 50
170.1879819734099
 51
172.779224842517
  0
ARC
  5
88E
330
1F
100
AcDbEntity
  8
0
  6
Continuous
100
AcDbCircle
 10
1198.68598668994
 20
2008.026494467016
 30
0.0
 40
4.709090304656858
100
AcDbArc
 50
131.5017377653008
 51
134.8483663178906
  0
ARC
  5
88F
330
1F
100
AcDbEntity
  8
0
  6
Continuous
100
AcDbCircle
 10
1198.685057024341
 20
2008.041534791244
 30
0.0
 40
4.701004154619617
100
AcDbArc
 50
161.3688981886879
 51
170.1974631989079
  0
ARC
  5
890
330
1F
100
AcDbEntity
  8
0
  6
Continuous
100
AcDbCircle
 10
1198.674557893953
 20
2008.037090475013
 30
0.0
 40
4.693518057897339
100
AcDbArc
 50
134.8406746416073
 51
143.6536003623353
  0
ARC
  5
891
330
1F
100
AcDbEntity
  8
0
  6
Continuous
100
AcDbCircle
 10
1198.667903240722
 20
2008.044369192757
 30
0.0
 40
4.683844635899019
100
AcDbArc
 50
143.6770704820198
 51
161.334716324395
  0
ARC
  5
892
330
1F
100
AcDbEntity
  8
0
  6
Continuous
100
AcDbCircle
 10
1198.652823782307
 20
2008.043402475224
 30
0.0
 40
4.668843029359447
100
AcDbArc
 50
172.7705028874161
 51
178.9137970560699
  0
ARC
  5
893
330
1F
100
AcDbEntity
  8
0
  6
Continuous
100
AcDbCircle
 10
1196.325965484444
 20
2007.430960881048
 30
0.0
 40
2.352760989918433
100
AcDbArc
 50
190.8194303118012
 51
201.868939056409
  0
ARC
  5
894
330
1F
100
AcDbEntity
  8
0
  6
Continuous
100
AcDbCircle
 10
1196.318166457119
 20
2007.431638012851
 30
0.0
 40
2.345778068914192
100
AcDbArc
 50
201.9552433048815
 51
224.8319746877057
  0
ARC
  5
895
330
1F
100
AcDbEntity
  8
0
  6
Continuous
100
AcDbCircle
 10
1196.318100277668
 20
2007.431578329964
 30
0.0
 40
2.345152421923109
100
AcDbArc
 50
179.0485331882122
 51
190.870318602391
  0
ARC
  5
896
330
1F
100
AcDbEntity
  8
0
  6
Continuous
100
AcDbCircle
 10
1196.314192048388
 20
2007.429339103422
 30
0.0
 40
2.341338999876512
100
AcDbArc
 50
224.8606488245118
 51
233.179800727195
  0
ARC
  5
897
330
1F
100
AcDbEntity
  8
0
  6
Continuous
100
AcDbCircle
 10
1196.279384732143
 20
2007.408164851886
 30
0.0
 40
2.301045201439336
100
AcDbArc
 50
190.4796255103909
 51
201.7741942476149
  0
ARC
  5
898
330
1F
100
AcDbEntity
  8
0
  6
Continuous
100
AcDbCircle
 10
1200.431632675803
 20
2003.754876677919
 30
0.0
 40
1.814895857892478
100
AcDbArc
 50
172.0297698155958
 51
179.5071276983996
  0
ARC
  5
89B
330
1F
100
AcDbEntity
  8
0
  6
Continuous
100
AcDbCircle
 10
1200.048250984774
 20
1981.53934214833
 30
0.0
 40
12.72862041940089
100
AcDbArc
 50
190.5611237102052
 51
192.1678856445921
  0
ARC
  5
89D
330
1F
100
AcDbEntity
  8
0
  6
Continuous
100
AcDbCircle
 10
1198.974246419846
 20
1981.714603013897
 30
0.0
 40
12.64801310671002
100
AcDbArc
 50
180.3536483269763
 51
193.6463516730216
  0
ARC
  5
89E
330
1F
100
AcDbEntity
  8
0
  6
Continuous
100
AcDbCircle
 10
1198.974246419846
 20
1981.714603013897
 30
0.0
 40
11.82823446510099
100
AcDbArc
 50
194.1092901979961
 51
207.1691354020096
  0
ARC
  5
89F
330
1F
100
AcDbEntity
  8
0
  6
Continuous
100
AcDbCircle
 10
1198.974246419846
 20
1981.714603013897
 30
0.0
 40
11.82823446510099
100
AcDbArc
 50
220.0820963158035
 51
259.4273187048188
  0
ARC
  5
8A0
330
1F
100
AcDbEntity
  8
0
  6
Continuous
100
AcDbCircle
 10
1198.974246419846
 20
1981.714603013897
 30
0.0
 40
11.82823446510099
100
AcDbArc
 50
168.3913841408054
 51
179.8907098020258
  0
ARC
  5
8A2
330
1F
100
AcDbEntity
  8
0
  6
Continuous
100
AcDbCircle
 10
1198.974246419846
 20
1981.714603013897
 30
0.0
 40
11.71112325268263
100
AcDbArc
 50
135.0920006845075
 51
179.487529384413
  0
ARC
  5
8A3
330
1F
100
AcDbEntity
  8
0
  6
Continuous
100
AcDbCircle
 10
1198.974246419846
 20
1981.714603013897
 30
0.0
 40
2.342224652916225
100
AcDbArc
 50
57.7234898447144
 51
303.8756656120993
  0
ARC
  5
8A4
330
1F
100
AcDbEntity
  8
0
  6
Continuous
100
AcDbCircle
 10
1198.670889550362
 20
1981.533692847008
 30
0.0
 40
11.37181988064877
100
AcDbArc
 50
227.1460178080931
 51
228.827092792613
  0
ARC
  5
8A5
330
1F
100
AcDbEntity
  8
0
  6
Continuous
100
AcDbCircle
 10
1198.178575105462
 20
1987.667403029492
 30
0.0
 40
8.971292131516236
100
AcDbArc
 50
105.8914417033913
 51
110.1046047043124
  0
ARC
  5
8A6
330
1F
100
AcDbEntity
  8
0
  6
Continuous
100
AcDbCircle
 10
1203.072939173813
 20
1970.813468054261
 30
0.0
 40
2.335033984080707
100
AcDbArc
 50
178.6386296954078
 51
201.4308333202751
  0
ARC
  5
8A7
330
1F
100
AcDbEntity
  8
0
  6
Continuous
100
AcDbCircle
 10
1203.047838654895
 20
1970.804157667399
 30
0.0
 40
2.30867769732061
100
AcDbArc
 50
201.4933104781221
 51
212.247756705316
  0
ARC
  5
8A8
330
1F
100
AcDbEntity
  8
0
  6
Continuous
100
AcDbCircle
 10
1194.598218175995
 20
1978.375832658243
 30
0.0
 40
6.341329557482355
100
AcDbArc
 50
232.2779450866009
 51
234.198998707502
  0
ARC
  5
8C2
330
1F
100
AcDbEntity
  8
0
  6
Continuous
100
AcDbCircle
 10
1162.156480947601
 20
2017.813244584969
 30
0.0
 40
39.89372295853196
100
AcDbArc
 50
328.8282625168018
 51
331.5328695670111
  0
ARC
  5
8C4
330
1F
100
AcDbEntity
  8
0
  6
Continuous
100
AcDbCircle
 10
1163.732063226134
 20
2016.821011850971
 30
0.0
 40
38.03292085056845
100
AcDbArc
 50
316.2685154104976
 51
317.8563076472828
  0
ARC
  5
8C5
330
1F
100
AcDbEntity
  8
0
  6
Continuous
100
AcDbCircle
 10
1163.738799193746
 20
2016.808222794514
 30
0.0
 40
38.01930192126148
100
AcDbArc
 50
317.8637867371814
 51
328.8898998118954
  0
ARC
  5
8CA
330
1F
100
AcDbEntity
  8
0
  6
Continuous
100
AcDbCircle
 10
1533.313436359895
 20
-8924.216953212022
 30
0.0
 40
10940.24178376695
100
AcDbArc
 50
90.1944421083888
 51
90.60773068770272
  0
ARC
  5
8CB
330
1F
100
AcDbEntity
  8
0
  6
Continuous
100
AcDbCircle
 10
1518.993121068515
 20
-2992.369832411864
 30
0.0
 40
5008.383593422276
100
AcDbArc
 50
89.37237035941292
 51
90.26091261981015
  0
ARC
  5
8CC
330
1F
100
AcDbEntity
  8
0
  6
Continuous
100
AcDbCircle
 10
1519.020932649069
 20
-2988.790204824838
 30
0.0
 40
5004.803875156745
100
AcDbArc
 50
89.37223983198915
 51
90.26141762550459
  0
LINE
  5
8D1
330
1F
100
AcDbEntity
  8
0
  6
Continuous
100
AcDbLine
 10
1224.403718155748
 20
1961.234583527046
 30
0.0
 11
1224.266963671948
 21
1961.246820326436
 31
0.0
  0
LINE
  5
8D2
330
1F
100
AcDbEntity
  8
0
  6
Continuous
100
AcDbLine
 10
1224.266963671948
 20
1961.246820326436
 30
0.0
 11
1224.137399583365
 21
1961.258353579345
 31
0.0
  0
SPLINE
  5
8E1
330
1F
100
AcDbEntity
  8
0
  6
Continuous
100
AcDbSpline
210
0.0
220
0.0
230
1.0
 70
     8
 71
     3
 72
    10
 73
     6
 74
     4
 42
0.0000000001
 43
0.0000000001
 44
0.0000000001
 12
25.0839493760091
 22
-116.3109135417252
 32
0.0
 13
77.15826471997665
 23
-90.57612991628017
 33
0.0
 40
0.0
 40
0.0
 40
0.0
 40
0.0
 40
0.0117802380542282
 40
0.0330142806517442
 40
0.0427277406992114
 40
0.0427277406992114
 40
0.0427277406992114
 40
0.0427277406992114
 10
1187.605589363141
 20
1978.856442737801
 30
0.0
 10
1187.704087661452
 20
1978.399719321209
 30
0.0
 10
1188.050811796089
 20
1977.134865045737
 30
0.0
 10
1188.774446498962
 20
1975.581663951014
 30
0.0
 10
1189.498624521448
 20
1974.585860421031
 30
0.0
 10
1189.748449095352
 20
1974.292591214666
 30
0.0
 11
1187.605589363141
 21
1978.856442737801
 31
0.0
 11
1187.978569360641
 21
1977.505306302112
 31
0.0
 11
1189.063738479613
 21
1975.223689318516
 31
0.0
 11
1189.748449095352
 21
1974.292591214666
 31
0.0
  0
SPLINE
  5
8E2
330
1F
100
AcDbEntity
  8
0
  6
Continuous
100
AcDbSpline
210
0.0
220
0.0
230
1.0
 70
     8
 71
     3
 72
     9
 73
     5
 74
     3
 42
0.0000000001
 43
0.0000000001
 44
0.0000000001
 12
77.15826431832123
 22
-90.57613025843478
 32
0.0
 13
94.10665391705391
 23
-72.81051307156618
 33
0.0
 40
0.0
 40
0.0
 40
0.0
 40
0.0
 40
0.0094783789996314
 40
0.0113178608812321
 40
0.0113178608812321
 40
0.0113178608812321
 40
0.0113178608812321
 10
1189.748449095352
 20
1974.292591214666
 30
0.0
 10
1189.99222751938
 20
1974.006419584296
 30
0.0
 10
1190.310536858186
 20
1973.685462009023
 30
0.0
 10
1190.66069012195
 20
1973.404561111097
 30
0.0
 10
1190.718392616901
 20
1973.359916571254
 30
0.0
 11
1189.748449095352
 21
1974.292591214666
 31
0.0
 11
1190.547711103706
 21
1973.496928383903
 31
0.0
 11
1190.718392616901
 21
1973.359916571254
 31
0.0
  0
SPLINE
  5
8E3
330
1F
100
AcDbEntity
  8
0
  6
Continuous
100
AcDbSpline
210
0.0
220
0.0
230
1.0
 70
     8
 71
     3
 72
    10
 73
     6
 74
     4
 42
0.0000000001
 43
0.0000000001
 44
0.0000000001
 12
-85.25986702015226
 22
82.99510949998687
 32
0.0
 13
-18.84245708663532
 23
117.4835943276641
 33
0.0
 40
0.0
 40
0.0
 40
0.0
 40
0.0
 40
0.0093769064971371
 40
0.0359038737736114
 40
0.0605192904579616
 40
0.0605192904579616
 40
0.0605192904579616
 40
0.0605192904579616
 10
1190.73880518583
 20
1973.385054118343
 30
0.0
 10
1190.472313918835
 20
1973.644466578823
 30
0.0
 10
1189.500388982618
 20
1974.687857643352
 30
0.0
 10
1188.206670293794
 20
1976.748479319675
 30
0.0
 10
1187.607865266129
 20
1978.714078197381
 30
0.0
 10
1187.453260288593
 20
1979.678047406753
 30
0.0
 11
1190.73880518583
 21
1973.385054118343
 31
0.0
 11
1189.978586883673
 21
1974.201681275338
 31
0.0
 11
1188.29883660616
 21
1976.87389785447
 31
0.0
 11
1187.453260288593
 21
1979.678047406753
 31
0.0
  0
LINE
  5
8E8
330
1F
100
AcDbEntity
  8
0
  6
Continuous
100
AcDbLine
 10
1625.093568461744
 20
1952.217267754819
 30
0.0
 11
1624.834098654767
 21
1952.212816644483
 31
0.0
  0
LINE
  5
8E9
330
1F
100
AcDbEntity
  8
0
  6
Continuous
100
AcDbLine
 10
1610.661223105866
 20
1951.96837963005
 30
0.0
 11
1600.643154023391
 21
1951.793114968865
 31
0.0
  0
LINE
  5
8EA
330
1F
100
AcDbEntity
  8
0
  6
Continuous
100
AcDbLine
 10
1600.643154023391
 20
1951.793114968865
 30
0.0
 11
1598.446203752282
 21
1951.754184203252
 31
0.0
  0
LINE
  5
8EB
330
1F
100
AcDbEntity
  8
0
  6
Continuous
100
AcDbLine
 10
1598.446203752282
 20
1951.754184203252
 30
0.0
 11
1597.066536911869
 21
1951.729631277131
 31
0.0
  0
SPLINE
  5
8EF
330
1F
100
AcDbEntity
  8
0
  6
Continuous
100
AcDbSpline
210
0.0
220
0.0
230
1.0
 70
     8
 71
     3
 72
    10
 73
     6
 74
     4
 42
0.0000000001
 43
0.0000000001
 44
0.0000000001
 12
-32.74471093594819
 22
114.3906334930009
 32
0.0
 13
49.93763700131547
 23
107.9984515441481
 33
0.0
 40
0.0
 40
0.0
 40
0.0
 40
0.0
 40
0.0027674553703351
 40
0.0083011671910645
 40
0.0111798594811467
 40
0.0111798594811467
 40
0.0111798594811467
 40
0.0111798594811467
 10
1215.545965794485
 20
1963.769404257497
 30
0.0
 10
1215.515759285712
 20
1963.874927915196
 30
0.0
 10
1215.45308939826
 20
1964.199766571711
 30
0.0
 10
1215.489126951907
 20
1964.652666015147
 30
0.0
 10
1215.602712347021
 20
1964.968044194386
 30
0.0
 10
1215.650630710544
 20
1965.07167563095
 30
0.0
 11
1215.545965794485
 21
1963.769404257497
 31
0.0
 11
1215.483912659509
 21
1964.092790231022
 31
0.0
 11
1215.535100689981
 21
1964.749226236041
 31
0.0
 11
1215.650630710544
 21
1965.07167563095
 31
0.0
  0
LINE
  5
8F0
330
1F
100
AcDbEntity
  8
0
  6
Continuous
100
AcDbLine
 10
1215.661272182658
 20
1963.469614665764
 30
0.0
 11
1215.783569321154
 21
1963.276931157996
 31
0.0
  0
SPLINE
  5
8FD
330
1F
100
AcDbEntity
  8
0
  6
Continuous
100
AcDbSpline
210
0.0
220
0.0
230
1.0
 70
     8
 71
     3
 72
    10
 73
     6
 74
     4
 42
0.0000000001
 43
0.0000000001
 44
0.0000000001
 12
-118.985012186318
 22
-0.0004802257040882
 32
0.0
 13
-106.3795073908546
 23
-53.29947028337109
 33
0.0
 40
0.0
 40
0.0
 40
0.0
 40
0.0
 40
0.0020858398902607
 40
0.0043255661610128
 40
0.0055009334351552
 40
0.0055009334351552
 40
0.0055009334351552
 40
0.0055009334351552
 10
1216.413520595073
 20
1963.718119920595
 30
0.0
 10
1216.330792700218
 20
1963.718119586673
 30
0.0
 10
1216.159234785286
 20
1963.690811598915
 30
0.0
 10
1215.953572499721
 20
1963.616197278731
 30
0.0
 10
1215.830883222129
 20
1963.558654513524
 30
0.0
 10
1215.789204891626
 20
1963.537772362495
 30
0.0
 11
1216.413520595073
 21
1963.718119920595
 31
0.0
 11
1216.167625942841
 21
1963.684490151385
 31
0.0
 11
1215.915925857159
 21
1963.596934209204
 31
0.0
 11
1215.789204891626
 21
1963.537772362495
 31
0.0
  0
SPLINE
  5
8FE
330
1F
100
AcDbEntity
  8
0
  6
Continuous
100
AcDbSpline
210
0.0
220
0.0
230
1.0
 70
     8
 71
     3
 72
     9
 73
     5
 74
     3
 42
0.0000000001
 43
0.0000000001
 44
0.0000000001
 12
74.01534548507527
 22
93.16201885926371
 32
0.0
 13
36.9549776262762
 23
113.1006753023618
 33
0.0
 40
0.0
 40
0.0
 40
0.0
 40
0.0
 40
0.0151109426158701
 40
0.0239854222611358
 40
0.0239854222611358
 40
0.0239854222611358
 40
0.0239854222611358
 10
1614.240492524302
 20
1959.03590787802
 30
0.0
 10
1614.613306403716
 20
1959.505163185027
 30
0.0
 10
1615.163494402335
 20
1960.285755117307
 30
0.0
 10
1615.580011867272
 20
1961.148569434546
 30
0.0
 10
1615.689330599513
 20
1961.48313931475
 30
0.0
 11
1614.240492524302
 21
1959.03590787802
 31
0.0
 11
1615.253494365887
 21
1960.52135187074
 31
0.0
 11
1615.689330599513
 21
1961.48313931475
 31
0.0
  0
SPLINE
  5
90A
330
1F
100
AcDbEntity
  8
0
  6
Continuous
100
AcDbSpline
210
0.0
220
0.0
230
1.0
 70
     8
 71
     3
 72
    11
 73
     7
 74
     5
 42
0.0000000001
 43
0.0000000001
 44
0.0000000001
 12
76.13483667921219
 22
91.4380652083067
 32
0.0
 13
118.9850121859346
 23
0.0005673161324648
 33
0.0
 40
0.0
 40
0.0
 40
0.0
 40
0.0
 40
0.0139816139508852
 40
0.0252816398336248
 40
0.0332218289704609
 40
0.0374793178731135
 40
0.0374793178731135
 40
0.0374793178731135
 40
0.0374793178731135
 10
1619.798519021475
 20
1958.460416020381
 30
0.0
 10
1620.153348319635
 20
1958.886566596484
 30
0.0
 10
1620.807968770095
 20
1959.641517207725
 30
0.0
 10
1621.72761763142
 20
1960.604493913928
 30
0.0
 10
1622.417670352598
 20
1961.1925677917
 30
0.0
 10
1622.851299087913
 20
1961.487150125088
 30
0.0
 10
1623.020158210887
 20
1961.487150930132
 30
0.0
 11
1619.798519021475
 21
1958.460416020381
 31
0.0
 11
1620.891236156988
 21
1959.714825268152
 31
0.0
 11
1621.831805943778
 21
1960.67560588486
 31
0.0
 11
1622.557779336114
 21
1961.280205510006
 31
0.0
 11
1623.020158210887
 21
1961.487150930132
 31
0.0
  0
LINE
  5
90B
330
1F
100
AcDbEntity
  8
0
  6
Continuous
100
AcDbLine
 10
1578.166523958968
 20
2015.657721765788
 30
0.0
 11
1573.854878017341
 21
2015.713274582941
 31
0.0
  0
LINE
  5
90C
330
1F
100
AcDbEntity
  8
0
  6
Continuous
100
AcDbLine
 10
1417.273545644302
 20
2015.409412931393
 30
0.0
 11
1405.804279608717
 21
2015.283745126045
 31
0.0
  0
SPLINE
  5
90D
330
1F
100
AcDbEntity
  8
0
  6
Continuous
100
AcDbSpline
210
0.0
220
0.0
230
1.0
 70
     8
 71
     3
 72
     8
 73
     4
 74
     2
 42
0.0000000001
 43
0.0000000001
 44
0.0000000001
 12
-118.9772545551829
 22
-1.358684555031264
 32
0.0
 13
-118.9754153659783
 23
-1.511179572975804
 33
0.0
 40
0.0
 40
0.0
 40
0.0
 40
0.0
 40
0.8324355669127612
 40
0.8324355669127612
 40
0.8324355669127612
 40
0.8324355669127612
 10
1405.804279608764
 20
2015.283745126045
 30
0.0
 10
1372.790646827001
 20
2014.906739343441
 30
0.0
 10
1339.778626717397
 20
2014.399330016585
 30
0.0
 10
1306.765504271097
 20
2013.98001014175
 30
0.0
 11
1405.804279608764
 21
2015.283745126045
 31
0.0
 11
1306.765504271097
 21
2013.98001014175
 31
0.0
  0
SPLINE
  5
90E
330
1F
100
AcDbEntity
  8
0
  6
Continuous
100
AcDbSpline
210
0.0
220
0.0
230
1.0
 70
     8
 71
     3
 72
     8
 73
     4
 74
     2
 42
0.0000000001
 43
0.0000000001
 44
0.0000000001
 12
-118.9754153659648
 22
-1.51117957404706
 32
0.0
 13
-118.9773749359165
 23
-1.348101838588255
 33
0.0
 40
0.0
 40
0.0
 40
0.0
 40
0.0
 40
0.6772097720698801
 40
0.6772097720698801
 40
0.6772097720698801
 40
0.6772097720698801
 10
1306.765504271097
 20
2013.98001014175
 30
0.0
 10
1279.908399630482
 20
2013.638881616769
 30
0.0
 10
1253.05059091955
 20
2013.355574156789
 30
0.0
 10
1226.193043932274
 20
2013.051258243834
 30
0.0
 11
1306.765504271097
 21
2013.98001014175
 31
0.0
 11
1226.193043932274
 21
2013.051258243834
 31
0.0
  0
LINE
  5
90F
330
1F
100
AcDbEntity
  8
0
  6
Continuous
100
AcDbLine
 10
1226.193043932236
 20
2013.051258243833
 30
0.0
 11
1198.61144796984
 21
2012.728189079754
 31
0.0
  0
LINE
  5
910
330
1F
100
AcDbEntity
  8
0
  6
Continuous
100
AcDbLine
 10
1200.159073708376
 20
1988.23254974712
 30
0.0
 11
1200.351414146651
 21
1974.703866443091
 31
0.0
  0
LINE
  5
911
330
1F
100
AcDbEntity
  8
0
  6
Continuous
100
AcDbLine
 10
1201.022286127243
 20
2000.370911031408
 30
0.0
 11
1200.774476827639
 21
1974.624686391337
 31
0.0
  0
LINE
  5
912
330
1F
100
AcDbEntity
  8
0
  6
Continuous
100
AcDbLine
 10
1200.774476827639
 20
1974.624686391337
 30
0.0
 11
1200.738298673195
 21
1970.868744326407
 31
0.0
  0
LINE
  5
924
330
1F
100
AcDbEntity
  8
0
  6
Continuous
100
AcDbLine
 10
1201.453449795692
 20
2007.155049272924
 30
0.0
 11
1194.064636230735
 21
2012.672261757316
 31
0.0
  0
LINE
  5
925
330
1F
100
AcDbEntity
  8
0
  6
Continuous
100
AcDbLine
 10
1578.166522911864
 20
2015.657641510365
 30
0.0
 11
1573.854878338608
 21
2015.713273761938
 31
0.0
  0
SPLINE
  5
926
330
1F
100
AcDbEntity
  8
0
  6
Continuous
100
AcDbSpline
210
0.0
220
0.0
230
1.0
 70
     8
 71
     3
 72
     8
 73
     4
 74
     2
 42
0.0000000001
 43
0.0000000001
 44
0.0000000001
 12
-118.9772615373939
 22
-1.358072999291965
 32
0.0
 13
-118.9753991400806
 23
-1.51245650098117
 33
0.0
 40
0.0
 40
0.0
 40
0.0
 40
0.0
 40
0.8324355661575182
 40
0.8324355661575182
 40
0.8324355661575182
 40
0.8324355661575182
 10
1405.804279894347
 20
2015.283720198624
 30
0.0
 10
1372.790645205087
 20
2014.906884109982
 30
0.0
 10
1339.778621019041
 20
2014.399776513988
 30
0.0
 10
1306.765503105025
 20
2013.980102319406
 30
0.0
 11
1405.804279894347
 21
2015.283720198624
 31
0.0
 11
1306.765503105025
 21
2013.980102319406
 31
0.0
  0
LINE
  5
927
330
1F
100
AcDbEntity
  8
0
  6
Continuous
100
AcDbLine
 10
1201.452690266731
 20
2007.155042966721
 30
0.0
 11
1201.391862165797
 21
2000.716222444561
 31
0.0
  0
LINE
  5
928
330
1F
100
AcDbEntity
  8
0
  6
Continuous
100
AcDbLine
 10
1201.391862165797
 20
2000.716222444561
 30
0.0
 11
1201.388567256649
 21
2000.367450697403
 31
0.0
  0
LINE
  5
929
330
1F
100
AcDbEntity
  8
0
  6
Continuous
100
AcDbLine
 10
1201.388567256649
 20
2000.367450697403
 30
0.0
 11
1201.109854824608
 21
1970.865436495506
 31
0.0
  0
LINE
  5
92A
330
1F
100
AcDbEntity
  8
0
  6
Continuous
100
AcDbLine
 10
1201.109854824608
 20
1970.865436495506
 30
0.0
 11
1201.092896688051
 21
1969.070393037027
 31
0.0
  0
LINE
  5
92B
330
1F
100
AcDbEntity
  8
0
  6
Continuous
100
AcDbLine
 10
1201.092896688051
 20
1969.070393037027
 30
0.0
 11
1201.087205016165
 21
1968.467918674519
 31
0.0
  0
SPLINE
  5
92C
330
1F
100
AcDbEntity
  8
0
  6
Continuous
100
AcDbSpline
210
0.0
220
0.0
230
1.0
 70
     8
 71
     3
 72
    33
 73
    29
 74
    27
 42
0.0000000001
 43
0.0000000001
 44
0.0000000001
 12
118.9807339693882
 22
1.008994209365723
 32
0.0
 13
118.9755846487051
 23
1.497792611701159
 33
0.0
 40
0.0
 40
0.0
 40
0.0
 40
0.0
 40
0.0424702852182176
 40
0.0837125946181672
 40
0.1237685915098878
 40
0.1626381180591993
 40
0.2004398400243999
 40
0.2375455404842019
 40
0.2739997058254398
 40
0.3092950074368364
 40
0.3438838280261238
 40
0.3792784250405732
 40
0.4171255946915117
 40
0.459058710169976
 40
0.5057180327061515
 40
0.5571394927197188
 40
0.6135910186484402
 40
0.675780531334042
 40
0.7444605504985537
 40
0.8203678349745665
 40
0.9042936463844801
 40
0.9971865497375576
 40
1.100119678730874
 40
1.214348827059678
 40
1.34114073398751
 40
1.48195681733474
 40
1.638567998368805
 40
1.814045657608417
 40
1.814045657608417
 40
1.814045657608417
 40
1.814045657608417
 10
1201.453449450699
 20
2007.155048808908
 30
0.0
 10
1203.137831353044
 20
2007.169332899514
 30
0.0
 10
1206.457916137979
 20
2007.194938580298
 30
0.0
 10
1211.366714779155
 20
2007.22213492176
 30
0.0
 10
1216.132760585066
 20
2007.235402963657
 30
0.0
 10
1220.762367708415
 20
2007.232918032633
 30
0.0
 10
1225.274919435339
 20
2007.21276977538
 30
0.0
 10
1229.691544865765
 20
2007.172684209551
 30
0.0
 10
1234.008470948132
 20
2007.108589242755
 30
0.0
 10
1238.225186261356
 20
2007.023696047849
 30
0.0
 10
1242.399490239273
 20
2006.922148530283
 30
0.0
 10
1246.674623118175
 20
2006.804695923679
 30
0.0
 10
1251.240671707343
 20
2006.670208417054
 30
0.0
 10
1256.25329953629
 20
2006.522397671706
 30
0.0
 10
1261.804333102341
 20
2006.367729096998
 30
0.0
 10
1267.931226295483
 20
2006.20657647583
 30
0.0
 10
1274.674170993171
 20
2006.041423693616
 30
0.0
 10
1282.101759406066
 20
2005.874161462611
 30
0.0
 10
1290.301195084245
 20
2005.707870296126
 30
0.0
 10
1299.362993491565
 20
2005.547179020954
 30
0.0
 10
1309.385442438433
 20
2005.398534002884
 30
0.0
 10
1320.480141397332
 20
2005.269778509338
 30
0.0
 10
1332.777064941223
 20
2005.169444672262
 30
0.0
 10
1346.418761286708
 20
2005.108944709538
 30
0.0
 10
1361.563094154688
 20
2005.099657816951
 30
0.0
 10
1378.38829011522
 20
2005.154099071726
 30
0.0
 10
1397.144055528633
 20
2005.288020170278
 30
0.0
 10
1410.314508377847
 20
2005.431387086477
 30
0.0
 10
1417.273694078125
 20
2005.518996800311
 30
0.0
 11
1201.453449450699
 21
2007.155048808908
 31
0.0
 11
1206.506630881943
 21
2007.193458146451
 31
0.0
 11
1211.413775201873
 21
2007.220108338148
 31
0.0
 11
1216.179821430625
 21
2007.232856606508
 31
0.0
 11
1220.804711527412
 21
2007.22982524914
 31
0.0
 11
1225.302502393339
 21
2007.209157945176
 31
0.0
 11
1229.717334314938
 21
2007.168166240141
 31
0.0
 11
1234.054359366979
 21
2007.104026238978
 31
0.0
 11
1238.253133948557
 21
2007.020168862591
 31
0.0
 11
1242.367485261084
 21
2006.920794412779
 31
0.0
 11
1246.577347699021
 21
2006.806025515472
 31
0.0
 11
1251.078685793701
 21
2006.67495540979
 31
0.0
 11
1256.065968625369
 21
2006.529200066788
 31
0.0
 11
1261.615569056099
 21
2006.374361991012
 31
0.0
 11
1267.731839176957
 21
2006.213579804757
 31
0.0
 11
1274.446710448235
 21
2006.049096863353
 31
0.0
 11
1281.844456503614
 21
2005.882578600065
 31
0.0
 11
1290.014671320079
 21
2005.716977556501
 31
0.0
 11
1299.045082939654
 21
2005.556964715463
 31
0.0
 11
1309.029898923749
 21
2005.40890372846
 31
0.0
 11
1320.082015369427
 21
2005.280420963737
 31
0.0
 11
1332.329105788509
 21
2005.180306486678
 31
0.0
 11
1345.920525748722
 21
2005.119360281146
 31
0.0
 11
1361.006858897835
 21
2005.109169417144
 31
0.0
 11
1377.761777746594
 21
2005.162396089227
 31
0.0
 11
1396.395698793515
 21
2005.293646956943
 31
0.0
 11
1417.273694078125
 21
2005.518996800311
 31
0.0
  0
SPLINE
  5
92D
330
1F
100
AcDbEntity
  8
0
  6
Continuous
100
AcDbSpline
210
0.0
220
0.0
230
1.0
 70
     8
 71
     3
 72
    19
 73
    15
 74
    13
 42
0.0000000001
 43
0.0000000001
 44
0.0000000001
 12
118.9755846486914
 22
1.497792612790076
 32
0.0
 13
118.7442061956561
 23
-7.566149626617741
 33
0.0
 40
0.0
 40
0.0
 40
0.0
 40
0.0
 40
0.1920572238826843
 40
0.4070176314059801
 40
0.6453442367206533
 40
0.908711193565842
 40
1.198564804717811
 40
1.5071698512419
 40
1.785290274103171
 40
2.01455780126428
 40
2.19971071556526
 40
2.339828572585828
 40
2.442856005933821
 40
2.516584329427858
 40
2.516584329427858
 40
2.516584329427858
 40
2.516584329427858
 10
1417.273694078125
 20
2005.518996800311
 30
0.0
 10
1424.89040091057
 20
2005.614884097354
 30
0.0
 10
1441.0317544986
 20
2005.848207300141
 30
0.0
 10
1466.623051626851
 20
2006.311250407618
 30
0.0
 10
1495.040094298808
 20
2006.928836637456
 30
0.0
 10
1526.424418613937
 20
2007.713403044859
 30
0.0
 10
1560.593123585884
 20
2008.646463847405
 30
0.0
 10
1595.350607124522
 20
2009.451925858169
 30
0.0
 10
1627.712820531824
 20
2009.861762151726
 30
0.0
 10
1655.18141772907
 20
2009.731988288772
 30
0.0
 10
1677.170677385153
 20
2009.226658256564
 30
0.0
 10
1694.14530072904
 20
2008.563536713865
 30
0.0
 10
1706.696949682429
 20
2007.923797918274
 30
0.0
 10
1713.694958546628
 20
2007.505424751801
 30
0.0
 10
1716.613228962387
 20
2007.319478242696
 30
0.0
 11
1417.273694078125
 21
2005.518996800311
 31
0.0
 11
1440.123254535245
 21
2005.84815182165
 31
0.0
 11
1465.696165701774
 21
2006.309189675849
 31
0.0
 11
1494.046839399964
 21
2006.921909849654
 31
0.0
 11
1525.373932768235
 21
2007.698619046198
 31
0.0
 11
1559.850304007737
 21
2008.603169202219
 31
0.0
 11
1596.560763060952
 21
2009.41231243989
 31
0.0
 11
1629.650869265145
 21
2009.781163157738
 31
0.0
 11
1656.929860462326
 21
2009.631908084807
 31
0.0
 11
1678.954298649068
 21
2009.118482640839
 31
0.0
 11
1695.613533154007
 21
2008.468108577212
 31
0.0
 11
1707.856343111076
 21
2007.843744494409
 31
0.0
 11
1716.613228962387
 21
2007.319478242696
 31
0.0
  0
LINE
  5
92E
330
1F
100
AcDbEntity
  8
0
  6
Continuous
100
AcDbLine
 10
1716.613228962387
 20
2007.319478242696
 30
0.0
 11
1717.629936449362
 21
2007.254236880593
 31
0.0
  0
ENDSEC
  0
SECTION
  2
OBJECTS
  0
DICTIONARY
  5
C
330
0
100
AcDbDictionary
281
     1
  3
ACAD_COLOR
350
C9
  3
ACAD_GROUP
350
D
  3
ACAD_LAYOUT
350
1A
  3
ACAD_MATERIAL
350
C8
  3
ACAD_MLEADERSTYLE
350
2EC
  3
ACAD_MLINESTYLE
350
17
  3
ACAD_PLOTSETTINGS
350
19
  3
ACAD_PLOTSTYLENAME
350
E
  3
ACAD_SCALELIST
350
2CA
  3
ACAD_TABLESTYLE
350
123
  3
ACAD_VISUALSTYLE
350
296
  3
ACDB_RECOMPOSE_DATA
350
30D
  3
AcDbVariableDictionary
350
9E
  3
AcmDictionary
350
63
  3
AMG
350
49
  3
AMGSNAPSETTINGS
350
413
  0
DICTIONARY
  5
579
330
8
100
AcDbDictionary
280
     1
281
     1
  0
DICTIONARY
  5
39F
330
2
100
AcDbDictionary
280
     1
281
     1
  3
ACAD_LAYERSTATES
360
3A0
  0
DICTIONARY
  5
4CB
330
10
100
AcDbDictionary
280
     1
281
     1
  3
ADSK_XREC_LAYER_RECONCILED
360
4CC
  0
DICTIONARY
  5
4CD
330
392
100
AcDbDictionary
280
     1
281
     1
  3
ADSK_XREC_LAYER_RECONCILED
360
4CE
  0
DICTIONARY
  5
5D0
330
5CF
100
AcDbDictionary
280
     1
281
     1
  0
DICTIONARY
  5
5D2
330
5D1
100
AcDbDictionary
280
     1
281
     1
  0
DICTIONARY
  5
99
330
1F
100
AcDbDictionary
280
     1
281
     1
  0
DICTIONARY
  5
4C7
330
471
100
AcDbDictionary
280
     1
281
     1
  0
DICTIONARY
  5
C9
102
{ACAD_REACTORS
330
C
102
}
330
C
100
AcDbDictionary
281
     1
  0
DICTIONARY
  5
D
102
{ACAD_REACTORS
330
C
102
}
330
C
100
AcDbDictionary
281
     1
  0
DICTIONARY
  5
1A
102
{ACAD_REACTORS
330
C
102
}
330
C
100
AcDbDictionary
281
     1
  3
Layout1
350
1E
  3
Layout2
350
26
  3
Model
350
22
  0
DICTIONARY
  5
C8
102
{ACAD_REACTORS
330
C
102
}
330
C
100
AcDbDictionary
281
     1
  3
ByBlock
350
294
  3
ByLayer
350
293
  3
Global
350
295
  0
DICTIONARY
  5
2EC
102
{ACAD_REACTORS
330
C
102
}
330
C
100
AcDbDictionary
281
     1
  3
Standard
350
2ED
  0
DICTIONARY
  5
17
102
{ACAD_REACTORS
330
C
102
}
330
C
100
AcDbDictionary
281
     1
  3
Standard
350
18
  0
DICTIONARY
  5
19
102
{ACAD_REACTORS
330
C
102
}
330
C
100
AcDbDictionary
281
     1
  0
ACDBDICTIONARYWDFLT
  5
E
102
{ACAD_REACTORS
330
C
102
}
330
C
100
AcDbDictionary
281
     1
  3
Normal
350
F
100
AcDbDictionaryWithDefault
340
F
  0
DICTIONARY
  5
2CA
102
{ACAD_REACTORS
330
C
102
}
330
C
100
AcDbDictionary
281
     1
  3
A0
350
2CB
  3
A1
350
2CC
  3
A2
350
2CD
  3
A3
350
2CE
  3
A4
350
2CF
  3
A5
350
2D0
  3
A6
350
2D1
  3
A7
350
2D2
  3
A8
350
2D3
  3
A9
350
2D4
  3
B0
350
2D5
  3
B1
350
2D6
  3
B2
350
2D7
  3
B3
350
2D8
  3
B4
350
2D9
  3
B5
350
2DA
  3
B6
350
2DB
  3
B7
350
2DC
  3
B8
350
2DD
  3
B9
350
2DE
  3
C0
350
2DF
  3
C1
350
2E0
  3
C2
350
2E1
  3
C3
350
2E2
  3
C4
350
2E3
  3
C5
350
2E4
  3
C6
350
2E5
  3
C7
350
2E6
  3
C8
350
2E7
  3
C9
350
2E8
  3
D0
350
2E9
  3
D1
350
2EA
  3
D2
350
2EB
  0
DICTIONARY
  5
123
102
{ACAD_REACTORS
330
C
102
}
330
C
100
AcDbDictionary
281
     1
  3
Standard
350
124
  0
DICTIONARY
  5
296
102
{ACAD_REACTORS
330
C
102
}
330
C
100
AcDbDictionary
281
     1
  3
2dWireframe
350
29C
  3
3D Hidden
350
29E
  3
3dWireframe
350
29D
  3
Basic
350
29B
  3
Brighten
350
2A2
  3
ColorChange
350
2A6
  3
Conceptual
350
29F
  3
Dim
350
2A1
  3
Facepattern
350
2A5
  3
Flat
350
297
  3
FlatWithEdges
350
298
  3
Gouraud
350
299
  3
GouraudWithEdges
350
29A
  3
Linepattern
350
2A4
  3
Realistic
350
2A0
  3
Thicken
350
2A3
  0
XRECORD
  5
30D
102
{ACAD_REACTORS
330
C
102
}
330
C
100
AcDbXrecord
280
     1
 90
        1
330
124
  0
DICTIONARY
  5
9E
102
{ACAD_REACTORS
330
C
102
}
330
C
100
AcDbDictionary
281
     1
  3
CANNOSCALE
350
310
  3
CMLEADERSTYLE
350
30E
  3
CTABLESTYLE
350
144
  3
DIMASSOC
350
A0
  3
INDEXCTL
350
9F
  3
LAYEREVAL
350
36B
  3
LAYERNOTIFY
350
36C
  3
LIGHTINGUNITS
350
311
  3
MSLTSCALE
350
30F
  0
DICTIONARY
  5
63
102
{ACAD_REACTORS
330
C
102
}
330
C
100
AcDbDictionary
281
     1
  3
AcmStdDictionary
350
69
  3
AMDTSECTSYM_ARROWCOLOR
350
12C
  0
DICTIONARY
  5
49
102
{ACAD_REACTORS
330
C
102
}
330
C
100
AcDbDictionary
281
     1
  0
DICTIONARY
  5
413
102
{ACAD_REACTORS
330
C
102
}
330
C
100
AcDbDictionary
281
     1
  0
DICTIONARY
  5
3A0
102
{ACAD_REACTORS
330
39F
102
}
330
39F
100
AcDbDictionary
281
     1
  0
XRECORD
  5
4CC
102
{ACAD_REACTORS
330
4CB
102
}
330
4CB
100
AcDbXrecord
280
     1
290
     1
  0
XRECORD
  5
4CE
102
{ACAD_REACTORS
330
4CD
102
}
330
4CD
100
AcDbXrecord
280
     1
290
     1
  0
LAYOUT
  5
1E
102
{ACAD_REACTORS
330
1A
102
}
330
1A
100
AcDbPlotSettings
  1

  2

  4

  6

 40
0.0
 41
0.0
 42
0.0
 43
0.0
 44
0.0
 45
0.0
 46
0.0
 47
0.0
 48
0.0
 49
0.0
140
0.0
141
0.0
142
1.0
143
1.0
 70
   688
 72
     0
 73
     0
 74
     5
  7

 75
    16
147
1.0
 76
     0
 77
     2
 78
   300
148
0.0
149
0.0
100
AcDbLayout
  1
Layout1
 70
     1
 71
     1
 10
0.0
 20
0.0
 11
12.0
 21
9.0
 12
0.0
 22
0.0
 32
0.0
 14
1.000000000000000E+20
 24
1.000000000000000E+20
 34
1.000000000000000E+20
 15
-1.000000000000000E+20
 25
-1.000000000000000E+20
 35
-1.000000000000000E+20
146
0.0
 13
0.0
 23
0.0
 33
0.0
 16
1.0
 26
0.0
 36
0.0
 17
0.0
 27
1.0
 37
0.0
 76
     0
330
1B
  0
LAYOUT
  5
26
102
{ACAD_REACTORS
330
1A
102
}
330
1A
100
AcDbPlotSettings
  1

  2

  4

  6

 40
0.0
 41
0.0
 42
0.0
 43
0.0
 44
0.0
 45
0.0
 46
0.0
 47
0.0
 48
0.0
 49
0.0
140
0.0
141
0.0
142
1.0
143
1.0
 70
   688
 72
     0
 73
     0
 74
     5
  7

 75
    16
147
1.0
 76
     0
 77
     2
 78
   300
148
0.0
149
0.0
100
AcDbLayout
  1
Layout2
 70
     1
 71
     2
 10
0.0
 20
0.0
 11
12.0
 21
9.0
 12
0.0
 22
0.0
 32
0.0
 14
0.0
 24
0.0
 34
0.0
 15
0.0
 25
0.0
 35
0.0
146
0.0
 13
0.0
 23
0.0
 33
0.0
 16
1.0
 26
0.0
 36
0.0
 17
0.0
 27
1.0
 37
0.0
 76
     0
330
23
  0
LAYOUT
  5
22
102
{ACAD_REACTORS
330
1A
102
}
330
1A
100
AcDbPlotSettings
  1

  2

  4

  6

 40
0.0
 41
0.0
 42
0.0
 43
0.0
 44
0.0
 45
0.0
 46
0.0
 47
0.0
 48
0.0
 49
0.0
140
0.0
141
0.0
142
1.0
143
1.0
 70
  1712
 72
     0
 73
     0
 74
     0
  7

 75
     0
147
1.0
 76
     0
 77
     2
 78
   300
148
0.0
149
0.0
100
AcDbLayout
  1
Model
 70
     1
 71
     0
 10
0.0
 20
0.0
 11
12.0
 21
9.0
 12
0.0
 22
0.0
 32
0.0
 14
0.0
 24
0.0
 34
0.0
 15
0.0
 25
0.0
 35
0.0
146
0.0
 13
0.0
 23
0.0
 33
0.0
 16
1.0
 26
0.0
 36
0.0
 17
0.0
 27
1.0
 37
0.0
 76
     0
330
1F
331
291
  0
MATERIAL
  5
294
102
{ACAD_REACTORS
330
C8
102
}
330
C8
100
AcDbMaterial
  1
ByBlock
 73
     1
 78
     1
172
     1
176
     1
270
     1
274
     1
 94
       63
  0
MATERIAL
  5
293
102
{ACAD_REACTORS
330
C8
102
}
330
C8
100
AcDbMaterial
  1
ByLayer
 73
     1
 78
     1
172
     1
176
     1
270
     1
274
     1
 94
       63
  0
MATERIAL
  5
295
102
{ACAD_REACTORS
330
C8
102
}
330
C8
100
AcDbMaterial
  1
Global
 73
     1
 78
     1
172
     1
176
     1
270
     1
274
     1
 94
       63
  0
MLEADERSTYLE
  5
2ED
102
{ACAD_REACTORS
330
2EC
102
}
330
2EC
100
AcDbMLeaderStyle
170
     2
171
     1
172
     0
 90
        2
 40
0.0
 41
0.0
173
     1
 91
-1056964608
340
14
 92
       -2
290
     1
 42
0.09
291
     1
 43
0.36
  3
Standard
 44
0.18
300

342
11
174
     1
178
     6
175
     1
176
     0
 93
-1056964608
 45
0.18
292
     0
297
     0
 46
0.18
 94
-1056964608
 47
1.0
 49
1.0
140
1.0
293
     1
141
0.0
294
     1
177
     0
142
1.0
295
     0
296
     0
143
0.125
1001
ACAD_MLEADERVER
1070
     2
  0
MLINESTYLE
  5
18
102
{ACAD_REACTORS
330
17
102
}
330
17
100
AcDbMlineStyle
  2
STANDARD
 70
     0
  3

 62
   256
 51
90.0
 52
90.0
 71
     2
 49
0.5
 62
   256
  6
BYLAYER
 49
-0.5
 62
   256
  6
BYLAYER
  0
ACDBPLACEHOLDER
  5
F
102
{ACAD_REACTORS
330
E
102
}
330
E
  0
SCALE
  5
2CB
102
{ACAD_REACTORS
330
2CA
102
}
330
2CA
100
AcDbScale
 70
     0
300
1:1
140
1.0
141
1.0
290
     1
  0
SCALE
  5
2CC
102
{ACAD_REACTORS
330
2CA
102
}
330
2CA
100
AcDbScale
 70
     0
300
1:2
140
1.0
141
2.0
290
     0
  0
SCALE
  5
2CD
102
{ACAD_REACTORS
330
2CA
102
}
330
2CA
100
AcDbScale
 70
     0
300
1:4
140
1.0
141
4.0
290
     0
  0
SCALE
  5
2CE
102
{ACAD_REACTORS
330
2CA
102
}
330
2CA
100
AcDbScale
 70
     0
300
1:5
140
1.0
141
5.0
290
     0
  0
SCALE
  5
2CF
102
{ACAD_REACTORS
330
2CA
102
}
330
2CA
100
AcDbScale
 70
     0
300
1:8
140
1.0
141
8.0
290
     0
  0
SCALE
  5
2D0
102
{ACAD_REACTORS
330
2CA
102
}
330
2CA
100
AcDbScale
 70
     0
300
1:10
140
1.0
141
10.0
290
     0
  0
SCALE
  5
2D1
102
{ACAD_REACTORS
330
2CA
102
}
330
2CA
100
AcDbScale
 70
     0
300
1:16
140
1.0
141
16.0
290
     0
  0
SCALE
  5
2D2
102
{ACAD_REACTORS
330
2CA
102
}
330
2CA
100
AcDbScale
 70
     0
300
1:20
140
1.0
141
20.0
290
     0
  0
SCALE
  5
2D3
102
{ACAD_REACTORS
330
2CA
102
}
330
2CA
100
AcDbScale
 70
     0
300
1:30
140
1.0
141
30.0
290
     0
  0
SCALE
  5
2D4
102
{ACAD_REACTORS
330
2CA
102
}
330
2CA
100
AcDbScale
 70
     0
300
1:40
140
1.0
141
40.0
290
     0
  0
SCALE
  5
2D5
102
{ACAD_REACTORS
330
2CA
102
}
330
2CA
100
AcDbScale
 70
     0
300
1:50
140
1.0
141
50.0
290
     0
  0
SCALE
  5
2D6
102
{ACAD_REACTORS
330
2CA
102
}
330
2CA
100
AcDbScale
 70
     0
300
1:100
140
1.0
141
100.0
290
     0
  0
SCALE
  5
2D7
102
{ACAD_REACTORS
330
2CA
102
}
330
2CA
100
AcDbScale
 70
     0
300
2:1
140
2.0
141
1.0
290
     0
  0
SCALE
  5
2D8
102
{ACAD_REACTORS
330
2CA
102
}
330
2CA
100
AcDbScale
 70
     0
300
4:1
140
4.0
141
1.0
290
     0
  0
SCALE
  5
2D9
102
{ACAD_REACTORS
330
2CA
102
}
330
2CA
100
AcDbScale
 70
     0
300
8:1
140
8.0
141
1.0
290
     0
  0
SCALE
  5
2DA
102
{ACAD_REACTORS
330
2CA
102
}
330
2CA
100
AcDbScale
 70
     0
300
10:1
140
10.0
141
1.0
290
     0
  0
SCALE
  5
2DB
102
{ACAD_REACTORS
330
2CA
102
}
330
2CA
100
AcDbScale
 70
     0
300
100:1
140
100.0
141
1.0
290
     0
  0
SCALE
  5
2DC
102
{ACAD_REACTORS
330
2CA
102
}
330
2CA
100
AcDbScale
 70
     0
300
1/128" = 1'-0"
140
0.0078125
141
12.0
290
     0
  0
SCALE
  5
2DD
102
{ACAD_REACTORS
330
2CA
102
}
330
2CA
100
AcDbScale
 70
     0
300
1/64" = 1'-0"
140
0.015625
141
12.0
290
     0
  0
SCALE
  5
2DE
102
{ACAD_REACTORS
330
2CA
102
}
330
2CA
100
AcDbScale
 70
     0
300
1/32" = 1'-0"
140
0.03125
141
12.0
290
     0
  0
SCALE
  5
2DF
102
{ACAD_REACTORS
330
2CA
102
}
330
2CA
100
AcDbScale
 70
     0
300
1/16" = 1'-0"
140
0.0625
141
12.0
290
     0
  0
SCALE
  5
2E0
102
{ACAD_REACTORS
330
2CA
102
}
330
2CA
100
AcDbScale
 70
     0
300
3/32" = 1'-0"
140
0.09375
141
12.0
290
     0
  0
SCALE
  5
2E1
102
{ACAD_REACTORS
330
2CA
102
}
330
2CA
100
AcDbScale
 70
     0
300
1/8" = 1'-0"
140
0.125
141
12.0
290
     0
  0
SCALE
  5
2E2
102
{ACAD_REACTORS
330
2CA
102
}
330
2CA
100
AcDbScale
 70
     0
300
3/16" = 1'-0"
140
0.1875
141
12.0
290
     0
  0
SCALE
  5
2E3
102
{ACAD_REACTORS
330
2CA
102
}
330
2CA
100
AcDbScale
 70
     0
300
1/4" = 1'-0"
140
0.25
141
12.0
290
     0
  0
SCALE
  5
2E4
102
{ACAD_REACTORS
330
2CA
102
}
330
2CA
100
AcDbScale
 70
     0
300
3/8" = 1'-0"
140
0.375
141
12.0
290
     0
  0
SCALE
  5
2E5
102
{ACAD_REACTORS
330
2CA
102
}
330
2CA
100
AcDbScale
 70
     0
300
1/2" = 1'-0"
140
0.5
141
12.0
290
     0
  0
SCALE
  5
2E6
102
{ACAD_REACTORS
330
2CA
102
}
330
2CA
100
AcDbScale
 70
     0
300
3/4" = 1'-0"
140
0.75
141
12.0
290
     0
  0
SCALE
  5
2E7
102
{ACAD_REACTORS
330
2CA
102
}
330
2CA
100
AcDbScale
 70
     0
300
1" = 1'-0"
140
1.0
141
12.0
290
     0
  0
SCALE
  5
2E8
102
{ACAD_REACTORS
330
2CA
102
}
330
2CA
100
AcDbScale
 70
     0
300
1-1/2" = 1'-0"
140
1.5
141
12.0
290
     0
  0
SCALE
  5
2E9
102
{ACAD_REACTORS
330
2CA
102
}
330
2CA
100
AcDbScale
 70
     0
300
3" = 1'-0"
140
3.0
141
12.0
290
     0
  0
SCALE
  5
2EA
102
{ACAD_REACTORS
330
2CA
102
}
330
2CA
100
AcDbScale
 70
     0
300
6" = 1'-0"
140
6.0
141
12.0
290
     0
  0
SCALE
  5
2EB
102
{ACAD_REACTORS
330
2CA
102
}
330
2CA
100
AcDbScale
 70
     0
300
1'-0" = 1'-0"
140
12.0
141
12.0
290
     0
  0
TABLESTYLE
  5
124
102
{ACAD_XDICTIONARY
360
30B
102
}
102
{ACAD_REACTORS
330
123
102
}
330
123
100
AcDbTableStyle
  3
Standard
 70
     0
 71
     0
 40
0.06
 41
0.06
280
     0
281
     0
  7
STANDARD
140
0.18
170
     2
 62
     0
 63
     7
283
     0
 90
      512
 91
        0
  1

274
    -2
284
     1
 64
     0
275
    -2
285
     1
 65
     0
276
    -2
286
     1
 66
     0
277
    -2
287
     1
 67
     0
278
    -2
288
     1
 68
     0
279
    -2
289
     1
 69
     0
  7
STANDARD
140
0.25
170
     5
 62
     0
 63
     7
283
     0
 90
      512
 91
        0
  1

274
    -2
284
     1
 64
     0
275
    -2
285
     1
 65
     0
276
    -2
286
     1
 66
     0
277
    -2
287
     1
 67
     0
278
    -2
288
     1
 68
     0
279
    -2
289
     1
 69
     0
  7
STANDARD
140
0.18
170
     5
 62
     0
 63
     7
283
     0
 90
      512
 91
        0
  1

274
    -2
284
     1
 64
     0
275
    -2
285
     1
 65
     0
276
    -2
286
     1
 66
     0
277
    -2
287
     1
 67
     0
278
    -2
288
     1
 68
     0
279
    -2
289
     1
 69
     0
  0
VISUALSTYLE
  5
29C
102
{ACAD_REACTORS
330
296
102
}
330
296
100
AcDbVisualStyle
  2
2dWireframe
 70
     4
 71
     0
 72
     2
 73
     0
 90
        0
 40
-0.6
 41
-30.0
 62
     5
 63
     7
421
 16777215
 74
     1
 91
        4
 64
     7
 65
   257
 75
     1
175
     1
 42
1.0
 92
        0
 66
   257
 43
1.0
 76
     1
 77
     6
 78
     2
 67
     7
 79
     5
170
     0
171
     0
290
     0
174
     0
 93
        1
 44
0.0
173
     0
291
     0
 45
0.0
  0
VISUALSTYLE
  5
29E
102
{ACAD_REACTORS
330
296
102
}
330
296
100
AcDbVisualStyle
  2
3D Hidden
 70
     6
 71
     1
 72
     2
 73
     2
 90
        0
 40
-0.6
 41
-30.0
 62
     5
 63
     7
421
 16777215
 74
     2
 91
        2
 64
     7
 65
   257
 75
     2
175
     1
 42
40.0
 92
        0
 66
   257
 43
1.0
 76
     1
 77
     6
 78
     2
 67
     7
 79
     3
170
     0
171
     0
290
     0
174
     0
 93
        1
 44
0.0
173
     0
291
     0
 45
0.0
  0
VISUALSTYLE
  5
29D
102
{ACAD_REACTORS
330
296
102
}
330
296
100
AcDbVisualStyle
  2
3dWireframe
 70
     5
 71
     0
 72
     2
 73
     0
 90
        0
 40
-0.6
 41
-30.0
 62
     5
 63
     7
421
 16777215
 74
     1
 91
        4
 64
     7
 65
   257
 75
     1
175
     1
 42
1.0
 92
        0
 66
   257
 43
1.0
 76
     1
 77
     6
 78
     2
 67
     7
 79
     5
170
     0
171
     0
290
     0
174
     0
 93
        1
 44
0.0
173
     0
291
     0
 45
0.0
  0
VISUALSTYLE
  5
29B
102
{ACAD_REACTORS
330
296
102
}
330
296
100
AcDbVisualStyle
  2
Basic
 70
     7
 71
     1
 72
     0
 73
     1
 90
        0
 40
-0.6
 41
-30.0
 62
     5
 63
     7
421
 16777215
 74
     0
 91
        4
 64
     7
 65
   257
 75
     1
175
     1
 42
1.0
 92
        8
 66
     7
 43
1.0
 76
     1
 77
     6
 78
     2
 67
     7
 79
     5
170
     0
171
     0
290
     0
174
     0
 93
        1
 44
0.0
173
     0
291
     1
 45
0.0
  0
VISUALSTYLE
  5
2A2
102
{ACAD_REACTORS
330
296
102
}
330
296
100
AcDbVisualStyle
  2
Brighten
 70
    12
 71
     2
 72
     2
 73
     0
 90
        0
 40
-0.6
 41
-30.0
 62
     5
 63
     7
421
 16777215
 74
     1
 91
        4
 64
     7
 65
   257
 75
     1
175
     1
 42
1.0
 92
        8
 66
     7
 43
1.0
 76
     1
 77
     6
 78
     2
 67
     7
 79
     5
170
     0
171
     0
290
     0
174
     0
 93
        1
 44
50.0
173
     0
291
     1
 45
0.0
  0
VISUALSTYLE
  5
2A6
102
{ACAD_REACTORS
330
296
102
}
330
296
100
AcDbVisualStyle
  2
ColorChange
 70
    16
 71
     2
 72
     2
 73
     3
 90
        0
 40
-0.6
 41
-30.0
 62
     5
 63
     8
421
  8421504
 74
     1
 91
        4
 64
     7
 65
   257
 75
     1
175
     1
 42
1.0
 92
        8
 66
     8
424
  8421504
 43
1.0
 76
     1
 77
     6
 78
     2
 67
     7
 79
     5
170
     0
171
     0
290
     0
174
     0
 93
        1
 44
0.0
173
     0
291
     1
 45
0.0
  0
VISUALSTYLE
  5
29F
102
{ACAD_REACTORS
330
296
102
}
330
296
100
AcDbVisualStyle
  2
Conceptual
 70
     9
 71
     3
 72
     2
 73
     0
 90
        0
 40
-0.6
 41
-30.0
 62
     5
 63
     7
421
 16777215
 74
     2
 91
        2
 64
     7
 65
   257
 75
     1
175
     1
 42
40.0
 92
        8
 66
     7
 43
1.0
 76
     1
 77
     6
 78
     2
 67
     7
 79
     3
170
     0
171
     0
290
     0
174
     0
 93
        1
 44
0.0
173
     0
291
     0
 45
0.0
  0
VISUALSTYLE
  5
2A1
102
{ACAD_REACTORS
330
296
102
}
330
296
100
AcDbVisualStyle
  2
Dim
 70
    11
 71
     2
 72
     2
 73
     0
 90
        0
 40
-0.6
 41
-30.0
 62
     5
 63
     7
421
 16777215
 74
     1
 91
        4
 64
     7
 65
   257
 75
     1
175
     1
 42
1.0
 92
        8
 66
     7
 43
1.0
 76
     1
 77
     6
 78
     2
 67
     7
 79
     5
170
     0
171
     0
290
     0
174
     0
 93
        1
 44
-50.0
173
     0
291
     1
 45
0.0
  0
VISUALSTYLE
  5
2A5
102
{ACAD_REACTORS
330
296
102
}
330
296
100
AcDbVisualStyle
  2
Facepattern
 70
    15
 71
     2
 72
     2
 73
     0
 90
        0
 40
-0.6
 41
-30.0
 62
     5
 63
     7
421
 16777215
 74
     1
 91
        4
 64
     7
 65
   257
 75
     1
175
     1
 42
1.0
 92
        8
 66
     7
 43
1.0
 76
     1
 77
     6
 78
     2
 67
     7
 79
     5
170
     0
171
     0
290
     0
174
     0
 93
        1
 44
0.0
173
     0
291
     1
 45
0.0
  0
VISUALSTYLE
  5
297
102
{ACAD_REACTORS
330
296
102
}
330
296
100
AcDbVisualStyle
  2
Flat
 70
     0
 71
     2
 72
     1
 73
     1
 90
        2
 40
-0.6
 41
30.0
 62
     5
 63
     7
421
 16777215
 74
     0
 91
        4
 64
     7
 65
   257
 75
     1
175
     1
 42
1.0
 92
        8
 66
     7
 43
1.0
 76
     1
 77
     6
 78
     2
 67
     7
 79
     5
170
     0
171
     0
290
     0
174
     0
 93
       13
 44
0.0
173
     0
291
     1
 45
0.0
  0
VISUALSTYLE
  5
298
102
{ACAD_REACTORS
330
296
102
}
330
296
100
AcDbVisualStyle
  2
FlatWithEdges
 70
     1
 71
     2
 72
     1
 73
     1
 90
        2
 40
-0.6
 41
30.0
 62
     5
 63
     7
421
 16777215
 74
     1
 91
        4
 64
     7
 65
   257
 75
     1
175
     1
 42
1.0
 92
        0
 66
   257
 43
1.0
 76
     1
 77
     6
 78
     2
 67
     7
 79
     5
170
     0
171
     0
290
     0
174
     0
 93
       13
 44
0.0
173
     0
291
     1
 45
0.0
  0
VISUALSTYLE
  5
299
102
{ACAD_REACTORS
330
296
102
}
330
296
100
AcDbVisualStyle
  2
Gouraud
 70
     2
 71
     2
 72
     2
 73
     1
 90
        2
 40
-0.6
 41
30.0
 62
     5
 63
     7
421
 16777215
 74
     0
 91
        4
 64
     7
 65
   257
 75
     1
175
     1
 42
1.0
 92
        0
 66
     7
 43
1.0
 76
     1
 77
     6
 78
     2
 67
     7
 79
     5
170
     0
171
     0
290
     0
174
     0
 93
       13
 44
0.0
173
     0
291
     1
 45
0.0
  0
VISUALSTYLE
  5
29A
102
{ACAD_REACTORS
330
296
102
}
330
296
100
AcDbVisualStyle
  2
GouraudWithEdges
 70
     3
 71
     2
 72
     2
 73
     1
 90
        2
 40
-0.6
 41
30.0
 62
     5
 63
     7
421
 16777215
 74
     1
 91
        4
 64
     7
 65
   257
 75
     1
175
     1
 42
1.0
 92
        0
 66
   257
 43
1.0
 76
     1
 77
     6
 78
     2
 67
     7
 79
     5
170
     0
171
     0
290
     0
174
     0
 93
       13
 44
0.0
173
     0
291
     1
 45
0.0
  0
VISUALSTYLE
  5
2A4
102
{ACAD_REACTORS
330
296
102
}
330
296
100
AcDbVisualStyle
  2
Linepattern
 70
    14
 71
     2
 72
     2
 73
     0
 90
        0
 40
-0.6
 41
-30.0
 62
     5
 63
     7
421
 16777215
 74
     1
 91
        4
 64
     7
 65
   257
 75
     7
175
     7
 42
1.0
 92
        8
 66
     7
 43
1.0
 76
     1
 77
     6
 78
     2
 67
     7
 79
     5
170
     0
171
     0
290
     0
174
     0
 93
        1
 44
0.0
173
     0
291
     1
 45
0.0
  0
VISUALSTYLE
  5
2A0
102
{ACAD_REACTORS
330
296
102
}
330
296
100
AcDbVisualStyle
  2
Realistic
 70
     8
 71
     2
 72
     2
 73
     0
 90
        0
 40
-0.6
 41
-30.0
 62
     5
 63
     7
421
 16777215
 74
     1
 91
        0
 64
     7
 65
   257
 75
     1
175
     1
 42
1.0
 92
        8
 66
     8
424
  7895160
 43
1.0
 76
     1
 77
     6
 78
     2
 67
     7
 79
     5
170
     0
171
     0
290
     0
174
     0
 93
       13
 44
0.0
173
     0
291
     0
 45
0.0
  0
VISUALSTYLE
  5
2A3
102
{ACAD_REACTORS
330
296
102
}
330
296
100
AcDbVisualStyle
  2
Thicken
 70
    13
 71
     2
 72
     2
 73
     0
 90
        0
 40
-0.6
 41
-30.0
 62
     5
 63
     7
421
 16777215
 74
     1
 91
        4
 64
     7
 65
   257
 75
     1
175
     1
 42
1.0
 92
       12
 66
     7
 43
1.0
 76
     1
 77
     6
 78
     2
 67
     7
 79
     5
170
     0
171
     0
290
     0
174
     0
 93
        1
 44
0.0
173
     0
291
     1
 45
0.0
  0
DICTIONARYVAR
  5
310
102
{ACAD_REACTORS
330
9E
102
}
330
9E
100
DictionaryVariables
280
     0
  1
1:1
  0
DICTIONARYVAR
  5
30E
102
{ACAD_REACTORS
330
9E
102
}
330
9E
100
DictionaryVariables
280
     0
  1
STANDARD
  0
DICTIONARYVAR
  5
144
102
{ACAD_REACTORS
330
9E
102
}
330
9E
100
DictionaryVariables
280
     0
  1
STANDARD
  0
DICTIONARYVAR
  5
A0
102
{ACAD_REACTORS
330
9E
102
}
330
9E
100
DictionaryVariables
280
     0
  1
2
  0
DICTIONARYVAR
  5
9F
102
{ACAD_REACTORS
330
9E
102
}
330
9E
100
DictionaryVariables
280
     0
  1
1
  0
DICTIONARYVAR
  5
36B
102
{ACAD_REACTORS
330
9E
102
}
330
9E
100
DictionaryVariables
280
     0
  1
1
  0
DICTIONARYVAR
  5
36C
102
{ACAD_REACTORS
330
9E
102
}
330
9E
100
DictionaryVariables
280
     0
  1
15
  0
DICTIONARYVAR
  5
311
102
{ACAD_REACTORS
330
9E
102
}
330
9E
100
DictionaryVariables
280
     0
  1
0
  0
DICTIONARYVAR
  5
30F
102
{ACAD_REACTORS
330
9E
102
}
330
9E
100
DictionaryVariables
280
     0
  1
0
  0
DICTIONARY
  5
69
102
{ACAD_REACTORS
330
63
102
}
330
63
100
AcDbDictionary
281
     1
  0
XRECORD
  5
12C
102
{ACAD_REACTORS
330
63
102
}
330
63
100
AcDbXrecord
280
     1
 90
-1023410169
  0
DICTIONARY
  5
30B
330
124
100
AcDbDictionary
280
     1
281
     1
  3
ACAD_ROUNDTRIP_2008_TABLESTYLE_CELLSTYLEMAP
360
935
  0
CELLSTYLEMAP
  5
935
102
{ACAD_REACTORS
330
30B
102
}
330
30B
100
AcDbCellStyleMap
 90
        3
300
CELLSTYLE
  1
TABLEFORMAT_BEGIN
 90
        5
170
     1
 91
        0
 92
    32768
 62
   257
 93
        1
300
CONTENTFORMAT
  1
CONTENTFORMAT_BEGIN
 90
        0
 91
        0
 92
      512
 93
        0
300

 40
0.0
140
1.0
 94
        5
 62
     0
340
11
144
0.25
309
CONTENTFORMAT_END
171
     0
 94
        6
 95
        1
302
GRIDFORMAT
  1
GRIDFORMAT_BEGIN
 90
        0
 91
        1
 62
     0
 92
       -2
340
0
 93
        0
 40
0.045
309
GRIDFORMAT_END
 95
        2
302
GRIDFORMAT
  1
GRIDFORMAT_BEGIN
 90
        0
 91
        1
 62
     0
 92
       -2
340
0
 93
        0
 40
0.045
309
GRIDFORMAT_END
 95
        4
302
GRIDFORMAT
  1
GRIDFORMAT_BEGIN
 90
        0
 91
        1
 62
     0
 92
       -2
340
0
 93
        0
 40
0.045
309
GRIDFORMAT_END
 95
        8
302
GRIDFORMAT
  1
GRIDFORMAT_BEGIN
 90
        0
 91
        1
 62
     0
 92
       -2
340
0
 93
        0
 40
0.045
309
GRIDFORMAT_END
 95
       16
302
GRIDFORMAT
  1
GRIDFORMAT_BEGIN
 90
        0
 91
        1
 62
     0
 92
       -2
340
0
 93
        0
 40
0.045
309
GRIDFORMAT_END
 95
       32
302
GRIDFORMAT
  1
GRIDFORMAT_BEGIN
 90
        0
 91
        1
 62
     0
 92
       -2
340
0
 93
        0
 40
0.045
309
GRIDFORMAT_END
309
TABLEFORMAT_END
  1
CELLSTYLE_BEGIN
 90
        1
 91
        1
300
_TITLE
309
CELLSTYLE_END
300
CELLSTYLE
  1
TABLEFORMAT_BEGIN
 90
        5
170
     1
 91
        0
 92
        0
 62
   257
 93
        1
300
CONTENTFORMAT
  1
CONTENTFORMAT_BEGIN
 90
        0
 91
        0
 92
      512
 93
        0
300

 40
0.0
140
1.0
 94
        5
 62
     0
340
11
144
0.18
309
CONTENTFORMAT_END
171
     0
 94
        6
 95
        1
302
GRIDFORMAT
  1
GRIDFORMAT_BEGIN
 90
        0
 91
        1
 62
     0
 92
       -2
340
0
 93
        0
 40
0.045
309
GRIDFORMAT_END
 95
        2
302
GRIDFORMAT
  1
GRIDFORMAT_BEGIN
 90
        0
 91
        1
 62
     0
 92
       -2
340
0
 93
        0
 40
0.045
309
GRIDFORMAT_END
 95
        4
302
GRIDFORMAT
  1
GRIDFORMAT_BEGIN
 90
        0
 91
        1
 62
     0
 92
       -2
340
0
 93
        0
 40
0.045
309
GRIDFORMAT_END
 95
        8
302
GRIDFORMAT
  1
GRIDFORMAT_BEGIN
 90
        0
 91
        1
 62
     0
 92
       -2
340
0
 93
        0
 40
0.045
309
GRIDFORMAT_END
 95
       16
302
GRIDFORMAT
  1
GRIDFORMAT_BEGIN
 90
        0
 91
        1
 62
     0
 92
       -2
340
0
 93
        0
 40
0.045
309
GRIDFORMAT_END
 95
       32
302
GRIDFORMAT
  1
GRIDFORMAT_BEGIN
 90
        0
 91
        1
 62
     0
 92
       -2
340
0
 93
        0
 40
0.045
309
GRIDFORMAT_END
309
TABLEFORMAT_END
  1
CELLSTYLE_BEGIN
 90
        2
 91
        1
300
_HEADER
309
CELLSTYLE_END
300
CELLSTYLE
  1
TABLEFORMAT_BEGIN
 90
        5
170
     1
 91
        0
 92
        0
 62
   257
 93
        1
300
CONTENTFORMAT
  1
CONTENTFORMAT_BEGIN
 90
        0
 91
        0
 92
      512
 93
        0
300

 40
0.0
140
1.0
 94
        2
 62
     0
340
11
144
0.18
309
CONTENTFORMAT_END
171
     0
 94
        6
 95
        1
302
GRIDFORMAT
  1
GRIDFORMAT_BEGIN
 90
        0
 91
        1
 62
     0
 92
       -2
340
0
 93
        0
 40
0.045
309
GRIDFORMAT_END
 95
        2
302
GRIDFORMAT
  1
GRIDFORMAT_BEGIN
 90
        0
 91
        1
 62
     0
 92
       -2
340
0
 93
        0
 40
0.045
309
GRIDFORMAT_END
 95
        4
302
GRIDFORMAT
  1
GRIDFORMAT_BEGIN
 90
        0
 91
        1
 62
     0
 92
       -2
340
0
 93
        0
 40
0.045
309
GRIDFORMAT_END
 95
        8
302
GRIDFORMAT
  1
GRIDFORMAT_BEGIN
 90
        0
 91
        1
 62
     0
 92
       -2
340
0
 93
        0
 40
0.045
309
GRIDFORMAT_END
 95
       16
302
GRIDFORMAT
  1
GRIDFORMAT_BEGIN
 90
        0
 91
        1
 62
     0
 92
       -2
340
0
 93
        0
 40
0.045
309
GRIDFORMAT_END
 95
       32
302
GRIDFORMAT
  1
GRIDFORMAT_BEGIN
 90
        0
 91
        1
 62
     0
 92
       -2
340
0
 93
        0
 40
0.045
309
GRIDFORMAT_END
309
TABLEFORMAT_END
  1
CELLSTYLE_BEGIN
 90
        3
 91
        2
300
_DATA
309
CELLSTYLE_END
  0
ENDSEC
  0
EOF
