  0
SECTION
  2
HEADER
  9
$ACADVER
  1
AC1021
  9
$ACADMAINTVER
 70
    50
  9
$DWGCODEPAGE
  3
ANSI_936
  9
$LASTSAVEDBY
  1
ko69185
  9
$CUSTOMPROPERTYTAG
  1
AmdtFileType
  9
$CUSTOMPROPERTY
  1
84
  9
$INSBASE
 10
0.0
 20
0.0
 30
0.0
  9
$EXTMIN
 10
875.9394018630082
 20
554.6711289074501
 30
0.0
  9
$EXTMAX
 10
9966.108699482255
 20
11704.31053634765
 30
0.0
  9
$LIMMIN
 10
0.0
 20
0.0
  9
$LIMMAX
 10
17.0
 20
11.0
  9
$ORTHOMODE
 70
     0
  9
$REGENMODE
 70
     1
  9
$FILLMODE
 70
     1
  9
$QTEXTMODE
 70
     0
  9
$MIRRTEXT
 70
     1
  9
$LTSCALE
 40
1.0
  9
$ATTMODE
 70
     1
  9
$TEXTSIZE
 40
0.2
  9
$TRACEWID
 40
0.05
  9
$TEXTSTYLE
  7
STANDARD
  9
$CLAYER
  8
0
  9
$CELTYPE
  6
ByLayer
  9
$CECOLOR
 62
   256
  9
$CELTSCALE
 40
1.0
  9
$DISPSILH
 70
     0
  9
$DIMSCALE
 40
1.0
  9
$DIMASZ
 40
0.12
  9
$DIMEXO
 40
0.05
  9
$DIMDLI
 40
0.5
  9
$DIMRND
 40
0.0
  9
$DIMDLE
 40
0.0
  9
$DIMEXE
 40
0.1
  9
$DIMTP
 40
0.1
  9
$DIMTM
 40
0.1
  9
$DIMTXT
 40
0.12
  9
$DIMCEN
 40
0.0
  9
$DIMTSZ
 40
0.0
  9
$DIMTOL
 70
     0
  9
$DIMLIM
 70
     0
  9
$DIMTIH
 70
     1
  9
$DIMTOH
 70
     1
  9
$DIMSE1
 70
     0
  9
$DIMSE2
 70
     0
  9
$DIMTAD
 70
     0
  9
$DIMZIN
 70
     7
  9
$DIMBLK
  1

  9
$DIMASO
 70
     1
  9
$DIMSHO
 70
     1
  9
$DIMPOST
  1

  9
$DIMAPOST
  1
mm
  9
$DIMALT
 70
     0
  9
$DIMALTD
 70
     2
  9
$DIMALTF
 40
25.4
  9
$DIMLFAC
 40
1.0
  9
$DIMTOFL
 70
     0
  9
$DIMTVP
 40
0.0
  9
$DIMTIX
 70
     0
  9
$DIMSOXD
 70
     0
  9
$DIMSAH
 70
     0
  9
$DIMBLK1
  1

  9
$DIMBLK2
  1

  9
$DIMSTYLE
  2
AM_ANSI
  9
$DIMCLRD
 70
   256
  9
$DIMCLRE
 70
   256
  9
$DIMCLRT
 70
   140
  9
$DIMTFAC
 40
0.71
  9
$DIMGAP
 40
0.06
  9
$DIMJUST
 70
     0
  9
$DIMSD1
 70
     0
  9
$DIMSD2
 70
     0
  9
$DIMTOLJ
 70
     1
  9
$DIMTZIN
 70
     7
  9
$DIMALTZ
 70
     0
  9
$DIMALTTZ
 70
     0
  9
$DIMUPT
 70
     0
  9
$DIMDEC
 70
     4
  9
$DIMTDEC
 70
     4
  9
$DIMALTU
 70
     2
  9
$DIMALTTD
 70
     4
  9
$DIMTXSTY
  7
STANDARD
  9
$DIMAUNIT
 70
     0
  9
$DIMADEC
 70
     0
  9
$DIMALTRND
 40
0.0
  9
$DIMAZIN
 70
     2
  9
$DIMDSEP
 70
    46
  9
$DIMATFIT
 70
     3
  9
$DIMFRAC
 70
     0
  9
$DIMLDRBLK
  1

  9
$DIMLUNIT
 70
     2
  9
$DIMLWD
 70
    -1
  9
$DIMLWE
 70
    -1
  9
$DIMTMOVE
 70
     0
  9
$DIMFXL
 40
1.0
  9
$DIMFXLON
 70
     0
  9
$DIMJOGANG
 40
0.7853981633974483
  9
$DIMTFILL
 70
     0
  9
$DIMTFILLCLR
 70
     0
  9
$DIMARCSYM
 70
     1
  9
$DIMLTYPE
  6
ByBlock
  9
$DIMLTEX1
  6
ByBlock
  9
$DIMLTEX2
  6
ByBlock
  9
$LUNITS
 70
     2
  9
$LUPREC
 70
     4
  9
$SKETCHINC
 40
0.1
  9
$FILLETRAD
 40
0.125
  9
$AUNITS
 70
     0
  9
$AUPREC
 70
     0
  9
$MENU
  1
.
  9
$ELEVATION
 40
0.0
  9
$PELEVATION
 40
0.0
  9
$THICKNESS
 40
0.0
  9
$LIMCHECK
 70
     0
  9
$CHAMFERA
 40
0.125
  9
$CHAMFERB
 40
0.125
  9
$CHAMFERC
 40
1.0
  9
$CHAMFERD
 40
0.0
  9
$SKPOLY
 70
     0
  9
$TDCREATE
 40
2455294.494064884
  9
$TDUCREATE
 40
2455294.160731551
  9
$TDUPDATE
 40
2455309.590733854
  9
$TDUUPDATE
 40
2455309.257400521
  9
$TDINDWG
 40
0.0036923843
  9
$TDUSRTIMER
 40
0.0036923843
  9
$USRTIMER
 70
     1
  9
$ANGBASE
 50
0.0
  9
$ANGDIR
 70
     0
  9
$PDMODE
 70
     0
  9
$PDSIZE
 40
0.0
  9
$PLINEWID
 40
0.0
  9
$SPLFRAME
 70
     0
  9
$SPLINETYPE
 70
     6
  9
$SPLINESEGS
 70
     8
  9
$HANDSEED
  5
8B3
  9
$SURFTAB1
 70
     6
  9
$SURFTAB2
 70
     6
  9
$SURFTYPE
 70
     6
  9
$SURFU
 70
     6
  9
$SURFV
 70
     6
  9
$UCSBASE
  2

  9
$UCSNAME
  2

  9
$UCSORG
 10
0.0
 20
0.0
 30
0.0
  9
$UCSXDIR
 10
1.0
 20
0.0
 30
0.0
  9
$UCSYDIR
 10
0.0
 20
1.0
 30
0.0
  9
$UCSORTHOREF
  2

  9
$UCSORTHOVIEW
 70
     0
  9
$UCSORGTOP
 10
0.0
 20
0.0
 30
0.0
  9
$UCSORGBOTTOM
 10
0.0
 20
0.0
 30
0.0
  9
$UCSORGLEFT
 10
0.0
 20
0.0
 30
0.0
  9
$UCSORGRIGHT
 10
0.0
 20
0.0
 30
0.0
  9
$UCSORGFRONT
 10
0.0
 20
0.0
 30
0.0
  9
$UCSORGBACK
 10
0.0
 20
0.0
 30
0.0
  9
$PUCSBASE
  2

  9
$PUCSNAME
  2

  9
$PUCSORG
 10
0.0
 20
0.0
 30
0.0
  9
$PUCSXDIR
 10
1.0
 20
0.0
 30
0.0
  9
$PUCSYDIR
 10
0.0
 20
1.0
 30
0.0
  9
$PUCSORTHOREF
  2

  9
$PUCSORTHOVIEW
 70
     0
  9
$PUCSORGTOP
 10
0.0
 20
0.0
 30
0.0
  9
$PUCSORGBOTTOM
 10
0.0
 20
0.0
 30
0.0
  9
$PUCSORGLEFT
 10
0.0
 20
0.0
 30
0.0
  9
$PUCSORGRIGHT
 10
0.0
 20
0.0
 30
0.0
  9
$PUCSORGFRONT
 10
0.0
 20
0.0
 30
0.0
  9
$PUCSORGBACK
 10
0.0
 20
0.0
 30
0.0
  9
$USERI1
 70
     0
  9
$USERI2
 70
     0
  9
$USERI3
 70
     0
  9
$USERI4
 70
     0
  9
$USERI5
 70
     0
  9
$USERR1
 40
0.0
  9
$USERR2
 40
0.0
  9
$USERR3
 40
0.0
  9
$USERR4
 40
0.0
  9
$USERR5
 40
0.0
  9
$WORLDVIEW
 70
     1
  9
$SHADEDGE
 70
     3
  9
$SHADEDIF
 70
    70
  9
$TILEMODE
 70
     1
  9
$MAXACTVP
 70
    64
  9
$PINSBASE
 10
0.0
 20
0.0
 30
0.0
  9
$PLIMCHECK
 70
     0
  9
$PEXTMIN
 10
1.000000000000000E+20
 20
1.000000000000000E+20
 30
1.000000000000000E+20
  9
$PEXTMAX
 10
-1.000000000000000E+20
 20
-1.000000000000000E+20
 30
-1.000000000000000E+20
  9
$PLIMMIN
 10
0.0
 20
0.0
  9
$PLIMMAX
 10
12.0
 20
9.0
  9
$UNITMODE
 70
     0
  9
$VISRETAIN
 70
     1
  9
$PLINEGEN
 70
     0
  9
$PSLTSCALE
 70
     1
  9
$TREEDEPTH
 70
  3020
  9
$CMLSTYLE
  2
Standard
  9
$CMLJUST
 70
     0
  9
$CMLSCALE
 40
1.0
  9
$PROXYGRAPHICS
 70
     1
  9
$MEASUREMENT
 70
     0
  9
$CELWEIGHT
370
    -1
  9
$ENDCAPS
280
     0
  9
$JOINSTYLE
280
     0
  9
$LWDISPLAY
290
     0
  9
$INSUNITS
 70
     1
  9
$HYPERLINKBASE
  1

  9
$STYLESHEET
  1

  9
$XEDIT
290
     1
  9
$CEPSNTYPE
380
     0
  9
$PSTYLEMODE
290
     1
  9
$FINGERPRINTGUID
  2
{06A00FB7-C769-485E-9A8A-348B4DB22770}
  9
$VERSIONGUID
  2
{108B0657-EF42-451F-964F-E244001F3E07}
  9
$EXTNAMES
290
     1
  9
$PSVPSCALE
 40
0.0
  9
$OLESTARTUP
290
     0
  9
$SORTENTS
280
   127
  9
$INDEXCTL
280
     0
  9
$HIDETEXT
280
     0
  9
$XCLIPFRAME
290
     0
  9
$HALOGAP
280
     0
  9
$OBSCOLOR
 70
   257
  9
$OBSLTYPE
280
     0
  9
$INTERSECTIONDISPLAY
280
     0
  9
$INTERSECTIONCOLOR
 70
   257
  9
$DIMASSOC
280
     2
  9
$PROJECTNAME
  1

  9
$CAMERADISPLAY
290
     0
  9
$LENSLENGTH
 40
50.0
  9
$CAMERAHEIGHT
 40
0.0
  9
$STEPSPERSEC
 40
2.0
  9
$STEPSIZE
 40
6.0
  9
$3DDWFPREC
 40
2.0
  9
$PSOLWIDTH
 40
0.25
  9
$PSOLHEIGHT
 40
4.0
  9
$LOFTANG1
 40
1.570796326794896
  9
$LOFTANG2
 40
1.570796326794896
  9
$LOFTMAG1
 40
0.0
  9
$LOFTMAG2
 40
0.0
  9
$LOFTPARAM
 70
     7
  9
$LOFTNORMALS
280
     1
  9
$LATITUDE
 40
37.795
  9
$LONGITUDE
 40
-122.394
  9
$NORTHDIRECTION
 40
0.0
  9
$TIMEZONE
 70
 -8000
  9
$LIGHTGLYPHDISPLAY
280
     1
  9
$TILEMODELIGHTSYNCH
280
     1
  9
$CMATERIAL
347
293
  9
$SOLIDHIST
280
     1
  9
$SHOWHIST
280
     1
  9
$DWFFRAME
280
     2
  9
$DGNFRAME
280
     0
  9
$REALWORLDSCALE
290
     1
  9
$INTERFERECOLOR
 62
     1
  9
$INTERFEREOBJVS
345
2A0
  9
$INTERFEREVPVS
346
29D
  9
$CSHADOW
280
     0
  9
$SHADOWPLANELOCATION
 40
0.0
  0
ENDSEC
  0
SECTION
  2
CLASSES
  0
CLASS
  1
ACDBDICTIONARYWDFLT
  2
AcDbDictionaryWithDefault
  3
ObjectDBX Classes
 90
        0
 91
        1
280
     0
281
     0
  0
CLASS
  1
ACME_DOCUMENT
  2
AcMeDbDoc
  3
AcMeServices
 90
     1024
 91
        2
280
     0
281
     0
  0
CLASS
  1
AMGSETTINGSOBJ
  2
AmgSettingsObj
  3
"AcadM|Product Description: AutoCAD Mechanical|Company: Autodesk, Inc."
 90
     1024
 91
        4
280
     0
281
     0
  0
CLASS
  1
ACMESCOPE
  2
AcMeScope
  3
AcMeServices
 90
     1024
 91
        1
280
     0
281
     0
  0
CLASS
  1
ACMECOMMANDHISTORY
  2
AcMeCommandHistory
  3
AcMeServices
 90
     1024
 91
        1
280
     0
281
     0
  0
CLASS
  1
ACIMSYSVARMAN
  2
AcImSysVarManager
  3
AcMeServices
 90
     1024
 91
        5
280
     0
281
     0
  0
CLASS
  1
ACIMREALSYSVAR
  2
AcImRealSysVar
  3
AcMeServices
 90
     1024
 91
        4
280
     0
281
     0
  0
CLASS
  1
ACIMINTSYSVAR
  2
AcImIntSysVar
  3
AcMeServices
 90
     1024
 91
       52
280
     0
281
     0
  0
CLASS
  1
ACMEDRAWINGMAN
  2
AcMeDrawingMan
  3
AcMeServices
 90
     1024
 91
        1
280
     0
281
     0
  0
CLASS
  1
ACMEVIEW
  2
AcMeView
  3
AcMeServices
 90
     1024
 91
        1
280
     0
281
     0
  0
CLASS
  1
ACDBENTITYCACHE
  2
AcMeEntityCache
  3
AcMeServices
 90
     1024
 91
        1
280
     0
281
     0
  0
CLASS
  1
GSMANAGER
  2
AcMeGSManager
  3
AcMeServices
 90
     1024
 91
        1
280
     0
281
     0
  0
CLASS
  1
AMDTINTERNALREACTOR
  2
AmdtInternalReactor
  3
AcMeServices
 90
     1024
 91
        2
280
     0
281
     0
  0
CLASS
  1
ACMESTATEMGR
  2
AcMeStateMgr
  3
AcMeServices
 90
     1024
 91
        1
280
     0
281
     0
  0
CLASS
  1
ACGREFMASTER
  2
AcGrefMaster
  3
AcAttribServices
 90
     1024
 91
        1
280
     0
281
     0
  0
CLASS
  1
ACME_DATABASE
  2
AcMeDbDatabase
  3
AcMeServices
 90
     1024
 91
        2
280
     0
281
     0
  0
CLASS
  1
ACRFINSADJUSTERMGR
  2
AcRfInsAdjusterMgr
  3
AcMeServices
 90
     1024
 91
        1
280
     0
281
     0
  0
CLASS
  1
ACGREFACADMASTER
  2
AcGrefacadMaster
  3
AcGrefServices
 90
     1024
 91
        1
280
     0
281
     0
  0
CLASS
  1
AMIMASTER
  2
AmiMaster
  3
AmiServices
 90
     1024
 91
        1
280
     0
281
     0
  0
CLASS
  1
ACMDATADICTIONARY
  2
AcmDataDictionary
  3
"AcmSymBB|Product Description: AutoCAD Mechanical|Company: Autodesk, Inc."
 90
     1024
 91
        1
280
     0
281
     0
  0
CLASS
  1
ACMDATAENTRYBLOCK
  2
AcmDataEntryBlock
  3
AcmSymBB|Product Description: AutoCAD Mechanical|Company: Autodesk, Inc.
 90
     1024
 91
        1
280
     0
281
     0
  0
CLASS
  1
ACIMSTRSYSVAR
  2
AcImStrSysVar
  3
AcMeServices
 90
     1024
 91
        5
280
     0
281
     0
  0
CLASS
  1
ACMSTANDARDANSI
  2
AcmStandardANSI
  3
"Amdt_StdImp|Product Description: AutoCAD Mechanical|Company: Autodesk, Inc."
 90
     1024
 91
        1
280
     0
281
     0
  0
CLASS
  1
AMGOBJPROPCFG
  2
AmgObjPropCfg
  3
"AmgLay|Product Description: AutoCAD Mechanical|Company: Autodesk, Inc."
 90
     1025
 91
        1
280
     0
281
     0
  0
CLASS
  1
ACMSURFSTANDARDANSI
  2
AcmSurfTextStdANSI
  3
"Amdt_StdImp|Product Description: AutoCAD Mechanical|Company: Autodesk, Inc."
 90
     1024
 91
        1
280
     0
281
     0
  0
CLASS
  1
ACMFCFSTANDARDANSI
  2
AcmFCFStdANSI
  3
"Amdt_StdImp|Product Description: AutoCAD Mechanical|Company: Autodesk, Inc."
 90
     1024
 91
        1
280
     0
281
     0
  0
CLASS
  1
ACMWELDSTANDARDANSI
  2
AcmWeldingStdANSI
  3
"Amdt_StdImp|Product Description: AutoCAD Mechanical|Company: Autodesk, Inc."
 90
     1024
 91
        1
280
     0
281
     0
  0
CLASS
  1
ACMIDSTANDARDANSI
  2
AcmIdStdANSI
  3
"Amdt_StdImp|Product Description: AutoCAD Mechanical|Company: Autodesk, Inc."
 90
     1024
 91
        1
280
     0
281
     0
  0
CLASS
  1
ACMDATUMSTANDARDANSI
  2
AcmDatumStdANSI
  3
"Amdt_StdImp|Product Description: AutoCAD Mechanical|Company: Autodesk, Inc."
 90
     1024
 91
        1
280
     0
281
     0
  0
CLASS
  1
ACMBOMSTANDARDANSI
  2
AcmBOMStdANSI
  3
"Amdt_StdImp|Product Description: AutoCAD Mechanical|Company: Autodesk, Inc."
 90
     1024
 91
        1
280
     0
281
     0
  0
CLASS
  1
ACMDETAILSTANDARDANSI
  2
AmdtDetailSymStdANSI
  3
"Amdt_StdImp|Product Description: AutoCAD Mechanical|Company: Autodesk, Inc."
 90
     1024
 91
        1
280
     0
281
     0
  0
CLASS
  1
ACMSECTIONSTANDARDANSI
  2
AmdtSectionSymStdANSI
  3
"Amdt_StdImp|Product Description: AutoCAD Mechanical|Company: Autodesk, Inc."
 90
     1024
 91
        1
280
     0
281
     0
  0
CLASS
  1
ACMCENTERLINESTANDARDANSI
  2
AmdtCenterLineStdANSI
  3
"Amdt_StdImp|Product Description: AutoCAD Mechanical|Company: Autodesk, Inc."
 90
     1024
 91
        1
280
     0
281
     0
  0
CLASS
  1
ACMNOTESTANDARDANSI
  2
AmdtNoteStdANSI
  3
"Amdt_StdImp|Product Description: AutoCAD Mechanical|Company: Autodesk, Inc."
 90
     1024
 91
        1
280
     0
281
     0
  0
CLASS
  1
ACAMGLAYSTD
  2
AcAmgLayStd
  3
"AmgLay|Product Description: AutoCAD Mechanical|Company: Autodesk, Inc."
 90
     1024
 91
        2
280
     0
281
     0
  0
CLASS
  1
ACAMGDIMSTD
  2
AcAmgDimStd
  3
"AmgDim|Product Description: AutoCAD Mechanical|Company: Autodesk, Inc."
 90
     1024
 91
        2
280
     0
281
     0
  0
CLASS
  1
ACAMGHOLECHARTSTDANSI
  2
AcAmgHoleChartStdANSI
  3
AmgDim|Product Description: AutoCAD Mechanical|Company: Autodesk, Inc.
 90
     1024
 91
        1
280
     0
281
     0
  0
CLASS
  1
ACAMGTITLESTD
  2
AcAmgTitleStd
  3
"AmgTitle|Product Description: AutoCAD Mechanical|Company: Autodesk, Inc."
 90
     4095
 91
        2
280
     0
281
     0
  0
CLASS
  1
LAYER_INDEX
  2
AcDbLayerIndex
  3
ObjectDBX Classes
 90
        0
 91
        0
280
     0
281
     0
  0
CLASS
  1
IDBUFFER
  2
AcDbIdBuffer
  3
ObjectDBX Classes
 90
        0
 91
        0
280
     0
281
     0
  0
CLASS
  1
DICTIONARYVAR
  2
AcDbDictionaryVar
  3
ObjectDBX Classes
 90
        0
 91
        9
280
     0
281
     0
  0
CLASS
  1
AM_DRAWING_MGR
  2
AcDmDwgMgr
  3
AcMechDwgViewMgmt
 90
     1024
 91
        1
280
     0
281
     0
  0
CLASS
  1
AM_DWG_DOCUMENT
  2
AcDmDwgDocument
  3
AcMechDwgViewMgmt
 90
     1024
 91
        1
280
     0
281
     0
  0
CLASS
  1
AM_DWG_SHEET
  2
AcDmSheet
  3
AcMechDwgViewMgmt
 90
     1024
 91
        2
280
     0
281
     0
  0
CLASS
  1
AM_VIEWDIMPARMAP
  2
AcDmViewDimParMap
  3
AcMechDwgViewMgmt
 90
     1024
 91
        2
280
     0
281
     0
  0
CLASS
  1
AM_DWGMGR_NAME
  2
AcDmDwgMgrName
  3
AcMechDwgViewMgmt
 90
     1024
 91
        1
280
     0
281
     0
  0
CLASS
  1
AMDTMENUSTATEMGR
  2
AmdtMenuStateMgr
  3
McadcomServices
 90
     1024
 91
        1
280
     0
281
     0
  0
CLASS
  1
AMDTMCOMMENUSTATE
  2
AmdtMcomMenuState
  3
McadcomServices
 90
     1024
 91
        1
280
     0
281
     0
  0
CLASS
  1
MAPIAMMOUDLE
  2
MApiAmModule
  3
MApiAmServices
 90
     1024
 91
        1
280
     0
281
     0
  0
CLASS
  1
AMDTADMENUSTATE
  2
AmdtAdMenuState
  3
DesignerServices
 90
     1024
 91
        1
280
     0
281
     0
  0
CLASS
  1
ADAPPL
  2
AcAdAppl
  3
DesignerServices
 90
     1024
 91
        1
280
     0
281
     0
  0
CLASS
  1
DEPMGR
  2
AcAdDepMgr
  3
DesignerServices
 90
     1024
 91
        1
280
     0
281
     0
  0
CLASS
  1
PARAMMGR
  2
AcAdParamMgr
  3
DesignerServices
 90
     1024
 91
        1
280
     0
281
     0
  0
CLASS
  1
PARAMSCOPE
  2
AcAdParamScope
  3
DesignerServices
 90
     1024
 91
        1
280
     0
281
     0
  0
CLASS
  1
NAMEDAPPL
  2
AcAdNamedAppl
  3
DesignerServices
 90
     1024
 91
        1
280
     0
281
     0
  0
CLASS
  1
AMDTDMMENUSTATE
  2
AmdtDmMenuState
  3
AcMechDwgViewMgmt
 90
     1024
 91
        1
280
     0
281
     0
  0
CLASS
  1
AMDTAMMENUSTATE
  2
AmdtAmMenuState
  3
DesignerAssemblies
 90
     1024
 91
        1
280
     0
281
     0
  0
CLASS
  1
ACAMPROJECT
  2
AcAmProject
  3
DesignerAssemblies
 90
     1024
 91
        1
280
     0
281
     0
  0
CLASS
  1
ACAMGRCOMPDEF
  2
AcAmGrCompDef
  3
DesignerAssemblies
 90
     1024
 91
        1
280
     0
281
     0
  0
CLASS
  1
ACCMCONTEXT
  2
AcCmContext
  3
DesignerAssemblies
 90
     1024
 91
        1
280
     0
281
     0
  0
CLASS
  1
ACAMCOMPDEF
  2
AcAmCompDef
  3
DesignerAssemblies
 90
     1024
 91
        1
280
     0
281
     0
  0
CLASS
  1
ACAMCOMPDEFMGR
  2
AcAmCompDefMgr
  3
DesignerAssemblies
 90
     1024
 91
        1
280
     0
281
     0
  0
CLASS
  1
AMCONTEXTMGR
  2
AcAmContextMgr
  3
DesignerAssemblies
 90
     1024
 91
        1
280
     0
281
     0
  0
CLASS
  1
ACAMCONTEXTMODELER
  2
AcAmContextModeler
  3
DesignerAssemblies
 90
     1024
 91
        1
280
     0
281
     0
  0
CLASS
  1
ACMTHREADLINESTANDARDANSI
  2
AmdtThreadLineStdANSI
  3
"Amdt_StdImp|Product Description: AutoCAD Mechanical|Company: Autodesk, Inc."
 90
     1024
 91
        1
280
     0
281
     0
  0
CLASS
  1
CATALOGSTATE
  2
AcAmCatalogState
  3
DesignerAssemblies
 90
     1024
 91
        1
280
     0
281
     0
  0
CLASS
  1
ACAMGRCOMPDEFSET
  2
AcAmGrCompDefSet
  3
DesignerAssemblies
 90
     1024
 91
        1
280
     0
281
     0
  0
CLASS
  1
AMDTBROWSERDBTAB
  2
AmdtBrowserDbTab
  3
McadcomServices
 90
     1024
 91
        1
280
     0
281
     0
  0
CLASS
  1
CBROWSERAPPOBJECT
  2
CBrowserAppObject
  3
McadcomServices
 90
     1024
 91
        3
280
     0
281
     0
  0
CLASS
  1
DM_PLACEHOLDER
  2
AcDmSelsetPlaceholder
  3
AcMechDwgViewMgmt
 90
     1024
 91
        1
280
     0
281
     0
  0
CLASS
  1
TABLESTYLE
  2
AcDbTableStyle
  3
ObjectDBX Classes
 90
     4095
 91
        1
280
     0
281
     0
  0
CLASS
  1
AMDTNOTETEMPLATEDB
  2
AmdtNoteTemplateDB
  3
AcmSymBB|Product Description: AutoCAD Mechanical|Company: Autodesk, Inc.
 90
     1024
 91
       10
280
     0
281
     0
  0
CLASS
  1
MATERIAL
  2
AcDbMaterial
  3
ObjectDBX Classes
 90
     1153
 91
        3
280
     0
281
     0
  0
CLASS
  1
VISUALSTYLE
  2
AcDbVisualStyle
  3
ObjectDBX Classes
 90
     4095
 91
       16
280
     0
281
     0
  0
CLASS
  1
ACRFATTGENMGR
  2
AcRfAttGeneralMgr
  3
AcAttribServices
 90
     1024
 91
        1
280
     0
281
     0
  0
CLASS
  1
ACRFOBJATTMGR
  2
AcRfObjAttGroupMgr
  3
AcAttribServices
 90
     1024
 91
        1
280
     0
281
     0
  0
CLASS
  1
ACRFMCADAPIATTHOLDER
  2
AcRfMCADAPIAttHolder
  3
AcAttribServices
 90
     1024
 91
        1
280
     0
281
     0
  0
CLASS
  1
AMDTSYSATTR
  2
AmdtSystemAttribute
  3
AcAttribServices
 90
     1024
 91
        2
280
     0
281
     0
  0
CLASS
  1
ACMTAPERSTANDARDANSI
  2
AcmTaperStdANSI
  3
"Amdt_StdImp|Product Description: AutoCAD Mechanical|Company: Autodesk, Inc."
 90
     1024
 91
        1
280
     0
281
     0
  0
CLASS
  1
CAMSSTRUCTBTNSTATE
  2
StructBtnState
  3
DesignerAssemblies
 90
     1024
 91
        0
280
     0
281
     0
  0
CLASS
  1
SCALE
  2
AcDbScale
  3
ObjectDBX Classes
 90
     1153
 91
       33
280
     0
281
     0
  0
CLASS
  1
MLEADERSTYLE
  2
AcDbMLeaderStyle
  3
ACDB_MLEADERSTYLE_CLASS
 90
     4095
 91
        1
280
     0
281
     0
  0
CLASS
  1
ACMANOOTATIONVIEWSTANDARDANSI
  2
AmdtAnViewStdANSI
  3
"Amdt_StdImp|Product Description: AutoCAD Mechanical|Company: Autodesk, Inc."
 90
     1024
 91
        1
280
     0
281
     0
  0
CLASS
  1
CELLSTYLEMAP
  2
AcDbCellStyleMap
  3
ObjectDBX Classes
 90
     1152
 91
        2
280
     0
281
     0
  0
CLASS
  1
EXACXREFPANELOBJECT
  2
ExAcXREFPanelObject
  3
EXAC_ESW
 90
     1025
 91
        1
280
     0
281
     0
  0
CLASS
  1
NPOCOLLECTION
  2
AcDbImpNonPersistentObjectsCollection
  3
ObjectDBX Classes
 90
     1153
 91
        1
280
     0
281
     0
  0
CLASS
  1
SORTENTSTABLE
  2
AcDbSortentsTable
  3
ObjectDBX Classes
 90
        0
 91
        0
280
     0
281
     0
  0
CLASS
  1
ACMSTANDARDISO
  2
AcmStandardISO
  3
"Amdt_StdImp|Product Description: AutoCAD Mechanical|Company: Autodesk, Inc."
 90
     1024
 91
        1
280
     0
281
     0
  0
CLASS
  1
AMDTEDGESTANDARDISO
  2
AmdtEdgeStdISO
  3
"Amdt_StdImp|Product Description: AutoCAD Mechanical|Company: Autodesk, Inc."
 90
     1024
 91
        1
280
     0
281
     0
  0
CLASS
  1
ACMSURFSTANDARDISO
  2
AcmSurfTextStdISO
  3
"Amdt_StdImp|Product Description: AutoCAD Mechanical|Company: Autodesk, Inc."
 90
     1024
 91
        1
280
     0
281
     0
  0
CLASS
  1
ACMFCFSTANDARDISO
  2
AcmFCFStdISO
  3
"Amdt_StdImp|Product Description: AutoCAD Mechanical|Company: Autodesk, Inc."
 90
     1024
 91
        1
280
     0
281
     0
  0
CLASS
  1
ACMWELDSTANDARDISO
  2
AcmWeldingStdISO
  3
"Amdt_StdImp|Product Description: AutoCAD Mechanical|Company: Autodesk, Inc."
 90
     1024
 91
        1
280
     0
281
     0
  0
CLASS
  1
ACMIDSTANDARDISO
  2
AcmIdStdISO
  3
"Amdt_StdImp|Product Description: AutoCAD Mechanical|Company: Autodesk, Inc."
 90
     1024
 91
        1
280
     0
281
     0
  0
CLASS
  1
ACMDATUMSTANDARDISO
  2
AcmDatumStdISO
  3
"Amdt_StdImp|Product Description: AutoCAD Mechanical|Company: Autodesk, Inc."
 90
     1024
 91
        1
280
     0
281
     0
  0
CLASS
  1
ACMBOMSTANDARDISO
  2
AcmBOMStdISO
  3
"Amdt_StdImp|Product Description: AutoCAD Mechanical|Company: Autodesk, Inc."
 90
     1024
 91
        1
280
     0
281
     0
  0
CLASS
  1
ACMDETAILSTANDARDISO
  2
AmdtDetailSymStdISO
  3
"Amdt_StdImp|Product Description: AutoCAD Mechanical|Company: Autodesk, Inc."
 90
     1024
 91
        1
280
     0
281
     0
  0
CLASS
  1
ACMSECTIONSTANDARDISO
  2
AmdtSectionSymStdISO
  3
"Amdt_StdImp|Product Description: AutoCAD Mechanical|Company: Autodesk, Inc."
 90
     1024
 91
        1
280
     0
281
     0
  0
CLASS
  1
ACMCENTERLINESTANDARDISO
  2
AmdtCenterLineStdISO
  3
"Amdt_StdImp|Product Description: AutoCAD Mechanical|Company: Autodesk, Inc."
 90
     1024
 91
        1
280
     0
281
     0
  0
CLASS
  1
ACMTHREADLINESTANDARDISO
  2
AmdtThreadLineStdISO
  3
"Amdt_StdImp|Product Description: AutoCAD Mechanical|Company: Autodesk, Inc."
 90
     1024
 91
        1
280
     0
281
     0
  0
CLASS
  1
ACMNOTESTANDARDISO
  2
AmdtNoteStdISO
  3
"Amdt_StdImp|Product Description: AutoCAD Mechanical|Company: Autodesk, Inc."
 90
     1024
 91
        1
280
     0
281
     0
  0
CLASS
  1
ACAMGHOLECHARTSTDISO
  2
AcAmgHoleChartStdISO
  3
AmgDim|Product Description: AutoCAD Mechanical|Company: Autodesk, Inc.
 90
     1024
 91
        1
280
     0
281
     0
  0
CLASS
  1
ACMTAPERSTANDARDISO
  2
AcmTaperStdISO
  3
"Amdt_StdImp|Product Description: AutoCAD Mechanical|Company: Autodesk, Inc."
 90
     1024
 91
        1
280
     0
281
     0
  0
CLASS
  1
ACMANOOTATIONVIEWSTANDARDISO
  2
AmdtAnViewStdISO
  3
"Amdt_StdImp|Product Description: AutoCAD Mechanical|Company: Autodesk, Inc."
 90
     1024
 91
        1
280
     0
281
     0
  0
CLASS
  1
ACAMGFILTERDAT
  2
AcAmgFilterDat
  3
"AcadM|Product Description: AutoCAD Mechanical|Company: Autodesk, Inc."
 90
     1024
 91
        6
280
     0
281
     0
  0
ENDSEC
  0
SECTION
  2
TABLES
  0
TABLE
  2
VPORT
  5
8
102
{ACAD_XDICTIONARY
360
5E2
102
}
330
0
100
AcDbSymbolTable
 70
     1
  0
VPORT
  5
291
330
8
100
AcDbSymbolTableRecord
100
AcDbViewportTableRecord
  2
*Active
 70
     0
 10
0.0
 20
0.0
 11
1.0
 21
1.0
 12
1434.637036618415
 22
1604.205751503442
 13
0.0
 23
0.0
 14
0.125
 24
0.125
 15
1.0
 25
1.0
 16
0.0
 26
0.0
 36
1.0
 17
0.0
 27
0.0
 37
0.0
 40
1303.399190985919
 41
1.442643391521196
 42
50.0
 43
0.0
 44
0.0
 50
0.0
 51
0.0
 71
     0
 72
   100
 73
     1
 74
     3
 75
     0
 76
     0
 77
     0
 78
     0
281
     0
 65
     1
110
0.0
120
0.0
130
0.0
111
1.0
121
0.0
131
0.0
112
0.0
122
1.0
132
0.0
 79
     0
146
0.0
348
29C
 60
     3
 61
     5
292
     1
282
     0
141
0.0
142
0.0
 63
   250
421
  3355443
  0
ENDTAB
  0
TABLE
  2
LTYPE
  5
5
330
0
100
AcDbSymbolTable
 70
    20
  0
LTYPE
  5
14
330
5
100
AcDbSymbolTableRecord
100
AcDbLinetypeTableRecord
  2
ByBlock
 70
     0
  3

 72
    65
 73
     0
 40
0.0
  0
LTYPE
  5
15
330
5
100
AcDbSymbolTableRecord
100
AcDbLinetypeTableRecord
  2
ByLayer
 70
     0
  3

 72
    65
 73
     0
 40
0.0
  0
LTYPE
  5
16
330
5
100
AcDbSymbolTableRecord
100
AcDbLinetypeTableRecord
  2
Continuous
 70
     0
  3
Solid line
 72
    65
 73
     0
 40
0.0
  0
LTYPE
  5
6C
330
5
100
AcDbSymbolTableRecord
100
AcDbLinetypeTableRecord
  2
AM_ISO02W050
 70
     0
  3
__ __ __ __ __ __ __ __ __ __ __ __ __ __ __
 72
    65
 73
     2
 40
7.5
 49
6.0
 74
     0
 49
-1.5
 74
     0
  0
LTYPE
  5
6D
330
5
100
AcDbSymbolTableRecord
100
AcDbLinetypeTableRecord
  2
AM_ISO08W050
 70
     0
  3
____ . ____ . ____ . ____ . ____ . ____ . ____
 72
    65
 73
     4
 40
18.0
 49
12.0
 74
     0
 49
-1.5
 74
     0
 49
3.0
 74
     0
 49
-1.5
 74
     0
  0
LTYPE
  5
6E
330
5
100
AcDbSymbolTableRecord
100
AcDbLinetypeTableRecord
  2
AM_ISO09W050
 70
     0
  3
_____ . . _____ . . _____ . . ____ .. ____
 72
    65
 73
     6
 40
22.5
 49
12.0
 74
     0
 49
-1.5
 74
     0
 49
3.0
 74
     0
 49
-1.5
 74
     0
 49
3.0
 74
     0
 49
-1.5
 74
     0
  0
LTYPE
  5
6F
330
5
100
AcDbSymbolTableRecord
100
AcDbLinetypeTableRecord
  2
Amconstr
 70
     0
  3
_______________________
 72
    65
 73
     2
 40
9999.0
 49
9999.0
 74
     0
 49
0.0
 74
     0
  0
LTYPE
  5
70
330
5
100
AcDbSymbolTableRecord
100
AcDbLinetypeTableRecord
  2
AM_ISO08W050x2
 70
     0
  3
__ . __ . __ . __ . __ . __
 72
    65
 73
     4
 40
9.0
 49
6.0
 74
     0
 49
-0.75
 74
     0
 49
1.5
 74
     0
 49
-0.75
 74
     0
  0
LTYPE
  5
71
330
5
100
AcDbSymbolTableRecord
100
AcDbLinetypeTableRecord
  2
AM_ISO02W050x2
 70
     0
  3
 _ _ _ _ _ _ _ _ _ _ _ _
 72
    65
 73
     2
 40
3.75
 49
3.0
 74
     0
 49
-0.75
 74
     0
  0
LTYPE
  5
74
330
5
100
AcDbSymbolTableRecord
100
AcDbLinetypeTableRecord
  2
Amzigzag
 70
     0
  3
/\/-/\/-/\/-/\/-/\/-/\/
 72
    65
 73
     2
 40
11.0001
 49
0.0001
 74
     4
 75
   136
340
254
 46
0.04
 50
0.0
 44
0.0
 45
0.0
 49
-11.0
 74
     0
  0
LTYPE
  5
75
330
5
100
AcDbSymbolTableRecord
100
AcDbLinetypeTableRecord
  2
HIDDEN
 70
     0
  3
Hidden __ __ __ __ __ __ __ __ __ __ __ __ __ _
 72
    65
 73
     2
 40
0.375
 49
0.25
 74
     0
 49
-0.125
 74
     0
  0
LTYPE
  5
76
330
5
100
AcDbSymbolTableRecord
100
AcDbLinetypeTableRecord
  2
CENTER
 70
     0
  3
Center ____ _ ____ _ ____ _ ____ _ ____ _ ____
 72
    65
 73
     4
 40
2.0
 49
1.25
 74
     0
 49
-0.25
 74
     0
 49
0.25
 74
     0
 49
-0.25
 74
     0
  0
LTYPE
  5
77
330
5
100
AcDbSymbolTableRecord
100
AcDbLinetypeTableRecord
  2
PHANTOM2
 70
     0
  3
Phantom (.5x) ___ _ _ ___ _ _ ___ _ _ ___ _ _
 72
    65
 73
     6
 40
1.25
 49
0.625
 74
     0
 49
-0.125
 74
     0
 49
0.125
 74
     0
 49
-0.125
 74
     0
 49
0.125
 74
     0
 49
-0.125
 74
     0
  0
LTYPE
  5
78
330
5
100
AcDbSymbolTableRecord
100
AcDbLinetypeTableRecord
  2
CENTER2
 70
     0
  3
Center (.5x) ___ _ ___ _ ___ _ ___ _ ___ _ ___
 72
    65
 73
     4
 40
1.125
 49
0.75
 74
     0
 49
-0.125
 74
     0
 49
0.125
 74
     0
 49
-0.125
 74
     0
  0
LTYPE
  5
79
330
5
100
AcDbSymbolTableRecord
100
AcDbLinetypeTableRecord
  2
HIDDEN2
 70
     0
  3
Hidden (.5x) _ _ _ _ _ _ _ _ _ _ _ _ _ _ _ _ _
 72
    65
 73
     2
 40
0.1875
 49
0.125
 74
     0
 49
-0.0625
 74
     0
  0
LTYPE
  5
7A
330
5
100
AcDbSymbolTableRecord
100
AcDbLinetypeTableRecord
  2
Amzigzag2
 70
     0
  3
/\/-/\/-/\/-/\/-/\/-/\/
 72
    65
 73
     2
 40
0.4401
 49
0.0001
 74
     4
 75
   136
340
254
 46
0.0016
 50
0.0
 44
0.0
 45
0.0
 49
-0.4400000000000001
 74
     0
  0
LTYPE
  5
87
330
5
100
AcDbSymbolTableRecord
100
AcDbLinetypeTableRecord
  2
ACANSTGB
 70
     0
  3
__ . . __ . .
 72
    65
 73
     6
 40
0.35433070866
 49
0.15748031496
 74
     0
 49
-0.03937007874
 74
     0
 49
0.03937007874
 74
     0
 49
-0.03937007874
 74
     0
 49
0.03937007874
 74
     0
 49
-0.03937007874
 74
     0
  0
LTYPE
  5
88
330
5
100
AcDbSymbolTableRecord
100
AcDbLinetypeTableRecord
  2
ACANSTGL
 70
     0
  3
_ _ _ _ _
 72
    65
 73
     2
 40
0.11811023622
 49
0.07874015748
 74
     0
 49
-0.03937007874
 74
     0
  0
LTYPE
  5
38F
330
5
100
AcDbSymbolTableRecord
100
AcDbLinetypeTableRecord
  2
ACISOWELD
 70
     0
  3
_ _ _ _ _
 72
    65
 73
     2
 40
2.0
 49
2.0
 74
     0
 49
-1.0
 74
     0
  0
LTYPE
  5
390
330
5
100
AcDbSymbolTableRecord
100
AcDbLinetypeTableRecord
  2
ACISOTGB
 70
     0
  3
__ . . __ . .
 72
    65
 73
     6
 40
9.0
 49
4.0
 74
     0
 49
-1.0
 74
     0
 49
1.0
 74
     0
 49
-1.0
 74
     0
 49
1.0
 74
     0
 49
-1.0
 74
     0
  0
LTYPE
  5
391
330
5
100
AcDbSymbolTableRecord
100
AcDbLinetypeTableRecord
  2
ACISOTGL
 70
     0
  3
_ _ _ _ _
 72
    65
 73
     2
 40
3.0
 49
2.0
 74
     0
 49
-1.0
 74
     0
  0
ENDTAB
  0
TABLE
  2
LAYER
  5
2
102
{ACAD_XDICTIONARY
360
39F
102
}
330
0
100
AcDbSymbolTable
 70
     3
  0
LAYER
  5
10
102
{ACAD_XDICTIONARY
360
4CB
102
}
330
2
100
AcDbSymbolTableRecord
100
AcDbLayerTableRecord
  2
0
 70
     0
 62
     7
  6
Continuous
370
    -3
390
F
347
295
  0
LAYER
  5
392
102
{ACAD_XDICTIONARY
360
4CD
102
}
330
2
100
AcDbSymbolTableRecord
100
AcDbLayerTableRecord
  2
Dimension
 70
     0
 62
     2
  6
Continuous
370
    25
390
F
347
295
  0
LAYER
  5
638
102
{ACAD_XDICTIONARY
360
639
102
}
330
2
100
AcDbSymbolTableRecord
100
AcDbLayerTableRecord
  2
02___PRT_ALL_AXES
 70
     0
 62
     7
  6
Continuous
370
    -3
390
F
347
295
  0
ENDTAB
  0
TABLE
  2
STYLE
  5
3
330
0
100
AcDbSymbolTable
 70
    10
  0
STYLE
  5
11
330
3
100
AcDbSymbolTableRecord
100
AcDbTextStyleTableRecord
  2
STANDARD
 70
     0
 40
0.0
 41
1.0
 50
0.0
 71
     0
 42
0.2
  3
ROMANS.SHX
  4

  0
STYLE
  5
73
330
3
100
AcDbSymbolTableRecord
100
AcDbTextStyleTableRecord
  2

 70
     1
 40
0.0
 41
1.0
 50
0.0
 71
     0
 42
0.2
  3
ltypeshp.shx
  4

  0
STYLE
  5
7B
330
3
100
AcDbSymbolTableRecord
100
AcDbTextStyleTableRecord
  2
ACANSTS
 70
     0
 40
1.0
 41
1.0
 50
0.0
 71
     0
 42
0.2
  3
romans.shx
  4

  0
STYLE
  5
86
330
3
100
AcDbSymbolTableRecord
100
AcDbTextStyleTableRecord
  2
ACANSGDT
 70
     0
 40
0.0
 41
1.0
 50
0.0
 71
     0
 42
0.2
  3
amgdt.shx
  4

  0
STYLE
  5
13F
330
3
100
AcDbSymbolTableRecord
100
AcDbTextStyleTableRecord
  2
USER1
 70
     0
 40
0.0
 41
1.0
 50
0.0
 71
     0
 42
0.2
  3
TXT.SHX
  4

  0
STYLE
  5
140
330
3
100
AcDbSymbolTableRecord
100
AcDbTextStyleTableRecord
  2
USER2
 70
     0
 40
0.0
 41
1.0
 50
0.0
 71
     0
 42
0.2
  3
SIMPLEX.SHX
  4

  0
STYLE
  5
141
330
3
100
AcDbSymbolTableRecord
100
AcDbTextStyleTableRecord
  2
USER3
 70
     0
 40
0.0
 41
1.0
 50
0.0
 71
     0
 42
0.2
  3
ITALIC.SHX
  4

  0
STYLE
  5
254
330
3
100
AcDbSymbolTableRecord
100
AcDbTextStyleTableRecord
  2

 70
     1
 40
0.0
 41
1.0
 50
0.0
 71
     0
 42
0.2
  3
genltshp.shx
  4

  0
STYLE
  5
393
330
3
100
AcDbSymbolTableRecord
100
AcDbTextStyleTableRecord
  2
ACISOTS
 70
     0
 40
1.0
 41
1.0
 50
0.0
 71
     0
 42
2.5
  3
isocp.shx
  4

  0
STYLE
  5
394
330
3
100
AcDbSymbolTableRecord
100
AcDbTextStyleTableRecord
  2
ACISOGDT
 70
     0
 40
0.0
 41
1.0
 50
0.0
 71
     0
 42
2.5
  3
amgdt.shx
  4

  0
ENDTAB
  0
TABLE
  2
VIEW
  5
6
330
0
100
AcDbSymbolTable
 70
     0
  0
ENDTAB
  0
TABLE
  2
UCS
  5
7
330
0
100
AcDbSymbolTable
 70
     0
  0
ENDTAB
  0
TABLE
  2
APPID
  5
9
330
0
100
AcDbSymbolTable
 70
    15
  0
APPID
  5
12
330
9
100
AcDbSymbolTableRecord
100
AcDbRegAppTableRecord
  2
ACAD
 70
     0
  0
APPID
  5
4E
330
9
100
AcDbSymbolTableRecord
100
AcDbRegAppTableRecord
  2
MCAD_NO_VIS
 70
     0
  0
APPID
  5
4F
330
9
100
AcDbSymbolTableRecord
100
AcDbRegAppTableRecord
  2
ACAD_TEMP_GRAPHIC
 70
     0
  0
APPID
  5
60
330
9
100
AcDbSymbolTableRecord
100
AcDbRegAppTableRecord
  2
ACATTRIBSERVICES
 70
     0
  0
APPID
  5
F7
330
9
100
AcDbSymbolTableRecord
100
AcDbRegAppTableRecord
  2
AD_DRAW
 70
     0
  0
APPID
  5
115
330
9
100
AcDbSymbolTableRecord
100
AcDbRegAppTableRecord
  2
DESIGNERASSEMBLIES
 70
     0
  0
APPID
  5
11A
330
9
100
AcDbSymbolTableRecord
100
AcDbRegAppTableRecord
  2
ACADM_DIM_EDIT
 70
     0
  0
APPID
  5
11B
330
9
100
AcDbSymbolTableRecord
100
AcDbRegAppTableRecord
  2
AMDT_DM_ADJ
 70
     0
  0
APPID
  5
1D3
330
9
100
AcDbSymbolTableRecord
100
AcDbRegAppTableRecord
  2
ACAD_DSTYLE_DIMARC_LENGTH_SYMBOL
 70
     0
  0
APPID
  5
1D4
330
9
100
AcDbSymbolTableRecord
100
AcDbRegAppTableRecord
  2
ACAD_DSTYLE_DIMJOGGED_JOGANGLE_SYMBOL
 70
     0
  0
APPID
  5
2EE
330
9
100
AcDbSymbolTableRecord
100
AcDbRegAppTableRecord
  2
ACAD_MLEADERVER
 70
     0
  0
APPID
  5
39E
330
9
100
AcDbSymbolTableRecord
100
AcDbRegAppTableRecord
  2
ACAD_PSEXT
 70
     0
  0
APPID
  5
5E5
330
9
100
AcDbSymbolTableRecord
100
AcDbRegAppTableRecord
  2
ACAD_DSTYLE_DIM_LINETYPE
 70
     0
  0
APPID
  5
5E6
330
9
100
AcDbSymbolTableRecord
100
AcDbRegAppTableRecord
  2
ACAD_DSTYLE_DIM_EXT1_LINETYPE
 70
     0
  0
APPID
  5
5E7
330
9
100
AcDbSymbolTableRecord
100
AcDbRegAppTableRecord
  2
ACAD_DSTYLE_DIM_EXT2_LINETYPE
 70
     0
  0
ENDTAB
  0
TABLE
  2
DIMSTYLE
  5
A
330
0
100
AcDbSymbolTable
 70
    17
100
AcDbDimStyleTable
 71
     1
340
8C
  0
DIMSTYLE
105
27
330
A
100
AcDbSymbolTableRecord
100
AcDbDimStyleTableRecord
  2
Standard
 70
     0
340
11
  0
DIMSTYLE
105
8C
102
{ACAD_REACTORS
330
6A
102
}
330
A
100
AcDbSymbolTableRecord
100
AcDbDimStyleTableRecord
  2
AM_ANSI
 70
     0
  4
mm
 41
0.12
 42
0.05
 43
0.5
 44
0.1
 47
0.1
 48
0.1
 78
     7
 79
     2
 90
     1
140
0.12
141
0.0
146
0.71
147
0.06
176
   256
177
   256
178
   140
274
     4
284
     7
340
11
345
14
346
14
347
14
371
    -1
372
    -1
1001
ACAD_DSTYLE_DIMJOGGED_JOGANGLE_SYMBOL
1070
   384
1040
0.7853981633974483
  0
DIMSTYLE
105
8D
330
A
100
AcDbSymbolTableRecord
100
AcDbDimStyleTableRecord
  2
AM_ANSI$3
 70
     0
  4
mm
 41
0.12
 42
0.05
 43
0.5
 44
0.1
 47
0.1
 48
0.1
 78
     7
 79
     2
 90
     1
140
0.12
141
0.0
146
0.71
147
0.06
176
   256
177
   256
178
   140
274
     4
284
     7
288
     1
289
     0
340
11
345
14
346
14
347
14
371
    -1
372
    -1
1001
ACAD_DSTYLE_DIMJOGGED_JOGANGLE_SYMBOL
1070
   384
1040
0.7853981633974483
  0
DIMSTYLE
105
8E
330
A
100
AcDbSymbolTableRecord
100
AcDbDimStyleTableRecord
  2
AM_ANSI$4
 70
     0
  4
mm
 41
0.12
 42
0.05
 43
0.5
 44
0.1
 47
0.1
 48
0.1
 78
     7
 79
     2
 90
     1
140
0.12
141
0.0
146
0.71
147
0.06
176
   256
177
   256
178
   140
274
     4
284
     7
340
11
345
14
346
14
347
14
371
    -1
372
    -1
1001
ACAD_DSTYLE_DIMJOGGED_JOGANGLE_SYMBOL
1070
   384
1040
0.7853981633974483
  0
DIMSTYLE
105
8F
330
A
100
AcDbSymbolTableRecord
100
AcDbDimStyleTableRecord
  2
AM_ANSI$7
 70
     0
  4
mm
 41
0.12
 42
0.05
 43
0.5
 44
0.1
 47
0.1
 48
0.1
 78
     7
 79
     2
 90
     1
140
0.12
141
0.0
146
0.71
147
0.06
176
   256
177
   256
178
   140
274
     4
284
     7
340
11
345
14
346
14
347
14
371
    -1
372
    -1
1001
ACAD_DSTYLE_DIMJOGGED_JOGANGLE_SYMBOL
1070
   384
1040
0.7853981633974483
  0
DIMSTYLE
105
90
330
A
100
AcDbSymbolTableRecord
100
AcDbDimStyleTableRecord
  2
AM_ANSI$SF
 70
     0
  4
mm
 41
0.12
 42
0.05
 43
0.5
 44
0.1
 47
0.1
 48
0.1
 75
     1
 76
     1
 78
     7
 79
     2
 90
     1
140
0.12
141
0.0
146
0.71
147
0.06
176
   256
177
   256
178
   140
274
     4
284
     7
340
11
345
14
346
14
347
14
371
    -1
372
    -1
1001
ACAD_DSTYLE_DIMJOGGED_JOGANGLE_SYMBOL
1070
   384
1040
0.7853981633974483
  0
DIMSTYLE
105
95
330
A
100
AcDbSymbolTableRecord
100
AcDbDimStyleTableRecord
  2
AM_ANSI$SH
 70
     0
  4
mm
 41
0.12
 42
0.05
 43
0.5
 44
0.1
 47
0.1
 48
0.1
 75
     1
 76
     1
 78
     7
 79
     2
 90
     1
140
0.12
141
0.0
146
0.71
147
0.06
173
     1
176
   256
177
   256
178
   140
274
     4
284
     7
340
11
343
91
345
14
346
14
347
14
371
    -1
372
    -1
1001
ACAD_DSTYLE_DIMJOGGED_JOGANGLE_SYMBOL
1070
   384
1040
0.7853981633974483
  0
DIMSTYLE
105
395
330
A
100
AcDbSymbolTableRecord
100
AcDbDimStyleTableRecord
  2
ISO-25
 70
     0
 41
7.0
 42
0.625
 43
3.75
 44
1.25
 77
     1
 78
     8
140
5.0
141
2.5
143
0.03937007874016
147
0.625
171
     3
172
     1
271
     0
272
     0
274
     3
278
    44
283
     0
284
     8
340
11
  0
DIMSTYLE
105
396
330
A
100
AcDbSymbolTableRecord
100
AcDbDimStyleTableRecord
  2
Copie de ISO-25
 70
     0
 41
7.0
 42
0.25
 43
20.0
 44
1.0
 46
10.0
 76
     1
 77
     1
 78
     8
140
5.0
141
2.5
143
0.03937007874016
147
0.625
171
     3
172
     1
173
     1
271
     0
272
     0
274
     3
278
    44
283
     0
284
     8
340
11
344
38C
  0
DIMSTYLE
105
397
330
A
100
AcDbSymbolTableRecord
100
AcDbDimStyleTableRecord
  2
AM_ISO
 70
     0
  4
"
 41
2.5
 42
1.0
 43
10.0
 44
1.0
 47
0.1
 48
0.1
 73
     0
 74
     0
 77
     1
 78
     8
 79
     2
 90
     1
140
3.5
141
0.0
143
0.0393701
146
0.71
147
1.5
172
     1
176
   256
177
   256
178
     2
271
     2
272
     3
274
     4
283
     0
284
     8
340
11
371
    -1
372
    -1
1001
ACAD_DSTYLE_DIMJOGGED_JOGANGLE_SYMBOL
1070
   384
1040
0.7853981633974483
  0
DIMSTYLE
105
398
330
A
100
AcDbSymbolTableRecord
100
AcDbDimStyleTableRecord
  2
AM_ISO$3
 70
     0
  4
"
 41
2.5
 42
1.0
 43
10.0
 44
1.0
 47
0.1
 48
0.1
 73
     0
 77
     1
 78
     8
 79
     2
 90
     1
140
3.5
141
0.0
143
0.0393701
146
0.71
147
1.5
176
   256
177
   256
178
     2
271
     2
272
     3
274
     4
283
     0
284
     8
288
     1
289
     0
340
11
371
    -1
372
    -1
1001
ACAD_DSTYLE_DIMJOGGED_JOGANGLE_SYMBOL
1070
   384
1040
0.7853981633974483
  0
DIMSTYLE
105
399
330
A
100
AcDbSymbolTableRecord
100
AcDbDimStyleTableRecord
  2
AM_ISO$4
 70
     0
  4
"
 41
2.5
 42
1.0
 43
10.0
 44
1.0
 47
0.1
 48
0.1
 73
     0
 77
     1
 78
     8
 79
     2
 90
     1
140
3.5
141
0.0
143
0.0393701
146
0.71
147
1.5
176
   256
177
   256
178
     2
271
     2
272
     3
274
     4
283
     0
284
     8
288
     1
289
     0
340
11
371
    -1
372
    -1
1001
ACAD_DSTYLE_DIMJOGGED_JOGANGLE_SYMBOL
1070
   384
1040
0.7853981633974483
  0
DIMSTYLE
105
39A
330
A
100
AcDbSymbolTableRecord
100
AcDbDimStyleTableRecord
  2
AM_ISO$6
 70
     0
  4
"
 41
2.5
 42
1.0
 43
10.0
 44
1.0
 47
0.1
 48
0.1
 73
     0
 74
     0
 78
     8
 79
     2
 90
     1
140
3.5
141
0.0
143
0.0393701
146
0.71
147
1.5
172
     1
176
   256
177
   256
178
     2
271
     2
272
     3
274
     4
283
     0
284
     8
340
11
371
    -1
372
    -1
1001
ACAD_DSTYLE_DIMJOGGED_JOGANGLE_SYMBOL
1070
   384
1040
0.7853981633974483
  0
DIMSTYLE
105
39B
330
A
100
AcDbSymbolTableRecord
100
AcDbDimStyleTableRecord
  2
AM_ISO$7
 70
     0
  4
"
 41
2.5
 42
1.0
 43
10.0
 44
1.0
 47
0.1
 48
0.1
 73
     0
 74
     0
 77
     1
 78
     8
 79
     2
 90
     1
140
5.0
141
0.0
143
0.0393701
146
0.71
147
1.5
172
     1
176
   256
177
   256
178
     2
271
     2
272
     3
274
     4
283
     0
284
     8
340
11
371
    -1
372
    -1
1001
ACAD_DSTYLE_DIMJOGGED_JOGANGLE_SYMBOL
1070
   384
1040
0.7853981633974483
  0
DIMSTYLE
105
39C
330
A
100
AcDbSymbolTableRecord
100
AcDbDimStyleTableRecord
  2
AM_ISO$SF
 70
     0
  4
"
 41
2.5
 42
1.0
 43
10.0
 44
1.0
 47
0.1
 48
0.1
 73
     0
 74
     0
 75
     1
 76
     1
 77
     1
 78
     8
 79
     2
 90
     1
140
3.5
141
0.0
143
0.0393701
146
0.71
147
1.5
172
     1
176
   256
177
   256
178
     2
271
     2
272
     3
274
     4
283
     0
284
     8
340
11
371
    -1
372
    -1
1001
ACAD_DSTYLE_DIMJOGGED_JOGANGLE_SYMBOL
1070
   384
1040
0.7853981633974483
  0
DIMSTYLE
105
39D
330
A
100
AcDbSymbolTableRecord
100
AcDbDimStyleTableRecord
  2
AM_ISO$SH
 70
     0
  4
"
 41
2.5
 42
1.0
 43
10.0
 44
1.0
 47
0.1
 48
0.1
 73
     0
 74
     0
 75
     1
 76
     1
 77
     1
 78
     8
 79
     2
 90
     1
140
3.5
141
0.0
143
0.0393701
144
2.0
146
0.71
147
1.5
172
     1
173
     1
176
   256
177
   256
178
     2
271
     2
272
     3
274
     4
283
     0
284
     8
340
11
343
91
371
    -1
372
    -1
1001
ACAD_DSTYLE_DIMJOGGED_JOGANGLE_SYMBOL
1070
   384
1040
0.7853981633974483
  0
ENDTAB
  0
TABLE
  2
BLOCK_RECORD
  5
1
330
0
100
AcDbSymbolTable
 70
     7
  0
BLOCK_RECORD
  5
1F
102
{ACAD_XDICTIONARY
360
99
102
}
330
1
100
AcDbSymbolTableRecord
100
AcDbBlockTableRecord
  2
*Model_Space
340
22
 70
     0
280
     1
281
     0
  0
BLOCK_RECORD
  5
1B
330
1
100
AcDbSymbolTableRecord
100
AcDbBlockTableRecord
  2
*Paper_Space
340
1E
 70
     0
280
     1
281
     0
  0
BLOCK_RECORD
  5
23
330
1
100
AcDbSymbolTableRecord
100
AcDbBlockTableRecord
  2
*Paper_Space0
340
26
 70
     0
280
     1
281
     0
  0
BLOCK_RECORD
  5
91
330
1
100
AcDbSymbolTableRecord
100
AcDbBlockTableRecord
  2
GENAXEH
340
0
 70
     0
280
     1
281
     0
  0
BLOCK_RECORD
  5
38C
330
1
100
AcDbSymbolTableRecord
100
AcDbBlockTableRecord
  2
_None
340
0
 70
     0
280
     1
281
     0
  0
BLOCK_RECORD
  5
471
102
{ACAD_XDICTIONARY
360
4C7
102
}
330
1
100
AcDbSymbolTableRecord
100
AcDbBlockTableRecord
  2
A$C0D323CD7
340
0
 70
     1
280
     1
281
     0
  0
ENDTAB
  0
ENDSEC
  0
SECTION
  2
BLOCKS
  0
BLOCK
  5
20
330
1F
100
AcDbEntity
  8
0
100
AcDbBlockBegin
  2
*Model_Space
 70
     0
 10
0.0
 20
0.0
 30
0.0
  3
*Model_Space
  1

  0
ENDBLK
  5
21
330
1F
100
AcDbEntity
  8
0
100
AcDbBlockEnd
  0
BLOCK
  5
1C
330
1B
100
AcDbEntity
 67
     1
  8
0
100
AcDbBlockBegin
  2
*Paper_Space
 70
     0
 10
0.0
 20
0.0
 30
0.0
  3
*Paper_Space
  1

  0
ENDBLK
  5
1D
330
1B
100
AcDbEntity
 67
     1
  8
0
100
AcDbBlockEnd
  0
BLOCK
  5
24
330
23
100
AcDbEntity
 67
     1
  8
0
100
AcDbBlockBegin
  2
*Paper_Space0
 70
     0
 10
0.0
 20
0.0
 30
0.0
  3
*Paper_Space0
  1

  0
ENDBLK
  5
25
330
23
100
AcDbEntity
 67
     1
  8
0
100
AcDbBlockEnd
  0
BLOCK
  5
93
330
91
100
AcDbEntity
  8
0
100
AcDbBlockBegin
  2
GENAXEH
 70
     0
 10
0.0
 20
0.0
 30
0.0
  3
GENAXEH
  1

  0
LINE
  5
92
330
91
100
AcDbEntity
  8
0
100
AcDbLine
 10
-1.0
 20
0.0
 30
0.0
 11
1.0
 21
0.0
 31
0.0
  0
ENDBLK
  5
94
330
91
100
AcDbEntity
  8
0
100
AcDbBlockEnd
  0
BLOCK
  5
38D
330
38C
100
AcDbEntity
  8
0
100
AcDbBlockBegin
  2
_None
 70
     0
 10
0.0
 20
0.0
 30
0.0
  3
_None
  1

  0
ENDBLK
  5
38E
330
38C
100
AcDbEntity
  8
0
100
AcDbBlockEnd
  0
BLOCK
  5
4C8
330
471
100
AcDbEntity
  8
0
100
AcDbBlockBegin
  2
A$C0D323CD7
 70
     0
 10
0.0
 20
0.0
 30
0.0
  3
A$C0D323CD7
  1

  0
LINE
  5
472
330
471
100
AcDbEntity
  8
0
370
    35
100
AcDbLine
 10
221.2550758077017
 20
1233.706342246696
 30
0.0
 11
730.6300669502274
 21
1233.706342246696
 31
0.0
  0
ARC
  5
473
330
471
100
AcDbEntity
  8
0
370
    35
100
AcDbCircle
 10
221.2550758077017
 20
1238.706342246696
 30
0.0
 40
4.999999999999999
100
AcDbArc
 50
226.6612314562431
 51
270.0
  0
ARC
  5
474
330
471
100
AcDbEntity
  8
0
370
    35
100
AcDbCircle
 10
315.3205006165084
 20
1276.338192888978
 30
0.0
 40
423.0272267415036
100
AcDbArc
 50
327.3733272161622
 51
353.4272921167653
  0
ARC
  5
475
330
471
100
AcDbEntity
  8
0
370
    35
100
AcDbCircle
 10
730.6300669502274
 20
1228.706342246698
 30
0.0
 40
4.999999999999999
100
AcDbArc
 50
350.9147464328382
 51
90.0
  0
ARC
  5
476
330
471
100
AcDbEntity
  8
0
370
    35
100
AcDbCircle
 10
600.6917565431144
 20
1231.103274012089
 30
0.0
 40
292.7984818470625
100
AcDbArc
 50
179.490616251053
 51
218.6437495185628
  0
ARC
  5
477
330
471
100
AcDbEntity
  8
0
370
    35
100
AcDbCircle
 10
-941.9233712966375
 20
1169.86352905077
 30
0.0
 40
1593.512676569365
100
AcDbArc
 50
348.1615199596087
 51
355.6233250831374
  0
LINE
  5
478
330
471
100
AcDbEntity
  8
0
370
    35
100
AcDbLine
 10
60.85323516058301
 20
1254.888684421011
 30
0.0
 11
138.6437208391438
 21
842.9489594705227
 31
0.0
  0
LINE
  5
479
330
471
100
AcDbEntity
  8
0
370
    35
100
AcDbLine
 10
138.6437208391438
 20
842.9489594705209
 30
0.0
 11
617.6950161890967
 21
842.9489594705682
 31
0.0
  0
LINE
  5
47A
330
471
100
AcDbEntity
  8
0
370
    35
100
AcDbLine
 10
65.76983758045784
 20
1260.798091175369
 30
0.0
 11
191.7508712969178
 21
1260.798091175369
 31
0.0
  0
ARC
  5
47B
330
471
100
AcDbEntity
  8
0
370
    35
100
AcDbCircle
 10
65.76983758045784
 20
1255.798091175369
 30
0.0
 40
4.999999999999999
100
AcDbArc
 50
90.0
 51
190.4793623872004
  0
LINE
  5
47C
330
471
100
AcDbEntity
  8
0
370
    35
100
AcDbLine
 10
217.8235226320506
 20
1235.069799547555
 30
0.0
 11
195.1824244725688
 21
1259.43463387451
 31
0.0
  0
ARC
  5
47D
330
471
100
AcDbEntity
  8
0
370
    35
100
AcDbCircle
 10
191.7508712969178
 20
1255.798091175369
 30
0.0
 40
4.999999999999999
100
AcDbArc
 50
46.66123145624307
 51
90.0
  0
ARC
  5
47E
330
471
100
AcDbEntity
  8
0
370
    35
100
AcDbCircle
 10
16164.07378489651
 20
764.0173125642868
 30
0.0
 40
15951.30025060118
100
AcDbArc
 50
178.3117769881136
 51
179.7164827554353
  0
LINE
  5
47F
330
471
100
AcDbEntity
  8
0
370
    35
100
AcDbLine
 10
372.0032980505424
 20
1048.25760158795
 30
0.0
 11
672.6377423668203
 21
1048.25760158795
 31
0.0
  0
LINE
  5
480
330
471
100
AcDbEntity
  8
0
370
    35
100
AcDbLine
 10
14.12596683116894
 20
1624.574110617022
 30
0.0
 11
184.4944631544789
 21
1624.574110617022
 31
0.0
  0
ARC
  5
481
330
471
100
AcDbEntity
  8
0
370
    35
100
AcDbCircle
 10
136.0850110806826
 20
1579.823268823244
 30
0.0
 40
65.92505511060963
100
AcDbArc
 50
3.390578722921905
 51
42.75102405474772
  0
ARC
  5
482
330
471
100
AcDbEntity
  8
0
370
    35
100
AcDbCircle
 10
172.6123010072627
 20
1546.903724639416
 30
0.0
 40
176.4953454867487
100
AcDbArc
 50
153.8916238383281
 51
167.9591576237356
  0
LINE
  5
483
330
471
100
AcDbEntity
  8
0
370
    35
100
AcDbLine
 10
0.0000038972214895
 20
1583.722223588744
 30
0.0
 11
201.8946687539577
 21
1583.722223588744
 31
0.0
  0
LINE
  5
484
330
471
100
AcDbEntity
  8
0
370
    35
100
AcDbLine
 10
2.733778402806223
 20
1583.722223588744
 30
0.0
 11
12.34453293499277
 21
1261.120461465487
 31
0.0
  0
LINE
  5
485
330
471
100
AcDbEntity
  8
0
370
    35
100
AcDbLine
 10
12.34453293499277
 20
1261.120461465487
 30
0.0
 11
192.8687189324704
 21
1261.120461465488
 31
0.0
  0
LINE
  5
486
330
471
100
AcDbEntity
  8
0
370
    35
100
AcDbLine
 10
198.447273250364
 20
1583.722223588744
 30
0.0
 11
192.8687189324704
 21
1261.120461465487
 31
0.0
  0
LINE
  5
487
330
471
100
AcDbEntity
  8
0
370
    35
100
AcDbLine
 10
2.176821821747893
 20
365.57954741096
 30
0.0
 11
2.176821821747893
 21
32.51389637142532
 31
0.0
  0
ARC
  5
488
330
471
100
AcDbEntity
  8
0
370
    35
100
AcDbCircle
 10
97.13358415238722
 20
149.5232114776873
 30
0.0
 40
150.6916272855066
100
AcDbArc
 50
230.9395769893662
 51
310.7416846085993
  0
CIRCLE
  5
489
330
471
100
AcDbEntity
  8
0
370
    35
100
AcDbCircle
 10
113.311551998748
 20
199.8323336259437
 30
0.0
 40
29.37854228007564
  0
ARC
  5
48A
330
471
100
AcDbEntity
  8
0
370
    35
100
AcDbCircle
 10
-1320.864496470985
 20
194.8167003858726
 30
0.0
 40
1524.709020902971
100
AcDbArc
 50
353.9965625608881
 51
6.207543385313373
  0
ARC
  5
48B
330
471
100
AcDbEntity
  8
0
370
    35
100
AcDbCircle
 10
448.35448716001
 20
194.2170486240384
 30
0.0
 40
127.7516323296364
100
AcDbArc
 50
177.5977560761246
 51
255.959564671689
  0
ARC
  5
48C
330
471
100
AcDbEntity
  8
0
370
    35
100
AcDbCircle
 10
471.5541225215205
 20
342.9058947296435
 30
0.0
 40
277.9580125312458
100
AcDbArc
 50
258.7571232729894
 51
309.5364022128663
  0
ARC
  5
48D
330
471
100
AcDbEntity
  8
0
370
    35
100
AcDbCircle
 10
598.6141082274447
 20
206.4615146024771
 30
0.0
 40
92.51949084055627
100
AcDbArc
 50
302.6238825733817
 51
342.4865481866892
  0
ARC
  5
48E
330
471
100
AcDbEntity
  8
0
370
    35
100
AcDbCircle
 10
626.1522388661509
 20
202.563951522091
 30
0.0
 40
65.24521748293711
100
AcDbArc
 50
338.4699380050274
 51
357.5293759490599
  0
ARC
  5
48F
330
471
100
AcDbEntity
  8
0
370
    35
100
AcDbCircle
 10
809.4045396904332
 20
199.4191893527823
 30
0.0
 40
398.3394844572585
100
AcDbArc
 50
174.288865180037
 51
185.711134819963
  0
ARC
  5
490
330
471
100
AcDbEntity
  8
0
370
    35
100
AcDbCircle
 10
426.1263926718751
 20
252.4452478235708
 30
0.0
 40
93.58521733456816
100
AcDbArc
 50
261.9631911362343
 51
281.5866474577039
  0
ARC
  5
491
330
471
100
AcDbEntity
  8
0
370
    35
100
AcDbCircle
 10
435.2798234807417
 20
209.3082941856929
 30
0.0
 40
49.48976847067016
100
AcDbArc
 50
281.2360131493879
 51
335.3605107874817
  0
ARC
  5
492
330
471
100
AcDbEntity
  8
0
370
    35
100
AcDbCircle
 10
460.3542150165416
 20
198.4229077165
 30
0.0
 40
22.16728845369287
100
AcDbArc
 50
333.9143800815364
 51
3.353304726148834
  0
CIRCLE
  5
493
330
471
100
AcDbEntity
  8
0
370
    35
100
AcDbCircle
 10
249.224287871621
 20
120.3486658876482
 30
0.0
 40
7.354791558851198
  0
ARC
  5
494
330
471
100
AcDbEntity
  8
0
370
    35
100
AcDbCircle
 10
33.36175591909736
 20
8224.992112616149
 30
0.0
 40
8172.616166939473
100
AcDbArc
 50
271.1496088382292
 51
271.9122857006277
  0
ARC
  5
495
330
471
100
AcDbEntity
  8
0
370
    35
100
AcDbCircle
 10
445.7173505401446
 20
311.0546298810514
 30
0.0
 40
289.9652757630413
100
AcDbArc
 50
241.2117788289877
 51
266.5229260675924
  0
ARC
  5
496
330
471
100
AcDbEntity
  8
0
370
    35
100
AcDbCircle
 10
461.9741403060983
 20
389.892193542104
 30
0.0
 40
369.8208238258552
100
AcDbArc
 50
264.749419369754
 51
290.1681227168195
  0
ARC
  5
497
330
471
100
AcDbEntity
  8
0
370
    35
100
AcDbCircle
 10
475.9552534688013
 20
340.5950694498688
 30
0.0
 40
318.7495268540413
100
AcDbArc
 50
290.8642471758682
 51
318.3396671127445
  0
ARC
  5
498
330
471
100
AcDbEntity
  8
0
370
    35
100
AcDbCircle
 10
576.181100613005
 20
224.9675770889617
 30
0.0
 40
168.1771333295509
100
AcDbArc
 50
325.0884932685018
 51
344.4446973144524
  0
ARC
  5
499
330
471
100
AcDbEntity
  8
0
370
    35
100
AcDbCircle
 10
1829.688228875704
 20
1581.047609839931
 30
0.0
 40
738.7399726035147
100
AcDbArc
 50
177.0231027928112
 51
179.8396850336968
  0
ARC
  5
49A
330
471
100
AcDbEntity
  8
0
370
    35
100
AcDbCircle
 10
1269.491149432477
 20
-882.935272878446
 30
0.0
 40
2508.638769928079
100
AcDbArc
 50
89.04959651079598
 51
94.05843537244575
  0
LINE
  5
49B
330
471
100
AcDbEntity
  8
0
370
    35
100
AcDbLine
 10
1290.709272169377
 20
1583.114619317415
 30
0.0
 11
1090.95114804514
 21
1583.114619317415
 31
0.0
  0
ARC
  5
49C
330
471
100
AcDbEntity
  8
0
370
    35
100
AcDbCircle
 10
11748.4341627546
 20
1794.412086337775
 30
0.0
 40
10655.87428142569
100
AcDbArc
 50
181.1362039634724
 51
182.8322473957555
  0
ARC
  5
49D
330
471
100
AcDbEntity
  8
0
370
    35
100
AcDbCircle
 10
1111.718178711846
 20
1266.78334975449
 30
0.0
 40
6.239998073762667
100
AcDbArc
 50
169.8317956661169
 51
265.4465400828604
  0
LINE
  5
49E
330
471
100
AcDbEntity
  8
0
370
    35
100
AcDbLine
 10
1111.222790027605
 20
1260.563047027766
 30
0.0
 11
1417.969770271666
 21
1260.563047027766
 31
0.0
  0
LINE
  5
49F
330
471
100
AcDbEntity
  8
0
370
    35
100
AcDbLine
 10
1111.222790027609
 20
1260.563047027766
 30
0.0
 11
1111.222790027609
 21
1229.919900190229
 31
0.0
  0
ARC
  5
4A0
330
471
100
AcDbEntity
  8
0
370
    35
100
AcDbCircle
 10
1112.789355653564
 20
1222.708094575732
 30
0.0
 40
7.37999106244168
100
AcDbArc
 50
102.2555318651734
 51
175.0199363137867
  0
ARC
  5
4A1
330
471
100
AcDbEntity
  8
0
370
    35
100
AcDbCircle
 10
1505.233999286778
 20
1225.40598652571
 30
0.0
 40
399.8020679211773
100
AcDbArc
 50
180.2948253294599
 51
205.0493657350803
  0
LINE
  5
4A2
330
471
100
AcDbEntity
  8
0
370
    35
100
AcDbLine
 10
1143.035984505623
 20
1056.130200889843
 30
0.0
 11
1313.905686607672
 21
1056.130200889843
 31
0.0
  0
ARC
  5
4A3
330
471
100
AcDbEntity
  8
0
370
    35
100
AcDbCircle
 10
22558.94499910188
 20
3646.403082848786
 30
0.0
 40
21587.54865432403
100
AcDbArc
 50
186.7235211857158
 51
187.4976828800068
  0
ARC
  5
4A4
330
471
100
AcDbEntity
  8
0
370
    35
100
AcDbCircle
 10
3768.242587848079
 20
1146.615953731759
 30
0.0
 40
2613.340897522081
100
AcDbArc
 50
181.9842371934701
 51
186.9691138383568
  0
LINE
  5
4A5
330
471
100
AcDbEntity
  8
0
370
    35
100
AcDbLine
 10
1290.625783826443
 20
829.5281211423008
 30
0.0
 11
1155.96688032322
 21
829.5281211423008
 31
0.0
  0
LINE
  5
4A6
330
471
100
AcDbEntity
  8
0
370
    35
100
AcDbLine
 10
2.176821821747893
 20
34.08511984092732
 30
0.0
 11
2.176821821747893
 21
367.150770880462
 31
0.0
  0
ARC
  5
4A7
330
471
100
AcDbEntity
  8
0
370
    35
100
AcDbCircle
 10
97.13358415238722
 20
250.1414557742001
 30
0.0
 40
150.6916272855066
100
AcDbArc
 50
49.25831539143458
 51
129.0604230106668
  0
CIRCLE
  5
4A8
330
471
100
AcDbEntity
  8
0
370
    35
100
AcDbCircle
 10
113.311551998748
 20
199.8323336259437
 30
0.0
 40
29.37854228007564
  0
ARC
  5
4A9
330
471
100
AcDbEntity
  8
0
370
    35
100
AcDbCircle
 10
-1320.864496470985
 20
204.8479668660148
 30
0.0
 40
1524.709020902971
100
AcDbArc
 50
353.7924566147385
 51
6.003437439163723
  0
ARC
  5
4AA
330
471
100
AcDbEntity
  8
0
370
    35
100
AcDbCircle
 10
448.35448716001
 20
205.4476186278489
 30
0.0
 40
127.7516323296364
100
AcDbArc
 50
104.0404353283109
 51
182.4022439238754
  0
ARC
  5
4AB
330
471
100
AcDbEntity
  8
0
370
    35
100
AcDbCircle
 10
471.5541225215205
 20
56.75877252224385
 30
0.0
 40
277.9580125312458
100
AcDbArc
 50
50.46359778713367
 51
101.2428767270105
  0
ARC
  5
4AC
330
471
100
AcDbEntity
  8
0
370
    35
100
AcDbCircle
 10
598.6141082274447
 20
193.2031526494102
 30
0.0
 40
92.51949084055627
100
AcDbArc
 50
17.51345181319831
 51
57.37611742659016
  0
ARC
  5
4AD
330
471
100
AcDbEntity
  8
0
370
    35
100
AcDbCircle
 10
626.1522388661509
 20
197.1007157297963
 30
0.0
 40
65.24521748293711
100
AcDbArc
 50
2.470624050940038
 51
21.53006199502116
  0
ARC
  5
4AE
330
471
100
AcDbEntity
  8
0
370
    35
100
AcDbCircle
 10
809.4045396904332
 20
200.245477899105
 30
0.0
 40
398.3394844572585
100
AcDbArc
 50
174.2888651799851
 51
185.7111348200147
  0
ARC
  5
4AF
330
471
100
AcDbEntity
  8
0
370
    35
100
AcDbCircle
 10
426.1263926718751
 20
147.2194194283166
 30
0.0
 40
93.58521733456816
100
AcDbArc
 50
78.41335254229602
 51
98.03680886376572
  0
ARC
  5
4B0
330
471
100
AcDbEntity
  8
0
370
    35
100
AcDbCircle
 10
435.2798234807417
 20
190.3563730661945
 30
0.0
 40
49.48976847067016
100
AcDbArc
 50
24.63948921251841
 51
78.76398685061214
  0
ARC
  5
4B1
330
471
100
AcDbEntity
  8
0
370
    35
100
AcDbCircle
 10
460.3542150165416
 20
201.2417595353873
 30
0.0
 40
22.16728845369287
100
AcDbArc
 50
356.6466952738512
 51
26.08561991846363
  0
CIRCLE
  5
4B2
330
471
100
AcDbEntity
  8
0
370
    35
100
AcDbCircle
 10
249.224287871621
 20
279.3160013642391
 30
0.0
 40
7.354791558851198
  0
ARC
  5
4B3
330
471
100
AcDbEntity
  8
0
370
    35
100
AcDbCircle
 10
33.36175591909736
 20
-7825.32744536426
 30
0.0
 40
8172.616166939473
100
AcDbArc
 50
88.08771429937221
 51
88.85039116177088
  0
ARC
  5
4B4
330
471
100
AcDbEntity
  8
0
370
    35
100
AcDbCircle
 10
445.7173505401446
 20
88.61003737083596
 30
0.0
 40
289.9652757630413
100
AcDbArc
 50
93.47707393240476
 51
118.7882211710122
  0
ARC
  5
4B5
330
471
100
AcDbEntity
  8
0
370
    35
100
AcDbCircle
 10
461.9741403060983
 20
9.772473709783326
 30
0.0
 40
369.8208238258552
100
AcDbArc
 50
69.83187728318052
 51
95.25058063024596
  0
ARC
  5
4B6
330
471
100
AcDbEntity
  8
0
370
    35
100
AcDbCircle
 10
475.9552534688013
 20
59.06959780201853
 30
0.0
 40
318.7495268540413
100
AcDbArc
 50
41.66033288725551
 51
69.13575282413177
  0
ARC
  5
4B7
330
471
100
AcDbEntity
  8
0
370
    35
100
AcDbCircle
 10
576.181100613005
 20
174.6970901629256
 30
0.0
 40
168.1771333295509
100
AcDbArc
 50
15.55530268559803
 51
34.91150673149823
  0
ARC
  5
4B8
330
471
100
AcDbEntity
  8
0
370
    35
100
AcDbCircle
 10
751.7303154630503
 20
1581.047609839931
 30
0.0
 40
738.7399726035147
100
AcDbArc
 50
0.1603149663031507
 51
2.976897207188761
  0
ARC
  5
4B9
330
471
100
AcDbEntity
  8
0
370
    35
100
AcDbCircle
 10
1311.927394906277
 20
-882.935272878446
 30
0.0
 40
2508.638769928079
100
AcDbArc
 50
85.94156462776201
 51
90.95040348920401
  0
LINE
  5
4BA
330
471
100
AcDbEntity
  8
0
370
    35
100
AcDbLine
 10
1290.709272169377
 20
1583.114619317415
 30
0.0
 11
1490.467396293614
 21
1583.114619317415
 31
0.0
  0
ARC
  5
4BB
330
471
100
AcDbEntity
  8
0
370
    35
100
AcDbCircle
 10
-9167.015618415847
 20
1794.412086337775
 30
0.0
 40
10655.87428142569
100
AcDbArc
 50
357.1677526042445
 51
358.8637960365276
  0
ARC
  5
4BC
330
471
100
AcDbEntity
  8
0
370
    35
100
AcDbCircle
 10
1469.700365626908
 20
1266.78334975449
 30
0.0
 40
6.239998073762667
100
AcDbArc
 50
274.5534599169321
 51
10.16820433393436
  0
LINE
  5
4BD
330
471
100
AcDbEntity
  8
0
370
    35
100
AcDbLine
 10
1470.195754311149
 20
1260.563047027766
 30
0.0
 11
1163.448774067088
 21
1260.563047027766
 31
0.0
  0
LINE
  5
4BE
330
471
100
AcDbEntity
  8
0
370
    35
100
AcDbLine
 10
1470.195754311146
 20
1260.563047027766
 30
0.0
 11
1470.195754311146
 21
1229.919900190229
 31
0.0
  0
ARC
  5
4BF
330
471
100
AcDbEntity
  8
0
370
    35
100
AcDbCircle
 10
1468.62918868519
 20
1222.708094575732
 30
0.0
 40
7.37999106244168
100
AcDbArc
 50
4.980063686213194
 51
77.74446813482659
  0
ARC
  5
4C0
330
471
100
AcDbEntity
  8
0
370
    35
100
AcDbCircle
 10
1076.184545051976
 20
1225.40598652571
 30
0.0
 40
399.8020679211773
100
AcDbArc
 50
334.9506342649197
 51
359.7051746705401
  0
LINE
  5
4C1
330
471
100
AcDbEntity
  8
0
370
    35
100
AcDbLine
 10
1438.382559833131
 20
1056.130200889843
 30
0.0
 11
1267.512857731083
 21
1056.130200889843
 31
0.0
  0
ARC
  5
4C2
330
471
100
AcDbEntity
  8
0
370
    35
100
AcDbCircle
 10
-19977.52645476313
 20
3646.403082848786
 30
0.0
 40
21587.54865432403
100
AcDbArc
 50
352.5023171199932
 51
353.276478814336
  0
ARC
  5
4C3
330
471
100
AcDbEntity
  8
0
370
    35
100
AcDbCircle
 10
-1186.824043509324
 20
1146.615953731759
 30
0.0
 40
2613.340897522081
100
AcDbArc
 50
353.0308861616431
 51
358.015762806582
  0
LINE
  5
4C4
330
471
100
AcDbEntity
  8
0
370
    35
100
AcDbLine
 10
1290.792760512311
 20
829.5281211423008
 30
0.0
 11
1425.451664015534
 21
829.5281211423008
 31
0.0
  0
LINE
  5
4C5
330
471
100
AcDbEntity
  8
0
370
    35
100
AcDbLine
 10
1111.222790027609
 20
1229.919900190229
 30
0.0
 11
1470.195754311146
 21
1229.919900190229
 31
0.0
  0
ARC
  5
4C6
330
471
100
AcDbEntity
  8
0
370
    35
100
AcDbCircle
 10
669.119149899678
 20
199.8323336259482
 30
0.0
 40
71.9062261782065
100
AcDbArc
 50
343.8801839591862
 51
16.11981604091377
  0
ENDBLK
  5
4C9
330
471
100
AcDbEntity
  8
0
100
AcDbBlockEnd
  0
ENDSEC
  0
SECTION
  2
ENTITIES
  0
LINE
  5
59C
330
1F
100
AcDbEntity
  8
0
370
    35
100
AcDbLine
 10
996.6935937097971
 20
1763.374498592988
 30
0.0
 11
996.6935937097971
 21
1430.308847553453
 31
0.0
  0
ARC
  5
59D
330
1F
100
AcDbEntity
  8
0
370
    35
100
AcDbCircle
 10
1091.650356040436
 20
1547.318162659715
 30
0.0
 40
150.6916272855066
100
AcDbArc
 50
230.9395769893713
 51
310.7416846085981
  0
CIRCLE
  5
59E
330
1F
100
AcDbEntity
  8
0
370
    35
100
AcDbCircle
 10
1107.828323886797
 20
1597.627284807972
 30
0.0
 40
29.37854228007564
  0
ARC
  5
59F
330
1F
100
AcDbEntity
  8
0
370
    35
100
AcDbCircle
 10
-326.347724582936
 20
1592.6116515679
 30
0.0
 40
1524.709020902971
100
AcDbArc
 50
353.9965625608922
 51
6.207543385317642
  0
ARC
  5
5A9
330
1F
100
AcDbEntity
  8
0
370
    35
100
AcDbCircle
 10
1027.878527807146
 20
9622.787063798178
 30
0.0
 40
8172.616166939473
100
AcDbArc
 50
271.1496088382288
 51
271.9122857006272
  0
ARC
  5
5AA
330
1F
100
AcDbEntity
  8
0
370
    35
100
AcDbCircle
 10
1440.234122428194
 20
1708.849581063079
 30
0.0
 40
289.9652757630413
100
AcDbArc
 50
241.2117788289877
 51
266.5229260675939
  0
ARC
  5
5AB
330
1F
100
AcDbEntity
  8
0
370
    35
100
AcDbCircle
 10
1456.490912194148
 20
1787.687144724132
 30
0.0
 40
369.8208238258552
100
AcDbArc
 50
264.7494193697517
 51
290.1681227168168
  0
ARC
  5
5AC
330
1F
100
AcDbEntity
  8
0
370
    35
100
AcDbCircle
 10
1470.472025356851
 20
1738.390020631896
 30
0.0
 40
318.7495268540413
100
AcDbArc
 50
290.8642471758698
 51
318.3396671127489
  0
ARC
  5
5AD
330
1F
100
AcDbEntity
  8
0
370
    35
100
AcDbCircle
 10
1570.697872501054
 20
1622.76252827099
 30
0.0
 40
168.1771333295509
100
AcDbArc
 50
325.0884932685003
 51
344.4446973144526
  0
LINE
  5
5BB
330
1F
100
AcDbEntity
  8
0
370
    35
100
AcDbLine
 10
996.6935937097971
 20
1431.880071022955
 30
0.0
 11
996.6935937097971
 21
1764.94572206249
 31
0.0
  0
ARC
  5
5BC
330
1F
100
AcDbEntity
  8
0
370
    35
100
AcDbCircle
 10
1091.650356040436
 20
1647.936406956228
 30
0.0
 40
150.6916272855066
100
AcDbArc
 50
49.25831539143863
 51
129.0604230106653
  0
CIRCLE
  5
5BD
330
1F
100
AcDbEntity
  8
0
370
    35
100
AcDbCircle
 10
1107.828323886797
 20
1597.627284807972
 30
0.0
 40
29.37854228007564
  0
ARC
  5
5BE
330
1F
100
AcDbEntity
  8
0
370
    35
100
AcDbCircle
 10
-326.347724582936
 20
1602.642918048043
 30
0.0
 40
1524.709020902971
100
AcDbArc
 50
353.7924566147349
 51
6.00343743915962
  0
ARC
  5
5C8
330
1F
100
AcDbEntity
  8
0
370
    35
100
AcDbCircle
 10
1027.878527807146
 20
-6427.532494182234
 30
0.0
 40
8172.616166939473
100
AcDbArc
 50
88.08771429937282
 51
88.8503911617712
  0
ARC
  5
5C9
330
1F
100
AcDbEntity
  8
0
370
    35
100
AcDbCircle
 10
1440.234122428194
 20
1486.404988552864
 30
0.0
 40
289.9652757630413
100
AcDbArc
 50
93.47707393240616
 51
118.7882211710123
  0
ARC
  5
5CA
330
1F
100
AcDbEntity
  8
0
370
    35
100
AcDbCircle
 10
1456.490912194148
 20
1407.567424891811
 30
0.0
 40
369.8208238258552
100
AcDbArc
 50
69.8318772831832
 51
95.25058063024832
  0
ARC
  5
5CB
330
1F
100
AcDbEntity
  8
0
370
    35
100
AcDbCircle
 10
1470.472025356851
 20
1456.864548984046
 30
0.0
 40
318.7495268540413
100
AcDbArc
 50
41.66033288725114
 51
69.13575282413024
  0
ARC
  5
5CC
330
1F
100
AcDbEntity
  8
0
370
    35
100
AcDbCircle
 10
1570.697872501054
 20
1572.492041344953
 30
0.0
 40
168.1771333295509
100
AcDbArc
 50
15.55530268560104
 51
34.91150673149975
  0
ARC
  5
5DB
330
1F
100
AcDbEntity
  8
0
370
    35
100
AcDbCircle
 10
1663.635921787727
 20
1597.627284807976
 30
0.0
 40
71.9062261782065
100
AcDbArc
 50
343.8801839591865
 51
16.1198160409084
  0
LWPOLYLINE
  5
775
330
1F
100
AcDbEntity
  8
0
  6
Continuous
100
AcDbPolyline
 90
        7
 70
     0
 43
0.0
 10
1247.973734751754
 20
1514.682367979635
 10
1248.190773865643
 20
1514.116146083173
 10
1248.458965215274
 20
1513.475180082683
 10
1248.73523656063
 20
1512.870124649191
 10
1249.021217667592
 20
1512.307494631605
 10
1249.320310262107
 20
1511.794710113179
 10
1249.579793587945
 20
1511.411513095121
  0
LINE
  5
776
330
1F
100
AcDbEntity
  8
0
  6
Continuous
100
AcDbLine
 10
1297.244618669231
 20
1466.738200454182
 30
0.0
 11
1297.47675484799
 21
1466.275607021484
 31
0.0
  0
LINE
  5
777
330
1F
100
AcDbEntity
  8
0
  6
Continuous
100
AcDbLine
 10
1297.136909090716
 20
1467.04994214775
 30
0.0
 11
1297.244618669231
 21
1466.738200454182
 31
0.0
  0
LWPOLYLINE
  5
778
330
1F
100
AcDbEntity
  8
0
  6
Continuous
100
AcDbPolyline
 90
       41
 70
     0
 43
0.0
 10
1714.881341903371
 20
1596.810516450539
 10
1714.622916041995
 20
1604.874318205293
 10
1713.69741169437
 20
1614.013327805647
 10
1712.061313065875
 20
1623.217012761855
 10
1709.677867329916
 20
1632.442466889212
 10
1706.513408473921
 20
1641.635690704875
 10
1702.540334257622
 20
1650.732548901531
 10
1697.733377034752
 20
1659.663559721018
 10
1692.08038440765
 20
1668.355901557876
 10
1685.602093465772
 20
1676.749528781334
 10
1678.361356404888
 20
1684.819846925342
 10
1670.415752528526
 20
1692.569687984769
 10
1661.842699194621
 20
1699.99723271185
 10
1652.709542291092
 20
1707.122873138634
 10
1643.0843604591
 20
1713.972823310031
 10
1633.025450512327
 20
1720.582440221489
 10
1622.556517369462
 20
1726.955016999553
 10
1611.684699513273
 20
1733.055437141763
 10
1600.417324417034
 20
1738.847665917669
 10
1588.774058513521
 20
1744.290111665933
 10
1576.738020766943
 20
1749.357682755992
 10
1564.310715248663
 20
1754.013693352285
 10
1551.464822991572
 20
1758.228186028748
 10
1538.182229763134
 20
1761.960955883185
 10
1524.446593668876
 20
1765.164621976432
 10
1510.235606131647
 20
1767.785696996647
 10
1495.570165467318
 20
1769.756301678834
 10
1480.425410200062
 20
1771.012001301973
 10
1464.957666378461
 20
1771.48493049262
 10
1449.273223066483
 20
1771.130121123384
 10
1433.531070551269
 20
1769.91931920624
 10
1417.882025786415
 20
1767.844929691129
 10
1402.469423659821
 20
1764.919301582933
 10
1387.438611975454
 20
1761.175416005343
 10
1372.922173978176
 20
1756.654388037219
 10
1359.046722828134
 20
1751.414702207186
 10
1345.949306517155
 20
1745.551982932873
 10
1333.746902456087
 20
1739.222905156886
 10
1322.190112274097
 20
1733.607940737822
 10
1310.736948325644
 20
1730.438656220494
 10
1300.437671098912
 20
1729.225672836989
  0
LINE
  5
779
330
1F
100
AcDbEntity
  8
0
  6
Continuous
100
AcDbLine
 10
1714.622916136468
 20
1588.746716614126
 30
0.0
 11
1714.881341903371
 21
1596.810516677336
 31
0.0
  0
LWPOLYLINE
  5
77A
330
1F
100
AcDbEntity
  8
0
  6
Continuous
100
AcDbPolyline
 90
        3
 70
     0
 43
0.0
 10
1252.908364574232
 20
1508.32897869894
 10
1252.918441921909
 20
1508.32256577773
 10
1253.160900628653
 20
1508.176936987415
  0
LWPOLYLINE
  5
77B
330
1F
100
AcDbEntity
  8
0
  6
Continuous
100
AcDbPolyline
 90
        7
 70
     0
 43
0.0
 10
1247.973734751754
 20
1658.794867979634
 10
1248.190773865643
 20
1658.228646083207
 10
1248.458965215274
 20
1657.587680082683
 10
1248.73523656063
 20
1656.982624649192
 10
1249.021217667592
 20
1656.41999463157
 10
1249.320310262107
 20
1655.907210113178
 10
1249.579793587945
 20
1655.524013095122
  0
LWPOLYLINE
  5
77C
330
1F
100
AcDbEntity
  8
0
  6
Continuous
100
AcDbPolyline
 90
       39
 70
     0
 43
0.0
 10
1310.736947182201
 20
1463.182377219232
 10
1322.190111527525
 20
1460.013092796377
 10
1333.746902238744
 20
1454.398128197787
 10
1345.94930697075
 20
1448.06905009104
 10
1359.046724094412
 20
1442.20633051433
 10
1372.922176151713
 20
1436.966644448046
 10
1387.438615131712
 20
1432.445616357085
 10
1402.469427808357
 20
1428.701730751134
 10
1417.882030889378
 20
1425.776102718536
 10
1433.531076552003
 20
1423.701713411314
 10
1449.273229823209
 20
1422.490911777694
 10
1464.95767373056
 20
1422.136102776999
 10
1480.425417911249
 20
1422.609032374004
 10
1495.570173310761
 20
1423.864732412922
 10
1510.235613861743
 20
1425.83533747314
 10
1524.446601115483
 20
1428.456412814625
 10
1538.182236784509
 20
1431.660079163032
 10
1551.464829512115
 20
1435.392849197031
 10
1564.310721230557
 20
1439.607341996329
 10
1576.73802621012
 20
1444.263352649348
 10
1588.774063455866
 20
1449.330923767735
 10
1600.417328905784
 20
1454.773369525419
 10
1611.684703614607
 20
1460.565598301324
 10
1622.556521130617
 20
1466.666018443569
 10
1633.025453971016
 20
1473.038595212178
 10
1643.084363653209
 20
1479.648212114182
 10
1652.709545230041
 20
1486.498162295034
 10
1661.842701887865
 20
1493.623802731271
 10
1670.415754947735
 20
1501.051347467772
 10
1678.361358550063
 20
1508.801188536688
 10
1685.602095308549
 20
1516.871506671242
 10
1692.080385957451
 20
1525.265133866338
 10
1697.733378301064
 20
1533.95747564647
 10
1702.5403352499
 20
1542.888486390393
 10
1706.513409229948
 20
1551.985344483087
 10
1709.677867877985
 20
1561.178568194787
 10
1712.061313443906
 20
1570.404022218252
 10
1713.697411921202
 20
1579.607707079952
 10
1714.622916136468
 20
1588.746716614126
  0
LINE
  5
77D
330
1F
100
AcDbEntity
  8
0
  6
Continuous
100
AcDbLine
 10
1300.437671013893
 20
1464.395360404302
 30
0.0
 11
1310.736947182201
 21
1463.182377219232
 31
0.0
  0
LWPOLYLINE
  5
77E
330
1F
100
AcDbEntity
  8
0
  6
Continuous
100
AcDbPolyline
 90
        8
 70
     0
 43
0.0
 10
1294.907489585071
 20
1480.768993255745
 10
1295.235301003648
 20
1480.729582928478
 10
1295.535122051363
 20
1480.619095068859
 10
1295.805864834888
 20
1480.440019307627
 10
1296.029752874091
 20
1480.200727636109
 10
1296.190727698964
 20
1479.917933012484
 10
1296.2817251982
 20
1479.605962354894
 10
1296.297513681703
 20
1479.475461115144
  0
LWPOLYLINE
  5
77F
330
1F
100
AcDbEntity
  8
0
  6
Continuous
100
AcDbPolyline
 90
        9
 70
     0
 43
0.0
 10
1287.676302429582
 20
1495.191484890668
 10
1287.81304431705
 20
1495.166257302971
 10
1287.901533880811
 20
1495.155368795606
 10
1287.966165454793
 20
1495.149676512516
 10
1288.025410405938
 20
1495.14574238303
 10
1288.08229640085
 20
1495.142779798571
 10
1288.144395752831
 20
1495.14013527277
 10
1288.212743558225
 20
1495.137681457419
 10
1288.377629860944
 20
1495.132914849099
  0
LINE
  5
780
330
1F
100
AcDbEntity
  8
0
  6
Continuous
100
AcDbLine
 10
1287.226635254982
 20
1480.768981188099
 30
0.0
 11
1294.945286939072
 21
1480.768981188099
 31
0.0
  0
LINE
  5
781
330
1F
100
AcDbEntity
  8
0
  6
Continuous
100
AcDbLine
 10
1295.262115000619
 20
1494.720752843951
 30
0.0
 11
1287.226610458169
 21
1494.720752843951
 31
0.0
  0
LINE
  5
782
330
1F
100
AcDbEntity
  8
0
  6
Continuous
100
AcDbLine
 10
1289.630753215629
 20
1495.112928977934
 30
0.0
 11
1291.158280775245
 21
1495.100385359774
 31
0.0
  0
LINE
  5
783
330
1F
100
AcDbEntity
  8
0
  6
Continuous
100
AcDbLine
 10
1288.970811501762
 20
1495.121450562684
 30
0.0
 11
1289.630753215629
 21
1495.112928977934
 31
0.0
  0
LINE
  5
784
330
1F
100
AcDbEntity
  8
0
  6
Continuous
100
AcDbLine
 10
1288.583647808404
 20
1495.128245178861
 30
0.0
 11
1288.970811501762
 21
1495.121450562684
 31
0.0
  0
LINE
  5
785
330
1F
100
AcDbEntity
  8
0
  6
Continuous
100
AcDbLine
 10
1288.377629860944
 20
1495.132914849099
 30
0.0
 11
1288.583647808404
 21
1495.128245178861
 31
0.0
  0
LINE
  5
786
330
1F
100
AcDbEntity
  8
0
  6
Continuous
100
AcDbLine
 10
1291.392933621272
 20
1495.128948003691
 30
0.0
 11
1291.690842546591
 21
1495.153683567691
 31
0.0
  0
LINE
  5
787
330
1F
100
AcDbEntity
  8
0
  6
Continuous
100
AcDbLine
 10
1282.995001799964
 20
1507.086244910476
 30
0.0
 11
1281.56496877527
 21
1507.077650040981
 31
0.0
  0
LINE
  5
788
330
1F
100
AcDbEntity
  8
0
  6
Continuous
100
AcDbLine
 10
1281.543474703011
 20
1511.761723602964
 30
0.0
 11
1281.659433092123
 21
1511.762420540477
 31
0.0
  0
LINE
  5
789
330
1F
100
AcDbEntity
  8
0
  6
Continuous
100
AcDbLine
 10
1286.486545000961
 20
1507.21241199278
 30
0.0
 11
1285.835636570381
 21
1507.211016955438
 31
0.0
  0
LINE
  5
78A
330
1F
100
AcDbEntity
  8
0
  6
Continuous
100
AcDbLine
 10
1285.552254364638
 20
1507.251302598371
 30
0.0
 11
1286.203162785765
 21
1507.252697635712
 31
0.0
  0
LINE
  5
78B
330
1F
100
AcDbEntity
  8
0
  6
Continuous
100
AcDbLine
 10
1294.46816734439
 20
1506.728522711023
 30
0.0
 11
1288.102303525052
 21
1506.728522711023
 31
0.0
  0
LINE
  5
78C
330
1F
100
AcDbEntity
  8
0
  6
Continuous
100
AcDbLine
 10
1291.690842546591
 20
1506.840008944273
 30
0.0
 11
1281.560427728975
 21
1506.840008944273
 31
0.0
  0
LINE
  5
78D
330
1F
100
AcDbEntity
  8
0
  6
Continuous
100
AcDbLine
 10
1288.574969514315
 20
1507.03546168777
 30
0.0
 11
1294.447872694495
 21
1507.03546168777
 31
0.0
  0
LINE
  5
78E
330
1F
100
AcDbEntity
  8
0
  6
Continuous
100
AcDbLine
 10
1281.544280788064
 20
1513.079730610444
 30
0.0
 11
1281.680871522752
 21
1513.079316275188
 31
0.0
  0
LWPOLYLINE
  5
78F
330
1F
100
AcDbEntity
  8
0
  6
Continuous
100
AcDbPolyline
 90
        3
 70
     0
 43
0.0
 10
1252.908364574232
 20
1652.44147869894
 10
1252.918441921909
 20
1652.43506577773
 10
1253.160900628653
 20
1652.28943698745
  0
LWPOLYLINE
  5
790
330
1F
100
AcDbEntity
  8
0
  6
Continuous
100
AcDbPolyline
 90
        9
 70
     0
 43
0.0
 10
1288.104370825929
 20
1506.728522711023
 10
1287.76519740779
 20
1506.695757321388
 10
1287.432025089287
 20
1506.596004756232
 10
1287.128069846074
 20
1506.435287595094
 10
1286.861277313779
 20
1506.219286658176
 10
1286.640974727415
 20
1505.955651956775
 10
1286.47550952717
 20
1505.654034029342
 10
1286.371629438291
 20
1505.326976664076
 10
1286.33249730013
 20
1504.957142040547
  0
LINE
  5
791
330
1F
100
AcDbEntity
  8
0
  6
Continuous
100
AcDbLine
 10
1281.558650316275
 20
1536.428736367442
 30
0.0
 11
1281.680871522752
 21
1536.429107109841
 31
0.0
  0
LINE
  5
792
330
1F
100
AcDbEntity
  8
0
  6
Continuous
100
AcDbLine
 10
1281.559461362513
 20
1537.746603694415
 30
0.0
 11
1281.659433092123
 21
1537.746002844553
 31
0.0
  0
LINE
  5
793
330
1F
100
AcDbEntity
  8
0
  6
Continuous
100
AcDbLine
 10
1282.506806843062
 20
1542.752945059311
 30
0.0
 11
1281.550602365535
 21
1542.82090694557
 31
0.0
  0
LINE
  5
794
330
1F
100
AcDbEntity
  8
0
  6
Continuous
100
AcDbLine
 10
1282.506806843062
 20
1542.752945059311
 30
0.0
 11
1281.556017782557
 21
1542.75580208721
 31
0.0
  0
LINE
  5
795
330
1F
100
AcDbEntity
  8
0
  6
Continuous
100
AcDbLine
 10
1281.543474703011
 20
1655.874223602999
 30
0.0
 11
1281.659433092123
 21
1655.874920540477
 31
0.0
  0
LINE
  5
796
330
1F
100
AcDbEntity
  8
0
  6
Continuous
100
AcDbLine
 10
1281.544280788064
 20
1657.192230610444
 30
0.0
 11
1281.680871522752
 21
1657.191816275188
 31
0.0
  0
LINE
  5
797
330
1F
100
AcDbEntity
  8
0
  6
Continuous
100
AcDbLine
 10
1282.506806843062
 20
1650.867978316298
 30
0.0
 11
1281.550601959176
 21
1650.800016411098
 31
0.0
  0
LWPOLYLINE
  5
798
330
1F
100
AcDbEntity
  8
0
  6
Continuous
100
AcDbPolyline
 90
        6
 70
     0
 43
0.0
 10
1252.921928990829
 20
1541.188008427278
 10
1252.648121430568
 20
1541.013953838532
 10
1252.347116751439
 20
1540.810077894238
 10
1252.023281467621
 20
1540.57511344388
 10
1251.680892772064
 20
1540.307739179037
 10
1251.323177867986
 20
1540.005693743042
  0
LINE
  5
799
330
1F
100
AcDbEntity
  8
0
  6
Continuous
100
AcDbLine
 10
1253.162300135801
 20
1541.332304172249
 30
0.0
 11
1252.921928990829
 21
1541.188008427278
 31
0.0
  0
LWPOLYLINE
  5
79A
330
1F
100
AcDbEntity
  8
0
  6
Continuous
100
AcDbPolyline
 90
        6
 70
     0
 43
0.0
 10
1253.348787352493
 20
1541.438985609683
 10
1252.768648157562
 20
1541.091872348795
 10
1252.26760543423
 20
1540.753921779524
 10
1251.794461662455
 20
1540.398659622989
 10
1251.349337329623
 20
1540.028653415781
 10
1250.931183731533
 20
1539.645268087576
  0
LINE
  5
79B
330
1F
100
AcDbEntity
  8
0
  6
Continuous
100
AcDbLine
 10
1281.558650316275
 20
1680.541236367408
 30
0.0
 11
1281.680871522752
 21
1680.541607109806
 31
0.0
  0
LINE
  5
79C
330
1F
100
AcDbEntity
  8
0
  6
Continuous
100
AcDbLine
 10
1294.447865399086
 20
1686.585461687805
 30
0.0
 11
1288.574969514315
 21
1686.585461687805
 31
0.0
  0
LINE
  5
79D
330
1F
100
AcDbEntity
  8
0
  6
Continuous
100
AcDbLine
 10
1291.690842546591
 20
1686.780914440756
 30
0.0
 11
1281.56042688793
 21
1686.780914440756
 31
0.0
  0
LINE
  5
79E
330
1F
100
AcDbEntity
  8
0
  6
Continuous
100
AcDbLine
 10
1294.468160048981
 20
1686.892400664518
 30
0.0
 11
1288.101331129493
 21
1686.892400664518
 31
0.0
  0
LINE
  5
79F
330
1F
100
AcDbEntity
  8
0
  6
Continuous
100
AcDbLine
 10
1285.552254364638
 20
1686.369620786624
 30
0.0
 11
1286.203162785765
 21
1686.368225749283
 31
0.0
  0
LINE
  5
7A0
330
1F
100
AcDbEntity
  8
0
  6
Continuous
100
AcDbLine
 10
1286.486545000961
 20
1686.40851139225
 30
0.0
 11
1285.835636570381
 21
1686.409906429591
 31
0.0
  0
LINE
  5
7A1
330
1F
100
AcDbEntity
  8
0
  6
Continuous
100
AcDbLine
 10
1281.559461362513
 20
1681.85910369445
 30
0.0
 11
1281.659433092123
 21
1681.858502844519
 31
0.0
  0
LINE
  5
7A2
330
1F
100
AcDbEntity
  8
0
  6
Continuous
100
AcDbLine
 10
1281.564968992648
 20
1686.543273344014
 30
0.0
 11
1282.995001799964
 21
1686.534678474519
 31
0.0
  0
LWPOLYLINE
  5
7A3
330
1F
100
AcDbEntity
  8
0
  6
Continuous
100
AcDbPolyline
 90
        9
 70
     0
 43
0.0
 10
1288.200210968231
 20
1698.482819625974
 10
1288.132894649227
 20
1698.480333510511
 10
1288.071300380869
 20
1698.477618790148
 10
1288.014384249859
 20
1698.474524387635
 10
1287.953360770935
 20
1698.470248858005
 10
1287.883417465317
 20
1698.46363920667
 10
1287.787399804781
 20
1698.450747412731
 10
1287.640058693366
 20
1698.420895117857
 10
1287.455015550119
 20
1698.364157327322
  0
LINE
  5
7A4
330
1F
100
AcDbEntity
  8
0
  6
Continuous
100
AcDbLine
 10
1288.362488806312
 20
1698.48761903527
 30
0.0
 11
1288.200210968231
 21
1698.482819625974
 31
0.0
  0
LINE
  5
7A5
330
1F
100
AcDbEntity
  8
0
  6
Continuous
100
AcDbLine
 10
1288.683202197562
 20
1698.494619595288
 30
0.0
 11
1288.362488806312
 21
1698.48761903527
 31
0.0
  0
LINE
  5
7A6
330
1F
100
AcDbEntity
  8
0
  6
Continuous
100
AcDbLine
 10
1289.256486296406
 20
1698.503511506624
 30
0.0
 11
1288.683202197562
 21
1698.494619595288
 31
0.0
  0
LINE
  5
7A7
330
1F
100
AcDbEntity
  8
0
  6
Continuous
100
AcDbLine
 10
1290.423407573267
 20
1698.515413649342
 30
0.0
 11
1289.256486296406
 21
1698.503511506624
 31
0.0
  0
LINE
  5
7A8
330
1F
100
AcDbEntity
  8
0
  6
Continuous
100
AcDbLine
 10
1290.888112154825
 20
1698.518808656312
 30
0.0
 11
1290.423407573267
 21
1698.515413649342
 31
0.0
  0
LINE
  5
7A9
330
1F
100
AcDbEntity
  8
0
  6
Continuous
100
AcDbLine
 10
1295.262114840001
 20
1698.900280397339
 30
0.0
 11
1287.226610458169
 21
1698.900280397339
 31
0.0
  0
LINE
  5
7AA
330
1F
100
AcDbEntity
  8
0
  6
Continuous
100
AcDbLine
 10
1287.226635254982
 20
1712.852052053192
 30
0.0
 11
1294.945286939072
 21
1712.852052053192
 31
0.0
  0
LINE
  5
7AB
330
1F
100
AcDbEntity
  8
0
  6
Continuous
100
AcDbLine
 10
1250.573767655383
 20
1539.286247439229
 30
0.0
 11
1250.172003995521
 21
1538.843009241405
 31
0.0
  0
LINE
  5
7AC
330
1F
100
AcDbEntity
  8
0
  6
Continuous
100
AcDbLine
 10
1250.953125828307
 20
1539.666252540227
 30
0.0
 11
1250.539082309226
 21
1539.249626477923
 31
0.0
  0
LINE
  5
7AD
330
1F
100
AcDbEntity
  8
0
  6
Continuous
100
AcDbLine
 10
1249.579554020989
 20
1538.096599129718
 30
0.0
 11
1249.632024200971
 21
1538.168246534929
 31
0.0
  0
LINE
  5
7AE
330
1F
100
AcDbEntity
  8
0
  6
Continuous
100
AcDbLine
 10
1249.828282046697
 20
1538.42569097601
 30
0.0
 11
1249.632024200971
 21
1538.168246534929
 31
0.0
  0
LWPOLYLINE
  5
7AF
330
1F
100
AcDbEntity
  8
0
  6
Continuous
100
AcDbPolyline
 90
        3
 70
     0
 43
0.0
 10
1250.188259687102
 20
1538.861904138411
 10
1249.801366140903
 20
1538.390737703502
 10
1249.790222275632
 20
1538.375956618297
  0
LWPOLYLINE
  5
7B0
330
1F
100
AcDbEntity
  8
0
  6
Continuous
100
AcDbPolyline
 90
        7
 70
     0
 43
0.0
 10
1249.579793578491
 20
1538.096910280419
 10
1249.320311755182
 20
1537.713715653208
 10
1249.021219160667
 20
1537.200931503393
 10
1248.735238034866
 20
1536.638301816531
 10
1248.458966727292
 20
1536.033246761035
 10
1248.190775415444
 20
1535.392281176324
 10
1247.973736084212
 20
1534.826059062553
  0
LWPOLYLINE
  5
7B1
330
1F
100
AcDbEntity
  8
0
  6
Continuous
100
AcDbPolyline
 90
        9
 70
     0
 43
0.0
 10
1287.455015550119
 20
1698.364157327322
 10
1287.239135894533
 20
1698.267232920384
 10
1287.013561606774
 20
1698.123029624778
 10
1286.805627454492
 20
1697.937680225938
 10
1286.621067773254
 20
1697.707363209993
 10
1286.473189892389
 20
1697.436506714648
 10
1286.373316310515
 20
1697.131873632398
 10
1286.331084629095
 20
1696.802431484026
 10
1286.330232664335
 20
1696.745542417874
  0
LWPOLYLINE
  5
7B2
330
1F
100
AcDbEntity
  8
0
  6
Continuous
100
AcDbPolyline
 90
        9
 70
     0
 43
0.0
 10
1286.33249730013
 20
1688.663781240521
 10
1286.36431163233
 20
1688.330014989534
 10
1286.463341338662
 20
1687.996025009778
 10
1286.62631553779
 20
1687.687090882876
 10
1286.846341550994
 20
1687.416517339421
 10
1287.114846687913
 20
1687.194452054044
 10
1287.422166442912
 20
1687.028996653436
 10
1287.760094152621
 20
1686.926169114968
 10
1288.104370825929
 20
1686.892400664518
  0
LWPOLYLINE
  5
7B3
330
1F
100
AcDbEntity
  8
0
  6
Continuous
100
AcDbPolyline
 90
        4
 70
     0
 43
0.0
 10
1296.751560827379
 20
1470.781246411128
 10
1296.800330349626
 20
1470.126085896364
 10
1296.858215748161
 20
1469.399895344935
 10
1296.922998049656
 20
1468.629136353829
  0
LINE
  5
7B4
330
1F
100
AcDbEntity
  8
0
  6
Continuous
100
AcDbLine
 10
1295.323163796131
 20
1493.79744261622
 30
0.0
 11
1295.327836339174
 21
1493.732467071686
 31
0.0
  0
LWPOLYLINE
  5
7B5
330
1F
100
AcDbEntity
  8
0
  6
Continuous
100
AcDbPolyline
 90
        3
 70
     0
 43
0.0
 10
1296.297631277549
 20
1479.473839561283
 10
1296.419265563393
 20
1477.748249791868
 10
1296.463521954598
 20
1477.068829435564
  0
LINE
  5
7B6
330
1F
100
AcDbEntity
  8
0
  6
Continuous
100
AcDbLine
 10
1296.713866780803
 20
1471.341766612278
 30
0.0
 11
1296.751560827379
 21
1470.781246411128
 31
0.0
  0
LINE
  5
7B7
330
1F
100
AcDbEntity
  8
0
  6
Continuous
100
AcDbLine
 10
1294.234504943394
 20
1510.262463979579
 30
0.0
 11
1295.323163796131
 21
1493.79744261622
 31
0.0
  0
LWPOLYLINE
  5
7B8
330
1F
100
AcDbEntity
  8
0
  6
Continuous
100
AcDbPolyline
 90
        4
 70
     0
 43
0.0
 10
1296.463521954598
 20
1477.068829435564
 10
1296.497498390069
 20
1476.503714171956
 10
1296.521109564719
 20
1476.058322980582
 10
1296.532595444384
 20
1475.795004306083
  0
LINE
  5
7B9
330
1F
100
AcDbEntity
  8
0
  6
Continuous
100
AcDbLine
 10
1295.322419013297
 20
1493.795428944089
 30
0.0
 11
1295.319428050465
 21
1493.853942597525
 31
0.0
  0
LWPOLYLINE
  5
7BA
330
1F
100
AcDbEntity
  8
0
  6
Continuous
100
AcDbPolyline
 90
        3
 70
     0
 43
0.0
 10
1296.684759486141
 20
1471.889316905781
 10
1296.688770888288
 20
1471.794903921404
 10
1296.713866780803
 20
1471.341766612278
  0
LINE
  5
7BB
330
1F
100
AcDbEntity
  8
0
  6
Continuous
100
AcDbLine
 10
1296.53605129049
 20
1475.701080000095
 30
0.0
 11
1296.532316206343
 21
1475.797738209975
 31
0.0
  0
LWPOLYLINE
  5
7BC
330
1F
100
AcDbEntity
  8
0
  6
Continuous
100
AcDbPolyline
 90
        6
 70
     0
 43
0.0
 10
1291.62519235706
 20
1596.810516620645
 10
1291.721348460119
 20
1580.190261581501
 10
1292.030079875071
 20
1562.705046879991
 10
1292.551822993504
 20
1545.219330005481
 10
1293.286645817536
 20
1527.737241836489
 10
1294.234504943394
 20
1510.262463979579
  0
LINE
  5
7BD
330
1F
100
AcDbEntity
  8
0
  6
Continuous
100
AcDbLine
 10
1291.690842546591
 20
1507.03546168777
 30
0.0
 11
1291.690842546591
 21
1506.728522711023
 31
0.0
  0
LINE
  5
7BE
330
1F
100
AcDbEntity
  8
0
  6
Continuous
100
AcDbLine
 10
1291.690842546591
 20
1686.585461687805
 30
0.0
 11
1291.690842546591
 21
1686.892400664518
 31
0.0
  0
LINE
  5
7BF
330
1F
100
AcDbEntity
  8
0
  6
Continuous
100
AcDbLine
 10
1291.690842546591
 20
1698.435294026173
 30
0.0
 11
1291.690842546591
 21
1698.900280397339
 31
0.0
  0
LINE
  5
7C0
330
1F
100
AcDbEntity
  8
0
  6
Continuous
100
AcDbLine
 10
1288.574946872096
 20
1507.361067381822
 30
0.0
 11
1288.574946872096
 21
1507.03546168777
 31
0.0
  0
LINE
  5
7C1
330
1F
100
AcDbEntity
  8
0
  6
Continuous
100
AcDbLine
 10
1288.574946872096
 20
1686.259856059864
 30
0.0
 11
1288.574946872096
 21
1686.585461687805
 31
0.0
  0
LINE
  5
7C2
330
1F
100
AcDbEntity
  8
0
  6
Continuous
100
AcDbLine
 10
1286.330232654915
 20
1496.87538287601
 30
0.0
 11
1286.330245762043
 21
1496.876052739279
 31
0.0
  0
LINE
  5
7C3
330
1F
100
AcDbEntity
  8
0
  6
Continuous
100
AcDbLine
 10
1296.536055703641
 20
1717.920066537238
 30
0.0
 11
1296.532316206343
 21
1717.823294984011
 31
0.0
  0
LINE
  5
7C4
330
1F
100
AcDbEntity
  8
0
  6
Continuous
100
AcDbLine
 10
1296.68877086938
 20
1721.826128875745
 30
0.0
 11
1296.684759486141
 21
1721.731716326021
 31
0.0
  0
LINE
  5
7C5
330
1F
100
AcDbEntity
  8
0
  6
Continuous
100
AcDbLine
 10
1296.532595444384
 20
1717.826028935173
 30
0.0
 11
1296.521109564719
 21
1717.56271025122
 31
0.0
  0
LWPOLYLINE
  5
7C6
330
1F
100
AcDbEntity
  8
0
  6
Continuous
100
AcDbPolyline
 90
        3
 70
     0
 43
0.0
 10
1296.521109564719
 20
1717.56271025122
 10
1296.497498390069
 20
1717.117319050426
 10
1296.463521954598
 20
1716.552203786785
  0
LINE
  5
7C7
330
1F
100
AcDbEntity
  8
0
  6
Continuous
100
AcDbLine
 10
1296.463521954598
 20
1716.552203786785
 30
0.0
 11
1296.419265563393
 21
1715.872783421026
 31
0.0
  0
LWPOLYLINE
  5
7C8
330
1F
100
AcDbEntity
  8
0
  6
Continuous
100
AcDbPolyline
 90
        7
 70
     0
 43
0.0
 10
1295.323161754918
 20
1699.823562142736
 10
1294.234504943394
 20
1683.358569223895
 10
1293.286645817536
 20
1665.883791385859
 10
1292.551822993504
 20
1648.401703226355
 10
1292.030079875071
 20
1630.915986370754
 10
1291.721348460119
 20
1613.430771688118
 10
1291.62519235706
 20
1596.810516620645
  0
LWPOLYLINE
  5
7C9
330
1F
100
AcDbEntity
  8
0
  6
Continuous
100
AcDbPolyline
 90
        3
 70
     0
 43
0.0
 10
1296.751560799051
 20
1722.839786442679
 10
1296.713866752406
 20
1722.279266175383
 10
1296.68877086938
 20
1721.826128875745
  0
LINE
  5
7CA
330
1F
100
AcDbEntity
  8
0
  6
Continuous
100
AcDbLine
 10
1296.419265563393
 20
1715.872783421026
 30
0.0
 11
1296.297631636636
 21
1714.147198641261
 31
0.0
  0
LWPOLYLINE
  5
7CB
330
1F
100
AcDbEntity
  8
0
  6
Continuous
100
AcDbPolyline
 90
        6
 70
     0
 43
0.0
 10
1252.921928990829
 20
1685.300508427278
 10
1252.648121430568
 20
1685.126453838532
 10
1252.347116751439
 20
1684.922577894237
 10
1252.023281467621
 20
1684.68761344388
 10
1251.680892772064
 20
1684.420239179037
 10
1251.323177867986
 20
1684.118193743042
  0
LINE
  5
7CC
330
1F
100
AcDbEntity
  8
0
  6
Continuous
100
AcDbLine
 10
1253.162300135801
 20
1685.444804172215
 30
0.0
 11
1252.921928990829
 21
1685.300508427278
 31
0.0
  0
LWPOLYLINE
  5
7CD
330
1F
100
AcDbEntity
  8
0
  6
Continuous
100
AcDbPolyline
 90
        6
 70
     0
 43
0.0
 10
1253.348787352493
 20
1685.551485609683
 10
1252.768648157562
 20
1685.204372348794
 10
1252.26760543423
 20
1684.866421779524
 10
1251.794461662455
 20
1684.511159622989
 10
1251.349337329623
 20
1684.141153415781
 10
1250.931183731533
 20
1683.757768087576
  0
LWPOLYLINE
  5
7CE
330
1F
100
AcDbEntity
  8
0
  6
Continuous
100
AcDbPolyline
 90
        3
 70
     0
 43
0.0
 10
1296.998079934488
 20
1467.776034239626
 10
1297.051197363883
 20
1467.400458703296
 10
1297.136913777866
 20
1467.049941316125
  0
LINE
  5
7CF
330
1F
100
AcDbEntity
  8
0
  6
Continuous
100
AcDbLine
 10
1296.922998049656
 20
1468.629136353829
 30
0.0
 11
1296.998082996272
 21
1467.776015897176
 31
0.0
  0
LWPOLYLINE
  5
7D0
330
1F
100
AcDbEntity
  8
0
  6
Continuous
100
AcDbPolyline
 90
       10
 70
     0
 43
0.0
 10
1286.330232654915
 20
1496.87538287601
 10
1286.333299406685
 20
1496.769798007146
 10
1286.384031873449
 20
1496.444677551702
 10
1286.491399598259
 20
1496.143949653588
 10
1286.646198148768
 20
1495.877021164124
 10
1286.837739612888
 20
1495.650451158229
 10
1287.051932103308
 20
1495.469742522096
 10
1287.282972025348
 20
1495.331066077868
 10
1287.499860175471
 20
1495.240924474584
 10
1287.676302429582
 20
1495.191484890668
  0
LINE
  5
7D1
330
1F
100
AcDbEntity
  8
0
  6
Continuous
100
AcDbLine
 10
1281.564973774375
 20
1681.861391860746
 30
0.0
 11
1281.555590283448
 21
1682.569145840186
 31
0.0
  0
LINE
  5
7D2
330
1F
100
AcDbEntity
  8
0
  6
Continuous
100
AcDbLine
 10
1281.564973774375
 20
1537.748891860712
 30
0.0
 11
1281.555590283448
 21
1538.456645840186
 31
0.0
  0
LINE
  5
7D3
330
1F
100
AcDbEntity
  8
0
  6
Continuous
100
AcDbLine
 10
1286.330239921927
 20
1696.745332420003
 30
0.0
 11
1286.332954113164
 21
1692.737996869603
 31
0.0
  0
LINE
  5
7D4
330
1F
100
AcDbEntity
  8
0
  6
Continuous
100
AcDbLine
 10
1286.486545000961
 20
1686.40851139225
 30
0.0
 11
1286.486545000961
 21
1686.329385720073
 31
0.0
  0
LINE
  5
7D5
330
1F
100
AcDbEntity
  8
0
  6
Continuous
100
AcDbLine
 10
1286.486545000961
 20
1507.291537674376
 30
0.0
 11
1286.486545000961
 21
1507.21241199278
 31
0.0
  0
LINE
  5
7D6
330
1F
100
AcDbEntity
  8
0
  6
Continuous
100
AcDbLine
 10
1286.29652955119
 20
1493.790634732299
 30
0.0
 11
1286.29652955119
 21
1481.699099299752
 31
0.0
  0
LINE
  5
7D7
330
1F
100
AcDbEntity
  8
0
  6
Continuous
100
AcDbLine
 10
1286.29652955119
 20
1699.830398508992
 30
0.0
 11
1286.29652955119
 21
1711.921933941539
 31
0.0
  0
LINE
  5
7D8
330
1F
100
AcDbEntity
  8
0
  6
Continuous
100
AcDbLine
 10
1285.835636570381
 20
1686.409906429591
 30
0.0
 11
1285.835636570381
 21
1686.369013435127
 31
0.0
  0
LINE
  5
7D9
330
1F
100
AcDbEntity
  8
0
  6
Continuous
100
AcDbLine
 10
1285.835636570381
 20
1507.211016955438
 30
0.0
 11
1285.835636570381
 21
1507.251909949868
 31
0.0
  0
LINE
  5
7DA
330
1F
100
AcDbEntity
  8
0
  6
Continuous
100
AcDbLine
 10
1282.506806843062
 20
1686.073472046704
 30
0.0
 11
1282.506806843062
 21
1650.866111289221
 31
0.0
  0
LINE
  5
7DB
330
1F
100
AcDbEntity
  8
0
  6
Continuous
100
AcDbLine
 10
1282.506806843062
 20
1507.547451338325
 30
0.0
 11
1282.506806843062
 21
1542.752945059311
 31
0.0
  0
LINE
  5
7DC
330
1F
100
AcDbEntity
  8
0
  6
Continuous
100
AcDbLine
 10
1281.659433092123
 20
1681.858502844519
 30
0.0
 11
1281.659433092123
 21
1655.874920540477
 31
0.0
  0
LINE
  5
7DD
330
1F
100
AcDbEntity
  8
0
  6
Continuous
100
AcDbLine
 10
1281.659433092123
 20
1511.762420540477
 30
0.0
 11
1281.659433092123
 21
1537.746002844553
 31
0.0
  0
LINE
  5
7DE
330
1F
100
AcDbEntity
  8
0
  6
Continuous
100
AcDbLine
 10
1281.548971153782
 20
1652.210745145875
 30
0.0
 11
1281.548873818762
 21
1655.165189564316
 31
0.0
  0
LINE
  5
7DF
330
1F
100
AcDbEntity
  8
0
  6
Continuous
100
AcDbLine
 10
1281.548971153782
 20
1508.098245145874
 30
0.0
 11
1281.548873818762
 21
1511.052689564316
 31
0.0
  0
LINE
  5
7E0
330
1F
100
AcDbEntity
  8
0
  6
Continuous
100
AcDbLine
 10
1280.795343538499
 20
1543.024911400426
 30
0.0
 11
1280.795343538499
 21
1650.596005586931
 31
0.0
  0
LINE
  5
7E1
330
1F
100
AcDbEntity
  8
0
  6
Continuous
100
AcDbLine
 10
1286.332954113164
 20
1692.737996869603
 30
0.0
 11
1286.332493463445
 21
1688.66378059791
 31
0.0
  0
LINE
  5
7E2
330
1F
100
AcDbEntity
  8
0
  6
Continuous
100
AcDbLine
 10
1286.332493463445
 20
1504.957142900501
 30
0.0
 11
1286.332239674248
 21
1499.189386203689
 31
0.0
  0
LINE
  5
7E3
330
1F
100
AcDbEntity
  8
0
  6
Continuous
100
AcDbLine
 10
1281.543470119823
 20
1511.762486132942
 30
0.0
 11
1281.559680555295
 21
1538.102768845722
 31
0.0
  0
LINE
  5
7E4
330
1F
100
AcDbEntity
  8
0
  6
Continuous
100
AcDbLine
 10
1281.543470119823
 20
1655.874986132942
 30
0.0
 11
1281.559680555295
 21
1682.215268845756
 31
0.0
  0
LINE
  5
7E5
330
1F
100
AcDbEntity
  8
0
  6
Continuous
100
AcDbLine
 10
1286.332239674248
 20
1499.189386203689
 30
0.0
 11
1286.330239921927
 21
1496.875591097316
 31
0.0
  0
LINE
  5
7E6
330
1F
100
AcDbEntity
  8
0
  6
Continuous
100
AcDbLine
 10
1281.559680555295
 20
1538.102768845722
 30
0.0
 11
1281.564973774375
 21
1541.411176782824
 31
0.0
  0
LINE
  5
7E7
330
1F
100
AcDbEntity
  8
0
  6
Continuous
100
AcDbLine
 10
1281.559680555295
 20
1682.215268845756
 30
0.0
 11
1281.564973774375
 21
1685.523676782824
 31
0.0
  0
LINE
  5
7E8
330
1F
100
AcDbEntity
  8
0
  6
Continuous
100
AcDbLine
 10
1281.555590283448
 20
1511.051777525935
 30
0.0
 11
1281.564973774375
 21
1511.759673227026
 31
0.0
  0
LINE
  5
7E9
330
1F
100
AcDbEntity
  8
0
  6
Continuous
100
AcDbLine
 10
1281.555590283448
 20
1655.164277525935
 30
0.0
 11
1281.564973774375
 21
1655.872173227026
 31
0.0
  0
LINE
  5
7EA
330
1F
100
AcDbEntity
  8
0
  6
Continuous
100
AcDbLine
 10
1281.548971078182
 20
1541.410178239155
 30
0.0
 11
1281.56497417121
 21
1542.431634257946
 31
0.0
  0
LINE
  5
7EB
330
1F
100
AcDbEntity
  8
0
  6
Continuous
100
AcDbLine
 10
1281.548971078182
 20
1685.522678239121
 30
0.0
 11
1281.56497417121
 21
1686.544134257945
 31
0.0
  0
LINE
  5
7EC
330
1F
100
AcDbEntity
  8
0
  6
Continuous
100
AcDbLine
 10
1286.330267043441
 20
1696.746009011636
 30
0.0
 11
1286.330239921927
 21
1696.745332420003
 31
0.0
  0
LWPOLYLINE
  5
7ED
330
1F
100
AcDbEntity
  8
0
  6
Continuous
100
AcDbPolyline
 90
        4
 70
     0
 43
0.0
 10
1296.922998096859
 20
1724.991897378839
 10
1296.858215757615
 20
1724.221137990829
 10
1296.800330340137
 20
1723.494947137004
 10
1296.751560799051
 20
1722.839786442679
  0
LINE
  5
7EE
330
1F
100
AcDbEntity
  8
0
  6
Continuous
100
AcDbLine
 10
1296.998083005761
 20
1725.845017362988
 30
0.0
 11
1296.922998096859
 21
1724.991897378839
 31
0.0
  0
LWPOLYLINE
  5
7EF
330
1F
100
AcDbEntity
  8
0
  6
Continuous
100
AcDbPolyline
 90
        8
 70
     0
 43
0.0
 10
1296.29751358723
 20
1714.145570888162
 10
1296.282010455917
 20
1714.016762493077
 10
1296.19117818989
 20
1713.704163741239
 10
1296.030107012822
 20
1713.420787262161
 10
1295.805435625326
 20
1713.180651545029
 10
1295.533971372159
 20
1713.001357139185
 10
1295.234399133411
 20
1712.891231564171
 10
1294.907489622888
 20
1712.852039985546
  0
LINE
  5
7F0
330
1F
100
AcDbEntity
  8
0
  6
Continuous
100
AcDbLine
 10
1297.051197382792
 20
1726.220574623048
 30
0.0
 11
1296.998079934488
 21
1725.844999020539
 31
0.0
  0
LINE
  5
7F1
330
1F
100
AcDbEntity
  8
0
  6
Continuous
100
AcDbLine
 10
1297.13691372121
 20
1726.571091755025
 30
0.0
 11
1297.051197382792
 21
1726.220574623048
 31
0.0
  0
LWPOLYLINE
  5
7F2
330
1F
100
AcDbEntity
  8
0
  6
Continuous
100
AcDbPolyline
 90
        7
 70
     0
 43
0.0
 10
1247.973764065645
 20
1534.826136637578
 10
1247.918516237681
 20
1534.671053424691
 10
1247.829518301715
 20
1534.403286720239
 10
1247.748185478151
 20
1534.134617918786
 10
1247.674377150894
 20
1533.864829169497
 10
1247.608079844308
 20
1533.59406351699
 10
1247.571223795342
 20
1533.428007786225
  0
LWPOLYLINE
  5
7F3
330
1F
100
AcDbEntity
  8
0
  6
Continuous
100
AcDbPolyline
 90
        7
 70
     0
 43
0.0
 10
1247.57122376698
 20
1660.192915712186
 10
1247.608079674167
 20
1660.026860605122
 10
1247.674376782352
 20
1659.756095651918
 10
1247.748184863869
 20
1659.486307592475
 10
1247.829517413468
 20
1659.217639471415
 10
1247.918515028094
 20
1658.949873437936
 10
1247.973762723768
 20
1658.794790414029
  0
LWPOLYLINE
  5
7F4
330
1F
100
AcDbEntity
  8
0
  6
Continuous
100
AcDbPolyline
 90
        5
 70
     0
 43
0.0
 10
1247.571241721979
 20
1533.428090473736
 10
1247.460788137504
 20
1532.793176773
 10
1247.38239469859
 20
1531.977228505596
 10
1247.355040256067
 20
1531.141149177232
 10
1247.352929381207
 20
1530.301334207199
  0
LINE
  5
7F5
330
1F
100
AcDbEntity
  8
0
  6
Continuous
100
AcDbLine
 10
1297.244618829884
 20
1726.882833174525
 30
0.0
 11
1297.136909033991
 21
1726.57109091398
 31
0.0
  0
LINE
  5
7F6
330
1F
100
AcDbEntity
  8
0
  6
Continuous
100
AcDbLine
 10
1297.47675484799
 20
1727.345426172536
 30
0.0
 11
1297.244618829884
 21
1726.882833174525
 31
0.0
  0
LWPOLYLINE
  5
7F7
330
1F
100
AcDbEntity
  8
0
  6
Continuous
100
AcDbPolyline
 90
        3
 70
     0
 43
0.0
 10
1250.188259687102
 20
1682.974404138377
 10
1249.801366140903
 20
1682.503237703468
 10
1249.790222275632
 20
1682.488456618297
  0
LINE
  5
7F8
330
1F
100
AcDbEntity
  8
0
  6
Continuous
100
AcDbLine
 10
1250.573767655383
 20
1683.398747439229
 30
0.0
 11
1250.172003995521
 21
1682.95550924137
 31
0.0
  0
LINE
  5
7F9
330
1F
100
AcDbEntity
  8
0
  6
Continuous
100
AcDbLine
 10
1250.953125828307
 20
1683.778752540261
 30
0.0
 11
1250.539082309226
 21
1683.362126477923
 31
0.0
  0
LWPOLYLINE
  5
7FA
330
1F
100
AcDbEntity
  8
0
  6
Continuous
100
AcDbPolyline
 90
        7
 70
     0
 43
0.0
 10
1247.57122376698
 20
1516.080415712186
 10
1247.608079674167
 20
1515.914360605122
 10
1247.674376782352
 20
1515.643595651952
 10
1247.748184863869
 20
1515.373807592475
 10
1247.829517413468
 20
1515.10513947145
 10
1247.918515028094
 20
1514.837373437936
 10
1247.973762723768
 20
1514.68229041403
  0
LINE
  5
7FB
330
1F
100
AcDbEntity
  8
0
  6
Continuous
100
AcDbLine
 10
1247.352929381207
 20
1530.301334207199
 30
0.0
 11
1247.355454600777
 21
1524.754218179951
 31
0.0
  0
LINE
  5
7FC
330
1F
100
AcDbEntity
  8
0
  6
Continuous
100
AcDbLine
 10
1247.353901559422
 20
1673.547607895185
 30
0.0
 11
1247.355411461549
 21
1667.96625856254
 31
0.0
  0
LWPOLYLINE
  5
7FD
330
1F
100
AcDbEntity
  8
0
  6
Continuous
100
AcDbPolyline
 90
        7
 70
     0
 43
0.0
 10
1247.355454600777
 20
1524.754218179951
 10
1247.353901559422
 20
1520.073322624601
 10
1247.352929400115
 20
1519.20709503682
 10
1247.355040199376
 20
1518.367278932799
 10
1247.382394490666
 20
1517.531198460993
 10
1247.46078780671
 20
1516.715249002876
 10
1247.571241693651
 20
1516.080333034129
  0
LWPOLYLINE
  5
7FE
330
1F
100
AcDbEntity
  8
0
  6
Continuous
100
AcDbPolyline
 90
        6
 70
     0
 43
0.0
 10
1247.355411461549
 20
1667.96625856254
 10
1247.352929400115
 20
1663.31959503682
 10
1247.355040199376
 20
1662.479778932799
 10
1247.382394490666
 20
1661.643698460992
 10
1247.46078780671
 20
1660.827749002876
 10
1247.571241693651
 20
1660.19283303413
  0
LWPOLYLINE
  5
7FF
330
1F
100
AcDbEntity
  8
0
  6
Continuous
100
AcDbPolyline
 90
        6
 70
     0
 43
0.0
 10
1247.571241721979
 20
1677.540590473736
 10
1247.460788137504
 20
1676.905676772966
 10
1247.38239469859
 20
1676.089728505562
 10
1247.355040256067
 20
1675.253649177232
 10
1247.352929381207
 20
1674.413834207165
 10
1247.353901559422
 20
1673.547607895185
  0
LWPOLYLINE
  5
800
330
1F
100
AcDbEntity
  8
0
  6
Continuous
100
AcDbPolyline
 90
        7
 70
     0
 43
0.0
 10
1247.973764065645
 20
1678.938636637578
 10
1247.918516237681
 20
1678.783553424691
 10
1247.829518301715
 20
1678.515786720239
 10
1247.748185478151
 20
1678.247117918786
 10
1247.674377150894
 20
1677.977329169462
 10
1247.608079844308
 20
1677.706563516991
 10
1247.571223795342
 20
1677.540507786225
  0
LWPOLYLINE
  5
801
330
1F
100
AcDbEntity
  8
0
  6
Continuous
100
AcDbPolyline
 90
        7
 70
     0
 43
0.0
 10
1249.579793578491
 20
1682.209410280419
 10
1249.320311755182
 20
1681.826215653243
 10
1249.021219160667
 20
1681.313431503393
 10
1248.735238034866
 20
1680.750801816531
 10
1248.458966727292
 20
1680.145746761036
 10
1248.190775415444
 20
1679.504781176324
 10
1247.973736084212
 20
1678.938559062519
  0
LINE
  5
802
330
1F
100
AcDbEntity
  8
0
  6
Continuous
100
AcDbLine
 10
1249.579554020989
 20
1682.209099129718
 30
0.0
 11
1249.632024200971
 21
1682.280746534929
 31
0.0
  0
LINE
  5
803
330
1F
100
AcDbEntity
  8
0
  6
Continuous
100
AcDbLine
 10
1249.828282046697
 20
1682.538190976045
 30
0.0
 11
1249.632024200971
 21
1682.280746534929
 31
0.0
  0
ARC
  5
804
330
1F
100
AcDbEntity
  8
0
  6
Continuous
100
AcDbCircle
 10
2723.180405442296
 20
1596.475318354442
 30
0.0
 40
1431.4729450707
100
AcDbArc
 50
184.1130493035053
 51
184.3187698728138
  0
ARC
  5
805
330
1F
100
AcDbEntity
  8
0
  6
Continuous
100
AcDbCircle
 10
2721.625535517293
 20
1596.355719088272
 30
0.0
 40
1429.9134836931
100
AcDbArc
 50
184.3186829392933
 51
184.9889047704115
  0
ARC
  5
806
330
1F
100
AcDbEntity
  8
0
  6
Continuous
100
AcDbCircle
 10
2719.963632246284
 20
1596.212884266084
 30
0.0
 40
1428.24545513055
100
AcDbArc
 50
184.988994234105
 51
185.1867488230911
  0
ARC
  5
807
330
1F
100
AcDbEntity
  8
0
  6
Continuous
100
AcDbCircle
 10
1291.671162817637
 20
1358.024762947741
 30
0.0
 40
106.54250994765
100
AcDbArc
 50
85.2922667432157
 51
86.98474885326072
  0
ARC
  5
808
330
1F
100
AcDbEntity
  8
0
  6
Continuous
100
AcDbCircle
 10
1268.429159287757
 20
1516.513331750635
 30
0.0
 40
29.17974780945
100
AcDbArc
 50
121.2477956824872
 51
121.4573936139964
  0
ARC
  5
809
330
1F
100
AcDbEntity
  8
0
  6
Continuous
100
AcDbCircle
 10
1265.948683512768
 20
1529.406089411638
 30
0.0
 40
24.8260367313
100
AcDbArc
 50
239.3874466372018
 51
239.8076942875926
  0
ARC
  5
80A
330
1F
100
AcDbEntity
  8
0
  6
Continuous
100
AcDbCircle
 10
1265.062633312065
 20
1521.601142841237
 30
0.0
 40
23.08494469995001
100
AcDbArc
 50
120.1425195409961
 51
120.4756942347963
  0
ARC
  5
80B
330
1F
100
AcDbEntity
  8
0
  6
Continuous
100
AcDbCircle
 10
1261.519320525757
 20
1527.620715077185
 30
0.0
 40
16.0999382943
100
AcDbArc
 50
120.4727727444937
 51
120.7296584765972
  0
ARC
  5
80C
330
1F
100
AcDbEntity
  8
0
  6
Continuous
100
AcDbCircle
 10
1260.006265178109
 20
1530.48757138629
 30
0.0
 40
12.90788795205
100
AcDbArc
 50
143.4264874936968
 51
143.8791315877971
  0
ARC
  5
80D
330
1F
100
AcDbEntity
  8
0
  6
Continuous
100
AcDbCircle
 10
1259.702740457972
 20
1518.796121199073
 30
0.0
 40
12.5302317714
100
AcDbArc
 50
216.1089476356124
 51
216.639357636825
  0
ARC
  5
80E
330
1F
100
AcDbEntity
  8
0
  6
Continuous
100
AcDbCircle
 10
1259.186539282635
 20
1518.341752800662
 30
0.0
 40
11.898944064
100
AcDbArc
 50
246.8934111038011
 51
253.7561089061125
  0
ARC
  5
80F
330
1F
100
AcDbEntity
  8
0
  6
Continuous
100
AcDbCircle
 10
1259.186477593034
 20
1531.166817673596
 30
0.0
 40
11.89878455745
100
AcDbArc
 50
105.9912066789983
 51
113.1065936413071
  0
ARC
  5
810
330
1F
100
AcDbEntity
  8
0
  6
Continuous
100
AcDbCircle
 10
1259.177474993845
 20
1518.311295753061
 30
0.0
 40
11.8671673428
100
AcDbArc
 50
253.7569914480159
 51
254.5735669118722
  0
ARC
  5
811
330
1F
100
AcDbEntity
  8
0
  6
Continuous
100
AcDbCircle
 10
1259.174646514356
 20
1518.301128346866
 30
0.0
 40
11.8566138663
100
AcDbArc
 50
254.5736733867932
 51
254.8811227745005
  0
ARC
  5
812
330
1F
100
AcDbEntity
  8
0
  6
Continuous
100
AcDbCircle
 10
1259.171756732683
 20
1531.217477271394
 30
0.0
 40
11.84602983795
100
AcDbArc
 50
97.88911832511155
 51
105.9902634638907
  0
ARC
  5
813
330
1F
100
AcDbEntity
  8
0
  6
Continuous
100
AcDbCircle
 10
1259.169696982341
 20
1518.280792315433
 30
0.0
 40
11.8356907914
100
AcDbArc
 50
254.8785769924822
 51
262.0315136701851
  0
ARC
  5
814
330
1F
100
AcDbEntity
  8
0
  6
Continuous
100
AcDbCircle
 10
1259.130128282553
 20
1531.122165497508
 30
0.0
 40
11.82635508915
100
AcDbArc
 50
119.4487545922145
 51
142.1654782474058
  0
ARC
  5
815
330
1F
100
AcDbEntity
  8
0
  6
Continuous
100
AcDbCircle
 10
1259.120676005121
 20
1518.375639593496
 30
0.0
 40
11.8124076924
100
AcDbArc
 50
220.5279454619181
 51
269.999826117095
  0
ARC
  5
816
330
1F
100
AcDbEntity
  8
0
  6
Continuous
100
AcDbCircle
 10
1259.119898922142
 20
1531.135015333444
 30
0.0
 40
11.8100615409
100
AcDbArc
 50
90.0000115796959
 51
119.4361887263869
  0
ARC
  5
817
330
1F
100
AcDbEntity
  8
0
  6
Continuous
100
AcDbCircle
 10
1259.163024412943
 20
1518.238965963373
 30
0.0
 40
11.7933433191
100
AcDbArc
 50
262.0354480603886
 51
269.7442777947844
  0
ARC
  5
818
330
1F
100
AcDbEntity
  8
0
  6
Continuous
100
AcDbCircle
 10
1259.162632266276
 20
1531.274984017909
 30
0.0
 40
11.7878150313
100
AcDbArc
 50
90.25393603721914
 51
97.8835532074712
  0
ARC
  5
819
330
1F
100
AcDbEntity
  8
0
  6
Continuous
100
AcDbCircle
 10
1259.011213309783
 20
1518.285790817338
 30
0.0
 40
11.6708063598
100
AcDbArc
 50
216.1173124869019
 51
220.5418773556983
  0
ARC
  5
81A
330
1F
100
AcDbEntity
  8
0
  6
Continuous
100
AcDbCircle
 10
1258.562581354332
 20
1531.558755960529
 30
0.0
 40
11.1104274645
100
AcDbArc
 50
142.14840461931
 51
142.3652797386926
  0
ARC
  5
81B
330
1F
100
AcDbEntity
  8
0
  6
Continuous
100
AcDbCircle
 10
1258.478489622139
 20
1531.623631439019
 30
0.0
 40
11.00421896175
100
AcDbArc
 50
142.3654236765861
 51
142.4939476326046
  0
ARC
  5
81C
330
1F
100
AcDbEntity
  8
0
  6
Continuous
100
AcDbCircle
 10
1258.233779679739
 20
1531.810556530887
 30
0.0
 40
10.6962848244
100
AcDbArc
 50
142.4901720379996
 51
143.4311398989047
  0
ARC
  5
81D
330
1F
100
AcDbEntity
  8
0
  6
Continuous
100
AcDbCircle
 10
1258.53757774111
 20
1515.642803987644
 30
0.0
 40
9.12682204875
100
AcDbArc
 50
253.9897394340114
 51
254.3891417456965
  0
ARC
  5
81E
330
1F
100
AcDbEntity
  8
0
  6
Continuous
100
AcDbCircle
 10
1258.503748054654
 20
1515.525066815627
 30
0.0
 40
9.004321084499999
100
AcDbArc
 50
252.9134027949104
 51
253.990022480907
  0
ARC
  5
81F
330
1F
100
AcDbEntity
  8
0
  6
Continuous
100
AcDbCircle
 10
1253.477176517215
 20
1505.52791362059
 30
0.0
 40
2.1391998264
100
AcDbArc
 50
61.67535708157809
 51
63.0447088921976
  0
ARC
  5
820
330
1F
100
AcDbEntity
  8
0
  6
Continuous
100
AcDbCircle
 10
1253.684855179334
 20
1505.91488036648
 30
0.0
 40
1.70002684845
100
AcDbArc
 50
60.69749648000152
 51
61.64876903441174
  0
ARC
  5
821
330
1F
100
AcDbEntity
  8
0
  6
Continuous
100
AcDbCircle
 10
1253.737945553361
 20
1543.497547915145
 30
0.0
 40
1.5903311445
100
AcDbArc
 50
299.1282033775971
 51
299.3271690565121
  0
ARC
  5
822
330
1F
100
AcDbEntity
  8
0
  6
Continuous
100
AcDbCircle
 10
1294.945181099092
 20
1479.373937081331
 30
0.0
 40
1.395050391
100
AcDbArc
 50
4.739034893900504
 51
89.99581197629714
  0
ARC
  5
823
330
1F
100
AcDbEntity
  8
0
  6
Continuous
100
AcDbCircle
 10
1281.131443911157
 20
1535.636593585606
 30
0.0
 40
0.9301181116499998
100
AcDbArc
 50
58.42679787030832
 51
62.65300963622183
  0
ARC
  5
824
330
1F
100
AcDbEntity
  8
0
  6
Continuous
100
AcDbCircle
 10
1281.131443911157
 20
1513.871829799423
 30
0.0
 40
0.9301181116499998
100
AcDbArc
 50
296.3511579794973
 51
301.5732021297911
  0
ARC
  5
825
330
1F
100
AcDbEntity
  8
0
  6
Continuous
100
AcDbCircle
 10
1287.226647662843
 20
1481.699099299752
 30
0.0
 40
0.9301181116499998
100
AcDbArc
 50
180.0
 51
269.9927826280058
  0
ARC
  5
826
330
1F
100
AcDbEntity
  8
0
  6
Continuous
100
AcDbCircle
 10
1287.226647662843
 20
1493.790634732299
 30
0.0
 40
0.9301181116499998
100
AcDbArc
 50
90.00719056989018
 51
180.0000000305952
  0
ARC
  5
827
330
1F
100
AcDbEntity
  8
0
  6
Continuous
100
AcDbCircle
 10
2727.8853213951
 20
1596.775279999274
 30
0.0
 40
1436.1872824278
100
AcDbArc
 50
179.998594294208
 51
184.074582004299
  0
ARC
  5
828
330
1F
100
AcDbEntity
  8
0
  6
Continuous
100
AcDbCircle
 10
2727.885281440493
 20
1596.845763069982
 30
0.0
 40
1436.1872424732
100
AcDbArc
 50
175.9254182734077
 51
180.001406171807
  0
ARC
  5
829
330
1F
100
AcDbEntity
  8
0
  6
Continuous
100
AcDbCircle
 10
2723.180501340896
 20
1597.145715869639
 30
0.0
 40
1431.47304124335
100
AcDbArc
 50
175.6812306517057
 51
175.8869521540779
  0
ARC
  5
82A
330
1F
100
AcDbEntity
  8
0
  6
Continuous
100
AcDbCircle
 10
2721.625667042403
 20
1597.265312404714
 30
0.0
 40
1429.91361560565
100
AcDbArc
 50
175.0110916668912
 51
175.6813175838935
  0
ARC
  5
82B
330
1F
100
AcDbEntity
  8
0
  6
Continuous
100
AcDbCircle
 10
2719.963807061855
 20
1597.408143569778
 30
0.0
 40
1428.2456304942
100
AcDbArc
 50
174.8132516595888
 51
175.0110022041059
  0
ARC
  5
82C
330
1F
100
AcDbEntity
  8
0
  6
Continuous
100
AcDbCircle
 10
1291.676478178034
 20
1835.494366454786
 30
0.0
 40
106.44046758135
100
AcDbArc
 50
273.0152793110694
 51
274.7093433471986
  0
ARC
  5
82D
330
1F
100
AcDbEntity
  8
0
  6
Continuous
100
AcDbCircle
 10
1268.429159268917
 20
1660.625831760089
 30
0.0
 40
29.17974779055
100
AcDbArc
 50
121.2477956824023
 51
121.4573936140869
  0
ARC
  5
82E
330
1F
100
AcDbEntity
  8
0
  6
Continuous
100
AcDbCircle
 10
1265.948683503279
 20
1673.518589402183
 30
0.0
 40
24.82603672185
100
AcDbArc
 50
239.3874466371141
 51
239.8076942875926
  0
ARC
  5
82F
330
1F
100
AcDbEntity
  8
0
  6
Continuous
100
AcDbCircle
 10
1265.062633302576
 20
1665.713642841237
 30
0.0
 40
23.08494469995001
100
AcDbArc
 50
120.1425195409961
 51
120.4756942347963
  0
ARC
  5
830
330
1F
100
AcDbEntity
  8
0
  6
Continuous
100
AcDbCircle
 10
1261.519320516303
 20
1671.733215077186
 30
0.0
 40
16.0999382943
100
AcDbArc
 50
120.4727727444937
 51
120.7296584766966
  0
ARC
  5
831
330
1F
100
AcDbEntity
  8
0
  6
Continuous
100
AcDbCircle
 10
1260.006265187563
 20
1674.60007138629
 30
0.0
 40
12.90788795205
100
AcDbArc
 50
143.4264874936968
 51
143.8791315876864
  0
ARC
  5
832
330
1F
100
AcDbEntity
  8
0
  6
Continuous
100
AcDbCircle
 10
1259.702740457972
 20
1662.908621199073
 30
0.0
 40
12.5302317714
100
AcDbArc
 50
216.1089476356124
 51
216.639357636825
  0
ARC
  5
833
330
1F
100
AcDbEntity
  8
0
  6
Continuous
100
AcDbCircle
 10
1259.186539282635
 20
1662.454252800696
 30
0.0
 40
11.898944064
100
AcDbArc
 50
246.8934111038011
 51
253.7561089061125
  0
ARC
  5
834
330
1F
100
AcDbEntity
  8
0
  6
Continuous
100
AcDbCircle
 10
1259.186477593034
 20
1675.279317673596
 30
0.0
 40
11.89878455745
100
AcDbArc
 50
105.9912066789983
 51
113.1065936413071
  0
ARC
  5
835
330
1F
100
AcDbEntity
  8
0
  6
Continuous
100
AcDbCircle
 10
1259.177474993845
 20
1662.423795753096
 30
0.0
 40
11.8671673428
100
AcDbArc
 50
253.7569914480159
 51
254.5735669118722
  0
ARC
  5
836
330
1F
100
AcDbEntity
  8
0
  6
Continuous
100
AcDbCircle
 10
1259.174646514356
 20
1662.413628337446
 30
0.0
 40
11.85661385685
100
AcDbArc
 50
254.5736733867109
 51
254.8811227745005
  0
ARC
  5
837
330
1F
100
AcDbEntity
  8
0
  6
Continuous
100
AcDbCircle
 10
1259.171756732683
 20
1675.329977271394
 30
0.0
 40
11.84602983795
100
AcDbArc
 50
97.88911832511155
 51
105.9902634639998
  0
ARC
  5
838
330
1F
100
AcDbEntity
  8
0
  6
Continuous
100
AcDbCircle
 10
1259.169696982341
 20
1662.393292315433
 30
0.0
 40
11.8356907914
100
AcDbArc
 50
254.8785769924822
 51
262.0315136701851
  0
ARC
  5
839
330
1F
100
AcDbEntity
  8
0
  6
Continuous
100
AcDbCircle
 10
1259.130128282553
 20
1675.234665497474
 30
0.0
 40
11.82635508915
100
AcDbArc
 50
119.448754592101
 51
142.1654782474058
  0
ARC
  5
83A
330
1F
100
AcDbEntity
  8
0
  6
Continuous
100
AcDbCircle
 10
1259.120676005121
 20
1662.488139593461
 30
0.0
 40
11.8124076924
100
AcDbArc
 50
220.5279454619181
 51
269.999826117095
  0
ARC
  5
83B
330
1F
100
AcDbEntity
  8
0
  6
Continuous
100
AcDbCircle
 10
1259.11989895047
 20
1675.247515286173
 30
0.0
 40
11.81006158815
100
AcDbArc
 50
90.0000115796959
 51
119.4361887259057
  0
ARC
  5
83C
330
1F
100
AcDbEntity
  8
0
  6
Continuous
100
AcDbCircle
 10
1259.163024412943
 20
1662.351465963373
 30
0.0
 40
11.7933433191
100
AcDbArc
 50
262.0354480603886
 51
269.7442777947844
  0
ARC
  5
83D
330
1F
100
AcDbEntity
  8
0
  6
Continuous
100
AcDbCircle
 10
1259.162632266276
 20
1675.387484017874
 30
0.0
 40
11.7878150313
100
AcDbArc
 50
90.25393603721914
 51
97.8835532074712
  0
ARC
  5
83E
330
1F
100
AcDbEntity
  8
0
  6
Continuous
100
AcDbCircle
 10
1259.011213309783
 20
1662.398290817338
 30
0.0
 40
11.6708063598
100
AcDbArc
 50
216.1173124869019
 51
220.5418773556983
  0
ARC
  5
83F
330
1F
100
AcDbEntity
  8
0
  6
Continuous
100
AcDbCircle
 10
1258.562581335457
 20
1675.671255969984
 30
0.0
 40
11.1104274456
100
AcDbArc
 50
142.14840461931
 51
142.3652797392105
  0
ARC
  5
840
330
1F
100
AcDbEntity
  8
0
  6
Continuous
100
AcDbCircle
 10
1258.478489527666
 20
1675.736131505164
 30
0.0
 40
11.00421884835
100
AcDbArc
 50
142.3654236755849
 51
142.4939476329145
  0
ARC
  5
841
330
1F
100
AcDbEntity
  8
0
  6
Continuous
100
AcDbCircle
 10
1258.233779679739
 20
1675.923056530887
 30
0.0
 40
10.6962848244
100
AcDbArc
 50
142.4901720379996
 51
143.4311398989047
  0
ARC
  5
842
330
1F
100
AcDbEntity
  8
0
  6
Continuous
100
AcDbCircle
 10
1258.53757774111
 20
1659.75530397819
 30
0.0
 40
9.12682204875
100
AcDbArc
 50
253.9897394338991
 51
254.389141745913
  0
ARC
  5
843
330
1F
100
AcDbEntity
  8
0
  6
Continuous
100
AcDbCircle
 10
1258.503748054654
 20
1659.637566815627
 30
0.0
 40
9.004321084499999
100
AcDbArc
 50
252.9134027949104
 51
253.990022480907
  0
ARC
  5
844
330
1F
100
AcDbEntity
  8
0
  6
Continuous
100
AcDbCircle
 10
1253.477176517215
 20
1649.64041362059
 30
0.0
 40
2.1391998264
100
AcDbArc
 50
61.67535708157809
 51
63.04470889211311
  0
ARC
  5
845
330
1F
100
AcDbEntity
  8
0
  6
Continuous
100
AcDbCircle
 10
1253.684855179334
 20
1650.02738036648
 30
0.0
 40
1.70002684845
100
AcDbArc
 50
60.69749648029036
 51
61.64876903428932
  0
ARC
  5
846
330
1F
100
AcDbEntity
  8
0
  6
Continuous
100
AcDbCircle
 10
1253.737945543941
 20
1687.610047924599
 30
0.0
 40
1.5903311634
100
AcDbArc
 50
299.1282033772328
 51
299.327169054509
  0
ARC
  5
847
330
1F
100
AcDbEntity
  8
0
  6
Continuous
100
AcDbCircle
 10
1294.945181108546
 20
1714.247096159925
 30
0.0
 40
1.395050391
100
AcDbArc
 50
270.0041879387111
 51
355.2609984152946
  0
ARC
  5
848
330
1F
100
AcDbEntity
  8
0
  6
Continuous
100
AcDbCircle
 10
1281.131443911157
 20
1679.749093585571
 30
0.0
 40
0.9301181116499998
100
AcDbArc
 50
58.42679787020889
 51
62.65300963622183
  0
ARC
  5
849
330
1F
100
AcDbEntity
  8
0
  6
Continuous
100
AcDbCircle
 10
1281.131443911157
 20
1657.984329799423
 30
0.0
 40
0.9301181116499998
100
AcDbArc
 50
296.3511579794973
 51
301.5732021296917
  0
ARC
  5
84A
330
1F
100
AcDbEntity
  8
0
  6
Continuous
100
AcDbCircle
 10
1287.226647662843
 20
1699.830398508992
 30
0.0
 40
0.9301181116499998
100
AcDbArc
 50
179.9999999693917
 51
269.9928091464739
  0
ARC
  5
84B
330
1F
100
AcDbEntity
  8
0
  6
Continuous
100
AcDbCircle
 10
1287.226647662843
 20
1711.921933941539
 30
0.0
 40
0.9301181116499998
100
AcDbArc
 50
90.00721389660805
 51
180.0
  0
LINE
  5
84C
330
1F
100
AcDbEntity
  8
0
  6
Continuous
100
AcDbLine
 10
1282.506806843062
 20
1650.866111289221
 30
0.0
 11
1281.556069417327
 21
1650.866467091168
 31
0.0
  0
LINE
  5
84D
330
1F
100
AcDbEntity
  8
0
  6
Continuous
100
AcDbLine
 10
1297.224106480317
 20
1469.816170906724
 30
0.0
 11
1296.998551376087
 21
1467.773526171827
 31
0.0
  0
LINE
  5
84E
330
1F
100
AcDbEntity
  8
0
  6
Continuous
100
AcDbLine
 10
1296.538349379293
 20
1475.701169501023
 30
0.0
 11
1296.589264694085
 21
1474.395965296909
 31
0.0
  0
LINE
  5
84F
330
1F
100
AcDbEntity
  8
0
  6
Continuous
100
AcDbLine
 10
1296.589264694085
 20
1474.395965296909
 30
0.0
 11
1296.640184752787
 21
1473.090674767
 31
0.0
  0
LINE
  5
850
330
1F
100
AcDbEntity
  8
0
  6
Continuous
100
AcDbLine
 10
1296.640184752787
 20
1473.090674767
 30
0.0
 11
1296.687048087158
 21
1471.8894061894
 31
0.0
  0
LINE
  5
851
330
1F
100
AcDbEntity
  8
0
  6
Continuous
100
AcDbLine
 10
1296.687048087158
 20
1471.8894061894
 30
0.0
 11
1296.6911095554
 21
1471.785298298781
 31
0.0
  0
LINE
  5
852
330
1F
100
AcDbEntity
  8
0
  6
Continuous
100
AcDbLine
 10
1296.538349379293
 20
1717.919863740234
 30
0.0
 11
1296.589264684631
 21
1719.225067887691
 31
0.0
  0
LINE
  5
853
330
1F
100
AcDbEntity
  8
0
  6
Continuous
100
AcDbLine
 10
1296.589264684631
 20
1719.225067887691
 30
0.0
 11
1296.640184752787
 21
1720.5303584176
 31
0.0
  0
LINE
  5
854
330
1F
100
AcDbEntity
  8
0
  6
Continuous
100
AcDbLine
 10
1296.640184752787
 20
1720.5303584176
 30
0.0
 11
1296.687048087158
 21
1721.731627042437
 31
0.0
  0
LINE
  5
855
330
1F
100
AcDbEntity
  8
0
  6
Continuous
100
AcDbLine
 10
1296.687048087158
 20
1721.731627042437
 30
0.0
 11
1296.6911095554
 21
1721.835734942476
 31
0.0
  0
LINE
  5
856
330
1F
100
AcDbEntity
  8
0
  6
Continuous
100
AcDbLine
 10
1297.223927941511
 20
1723.802914661192
 30
0.0
 11
1296.998380085385
 21
1725.845657213032
 31
0.0
  0
SPLINE
  5
857
330
1F
100
AcDbEntity
  8
0
  6
Continuous
100
AcDbSpline
210
0.0
220
0.0
230
1.0
 70
     8
 71
     3
 72
     9
 73
     5
 74
     3
 42
0.0000000001
 43
0.0000000001
 44
0.0000000001
 12
-93.66295135441202
 22
-12.54996189560165
 32
0.0
 13
-90.44796808105221
 23
-27.37544648054102
 33
0.0
 40
0.0
 40
0.0
 40
0.0
 40
0.0
 40
0.0166095511064777
 40
0.0177138567434005
 40
0.0177138567434005
 40
0.0177138567434005
 40
0.0177138567434005
 10
1257.545871787064
 20
1687.063468845396
 30
0.0
 10
1257.027305261261
 20
1686.99398576753
 30
0.0
 10
1256.476565016416
 20
1686.886731325526
 30
0.0
 10
1255.941574125525
 20
1686.728238253193
 30
0.0
 10
1255.90828005858
 20
1686.718161299911
 30
0.0
 11
1257.545871787064
 21
1687.063468845396
 31
0.0
 11
1256.008339436851
 21
1686.747800459461
 31
0.0
 11
1255.90828005858
 21
1686.718161299911
 31
0.0
  0
SPLINE
  5
858
330
1F
100
AcDbEntity
  8
0
  6
Continuous
100
AcDbSpline
210
0.0
220
0.0
230
1.0
 70
     8
 71
     3
 72
     9
 73
     5
 74
     3
 42
0.0000000001
 43
0.0000000001
 44
0.0000000001
 12
91.01386496093347
 22
-25.43081565488952
 32
0.0
 13
93.64702059306596
 23
-12.66828852062842
 33
0.0
 40
0.0
 40
0.0
 40
0.0
 40
0.0
 40
0.0153744846258574
 40
0.0156280330236328
 40
0.0156280330236328
 40
0.0156280330236328
 40
0.0156280330236328
 10
1256.081528505583
 20
1650.965155926549
 30
0.0
 10
1256.547958928122
 20
1650.834827365103
 30
0.0
 10
1257.033308611959
 20
1650.73977229155
 30
0.0
 10
1257.521074271668
 20
1650.673322008522
 30
0.0
 10
1257.528988955732
 20
1650.672251333762
 30
0.0
 11
1256.081528505583
 21
1650.965155926549
 31
0.0
 11
1257.505247938027
 21
1650.675485709655
 31
0.0
 11
1257.528988955732
 21
1650.672251333762
 31
0.0
  0
SPLINE
  5
859
330
1F
100
AcDbEntity
  8
0
  6
Continuous
100
AcDbSpline
210
0.0
220
0.0
230
1.0
 70
     8
 71
     3
 72
    11
 73
     7
 74
     5
 42
0.0000000001
 43
0.0000000001
 44
0.0000000001
 12
-0.0001580509627232
 22
94.49999999986784
 32
0.0
 13
-23.74494102961948
 23
91.46817903238208
 33
0.0
 40
0.0
 40
0.0
 40
0.0
 40
0.0
 40
0.0016032054174322
 40
0.0030366235205929
 40
0.0041512140415134
 40
0.0053811756546649
 40
0.0053811756546649
 40
0.0053811756546649
 40
0.0053811756546649
 10
1281.56497417121
 20
1686.544134257945
 30
0.0
 10
1281.56497408681
 20
1686.594635228544
 30
0.0
 10
1281.563854631555
 20
1686.690272918765
 30
0.0
 10
1281.559564902098
 20
1686.82104768402
 30
0.0
 10
1281.550728455306
 20
1686.939593147837
 30
0.0
 10
1281.542428688545
 20
1687.013409002905
 30
0.0
 10
1281.532693566588
 20
1687.050909785918
 30
0.0
 11
1281.56497417121
 21
1686.544134257945
 31
0.0
 11
1281.563229408289
 21
1686.695627122885
 31
0.0
 11
1281.558182635762
 21
1686.830991086897
 31
0.0
 11
1281.550361881934
 21
1686.936029141002
 31
0.0
 11
1281.532693566588
 21
1687.050909785918
 31
0.0
  0
LINE
  5
85A
330
1F
100
AcDbEntity
  8
0
  6
Continuous
100
AcDbLine
 10
1281.564974303535
 20
1651.189231349802
 30
0.0
 11
1281.543772018921
 21
1652.211932207614
 31
0.0
  0
LINE
  5
85B
330
1F
100
AcDbEntity
  8
0
  6
Continuous
100
AcDbLine
 10
1281.543772018921
 20
1652.211932207614
 30
0.0
 11
1281.53730773701
 21
1652.67970874797
 31
0.0
  0
LINE
  5
85C
330
1F
100
AcDbEntity
  8
0
  6
Continuous
100
AcDbLine
 10
1281.53291485724
 20
1650.684000206921
 30
0.0
 11
1281.544099348023
 21
1650.741534084369
 31
0.0
  0
LINE
  5
85D
330
1F
100
AcDbEntity
  8
0
  6
Continuous
100
AcDbLine
 10
1281.544099348023
 20
1650.741534084369
 30
0.0
 11
1281.564974303535
 21
1651.189231349802
 31
0.0
  0
SPLINE
  5
85E
330
1F
100
AcDbEntity
  8
0
  6
Continuous
100
AcDbSpline
210
0.0
220
0.0
230
1.0
 70
     8
 71
     3
 72
    22
 73
    18
 74
    16
 42
0.0000000001
 43
0.0000000001
 44
0.0000000001
 12
-94.49999956507003
 22
0.0090665191567806
 32
0.0
 13
-94.49999719706656
 23
-0.023016394521313
 33
0.0
 40
0.0
 40
0.0
 40
0.0
 40
0.0
 40
0.0141244559047945
 40
0.0278780983047997
 40
0.0399366009048131
 40
0.0507871728048139
 40
0.0617458424048199
 40
0.074231478304821
 40
0.0880689231048713
 40
0.1033333634049135
 40
0.1206141388049213
 40
0.1389475703049311
 40
0.157698477904944
 40
0.1772708238049638
 40
0.1970727125056036
 40
0.2166291728137299
 40
0.2368191158181172
 40
0.2368191158181172
 40
0.2368191158181172
 40
0.2368191158181172
 10
1281.500548635613
 20
1650.689461050055
 30
0.0
 10
1281.055628276644
 20
1650.689503736616
 30
0.0
 10
1280.177574916499
 20
1650.669087613933
 30
0.0
 10
1278.919531014133
 20
1650.676927667766
 30
0.0
 10
1277.76466480342
 20
1650.675131818075
 30
0.0
 10
1276.697828702722
 20
1650.675545813392
 30
0.0
 10
1275.617540644653
 20
1650.675436230305
 30
0.0
 10
1274.443165329665
 20
1650.675472239108
 30
0.0
 10
1273.133158474944
 20
1650.675453785237
 30
0.0
 10
1271.672104651401
 20
1650.675465929515
 30
0.0
 10
1270.069427270191
 20
1650.675458499719
 30
0.0
 10
1268.35692616184
 20
1650.675465148838
 30
0.0
 10
1266.572240584613
 20
1650.675456846506
 30
0.0
 10
1264.74129860595
 20
1650.675471832166
 30
0.0
 10
1262.884981713285
 20
1650.675436298238
 30
0.0
 10
1261.009210526659
 20
1650.675473221176
 30
0.0
 10
1259.757198795372
 20
1650.67561672943
 30
0.0
 10
1259.121215609524
 20
1650.675461829522
 30
0.0
 11
1281.500548635613
 21
1650.689461050055
 31
0.0
 11
1280.165860970136
 21
1650.675461612178
 31
0.0
 11
1278.86614176336
 21
1650.675462812346
 31
0.0
 11
1277.72661326758
 21
1650.675461139675
 31
0.0
 11
1276.701234223104
 21
1650.675461253091
 31
0.0
 11
1275.665639945883
 21
1650.675462424895
 31
0.0
 11
1274.485747353284
 21
1650.675462585548
 31
0.0
 11
1273.178108819676
 21
1650.675459060679
 31
0.0
 11
1271.735619211407
 21
1650.675462481586
 31
0.0
 11
1270.102585936011
 21
1650.675460903423
 31
0.0
 11
1268.370076659303
 21
1650.675462661147
 31
0.0
 11
1266.598115891133
 21
1650.675460676625
 31
0.0
 11
1264.748529203541
 21
1650.675463398231
 31
0.0
 11
1262.877250721423
 21
1650.675448334909
 31
0.0
 11
1261.029165223107
 21
1650.675501604602
 31
0.0
 11
1259.121215609524
 21
1650.675461829522
 31
0.0
  0
SPLINE
  5
85F
330
1F
100
AcDbEntity
  8
0
  6
Continuous
100
AcDbSpline
210
0.0
220
0.0
230
1.0
 70
     8
 71
     3
 72
     8
 73
     4
 74
     2
 42
0.0000000001
 43
0.0000000001
 44
0.0000000001
 12
55.58622450144806
 22
-76.42265139128986
 32
0.0
 13
55.63127927310694
 23
-76.38986036404036
 33
0.0
 40
0.0
 40
0.0
 40
0.0
 40
0.0
 40
0.0000684250321045
 40
0.0000684250321045
 40
0.0000684250321045
 40
0.0000684250321045
 10
1249.57959300226
 20
1655.524273300866
 30
0.0
 10
1249.580860832
 20
1655.522530226739
 30
0.0
 10
1249.582129177939
 20
1655.520787527962
 30
0.0
 10
1249.583398035298
 20
1655.519045201783
 30
0.0
 11
1249.57959300226
 21
1655.524273300866
 31
0.0
 11
1249.583398035298
 21
1655.519045201783
 31
0.0
  0
LINE
  5
860
330
1F
100
AcDbEntity
  8
0
  6
Continuous
100
AcDbLine
 10
1254.446865303758
 20
1651.547211864984
 30
0.0
 11
1254.376051397953
 21
1651.582203268265
 31
0.0
  0
LINE
  5
861
330
1F
100
AcDbEntity
  8
0
  6
Continuous
100
AcDbLine
 10
1254.376051397953
 20
1651.582203268265
 30
0.0
 11
1254.293113397398
 21
1651.6220121682
 31
0.0
  0
LINE
  5
862
330
1F
100
AcDbEntity
  8
0
  6
Continuous
100
AcDbLine
 10
1254.293113397398
 20
1651.6220121682
 30
0.0
 11
1254.039017885077
 21
1651.748573750165
 31
0.0
  0
LINE
  5
863
330
1F
100
AcDbEntity
  8
0
  6
Continuous
100
AcDbLine
 10
1254.039017885077
 20
1651.748573750165
 30
0.0
 11
1253.463573365086
 21
1652.060394606376
 31
0.0
  0
LINE
  5
864
330
1F
100
AcDbEntity
  8
0
  6
Continuous
100
AcDbLine
 10
1253.30652107459
 20
1652.152545582089
 30
0.0
 11
1253.29640242094
 21
1652.158547059722
 31
0.0
  0
SPLINE
  5
865
330
1F
100
AcDbEntity
  8
0
  6
Continuous
100
AcDbSpline
210
0.0
220
0.0
230
1.0
 70
     8
 71
     3
 72
     8
 73
     4
 74
     2
 42
0.0000000001
 43
0.0000000001
 44
0.0000000001
 12
-81.26019223876731
 22
48.23931132715916
 32
0.0
 13
-81.24499801749843
 23
48.26489715245108
 33
0.0
 40
0.0
 40
0.0
 40
0.0
 40
0.0
 40
0.0000486905432967
 40
0.0000486905432967
 40
0.0000486905432967
 40
0.0000486905432967
 10
1253.29640242094
 20
1652.158547059722
 30
0.0
 10
1253.295083553317
 20
1652.159329992511
 30
0.0
 10
1253.293764808943
 20
1652.160113132915
 30
0.0
 10
1253.29244618792
 20
1652.160896480932
 30
0.0
 11
1253.29640242094
 21
1652.158547059722
 31
0.0
 11
1253.29244618792
 21
1652.160896480932
 31
0.0
  0
LINE
  5
866
330
1F
100
AcDbEntity
  8
0
  6
Continuous
100
AcDbLine
 10
1253.292446187885
 20
1652.160896480932
 30
0.0
 11
1253.218164604648
 21
1652.206206074647
 31
0.0
  0
SPLINE
  5
867
330
1F
100
AcDbEntity
  8
0
  6
Continuous
100
AcDbSpline
210
0.0
220
0.0
230
1.0
 70
     8
 71
     3
 72
    22
 73
    18
 74
    16
 42
0.0000000001
 43
0.0000000001
 44
0.0000000001
 12
-80.65030216843252
 22
49.25219548548605
 32
0.0
 13
-56.39412906524035
 23
75.82843930197308
 33
0.0
 40
0.0
 40
0.0
 40
0.0
 40
0.0
 40
0.0012119912577251
 40
0.0045080461502319
 40
0.0082353366130371
 40
0.0126772123659632
 40
0.0175703862235079
 40
0.0221535603552568
 40
0.0265212164809652
 40
0.0306725377567613
 40
0.0346131504291846
 40
0.0382387167747572
 40
0.0415136780837461
 40
0.0445487506114469
 40
0.0473512607828261
 40
0.0499689830847953
 40
0.0512291971939696
 40
0.0512291971939696
 40
0.0512291971939696
 40
0.0512291971939696
 10
1253.218164604648
 20
1652.206206074647
 30
0.0
 10
1253.185582117601
 20
1652.226103818082
 30
0.0
 10
1253.064488810319
 20
1652.300275889775
 30
0.0
 10
1252.845234124069
 20
1652.438963353196
 30
0.0
 10
1252.544725027368
 20
1652.639355932313
 30
0.0
 10
1252.209438369506
 20
1652.877995005644
 30
0.0
 10
1251.86119014566
 20
1653.144495299242
 30
0.0
 10
1251.524255447917
 20
1653.421484187689
 30
0.0
 10
1251.214805664266
 20
1653.694695949036
 30
0.0
 10
1250.929293280117
 20
1653.964089464845
 30
0.0
 10
1250.668776603487
 20
1654.225640487742
 30
0.0
 10
1250.434976512523
 20
1654.474614962374
 30
0.0
 10
1250.226947856943
 20
1654.708487817312
 30
0.0
 10
1250.041518258833
 20
1654.927637338817
 30
0.0
 10
1249.874184298952
 20
1655.13487804607
 30
0.0
 10
1249.745433885186
 20
1655.301347007876
 30
0.0
 10
1249.672075225446
 20
1655.399023666704
 30
0.0
 10
1249.648385666457
 20
1655.43087702308
 30
0.0
 11
1253.218164604648
 21
1652.206206074647
 31
0.0
 11
1253.120547616657
 21
1652.266112431268
 31
0.0
 11
1252.857354268065
 21
1652.432687637968
 31
0.0
 11
1252.564376910342
 21
1652.628211294237
 31
0.0
 11
1252.222390208223
 21
1652.871606552652
 31
0.0
 11
1251.855159503891
 21
1653.152604646297
 31
0.0
 11
1251.520699169287
 21
1653.427778260734
 31
0.0
 11
1251.211270816857
 21
1653.700928942052
 31
0.0
 11
1250.925917218258
 21
1653.970136119446
 31
0.0
 11
1250.66314130442
 21
1654.233995107103
 31
0.0
 11
1250.428612206136
 21
1654.483758673265
 31
0.0
 11
1250.222926067108
 21
1654.715001968774
 31
0.0
 11
1250.037667066931
 21
1654.933957618278
 31
0.0
 11
1249.871277411025
 21
1655.139999436418
 31
0.0
 11
1249.719899703711
 21
1655.335649788868
 31
0.0
 11
1249.648385666457
 21
1655.43087702308
 31
0.0
  0
SPLINE
  5
868
330
1F
100
AcDbEntity
  8
0
  6
Continuous
100
AcDbSpline
210
0.0
220
0.0
230
1.0
 70
     8
 71
     3
 72
    30
 73
    26
 74
    24
 42
0.0000000001
 43
0.0000000001
 44
0.0000000001
 12
-94.48270346533048
 22
1.807967334447179
 32
0.0
 13
-94.49913833706849
 23
0.4035511759336855
 33
0.0
 40
0.0
 40
0.0
 40
0.0
 40
0.0
 40
0.0049262227255195
 40
0.0097848556117871
 40
0.014588467465095
 40
0.0193502515272441
 40
0.0240852282705052
 40
0.0288284661682165
 40
0.0335719250444073
 40
0.0382731110150897
 40
0.0430426862907154
 40
0.0481159300455743
 40
0.0537358320446952
 40
0.060060574140232
 40
0.0671046257365038
 40
0.0748801647341318
 40
0.0834822460346435
 40
0.0930528860280285
 40
0.1037363323726862
 40
0.1156966476743876
 40
0.1291434238590934
 40
0.1443230021733503
 40
0.1615564678437554
 40
0.1812705334144551
 40
0.2039001976825206
 40
0.2039001976825206
 40
0.2039001976825206
 40
0.2039001976825206
 10
1278.377219704486
 20
1650.328508944585
 30
0.0
 10
1278.222072090843
 20
1650.331477761183
 30
0.0
 10
1277.913914378319
 20
1650.337839290098
 30
0.0
 10
1277.454495454684
 20
1650.34824745221
 30
0.0
 10
1277.000261559111
 20
1650.35881915461
 30
0.0
 10
1276.549919529701
 20
1650.369204279765
 30
0.0
 10
1276.101471269649
 20
1650.379216538868
 30
0.0
 10
1275.653591238525
 20
1650.388810566176
 30
0.0
 10
1275.20676729155
 20
1650.397996446362
 30
0.0
 10
1274.759106493158
 20
1650.406831758272
 30
0.0
 10
1274.301052773163
 20
1650.415524745249
 30
0.0
 10
1273.81405749155
 20
1650.424379195102
 30
0.0
 10
1273.278073992234
 20
1650.433642733338
 30
0.0
 10
1272.680009626643
 20
1650.443403485967
 30
0.0
 10
1272.014041232454
 20
1650.453609401378
 30
0.0
 10
1271.276334009452
 20
1650.464168776227
 30
0.0
 10
1270.459035724564
 20
1650.475022688242
 30
0.0
 10
1269.55013360838
 20
1650.486088593514
 30
0.0
 10
1268.535441095062
 20
1650.497250046928
 30
0.0
 10
1267.398642998348
 20
1650.508345583201
 30
0.0
 10
1266.120208661075
 20
1650.519202288811
 30
0.0
 10
1264.675662125075
 20
1650.529699115722
 30
0.0
 10
1263.033688659985
 20
1650.539758148658
 30
0.0
 10
1261.15703126608
 20
1650.549350091746
 30
0.0
 10
1259.823216536974
 20
1650.555197959676
 30
0.0
 10
1259.110388612233
 20
1650.558242035571
 30
0.0
 11
1278.377219704486
 21
1650.328508944585
 31
0.0
 11
1277.911789240032
 21
1650.338040252369
 31
0.0
 11
1277.452763843857
 21
1650.348334279146
 31
0.0
 11
1276.998943961307
 21
1650.35883362603
 31
0.0
 11
1276.549074065234
 21
1650.369168580716
 31
0.0
 11
1276.101729955846
 21
1650.379143310883
 31
0.0
 11
1275.653596846996
 21
1650.388746003978
 31
0.0
 11
1275.205434736106
 21
1650.39796220154
 31
0.0
 11
1274.761259258844
 21
1650.406733521425
 31
0.0
 11
1274.310615530696
 21
1650.415285298929
 31
0.0
 11
1273.831273173202
 21
1650.423998066597
 31
0.0
 11
1273.300271795276
 21
1650.433178911718
 31
0.0
 11
1272.702663377608
 21
1650.442939930131
 31
0.0
 11
1272.037078804067
 21
1650.453149719563
 31
0.0
 11
1271.302365770082
 21
1650.463675989525
 31
0.0
 11
1270.489540831666
 21
1650.474475827554
 31
0.0
 11
1269.585182474995
 21
1650.485494470846
 31
0.0
 11
1268.575657997831
 21
1650.496610874389
 31
0.0
 11
1267.445462246524
 21
1650.507663707773
 31
0.0
 11
1266.174788058889
 21
1650.518494929233
 31
0.0
 11
1264.740356182054
 21
1650.528973665691
 31
0.0
 11
1263.111824678842
 21
1650.539022474377
 31
0.0
 11
1261.24887046543
 21
1650.548670536927
 31
0.0
 11
1259.110388612233
 21
1650.558242035571
 31
0.0
  0
LINE
  5
869
330
1F
100
AcDbEntity
  8
0
  6
Continuous
100
AcDbLine
 10
1278.377219704486
 20
1650.328685338284
 30
0.0
 11
1280.812841612077
 21
1650.598231468287
 31
0.0
  0
LINE
  5
86A
330
1F
100
AcDbEntity
  8
0
  6
Continuous
100
AcDbLine
 10
1280.812841612077
 20
1650.598231468287
 30
0.0
 11
1280.95663787729
 21
1650.615433596229
 31
0.0
  0
LINE
  5
86B
330
1F
100
AcDbEntity
  8
0
  6
Continuous
100
AcDbLine
 10
1280.95663787729
 20
1650.615433596229
 30
0.0
 11
1281.532968372605
 21
1650.684703702724
 31
0.0
  0
SPLINE
  5
86C
330
1F
100
AcDbEntity
  8
0
  6
Continuous
100
AcDbSpline
210
0.0
220
0.0
230
1.0
 70
     8
 71
     3
 72
     8
 73
     4
 74
     2
 42
0.0000000001
 43
0.0000000001
 44
0.0000000001
 12
55.71029002234651
 22
-76.332257831313
 32
0.0
 13
55.76280021146935
 23
-76.29390613001641
 33
0.0
 40
0.0
 40
0.0
 40
0.0
 40
0.0
 40
0.0000684262043287
 40
0.0000684262043287
 40
0.0000684262043287
 40
0.0000684262043287
 10
1249.579626426905
 20
1655.524297700775
 30
0.0
 10
1249.580897108168
 20
1655.522556658578
 30
0.0
 10
1249.582168388415
 20
1655.520816053407
 30
0.0
 10
1249.583440267336
 20
1655.519075885947
 30
0.0
 11
1249.579626426905
 21
1655.524297700775
 31
0.0
 11
1249.583440267336
 21
1655.519075885947
 31
0.0
  0
SPLINE
  5
86D
330
1F
100
AcDbEntity
  8
0
  6
Continuous
100
AcDbSpline
210
0.0
220
0.0
230
1.0
 70
     8
 71
     3
 72
    21
 73
    17
 74
    15
 42
0.0000000001
 43
0.0000000001
 44
0.0000000001
 12
57.52205518100352
 22
74.97641741076716
 32
0.0
 13
80.60347447031093
 23
49.32879385626551
 33
0.0
 40
0.0
 40
0.0
 40
0.0
 40
0.0
 40
0.0018110500056695
 40
0.0048403828870537
 40
0.0081765696765488
 40
0.0117601225593912
 40
0.0158772304989959
 40
0.020185247144049
 40
0.0245560946991381
 40
0.0289332084353375
 40
0.0332050879671272
 40
0.0372722388293478
 40
0.0410046882432268
 40
0.0442751520213369
 40
0.0476400670627571
 40
0.0489909170885005
 40
0.0489909170885005
 40
0.0489909170885005
 40
0.0489909170885005
 10
1249.763987620328
 20
1682.455582742606
 30
0.0
 10
1249.798712726473
 20
1682.50084475637
 30
0.0
 10
1249.89234301445
 20
1682.621188344764
 30
0.0
 10
1250.054280224743
 20
1682.821506442717
 30
0.0
 10
1250.257373578043
 20
1683.060237586592
 30
0.0
 10
1250.489773747044
 20
1683.318867457035
 30
0.0
 10
1250.751010181899
 20
1683.592539086908
 30
0.0
 10
1251.03873622818
 20
1683.874922794569
 30
0.0
 10
1251.341723740982
 20
1684.153133874525
 30
0.0
 10
1251.65326554387
 20
1684.419987157087
 30
0.0
 10
1251.965995381525
 20
1684.670389056597
 30
0.0
 10
1252.269974156407
 20
1684.898930884019
 30
0.0
 10
1252.554715092279
 20
1685.100304265435
 30
0.0
 10
1252.826180031305
 20
1685.281921908452
 30
0.0
 10
1253.038504703348
 20
1685.41688616935
 30
0.0
 10
1253.164993920342
 20
1685.494775439396
 30
0.0
 10
1253.201288322186
 20
1685.516987373541
 30
0.0
 11
1249.763987620328
 21
1682.455582742606
 31
0.0
 11
1249.869089764334
 21
1682.590652669905
 31
0.0
 11
1250.049079879161
 21
1682.813262625003
 31
0.0
 11
1250.253358998323
 21
1683.053397992501
 31
0.0
 11
1250.479701514328
 21
1683.305290842048
 31
0.0
 11
1250.748329274422
 21
1683.586737149154
 31
0.0
 11
1251.038865508176
 21
1683.871913012177
 31
0.0
 11
1251.343153826134
 21
1684.151224431964
 31
0.0
 11
1251.657256488784
 21
1684.420362482639
 31
0.0
 11
1251.9723180146
 21
1684.672758922732
 31
0.0
 11
1252.279548013512
 21
1684.903694819207
 31
0.0
 11
1252.567516606677
 21
1685.107368571291
 31
0.0
 11
1252.824356521863
 21
1685.279271498978
 31
0.0
 11
1253.092618651942
 21
1685.450003902415
 31
0.0
 11
1253.201288322186
 21
1685.516987373541
 31
0.0
  0
LINE
  5
86E
330
1F
100
AcDbEntity
  8
0
  6
Continuous
100
AcDbLine
 10
1253.470467546441
 20
1685.677018417444
 30
0.0
 11
1254.044786117826
 21
1685.987785466318
 31
0.0
  0
LINE
  5
86F
330
1F
100
AcDbEntity
  8
0
  6
Continuous
100
AcDbLine
 10
1254.044786117826
 20
1685.987785466318
 30
0.0
 11
1254.294815682576
 21
1686.112241645032
 31
0.0
  0
LINE
  5
870
330
1F
100
AcDbEntity
  8
0
  6
Continuous
100
AcDbLine
 10
1254.294815682576
 20
1686.112241645032
 30
0.0
 11
1254.376910809355
 21
1686.151645413973
 31
0.0
  0
LINE
  5
871
330
1F
100
AcDbEntity
  8
0
  6
Continuous
100
AcDbLine
 10
1254.376910809355
 20
1686.151645413973
 30
0.0
 11
1254.512063773764
 21
1686.220841621476
 31
0.0
  0
LINE
  5
872
330
1F
100
AcDbEntity
  8
0
  6
Continuous
100
AcDbLine
 10
1278.377219704486
 20
1687.404738046745
 30
0.0
 11
1281.501583136551
 21
1687.05249315235
 31
0.0
  0
LINE
  5
873
330
1F
100
AcDbEntity
  8
0
  6
Continuous
100
AcDbLine
 10
1281.501583136551
 20
1687.05249315235
 30
0.0
 11
1281.532968372605
 21
1687.048719899649
 31
0.0
  0
SPLINE
  5
874
330
1F
100
AcDbEntity
  8
0
  6
Continuous
100
AcDbSpline
210
0.0
220
0.0
230
1.0
 70
     8
 71
     3
 72
    31
 73
    27
 74
    25
 42
0.0000000001
 43
0.0000000001
 44
0.0000000001
 12
94.49913833707524
 22
0.4035511743503601
 32
0.0
 13
94.48270346457965
 23
1.807967373684165
 33
0.0
 40
0.0
 40
0.0
 40
0.0
 40
0.0
 40
0.0218290283421294
 40
0.0409436234931138
 40
0.0577309734762296
 40
0.0725759386054799
 40
0.0857787332375636
 40
0.0975656312699295
 40
0.1081293350815777
 40
0.1176262897439253
 40
0.1261862962961133
 40
0.1339371518845192
 40
0.1409874518500909
 40
0.1473742969396095
 40
0.1530989868931339
 40
0.1582199761798269
 40
0.1629335096504519
 40
0.1674539586788713
 40
0.171971507415235
 40
0.1765247667500522
 40
0.1810777485976199
 40
0.1856114871123082
 40
0.1901302250750887
 40
0.1946577745901042
 40
0.1992346953462738
 40
0.2039001984419169
 40
0.2039001984419169
 40
0.2039001984419169
 40
0.2039001984419169
 10
1259.110388612233
 20
1687.175181349425
 30
0.0
 10
1259.797996735273
 20
1687.178117726058
 30
0.0
 10
1261.087708551651
 20
1687.183767369791
 30
0.0
 10
1262.906211101639
 20
1687.192978579215
 30
0.0
 10
1264.504710031531
 20
1687.202612450774
 30
0.0
 10
1265.916980550636
 20
1687.212659463851
 30
0.0
 10
1267.171729550546
 20
1687.223050141542
 30
0.0
 10
1268.291611282679
 20
1687.233689046165
 30
0.0
 10
1269.294752110547
 20
1687.244423664464
 30
0.0
 10
1270.196239942679
 20
1687.255107223806
 30
0.0
 10
1271.009118340731
 20
1687.265620193156
 30
0.0
 10
1271.744923481075
 20
1687.27588426883
 30
0.0
 10
1272.412271289561
 20
1687.285843961495
 30
0.0
 10
1273.015792976581
 20
1687.295435215217
 30
0.0
 10
1273.55854068789
 20
1687.304570961994
 30
0.0
 10
1274.048578883219
 20
1687.313262117436
 30
0.0
 10
1274.50068273962
 20
1687.321649727099
 30
0.0
 10
1274.933775476125
 20
1687.330002233189
 30
0.0
 10
1275.361814254775
 20
1687.338576206879
 30
0.0
 10
1275.790870530422
 20
1687.347517462766
 30
0.0
 10
1276.220429060582
 20
1687.356827779133
 30
0.0
 10
1276.648892238464
 20
1687.366484280499
 30
0.0
 10
1277.076548521429
 20
1687.376382937794
 30
0.0
 10
1277.505563836989
 20
1687.3863490205
 30
0.0
 10
1277.939208032601
 20
1687.396119429303
 30
0.0
 10
1278.230283255995
 20
1687.402102747967
 30
0.0
 10
1278.377219704486
 20
1687.40491444041
 30
0.0
 11
1259.110388612233
 21
1687.175181349425
 31
0.0
 11
1261.17321122342
 21
1687.184392935401
 31
0.0
 11
1262.979516703117
 21
1687.193658131181
 31
0.0
 11
1264.565892058687
 21
1687.20328630148
 31
0.0
 11
1265.968705407314
 21
1687.213316257431
 31
0.0
 11
1267.216326395548
 21
1687.223687273314
 31
0.0
 11
1268.330137793617
 21
1687.234290192236
 31
0.0
 11
1269.328350516771
 21
1687.244984700536
 31
0.0
 11
1270.225749628782
 21
1687.255627167672
 31
0.0
 11
1271.034602533842
 21
1687.266093600231
 31
0.0
 11
1271.766987040496
 21
1687.276316666931
 31
0.0
 11
1272.433166056774
 21
1687.2862685659
 31
0.0
 11
1273.036646600535
 21
1687.295866363851
 31
0.0
 11
1273.577553081009
 21
1687.30497694823
 31
0.0
 11
1274.061410478433
 21
1687.313558285297
 31
0.0
 11
1274.506762801951
 21
1687.321818095628
 31
0.0
 11
1274.933865776878
 21
1687.330057030851
 31
0.0
 11
1275.360688426943
 21
1687.33861094411
 31
0.0
 11
1275.790877998654
 21
1687.347577472649
 31
0.0
 11
1276.221033710998
 21
1687.356902912189
 31
0.0
 11
1276.649363636127
 21
1687.366538434589
 31
0.0
 11
1277.076270892046
 21
1687.376382471238
 31
0.0
 11
1277.504010211021
 21
1687.386263353438
 31
0.0
 11
1277.936421506096
 21
1687.395915668487
 31
0.0
 11
1278.377219704486
 21
1687.40491444041
 31
0.0
  0
SPLINE
  5
875
330
1F
100
AcDbEntity
  8
0
  6
Continuous
100
AcDbSpline
210
0.0
220
0.0
230
1.0
 70
     8
 71
     3
 72
    22
 73
    18
 74
    16
 42
0.0000000001
 43
0.0000000001
 44
0.0000000001
 12
94.49999719706038
 22
-0.0230164199050289
 32
0.0
 13
94.42888538240493
 23
-3.665461149245773
 33
0.0
 40
0.0
 40
0.0
 40
0.0
 40
0.0
 40
0.0203919244039725
 40
0.0406579962107978
 40
0.0610656417112114
 40
0.0810784235112162
 40
0.100496270111221
 40
0.1191203082112258
 40
0.1362917151112264
 40
0.1514443124112282
 40
0.1648088074112276
 40
0.1764441586112313
 40
0.187123888011231
 40
0.1981839970112713
 40
0.2108253773113072
 40
0.2245218198113086
 40
0.2368192651944581
 40
0.2368192651944581
 40
0.2368192651944581
 40
0.2368192651944581
 10
1259.121215609524
 20
1687.057961555474
 30
0.0
 10
1259.763561209235
 20
1687.057805105798
 30
0.0
 10
1261.044288117428
 20
1687.057957161609
 30
0.0
 10
1262.967855819211
 20
1687.057981860064
 30
0.0
 10
1264.879480544394
 20
1687.057954804007
 30
0.0
 10
1266.764386170917
 20
1687.057964681032
 30
0.0
 10
1268.59310816761
 20
1687.057959565004
 30
0.0
 10
1270.332326847131
 20
1687.057962334224
 30
0.0
 10
1271.937190198751
 20
1687.057963094995
 30
0.0
 10
1273.376377863559
 20
1687.057961547876
 30
0.0
 10
1274.641180019058
 20
1687.057962790295
 30
0.0
 10
1275.765086076573
 20
1687.057959112199
 30
0.0
 10
1276.816406484149
 20
1687.057967159303
 30
0.0
 10
1277.899407173753
 20
1687.057935363255
 30
0.0
 10
1279.077475997591
 20
1687.058095858639
 30
0.0
 10
1280.294351291505
 20
1687.05743109658
 30
0.0
 10
1281.113473752854
 20
1687.058981660316
 30
0.0
 10
1281.500551772997
 20
1687.043956390862
 30
0.0
 11
1259.121215609524
 21
1687.057961555474
 31
0.0
 11
1261.048252465313
 21
1687.057923519243
 31
0.0
 11
1262.963396250426
 21
1687.057973216762
 31
0.0
 11
1264.891918750212
 21
1687.057960922317
 31
0.0
 11
1266.783126630274
 21
1687.057962207538
 31
0.0
 11
1268.618113133985
 21
1687.057960865592
 31
0.0
 11
1270.378084734513
 21
1687.057962065759
 31
0.0
 11
1272.000782686475
 21
1687.057962680007
 31
0.0
 11
1273.432703131329
 21
1687.057962009034
 31
0.0
 11
1274.695647908876
 21
1687.057961886233
 31
0.0
 11
1275.795188597236
 21
1687.057961101878
 31
0.0
 11
1276.804423025571
 21
1687.05796095068
 31
0.0
 11
1277.849603326108
 21
1687.057963747885
 31
0.0
 11
1279.044213764407
 21
1687.057960893989
 31
0.0
 11
1280.33852758063
 21
1687.057961687763
 31
0.0
 11
1281.500551772997
 21
1687.043956390862
 31
0.0
  0
LINE
  5
876
330
1F
100
AcDbEntity
  8
0
  6
Continuous
100
AcDbLine
 10
1249.632022197575
 20
1682.280748018585
 30
0.0
 11
1249.643150508148
 21
1682.29577960437
 31
0.0
  0
SPLINE
  5
877
330
1F
100
AcDbEntity
  8
0
  6
Continuous
100
AcDbSpline
210
0.0
220
0.0
230
1.0
 70
     8
 71
     3
 72
     9
 73
     5
 74
     3
 42
0.0000000001
 43
0.0000000001
 44
0.0000000001
 12
-93.66295135441202
 22
-12.54996189560165
 32
0.0
 13
-90.44796808105221
 23
-27.37544648054102
 33
0.0
 40
0.0
 40
0.0
 40
0.0
 40
0.0
 40
0.0166095511064778
 40
0.0177138567434006
 40
0.0177138567434006
 40
0.0177138567434006
 40
0.0177138567434006
 10
1257.545871787064
 20
1542.950968845361
 30
0.0
 10
1257.027305261261
 20
1542.881485767564
 30
0.0
 10
1256.476565016416
 20
1542.774231325527
 30
0.0
 10
1255.941574125525
 20
1542.615738253193
 30
0.0
 10
1255.90828005858
 20
1542.605661299946
 30
0.0
 11
1257.545871787064
 21
1542.950968845361
 31
0.0
 11
1256.008339436851
 21
1542.635300459495
 31
0.0
 11
1255.90828005858
 21
1542.605661299946
 31
0.0
  0
SPLINE
  5
878
330
1F
100
AcDbEntity
  8
0
  6
Continuous
100
AcDbSpline
210
0.0
220
0.0
230
1.0
 70
     8
 71
     3
 72
     9
 73
     5
 74
     3
 42
0.0000000001
 43
0.0000000001
 44
0.0000000001
 12
91.01386496093347
 22
-25.43081565488952
 32
0.0
 13
93.64702059306596
 23
-12.66828852062842
 33
0.0
 40
0.0
 40
0.0
 40
0.0
 40
0.0
 40
0.0153744846258573
 40
0.0156280330236328
 40
0.0156280330236328
 40
0.0156280330236328
 40
0.0156280330236328
 10
1256.081528505583
 20
1506.852655926515
 30
0.0
 10
1256.547958928122
 20
1506.722327365068
 30
0.0
 10
1257.033308611959
 20
1506.62727229155
 30
0.0
 10
1257.521074271668
 20
1506.560822008522
 30
0.0
 10
1257.528988955732
 20
1506.559751333762
 30
0.0
 11
1256.081528505583
 21
1506.852655926515
 31
0.0
 11
1257.505247938027
 21
1506.562985709689
 31
0.0
 11
1257.528988955732
 21
1506.559751333762
 31
0.0
  0
SPLINE
  5
879
330
1F
100
AcDbEntity
  8
0
  6
Continuous
100
AcDbSpline
210
0.0
220
0.0
230
1.0
 70
     8
 71
     3
 72
    11
 73
     7
 74
     5
 42
0.0000000001
 43
0.0000000001
 44
0.0000000001
 12
-0.0001580509627232
 22
94.49999999986784
 32
0.0
 13
-23.74494102961948
 23
91.46817903238208
 33
0.0
 40
0.0
 40
0.0
 40
0.0
 40
0.0
 40
0.0016032054174322
 40
0.0030366235205924
 40
0.0041512140415134
 40
0.0053811756546653
 40
0.0053811756546653
 40
0.0053811756546653
 40
0.0053811756546653
 10
1281.56497417121
 20
1542.431634257946
 30
0.0
 10
1281.56497408681
 20
1542.482135228578
 30
0.0
 10
1281.563854631555
 20
1542.577772918731
 30
0.0
 10
1281.559564902098
 20
1542.708547684054
 30
0.0
 10
1281.550728455306
 20
1542.827093147803
 30
0.0
 10
1281.542428688545
 20
1542.900909002939
 30
0.0
 10
1281.532693566588
 20
1542.938409785918
 30
0.0
 11
1281.56497417121
 21
1542.431634257946
 31
0.0
 11
1281.563229408289
 21
1542.583127122885
 31
0.0
 11
1281.558182635762
 21
1542.718491086931
 31
0.0
 11
1281.550361881934
 21
1542.823529141037
 31
0.0
 11
1281.532693566588
 21
1542.938409785918
 31
0.0
  0
LINE
  5
87A
330
1F
100
AcDbEntity
  8
0
  6
Continuous
100
AcDbLine
 10
1281.564974303535
 20
1507.076731349768
 30
0.0
 11
1281.543772018921
 21
1508.099432207615
 31
0.0
  0
LINE
  5
87B
330
1F
100
AcDbEntity
  8
0
  6
Continuous
100
AcDbLine
 10
1281.543772018921
 20
1508.099432207615
 30
0.0
 11
1281.53730773701
 21
1508.567208748005
 31
0.0
  0
LINE
  5
87C
330
1F
100
AcDbEntity
  8
0
  6
Continuous
100
AcDbLine
 10
1281.53291485724
 20
1506.571500206955
 30
0.0
 11
1281.544099348023
 21
1506.629034084369
 31
0.0
  0
LINE
  5
87D
330
1F
100
AcDbEntity
  8
0
  6
Continuous
100
AcDbLine
 10
1281.544099348023
 20
1506.629034084369
 30
0.0
 11
1281.564974303535
 21
1507.076731349768
 31
0.0
  0
SPLINE
  5
87E
330
1F
100
AcDbEntity
  8
0
  6
Continuous
100
AcDbSpline
210
0.0
220
0.0
230
1.0
 70
     8
 71
     3
 72
    22
 73
    18
 74
    16
 42
0.0000000001
 43
0.0000000001
 44
0.0000000001
 12
-94.49999956507003
 22
0.0090665191567806
 32
0.0
 13
-94.49999719706656
 23
-0.023016394521313
 33
0.0
 40
0.0
 40
0.0
 40
0.0
 40
0.0
 40
0.0141244559047945
 40
0.0278780983047997
 40
0.0399366009048131
 40
0.0507871728048139
 40
0.0617458424048199
 40
0.074231478304821
 40
0.0880689231048713
 40
0.1033333634049135
 40
0.1206141388049213
 40
0.138947570304931
 40
0.157698477904944
 40
0.1772708238049637
 40
0.1970727125056035
 40
0.2166291728137299
 40
0.2368191158181172
 40
0.2368191158181172
 40
0.2368191158181172
 40
0.2368191158181172
 10
1281.500548635613
 20
1506.57696105009
 30
0.0
 10
1281.055628276644
 20
1506.577003736616
 30
0.0
 10
1280.177574916499
 20
1506.556587613967
 30
0.0
 10
1278.919531014133
 20
1506.564427667732
 30
0.0
 10
1277.76466480342
 20
1506.562631818143
 30
0.0
 10
1276.697828702722
 20
1506.563045813392
 30
0.0
 10
1275.617540644653
 20
1506.562936230271
 30
0.0
 10
1274.443165329665
 20
1506.562972239108
 30
0.0
 10
1273.133158474944
 20
1506.562953785237
 30
0.0
 10
1271.672104651401
 20
1506.562965929515
 30
0.0
 10
1270.069427270191
 20
1506.562958499719
 30
0.0
 10
1268.35692616184
 20
1506.562965148873
 30
0.0
 10
1266.572240584613
 20
1506.562956846506
 30
0.0
 10
1264.74129860595
 20
1506.5629718322
 30
0.0
 10
1262.884981713285
 20
1506.562936298307
 30
0.0
 10
1261.009210526659
 20
1506.562973221176
 30
0.0
 10
1259.757198795372
 20
1506.56311672943
 30
0.0
 10
1259.121215609524
 20
1506.562961829556
 30
0.0
 11
1281.500548635613
 21
1506.57696105009
 31
0.0
 11
1280.165860970136
 21
1506.562961612178
 31
0.0
 11
1278.86614176336
 21
1506.562962812311
 31
0.0
 11
1277.72661326758
 21
1506.562961139675
 31
0.0
 11
1276.701234223104
 21
1506.562961253056
 31
0.0
 11
1275.665639945883
 21
1506.562962424895
 31
0.0
 11
1274.485747353284
 21
1506.562962585513
 31
0.0
 11
1273.178108819676
 21
1506.562959060679
 31
0.0
 11
1271.735619211407
 21
1506.562962481586
 31
0.0
 11
1270.102585936011
 21
1506.562960903423
 31
0.0
 11
1268.370076659303
 21
1506.562962661113
 31
0.0
 11
1266.598115891133
 21
1506.562960676625
 31
0.0
 11
1264.748529203541
 21
1506.562963398231
 31
0.0
 11
1262.877250721423
 21
1506.562948334944
 31
0.0
 11
1261.029165223107
 21
1506.563001604568
 31
0.0
 11
1259.121215609524
 21
1506.562961829556
 31
0.0
  0
SPLINE
  5
87F
330
1F
100
AcDbEntity
  8
0
  6
Continuous
100
AcDbSpline
210
0.0
220
0.0
230
1.0
 70
     8
 71
     3
 72
     8
 73
     4
 74
     2
 42
0.0000000001
 43
0.0000000001
 44
0.0000000001
 12
55.58622450144806
 22
-76.42265139128986
 32
0.0
 13
55.63127927310694
 23
-76.38986036404036
 33
0.0
 40
0.0
 40
0.0
 40
0.0
 40
0.0
 40
0.0000684250321049
 40
0.0000684250321049
 40
0.0000684250321049
 40
0.0000684250321049
 10
1249.57959300226
 20
1511.4117733009
 30
0.0
 10
1249.580860832
 20
1511.41003022674
 30
0.0
 10
1249.582129177939
 20
1511.408287527996
 30
0.0
 10
1249.583398035298
 20
1511.406545201748
 30
0.0
 11
1249.57959300226
 21
1511.4117733009
 31
0.0
 11
1249.583398035298
 21
1511.406545201748
 31
0.0
  0
LINE
  5
880
330
1F
100
AcDbEntity
  8
0
  6
Continuous
100
AcDbLine
 10
1254.446865303758
 20
1507.434711864984
 30
0.0
 11
1254.376051397953
 21
1507.469703268265
 31
0.0
  0
LINE
  5
881
330
1F
100
AcDbEntity
  8
0
  6
Continuous
100
AcDbLine
 10
1254.376051397953
 20
1507.469703268265
 30
0.0
 11
1254.293113397398
 21
1507.509512168165
 31
0.0
  0
LINE
  5
882
330
1F
100
AcDbEntity
  8
0
  6
Continuous
100
AcDbLine
 10
1254.293113397398
 20
1507.509512168165
 30
0.0
 11
1254.039017885077
 21
1507.636073750165
 31
0.0
  0
LINE
  5
883
330
1F
100
AcDbEntity
  8
0
  6
Continuous
100
AcDbLine
 10
1254.039017885077
 20
1507.636073750165
 30
0.0
 11
1253.463573365086
 21
1507.947894606376
 31
0.0
  0
LINE
  5
884
330
1F
100
AcDbEntity
  8
0
  6
Continuous
100
AcDbLine
 10
1253.30652107459
 20
1508.04004558209
 30
0.0
 11
1253.29640242094
 21
1508.046047059757
 31
0.0
  0
SPLINE
  5
885
330
1F
100
AcDbEntity
  8
0
  6
Continuous
100
AcDbSpline
210
0.0
220
0.0
230
1.0
 70
     8
 71
     3
 72
     8
 73
     4
 74
     2
 42
0.0000000001
 43
0.0000000001
 44
0.0000000001
 12
-81.26019223876731
 22
48.23931132715916
 32
0.0
 13
-81.24499801749843
 23
48.26489715245108
 33
0.0
 40
0.0
 40
0.0
 40
0.0
 40
0.0
 40
0.0000486905432972
 40
0.0000486905432972
 40
0.0000486905432972
 40
0.0000486905432972
 10
1253.29640242094
 20
1508.046047059722
 30
0.0
 10
1253.295083553317
 20
1508.046829992477
 30
0.0
 10
1253.293764808943
 20
1508.047613132915
 30
0.0
 10
1253.29244618792
 20
1508.048396480897
 30
0.0
 11
1253.29640242094
 21
1508.046047059722
 31
0.0
 11
1253.29244618792
 21
1508.048396480897
 31
0.0
  0
LINE
  5
886
330
1F
100
AcDbEntity
  8
0
  6
Continuous
100
AcDbLine
 10
1253.292446187885
 20
1508.048396480932
 30
0.0
 11
1253.218164604648
 21
1508.093706074647
 31
0.0
  0
SPLINE
  5
887
330
1F
100
AcDbEntity
  8
0
  6
Continuous
100
AcDbSpline
210
0.0
220
0.0
230
1.0
 70
     8
 71
     3
 72
    22
 73
    18
 74
    16
 42
0.0000000001
 43
0.0000000001
 44
0.0000000001
 12
-80.65030216843252
 22
49.25219548548605
 32
0.0
 13
-56.39412906524035
 23
75.82843930197308
 33
0.0
 40
0.0
 40
0.0
 40
0.0
 40
0.0
 40
0.0012119912577251
 40
0.0045080461502319
 40
0.0082353366130373
 40
0.0126772123659635
 40
0.0175703862235082
 40
0.0221535603552571
 40
0.0265212164809654
 40
0.0306725377567615
 40
0.0346131504291845
 40
0.0382387167747571
 40
0.041513678083746
 40
0.0445487506114472
 40
0.0473512607828261
 40
0.0499689830847956
 40
0.0512291971939703
 40
0.0512291971939703
 40
0.0512291971939703
 40
0.0512291971939703
 10
1253.218164604648
 20
1508.093706074612
 30
0.0
 10
1253.185582117601
 20
1508.113603818047
 30
0.0
 10
1253.064488810319
 20
1508.187775889775
 30
0.0
 10
1252.845234124069
 20
1508.326463353196
 30
0.0
 10
1252.544725027368
 20
1508.526855932278
 30
0.0
 10
1252.209438369506
 20
1508.765495005643
 30
0.0
 10
1251.86119014566
 20
1509.031995299242
 30
0.0
 10
1251.524255447917
 20
1509.308984187655
 30
0.0
 10
1251.214805664266
 20
1509.582195949001
 30
0.0
 10
1250.929293280117
 20
1509.851589464811
 30
0.0
 10
1250.668776603487
 20
1510.113140487742
 30
0.0
 10
1250.434976512523
 20
1510.362114962375
 30
0.0
 10
1250.226947856943
 20
1510.595987817312
 30
0.0
 10
1250.041518258833
 20
1510.815137338817
 30
0.0
 10
1249.874184298952
 20
1511.02237804607
 30
0.0
 10
1249.745433885186
 20
1511.188847007876
 30
0.0
 10
1249.672075225446
 20
1511.286523666704
 30
0.0
 10
1249.648385666457
 20
1511.318377023081
 30
0.0
 11
1253.218164604648
 21
1508.093706074612
 31
0.0
 11
1253.120547616657
 21
1508.153612431267
 31
0.0
 11
1252.857354268065
 21
1508.320187638003
 31
0.0
 11
1252.564376910342
 21
1508.515711294306
 31
0.0
 11
1252.222390208223
 21
1508.759106552687
 31
0.0
 11
1251.855159503891
 21
1509.040104646262
 31
0.0
 11
1251.520699169287
 21
1509.315278260733
 31
0.0
 11
1251.211270816857
 21
1509.588428942051
 31
0.0
 11
1250.925917218258
 21
1509.857636119411
 31
0.0
 11
1250.66314130442
 21
1510.121495107138
 31
0.0
 11
1250.428612206136
 21
1510.371258673264
 31
0.0
 11
1250.222926067108
 21
1510.602501968774
 31
0.0
 11
1250.037667066931
 21
1510.821457618278
 31
0.0
 11
1249.871277411025
 21
1511.027499436418
 31
0.0
 11
1249.719899703711
 21
1511.223149788868
 31
0.0
 11
1249.648385666457
 21
1511.318377023081
 31
0.0
  0
SPLINE
  5
888
330
1F
100
AcDbEntity
  8
0
  6
Continuous
100
AcDbSpline
210
0.0
220
0.0
230
1.0
 70
     8
 71
     3
 72
    30
 73
    26
 74
    24
 42
0.0000000001
 43
0.0000000001
 44
0.0000000001
 12
-94.48270346533048
 22
1.807967334447179
 32
0.0
 13
-94.49913833706849
 23
0.4035511759336855
 33
0.0
 40
0.0
 40
0.0
 40
0.0
 40
0.0
 40
0.0049262227255195
 40
0.0097848556117871
 40
0.014588467465095
 40
0.0193502515272441
 40
0.0240852282705052
 40
0.0288284661682165
 40
0.0335719250444072
 40
0.0382731110150898
 40
0.0430426862907154
 40
0.0481159300455743
 40
0.0537358320446952
 40
0.060060574140232
 40
0.0671046257365038
 40
0.0748801647341318
 40
0.0834822460346435
 40
0.0930528860280285
 40
0.1037363323726862
 40
0.1156966476743876
 40
0.1291434238590934
 40
0.1443230021733504
 40
0.1615564678437554
 40
0.1812705334144551
 40
0.2039001976825206
 40
0.2039001976825206
 40
0.2039001976825206
 40
0.2039001976825206
 10
1278.377219704486
 20
1506.216008944585
 30
0.0
 10
1278.222072090843
 20
1506.218977761183
 30
0.0
 10
1277.913914378319
 20
1506.225339290098
 30
0.0
 10
1277.454495454684
 20
1506.235747452175
 30
0.0
 10
1277.000261559111
 20
1506.24631915461
 30
0.0
 10
1276.549919529701
 20
1506.256704279765
 30
0.0
 10
1276.101471269649
 20
1506.266716538868
 30
0.0
 10
1275.653591238525
 20
1506.27631056621
 30
0.0
 10
1275.20676729155
 20
1506.285496446362
 30
0.0
 10
1274.759106493158
 20
1506.294331758306
 30
0.0
 10
1274.301052773163
 20
1506.30302474525
 30
0.0
 10
1273.81405749155
 20
1506.311879195068
 30
0.0
 10
1273.278073992234
 20
1506.321142733303
 30
0.0
 10
1272.680009626643
 20
1506.330903486001
 30
0.0
 10
1272.014041232454
 20
1506.341109401378
 30
0.0
 10
1271.276334009452
 20
1506.351668776192
 30
0.0
 10
1270.459035724564
 20
1506.362522688242
 30
0.0
 10
1269.55013360838
 20
1506.373588593514
 30
0.0
 10
1268.535441095062
 20
1506.384750046893
 30
0.0
 10
1267.398642998348
 20
1506.395845583235
 30
0.0
 10
1266.120208661075
 20
1506.406702288812
 30
0.0
 10
1264.675662125075
 20
1506.417199115722
 30
0.0
 10
1263.033688659985
 20
1506.427258148659
 30
0.0
 10
1261.15703126608
 20
1506.436850091746
 30
0.0
 10
1259.823216536974
 20
1506.442697959711
 30
0.0
 10
1259.110388612233
 20
1506.445742035571
 30
0.0
 11
1278.377219704486
 21
1506.216008944585
 31
0.0
 11
1277.911789240032
 21
1506.225540252369
 31
0.0
 11
1277.452763843857
 21
1506.235834279147
 31
0.0
 11
1276.998943961307
 21
1506.24633362603
 31
0.0
 11
1276.549074065234
 21
1506.256668580715
 31
0.0
 11
1276.101729955846
 21
1506.266643310883
 31
0.0
 11
1275.653596846996
 21
1506.276246003977
 31
0.0
 11
1275.205434736106
 21
1506.28546220154
 31
0.0
 11
1274.761259258844
 21
1506.29423352139
 31
0.0
 11
1274.310615530696
 21
1506.302785298929
 31
0.0
 11
1273.831273173202
 21
1506.311498066632
 31
0.0
 11
1273.300271795276
 21
1506.320678911718
 31
0.0
 11
1272.702663377608
 21
1506.330439930131
 31
0.0
 11
1272.037078804067
 21
1506.340649719597
 31
0.0
 11
1271.302365770082
 21
1506.351175989525
 31
0.0
 11
1270.489540831666
 21
1506.361975827519
 31
0.0
 11
1269.585182474995
 21
1506.372994470812
 31
0.0
 11
1268.575657997831
 21
1506.384110874389
 31
0.0
 11
1267.445462246524
 21
1506.395163707772
 31
0.0
 11
1266.174788058889
 21
1506.405994929233
 31
0.0
 11
1264.740356182054
 21
1506.416473665691
 31
0.0
 11
1263.111824678842
 21
1506.426522474377
 31
0.0
 11
1261.24887046543
 21
1506.436170536927
 31
0.0
 11
1259.110388612233
 21
1506.445742035571
 31
0.0
  0
LINE
  5
889
330
1F
100
AcDbEntity
  8
0
  6
Continuous
100
AcDbLine
 10
1278.377219704486
 20
1506.216185338284
 30
0.0
 11
1281.532968372605
 21
1506.572203702724
 31
0.0
  0
SPLINE
  5
88A
330
1F
100
AcDbEntity
  8
0
  6
Continuous
100
AcDbSpline
210
0.0
220
0.0
230
1.0
 70
     8
 71
     3
 72
     8
 73
     4
 74
     2
 42
0.0000000001
 43
0.0000000001
 44
0.0000000001
 12
55.71029002234651
 22
-76.332257831313
 32
0.0
 13
55.76280021146935
 23
-76.29390613001641
 33
0.0
 40
0.0
 40
0.0
 40
0.0
 40
0.0
 40
0.0000684262043287
 40
0.0000684262043287
 40
0.0000684262043287
 40
0.0000684262043287
 10
1249.579626426905
 20
1511.411797700774
 30
0.0
 10
1249.580897108168
 20
1511.410056658544
 30
0.0
 10
1249.582168388415
 20
1511.408316053373
 30
0.0
 10
1249.583440267336
 20
1511.406575885913
 30
0.0
 11
1249.579626426905
 21
1511.411797700774
 31
0.0
 11
1249.583440267336
 21
1511.406575885913
 31
0.0
  0
SPLINE
  5
88B
330
1F
100
AcDbEntity
  8
0
  6
Continuous
100
AcDbSpline
210
0.0
220
0.0
230
1.0
 70
     8
 71
     3
 72
    21
 73
    17
 74
    15
 42
0.0000000001
 43
0.0000000001
 44
0.0000000001
 12
57.52205518100352
 22
74.97641741076716
 32
0.0
 13
80.60347447031093
 23
49.32879385626551
 33
0.0
 40
0.0
 40
0.0
 40
0.0
 40
0.0
 40
0.0018110500056698
 40
0.0048403828870538
 40
0.0081765696765491
 40
0.0117601225593919
 40
0.0158772304989966
 40
0.0201852471440493
 40
0.0245560946991388
 40
0.0289332084353376
 40
0.0332050879671278
 40
0.0372722388293479
 40
0.0410046882432272
 40
0.0442751520213373
 40
0.0476400670627572
 40
0.0489909170885011
 40
0.0489909170885011
 40
0.0489909170885011
 40
0.0489909170885011
 10
1249.763987620328
 20
1538.343082742606
 30
0.0
 10
1249.798712726473
 20
1538.388344756336
 30
0.0
 10
1249.89234301445
 20
1538.508688344765
 30
0.0
 10
1250.054280224743
 20
1538.709006442682
 30
0.0
 10
1250.257373578043
 20
1538.947737586592
 30
0.0
 10
1250.489773747044
 20
1539.206367457035
 30
0.0
 10
1250.751010181899
 20
1539.480039086942
 30
0.0
 10
1251.03873622818
 20
1539.762422794569
 30
0.0
 10
1251.341723740982
 20
1540.04063387456
 30
0.0
 10
1251.65326554387
 20
1540.307487157052
 30
0.0
 10
1251.965995381525
 20
1540.557889056597
 30
0.0
 10
1252.269974156407
 20
1540.786430883985
 30
0.0
 10
1252.554715092279
 20
1540.987804265401
 30
0.0
 10
1252.826180031305
 20
1541.169421908487
 30
0.0
 10
1253.038504703348
 20
1541.30438616935
 30
0.0
 10
1253.164993920342
 20
1541.382275439361
 30
0.0
 10
1253.201288322186
 20
1541.404487373506
 30
0.0
 11
1249.763987620328
 21
1538.343082742606
 31
0.0
 11
1249.869089764334
 21
1538.478152669939
 31
0.0
 11
1250.049079879161
 21
1538.700762624968
 31
0.0
 11
1250.253358998323
 21
1538.940897992467
 31
0.0
 11
1250.479701514328
 21
1539.192790842082
 31
0.0
 11
1250.748329274422
 21
1539.474237149188
 31
0.0
 11
1251.038865508176
 21
1539.759413012176
 31
0.0
 11
1251.343153826134
 21
1540.038724431999
 31
0.0
 11
1251.657256488784
 21
1540.307862482639
 31
0.0
 11
1251.9723180146
 21
1540.560258922732
 31
0.0
 11
1252.279548013512
 21
1540.791194819172
 31
0.0
 11
1252.567516606677
 21
1540.994868571256
 31
0.0
 11
1252.824356521863
 21
1541.166771498979
 31
0.0
 11
1253.092618651942
 21
1541.337503902449
 31
0.0
 11
1253.201288322186
 21
1541.404487373506
 31
0.0
  0
LINE
  5
88C
330
1F
100
AcDbEntity
  8
0
  6
Continuous
100
AcDbLine
 10
1253.470467546441
 20
1541.564518417444
 30
0.0
 11
1254.044786117826
 21
1541.875285466318
 31
0.0
  0
LINE
  5
88D
330
1F
100
AcDbEntity
  8
0
  6
Continuous
100
AcDbLine
 10
1254.044786117826
 20
1541.875285466318
 30
0.0
 11
1254.294815682576
 21
1541.999741645031
 31
0.0
  0
LINE
  5
88E
330
1F
100
AcDbEntity
  8
0
  6
Continuous
100
AcDbLine
 10
1254.294815682576
 20
1541.999741645031
 30
0.0
 11
1254.376910809355
 21
1542.039145414008
 31
0.0
  0
LINE
  5
88F
330
1F
100
AcDbEntity
  8
0
  6
Continuous
100
AcDbLine
 10
1254.376910809355
 20
1542.039145414008
 30
0.0
 11
1254.512063773764
 21
1542.108341621476
 31
0.0
  0
LINE
  5
890
330
1F
100
AcDbEntity
  8
0
  6
Continuous
100
AcDbLine
 10
1278.377219704486
 20
1543.292238046745
 30
0.0
 11
1280.812843407584
 21
1543.02269163322
 31
0.0
  0
LINE
  5
891
330
1F
100
AcDbEntity
  8
0
  6
Continuous
100
AcDbLine
 10
1280.812843407584
 20
1543.02269163322
 30
0.0
 11
1280.954811267869
 21
1543.00570870748
 31
0.0
  0
LINE
  5
892
330
1F
100
AcDbEntity
  8
0
  6
Continuous
100
AcDbLine
 10
1280.954811267869
 20
1543.00570870748
 30
0.0
 11
1281.501583136551
 21
1542.939993152316
 31
0.0
  0
LINE
  5
893
330
1F
100
AcDbEntity
  8
0
  6
Continuous
100
AcDbLine
 10
1281.501583136551
 20
1542.939993152316
 30
0.0
 11
1281.532968372605
 21
1542.936219899615
 31
0.0
  0
SPLINE
  5
894
330
1F
100
AcDbEntity
  8
0
  6
Continuous
100
AcDbSpline
210
0.0
220
0.0
230
1.0
 70
     8
 71
     3
 72
    31
 73
    27
 74
    25
 42
0.0000000001
 43
0.0000000001
 44
0.0000000001
 12
94.49913833707524
 22
0.4035511743503601
 32
0.0
 13
94.48270346457965
 23
1.807967373684165
 33
0.0
 40
0.0
 40
0.0
 40
0.0
 40
0.0
 40
0.0218290283421294
 40
0.0409436234931138
 40
0.0577309734762296
 40
0.0725759386054799
 40
0.0857787332375636
 40
0.0975656312699295
 40
0.1081293350815777
 40
0.1176262897439254
 40
0.1261862962961133
 40
0.1339371518845192
 40
0.1409874518500909
 40
0.1473742969396095
 40
0.1530989868931339
 40
0.1582199761798268
 40
0.1629335096504518
 40
0.1674539586788712
 40
0.1719715074152349
 40
0.1765247667500521
 40
0.1810777485976198
 40
0.1856114871123081
 40
0.1901302250750886
 40
0.1946577745901041
 40
0.1992346953462736
 40
0.2039001984419168
 40
0.2039001984419168
 40
0.2039001984419168
 40
0.2039001984419168
 10
1259.110388612233
 20
1543.062681349424
 30
0.0
 10
1259.797996735273
 20
1543.065617726127
 30
0.0
 10
1261.087708551651
 20
1543.071267369757
 30
0.0
 10
1262.906211101639
 20
1543.080478579181
 30
0.0
 10
1264.504710031531
 20
1543.090112450774
 30
0.0
 10
1265.916980550636
 20
1543.100159463851
 30
0.0
 10
1267.171729550546
 20
1543.110550141542
 30
0.0
 10
1268.291611282679
 20
1543.121189046165
 30
0.0
 10
1269.294752110547
 20
1543.131923664464
 30
0.0
 10
1270.196239942679
 20
1543.142607223771
 30
0.0
 10
1271.009118340731
 20
1543.15312019319
 30
0.0
 10
1271.744923481075
 20
1543.16338426883
 30
0.0
 10
1272.412271289561
 20
1543.17334396146
 30
0.0
 10
1273.015792976581
 20
1543.182935215182
 30
0.0
 10
1273.55854068789
 20
1543.192070961993
 30
0.0
 10
1274.048578883219
 20
1543.200762117435
 30
0.0
 10
1274.50068273962
 20
1543.209149727064
 30
0.0
 10
1274.933775476125
 20
1543.217502233189
 30
0.0
 10
1275.361814254775
 20
1543.226076206879
 30
0.0
 10
1275.790870530422
 20
1543.2350174628
 30
0.0
 10
1276.220429060582
 20
1543.244327779098
 30
0.0
 10
1276.648892238464
 20
1543.253984280499
 30
0.0
 10
1277.076548521429
 20
1543.263882937829
 30
0.0
 10
1277.505563836989
 20
1543.2738490205
 30
0.0
 10
1277.939208032601
 20
1543.283619429337
 30
0.0
 10
1278.230283255995
 20
1543.289602747966
 30
0.0
 10
1278.377219704486
 20
1543.292414440444
 30
0.0
 11
1259.110388612233
 21
1543.062681349424
 31
0.0
 11
1261.17321122342
 21
1543.071892935367
 31
0.0
 11
1262.979516703117
 21
1543.08115813118
 31
0.0
 11
1264.565892058687
 21
1543.090786301446
 31
0.0
 11
1265.968705407314
 21
1543.100816257432
 31
0.0
 11
1267.216326395548
 21
1543.111187273314
 31
0.0
 11
1268.330137793617
 21
1543.121790192236
 31
0.0
 11
1269.328350516771
 21
1543.132484700536
 31
0.0
 11
1270.225749628782
 21
1543.143127167672
 31
0.0
 11
1271.034602533842
 21
1543.153593600231
 31
0.0
 11
1271.766987040496
 21
1543.163816666931
 31
0.0
 11
1272.433166056774
 21
1543.173768565866
 31
0.0
 11
1273.036646600535
 21
1543.183366363886
 31
0.0
 11
1273.577553081009
 21
1543.192476948231
 31
0.0
 11
1274.061410478433
 21
1543.201058285331
 31
0.0
 11
1274.506762801951
 21
1543.209318095629
 31
0.0
 11
1274.933865776878
 21
1543.217557030886
 31
0.0
 11
1275.360688426943
 21
1543.226110944076
 31
0.0
 11
1275.790877998654
 21
1543.235077472614
 31
0.0
 11
1276.221033710998
 21
1543.24440291219
 31
0.0
 11
1276.649363636127
 21
1543.254038434555
 31
0.0
 11
1277.076270892046
 21
1543.263882471204
 31
0.0
 11
1277.504010211021
 21
1543.273763353404
 31
0.0
 11
1277.936421506096
 21
1543.283415668452
 31
0.0
 11
1278.377219704486
 21
1543.292414440444
 31
0.0
  0
SPLINE
  5
895
330
1F
100
AcDbEntity
  8
0
  6
Continuous
100
AcDbSpline
210
0.0
220
0.0
230
1.0
 70
     8
 71
     3
 72
    22
 73
    18
 74
    16
 42
0.0000000001
 43
0.0000000001
 44
0.0000000001
 12
94.49999719706038
 22
-0.0230164199050289
 32
0.0
 13
94.42888538240493
 23
-3.665461149245773
 33
0.0
 40
0.0
 40
0.0
 40
0.0
 40
0.0
 40
0.0203919244039725
 40
0.0406579962107978
 40
0.0610656417112114
 40
0.0810784235112162
 40
0.100496270111221
 40
0.1191203082112258
 40
0.1362917151112264
 40
0.1514443124112282
 40
0.1648088074112276
 40
0.1764441586112313
 40
0.187123888011231
 40
0.1981839970112713
 40
0.2108253773113072
 40
0.2245218198113086
 40
0.2368192651944581
 40
0.2368192651944581
 40
0.2368192651944581
 40
0.2368192651944581
 10
1259.121215609524
 20
1542.945461555474
 30
0.0
 10
1259.763561209235
 20
1542.945305105799
 30
0.0
 10
1261.044288117428
 20
1542.94545716161
 30
0.0
 10
1262.967855819211
 20
1542.945481860099
 30
0.0
 10
1264.879480544394
 20
1542.945454804008
 30
0.0
 10
1266.764386170917
 20
1542.945464681031
 30
0.0
 10
1268.59310816761
 20
1542.945459565038
 30
0.0
 10
1270.332326847131
 20
1542.945462334224
 30
0.0
 10
1271.937190198751
 20
1542.945463094995
 30
0.0
 10
1273.376377863559
 20
1542.945461547842
 30
0.0
 10
1274.641180019058
 20
1542.945462790295
 30
0.0
 10
1275.765086076573
 20
1542.945459112234
 30
0.0
 10
1276.816406484149
 20
1542.945467159303
 30
0.0
 10
1277.899407173753
 20
1542.945435363256
 30
0.0
 10
1279.077475997591
 20
1542.945595858639
 30
0.0
 10
1280.294351291505
 20
1542.944931096579
 30
0.0
 10
1281.113473752854
 20
1542.946481660316
 30
0.0
 10
1281.500551772997
 20
1542.931456390897
 30
0.0
 11
1259.121215609524
 21
1542.945461555474
 31
0.0
 11
1261.048252465313
 21
1542.945423519243
 31
0.0
 11
1262.963396250426
 21
1542.945473216762
 31
0.0
 11
1264.891918750212
 21
1542.945460922317
 31
0.0
 11
1266.783126630274
 21
1542.945462207504
 31
0.0
 11
1268.618113133985
 21
1542.945460865661
 31
0.0
 11
1270.378084734513
 21
1542.945462065794
 31
0.0
 11
1272.000782686475
 21
1542.945462680042
 31
0.0
 11
1273.432703131329
 21
1542.945462009103
 31
0.0
 11
1274.695647908876
 21
1542.945461886233
 31
0.0
 11
1275.795188597236
 21
1542.945461101879
 31
0.0
 11
1276.804423025571
 21
1542.94546095068
 31
0.0
 11
1277.849603326108
 21
1542.945463747885
 31
0.0
 11
1279.044213764407
 21
1542.945460893955
 31
0.0
 11
1280.33852758063
 21
1542.945461687798
 31
0.0
 11
1281.500551772997
 21
1542.931456390897
 31
0.0
  0
LINE
  5
896
330
1F
100
AcDbEntity
  8
0
  6
Continuous
100
AcDbLine
 10
1249.632022197575
 20
1538.168248018584
 30
0.0
 11
1249.643150508148
 21
1538.18327960437
 31
0.0
  0
SPLINE
  5
897
330
1F
100
AcDbEntity
  8
0
  6
Continuous
100
AcDbSpline
210
0.0
220
0.0
230
1.0
 70
     8
 71
     3
 72
    25
 73
    21
 74
    19
 42
0.0000000001
 43
0.0000000001
 44
0.0000000001
 12
-0.0000290620639547
 22
-94.49999999999556
 32
0.0
 13
-94.18039118596785
 23
7.765559610104036
 33
0.0
 40
0.0
 40
0.0
 40
0.0
 40
0.0
 40
0.2004459353019076
 40
0.3939163585757455
 40
0.5906465966561065
 40
0.802136424851114
 40
1.034153568106162
 40
1.291668282276154
 40
1.580068705497119
 40
1.896992656070192
 40
2.241779994309421
 40
2.612121814002955
 40
2.9935652871192
 40
3.374301354226358
 40
3.746209600188154
 40
4.105382896218796
 40
4.449982120847865
 40
4.778973540644315
 40
5.09037103124973
 40
5.345662323643129
 40
5.345662323643129
 40
5.345662323643129
 40
5.345662323643129
 10
1715.051214593146
 20
1596.810477573194
 30
0.0
 10
1715.051212651323
 20
1590.496430611221
 30
0.0
 10
1714.120649730958
 20
1578.066077043533
 30
0.0
 10
1709.939917454678
 20
1559.869489685666
 30
0.0
 10
1702.948539992036
 20
1542.173502017504
 30
0.0
 10
1692.624777368099
 20
1524.74308102128
 30
0.0
 10
1678.356750558596
 20
1507.773075040596
 30
0.0
 10
1660.078160090622
 20
1491.35583704934
 30
0.0
 10
1637.927462834808
 20
1475.538584509131
 30
0.0
 10
1612.232994407712
 20
1460.1297622178
 30
0.0
 10
1582.905452445013
 20
1445.983536285522
 30
0.0
 10
1550.368241152198
 20
1434.18999094612
 30
0.0
 10
1515.601725107274
 20
1425.839052826927
 30
0.0
 10
1480.027948588682
 20
1421.692448924044
 30
0.0
 10
1444.928215660575
 20
1421.892953955888
 30
0.0
 10
1411.203383998483
 20
1426.049183486855
 30
0.0
 10
1379.631405517087
 20
1434.062221838752
 30
0.0
 10
1350.281469207864
 20
1444.535993379473
 30
0.0
 10
1326.31135564484
 20
1459.995473639936
 30
0.0
 10
1308.429906807669
 20
1463.547005809981
 30
0.0
 10
1300.415428879637
 20
1464.207832392996
 30
0.0
 11
1715.051214593146
 21
1596.810477573194
 31
0.0
 11
1713.623160823626
 21
1577.92224409899
 31
0.0
 11
1709.52735488354
 21
1560.103972094928
 31
0.0
 11
1702.692894329968
 21
1542.81479314523
 31
0.0
 11
1692.529353076028
 21
1525.606243476091
 31
0.0
 11
1678.530062964619
 21
1508.731626727566
 31
0.0
 11
1660.53959862665
 21
1492.344367788833
 31
0.0
 11
1638.471228973201
 21
1476.351905336772
 31
0.0
 11
1612.77810403318
 21
1460.962795560487
 31
0.0
 11
1583.422997705067
 21
1446.82452310838
 31
0.0
 11
1550.51035761648
 21
1434.926234704293
 31
0.0
 11
1515.452218699991
 21
1426.543488106871
 31
0.0
 11
1479.712145717717
 21
1422.399118229327
 31
0.0
 11
1444.567346521187
 21
1422.592139119298
 31
0.0
 11
1410.889748248355
 21
1426.819473173938
 31
0.0
 11
1379.290564670846
 21
1434.690083768626
 31
0.0
 11
1350.270236272948
 21
1445.843079438524
 31
0.0
 11
1323.989807308719
 21
1459.082833293832
 31
0.0
 11
1300.415428879637
 21
1464.207832392996
 31
0.0
  0
LINE
  5
898
330
1F
100
AcDbEntity
  8
0
  6
Continuous
100
AcDbLine
 10
1297.275487670661
 20
1464.419772078981
 30
0.0
 11
1297.420747788119
 21
1465.759182750534
 31
0.0
  0
LINE
  5
899
330
1F
100
AcDbEntity
  8
0
  6
Continuous
100
AcDbLine
 10
1297.420747788119
 20
1465.759182750534
 30
0.0
 11
1297.55580596911
 21
1467.004511811386
 31
0.0
  0
SPLINE
  5
89A
330
1F
100
AcDbEntity
  8
0
  6
Continuous
100
AcDbSpline
210
0.0
220
0.0
230
1.0
 70
     8
 71
     3
 72
    25
 73
    21
 74
    19
 42
0.0000000001
 43
0.0000000001
 44
0.0000000001
 12
94.18017673070442
 22
7.768160076445703
 32
0.0
 13
0.0000097003154366
 23
-94.49999999999954
 33
0.0
 40
0.0
 40
0.0
 40
0.0
 40
0.0
 40
0.2556946135278395
 40
0.5657772374123539
 40
0.8923757503880224
 40
1.23415715304338
 40
1.590696773891416
 40
1.960839133129839
 40
2.341387477482683
 40
2.724613956892231
 40
3.098783979044367
 40
3.449300704533844
 40
3.772498306372934
 40
4.065857467991398
 40
4.32548281891954
 40
4.555900760037866
 40
4.763831143508038
 40
4.956233867746159
 40
5.14633797837106
 40
5.34566558584337
 40
5.34566558584337
 40
5.34566558584337
 40
5.34566558584337
 10
1300.415350340732
 20
1729.413240642215
 30
0.0
 10
1308.442471637713
 20
1730.075332871738
 30
0.0
 10
1326.295221681964
 20
1733.62666988958
 30
0.0
 10
1350.178074286498
 20
1749.022601981844
 30
0.0
 10
1379.321923313034
 20
1759.454265233411
 30
0.0
 10
1410.640666965975
 20
1767.456655917607
 30
0.0
 10
1444.127659280793
 20
1771.667743815962
 30
0.0
 10
1479.081065173059
 20
1771.975755063063
 30
0.0
 10
1514.663478102511
 20
1767.951478490195
 30
0.0
 10
1549.622441294584
 20
1759.664896648003
 30
0.0
 10
1582.521819593612
 20
1747.815853286956
 30
0.0
 10
1612.309101806836
 20
1733.469079654906
 30
0.0
 10
1638.448728646533
 20
1717.760239205333
 30
0.0
 10
1660.898351486264
 20
1701.633251307057
 30
0.0
 10
1679.20448711632
 20
1684.983091222641
 30
0.0
 10
1693.261605582593
 20
1667.961108327608
 30
0.0
 10
1703.286543806796
 20
1650.706276159975
 30
0.0
 10
1710.057462776346
 20
1633.309802461111
 30
0.0
 10
1714.136344048041
 20
1615.378009896825
 30
0.0
 10
1715.051213948576
 20
1603.089336255995
 30
0.0
 10
1715.051214593146
 20
1596.810516620645
 30
0.0
 11
1300.415350340732
 21
1729.413240642215
 31
0.0
 11
1324.025388335226
 21
1734.553618822551
 31
0.0
 11
1350.192455524816
 21
1747.742218022908
 31
0.0
 11
1378.992886287782
 21
1758.837013713243
 31
0.0
 11
1410.320841720287
 21
1766.694630397246
 31
0.0
 11
1443.74105265845
 21
1770.973340132943
 31
0.0
 11
1478.718210168466
 21
1771.274376932622
 31
0.0
 11
1514.45449825559
 21
1767.25316983117
 31
0.0
 11
1549.701674480719
 21
1758.937178184958
 31
0.0
 11
1582.979082925031
 21
1746.984031614254
 31
0.0
 11
1612.831005851387
 21
1732.629560238211
 31
0.0
 11
1639.01678886046
 21
1716.909219192363
 31
0.0
 11
1661.411800986294
 21
1700.569171631491
 31
0.0
 11
1679.44303837934
 21
1683.931237192143
 31
0.0
 11
1693.20020062859
 21
1667.053170409265
 31
0.0
 11
1703.055335481435
 21
1650.053874188048
 31
0.0
 11
1709.65245171556
 21
1633.110873563478
 31
0.0
 11
1713.639126523034
 21
1615.59397187798
 31
0.0
 11
1715.051214593146
 21
1596.810516620645
 31
0.0
  0
LINE
  5
89B
330
1F
100
AcDbEntity
  8
0
  6
Continuous
100
AcDbLine
 10
1297.565762517447
 20
1726.524715653239
 30
0.0
 11
1297.51745154705
 21
1726.970174468803
 31
0.0
  0
LINE
  5
89C
330
1F
100
AcDbEntity
  8
0
  6
Continuous
100
AcDbLine
 10
1297.51745154705
 20
1726.970174468803
 30
0.0
 11
1297.420747788119
 21
1727.861850490757
 31
0.0
  0
LINE
  5
89D
330
1F
100
AcDbEntity
  8
0
  6
Continuous
100
AcDbLine
 10
1297.420747788119
 20
1727.861850490757
 30
0.0
 11
1297.275487670661
 21
1729.201261162275
 31
0.0
  0
LINE
  5
89E
330
1F
100
AcDbEntity
  8
0
  6
Continuous
100
AcDbLine
 10
1295.394257195068
 20
1493.803475467865
 30
0.0
 11
1295.328141593103
 21
1494.727071728179
 31
0.0
  0
LINE
  5
89F
330
1F
100
AcDbEntity
  8
0
  6
Continuous
100
AcDbLine
 10
1295.328140997729
 20
1698.893961560348
 30
0.0
 11
1295.394254549095
 21
1699.817529328874
 31
0.0
  0
LINE
  5
8A0
330
1F
100
AcDbEntity
  8
0
  6
Continuous
100
AcDbLine
 10
1468.84256453473
 20
1769.038005052596
 30
0.0
 11
1468.974654962084
 21
1769.035506595418
 31
0.0
  0
ELLIPSE
  5
8A1
330
1F
100
AcDbEntity
  8
0
  6
Continuous
100
AcDbEllipse
 10
1295.597338602284
 20
1686.368538534839
 30
0.0
 11
-9.394192911600002
 21
0.0000000000000006
 31
0.0
210
0.0
220
0.0
230
1.0
 40
0.0174550649
 41
0.0019074738
 42
1.445279564499999
  0
ELLIPSE
  5
8A2
330
1F
100
AcDbEntity
  8
0
  6
Continuous
100
AcDbEllipse
 10
1295.597338602284
 20
1507.252384850156
 30
0.0
 11
-9.394192911600002
 21
0.0000000000000006
 31
0.0
210
0.0
220
0.0
230
1.0
 40
0.0174550649
 41
-1.4452803526
 42
-0.0019074738
  0
ELLIPSE
  5
8A3
330
1F
100
AcDbEntity
  8
0
  6
Continuous
100
AcDbEllipse
 10
1295.597338602284
 20
1686.368538534839
 30
0.0
 11
-9.394192911600002
 21
0.0000000000000006
 31
0.0
210
0.0
220
0.0
230
1.0
 40
0.0174550649
 41
-0.7254882191
 42
-0.2462535691
  0
ELLIPSE
  5
8A4
330
1F
100
AcDbEntity
  8
0
  6
Continuous
100
AcDbEllipse
 10
1295.597338602284
 20
1507.252384850156
 30
0.0
 11
-9.394192902150001
 21
0.0000000000000006
 31
0.0
210
0.0
220
0.0
230
1.0
 40
0.0174550649
 41
0.2462535691
 42
0.7254838951000001
  0
ELLIPSE
  5
8A5
330
1F
100
AcDbEntity
  8
0
  6
Continuous
100
AcDbEllipse
 10
1295.597338602284
 20
1686.368538534839
 30
0.0
 11
-10.0452755907
 21
0.0000000000000006
 31
0.0
210
0.0
220
0.0
230
1.0
 40
0.0174550649
 41
-0.2381737676
 42
-0.0061723277
  0
ELLIPSE
  5
8A6
330
1F
100
AcDbEntity
  8
0
  6
Continuous
100
AcDbEllipse
 10
1295.597338602284
 20
1507.252384850156
 30
0.0
 11
-10.0452755907
 21
0.0000000000000006
 31
0.0
210
0.0
220
0.0
230
1.0
 40
0.0174550649
 41
0.0061723277
 42
0.2381737676
  0
ELLIPSE
  5
8A7
330
1F
100
AcDbEntity
  8
0
  6
Continuous
100
AcDbEllipse
 10
1282.996042358396
 20
1686.069542320881
 30
0.0
 11
-0.4877197731000001
 21
0.0405027850500001
 31
0.0
210
0.0
220
0.0
230
1.0
 40
0.9500920623000002
 41
-1.489931938199999
 42
0.0787374737
  0
ELLIPSE
  5
8A8
330
1F
100
AcDbEntity
  8
0
  6
Continuous
100
AcDbEllipse
 10
1282.996042358396
 20
1507.551381054659
 30
0.0
 11
-0.4877197731000001
 21
-0.04050278505
 31
0.0
210
0.0
220
0.0
230
1.0
 40
0.9500920623000002
 41
-0.0787374737
 42
1.489931938199999
  0
ELLIPSE
  5
8A9
330
1F
100
AcDbEntity
  8
02___PRT_ALL_AXES
  6
Continuous
100
AcDbEllipse
 10
1295.597338602284
 20
1698.465143797876
 30
0.0
 11
-5.208661413900001
 21
0.0000000000000003
 31
0.0
210
0.0
220
0.0
230
1.0
 40
0.0087268678
 41
0.0
 42
1.5000580657
  0
ELLIPSE
  5
8AA
330
1F
100
AcDbEntity
  8
0
  6
Continuous
100
AcDbEllipse
 10
1295.597338602284
 20
1495.155779587154
 30
0.0
 11
-5.208661413900001
 21
0.0000000000000003
 31
0.0
210
0.0
220
0.0
230
1.0
 40
0.0087268678
 41
-1.5085821646
 42
-0.8408513754000001
  0
ELLIPSE
  5
8AB
330
1F
100
AcDbEntity
  8
0
  6
Continuous
100
AcDbEllipse
 10
1295.597338602284
 20
1495.155779587154
 30
0.0
 11
-5.208661413900001
 21
0.0000000000000003
 31
0.0
210
0.0
220
0.0
230
1.0
 40
0.0087268678
 41
0.6314118651000001
 42
0.7184884214000001
  0
ENDSEC
  0
SECTION
  2
OBJECTS
  0
DICTIONARY
  5
C
330
0
100
AcDbDictionary
281
     1
  3
ACAD_COLOR
350
C9
  3
ACAD_GROUP
350
D
  3
ACAD_LAYOUT
350
1A
  3
ACAD_MATERIAL
350
C8
  3
ACAD_MLEADERSTYLE
350
2EC
  3
ACAD_MLINESTYLE
350
17
  3
ACAD_PLOTSETTINGS
350
19
  3
ACAD_PLOTSTYLENAME
350
E
  3
ACAD_SCALELIST
350
2CA
  3
ACAD_TABLESTYLE
350
123
  3
ACAD_VISUALSTYLE
350
296
  3
ACDB_RECOMPOSE_DATA
350
30D
  3
AcDbVariableDictionary
350
9E
  3
AcmDictionary
350
63
  3
AMG
350
49
  3
AMGSNAPSETTINGS
350
413
  0
DICTIONARY
  5
5E2
330
8
100
AcDbDictionary
280
     1
281
     1
  0
DICTIONARY
  5
39F
330
2
100
AcDbDictionary
280
     1
281
     1
  3
ACAD_LAYERSTATES
360
3A0
  0
DICTIONARY
  5
4CB
330
10
100
AcDbDictionary
280
     1
281
     1
  3
ADSK_XREC_LAYER_RECONCILED
360
4CC
  0
DICTIONARY
  5
4CD
330
392
100
AcDbDictionary
280
     1
281
     1
  3
ADSK_XREC_LAYER_RECONCILED
360
4CE
  0
DICTIONARY
  5
639
330
638
100
AcDbDictionary
280
     1
281
     1
  0
DICTIONARY
  5
99
330
1F
100
AcDbDictionary
280
     1
281
     1
  0
DICTIONARY
  5
4C7
330
471
100
AcDbDictionary
280
     1
281
     1
  0
DICTIONARY
  5
C9
102
{ACAD_REACTORS
330
C
102
}
330
C
100
AcDbDictionary
281
     1
  0
DICTIONARY
  5
D
102
{ACAD_REACTORS
330
C
102
}
330
C
100
AcDbDictionary
281
     1
  0
DICTIONARY
  5
1A
102
{ACAD_REACTORS
330
C
102
}
330
C
100
AcDbDictionary
281
     1
  3
Layout1
350
1E
  3
Layout2
350
26
  3
Model
350
22
  0
DICTIONARY
  5
C8
102
{ACAD_REACTORS
330
C
102
}
330
C
100
AcDbDictionary
281
     1
  3
ByBlock
350
294
  3
ByLayer
350
293
  3
Global
350
295
  0
DICTIONARY
  5
2EC
102
{ACAD_REACTORS
330
C
102
}
330
C
100
AcDbDictionary
281
     1
  3
Standard
350
2ED
  0
DICTIONARY
  5
17
102
{ACAD_REACTORS
330
C
102
}
330
C
100
AcDbDictionary
281
     1
  3
Standard
350
18
  0
DICTIONARY
  5
19
102
{ACAD_REACTORS
330
C
102
}
330
C
100
AcDbDictionary
281
     1
  0
ACDBDICTIONARYWDFLT
  5
E
102
{ACAD_REACTORS
330
C
102
}
330
C
100
AcDbDictionary
281
     1
  3
Normal
350
F
100
AcDbDictionaryWithDefault
340
F
  0
DICTIONARY
  5
2CA
102
{ACAD_REACTORS
330
C
102
}
330
C
100
AcDbDictionary
281
     1
  3
A0
350
2CB
  3
A1
350
2CC
  3
A2
350
2CD
  3
A3
350
2CE
  3
A4
350
2CF
  3
A5
350
2D0
  3
A6
350
2D1
  3
A7
350
2D2
  3
A8
350
2D3
  3
A9
350
2D4
  3
B0
350
2D5
  3
B1
350
2D6
  3
B2
350
2D7
  3
B3
350
2D8
  3
B4
350
2D9
  3
B5
350
2DA
  3
B6
350
2DB
  3
B7
350
2DC
  3
B8
350
2DD
  3
B9
350
2DE
  3
C0
350
2DF
  3
C1
350
2E0
  3
C2
350
2E1
  3
C3
350
2E2
  3
C4
350
2E3
  3
C5
350
2E4
  3
C6
350
2E5
  3
C7
350
2E6
  3
C8
350
2E7
  3
C9
350
2E8
  3
D0
350
2E9
  3
D1
350
2EA
  3
D2
350
2EB
  0
DICTIONARY
  5
123
102
{ACAD_REACTORS
330
C
102
}
330
C
100
AcDbDictionary
281
     1
  3
Standard
350
124
  0
DICTIONARY
  5
296
102
{ACAD_REACTORS
330
C
102
}
330
C
100
AcDbDictionary
281
     1
  3
2dWireframe
350
29C
  3
3D Hidden
350
29E
  3
3dWireframe
350
29D
  3
Basic
350
29B
  3
Brighten
350
2A2
  3
ColorChange
350
2A6
  3
Conceptual
350
29F
  3
Dim
350
2A1
  3
Facepattern
350
2A5
  3
Flat
350
297
  3
FlatWithEdges
350
298
  3
Gouraud
350
299
  3
GouraudWithEdges
350
29A
  3
Linepattern
350
2A4
  3
Realistic
350
2A0
  3
Thicken
350
2A3
  0
XRECORD
  5
30D
102
{ACAD_REACTORS
330
C
102
}
330
C
100
AcDbXrecord
280
     1
 90
        1
330
124
  0
DICTIONARY
  5
9E
102
{ACAD_REACTORS
330
C
102
}
330
C
100
AcDbDictionary
281
     1
  3
CANNOSCALE
350
310
  3
CMLEADERSTYLE
350
30E
  3
CTABLESTYLE
350
144
  3
DIMASSOC
350
A0
  3
INDEXCTL
350
9F
  3
LAYEREVAL
350
36B
  3
LAYERNOTIFY
350
36C
  3
LIGHTINGUNITS
350
311
  3
MSLTSCALE
350
30F
  0
DICTIONARY
  5
63
102
{ACAD_REACTORS
330
C
102
}
330
C
100
AcDbDictionary
281
     1
  3
AcmStdDictionary
350
69
  3
AMDTSECTSYM_ARROWCOLOR
350
12C
  0
DICTIONARY
  5
49
102
{ACAD_REACTORS
330
C
102
}
330
C
100
AcDbDictionary
281
     1
  0
DICTIONARY
  5
413
102
{ACAD_REACTORS
330
C
102
}
330
C
100
AcDbDictionary
281
     1
  0
DICTIONARY
  5
3A0
102
{ACAD_REACTORS
330
39F
102
}
330
39F
100
AcDbDictionary
281
     1
  0
XRECORD
  5
4CC
102
{ACAD_REACTORS
330
4CB
102
}
330
4CB
100
AcDbXrecord
280
     1
290
     1
  0
XRECORD
  5
4CE
102
{ACAD_REACTORS
330
4CD
102
}
330
4CD
100
AcDbXrecord
280
     1
290
     1
  0
LAYOUT
  5
1E
102
{ACAD_REACTORS
330
1A
102
}
330
1A
100
AcDbPlotSettings
  1

  2

  4

  6

 40
0.0
 41
0.0
 42
0.0
 43
0.0
 44
0.0
 45
0.0
 46
0.0
 47
0.0
 48
0.0
 49
0.0
140
0.0
141
0.0
142
1.0
143
1.0
 70
   688
 72
     0
 73
     0
 74
     5
  7

 75
    16
147
1.0
 76
     0
 77
     2
 78
   300
148
0.0
149
0.0
100
AcDbLayout
  1
Layout1
 70
     1
 71
     1
 10
0.0
 20
0.0
 11
12.0
 21
9.0
 12
0.0
 22
0.0
 32
0.0
 14
1.000000000000000E+20
 24
1.000000000000000E+20
 34
1.000000000000000E+20
 15
-1.000000000000000E+20
 25
-1.000000000000000E+20
 35
-1.000000000000000E+20
146
0.0
 13
0.0
 23
0.0
 33
0.0
 16
1.0
 26
0.0
 36
0.0
 17
0.0
 27
1.0
 37
0.0
 76
     0
330
1B
  0
LAYOUT
  5
26
102
{ACAD_REACTORS
330
1A
102
}
330
1A
100
AcDbPlotSettings
  1

  2

  4

  6

 40
0.0
 41
0.0
 42
0.0
 43
0.0
 44
0.0
 45
0.0
 46
0.0
 47
0.0
 48
0.0
 49
0.0
140
0.0
141
0.0
142
1.0
143
1.0
 70
   688
 72
     0
 73
     0
 74
     5
  7

 75
    16
147
1.0
 76
     0
 77
     2
 78
   300
148
0.0
149
0.0
100
AcDbLayout
  1
Layout2
 70
     1
 71
     2
 10
0.0
 20
0.0
 11
12.0
 21
9.0
 12
0.0
 22
0.0
 32
0.0
 14
0.0
 24
0.0
 34
0.0
 15
0.0
 25
0.0
 35
0.0
146
0.0
 13
0.0
 23
0.0
 33
0.0
 16
1.0
 26
0.0
 36
0.0
 17
0.0
 27
1.0
 37
0.0
 76
     0
330
23
  0
LAYOUT
  5
22
102
{ACAD_REACTORS
330
1A
102
}
330
1A
100
AcDbPlotSettings
  1

  2

  4

  6

 40
0.0
 41
0.0
 42
0.0
 43
0.0
 44
0.0
 45
0.0
 46
0.0
 47
0.0
 48
0.0
 49
0.0
140
0.0
141
0.0
142
1.0
143
1.0
 70
  1712
 72
     0
 73
     0
 74
     0
  7

 75
     0
147
1.0
 76
     0
 77
     2
 78
   300
148
0.0
149
0.0
100
AcDbLayout
  1
Model
 70
     1
 71
     0
 10
0.0
 20
0.0
 11
12.0
 21
9.0
 12
0.0
 22
0.0
 32
0.0
 14
0.0
 24
0.0
 34
0.0
 15
0.0
 25
0.0
 35
0.0
146
0.0
 13
0.0
 23
0.0
 33
0.0
 16
1.0
 26
0.0
 36
0.0
 17
0.0
 27
1.0
 37
0.0
 76
     0
330
1F
331
291
  0
MATERIAL
  5
294
102
{ACAD_REACTORS
330
C8
102
}
330
C8
100
AcDbMaterial
  1
ByBlock
 73
     1
 78
     1
172
     1
176
     1
270
     1
274
     1
 94
       63
  0
MATERIAL
  5
293
102
{ACAD_REACTORS
330
C8
102
}
330
C8
100
AcDbMaterial
  1
ByLayer
 73
     1
 78
     1
172
     1
176
     1
270
     1
274
     1
 94
       63
  0
MATERIAL
  5
295
102
{ACAD_REACTORS
330
C8
102
}
330
C8
100
AcDbMaterial
  1
Global
 73
     1
 78
     1
172
     1
176
     1
270
     1
274
     1
 94
       63
  0
MLEADERSTYLE
  5
2ED
102
{ACAD_REACTORS
330
2EC
102
}
330
2EC
100
AcDbMLeaderStyle
170
     2
171
     1
172
     0
 90
        2
 40
0.0
 41
0.0
173
     1
 91
-1056964608
340
14
 92
       -2
290
     1
 42
0.09
291
     1
 43
0.36
  3
Standard
 44
0.18
300

342
11
174
     1
178
     6
175
     1
176
     0
 93
-1056964608
 45
0.18
292
     0
297
     0
 46
0.18
 94
-1056964608
 47
1.0
 49
1.0
140
1.0
293
     1
141
0.0
294
     1
177
     0
142
1.0
295
     0
296
     0
143
0.125
1001
ACAD_MLEADERVER
1070
     2
  0
MLINESTYLE
  5
18
102
{ACAD_REACTORS
330
17
102
}
330
17
100
AcDbMlineStyle
  2
STANDARD
 70
     0
  3

 62
   256
 51
90.0
 52
90.0
 71
     2
 49
0.5
 62
   256
  6
BYLAYER
 49
-0.5
 62
   256
  6
BYLAYER
  0
ACDBPLACEHOLDER
  5
F
102
{ACAD_REACTORS
330
E
102
}
330
E
  0
SCALE
  5
2CB
102
{ACAD_REACTORS
330
2CA
102
}
330
2CA
100
AcDbScale
 70
     0
300
1:1
140
1.0
141
1.0
290
     1
  0
SCALE
  5
2CC
102
{ACAD_REACTORS
330
2CA
102
}
330
2CA
100
AcDbScale
 70
     0
300
1:2
140
1.0
141
2.0
290
     0
  0
SCALE
  5
2CD
102
{ACAD_REACTORS
330
2CA
102
}
330
2CA
100
AcDbScale
 70
     0
300
1:4
140
1.0
141
4.0
290
     0
  0
SCALE
  5
2CE
102
{ACAD_REACTORS
330
2CA
102
}
330
2CA
100
AcDbScale
 70
     0
300
1:5
140
1.0
141
5.0
290
     0
  0
SCALE
  5
2CF
102
{ACAD_REACTORS
330
2CA
102
}
330
2CA
100
AcDbScale
 70
     0
300
1:8
140
1.0
141
8.0
290
     0
  0
SCALE
  5
2D0
102
{ACAD_REACTORS
330
2CA
102
}
330
2CA
100
AcDbScale
 70
     0
300
1:10
140
1.0
141
10.0
290
     0
  0
SCALE
  5
2D1
102
{ACAD_REACTORS
330
2CA
102
}
330
2CA
100
AcDbScale
 70
     0
300
1:16
140
1.0
141
16.0
290
     0
  0
SCALE
  5
2D2
102
{ACAD_REACTORS
330
2CA
102
}
330
2CA
100
AcDbScale
 70
     0
300
1:20
140
1.0
141
20.0
290
     0
  0
SCALE
  5
2D3
102
{ACAD_REACTORS
330
2CA
102
}
330
2CA
100
AcDbScale
 70
     0
300
1:30
140
1.0
141
30.0
290
     0
  0
SCALE
  5
2D4
102
{ACAD_REACTORS
330
2CA
102
}
330
2CA
100
AcDbScale
 70
     0
300
1:40
140
1.0
141
40.0
290
     0
  0
SCALE
  5
2D5
102
{ACAD_REACTORS
330
2CA
102
}
330
2CA
100
AcDbScale
 70
     0
300
1:50
140
1.0
141
50.0
290
     0
  0
SCALE
  5
2D6
102
{ACAD_REACTORS
330
2CA
102
}
330
2CA
100
AcDbScale
 70
     0
300
1:100
140
1.0
141
100.0
290
     0
  0
SCALE
  5
2D7
102
{ACAD_REACTORS
330
2CA
102
}
330
2CA
100
AcDbScale
 70
     0
300
2:1
140
2.0
141
1.0
290
     0
  0
SCALE
  5
2D8
102
{ACAD_REACTORS
330
2CA
102
}
330
2CA
100
AcDbScale
 70
     0
300
4:1
140
4.0
141
1.0
290
     0
  0
SCALE
  5
2D9
102
{ACAD_REACTORS
330
2CA
102
}
330
2CA
100
AcDbScale
 70
     0
300
8:1
140
8.0
141
1.0
290
     0
  0
SCALE
  5
2DA
102
{ACAD_REACTORS
330
2CA
102
}
330
2CA
100
AcDbScale
 70
     0
300
10:1
140
10.0
141
1.0
290
     0
  0
SCALE
  5
2DB
102
{ACAD_REACTORS
330
2CA
102
}
330
2CA
100
AcDbScale
 70
     0
300
100:1
140
100.0
141
1.0
290
     0
  0
SCALE
  5
2DC
102
{ACAD_REACTORS
330
2CA
102
}
330
2CA
100
AcDbScale
 70
     0
300
1/128" = 1'-0"
140
0.0078125
141
12.0
290
     0
  0
SCALE
  5
2DD
102
{ACAD_REACTORS
330
2CA
102
}
330
2CA
100
AcDbScale
 70
     0
300
1/64" = 1'-0"
140
0.015625
141
12.0
290
     0
  0
SCALE
  5
2DE
102
{ACAD_REACTORS
330
2CA
102
}
330
2CA
100
AcDbScale
 70
     0
300
1/32" = 1'-0"
140
0.03125
141
12.0
290
     0
  0
SCALE
  5
2DF
102
{ACAD_REACTORS
330
2CA
102
}
330
2CA
100
AcDbScale
 70
     0
300
1/16" = 1'-0"
140
0.0625
141
12.0
290
     0
  0
SCALE
  5
2E0
102
{ACAD_REACTORS
330
2CA
102
}
330
2CA
100
AcDbScale
 70
     0
300
3/32" = 1'-0"
140
0.09375
141
12.0
290
     0
  0
SCALE
  5
2E1
102
{ACAD_REACTORS
330
2CA
102
}
330
2CA
100
AcDbScale
 70
     0
300
1/8" = 1'-0"
140
0.125
141
12.0
290
     0
  0
SCALE
  5
2E2
102
{ACAD_REACTORS
330
2CA
102
}
330
2CA
100
AcDbScale
 70
     0
300
3/16" = 1'-0"
140
0.1875
141
12.0
290
     0
  0
SCALE
  5
2E3
102
{ACAD_REACTORS
330
2CA
102
}
330
2CA
100
AcDbScale
 70
     0
300
1/4" = 1'-0"
140
0.25
141
12.0
290
     0
  0
SCALE
  5
2E4
102
{ACAD_REACTORS
330
2CA
102
}
330
2CA
100
AcDbScale
 70
     0
300
3/8" = 1'-0"
140
0.375
141
12.0
290
     0
  0
SCALE
  5
2E5
102
{ACAD_REACTORS
330
2CA
102
}
330
2CA
100
AcDbScale
 70
     0
300
1/2" = 1'-0"
140
0.5
141
12.0
290
     0
  0
SCALE
  5
2E6
102
{ACAD_REACTORS
330
2CA
102
}
330
2CA
100
AcDbScale
 70
     0
300
3/4" = 1'-0"
140
0.75
141
12.0
290
     0
  0
SCALE
  5
2E7
102
{ACAD_REACTORS
330
2CA
102
}
330
2CA
100
AcDbScale
 70
     0
300
1" = 1'-0"
140
1.0
141
12.0
290
     0
  0
SCALE
  5
2E8
102
{ACAD_REACTORS
330
2CA
102
}
330
2CA
100
AcDbScale
 70
     0
300
1-1/2" = 1'-0"
140
1.5
141
12.0
290
     0
  0
SCALE
  5
2E9
102
{ACAD_REACTORS
330
2CA
102
}
330
2CA
100
AcDbScale
 70
     0
300
3" = 1'-0"
140
3.0
141
12.0
290
     0
  0
SCALE
  5
2EA
102
{ACAD_REACTORS
330
2CA
102
}
330
2CA
100
AcDbScale
 70
     0
300
6" = 1'-0"
140
6.0
141
12.0
290
     0
  0
SCALE
  5
2EB
102
{ACAD_REACTORS
330
2CA
102
}
330
2CA
100
AcDbScale
 70
     0
300
1'-0" = 1'-0"
140
12.0
141
12.0
290
     0
  0
TABLESTYLE
  5
124
102
{ACAD_XDICTIONARY
360
30B
102
}
102
{ACAD_REACTORS
330
123
102
}
330
123
100
AcDbTableStyle
  3
Standard
 70
     0
 71
     0
 40
0.06
 41
0.06
280
     0
281
     0
  7
STANDARD
140
0.18
170
     2
 62
     0
 63
     7
283
     0
 90
      512
 91
        0
  1

274
    -2
284
     1
 64
     0
275
    -2
285
     1
 65
     0
276
    -2
286
     1
 66
     0
277
    -2
287
     1
 67
     0
278
    -2
288
     1
 68
     0
279
    -2
289
     1
 69
     0
  7
STANDARD
140
0.25
170
     5
 62
     0
 63
     7
283
     0
 90
      512
 91
        0
  1

274
    -2
284
     1
 64
     0
275
    -2
285
     1
 65
     0
276
    -2
286
     1
 66
     0
277
    -2
287
     1
 67
     0
278
    -2
288
     1
 68
     0
279
    -2
289
     1
 69
     0
  7
STANDARD
140
0.18
170
     5
 62
     0
 63
     7
283
     0
 90
      512
 91
        0
  1

274
    -2
284
     1
 64
     0
275
    -2
285
     1
 65
     0
276
    -2
286
     1
 66
     0
277
    -2
287
     1
 67
     0
278
    -2
288
     1
 68
     0
279
    -2
289
     1
 69
     0
  0
VISUALSTYLE
  5
29C
102
{ACAD_REACTORS
330
296
102
}
330
296
100
AcDbVisualStyle
  2
2dWireframe
 70
     4
 71
     0
 72
     2
 73
     0
 90
        0
 40
-0.6
 41
-30.0
 62
     5
 63
     7
421
 16777215
 74
     1
 91
        4
 64
     7
 65
   257
 75
     1
175
     1
 42
1.0
 92
        0
 66
   257
 43
1.0
 76
     1
 77
     6
 78
     2
 67
     7
 79
     5
170
     0
171
     0
290
     0
174
     0
 93
        1
 44
0.0
173
     0
291
     0
 45
0.0
  0
VISUALSTYLE
  5
29E
102
{ACAD_REACTORS
330
296
102
}
330
296
100
AcDbVisualStyle
  2
3D Hidden
 70
     6
 71
     1
 72
     2
 73
     2
 90
        0
 40
-0.6
 41
-30.0
 62
     5
 63
     7
421
 16777215
 74
     2
 91
        2
 64
     7
 65
   257
 75
     2
175
     1
 42
40.0
 92
        0
 66
   257
 43
1.0
 76
     1
 77
     6
 78
     2
 67
     7
 79
     3
170
     0
171
     0
290
     0
174
     0
 93
        1
 44
0.0
173
     0
291
     0
 45
0.0
  0
VISUALSTYLE
  5
29D
102
{ACAD_REACTORS
330
296
102
}
330
296
100
AcDbVisualStyle
  2
3dWireframe
 70
     5
 71
     0
 72
     2
 73
     0
 90
        0
 40
-0.6
 41
-30.0
 62
     5
 63
     7
421
 16777215
 74
     1
 91
        4
 64
     7
 65
   257
 75
     1
175
     1
 42
1.0
 92
        0
 66
   257
 43
1.0
 76
     1
 77
     6
 78
     2
 67
     7
 79
     5
170
     0
171
     0
290
     0
174
     0
 93
        1
 44
0.0
173
     0
291
     0
 45
0.0
  0
VISUALSTYLE
  5
29B
102
{ACAD_REACTORS
330
296
102
}
330
296
100
AcDbVisualStyle
  2
Basic
 70
     7
 71
     1
 72
     0
 73
     1
 90
        0
 40
-0.6
 41
-30.0
 62
     5
 63
     7
421
 16777215
 74
     0
 91
        4
 64
     7
 65
   257
 75
     1
175
     1
 42
1.0
 92
        8
 66
     7
 43
1.0
 76
     1
 77
     6
 78
     2
 67
     7
 79
     5
170
     0
171
     0
290
     0
174
     0
 93
        1
 44
0.0
173
     0
291
     1
 45
0.0
  0
VISUALSTYLE
  5
2A2
102
{ACAD_REACTORS
330
296
102
}
330
296
100
AcDbVisualStyle
  2
Brighten
 70
    12
 71
     2
 72
     2
 73
     0
 90
        0
 40
-0.6
 41
-30.0
 62
     5
 63
     7
421
 16777215
 74
     1
 91
        4
 64
     7
 65
   257
 75
     1
175
     1
 42
1.0
 92
        8
 66
     7
 43
1.0
 76
     1
 77
     6
 78
     2
 67
     7
 79
     5
170
     0
171
     0
290
     0
174
     0
 93
        1
 44
50.0
173
     0
291
     1
 45
0.0
  0
VISUALSTYLE
  5
2A6
102
{ACAD_REACTORS
330
296
102
}
330
296
100
AcDbVisualStyle
  2
ColorChange
 70
    16
 71
     2
 72
     2
 73
     3
 90
        0
 40
-0.6
 41
-30.0
 62
     5
 63
     8
421
  8421504
 74
     1
 91
        4
 64
     7
 65
   257
 75
     1
175
     1
 42
1.0
 92
        8
 66
     8
424
  8421504
 43
1.0
 76
     1
 77
     6
 78
     2
 67
     7
 79
     5
170
     0
171
     0
290
     0
174
     0
 93
        1
 44
0.0
173
     0
291
     1
 45
0.0
  0
VISUALSTYLE
  5
29F
102
{ACAD_REACTORS
330
296
102
}
330
296
100
AcDbVisualStyle
  2
Conceptual
 70
     9
 71
     3
 72
     2
 73
     0
 90
        0
 40
-0.6
 41
-30.0
 62
     5
 63
     7
421
 16777215
 74
     2
 91
        2
 64
     7
 65
   257
 75
     1
175
     1
 42
40.0
 92
        8
 66
     7
 43
1.0
 76
     1
 77
     6
 78
     2
 67
     7
 79
     3
170
     0
171
     0
290
     0
174
     0
 93
        1
 44
0.0
173
     0
291
     0
 45
0.0
  0
VISUALSTYLE
  5
2A1
102
{ACAD_REACTORS
330
296
102
}
330
296
100
AcDbVisualStyle
  2
Dim
 70
    11
 71
     2
 72
     2
 73
     0
 90
        0
 40
-0.6
 41
-30.0
 62
     5
 63
     7
421
 16777215
 74
     1
 91
        4
 64
     7
 65
   257
 75
     1
175
     1
 42
1.0
 92
        8
 66
     7
 43
1.0
 76
     1
 77
     6
 78
     2
 67
     7
 79
     5
170
     0
171
     0
290
     0
174
     0
 93
        1
 44
-50.0
173
     0
291
     1
 45
0.0
  0
VISUALSTYLE
  5
2A5
102
{ACAD_REACTORS
330
296
102
}
330
296
100
AcDbVisualStyle
  2
Facepattern
 70
    15
 71
     2
 72
     2
 73
     0
 90
        0
 40
-0.6
 41
-30.0
 62
     5
 63
     7
421
 16777215
 74
     1
 91
        4
 64
     7
 65
   257
 75
     1
175
     1
 42
1.0
 92
        8
 66
     7
 43
1.0
 76
     1
 77
     6
 78
     2
 67
     7
 79
     5
170
     0
171
     0
290
     0
174
     0
 93
        1
 44
0.0
173
     0
291
     1
 45
0.0
  0
VISUALSTYLE
  5
297
102
{ACAD_REACTORS
330
296
102
}
330
296
100
AcDbVisualStyle
  2
Flat
 70
     0
 71
     2
 72
     1
 73
     1
 90
        2
 40
-0.6
 41
30.0
 62
     5
 63
     7
421
 16777215
 74
     0
 91
        4
 64
     7
 65
   257
 75
     1
175
     1
 42
1.0
 92
        8
 66
     7
 43
1.0
 76
     1
 77
     6
 78
     2
 67
     7
 79
     5
170
     0
171
     0
290
     0
174
     0
 93
       13
 44
0.0
173
     0
291
     1
 45
0.0
  0
VISUALSTYLE
  5
298
102
{ACAD_REACTORS
330
296
102
}
330
296
100
AcDbVisualStyle
  2
FlatWithEdges
 70
     1
 71
     2
 72
     1
 73
     1
 90
        2
 40
-0.6
 41
30.0
 62
     5
 63
     7
421
 16777215
 74
     1
 91
        4
 64
     7
 65
   257
 75
     1
175
     1
 42
1.0
 92
        0
 66
   257
 43
1.0
 76
     1
 77
     6
 78
     2
 67
     7
 79
     5
170
     0
171
     0
290
     0
174
     0
 93
       13
 44
0.0
173
     0
291
     1
 45
0.0
  0
VISUALSTYLE
  5
299
102
{ACAD_REACTORS
330
296
102
}
330
296
100
AcDbVisualStyle
  2
Gouraud
 70
     2
 71
     2
 72
     2
 73
     1
 90
        2
 40
-0.6
 41
30.0
 62
     5
 63
     7
421
 16777215
 74
     0
 91
        4
 64
     7
 65
   257
 75
     1
175
     1
 42
1.0
 92
        0
 66
     7
 43
1.0
 76
     1
 77
     6
 78
     2
 67
     7
 79
     5
170
     0
171
     0
290
     0
174
     0
 93
       13
 44
0.0
173
     0
291
     1
 45
0.0
  0
VISUALSTYLE
  5
29A
102
{ACAD_REACTORS
330
296
102
}
330
296
100
AcDbVisualStyle
  2
GouraudWithEdges
 70
     3
 71
     2
 72
     2
 73
     1
 90
        2
 40
-0.6
 41
30.0
 62
     5
 63
     7
421
 16777215
 74
     1
 91
        4
 64
     7
 65
   257
 75
     1
175
     1
 42
1.0
 92
        0
 66
   257
 43
1.0
 76
     1
 77
     6
 78
     2
 67
     7
 79
     5
170
     0
171
     0
290
     0
174
     0
 93
       13
 44
0.0
173
     0
291
     1
 45
0.0
  0
VISUALSTYLE
  5
2A4
102
{ACAD_REACTORS
330
296
102
}
330
296
100
AcDbVisualStyle
  2
Linepattern
 70
    14
 71
     2
 72
     2
 73
     0
 90
        0
 40
-0.6
 41
-30.0
 62
     5
 63
     7
421
 16777215
 74
     1
 91
        4
 64
     7
 65
   257
 75
     7
175
     7
 42
1.0
 92
        8
 66
     7
 43
1.0
 76
     1
 77
     6
 78
     2
 67
     7
 79
     5
170
     0
171
     0
290
     0
174
     0
 93
        1
 44
0.0
173
     0
291
     1
 45
0.0
  0
VISUALSTYLE
  5
2A0
102
{ACAD_REACTORS
330
296
102
}
330
296
100
AcDbVisualStyle
  2
Realistic
 70
     8
 71
     2
 72
     2
 73
     0
 90
        0
 40
-0.6
 41
-30.0
 62
     5
 63
     7
421
 16777215
 74
     1
 91
        0
 64
     7
 65
   257
 75
     1
175
     1
 42
1.0
 92
        8
 66
     8
424
  7895160
 43
1.0
 76
     1
 77
     6
 78
     2
 67
     7
 79
     5
170
     0
171
     0
290
     0
174
     0
 93
       13
 44
0.0
173
     0
291
     0
 45
0.0
  0
VISUALSTYLE
  5
2A3
102
{ACAD_REACTORS
330
296
102
}
330
296
100
AcDbVisualStyle
  2
Thicken
 70
    13
 71
     2
 72
     2
 73
     0
 90
        0
 40
-0.6
 41
-30.0
 62
     5
 63
     7
421
 16777215
 74
     1
 91
        4
 64
     7
 65
   257
 75
     1
175
     1
 42
1.0
 92
       12
 66
     7
 43
1.0
 76
     1
 77
     6
 78
     2
 67
     7
 79
     5
170
     0
171
     0
290
     0
174
     0
 93
        1
 44
0.0
173
     0
291
     1
 45
0.0
  0
DICTIONARYVAR
  5
310
102
{ACAD_REACTORS
330
9E
102
}
330
9E
100
DictionaryVariables
280
     0
  1
1:1
  0
DICTIONARYVAR
  5
30E
102
{ACAD_REACTORS
330
9E
102
}
330
9E
100
DictionaryVariables
280
     0
  1
STANDARD
  0
DICTIONARYVAR
  5
144
102
{ACAD_REACTORS
330
9E
102
}
330
9E
100
DictionaryVariables
280
     0
  1
STANDARD
  0
DICTIONARYVAR
  5
A0
102
{ACAD_REACTORS
330
9E
102
}
330
9E
100
DictionaryVariables
280
     0
  1
2
  0
DICTIONARYVAR
  5
9F
102
{ACAD_REACTORS
330
9E
102
}
330
9E
100
DictionaryVariables
280
     0
  1
1
  0
DICTIONARYVAR
  5
36B
102
{ACAD_REACTORS
330
9E
102
}
330
9E
100
DictionaryVariables
280
     0
  1
1
  0
DICTIONARYVAR
  5
36C
102
{ACAD_REACTORS
330
9E
102
}
330
9E
100
DictionaryVariables
280
     0
  1
15
  0
DICTIONARYVAR
  5
311
102
{ACAD_REACTORS
330
9E
102
}
330
9E
100
DictionaryVariables
280
     0
  1
0
  0
DICTIONARYVAR
  5
30F
102
{ACAD_REACTORS
330
9E
102
}
330
9E
100
DictionaryVariables
280
     0
  1
0
  0
DICTIONARY
  5
69
102
{ACAD_REACTORS
330
63
102
}
330
63
100
AcDbDictionary
281
     1
  0
XRECORD
  5
12C
102
{ACAD_REACTORS
330
63
102
}
330
63
100
AcDbXrecord
280
     1
 90
-1023410169
  0
DICTIONARY
  5
30B
330
124
100
AcDbDictionary
280
     1
281
     1
  3
ACAD_ROUNDTRIP_2008_TABLESTYLE_CELLSTYLEMAP
360
8B2
  0
CELLSTYLEMAP
  5
8B2
102
{ACAD_REACTORS
330
30B
102
}
330
30B
100
AcDbCellStyleMap
 90
        3
300
CELLSTYLE
  1
TABLEFORMAT_BEGIN
 90
        5
170
     1
 91
        0
 92
    32768
 62
   257
 93
        1
300
CONTENTFORMAT
  1
CONTENTFORMAT_BEGIN
 90
        0
 91
        0
 92
      512
 93
        0
300

 40
0.0
140
1.0
 94
        5
 62
     0
340
11
144
0.25
309
CONTENTFORMAT_END
171
     0
 94
        6
 95
        1
302
GRIDFORMAT
  1
GRIDFORMAT_BEGIN
 90
        0
 91
        1
 62
     0
 92
       -2
340
0
 93
        0
 40
0.045
309
GRIDFORMAT_END
 95
        2
302
GRIDFORMAT
  1
GRIDFORMAT_BEGIN
 90
        0
 91
        1
 62
     0
 92
       -2
340
0
 93
        0
 40
0.045
309
GRIDFORMAT_END
 95
        4
302
GRIDFORMAT
  1
GRIDFORMAT_BEGIN
 90
        0
 91
        1
 62
     0
 92
       -2
340
0
 93
        0
 40
0.045
309
GRIDFORMAT_END
 95
        8
302
GRIDFORMAT
  1
GRIDFORMAT_BEGIN
 90
        0
 91
        1
 62
     0
 92
       -2
340
0
 93
        0
 40
0.045
309
GRIDFORMAT_END
 95
       16
302
GRIDFORMAT
  1
GRIDFORMAT_BEGIN
 90
        0
 91
        1
 62
     0
 92
       -2
340
0
 93
        0
 40
0.045
309
GRIDFORMAT_END
 95
       32
302
GRIDFORMAT
  1
GRIDFORMAT_BEGIN
 90
        0
 91
        1
 62
     0
 92
       -2
340
0
 93
        0
 40
0.045
309
GRIDFORMAT_END
309
TABLEFORMAT_END
  1
CELLSTYLE_BEGIN
 90
        1
 91
        1
300
_TITLE
309
CELLSTYLE_END
300
CELLSTYLE
  1
TABLEFORMAT_BEGIN
 90
        5
170
     1
 91
        0
 92
        0
 62
   257
 93
        1
300
CONTENTFORMAT
  1
CONTENTFORMAT_BEGIN
 90
        0
 91
        0
 92
      512
 93
        0
300

 40
0.0
140
1.0
 94
        5
 62
     0
340
11
144
0.18
309
CONTENTFORMAT_END
171
     0
 94
        6
 95
        1
302
GRIDFORMAT
  1
GRIDFORMAT_BEGIN
 90
        0
 91
        1
 62
     0
 92
       -2
340
0
 93
        0
 40
0.045
309
GRIDFORMAT_END
 95
        2
302
GRIDFORMAT
  1
GRIDFORMAT_BEGIN
 90
        0
 91
        1
 62
     0
 92
       -2
340
0
 93
        0
 40
0.045
309
GRIDFORMAT_END
 95
        4
302
GRIDFORMAT
  1
GRIDFORMAT_BEGIN
 90
        0
 91
        1
 62
     0
 92
       -2
340
0
 93
        0
 40
0.045
309
GRIDFORMAT_END
 95
        8
302
GRIDFORMAT
  1
GRIDFORMAT_BEGIN
 90
        0
 91
        1
 62
     0
 92
       -2
340
0
 93
        0
 40
0.045
309
GRIDFORMAT_END
 95
       16
302
GRIDFORMAT
  1
GRIDFORMAT_BEGIN
 90
        0
 91
        1
 62
     0
 92
       -2
340
0
 93
        0
 40
0.045
309
GRIDFORMAT_END
 95
       32
302
GRIDFORMAT
  1
GRIDFORMAT_BEGIN
 90
        0
 91
        1
 62
     0
 92
       -2
340
0
 93
        0
 40
0.045
309
GRIDFORMAT_END
309
TABLEFORMAT_END
  1
CELLSTYLE_BEGIN
 90
        2
 91
        1
300
_HEADER
309
CELLSTYLE_END
300
CELLSTYLE
  1
TABLEFORMAT_BEGIN
 90
        5
170
     1
 91
        0
 92
        0
 62
   257
 93
        1
300
CONTENTFORMAT
  1
CONTENTFORMAT_BEGIN
 90
        0
 91
        0
 92
      512
 93
        0
300

 40
0.0
140
1.0
 94
        2
 62
     0
340
11
144
0.18
309
CONTENTFORMAT_END
171
     0
 94
        6
 95
        1
302
GRIDFORMAT
  1
GRIDFORMAT_BEGIN
 90
        0
 91
        1
 62
     0
 92
       -2
340
0
 93
        0
 40
0.045
309
GRIDFORMAT_END
 95
        2
302
GRIDFORMAT
  1
GRIDFORMAT_BEGIN
 90
        0
 91
        1
 62
     0
 92
       -2
340
0
 93
        0
 40
0.045
309
GRIDFORMAT_END
 95
        4
302
GRIDFORMAT
  1
GRIDFORMAT_BEGIN
 90
        0
 91
        1
 62
     0
 92
       -2
340
0
 93
        0
 40
0.045
309
GRIDFORMAT_END
 95
        8
302
GRIDFORMAT
  1
GRIDFORMAT_BEGIN
 90
        0
 91
        1
 62
     0
 92
       -2
340
0
 93
        0
 40
0.045
309
GRIDFORMAT_END
 95
       16
302
GRIDFORMAT
  1
GRIDFORMAT_BEGIN
 90
        0
 91
        1
 62
     0
 92
       -2
340
0
 93
        0
 40
0.045
309
GRIDFORMAT_END
 95
       32
302
GRIDFORMAT
  1
GRIDFORMAT_BEGIN
 90
        0
 91
        1
 62
     0
 92
       -2
340
0
 93
        0
 40
0.045
309
GRIDFORMAT_END
309
TABLEFORMAT_END
  1
CELLSTYLE_BEGIN
 90
        3
 91
        2
300
_DATA
309
CELLSTYLE_END
  0
ENDSEC
  0
EOF
