  0
SECTION
  2
HEADER
  9
$ACADVER
  1
AC1021
  9
$ACADMAINTVER
 70
    50
  9
$DWGCODEPAGE
  3
ANSI_936
  9
$LASTSAVEDBY
  1
ko69185
  9
$CUSTOMPROPERTYTAG
  1
AmdtFileType
  9
$CUSTOMPROPERTY
  1
84
  9
$INSBASE
 10
0.0
 20
0.0
 30
0.0
  9
$EXTMIN
 10
-613631.3285836422
 20
-71732.86770009601
 30
0.0
  9
$EXTMAX
 10
232431.5512659769
 20
390714.9319632376
 30
0.0
  9
$LIMMIN
 10
0.0
 20
0.0
  9
$LIMMAX
 10
17.0
 20
11.0
  9
$ORTHOMODE
 70
     0
  9
$REGENMODE
 70
     1
  9
$FILLMODE
 70
     1
  9
$QTEXTMODE
 70
     0
  9
$MIRRTEXT
 70
     1
  9
$LTSCALE
 40
1.0
  9
$ATTMODE
 70
     1
  9
$TEXTSIZE
 40
0.2
  9
$TRACEWID
 40
0.05
  9
$TEXTSTYLE
  7
STANDARD
  9
$CLAYER
  8
0
  9
$CELTYPE
  6
ByLayer
  9
$CECOLOR
 62
   256
  9
$CELTSCALE
 40
1.0
  9
$DISPSILH
 70
     0
  9
$DIMSCALE
 40
1.0
  9
$DIMASZ
 40
0.12
  9
$DIMEXO
 40
0.05
  9
$DIMDLI
 40
0.5
  9
$DIMRND
 40
0.0
  9
$DIMDLE
 40
0.0
  9
$DIMEXE
 40
0.1
  9
$DIMTP
 40
0.1
  9
$DIMTM
 40
0.1
  9
$DIMTXT
 40
0.12
  9
$DIMCEN
 40
0.0
  9
$DIMTSZ
 40
0.0
  9
$DIMTOL
 70
     0
  9
$DIMLIM
 70
     0
  9
$DIMTIH
 70
     1
  9
$DIMTOH
 70
     1
  9
$DIMSE1
 70
     0
  9
$DIMSE2
 70
     0
  9
$DIMTAD
 70
     0
  9
$DIMZIN
 70
     7
  9
$DIMBLK
  1

  9
$DIMASO
 70
     1
  9
$DIMSHO
 70
     1
  9
$DIMPOST
  1

  9
$DIMAPOST
  1
mm
  9
$DIMALT
 70
     0
  9
$DIMALTD
 70
     2
  9
$DIMALTF
 40
25.4
  9
$DIMLFAC
 40
1.0
  9
$DIMTOFL
 70
     0
  9
$DIMTVP
 40
0.0
  9
$DIMTIX
 70
     0
  9
$DIMSOXD
 70
     0
  9
$DIMSAH
 70
     0
  9
$DIMBLK1
  1

  9
$DIMBLK2
  1

  9
$DIMSTYLE
  2
AM_ANSI
  9
$DIMCLRD
 70
   256
  9
$DIMCLRE
 70
   256
  9
$DIMCLRT
 70
   140
  9
$DIMTFAC
 40
0.71
  9
$DIMGAP
 40
0.06
  9
$DIMJUST
 70
     0
  9
$DIMSD1
 70
     0
  9
$DIMSD2
 70
     0
  9
$DIMTOLJ
 70
     1
  9
$DIMTZIN
 70
     7
  9
$DIMALTZ
 70
     0
  9
$DIMALTTZ
 70
     0
  9
$DIMUPT
 70
     0
  9
$DIMDEC
 70
     4
  9
$DIMTDEC
 70
     4
  9
$DIMALTU
 70
     2
  9
$DIMALTTD
 70
     4
  9
$DIMTXSTY
  7
STANDARD
  9
$DIMAUNIT
 70
     0
  9
$DIMADEC
 70
     0
  9
$DIMALTRND
 40
0.0
  9
$DIMAZIN
 70
     2
  9
$DIMDSEP
 70
    46
  9
$DIMATFIT
 70
     3
  9
$DIMFRAC
 70
     0
  9
$DIMLDRBLK
  1

  9
$DIMLUNIT
 70
     2
  9
$DIMLWD
 70
    -1
  9
$DIMLWE
 70
    -1
  9
$DIMTMOVE
 70
     0
  9
$DIMFXL
 40
1.0
  9
$DIMFXLON
 70
     0
  9
$DIMJOGANG
 40
0.7853981633974483
  9
$DIMTFILL
 70
     0
  9
$DIMTFILLCLR
 70
     0
  9
$DIMARCSYM
 70
     1
  9
$DIMLTYPE
  6
ByBlock
  9
$DIMLTEX1
  6
ByBlock
  9
$DIMLTEX2
  6
ByBlock
  9
$LUNITS
 70
     2
  9
$LUPREC
 70
     4
  9
$SKETCHINC
 40
0.1
  9
$FILLETRAD
 40
0.125
  9
$AUNITS
 70
     0
  9
$AUPREC
 70
     0
  9
$MENU
  1
.
  9
$ELEVATION
 40
0.0
  9
$PELEVATION
 40
0.0
  9
$THICKNESS
 40
0.0
  9
$LIMCHECK
 70
     0
  9
$CHAMFERA
 40
0.125
  9
$CHAMFERB
 40
0.125
  9
$CHAMFERC
 40
1.0
  9
$CHAMFERD
 40
0.0
  9
$SKPOLY
 70
     0
  9
$TDCREATE
 40
2455294.494064884
  9
$TDUCREATE
 40
2455294.160731551
  9
$TDUPDATE
 40
2455309.581536343
  9
$TDUUPDATE
 40
2455309.248203009
  9
$TDINDWG
 40
0.0139460764
  9
$TDUSRTIMER
 40
0.0139460764
  9
$USRTIMER
 70
     1
  9
$ANGBASE
 50
0.0
  9
$ANGDIR
 70
     0
  9
$PDMODE
 70
     0
  9
$PDSIZE
 40
0.0
  9
$PLINEWID
 40
0.0
  9
$SPLFRAME
 70
     0
  9
$SPLINETYPE
 70
     6
  9
$SPLINESEGS
 70
     8
  9
$HANDSEED
  5
6A8
  9
$SURFTAB1
 70
     6
  9
$SURFTAB2
 70
     6
  9
$SURFTYPE
 70
     6
  9
$SURFU
 70
     6
  9
$SURFV
 70
     6
  9
$UCSBASE
  2

  9
$UCSNAME
  2

  9
$UCSORG
 10
0.0
 20
0.0
 30
0.0
  9
$UCSXDIR
 10
1.0
 20
0.0
 30
0.0
  9
$UCSYDIR
 10
0.0
 20
1.0
 30
0.0
  9
$UCSORTHOREF
  2

  9
$UCSORTHOVIEW
 70
     0
  9
$UCSORGTOP
 10
0.0
 20
0.0
 30
0.0
  9
$UCSORGBOTTOM
 10
0.0
 20
0.0
 30
0.0
  9
$UCSORGLEFT
 10
0.0
 20
0.0
 30
0.0
  9
$UCSORGRIGHT
 10
0.0
 20
0.0
 30
0.0
  9
$UCSORGFRONT
 10
0.0
 20
0.0
 30
0.0
  9
$UCSORGBACK
 10
0.0
 20
0.0
 30
0.0
  9
$PUCSBASE
  2

  9
$PUCSNAME
  2

  9
$PUCSORG
 10
0.0
 20
0.0
 30
0.0
  9
$PUCSXDIR
 10
1.0
 20
0.0
 30
0.0
  9
$PUCSYDIR
 10
0.0
 20
1.0
 30
0.0
  9
$PUCSORTHOREF
  2

  9
$PUCSORTHOVIEW
 70
     0
  9
$PUCSORGTOP
 10
0.0
 20
0.0
 30
0.0
  9
$PUCSORGBOTTOM
 10
0.0
 20
0.0
 30
0.0
  9
$PUCSORGLEFT
 10
0.0
 20
0.0
 30
0.0
  9
$PUCSORGRIGHT
 10
0.0
 20
0.0
 30
0.0
  9
$PUCSORGFRONT
 10
0.0
 20
0.0
 30
0.0
  9
$PUCSORGBACK
 10
0.0
 20
0.0
 30
0.0
  9
$USERI1
 70
     0
  9
$USERI2
 70
     0
  9
$USERI3
 70
     0
  9
$USERI4
 70
     0
  9
$USERI5
 70
     0
  9
$USERR1
 40
0.0
  9
$USERR2
 40
0.0
  9
$USERR3
 40
0.0
  9
$USERR4
 40
0.0
  9
$USERR5
 40
0.0
  9
$WORLDVIEW
 70
     1
  9
$SHADEDGE
 70
     3
  9
$SHADEDIF
 70
    70
  9
$TILEMODE
 70
     1
  9
$MAXACTVP
 70
    64
  9
$PINSBASE
 10
0.0
 20
0.0
 30
0.0
  9
$PLIMCHECK
 70
     0
  9
$PEXTMIN
 10
1.000000000000000E+20
 20
1.000000000000000E+20
 30
1.000000000000000E+20
  9
$PEXTMAX
 10
-1.000000000000000E+20
 20
-1.000000000000000E+20
 30
-1.000000000000000E+20
  9
$PLIMMIN
 10
0.0
 20
0.0
  9
$PLIMMAX
 10
12.0
 20
9.0
  9
$UNITMODE
 70
     0
  9
$VISRETAIN
 70
     1
  9
$PLINEGEN
 70
     0
  9
$PSLTSCALE
 70
     1
  9
$TREEDEPTH
 70
  3020
  9
$CMLSTYLE
  2
Standard
  9
$CMLJUST
 70
     0
  9
$CMLSCALE
 40
1.0
  9
$PROXYGRAPHICS
 70
     1
  9
$MEASUREMENT
 70
     0
  9
$CELWEIGHT
370
    -1
  9
$ENDCAPS
280
     0
  9
$JOINSTYLE
280
     0
  9
$LWDISPLAY
290
     0
  9
$INSUNITS
 70
     1
  9
$HYPERLINKBASE
  1

  9
$STYLESHEET
  1

  9
$XEDIT
290
     1
  9
$CEPSNTYPE
380
     0
  9
$PSTYLEMODE
290
     1
  9
$FINGERPRINTGUID
  2
{06A00FB7-C769-485E-9A8A-348B4DB22770}
  9
$VERSIONGUID
  2
{AA9B78E5-1474-4B1C-8327-8E768360B8ED}
  9
$EXTNAMES
290
     1
  9
$PSVPSCALE
 40
0.0
  9
$OLESTARTUP
290
     0
  9
$SORTENTS
280
   127
  9
$INDEXCTL
280
     0
  9
$HIDETEXT
280
     0
  9
$XCLIPFRAME
290
     0
  9
$HALOGAP
280
     0
  9
$OBSCOLOR
 70
   257
  9
$OBSLTYPE
280
     0
  9
$INTERSECTIONDISPLAY
280
     0
  9
$INTERSECTIONCOLOR
 70
   257
  9
$DIMASSOC
280
     2
  9
$PROJECTNAME
  1

  9
$CAMERADISPLAY
290
     0
  9
$LENSLENGTH
 40
50.0
  9
$CAMERAHEIGHT
 40
0.0
  9
$STEPSPERSEC
 40
2.0
  9
$STEPSIZE
 40
6.0
  9
$3DDWFPREC
 40
2.0
  9
$PSOLWIDTH
 40
0.25
  9
$PSOLHEIGHT
 40
4.0
  9
$LOFTANG1
 40
1.570796326794896
  9
$LOFTANG2
 40
1.570796326794896
  9
$LOFTMAG1
 40
0.0
  9
$LOFTMAG2
 40
0.0
  9
$LOFTPARAM
 70
     7
  9
$LOFTNORMALS
280
     1
  9
$LATITUDE
 40
37.795
  9
$LONGITUDE
 40
-122.394
  9
$NORTHDIRECTION
 40
0.0
  9
$TIMEZONE
 70
 -8000
  9
$LIGHTGLYPHDISPLAY
280
     1
  9
$TILEMODELIGHTSYNCH
280
     1
  9
$CMATERIAL
347
293
  9
$SOLIDHIST
280
     1
  9
$SHOWHIST
280
     1
  9
$DWFFRAME
280
     2
  9
$DGNFRAME
280
     0
  9
$REALWORLDSCALE
290
     1
  9
$INTERFERECOLOR
 62
     1
  9
$INTERFEREOBJVS
345
2A0
  9
$INTERFEREVPVS
346
29D
  9
$CSHADOW
280
     0
  9
$SHADOWPLANELOCATION
 40
0.0
  0
ENDSEC
  0
SECTION
  2
CLASSES
  0
CLASS
  1
ACDBDICTIONARYWDFLT
  2
AcDbDictionaryWithDefault
  3
ObjectDBX Classes
 90
        0
 91
        1
280
     0
281
     0
  0
CLASS
  1
ACME_DOCUMENT
  2
AcMeDbDoc
  3
AcMeServices
 90
     1024
 91
        2
280
     0
281
     0
  0
CLASS
  1
AMGSETTINGSOBJ
  2
AmgSettingsObj
  3
"AcadM|Product Description: AutoCAD Mechanical|Company: Autodesk, Inc."
 90
     1024
 91
        2
280
     0
281
     0
  0
CLASS
  1
ACMESCOPE
  2
AcMeScope
  3
AcMeServices
 90
     1024
 91
        1
280
     0
281
     0
  0
CLASS
  1
ACMECOMMANDHISTORY
  2
AcMeCommandHistory
  3
AcMeServices
 90
     1024
 91
        1
280
     0
281
     0
  0
CLASS
  1
ACIMSYSVARMAN
  2
AcImSysVarManager
  3
AcMeServices
 90
     1024
 91
        5
280
     0
281
     0
  0
CLASS
  1
ACIMREALSYSVAR
  2
AcImRealSysVar
  3
AcMeServices
 90
     1024
 91
        1
280
     0
281
     0
  0
CLASS
  1
ACIMINTSYSVAR
  2
AcImIntSysVar
  3
AcMeServices
 90
     1024
 91
       27
280
     0
281
     0
  0
CLASS
  1
ACMEDRAWINGMAN
  2
AcMeDrawingMan
  3
AcMeServices
 90
     1024
 91
        1
280
     0
281
     0
  0
CLASS
  1
ACMEVIEW
  2
AcMeView
  3
AcMeServices
 90
     1024
 91
        1
280
     0
281
     0
  0
CLASS
  1
ACDBENTITYCACHE
  2
AcMeEntityCache
  3
AcMeServices
 90
     1024
 91
        1
280
     0
281
     0
  0
CLASS
  1
GSMANAGER
  2
AcMeGSManager
  3
AcMeServices
 90
     1024
 91
        1
280
     0
281
     0
  0
CLASS
  1
AMDTINTERNALREACTOR
  2
AmdtInternalReactor
  3
AcMeServices
 90
     1024
 91
        2
280
     0
281
     0
  0
CLASS
  1
ACMESTATEMGR
  2
AcMeStateMgr
  3
AcMeServices
 90
     1024
 91
        1
280
     0
281
     0
  0
CLASS
  1
ACGREFMASTER
  2
AcGrefMaster
  3
AcAttribServices
 90
     1024
 91
        1
280
     0
281
     0
  0
CLASS
  1
ACME_DATABASE
  2
AcMeDbDatabase
  3
AcMeServices
 90
     1024
 91
        3
280
     0
281
     0
  0
CLASS
  1
ACRFINSADJUSTERMGR
  2
AcRfInsAdjusterMgr
  3
AcMeServices
 90
     1024
 91
        1
280
     0
281
     0
  0
CLASS
  1
ACGREFACADMASTER
  2
AcGrefacadMaster
  3
AcGrefServices
 90
     1024
 91
        1
280
     0
281
     0
  0
CLASS
  1
AMIMASTER
  2
AmiMaster
  3
AmiServices
 90
     1024
 91
        1
280
     0
281
     0
  0
CLASS
  1
ACMDATADICTIONARY
  2
AcmDataDictionary
  3
"AcmSymBB|Product Description: AutoCAD Mechanical|Company: Autodesk, Inc."
 90
     1024
 91
        1
280
     0
281
     0
  0
CLASS
  1
ACMDATAENTRYBLOCK
  2
AcmDataEntryBlock
  3
AcmSymBB|Product Description: AutoCAD Mechanical|Company: Autodesk, Inc.
 90
     1024
 91
        0
280
     0
281
     0
  0
CLASS
  1
ACIMSTRSYSVAR
  2
AcImStrSysVar
  3
AcMeServices
 90
     1024
 91
        4
280
     0
281
     0
  0
CLASS
  1
ACMSTANDARDANSI
  2
AcmStandardANSI
  3
"Amdt_StdImp|Product Description: AutoCAD Mechanical|Company: Autodesk, Inc."
 90
     1024
 91
        1
280
     0
281
     0
  0
CLASS
  1
AMGOBJPROPCFG
  2
AmgObjPropCfg
  3
"AmgLay|Product Description: AutoCAD Mechanical|Company: Autodesk, Inc."
 90
     1025
 91
        1
280
     0
281
     0
  0
CLASS
  1
ACMSURFSTANDARDANSI
  2
AcmSurfTextStdANSI
  3
"Amdt_StdImp|Product Description: AutoCAD Mechanical|Company: Autodesk, Inc."
 90
     1024
 91
        1
280
     0
281
     0
  0
CLASS
  1
ACMFCFSTANDARDANSI
  2
AcmFCFStdANSI
  3
"Amdt_StdImp|Product Description: AutoCAD Mechanical|Company: Autodesk, Inc."
 90
     1024
 91
        1
280
     0
281
     0
  0
CLASS
  1
ACMWELDSTANDARDANSI
  2
AcmWeldingStdANSI
  3
"Amdt_StdImp|Product Description: AutoCAD Mechanical|Company: Autodesk, Inc."
 90
     1024
 91
        1
280
     0
281
     0
  0
CLASS
  1
ACMIDSTANDARDANSI
  2
AcmIdStdANSI
  3
"Amdt_StdImp|Product Description: AutoCAD Mechanical|Company: Autodesk, Inc."
 90
     1024
 91
        1
280
     0
281
     0
  0
CLASS
  1
ACMDATUMSTANDARDANSI
  2
AcmDatumStdANSI
  3
"Amdt_StdImp|Product Description: AutoCAD Mechanical|Company: Autodesk, Inc."
 90
     1024
 91
        1
280
     0
281
     0
  0
CLASS
  1
ACMBOMSTANDARDANSI
  2
AcmBOMStdANSI
  3
"Amdt_StdImp|Product Description: AutoCAD Mechanical|Company: Autodesk, Inc."
 90
     1024
 91
        1
280
     0
281
     0
  0
CLASS
  1
ACMDETAILSTANDARDANSI
  2
AmdtDetailSymStdANSI
  3
"Amdt_StdImp|Product Description: AutoCAD Mechanical|Company: Autodesk, Inc."
 90
     1024
 91
        1
280
     0
281
     0
  0
CLASS
  1
ACMSECTIONSTANDARDANSI
  2
AmdtSectionSymStdANSI
  3
"Amdt_StdImp|Product Description: AutoCAD Mechanical|Company: Autodesk, Inc."
 90
     1024
 91
        1
280
     0
281
     0
  0
CLASS
  1
ACMCENTERLINESTANDARDANSI
  2
AmdtCenterLineStdANSI
  3
"Amdt_StdImp|Product Description: AutoCAD Mechanical|Company: Autodesk, Inc."
 90
     1024
 91
        1
280
     0
281
     0
  0
CLASS
  1
ACMNOTESTANDARDANSI
  2
AmdtNoteStdANSI
  3
"Amdt_StdImp|Product Description: AutoCAD Mechanical|Company: Autodesk, Inc."
 90
     1024
 91
        1
280
     0
281
     0
  0
CLASS
  1
ACAMGLAYSTD
  2
AcAmgLayStd
  3
"AmgLay|Product Description: AutoCAD Mechanical|Company: Autodesk, Inc."
 90
     1024
 91
        1
280
     0
281
     0
  0
CLASS
  1
ACAMGDIMSTD
  2
AcAmgDimStd
  3
"AmgDim|Product Description: AutoCAD Mechanical|Company: Autodesk, Inc."
 90
     1024
 91
        1
280
     0
281
     0
  0
CLASS
  1
ACAMGHOLECHARTSTDANSI
  2
AcAmgHoleChartStdANSI
  3
AmgDim|Product Description: AutoCAD Mechanical|Company: Autodesk, Inc.
 90
     1024
 91
        1
280
     0
281
     0
  0
CLASS
  1
ACAMGTITLESTD
  2
AcAmgTitleStd
  3
"AmgTitle|Product Description: AutoCAD Mechanical|Company: Autodesk, Inc."
 90
     4095
 91
        1
280
     0
281
     0
  0
CLASS
  1
LAYER_INDEX
  2
AcDbLayerIndex
  3
ObjectDBX Classes
 90
        0
 91
        0
280
     0
281
     0
  0
CLASS
  1
IDBUFFER
  2
AcDbIdBuffer
  3
ObjectDBX Classes
 90
        0
 91
        0
280
     0
281
     0
  0
CLASS
  1
DICTIONARYVAR
  2
AcDbDictionaryVar
  3
ObjectDBX Classes
 90
        0
 91
        9
280
     0
281
     0
  0
CLASS
  1
AM_DRAWING_MGR
  2
AcDmDwgMgr
  3
AcMechDwgViewMgmt
 90
     1024
 91
        1
280
     0
281
     0
  0
CLASS
  1
AM_DWG_DOCUMENT
  2
AcDmDwgDocument
  3
AcMechDwgViewMgmt
 90
     1024
 91
        1
280
     0
281
     0
  0
CLASS
  1
AM_DWG_SHEET
  2
AcDmSheet
  3
AcMechDwgViewMgmt
 90
     1024
 91
        2
280
     0
281
     0
  0
CLASS
  1
AM_VIEWDIMPARMAP
  2
AcDmViewDimParMap
  3
AcMechDwgViewMgmt
 90
     1024
 91
        2
280
     0
281
     0
  0
CLASS
  1
AM_DWGMGR_NAME
  2
AcDmDwgMgrName
  3
AcMechDwgViewMgmt
 90
     1024
 91
        1
280
     0
281
     0
  0
CLASS
  1
AMDTMENUSTATEMGR
  2
AmdtMenuStateMgr
  3
McadcomServices
 90
     1024
 91
        1
280
     0
281
     0
  0
CLASS
  1
AMDTMCOMMENUSTATE
  2
AmdtMcomMenuState
  3
McadcomServices
 90
     1024
 91
        1
280
     0
281
     0
  0
CLASS
  1
MAPIAMMOUDLE
  2
MApiAmModule
  3
MApiAmServices
 90
     1024
 91
        1
280
     0
281
     0
  0
CLASS
  1
AMDTADMENUSTATE
  2
AmdtAdMenuState
  3
DesignerServices
 90
     1024
 91
        1
280
     0
281
     0
  0
CLASS
  1
ADAPPL
  2
AcAdAppl
  3
DesignerServices
 90
     1024
 91
        1
280
     0
281
     0
  0
CLASS
  1
DEPMGR
  2
AcAdDepMgr
  3
DesignerServices
 90
     1024
 91
        1
280
     0
281
     0
  0
CLASS
  1
PARAMMGR
  2
AcAdParamMgr
  3
DesignerServices
 90
     1024
 91
        1
280
     0
281
     0
  0
CLASS
  1
PARAMSCOPE
  2
AcAdParamScope
  3
DesignerServices
 90
     1024
 91
        1
280
     0
281
     0
  0
CLASS
  1
NAMEDAPPL
  2
AcAdNamedAppl
  3
DesignerServices
 90
     1024
 91
        1
280
     0
281
     0
  0
CLASS
  1
AMDTDMMENUSTATE
  2
AmdtDmMenuState
  3
AcMechDwgViewMgmt
 90
     1024
 91
        1
280
     0
281
     0
  0
CLASS
  1
AMDTAMMENUSTATE
  2
AmdtAmMenuState
  3
DesignerAssemblies
 90
     1024
 91
        1
280
     0
281
     0
  0
CLASS
  1
ACAMPROJECT
  2
AcAmProject
  3
DesignerAssemblies
 90
     1024
 91
        1
280
     0
281
     0
  0
CLASS
  1
ACAMGRCOMPDEF
  2
AcAmGrCompDef
  3
DesignerAssemblies
 90
     1024
 91
        1
280
     0
281
     0
  0
CLASS
  1
ACCMCONTEXT
  2
AcCmContext
  3
DesignerAssemblies
 90
     1024
 91
        1
280
     0
281
     0
  0
CLASS
  1
ACAMCOMPDEF
  2
AcAmCompDef
  3
DesignerAssemblies
 90
     1024
 91
        1
280
     0
281
     0
  0
CLASS
  1
ACAMCOMPDEFMGR
  2
AcAmCompDefMgr
  3
DesignerAssemblies
 90
     1024
 91
        1
280
     0
281
     0
  0
CLASS
  1
AMCONTEXTMGR
  2
AcAmContextMgr
  3
DesignerAssemblies
 90
     1024
 91
        1
280
     0
281
     0
  0
CLASS
  1
ACAMCONTEXTMODELER
  2
AcAmContextModeler
  3
DesignerAssemblies
 90
     1024
 91
        1
280
     0
281
     0
  0
CLASS
  1
ACMTHREADLINESTANDARDANSI
  2
AmdtThreadLineStdANSI
  3
"Amdt_StdImp|Product Description: AutoCAD Mechanical|Company: Autodesk, Inc."
 90
     1024
 91
        1
280
     0
281
     0
  0
CLASS
  1
CATALOGSTATE
  2
AcAmCatalogState
  3
DesignerAssemblies
 90
     1024
 91
        1
280
     0
281
     0
  0
CLASS
  1
ACAMGRCOMPDEFSET
  2
AcAmGrCompDefSet
  3
DesignerAssemblies
 90
     1024
 91
        1
280
     0
281
     0
  0
CLASS
  1
AMDTBROWSERDBTAB
  2
AmdtBrowserDbTab
  3
McadcomServices
 90
     1024
 91
        1
280
     0
281
     0
  0
CLASS
  1
CBROWSERAPPOBJECT
  2
CBrowserAppObject
  3
McadcomServices
 90
     1024
 91
        3
280
     0
281
     0
  0
CLASS
  1
DM_PLACEHOLDER
  2
AcDmSelsetPlaceholder
  3
AcMechDwgViewMgmt
 90
     1024
 91
        1
280
     0
281
     0
  0
CLASS
  1
TABLESTYLE
  2
AcDbTableStyle
  3
ObjectDBX Classes
 90
     4095
 91
        1
280
     0
281
     0
  0
CLASS
  1
AMDTNOTETEMPLATEDB
  2
AmdtNoteTemplateDB
  3
AcmSymBB|Product Description: AutoCAD Mechanical|Company: Autodesk, Inc.
 90
     1024
 91
        6
280
     0
281
     0
  0
CLASS
  1
MATERIAL
  2
AcDbMaterial
  3
ObjectDBX Classes
 90
     1153
 91
        3
280
     0
281
     0
  0
CLASS
  1
VISUALSTYLE
  2
AcDbVisualStyle
  3
ObjectDBX Classes
 90
     4095
 91
       16
280
     0
281
     0
  0
CLASS
  1
ACRFATTGENMGR
  2
AcRfAttGeneralMgr
  3
AcAttribServices
 90
     1024
 91
        0
280
     0
281
     0
  0
CLASS
  1
ACRFOBJATTMGR
  2
AcRfObjAttGroupMgr
  3
AcAttribServices
 90
     1024
 91
        0
280
     0
281
     0
  0
CLASS
  1
ACRFMCADAPIATTHOLDER
  2
AcRfMCADAPIAttHolder
  3
AcAttribServices
 90
     1024
 91
        0
280
     0
281
     0
  0
CLASS
  1
AMDTSYSATTR
  2
AmdtSystemAttribute
  3
AcAttribServices
 90
     1024
 91
        0
280
     0
281
     0
  0
CLASS
  1
ACMTAPERSTANDARDANSI
  2
AcmTaperStdANSI
  3
"Amdt_StdImp|Product Description: AutoCAD Mechanical|Company: Autodesk, Inc."
 90
     1024
 91
        1
280
     0
281
     0
  0
CLASS
  1
CAMSSTRUCTBTNSTATE
  2
StructBtnState
  3
DesignerAssemblies
 90
     1024
 91
        1
280
     0
281
     0
  0
CLASS
  1
SCALE
  2
AcDbScale
  3
ObjectDBX Classes
 90
     1153
 91
       33
280
     0
281
     0
  0
CLASS
  1
MLEADERSTYLE
  2
AcDbMLeaderStyle
  3
ACDB_MLEADERSTYLE_CLASS
 90
     4095
 91
        1
280
     0
281
     0
  0
CLASS
  1
ACMANOOTATIONVIEWSTANDARDANSI
  2
AmdtAnViewStdANSI
  3
"Amdt_StdImp|Product Description: AutoCAD Mechanical|Company: Autodesk, Inc."
 90
     1024
 91
        1
280
     0
281
     0
  0
CLASS
  1
CELLSTYLEMAP
  2
AcDbCellStyleMap
  3
ObjectDBX Classes
 90
     1152
 91
        3
280
     0
281
     0
  0
CLASS
  1
EXACXREFPANELOBJECT
  2
ExAcXREFPanelObject
  3
EXAC_ESW
 90
     1025
 91
        2
280
     0
281
     0
  0
CLASS
  1
NPOCOLLECTION
  2
AcDbImpNonPersistentObjectsCollection
  3
ObjectDBX Classes
 90
     1153
 91
        1
280
     0
281
     0
  0
CLASS
  1
SORTENTSTABLE
  2
AcDbSortentsTable
  3
ObjectDBX Classes
 90
        0
 91
        0
280
     0
281
     0
  0
CLASS
  1
ACMSTANDARDISO
  2
AcmStandardISO
  3
"Amdt_StdImp|Product Description: AutoCAD Mechanical|Company: Autodesk, Inc."
 90
     1024
 91
        0
280
     0
281
     0
  0
CLASS
  1
AMDTEDGESTANDARDISO
  2
AmdtEdgeStdISO
  3
"Amdt_StdImp|Product Description: AutoCAD Mechanical|Company: Autodesk, Inc."
 90
     1024
 91
        0
280
     0
281
     0
  0
CLASS
  1
ACMSURFSTANDARDISO
  2
AcmSurfTextStdISO
  3
"Amdt_StdImp|Product Description: AutoCAD Mechanical|Company: Autodesk, Inc."
 90
     1024
 91
        0
280
     0
281
     0
  0
CLASS
  1
ACMFCFSTANDARDISO
  2
AcmFCFStdISO
  3
"Amdt_StdImp|Product Description: AutoCAD Mechanical|Company: Autodesk, Inc."
 90
     1024
 91
        0
280
     0
281
     0
  0
CLASS
  1
ACMWELDSTANDARDISO
  2
AcmWeldingStdISO
  3
"Amdt_StdImp|Product Description: AutoCAD Mechanical|Company: Autodesk, Inc."
 90
     1024
 91
        0
280
     0
281
     0
  0
CLASS
  1
ACMIDSTANDARDISO
  2
AcmIdStdISO
  3
"Amdt_StdImp|Product Description: AutoCAD Mechanical|Company: Autodesk, Inc."
 90
     1024
 91
        0
280
     0
281
     0
  0
CLASS
  1
ACMDATUMSTANDARDISO
  2
AcmDatumStdISO
  3
"Amdt_StdImp|Product Description: AutoCAD Mechanical|Company: Autodesk, Inc."
 90
     1024
 91
        0
280
     0
281
     0
  0
CLASS
  1
ACMBOMSTANDARDISO
  2
AcmBOMStdISO
  3
"Amdt_StdImp|Product Description: AutoCAD Mechanical|Company: Autodesk, Inc."
 90
     1024
 91
        0
280
     0
281
     0
  0
CLASS
  1
ACMDETAILSTANDARDISO
  2
AmdtDetailSymStdISO
  3
"Amdt_StdImp|Product Description: AutoCAD Mechanical|Company: Autodesk, Inc."
 90
     1024
 91
        0
280
     0
281
     0
  0
CLASS
  1
ACMSECTIONSTANDARDISO
  2
AmdtSectionSymStdISO
  3
"Amdt_StdImp|Product Description: AutoCAD Mechanical|Company: Autodesk, Inc."
 90
     1024
 91
        0
280
     0
281
     0
  0
CLASS
  1
ACMCENTERLINESTANDARDISO
  2
AmdtCenterLineStdISO
  3
"Amdt_StdImp|Product Description: AutoCAD Mechanical|Company: Autodesk, Inc."
 90
     1024
 91
        0
280
     0
281
     0
  0
CLASS
  1
ACMTHREADLINESTANDARDISO
  2
AmdtThreadLineStdISO
  3
"Amdt_StdImp|Product Description: AutoCAD Mechanical|Company: Autodesk, Inc."
 90
     1024
 91
        0
280
     0
281
     0
  0
CLASS
  1
ACMNOTESTANDARDISO
  2
AmdtNoteStdISO
  3
"Amdt_StdImp|Product Description: AutoCAD Mechanical|Company: Autodesk, Inc."
 90
     1024
 91
        0
280
     0
281
     0
  0
CLASS
  1
ACAMGHOLECHARTSTDISO
  2
AcAmgHoleChartStdISO
  3
AmgDim|Product Description: AutoCAD Mechanical|Company: Autodesk, Inc.
 90
     1024
 91
        0
280
     0
281
     0
  0
CLASS
  1
ACMTAPERSTANDARDISO
  2
AcmTaperStdISO
  3
"Amdt_StdImp|Product Description: AutoCAD Mechanical|Company: Autodesk, Inc."
 90
     1024
 91
        0
280
     0
281
     0
  0
CLASS
  1
ACMANOOTATIONVIEWSTANDARDISO
  2
AmdtAnViewStdISO
  3
"Amdt_StdImp|Product Description: AutoCAD Mechanical|Company: Autodesk, Inc."
 90
     1024
 91
        0
280
     0
281
     0
  0
CLASS
  1
ACAMGFILTERDAT
  2
AcAmgFilterDat
  3
"AcadM|Product Description: AutoCAD Mechanical|Company: Autodesk, Inc."
 90
     1024
 91
        0
280
     0
281
     0
  0
ENDSEC
  0
SECTION
  2
TABLES
  0
TABLE
  2
VPORT
  5
8
102
{ACAD_XDICTIONARY
360
4D5
102
}
330
0
100
AcDbSymbolTable
 70
     1
  0
VPORT
  5
291
330
8
100
AcDbSymbolTableRecord
100
AcDbViewportTableRecord
  2
*Active
 70
     0
 10
0.0
 20
0.0
 11
1.0
 21
1.0
 12
1392.798409011069
 22
1209.291250723592
 13
0.0
 23
0.0
 14
0.125
 24
0.125
 15
1.0
 25
1.0
 16
0.0
 26
0.0
 36
1.0
 17
0.0
 27
0.0
 37
0.0
 40
1362.897022496141
 41
1.499342969776609
 42
50.0
 43
0.0
 44
0.0
 50
0.0
 51
0.0
 71
     0
 72
   100
 73
     1
 74
     3
 75
     0
 76
     0
 77
     0
 78
     0
281
     0
 65
     1
110
0.0
120
0.0
130
0.0
111
1.0
121
0.0
131
0.0
112
0.0
122
1.0
132
0.0
 79
     0
146
0.0
348
29C
 60
     3
 61
     5
292
     1
282
     0
141
0.0
142
0.0
 63
   250
421
  3355443
  0
ENDTAB
  0
TABLE
  2
LTYPE
  5
5
330
0
100
AcDbSymbolTable
 70
    19
  0
LTYPE
  5
14
330
5
100
AcDbSymbolTableRecord
100
AcDbLinetypeTableRecord
  2
ByBlock
 70
     0
  3

 72
    65
 73
     0
 40
0.0
  0
LTYPE
  5
15
330
5
100
AcDbSymbolTableRecord
100
AcDbLinetypeTableRecord
  2
ByLayer
 70
     0
  3

 72
    65
 73
     0
 40
0.0
  0
LTYPE
  5
16
330
5
100
AcDbSymbolTableRecord
100
AcDbLinetypeTableRecord
  2
Continuous
 70
     0
  3
Solid line
 72
    65
 73
     0
 40
0.0
  0
LTYPE
  5
6C
330
5
100
AcDbSymbolTableRecord
100
AcDbLinetypeTableRecord
  2
AM_ISO02W050
 70
     0
  3
__ __ __ __ __ __ __ __ __ __ __ __ __ __ __
 72
    65
 73
     2
 40
7.5
 49
6.0
 74
     0
 49
-1.5
 74
     0
  0
LTYPE
  5
6D
330
5
100
AcDbSymbolTableRecord
100
AcDbLinetypeTableRecord
  2
AM_ISO08W050
 70
     0
  3
____ . ____ . ____ . ____ . ____ . ____ . ____
 72
    65
 73
     4
 40
18.0
 49
12.0
 74
     0
 49
-1.5
 74
     0
 49
3.0
 74
     0
 49
-1.5
 74
     0
  0
LTYPE
  5
6E
330
5
100
AcDbSymbolTableRecord
100
AcDbLinetypeTableRecord
  2
AM_ISO09W050
 70
     0
  3
_____ . . _____ . . _____ . . ____ .. ____
 72
    65
 73
     6
 40
22.5
 49
12.0
 74
     0
 49
-1.5
 74
     0
 49
3.0
 74
     0
 49
-1.5
 74
     0
 49
3.0
 74
     0
 49
-1.5
 74
     0
  0
LTYPE
  5
6F
330
5
100
AcDbSymbolTableRecord
100
AcDbLinetypeTableRecord
  2
Amconstr
 70
     0
  3
_______________________
 72
    65
 73
     2
 40
9999.0
 49
9999.0
 74
     0
 49
0.0
 74
     0
  0
LTYPE
  5
70
330
5
100
AcDbSymbolTableRecord
100
AcDbLinetypeTableRecord
  2
AM_ISO08W050x2
 70
     0
  3
__ . __ . __ . __ . __ . __
 72
    65
 73
     4
 40
9.0
 49
6.0
 74
     0
 49
-0.75
 74
     0
 49
1.5
 74
     0
 49
-0.75
 74
     0
  0
LTYPE
  5
71
330
5
100
AcDbSymbolTableRecord
100
AcDbLinetypeTableRecord
  2
AM_ISO02W050x2
 70
     0
  3
 _ _ _ _ _ _ _ _ _ _ _ _
 72
    65
 73
     2
 40
3.75
 49
3.0
 74
     0
 49
-0.75
 74
     0
  0
LTYPE
  5
74
330
5
100
AcDbSymbolTableRecord
100
AcDbLinetypeTableRecord
  2
Amzigzag
 70
     0
  3
/\/-/\/-/\/-/\/-/\/-/\/
 72
    65
 73
     2
 40
11.0001
 49
0.0001
 74
     4
 75
   136
340
254
 46
0.04
 50
0.0
 44
0.0
 45
0.0
 49
-11.0
 74
     0
  0
LTYPE
  5
75
330
5
100
AcDbSymbolTableRecord
100
AcDbLinetypeTableRecord
  2
HIDDEN
 70
     0
  3
Hidden __ __ __ __ __ __ __ __ __ __ __ __ __ _
 72
    65
 73
     2
 40
0.375
 49
0.25
 74
     0
 49
-0.125
 74
     0
  0
LTYPE
  5
76
330
5
100
AcDbSymbolTableRecord
100
AcDbLinetypeTableRecord
  2
CENTER
 70
     0
  3
Center ____ _ ____ _ ____ _ ____ _ ____ _ ____
 72
    65
 73
     4
 40
2.0
 49
1.25
 74
     0
 49
-0.25
 74
     0
 49
0.25
 74
     0
 49
-0.25
 74
     0
  0
LTYPE
  5
77
330
5
100
AcDbSymbolTableRecord
100
AcDbLinetypeTableRecord
  2
PHANTOM2
 70
     0
  3
Phantom (.5x) ___ _ _ ___ _ _ ___ _ _ ___ _ _
 72
    65
 73
     6
 40
1.25
 49
0.625
 74
     0
 49
-0.125
 74
     0
 49
0.125
 74
     0
 49
-0.125
 74
     0
 49
0.125
 74
     0
 49
-0.125
 74
     0
  0
LTYPE
  5
78
330
5
100
AcDbSymbolTableRecord
100
AcDbLinetypeTableRecord
  2
CENTER2
 70
     0
  3
Center (.5x) ___ _ ___ _ ___ _ ___ _ ___ _ ___
 72
    65
 73
     4
 40
1.125
 49
0.75
 74
     0
 49
-0.125
 74
     0
 49
0.125
 74
     0
 49
-0.125
 74
     0
  0
LTYPE
  5
79
330
5
100
AcDbSymbolTableRecord
100
AcDbLinetypeTableRecord
  2
HIDDEN2
 70
     0
  3
Hidden (.5x) _ _ _ _ _ _ _ _ _ _ _ _ _ _ _ _ _
 72
    65
 73
     2
 40
0.1875
 49
0.125
 74
     0
 49
-0.0625
 74
     0
  0
LTYPE
  5
7A
330
5
100
AcDbSymbolTableRecord
100
AcDbLinetypeTableRecord
  2
Amzigzag2
 70
     0
  3
/\/-/\/-/\/-/\/-/\/-/\/
 72
    65
 73
     2
 40
0.4401
 49
0.0001
 74
     4
 75
   136
340
254
 46
0.0016
 50
0.0
 44
0.0
 45
0.0
 49
-0.4400000000000001
 74
     0
  0
LTYPE
  5
87
330
5
100
AcDbSymbolTableRecord
100
AcDbLinetypeTableRecord
  2
ACANSTGB
 70
     0
  3
__ . . __ . .
 72
    65
 73
     6
 40
0.35433070866
 49
0.15748031496
 74
     0
 49
-0.03937007874
 74
     0
 49
0.03937007874
 74
     0
 49
-0.03937007874
 74
     0
 49
0.03937007874
 74
     0
 49
-0.03937007874
 74
     0
  0
LTYPE
  5
88
330
5
100
AcDbSymbolTableRecord
100
AcDbLinetypeTableRecord
  2
ACANSTGL
 70
     0
  3
_ _ _ _ _
 72
    65
 73
     2
 40
0.11811023622
 49
0.07874015748
 74
     0
 49
-0.03937007874
 74
     0
  0
LTYPE
  5
38F
330
5
100
AcDbSymbolTableRecord
100
AcDbLinetypeTableRecord
  2
ACISOWELD
 70
     0
  3
_ _ _ _ _
 72
    65
 73
     2
 40
2.0
 49
2.0
 74
     0
 49
-1.0
 74
     0
  0
LTYPE
  5
390
330
5
100
AcDbSymbolTableRecord
100
AcDbLinetypeTableRecord
  2
ACISOTGB
 70
     0
  3
__ . . __ . .
 72
    65
 73
     6
 40
9.0
 49
4.0
 74
     0
 49
-1.0
 74
     0
 49
1.0
 74
     0
 49
-1.0
 74
     0
 49
1.0
 74
     0
 49
-1.0
 74
     0
  0
LTYPE
  5
391
330
5
100
AcDbSymbolTableRecord
100
AcDbLinetypeTableRecord
  2
ACISOTGL
 70
     0
  3
_ _ _ _ _
 72
    65
 73
     2
 40
3.0
 49
2.0
 74
     0
 49
-1.0
 74
     0
  0
ENDTAB
  0
TABLE
  2
LAYER
  5
2
102
{ACAD_XDICTIONARY
360
39F
102
}
330
0
100
AcDbSymbolTable
 70
     2
  0
LAYER
  5
10
102
{ACAD_XDICTIONARY
360
4CB
102
}
330
2
100
AcDbSymbolTableRecord
100
AcDbLayerTableRecord
  2
0
 70
     0
 62
     7
  6
Continuous
370
    -3
390
F
347
295
  0
LAYER
  5
392
102
{ACAD_XDICTIONARY
360
4CD
102
}
330
2
100
AcDbSymbolTableRecord
100
AcDbLayerTableRecord
  2
Dimension
 70
     0
 62
     2
  6
Continuous
370
    25
390
F
347
295
  0
ENDTAB
  0
TABLE
  2
STYLE
  5
3
330
0
100
AcDbSymbolTable
 70
    10
  0
STYLE
  5
11
330
3
100
AcDbSymbolTableRecord
100
AcDbTextStyleTableRecord
  2
STANDARD
 70
     0
 40
0.0
 41
1.0
 50
0.0
 71
     0
 42
0.2
  3
ROMANS.SHX
  4

  0
STYLE
  5
73
330
3
100
AcDbSymbolTableRecord
100
AcDbTextStyleTableRecord
  2

 70
     1
 40
0.0
 41
1.0
 50
0.0
 71
     0
 42
0.2
  3
ltypeshp.shx
  4

  0
STYLE
  5
7B
330
3
100
AcDbSymbolTableRecord
100
AcDbTextStyleTableRecord
  2
ACANSTS
 70
     0
 40
1.0
 41
1.0
 50
0.0
 71
     0
 42
0.2
  3
romans.shx
  4

  0
STYLE
  5
86
330
3
100
AcDbSymbolTableRecord
100
AcDbTextStyleTableRecord
  2
ACANSGDT
 70
     0
 40
0.0
 41
1.0
 50
0.0
 71
     0
 42
0.2
  3
amgdt.shx
  4

  0
STYLE
  5
13F
330
3
100
AcDbSymbolTableRecord
100
AcDbTextStyleTableRecord
  2
USER1
 70
     0
 40
0.0
 41
1.0
 50
0.0
 71
     0
 42
0.2
  3
TXT.SHX
  4

  0
STYLE
  5
140
330
3
100
AcDbSymbolTableRecord
100
AcDbTextStyleTableRecord
  2
USER2
 70
     0
 40
0.0
 41
1.0
 50
0.0
 71
     0
 42
0.2
  3
SIMPLEX.SHX
  4

  0
STYLE
  5
141
330
3
100
AcDbSymbolTableRecord
100
AcDbTextStyleTableRecord
  2
USER3
 70
     0
 40
0.0
 41
1.0
 50
0.0
 71
     0
 42
0.2
  3
ITALIC.SHX
  4

  0
STYLE
  5
254
330
3
100
AcDbSymbolTableRecord
100
AcDbTextStyleTableRecord
  2

 70
     1
 40
0.0
 41
1.0
 50
0.0
 71
     0
 42
0.2
  3
genltshp.shx
  4

  0
STYLE
  5
393
330
3
100
AcDbSymbolTableRecord
100
AcDbTextStyleTableRecord
  2
ACISOTS
 70
     0
 40
1.0
 41
1.0
 50
0.0
 71
     0
 42
2.5
  3
isocp.shx
  4

  0
STYLE
  5
394
330
3
100
AcDbSymbolTableRecord
100
AcDbTextStyleTableRecord
  2
ACISOGDT
 70
     0
 40
0.0
 41
1.0
 50
0.0
 71
     0
 42
2.5
  3
amgdt.shx
  4

  0
ENDTAB
  0
TABLE
  2
VIEW
  5
6
330
0
100
AcDbSymbolTable
 70
     0
  0
ENDTAB
  0
TABLE
  2
UCS
  5
7
330
0
100
AcDbSymbolTable
 70
     0
  0
ENDTAB
  0
TABLE
  2
APPID
  5
9
330
0
100
AcDbSymbolTable
 70
    15
  0
APPID
  5
12
330
9
100
AcDbSymbolTableRecord
100
AcDbRegAppTableRecord
  2
ACAD
 70
     0
  0
APPID
  5
4E
330
9
100
AcDbSymbolTableRecord
100
AcDbRegAppTableRecord
  2
MCAD_NO_VIS
 70
     0
  0
APPID
  5
4F
330
9
100
AcDbSymbolTableRecord
100
AcDbRegAppTableRecord
  2
ACAD_TEMP_GRAPHIC
 70
     0
  0
APPID
  5
60
330
9
100
AcDbSymbolTableRecord
100
AcDbRegAppTableRecord
  2
ACATTRIBSERVICES
 70
     0
  0
APPID
  5
F7
330
9
100
AcDbSymbolTableRecord
100
AcDbRegAppTableRecord
  2
AD_DRAW
 70
     0
  0
APPID
  5
115
330
9
100
AcDbSymbolTableRecord
100
AcDbRegAppTableRecord
  2
DESIGNERASSEMBLIES
 70
     0
  0
APPID
  5
11A
330
9
100
AcDbSymbolTableRecord
100
AcDbRegAppTableRecord
  2
ACADM_DIM_EDIT
 70
     0
  0
APPID
  5
11B
330
9
100
AcDbSymbolTableRecord
100
AcDbRegAppTableRecord
  2
AMDT_DM_ADJ
 70
     0
  0
APPID
  5
1D3
330
9
100
AcDbSymbolTableRecord
100
AcDbRegAppTableRecord
  2
ACAD_DSTYLE_DIMARC_LENGTH_SYMBOL
 70
     0
  0
APPID
  5
1D4
330
9
100
AcDbSymbolTableRecord
100
AcDbRegAppTableRecord
  2
ACAD_DSTYLE_DIMJOGGED_JOGANGLE_SYMBOL
 70
     0
  0
APPID
  5
2EE
330
9
100
AcDbSymbolTableRecord
100
AcDbRegAppTableRecord
  2
ACAD_MLEADERVER
 70
     0
  0
APPID
  5
39E
330
9
100
AcDbSymbolTableRecord
100
AcDbRegAppTableRecord
  2
ACAD_PSEXT
 70
     0
  0
APPID
  5
4D7
330
9
100
AcDbSymbolTableRecord
100
AcDbRegAppTableRecord
  2
ACAD_DSTYLE_DIM_LINETYPE
 70
     0
  0
APPID
  5
4D8
330
9
100
AcDbSymbolTableRecord
100
AcDbRegAppTableRecord
  2
ACAD_DSTYLE_DIM_EXT1_LINETYPE
 70
     0
  0
APPID
  5
4D9
330
9
100
AcDbSymbolTableRecord
100
AcDbRegAppTableRecord
  2
ACAD_DSTYLE_DIM_EXT2_LINETYPE
 70
     0
  0
ENDTAB
  0
TABLE
  2
DIMSTYLE
  5
A
330
0
100
AcDbSymbolTable
 70
    16
100
AcDbDimStyleTable
 71
     1
340
8C
  0
DIMSTYLE
105
27
330
A
100
AcDbSymbolTableRecord
100
AcDbDimStyleTableRecord
  2
Standard
 70
     0
340
11
  0
DIMSTYLE
105
8C
330
A
100
AcDbSymbolTableRecord
100
AcDbDimStyleTableRecord
  2
AM_ANSI
 70
     0
  4
mm
 41
0.12
 42
0.05
 43
0.5
 44
0.1
 47
0.1
 48
0.1
 78
     7
 79
     2
 90
     1
140
0.12
141
0.0
146
0.71
147
0.06
176
   256
177
   256
178
   140
274
     4
284
     7
340
11
345
14
346
14
347
14
371
    -1
372
    -1
1001
ACAD_DSTYLE_DIMJOGGED_JOGANGLE_SYMBOL
1070
   384
1040
0.7853981633974483
  0
DIMSTYLE
105
8D
330
A
100
AcDbSymbolTableRecord
100
AcDbDimStyleTableRecord
  2
AM_ANSI$3
 70
     0
  4
mm
 41
0.12
 42
0.05
 43
0.5
 44
0.1
 47
0.1
 48
0.1
 78
     7
 79
     2
 90
     1
140
0.12
141
0.0
146
0.71
147
0.06
176
   256
177
   256
178
   140
274
     4
284
     7
288
     1
289
     0
340
11
345
14
346
14
347
14
371
    -1
372
    -1
1001
ACAD_DSTYLE_DIMJOGGED_JOGANGLE_SYMBOL
1070
   384
1040
0.7853981633974483
  0
DIMSTYLE
105
8E
330
A
100
AcDbSymbolTableRecord
100
AcDbDimStyleTableRecord
  2
AM_ANSI$4
 70
     0
  4
mm
 41
0.12
 42
0.05
 43
0.5
 44
0.1
 47
0.1
 48
0.1
 78
     7
 79
     2
 90
     1
140
0.12
141
0.0
146
0.71
147
0.06
176
   256
177
   256
178
   140
274
     4
284
     7
340
11
345
14
346
14
347
14
371
    -1
372
    -1
1001
ACAD_DSTYLE_DIMJOGGED_JOGANGLE_SYMBOL
1070
   384
1040
0.7853981633974483
  0
DIMSTYLE
105
8F
330
A
100
AcDbSymbolTableRecord
100
AcDbDimStyleTableRecord
  2
AM_ANSI$7
 70
     0
  4
mm
 41
0.12
 42
0.05
 43
0.5
 44
0.1
 47
0.1
 48
0.1
 78
     7
 79
     2
 90
     1
140
0.12
141
0.0
146
0.71
147
0.06
176
   256
177
   256
178
   140
274
     4
284
     7
340
11
345
14
346
14
347
14
371
    -1
372
    -1
1001
ACAD_DSTYLE_DIMJOGGED_JOGANGLE_SYMBOL
1070
   384
1040
0.7853981633974483
  0
DIMSTYLE
105
90
330
A
100
AcDbSymbolTableRecord
100
AcDbDimStyleTableRecord
  2
AM_ANSI$SF
 70
     0
  4
mm
 41
0.12
 42
0.05
 43
0.5
 44
0.1
 47
0.1
 48
0.1
 75
     1
 76
     1
 78
     7
 79
     2
 90
     1
140
0.12
141
0.0
146
0.71
147
0.06
176
   256
177
   256
178
   140
274
     4
284
     7
340
11
345
14
346
14
347
14
371
    -1
372
    -1
1001
ACAD_DSTYLE_DIMJOGGED_JOGANGLE_SYMBOL
1070
   384
1040
0.7853981633974483
  0
DIMSTYLE
105
95
330
A
100
AcDbSymbolTableRecord
100
AcDbDimStyleTableRecord
  2
AM_ANSI$SH
 70
     0
  4
mm
 41
0.12
 42
0.05
 43
0.5
 44
0.1
 47
0.1
 48
0.1
 75
     1
 76
     1
 78
     7
 79
     2
 90
     1
140
0.12
141
0.0
146
0.71
147
0.06
173
     1
176
   256
177
   256
178
   140
274
     4
284
     7
340
11
343
91
345
14
346
14
347
14
371
    -1
372
    -1
1001
ACAD_DSTYLE_DIMJOGGED_JOGANGLE_SYMBOL
1070
   384
1040
0.7853981633974483
  0
DIMSTYLE
105
395
330
A
100
AcDbSymbolTableRecord
100
AcDbDimStyleTableRecord
  2
ISO-25
 70
     0
 41
7.0
 42
0.625
 43
3.75
 44
1.25
 77
     1
 78
     8
140
5.0
141
2.5
143
0.03937007874016
147
0.625
171
     3
172
     1
271
     0
272
     0
274
     3
278
    44
283
     0
284
     8
340
11
  0
DIMSTYLE
105
396
330
A
100
AcDbSymbolTableRecord
100
AcDbDimStyleTableRecord
  2
Copie de ISO-25
 70
     0
 41
7.0
 42
0.25
 43
20.0
 44
1.0
 46
10.0
 76
     1
 77
     1
 78
     8
140
5.0
141
2.5
143
0.03937007874016
147
0.625
171
     3
172
     1
173
     1
271
     0
272
     0
274
     3
278
    44
283
     0
284
     8
340
11
344
38C
  0
DIMSTYLE
105
397
330
A
100
AcDbSymbolTableRecord
100
AcDbDimStyleTableRecord
  2
AM_ISO
 70
     0
  4
"
 41
2.5
 42
1.0
 43
10.0
 44
1.0
 47
0.1
 48
0.1
 73
     0
 74
     0
 77
     1
 78
     8
 79
     2
 90
     1
140
3.5
141
0.0
143
0.0393701
146
0.71
147
1.5
172
     1
176
   256
177
   256
178
     2
271
     2
272
     3
274
     4
283
     0
284
     8
340
11
371
    -1
372
    -1
1001
ACAD_DSTYLE_DIMJOGGED_JOGANGLE_SYMBOL
1070
   384
1040
0.7853981633974483
  0
DIMSTYLE
105
398
330
A
100
AcDbSymbolTableRecord
100
AcDbDimStyleTableRecord
  2
AM_ISO$3
 70
     0
  4
"
 41
2.5
 42
1.0
 43
10.0
 44
1.0
 47
0.1
 48
0.1
 73
     0
 77
     1
 78
     8
 79
     2
 90
     1
140
3.5
141
0.0
143
0.0393701
146
0.71
147
1.5
176
   256
177
   256
178
     2
271
     2
272
     3
274
     4
283
     0
284
     8
288
     1
289
     0
340
11
371
    -1
372
    -1
1001
ACAD_DSTYLE_DIMJOGGED_JOGANGLE_SYMBOL
1070
   384
1040
0.7853981633974483
  0
DIMSTYLE
105
399
330
A
100
AcDbSymbolTableRecord
100
AcDbDimStyleTableRecord
  2
AM_ISO$4
 70
     0
  4
"
 41
2.5
 42
1.0
 43
10.0
 44
1.0
 47
0.1
 48
0.1
 73
     0
 77
     1
 78
     8
 79
     2
 90
     1
140
3.5
141
0.0
143
0.0393701
146
0.71
147
1.5
176
   256
177
   256
178
     2
271
     2
272
     3
274
     4
283
     0
284
     8
288
     1
289
     0
340
11
371
    -1
372
    -1
1001
ACAD_DSTYLE_DIMJOGGED_JOGANGLE_SYMBOL
1070
   384
1040
0.7853981633974483
  0
DIMSTYLE
105
39A
330
A
100
AcDbSymbolTableRecord
100
AcDbDimStyleTableRecord
  2
AM_ISO$6
 70
     0
  4
"
 41
2.5
 42
1.0
 43
10.0
 44
1.0
 47
0.1
 48
0.1
 73
     0
 74
     0
 78
     8
 79
     2
 90
     1
140
3.5
141
0.0
143
0.0393701
146
0.71
147
1.5
172
     1
176
   256
177
   256
178
     2
271
     2
272
     3
274
     4
283
     0
284
     8
340
11
371
    -1
372
    -1
1001
ACAD_DSTYLE_DIMJOGGED_JOGANGLE_SYMBOL
1070
   384
1040
0.7853981633974483
  0
DIMSTYLE
105
39B
330
A
100
AcDbSymbolTableRecord
100
AcDbDimStyleTableRecord
  2
AM_ISO$7
 70
     0
  4
"
 41
2.5
 42
1.0
 43
10.0
 44
1.0
 47
0.1
 48
0.1
 73
     0
 74
     0
 77
     1
 78
     8
 79
     2
 90
     1
140
5.0
141
0.0
143
0.0393701
146
0.71
147
1.5
172
     1
176
   256
177
   256
178
     2
271
     2
272
     3
274
     4
283
     0
284
     8
340
11
371
    -1
372
    -1
1001
ACAD_DSTYLE_DIMJOGGED_JOGANGLE_SYMBOL
1070
   384
1040
0.7853981633974483
  0
DIMSTYLE
105
39C
330
A
100
AcDbSymbolTableRecord
100
AcDbDimStyleTableRecord
  2
AM_ISO$SF
 70
     0
  4
"
 41
2.5
 42
1.0
 43
10.0
 44
1.0
 47
0.1
 48
0.1
 73
     0
 74
     0
 75
     1
 76
     1
 77
     1
 78
     8
 79
     2
 90
     1
140
3.5
141
0.0
143
0.0393701
146
0.71
147
1.5
172
     1
176
   256
177
   256
178
     2
271
     2
272
     3
274
     4
283
     0
284
     8
340
11
371
    -1
372
    -1
1001
ACAD_DSTYLE_DIMJOGGED_JOGANGLE_SYMBOL
1070
   384
1040
0.7853981633974483
  0
DIMSTYLE
105
39D
330
A
100
AcDbSymbolTableRecord
100
AcDbDimStyleTableRecord
  2
AM_ISO$SH
 70
     0
  4
"
 41
2.5
 42
1.0
 43
10.0
 44
1.0
 47
0.1
 48
0.1
 73
     0
 74
     0
 75
     1
 76
     1
 77
     1
 78
     8
 79
     2
 90
     1
140
3.5
141
0.0
143
0.0393701
144
2.0
146
0.71
147
1.5
172
     1
173
     1
176
   256
177
   256
178
     2
271
     2
272
     3
274
     4
283
     0
284
     8
340
11
343
91
371
    -1
372
    -1
1001
ACAD_DSTYLE_DIMJOGGED_JOGANGLE_SYMBOL
1070
   384
1040
0.7853981633974483
  0
ENDTAB
  0
TABLE
  2
BLOCK_RECORD
  5
1
330
0
100
AcDbSymbolTable
 70
     7
  0
BLOCK_RECORD
  5
1F
102
{ACAD_XDICTIONARY
360
99
102
}
330
1
100
AcDbSymbolTableRecord
100
AcDbBlockTableRecord
  2
*Model_Space
340
22
 70
     0
280
     1
281
     0
  0
BLOCK_RECORD
  5
1B
330
1
100
AcDbSymbolTableRecord
100
AcDbBlockTableRecord
  2
*Paper_Space
340
1E
 70
     0
280
     1
281
     0
  0
BLOCK_RECORD
  5
23
330
1
100
AcDbSymbolTableRecord
100
AcDbBlockTableRecord
  2
*Paper_Space0
340
26
 70
     0
280
     1
281
     0
  0
BLOCK_RECORD
  5
91
330
1
100
AcDbSymbolTableRecord
100
AcDbBlockTableRecord
  2
GENAXEH
340
0
 70
     0
280
     1
281
     0
  0
BLOCK_RECORD
  5
38C
330
1
100
AcDbSymbolTableRecord
100
AcDbBlockTableRecord
  2
_None
340
0
 70
     0
280
     1
281
     0
  0
BLOCK_RECORD
  5
471
102
{ACAD_XDICTIONARY
360
4C7
102
}
330
1
100
AcDbSymbolTableRecord
100
AcDbBlockTableRecord
  2
A$C0D323CD7
340
0
 70
     1
280
     1
281
     0
  0
ENDTAB
  0
ENDSEC
  0
SECTION
  2
BLOCKS
  0
BLOCK
  5
20
330
1F
100
AcDbEntity
  8
0
100
AcDbBlockBegin
  2
*Model_Space
 70
     0
 10
0.0
 20
0.0
 30
0.0
  3
*Model_Space
  1

  0
ENDBLK
  5
21
330
1F
100
AcDbEntity
  8
0
100
AcDbBlockEnd
  0
BLOCK
  5
1C
330
1B
100
AcDbEntity
 67
     1
  8
0
100
AcDbBlockBegin
  2
*Paper_Space
 70
     0
 10
0.0
 20
0.0
 30
0.0
  3
*Paper_Space
  1

  0
ENDBLK
  5
1D
330
1B
100
AcDbEntity
 67
     1
  8
0
100
AcDbBlockEnd
  0
BLOCK
  5
24
330
23
100
AcDbEntity
 67
     1
  8
0
100
AcDbBlockBegin
  2
*Paper_Space0
 70
     0
 10
0.0
 20
0.0
 30
0.0
  3
*Paper_Space0
  1

  0
ENDBLK
  5
25
330
23
100
AcDbEntity
 67
     1
  8
0
100
AcDbBlockEnd
  0
BLOCK
  5
93
330
91
100
AcDbEntity
  8
0
100
AcDbBlockBegin
  2
GENAXEH
 70
     0
 10
0.0
 20
0.0
 30
0.0
  3
GENAXEH
  1

  0
LINE
  5
92
330
91
100
AcDbEntity
  8
0
100
AcDbLine
 10
-1.0
 20
0.0
 30
0.0
 11
1.0
 21
0.0
 31
0.0
  0
ENDBLK
  5
94
330
91
100
AcDbEntity
  8
0
100
AcDbBlockEnd
  0
BLOCK
  5
38D
330
38C
100
AcDbEntity
  8
0
100
AcDbBlockBegin
  2
_None
 70
     0
 10
0.0
 20
0.0
 30
0.0
  3
_None
  1

  0
ENDBLK
  5
38E
330
38C
100
AcDbEntity
  8
0
100
AcDbBlockEnd
  0
BLOCK
  5
4C8
330
471
100
AcDbEntity
  8
0
100
AcDbBlockBegin
  2
A$C0D323CD7
 70
     0
 10
0.0
 20
0.0
 30
0.0
  3
A$C0D323CD7
  1

  0
LINE
  5
472
330
471
100
AcDbEntity
  8
0
370
    35
100
AcDbLine
 10
221.2550758077017
 20
1233.706342246696
 30
0.0
 11
730.6300669502274
 21
1233.706342246696
 31
0.0
  0
ARC
  5
473
330
471
100
AcDbEntity
  8
0
370
    35
100
AcDbCircle
 10
221.2550758077017
 20
1238.706342246696
 30
0.0
 40
4.999999999999999
100
AcDbArc
 50
226.6612314562431
 51
270.0
  0
ARC
  5
474
330
471
100
AcDbEntity
  8
0
370
    35
100
AcDbCircle
 10
315.3205006165084
 20
1276.338192888978
 30
0.0
 40
423.0272267415036
100
AcDbArc
 50
327.3733272161622
 51
353.4272921167653
  0
ARC
  5
475
330
471
100
AcDbEntity
  8
0
370
    35
100
AcDbCircle
 10
730.6300669502274
 20
1228.706342246698
 30
0.0
 40
4.999999999999999
100
AcDbArc
 50
350.9147464328382
 51
90.0
  0
ARC
  5
476
330
471
100
AcDbEntity
  8
0
370
    35
100
AcDbCircle
 10
600.6917565431144
 20
1231.103274012089
 30
0.0
 40
292.7984818470625
100
AcDbArc
 50
179.490616251053
 51
218.6437495185628
  0
ARC
  5
477
330
471
100
AcDbEntity
  8
0
370
    35
100
AcDbCircle
 10
-941.9233712966375
 20
1169.86352905077
 30
0.0
 40
1593.512676569365
100
AcDbArc
 50
348.1615199596087
 51
355.6233250831374
  0
LINE
  5
478
330
471
100
AcDbEntity
  8
0
370
    35
100
AcDbLine
 10
60.85323516058301
 20
1254.888684421011
 30
0.0
 11
138.6437208391438
 21
842.9489594705227
 31
0.0
  0
LINE
  5
479
330
471
100
AcDbEntity
  8
0
370
    35
100
AcDbLine
 10
138.6437208391438
 20
842.9489594705209
 30
0.0
 11
617.6950161890967
 21
842.9489594705682
 31
0.0
  0
LINE
  5
47A
330
471
100
AcDbEntity
  8
0
370
    35
100
AcDbLine
 10
65.76983758045784
 20
1260.798091175369
 30
0.0
 11
191.7508712969178
 21
1260.798091175369
 31
0.0
  0
ARC
  5
47B
330
471
100
AcDbEntity
  8
0
370
    35
100
AcDbCircle
 10
65.76983758045784
 20
1255.798091175369
 30
0.0
 40
4.999999999999999
100
AcDbArc
 50
90.0
 51
190.4793623872004
  0
LINE
  5
47C
330
471
100
AcDbEntity
  8
0
370
    35
100
AcDbLine
 10
217.8235226320506
 20
1235.069799547555
 30
0.0
 11
195.1824244725688
 21
1259.43463387451
 31
0.0
  0
ARC
  5
47D
330
471
100
AcDbEntity
  8
0
370
    35
100
AcDbCircle
 10
191.7508712969178
 20
1255.798091175369
 30
0.0
 40
4.999999999999999
100
AcDbArc
 50
46.66123145624307
 51
90.0
  0
ARC
  5
47E
330
471
100
AcDbEntity
  8
0
370
    35
100
AcDbCircle
 10
16164.07378489651
 20
764.0173125642868
 30
0.0
 40
15951.30025060118
100
AcDbArc
 50
178.3117769881136
 51
179.7164827554353
  0
LINE
  5
47F
330
471
100
AcDbEntity
  8
0
370
    35
100
AcDbLine
 10
372.0032980505424
 20
1048.25760158795
 30
0.0
 11
672.6377423668203
 21
1048.25760158795
 31
0.0
  0
LINE
  5
480
330
471
100
AcDbEntity
  8
0
370
    35
100
AcDbLine
 10
14.12596683116894
 20
1624.574110617022
 30
0.0
 11
184.4944631544789
 21
1624.574110617022
 31
0.0
  0
ARC
  5
481
330
471
100
AcDbEntity
  8
0
370
    35
100
AcDbCircle
 10
136.0850110806826
 20
1579.823268823244
 30
0.0
 40
65.92505511060963
100
AcDbArc
 50
3.390578722921905
 51
42.75102405474772
  0
ARC
  5
482
330
471
100
AcDbEntity
  8
0
370
    35
100
AcDbCircle
 10
172.6123010072627
 20
1546.903724639416
 30
0.0
 40
176.4953454867487
100
AcDbArc
 50
153.8916238383281
 51
167.9591576237356
  0
LINE
  5
483
330
471
100
AcDbEntity
  8
0
370
    35
100
AcDbLine
 10
0.0000038972214895
 20
1583.722223588744
 30
0.0
 11
201.8946687539577
 21
1583.722223588744
 31
0.0
  0
LINE
  5
484
330
471
100
AcDbEntity
  8
0
370
    35
100
AcDbLine
 10
2.733778402806223
 20
1583.722223588744
 30
0.0
 11
12.34453293499277
 21
1261.120461465487
 31
0.0
  0
LINE
  5
485
330
471
100
AcDbEntity
  8
0
370
    35
100
AcDbLine
 10
12.34453293499277
 20
1261.120461465487
 30
0.0
 11
192.8687189324704
 21
1261.120461465488
 31
0.0
  0
LINE
  5
486
330
471
100
AcDbEntity
  8
0
370
    35
100
AcDbLine
 10
198.447273250364
 20
1583.722223588744
 30
0.0
 11
192.8687189324704
 21
1261.120461465487
 31
0.0
  0
LINE
  5
487
330
471
100
AcDbEntity
  8
0
370
    35
100
AcDbLine
 10
2.176821821747893
 20
365.57954741096
 30
0.0
 11
2.176821821747893
 21
32.51389637142532
 31
0.0
  0
ARC
  5
488
330
471
100
AcDbEntity
  8
0
370
    35
100
AcDbCircle
 10
97.13358415238722
 20
149.5232114776873
 30
0.0
 40
150.6916272855066
100
AcDbArc
 50
230.9395769893662
 51
310.7416846085993
  0
CIRCLE
  5
489
330
471
100
AcDbEntity
  8
0
370
    35
100
AcDbCircle
 10
113.311551998748
 20
199.8323336259437
 30
0.0
 40
29.37854228007564
  0
ARC
  5
48A
330
471
100
AcDbEntity
  8
0
370
    35
100
AcDbCircle
 10
-1320.864496470985
 20
194.8167003858726
 30
0.0
 40
1524.709020902971
100
AcDbArc
 50
353.9965625608881
 51
6.207543385313373
  0
ARC
  5
48B
330
471
100
AcDbEntity
  8
0
370
    35
100
AcDbCircle
 10
448.35448716001
 20
194.2170486240384
 30
0.0
 40
127.7516323296364
100
AcDbArc
 50
177.5977560761246
 51
255.959564671689
  0
ARC
  5
48C
330
471
100
AcDbEntity
  8
0
370
    35
100
AcDbCircle
 10
471.5541225215205
 20
342.9058947296435
 30
0.0
 40
277.9580125312458
100
AcDbArc
 50
258.7571232729894
 51
309.5364022128663
  0
ARC
  5
48D
330
471
100
AcDbEntity
  8
0
370
    35
100
AcDbCircle
 10
598.6141082274447
 20
206.4615146024771
 30
0.0
 40
92.51949084055627
100
AcDbArc
 50
302.6238825733817
 51
342.4865481866892
  0
ARC
  5
48E
330
471
100
AcDbEntity
  8
0
370
    35
100
AcDbCircle
 10
626.1522388661509
 20
202.563951522091
 30
0.0
 40
65.24521748293711
100
AcDbArc
 50
338.4699380050274
 51
357.5293759490599
  0
ARC
  5
48F
330
471
100
AcDbEntity
  8
0
370
    35
100
AcDbCircle
 10
809.4045396904332
 20
199.4191893527823
 30
0.0
 40
398.3394844572585
100
AcDbArc
 50
174.288865180037
 51
185.711134819963
  0
ARC
  5
490
330
471
100
AcDbEntity
  8
0
370
    35
100
AcDbCircle
 10
426.1263926718751
 20
252.4452478235708
 30
0.0
 40
93.58521733456816
100
AcDbArc
 50
261.9631911362343
 51
281.5866474577039
  0
ARC
  5
491
330
471
100
AcDbEntity
  8
0
370
    35
100
AcDbCircle
 10
435.2798234807417
 20
209.3082941856929
 30
0.0
 40
49.48976847067016
100
AcDbArc
 50
281.2360131493879
 51
335.3605107874817
  0
ARC
  5
492
330
471
100
AcDbEntity
  8
0
370
    35
100
AcDbCircle
 10
460.3542150165416
 20
198.4229077165
 30
0.0
 40
22.16728845369287
100
AcDbArc
 50
333.9143800815364
 51
3.353304726148834
  0
CIRCLE
  5
493
330
471
100
AcDbEntity
  8
0
370
    35
100
AcDbCircle
 10
249.224287871621
 20
120.3486658876482
 30
0.0
 40
7.354791558851198
  0
ARC
  5
494
330
471
100
AcDbEntity
  8
0
370
    35
100
AcDbCircle
 10
33.36175591909736
 20
8224.992112616149
 30
0.0
 40
8172.616166939473
100
AcDbArc
 50
271.1496088382292
 51
271.9122857006277
  0
ARC
  5
495
330
471
100
AcDbEntity
  8
0
370
    35
100
AcDbCircle
 10
445.7173505401446
 20
311.0546298810514
 30
0.0
 40
289.9652757630413
100
AcDbArc
 50
241.2117788289877
 51
266.5229260675924
  0
ARC
  5
496
330
471
100
AcDbEntity
  8
0
370
    35
100
AcDbCircle
 10
461.9741403060983
 20
389.892193542104
 30
0.0
 40
369.8208238258552
100
AcDbArc
 50
264.749419369754
 51
290.1681227168195
  0
ARC
  5
497
330
471
100
AcDbEntity
  8
0
370
    35
100
AcDbCircle
 10
475.9552534688013
 20
340.5950694498688
 30
0.0
 40
318.7495268540413
100
AcDbArc
 50
290.8642471758682
 51
318.3396671127445
  0
ARC
  5
498
330
471
100
AcDbEntity
  8
0
370
    35
100
AcDbCircle
 10
576.181100613005
 20
224.9675770889617
 30
0.0
 40
168.1771333295509
100
AcDbArc
 50
325.0884932685018
 51
344.4446973144524
  0
ARC
  5
499
330
471
100
AcDbEntity
  8
0
370
    35
100
AcDbCircle
 10
1829.688228875704
 20
1581.047609839931
 30
0.0
 40
738.7399726035147
100
AcDbArc
 50
177.0231027928112
 51
179.8396850336968
  0
ARC
  5
49A
330
471
100
AcDbEntity
  8
0
370
    35
100
AcDbCircle
 10
1269.491149432477
 20
-882.935272878446
 30
0.0
 40
2508.638769928079
100
AcDbArc
 50
89.04959651079598
 51
94.05843537244575
  0
LINE
  5
49B
330
471
100
AcDbEntity
  8
0
370
    35
100
AcDbLine
 10
1290.709272169377
 20
1583.114619317415
 30
0.0
 11
1090.95114804514
 21
1583.114619317415
 31
0.0
  0
ARC
  5
49C
330
471
100
AcDbEntity
  8
0
370
    35
100
AcDbCircle
 10
11748.4341627546
 20
1794.412086337775
 30
0.0
 40
10655.87428142569
100
AcDbArc
 50
181.1362039634724
 51
182.8322473957555
  0
ARC
  5
49D
330
471
100
AcDbEntity
  8
0
370
    35
100
AcDbCircle
 10
1111.718178711846
 20
1266.78334975449
 30
0.0
 40
6.239998073762667
100
AcDbArc
 50
169.8317956661169
 51
265.4465400828604
  0
LINE
  5
49E
330
471
100
AcDbEntity
  8
0
370
    35
100
AcDbLine
 10
1111.222790027605
 20
1260.563047027766
 30
0.0
 11
1417.969770271666
 21
1260.563047027766
 31
0.0
  0
LINE
  5
49F
330
471
100
AcDbEntity
  8
0
370
    35
100
AcDbLine
 10
1111.222790027609
 20
1260.563047027766
 30
0.0
 11
1111.222790027609
 21
1229.919900190229
 31
0.0
  0
ARC
  5
4A0
330
471
100
AcDbEntity
  8
0
370
    35
100
AcDbCircle
 10
1112.789355653564
 20
1222.708094575732
 30
0.0
 40
7.37999106244168
100
AcDbArc
 50
102.2555318651734
 51
175.0199363137867
  0
ARC
  5
4A1
330
471
100
AcDbEntity
  8
0
370
    35
100
AcDbCircle
 10
1505.233999286778
 20
1225.40598652571
 30
0.0
 40
399.8020679211773
100
AcDbArc
 50
180.2948253294599
 51
205.0493657350803
  0
LINE
  5
4A2
330
471
100
AcDbEntity
  8
0
370
    35
100
AcDbLine
 10
1143.035984505623
 20
1056.130200889843
 30
0.0
 11
1313.905686607672
 21
1056.130200889843
 31
0.0
  0
ARC
  5
4A3
330
471
100
AcDbEntity
  8
0
370
    35
100
AcDbCircle
 10
22558.94499910188
 20
3646.403082848786
 30
0.0
 40
21587.54865432403
100
AcDbArc
 50
186.7235211857158
 51
187.4976828800068
  0
ARC
  5
4A4
330
471
100
AcDbEntity
  8
0
370
    35
100
AcDbCircle
 10
3768.242587848079
 20
1146.615953731759
 30
0.0
 40
2613.340897522081
100
AcDbArc
 50
181.9842371934701
 51
186.9691138383568
  0
LINE
  5
4A5
330
471
100
AcDbEntity
  8
0
370
    35
100
AcDbLine
 10
1290.625783826443
 20
829.5281211423008
 30
0.0
 11
1155.96688032322
 21
829.5281211423008
 31
0.0
  0
LINE
  5
4A6
330
471
100
AcDbEntity
  8
0
370
    35
100
AcDbLine
 10
2.176821821747893
 20
34.08511984092732
 30
0.0
 11
2.176821821747893
 21
367.150770880462
 31
0.0
  0
ARC
  5
4A7
330
471
100
AcDbEntity
  8
0
370
    35
100
AcDbCircle
 10
97.13358415238722
 20
250.1414557742001
 30
0.0
 40
150.6916272855066
100
AcDbArc
 50
49.25831539143458
 51
129.0604230106668
  0
CIRCLE
  5
4A8
330
471
100
AcDbEntity
  8
0
370
    35
100
AcDbCircle
 10
113.311551998748
 20
199.8323336259437
 30
0.0
 40
29.37854228007564
  0
ARC
  5
4A9
330
471
100
AcDbEntity
  8
0
370
    35
100
AcDbCircle
 10
-1320.864496470985
 20
204.8479668660148
 30
0.0
 40
1524.709020902971
100
AcDbArc
 50
353.7924566147385
 51
6.003437439163723
  0
ARC
  5
4AA
330
471
100
AcDbEntity
  8
0
370
    35
100
AcDbCircle
 10
448.35448716001
 20
205.4476186278489
 30
0.0
 40
127.7516323296364
100
AcDbArc
 50
104.0404353283109
 51
182.4022439238754
  0
ARC
  5
4AB
330
471
100
AcDbEntity
  8
0
370
    35
100
AcDbCircle
 10
471.5541225215205
 20
56.75877252224385
 30
0.0
 40
277.9580125312458
100
AcDbArc
 50
50.46359778713367
 51
101.2428767270105
  0
ARC
  5
4AC
330
471
100
AcDbEntity
  8
0
370
    35
100
AcDbCircle
 10
598.6141082274447
 20
193.2031526494102
 30
0.0
 40
92.51949084055627
100
AcDbArc
 50
17.51345181319831
 51
57.37611742659016
  0
ARC
  5
4AD
330
471
100
AcDbEntity
  8
0
370
    35
100
AcDbCircle
 10
626.1522388661509
 20
197.1007157297963
 30
0.0
 40
65.24521748293711
100
AcDbArc
 50
2.470624050940038
 51
21.53006199502116
  0
ARC
  5
4AE
330
471
100
AcDbEntity
  8
0
370
    35
100
AcDbCircle
 10
809.4045396904332
 20
200.245477899105
 30
0.0
 40
398.3394844572585
100
AcDbArc
 50
174.2888651799851
 51
185.7111348200147
  0
ARC
  5
4AF
330
471
100
AcDbEntity
  8
0
370
    35
100
AcDbCircle
 10
426.1263926718751
 20
147.2194194283166
 30
0.0
 40
93.58521733456816
100
AcDbArc
 50
78.41335254229602
 51
98.03680886376572
  0
ARC
  5
4B0
330
471
100
AcDbEntity
  8
0
370
    35
100
AcDbCircle
 10
435.2798234807417
 20
190.3563730661945
 30
0.0
 40
49.48976847067016
100
AcDbArc
 50
24.63948921251841
 51
78.76398685061214
  0
ARC
  5
4B1
330
471
100
AcDbEntity
  8
0
370
    35
100
AcDbCircle
 10
460.3542150165416
 20
201.2417595353873
 30
0.0
 40
22.16728845369287
100
AcDbArc
 50
356.6466952738512
 51
26.08561991846363
  0
CIRCLE
  5
4B2
330
471
100
AcDbEntity
  8
0
370
    35
100
AcDbCircle
 10
249.224287871621
 20
279.3160013642391
 30
0.0
 40
7.354791558851198
  0
ARC
  5
4B3
330
471
100
AcDbEntity
  8
0
370
    35
100
AcDbCircle
 10
33.36175591909736
 20
-7825.32744536426
 30
0.0
 40
8172.616166939473
100
AcDbArc
 50
88.08771429937221
 51
88.85039116177088
  0
ARC
  5
4B4
330
471
100
AcDbEntity
  8
0
370
    35
100
AcDbCircle
 10
445.7173505401446
 20
88.61003737083596
 30
0.0
 40
289.9652757630413
100
AcDbArc
 50
93.47707393240476
 51
118.7882211710122
  0
ARC
  5
4B5
330
471
100
AcDbEntity
  8
0
370
    35
100
AcDbCircle
 10
461.9741403060983
 20
9.772473709783326
 30
0.0
 40
369.8208238258552
100
AcDbArc
 50
69.83187728318052
 51
95.25058063024596
  0
ARC
  5
4B6
330
471
100
AcDbEntity
  8
0
370
    35
100
AcDbCircle
 10
475.9552534688013
 20
59.06959780201853
 30
0.0
 40
318.7495268540413
100
AcDbArc
 50
41.66033288725551
 51
69.13575282413177
  0
ARC
  5
4B7
330
471
100
AcDbEntity
  8
0
370
    35
100
AcDbCircle
 10
576.181100613005
 20
174.6970901629256
 30
0.0
 40
168.1771333295509
100
AcDbArc
 50
15.55530268559803
 51
34.91150673149823
  0
ARC
  5
4B8
330
471
100
AcDbEntity
  8
0
370
    35
100
AcDbCircle
 10
751.7303154630503
 20
1581.047609839931
 30
0.0
 40
738.7399726035147
100
AcDbArc
 50
0.1603149663031507
 51
2.976897207188761
  0
ARC
  5
4B9
330
471
100
AcDbEntity
  8
0
370
    35
100
AcDbCircle
 10
1311.927394906277
 20
-882.935272878446
 30
0.0
 40
2508.638769928079
100
AcDbArc
 50
85.94156462776201
 51
90.95040348920401
  0
LINE
  5
4BA
330
471
100
AcDbEntity
  8
0
370
    35
100
AcDbLine
 10
1290.709272169377
 20
1583.114619317415
 30
0.0
 11
1490.467396293614
 21
1583.114619317415
 31
0.0
  0
ARC
  5
4BB
330
471
100
AcDbEntity
  8
0
370
    35
100
AcDbCircle
 10
-9167.015618415847
 20
1794.412086337775
 30
0.0
 40
10655.87428142569
100
AcDbArc
 50
357.1677526042445
 51
358.8637960365276
  0
ARC
  5
4BC
330
471
100
AcDbEntity
  8
0
370
    35
100
AcDbCircle
 10
1469.700365626908
 20
1266.78334975449
 30
0.0
 40
6.239998073762667
100
AcDbArc
 50
274.5534599169321
 51
10.16820433393436
  0
LINE
  5
4BD
330
471
100
AcDbEntity
  8
0
370
    35
100
AcDbLine
 10
1470.195754311149
 20
1260.563047027766
 30
0.0
 11
1163.448774067088
 21
1260.563047027766
 31
0.0
  0
LINE
  5
4BE
330
471
100
AcDbEntity
  8
0
370
    35
100
AcDbLine
 10
1470.195754311146
 20
1260.563047027766
 30
0.0
 11
1470.195754311146
 21
1229.919900190229
 31
0.0
  0
ARC
  5
4BF
330
471
100
AcDbEntity
  8
0
370
    35
100
AcDbCircle
 10
1468.62918868519
 20
1222.708094575732
 30
0.0
 40
7.37999106244168
100
AcDbArc
 50
4.980063686213194
 51
77.74446813482659
  0
ARC
  5
4C0
330
471
100
AcDbEntity
  8
0
370
    35
100
AcDbCircle
 10
1076.184545051976
 20
1225.40598652571
 30
0.0
 40
399.8020679211773
100
AcDbArc
 50
334.9506342649197
 51
359.7051746705401
  0
LINE
  5
4C1
330
471
100
AcDbEntity
  8
0
370
    35
100
AcDbLine
 10
1438.382559833131
 20
1056.130200889843
 30
0.0
 11
1267.512857731083
 21
1056.130200889843
 31
0.0
  0
ARC
  5
4C2
330
471
100
AcDbEntity
  8
0
370
    35
100
AcDbCircle
 10
-19977.52645476313
 20
3646.403082848786
 30
0.0
 40
21587.54865432403
100
AcDbArc
 50
352.5023171199932
 51
353.276478814336
  0
ARC
  5
4C3
330
471
100
AcDbEntity
  8
0
370
    35
100
AcDbCircle
 10
-1186.824043509324
 20
1146.615953731759
 30
0.0
 40
2613.340897522081
100
AcDbArc
 50
353.0308861616431
 51
358.015762806582
  0
LINE
  5
4C4
330
471
100
AcDbEntity
  8
0
370
    35
100
AcDbLine
 10
1290.792760512311
 20
829.5281211423008
 30
0.0
 11
1425.451664015534
 21
829.5281211423008
 31
0.0
  0
LINE
  5
4C5
330
471
100
AcDbEntity
  8
0
370
    35
100
AcDbLine
 10
1111.222790027609
 20
1229.919900190229
 30
0.0
 11
1470.195754311146
 21
1229.919900190229
 31
0.0
  0
ARC
  5
4C6
330
471
100
AcDbEntity
  8
0
370
    35
100
AcDbCircle
 10
669.119149899678
 20
199.8323336259482
 30
0.0
 40
71.9062261782065
100
AcDbArc
 50
343.8801839591862
 51
16.11981604091377
  0
ENDBLK
  5
4C9
330
471
100
AcDbEntity
  8
0
100
AcDbBlockEnd
  0
ENDSEC
  0
SECTION
  2
ENTITIES
  0
ARC
  5
442
330
1F
100
AcDbEntity
  8
0
370
    35
100
AcDbCircle
 10
1863.510426035795
 20
1594.664933772728
 30
0.0
 40
738.7399726035147
100
AcDbArc
 50
177.0231027928112
 51
179.8396850336968
  0
ARC
  5
443
330
1F
100
AcDbEntity
  8
0
370
    35
100
AcDbCircle
 10
1303.313346592568
 20
-869.3179489456488
 30
0.0
 40
2508.638769928079
100
AcDbArc
 50
89.04959651079598
 51
94.05843537244575
  0
LINE
  5
444
330
1F
100
AcDbEntity
  8
0
370
    35
100
AcDbLine
 10
1324.531469329468
 20
1596.731943250212
 30
0.0
 11
1124.773345205231
 21
1596.731943250212
 31
0.0
  0
ARC
  5
445
330
1F
100
AcDbEntity
  8
0
370
    35
100
AcDbCircle
 10
11782.25635991469
 20
1808.029410270572
 30
0.0
 40
10655.87428142569
100
AcDbArc
 50
181.1362039634724
 51
182.8322473957555
  0
ARC
  5
446
330
1F
100
AcDbEntity
  8
0
370
    35
100
AcDbCircle
 10
1145.540375871937
 20
1280.400673687288
 30
0.0
 40
6.239998073762667
100
AcDbArc
 50
169.8317956661169
 51
265.4465400828604
  0
LINE
  5
448
330
1F
100
AcDbEntity
  8
0
370
    35
100
AcDbLine
 10
1145.044987187699
 20
1274.180370960564
 30
0.0
 11
1145.044987187699
 21
1243.537224123026
 31
0.0
  0
ARC
  5
449
330
1F
100
AcDbEntity
  8
0
370
    35
100
AcDbCircle
 10
1146.611552813654
 20
1236.325418508529
 30
0.0
 40
7.37999106244168
100
AcDbArc
 50
102.2555318651734
 51
175.0199363137867
  0
ARC
  5
44A
330
1F
100
AcDbEntity
  8
0
370
    35
100
AcDbCircle
 10
1539.056196446869
 20
1239.023310458507
 30
0.0
 40
399.8020679211773
100
AcDbArc
 50
180.2948253294599
 51
205.0493657350804
  0
LINE
  5
44B
330
1F
100
AcDbEntity
  8
0
370
    35
100
AcDbLine
 10
1176.858181665713
 20
1069.747524822641
 30
0.0
 11
1347.727883767762
 21
1069.747524822641
 31
0.0
  0
ARC
  5
44C
330
1F
100
AcDbEntity
  8
0
370
    35
100
AcDbCircle
 10
22592.76719626198
 20
3660.020406781583
 30
0.0
 40
21587.54865432403
100
AcDbArc
 50
186.7235211857158
 51
187.4976828800068
  0
ARC
  5
44D
330
1F
100
AcDbEntity
  8
0
370
    35
100
AcDbCircle
 10
3802.06478500817
 20
1160.233277664556
 30
0.0
 40
2613.340897522081
100
AcDbArc
 50
181.9842371934701
 51
186.9691138383568
  0
LINE
  5
44E
330
1F
100
AcDbEntity
  8
0
370
    35
100
AcDbLine
 10
1324.447980986533
 20
843.145445075098
 30
0.0
 11
1189.78907748331
 21
843.145445075098
 31
0.0
  0
ARC
  5
461
330
1F
100
AcDbEntity
  8
0
370
    35
100
AcDbCircle
 10
785.5525126231408
 20
1594.664933772728
 30
0.0
 40
738.7399726035147
100
AcDbArc
 50
0.1603149663031507
 51
2.976897207188761
  0
ARC
  5
462
330
1F
100
AcDbEntity
  8
0
370
    35
100
AcDbCircle
 10
1345.749592066368
 20
-869.3179489456488
 30
0.0
 40
2508.638769928079
100
AcDbArc
 50
85.94156462776201
 51
90.95040348920401
  0
LINE
  5
463
330
1F
100
AcDbEntity
  8
0
370
    35
100
AcDbLine
 10
1324.531469329468
 20
1596.731943250212
 30
0.0
 11
1524.289593453705
 21
1596.731943250212
 31
0.0
  0
ARC
  5
464
330
1F
100
AcDbEntity
  8
0
370
    35
100
AcDbCircle
 10
-9133.193421255757
 20
1808.029410270572
 30
0.0
 40
10655.87428142569
100
AcDbArc
 50
357.1677526042445
 51
358.8637960365276
  0
ARC
  5
465
330
1F
100
AcDbEntity
  8
0
370
    35
100
AcDbCircle
 10
1499.969900972583
 20
1277.737342464857
 30
0.0
 40
6.239998073762667
100
AcDbArc
 50
274.5534599169321
 51
10.16820433393436
  0
LINE
  5
467
330
1F
100
AcDbEntity
  8
0
370
    35
100
AcDbLine
 10
1504.017951471236
 20
1274.180370960564
 30
0.0
 11
1504.017951471236
 21
1243.537224123026
 31
0.0
  0
ARC
  5
468
330
1F
100
AcDbEntity
  8
0
370
    35
100
AcDbCircle
 10
1502.451385845281
 20
1236.325418508529
 30
0.0
 40
7.37999106244168
100
AcDbArc
 50
4.980063686213194
 51
77.74446813482659
  0
ARC
  5
469
330
1F
100
AcDbEntity
  8
0
370
    35
100
AcDbCircle
 10
1110.006742212066
 20
1239.023310458507
 30
0.0
 40
399.8020679211773
100
AcDbArc
 50
334.9506342649196
 51
359.7051746705401
  0
LINE
  5
46A
330
1F
100
AcDbEntity
  8
0
370
    35
100
AcDbLine
 10
1472.204756993222
 20
1069.747524822641
 30
0.0
 11
1301.335054891173
 21
1069.747524822641
 31
0.0
  0
ARC
  5
46B
330
1F
100
AcDbEntity
  8
0
370
    35
100
AcDbCircle
 10
-19943.70425760304
 20
3660.020406781583
 30
0.0
 40
21587.54865432403
100
AcDbArc
 50
352.5023171199932
 51
353.276478814336
  0
ARC
  5
46C
330
1F
100
AcDbEntity
  8
0
370
    35
100
AcDbCircle
 10
-1153.001846349234
 20
1160.233277664556
 30
0.0
 40
2613.340897522081
100
AcDbArc
 50
353.0308861616431
 51
358.015762806582
  0
LINE
  5
46D
330
1F
100
AcDbEntity
  8
0
370
    35
100
AcDbLine
 10
1324.614957672402
 20
843.145445075098
 30
0.0
 11
1459.273861175625
 21
843.145445075098
 31
0.0
  0
LINE
  5
46E
330
1F
100
AcDbEntity
  8
0
370
    35
100
AcDbLine
 10
1145.044987187699
 20
1243.537224123026
 30
0.0
 11
1504.017951471236
 21
1243.537224123026
 31
0.0
  0
LINE
  5
659
330
1F
100
AcDbEntity
  8
0
  6
Continuous
100
AcDbLine
 10
1179.334282618584
 20
1290.428768907131
 30
0.0
 11
1165.295183252517
 21
1289.334310156528
 31
0.0
  0
LINE
  5
65A
330
1F
100
AcDbEntity
  8
0
  6
Continuous
100
AcDbLine
 10
1189.726872351464
 20
1291.172337984575
 30
0.0
 11
1165.297908785774
 21
1289.298753899718
 31
0.0
  0
LINE
  5
65B
330
1F
100
AcDbEntity
  8
0
  6
Continuous
100
AcDbLine
 10
1208.349129089804
 20
1292.365166178609
 30
0.0
 11
1179.334282618584
 21
1290.428768907131
 31
0.0
  0
LINE
  5
65C
330
1F
100
AcDbEntity
  8
0
  6
Continuous
100
AcDbLine
 10
1234.340694169716
 20
1293.73105079595
 30
0.0
 11
1189.726872351464
 21
1291.172337984575
 31
0.0
  0
LINE
  5
65D
330
1F
100
AcDbEntity
  8
0
  6
Continuous
100
AcDbLine
 10
1237.38801168582
 20
1293.868404911022
 30
0.0
 11
1208.349129089804
 21
1292.365166178609
 31
0.0
  0
LINE
  5
65E
330
1F
100
AcDbEntity
  8
0
  6
Continuous
100
AcDbLine
 10
1266.44608830157
 20
1294.938270794352
 30
0.0
 11
1237.38801168582
 21
1293.868404911022
 31
0.0
  0
LINE
  5
65F
330
1F
100
AcDbEntity
  8
0
  6
Continuous
100
AcDbLine
 10
1278.995565577322
 20
1295.266161359256
 30
0.0
 11
1234.340694169716
 21
1293.73105079595
 31
0.0
  0
LINE
  5
660
330
1F
100
AcDbEntity
  8
0
  6
Continuous
100
AcDbLine
 10
1295.518511796988
 20
1295.574549109501
 30
0.0
 11
1266.44608830157
 21
1294.938270794352
 31
0.0
  0
LINE
  5
661
330
1F
100
AcDbEntity
  8
0
  6
Continuous
100
AcDbLine
 10
1323.673878873275
 20
1295.77726732947
 30
0.0
 11
1278.995565577322
 21
1295.266161359256
 31
0.0
  0
LINE
  5
662
330
1F
100
AcDbEntity
  8
0
  6
Continuous
100
AcDbLine
 10
1323.628570858546
 20
1295.777267845594
 30
0.0
 11
1295.518511796988
 21
1295.574549109501
 31
0.0
  0
LINE
  5
663
330
1F
100
AcDbEntity
  8
0
  6
Continuous
100
AcDbLine
 10
1323.62879789765
 20
1256.879050814933
 30
0.0
 11
1143.440359692829
 21
1256.879050814933
 31
0.0
  0
LINE
  5
664
330
1F
100
AcDbEntity
  8
0
  6
Continuous
100
AcDbLine
 10
1323.628820588713
 20
1252.991426440005
 30
0.0
 11
1152.705008422231
 21
1252.991426440005
 31
0.0
  0
LINE
  5
665
330
1F
100
AcDbEntity
  8
0
  6
Continuous
100
AcDbLine
 10
1152.7056801204
 20
1252.62622496602
 30
0.0
 11
1152.706346900529
 21
1252.62622496602
 31
0.0
  0
LINE
  5
666
330
1F
100
AcDbEntity
  8
0
  6
Continuous
100
AcDbLine
 10
1212.142579622242
 20
1251.165418680566
 30
0.0
 11
1323.628831246657
 21
1251.165418680566
 31
0.0
  0
LINE
  5
667
330
1F
100
AcDbEntity
  8
0
  6
Continuous
100
AcDbLine
 10
1202.061387036743
 20
1244.835258447787
 30
0.0
 11
1168.747620593395
 21
1244.835258447787
 31
0.0
  0
LINE
  5
668
330
1F
100
AcDbEntity
  8
0
  6
Continuous
100
AcDbLine
 10
1212.142579622242
 20
1251.165418680566
 30
0.0
 11
1154.132140212725
 21
1251.165418680566
 31
0.0
  0
LWPOLYLINE
  5
669
330
1F
100
AcDbEntity
  8
0
  6
Continuous
100
AcDbPolyline
 90
        5
 70
     0
 43
0.0
 10
1161.68365357838
 20
1251.165450487178
 10
1161.905987114535
 20
1251.155778333465
 10
1162.279235809573
 20
1251.100506948402
 10
1162.687310514166
 20
1250.992418917083
 10
1163.136453292157
 20
1250.82078972092
  0
LWPOLYLINE
  5
66A
330
1F
100
AcDbEntity
  8
0
  6
Continuous
100
AcDbPolyline
 90
        4
 70
     0
 43
0.0
 10
1246.756330199259
 20
1250.93717065173
 10
1246.759549095499
 20
1250.984928613774
 10
1246.778200854202
 20
1251.147319622765
 10
1246.781412115236
 20
1251.165418680566
  0
LWPOLYLINE
  5
66B
330
1F
100
AcDbEntity
  8
0
  6
Continuous
100
AcDbPolyline
 90
        4
 70
     0
 43
0.0
 10
1204.21620314673
 20
1246.136277660037
 10
1204.523700243439
 20
1246.654661347261
 10
1204.929223201988
 20
1247.195070827073
 10
1208.682401919363
 20
1251.165418680566
  0
LINE
  5
66C
330
1F
100
AcDbEntity
  8
0
  6
Continuous
100
AcDbLine
 10
1163.136453292157
 20
1250.82078972092
 30
0.0
 11
1163.63063282292
 21
1250.56840146047
 31
0.0
  0
LINE
  5
66D
330
1F
100
AcDbEntity
  8
0
  6
Continuous
100
AcDbLine
 10
1204.216182831767
 20
1246.136241909231
 30
0.0
 11
1204.216027187763
 21
1246.135941995985
 31
0.0
  0
LWPOLYLINE
  5
66E
330
1F
100
AcDbEntity
  8
0
  6
Continuous
100
AcDbPolyline
 90
        3
 70
     0
 43
0.0
 10
1163.63063282292
 20
1250.56840146047
 10
1164.15134892103
 20
1250.224175361971
 10
1164.686357215925
 20
1249.77055226212
  0
LWPOLYLINE
  5
66F
330
1F
100
AcDbEntity
  8
0
  6
Continuous
100
AcDbPolyline
 90
        6
 70
     0
 43
0.0
 10
1164.686357215925
 20
1249.77055226212
 10
1165.204152295657
 20
1249.203251453364
 10
1165.675516263624
 20
1248.51950392882
 10
1166.065291760475
 20
1247.73184225664
 10
1166.343727305818
 20
1246.860820876041
 10
1166.368516320432
 20
1246.751896981132
  0
LINE
  5
670
330
1F
100
AcDbEntity
  8
0
  6
Continuous
100
AcDbLine
 10
1153.746568662941
 20
1256.879050814933
 30
0.0
 11
1152.705008422231
 21
1252.991426440005
 31
0.0
  0
LWPOLYLINE
  5
671
330
1F
100
AcDbEntity
  8
0
  6
Continuous
100
AcDbPolyline
 90
        7
 70
     0
 43
0.0
 10
1152.798274256789
 20
1252.114413348521
 10
1152.928977574376
 20
1251.849998075805
 10
1153.109779513585
 20
1251.617598416234
 10
1153.33339419623
 20
1251.426260490182
 10
1153.591260324132
 20
1251.283439707191
 10
1153.876081394299
 20
1251.194575057734
 10
1154.16648315317
 20
1251.165418680566
  0
LINE
  5
672
330
1F
100
AcDbEntity
  8
0
  6
Continuous
100
AcDbLine
 10
1166.368762612351
 20
1246.750774322347
 30
0.0
 11
1166.368705027362
 21
1246.751053677172
 31
0.0
  0
LWPOLYLINE
  5
673
330
1F
100
AcDbEntity
  8
0
  6
Continuous
100
AcDbPolyline
 90
        3
 70
     0
 43
0.0
 10
1152.7056801204
 20
1252.62622496602
 10
1152.723502589165
 20
1252.398732407737
 10
1152.798274256789
 20
1252.114413348521
  0
LINE
  5
674
330
1F
100
AcDbEntity
  8
0
  6
Continuous
100
AcDbLine
 10
1152.70500801319
 20
1252.991426440005
 30
0.0
 11
1152.70500801319
 21
1252.62622496602
 31
0.0
  0
LINE
  5
675
330
1F
100
AcDbEntity
  8
0
  6
Continuous
100
AcDbLine
 10
1145.633266821282
 20
1281.94497860272
 30
0.0
 11
1143.62269252767
 21
1258.963198233384
 31
0.0
  0
LINE
  5
676
330
1F
100
AcDbEntity
  8
0
  6
Continuous
100
AcDbLine
 10
1146.087718441748
 20
1287.139567729553
 30
0.0
 11
1145.633266821282
 21
1281.94497860272
 31
0.0
  0
LINE
  5
677
330
1F
100
AcDbEntity
  8
0
  6
Continuous
100
AcDbLine
 10
1143.62269252767
 20
1258.963198233384
 30
0.0
 11
1143.440359692829
 21
1256.879050814933
 31
0.0
  0
ARC
  5
678
330
1F
100
AcDbEntity
  8
0
  6
Continuous
100
AcDbCircle
 10
1186.306968051054
 20
997.4615200128178
 30
0.0
 40
292.6123416437728
100
AcDbArc
 50
94.18558150509879
 51
95.26755561660051
  0
ARC
  5
679
330
1F
100
AcDbEntity
  8
0
  6
Continuous
100
AcDbCircle
 10
1168.74744344628
 20
1247.269935460404
 30
0.0
 40
2.434677012600494
100
AcDbArc
 50
192.4168914022024
 51
270.0
  0
ARC
  5
67A
330
1F
100
AcDbEntity
  8
0
  6
Continuous
100
AcDbCircle
 10
1202.061564183858
 20
1247.269935460404
 30
0.0
 40
2.434677012600494
100
AcDbArc
 50
270.0
 51
332.4567386230877
  0
SPLINE
  5
67B
330
1F
100
AcDbEntity
  8
0
  6
Continuous
100
AcDbSpline
210
0.0
220
0.0
230
1.0
 70
     8
 71
     3
 72
    12
 73
     8
 74
     6
 42
0.0000000001
 43
0.0000000001
 44
0.0000000001
 12
42.39383176212245
 22
87.67557514850585
 32
0.0
 13
96.98570104460467
 23
8.832736947458464
 33
0.0
 40
0.0
 40
0.0
 40
0.0
 40
0.0
 40
0.0021438014824028
 40
0.0145874237545003
 40
0.0412867977057294
 40
0.0868694533767594
 40
0.1383543635966058
 40
0.1383543635966058
 40
0.1383543635966058
 40
0.1383543635966058
 10
1146.147072039995
 20
1287.110908367366
 30
0.0
 10
1146.177366693116
 20
1287.173561376686
 30
0.0
 10
1146.518369752973
 20
1287.530935385454
 30
0.0
 10
1147.989080846397
 20
1287.505466668149
 30
0.0
 10
1150.59752336308
 20
1288.084668827622
 30
0.0
 10
1154.655260768924
 20
1288.403972989769
 30
0.0
 10
1157.778751761567
 20
1288.686529993622
 30
0.0
 10
1159.443185131842
 20
1288.838114216543
 30
0.0
 11
1146.147072039995
 21
1287.110908367366
 31
0.0
 11
1146.281453872133
 21
1287.270689509734
 31
0.0
 11
1147.462138832151
 21
1287.543743912453
 31
0.0
 11
1150.035873483867
 21
1287.913602251577
 31
0.0
 11
1154.448764991486
 21
1288.395832124632
 31
0.0
 11
1159.443185131842
 21
1288.838114216543
 31
0.0
  0
LINE
  5
67C
330
1F
100
AcDbEntity
  8
0
  6
Continuous
100
AcDbLine
 10
1164.950006578212
 20
1289.29342827749
 30
0.0
 11
1165.296422785552
 21
1289.318662730846
 31
0.0
  0
LINE
  5
67D
330
1F
100
AcDbEntity
  8
0
  6
Continuous
100
AcDbLine
 10
1165.296422785552
 20
1289.318662730846
 30
0.0
 11
1165.77545666781
 21
1289.352971244909
 31
0.0
  0
SPLINE
  5
67E
330
1F
100
AcDbEntity
  8
0
  6
Continuous
100
AcDbSpline
210
0.0
220
0.0
230
1.0
 70
     8
 71
     3
 72
    17
 73
    13
 74
    11
 42
0.0000000001
 43
0.0000000001
 44
0.0000000001
 12
97.1430534824524
 22
6.889891813506845
 32
0.0
 13
97.38708050401971
 23
-0.0000047868069733
 33
0.0
 40
0.0
 40
0.0
 40
0.0
 40
0.0
 40
0.0554604714889391
 40
0.1969879230998201
 40
0.3636856974490027
 40
0.5328236598345543
 40
0.703581611100864
 40
0.8736906023872839
 40
1.046524390035757
 40
1.229252379276737
 40
1.421543025461207
 40
1.621502063337367
 40
1.621502063337367
 40
1.621502063337367
 40
1.621502063337367
 10
1165.77545666781
 20
1289.352971244909
 30
0.0
 10
1167.571323183773
 20
1289.480343461068
 30
0.0
 10
1173.953402243977
 20
1289.883800365018
 30
0.0
 10
1185.747224169615
 20
1290.446576580618
 30
0.0
 10
1201.242654765487
 20
1290.760298084539
 30
0.0
 10
1217.6890707889
 20
1290.644237352017
 30
0.0
 10
1234.23955298657
 20
1290.20033737424
 30
0.0
 10
1250.905816103763
 20
1289.633756310578
 30
0.0
 10
1267.961905655613
 20
1289.095500736445
 30
0.0
 10
1285.741173009121
 20
1288.653036409219
 30
0.0
 10
1304.404241071314
 20
1288.356416670628
 30
0.0
 10
1317.137709056169
 20
1288.288982679327
 30
0.0
 10
1323.628851362565
 20
1288.288982360268
 30
0.0
 11
1165.77545666781
 21
1289.352971244909
 31
0.0
 11
1171.165448988565
 21
1289.69970573269
 31
0.0
 11
1184.933055553722
 21
1290.349775928317
 31
0.0
 11
1201.163796269406
 21
1290.685359293473
 31
0.0
 11
1217.635376257738
 21
1290.590634279082
 31
0.0
 11
1234.259920964816
 21
1290.179879316511
 31
0.0
 11
1250.817651054576
 21
1289.64342747238
 31
0.0
 11
1267.64140634242
 21
1289.123804174192
 31
0.0
 11
1285.431383546848
 21
1288.686735621728
 31
0.0
 11
1304.155701166459
 21
1288.392796695938
 31
0.0
 11
1323.628851362565
 21
1288.288982360268
 31
0.0
  0
LINE
  5
67F
330
1F
100
AcDbEntity
  8
0
  6
Continuous
100
AcDbLine
 10
1467.923422425364
 20
1290.428612531279
 30
0.0
 11
1481.962520605335
 21
1289.33413856614
 31
0.0
  0
LINE
  5
680
330
1F
100
AcDbEntity
  8
0
  6
Continuous
100
AcDbLine
 10
1457.530833498335
 20
1291.172192871453
 30
0.0
 11
1481.959795033538
 21
1289.298582312269
 31
0.0
  0
LINE
  5
681
330
1F
100
AcDbEntity
  8
0
  6
Continuous
100
AcDbLine
 10
1438.908578052684
 20
1292.365041246917
 30
0.0
 11
1467.923422425364
 21
1290.428612531279
 31
0.0
  0
LINE
  5
682
330
1F
100
AcDbEntity
  8
0
  6
Continuous
100
AcDbLine
 10
1412.917014453035
 20
1293.730954032027
 30
0.0
 11
1457.530833498335
 21
1291.172192871453
 31
0.0
  0
LINE
  5
683
330
1F
100
AcDbEntity
  8
0
  6
Continuous
100
AcDbLine
 10
1409.869697085809
 20
1293.868311449525
 30
0.0
 11
1438.908578052684
 21
1292.365041246917
 31
0.0
  0
LINE
  5
684
330
1F
100
AcDbEntity
  8
0
  6
Continuous
100
AcDbLine
 10
1380.811621629527
 20
1294.938208823841
 30
0.0
 11
1409.869697085809
 21
1293.868311449525
 31
0.0
  0
LINE
  5
685
330
1F
100
AcDbEntity
  8
0
  6
Continuous
100
AcDbLine
 10
1368.262144709089
 20
1295.266112988971
 30
0.0
 11
1412.917014453035
 21
1293.730954032027
 31
0.0
  0
LINE
  5
686
330
1F
100
AcDbEntity
  8
0
  6
Continuous
100
AcDbLine
 10
1351.739198823667
 20
1295.574518645595
 30
0.0
 11
1380.811621629527
 21
1294.938208823841
 31
0.0
  0
LINE
  5
687
330
1F
100
AcDbEntity
  8
0
  6
Continuous
100
AcDbLine
 10
1323.583831967069
 20
1295.777267378249
 30
0.0
 11
1368.262144709089
 21
1295.266112988971
 31
0.0
  0
LINE
  5
688
330
1F
100
AcDbEntity
  8
0
  6
Continuous
100
AcDbLine
 10
1323.629139981837
 20
1295.777267845298
 30
0.0
 11
1351.739198823667
 21
1295.574518645595
 31
0.0
  0
LINE
  5
689
330
1F
100
AcDbEntity
  8
0
  6
Continuous
100
AcDbLine
 10
1323.628870787728
 20
1256.879050814894
 30
0.0
 11
1503.817308992432
 21
1256.878855539915
 31
0.0
  0
LINE
  5
68A
330
1F
100
AcDbEntity
  8
0
  6
Continuous
100
AcDbLine
 10
1323.628843883494
 20
1252.991426440005
 30
0.0
 11
1494.552656049857
 21
1252.991241205346
 31
0.0
  0
LINE
  5
68B
330
1F
100
AcDbEntity
  8
0
  6
Continuous
100
AcDbLine
 10
1494.551983955942
 20
1252.626039732091
 30
0.0
 11
1494.551317175812
 21
1252.626039732802
 31
0.0
  0
LINE
  5
68C
330
1F
100
AcDbEntity
  8
0
  6
Continuous
100
AcDbLine
 10
1435.115082871034
 20
1251.165297859975
 30
0.0
 11
1323.628831246657
 21
1251.165418680566
 31
0.0
  0
LINE
  5
68D
330
1F
100
AcDbEntity
  8
0
  6
Continuous
100
AcDbLine
 10
1445.196268596329
 20
1244.835126701929
 30
0.0
 11
1478.510035039677
 21
1244.835090598927
 31
0.0
  0
LINE
  5
68E
330
1F
100
AcDbEntity
  8
0
  6
Continuous
100
AcDbLine
 10
1435.115082871034
 20
1251.165297859975
 30
0.0
 11
1493.125522280471
 21
1251.165234992503
 31
0.0
  0
LWPOLYLINE
  5
68F
330
1F
100
AcDbEntity
  8
0
  6
Continuous
100
AcDbPolyline
 90
        5
 70
     0
 43
0.0
 10
1485.574008914895
 20
1251.165274982893
 10
1485.351675368247
 20
1251.15560307013
 10
1484.978426613286
 20
1251.100332089574
 10
1484.570351791572
 20
1250.992244500471
 10
1484.121208827581
 20
1250.820615791083
  0
LWPOLYLINE
  5
690
330
1F
100
AcDbEntity
  8
0
  6
Continuous
100
AcDbPolyline
 90
        4
 70
     0
 43
0.0
 10
1400.501332046636
 20
1250.937087342942
 10
1400.498113202152
 20
1250.984845308478
 10
1400.479461619466
 20
1251.147236337705
 10
1400.476250378039
 20
1251.165335398958
  0
LWPOLYLINE
  5
691
330
1F
100
AcDbEntity
  8
0
  6
Continuous
100
AcDbPolyline
 90
        4
 70
     0
 43
0.0
 10
1443.041453896348
 20
1246.136148249407
 10
1442.733957361385
 20
1246.654532269891
 10
1442.328434988488
 20
1247.194942189141
 10
1438.575260573716
 20
1251.165294110063
  0
LINE
  5
692
330
1F
100
AcDbEntity
  8
0
  6
Continuous
100
AcDbLine
 10
1484.121208827581
 20
1250.820615791083
 30
0.0
 11
1483.627029023321
 21
1250.568228066204
 31
0.0
  0
LINE
  5
693
330
1F
100
AcDbEntity
  8
0
  6
Continuous
100
AcDbLine
 10
1443.041474211232
 20
1246.136112498582
 30
0.0
 11
1443.041629854961
 21
1246.135812585158
 31
0.0
  0
LWPOLYLINE
  5
694
330
1F
100
AcDbEntity
  8
0
  6
Continuous
100
AcDbPolyline
 90
        3
 70
     0
 43
0.0
 10
1483.627029023321
 20
1250.568228066204
 10
1483.106312552188
 20
1250.224002532015
 10
1482.571303765647
 20
1249.770380011937
  0
LWPOLYLINE
  5
695
330
1F
100
AcDbEntity
  8
0
  6
Continuous
100
AcDbPolyline
 90
        6
 70
     0
 43
0.0
 10
1482.571303765647
 20
1249.770380011937
 10
1482.053508071109
 20
1249.203079764336
 10
1481.582143362145
 20
1248.519332750649
 10
1481.192367011705
 20
1247.731671500844
 10
1480.913930522402
 20
1246.860650422025
 10
1480.889141389759
 20
1246.751726553961
  0
LINE
  5
696
330
1F
100
AcDbEntity
  8
0
  6
Continuous
100
AcDbLine
 10
1493.51110002228
 20
1256.878866709012
 30
0.0
 11
1494.552656049857
 21
1252.991241205346
 31
0.0
  0
LWPOLYLINE
  5
697
330
1F
100
AcDbEntity
  8
0
  6
Continuous
100
AcDbPolyline
 90
        7
 70
     0
 43
0.0
 10
1494.459389264909
 20
1252.11422821491
 10
1494.328685660727
 20
1251.849813083835
 10
1494.147883469679
 20
1251.617413620222
 10
1493.924268579653
 20
1251.426075936503
 10
1493.666402296995
 20
1251.283255432964
 10
1493.381581130535
 20
1251.194391092192
 10
1493.091179340065
 20
1251.165235029723
  0
LINE
  5
698
330
1F
100
AcDbEntity
  8
0
  6
Continuous
100
AcDbLine
 10
1480.888895096618
 20
1246.750603895452
 30
0.0
 11
1480.88895268192
 21
1246.750883250217
 31
0.0
  0
LWPOLYLINE
  5
699
330
1F
100
AcDbEntity
  8
0
  6
Continuous
100
AcDbPolyline
 90
        3
 70
     0
 43
0.0
 10
1494.551983955942
 20
1252.626039732091
 10
1494.534161240664
 20
1252.39854719308
 10
1494.459389264909
 20
1252.11422821491
  0
LINE
  5
69A
330
1F
100
AcDbEntity
  8
0
  6
Continuous
100
AcDbLine
 10
1494.552656458897
 20
1252.991241205346
 30
0.0
 11
1494.552656063111
 21
1252.626039731361
 31
0.0
  0
LINE
  5
69B
330
1F
100
AcDbEntity
  8
0
  6
Continuous
100
AcDbLine
 10
1501.624429028535
 20
1281.944785704175
 30
0.0
 11
1503.634978416175
 21
1258.963003155944
 31
0.0
  0
LINE
  5
69C
330
1F
100
AcDbEntity
  8
0
  6
Continuous
100
AcDbLine
 10
1501.169983037639
 20
1287.139375323541
 30
0.0
 11
1501.624429028535
 21
1281.944785704175
 31
0.0
  0
LINE
  5
69D
330
1F
100
AcDbEntity
  8
0
  6
Continuous
100
AcDbLine
 10
1503.634978416175
 20
1258.963003155944
 30
0.0
 11
1503.817308992432
 21
1256.878855539915
 31
0.0
  0
ARC
  5
69E
330
1F
100
AcDbEntity
  8
0
  6
Continuous
100
AcDbCircle
 10
1460.950419496567
 20
997.4613711936122
 30
0.0
 40
292.6123416437728
100
AcDbArc
 50
84.73238229044094
 51
85.81435640195779
  0
ARC
  5
69F
330
1F
100
AcDbEntity
  8
0
  6
Continuous
100
AcDbCircle
 10
1478.510214825301
 20
1247.269767611328
 30
0.0
 40
2.434677012600494
100
AcDbArc
 50
269.9999379070444
 51
347.5830465048411
  0
ARC
  5
6A0
330
1F
100
AcDbEntity
  8
0
  6
Continuous
100
AcDbCircle
 10
1445.196094087763
 20
1247.269803714724
 30
0.0
 40
2.434677012600494
100
AcDbArc
 50
207.5431992839412
 51
269.9999379070444
  0
SPLINE
  5
6A1
330
1F
100
AcDbEntity
  8
0
  6
Continuous
100
AcDbSpline
210
0.0
220
0.0
230
1.0
 70
     8
 71
     3
 72
    12
 73
     8
 74
     6
 42
0.0000000001
 43
0.0000000001
 44
0.0000000001
 12
-42.39373674575396
 22
87.67562109177299
 32
0.0
 13
-96.98569147227669
 23
8.832842053426976
 33
0.0
 40
0.0
 40
0.0
 40
0.0
 40
0.0
 40
0.0021438014824023
 40
0.0145874237545004
 40
0.0412867977057296
 40
0.0868694533767587
 40
0.1383543635966062
 40
0.1383543635966062
 40
0.1383543635966062
 40
0.1383543635966062
 10
1501.110629408305
 20
1287.110716025657
 30
0.0
 10
1501.080334823076
 20
1287.173369067816
 30
0.0
 10
1500.739332150523
 20
1287.530743446118
 30
0.0
 10
1499.268621029486
 20
1287.505276322668
 30
0.0
 10
1496.660179140466
 20
1288.084481308976
 30
0.0
 10
1492.602442080702
 20
1288.40378986858
 30
0.0
 10
1489.478951394301
 20
1288.686350257486
 30
0.0
 10
1487.814518188288
 20
1288.837936284186
 30
0.0
 11
1501.110629408305
 21
1287.110716025657
 31
0.0
 11
1500.976247749308
 21
1287.270497313648
 31
0.0
 11
1499.795563085193
 21
1287.543552995937
 31
0.0
 11
1497.221828834312
 21
1287.913414124281
 31
0.0
 11
1492.808937849306
 21
1288.395648779673
 31
0.0
 11
1487.814518188288
 21
1288.837936284186
 31
0.0
  0
LINE
  5
6A2
330
1F
100
AcDbEntity
  8
0
  6
Continuous
100
AcDbLine
 10
1482.307697235379
 20
1289.293256313013
 30
0.0
 11
1481.961281055377
 21
1289.3184911418
 31
0.0
  0
LINE
  5
6A3
330
1F
100
AcDbEntity
  8
0
  6
Continuous
100
AcDbLine
 10
1481.961281055377
 20
1289.3184911418
 30
0.0
 11
1481.482247210277
 21
1289.352800175024
 31
0.0
  0
SPLINE
  5
6A4
330
1F
100
AcDbEntity
  8
0
  6
Continuous
100
AcDbSpline
210
0.0
220
0.0
230
1.0
 70
     8
 71
     3
 72
    17
 73
    13
 74
    11
 42
0.0000000001
 43
0.0000000001
 44
0.0000000001
 12
-97.14304601563707
 22
6.889997090003505
 32
0.0
 13
-97.3870805039677
 23
0.0001007541522805
 33
0.0
 40
0.0
 40
0.0
 40
0.0
 40
0.0
 40
0.0554604714889383
 40
0.1969879230998204
 40
0.3636856974490028
 40
0.5328236598345538
 40
0.7035816111008641
 40
0.8736906023872846
 40
1.046524390035758
 40
1.229252379276738
 40
1.421543025461208
 40
1.621502063337368
 40
1.621502063337368
 40
1.621502063337368
 40
1.621502063337368
 10
1481.482247210279
 20
1289.352800175024
 30
0.0
 10
1479.686380832267
 20
1289.480174337393
 30
0.0
 10
1473.304302209388
 20
1289.883638157779
 30
0.0
 10
1461.510480893662
 20
1290.446427154656
 30
0.0
 10
1446.015050637798
 20
1290.760165451386
 30
0.0
 10
1429.568634488584
 20
1290.644122542284
 30
0.0
 10
1413.018151809879
 20
1290.200240500689
 30
0.0
 10
1396.351888078632
 20
1289.633677498717
 30
0.0
 10
1379.295797943497
 20
1289.095440408704
 30
0.0
 10
1361.516530110493
 20
1288.652995349323
 30
0.0
 10
1342.853461726873
 20
1288.356395836425
 30
0.0
 10
1330.119993668921
 20
1288.288975644703
 30
0.0
 10
1323.628851362565
 20
1288.288982360268
 30
0.0
 11
1481.482247210279
 21
1289.352800175024
 31
0.0
 11
1476.092255265271
 21
1289.699540504074
 31
0.0
 11
1462.324649404623
 21
1290.349625620012
 31
0.0
 11
1446.093909052653
 21
1290.685226574875
 31
0.0
 11
1429.622328961637
 21
1290.590519411161
 31
0.0
 11
1412.997783809423
 21
1290.179782465032
 31
0.0
 11
1396.44005313831
 21
1289.643348564935
 31
0.0
 11
1379.616297287381
 21
1289.123743499108
 31
0.0
 11
1361.826319609295
 21
1288.686694226106
 31
0.0
 11
1343.102001671098
 21
1288.39277559238
 31
0.0
 11
1323.628851362565
 21
1288.288982360268
 31
0.0
  0
ENDSEC
  0
SECTION
  2
OBJECTS
  0
DICTIONARY
  5
C
330
0
100
AcDbDictionary
281
     1
  3
ACAD_COLOR
350
C9
  3
ACAD_GROUP
350
D
  3
ACAD_LAYOUT
350
1A
  3
ACAD_MATERIAL
350
C8
  3
ACAD_MLEADERSTYLE
350
2EC
  3
ACAD_MLINESTYLE
350
17
  3
ACAD_PLOTSETTINGS
350
19
  3
ACAD_PLOTSTYLENAME
350
E
  3
ACAD_SCALELIST
350
2CA
  3
ACAD_TABLESTYLE
350
123
  3
ACAD_VISUALSTYLE
350
296
  3
ACDB_RECOMPOSE_DATA
350
30D
  3
AcDbVariableDictionary
350
9E
  3
AcmDictionary
350
63
  3
AMG
350
49
  3
AMGSNAPSETTINGS
350
413
  0
DICTIONARY
  5
4D5
330
8
100
AcDbDictionary
280
     1
281
     1
  0
DICTIONARY
  5
39F
330
2
100
AcDbDictionary
280
     1
281
     1
  3
ACAD_LAYERSTATES
360
3A0
  0
DICTIONARY
  5
4CB
330
10
100
AcDbDictionary
280
     1
281
     1
  3
ADSK_XREC_LAYER_RECONCILED
360
4CC
  0
DICTIONARY
  5
4CD
330
392
100
AcDbDictionary
280
     1
281
     1
  3
ADSK_XREC_LAYER_RECONCILED
360
4CE
  0
DICTIONARY
  5
99
330
1F
100
AcDbDictionary
280
     1
281
     1
  0
DICTIONARY
  5
4C7
330
471
100
AcDbDictionary
280
     1
281
     1
  0
DICTIONARY
  5
C9
102
{ACAD_REACTORS
330
C
102
}
330
C
100
AcDbDictionary
281
     1
  0
DICTIONARY
  5
D
102
{ACAD_REACTORS
330
C
102
}
330
C
100
AcDbDictionary
281
     1
  0
DICTIONARY
  5
1A
102
{ACAD_REACTORS
330
C
102
}
330
C
100
AcDbDictionary
281
     1
  3
Layout1
350
1E
  3
Layout2
350
26
  3
Model
350
22
  0
DICTIONARY
  5
C8
102
{ACAD_REACTORS
330
C
102
}
330
C
100
AcDbDictionary
281
     1
  3
ByBlock
350
294
  3
ByLayer
350
293
  3
Global
350
295
  0
DICTIONARY
  5
2EC
102
{ACAD_REACTORS
330
C
102
}
330
C
100
AcDbDictionary
281
     1
  3
Standard
350
2ED
  0
DICTIONARY
  5
17
102
{ACAD_REACTORS
330
C
102
}
330
C
100
AcDbDictionary
281
     1
  3
Standard
350
18
  0
DICTIONARY
  5
19
102
{ACAD_REACTORS
330
C
102
}
330
C
100
AcDbDictionary
281
     1
  0
ACDBDICTIONARYWDFLT
  5
E
102
{ACAD_REACTORS
330
C
102
}
330
C
100
AcDbDictionary
281
     1
  3
Normal
350
F
100
AcDbDictionaryWithDefault
340
F
  0
DICTIONARY
  5
2CA
102
{ACAD_REACTORS
330
C
102
}
330
C
100
AcDbDictionary
281
     1
  3
A0
350
2CB
  3
A1
350
2CC
  3
A2
350
2CD
  3
A3
350
2CE
  3
A4
350
2CF
  3
A5
350
2D0
  3
A6
350
2D1
  3
A7
350
2D2
  3
A8
350
2D3
  3
A9
350
2D4
  3
B0
350
2D5
  3
B1
350
2D6
  3
B2
350
2D7
  3
B3
350
2D8
  3
B4
350
2D9
  3
B5
350
2DA
  3
B6
350
2DB
  3
B7
350
2DC
  3
B8
350
2DD
  3
B9
350
2DE
  3
C0
350
2DF
  3
C1
350
2E0
  3
C2
350
2E1
  3
C3
350
2E2
  3
C4
350
2E3
  3
C5
350
2E4
  3
C6
350
2E5
  3
C7
350
2E6
  3
C8
350
2E7
  3
C9
350
2E8
  3
D0
350
2E9
  3
D1
350
2EA
  3
D2
350
2EB
  0
DICTIONARY
  5
123
102
{ACAD_REACTORS
330
C
102
}
330
C
100
AcDbDictionary
281
     1
  3
Standard
350
124
  0
DICTIONARY
  5
296
102
{ACAD_REACTORS
330
C
102
}
330
C
100
AcDbDictionary
281
     1
  3
2dWireframe
350
29C
  3
3D Hidden
350
29E
  3
3dWireframe
350
29D
  3
Basic
350
29B
  3
Brighten
350
2A2
  3
ColorChange
350
2A6
  3
Conceptual
350
29F
  3
Dim
350
2A1
  3
Facepattern
350
2A5
  3
Flat
350
297
  3
FlatWithEdges
350
298
  3
Gouraud
350
299
  3
GouraudWithEdges
350
29A
  3
Linepattern
350
2A4
  3
Realistic
350
2A0
  3
Thicken
350
2A3
  0
XRECORD
  5
30D
102
{ACAD_REACTORS
330
C
102
}
330
C
100
AcDbXrecord
280
     1
 90
        1
330
124
  0
DICTIONARY
  5
9E
102
{ACAD_REACTORS
330
C
102
}
330
C
100
AcDbDictionary
281
     1
  3
CANNOSCALE
350
310
  3
CMLEADERSTYLE
350
30E
  3
CTABLESTYLE
350
144
  3
DIMASSOC
350
A0
  3
INDEXCTL
350
9F
  3
LAYEREVAL
350
36B
  3
LAYERNOTIFY
350
36C
  3
LIGHTINGUNITS
350
311
  3
MSLTSCALE
350
30F
  0
DICTIONARY
  5
63
102
{ACAD_REACTORS
330
C
102
}
330
C
100
AcDbDictionary
281
     1
  3
AcmStdDictionary
350
69
  3
AMDTSECTSYM_ARROWCOLOR
350
12C
  0
DICTIONARY
  5
49
102
{ACAD_REACTORS
330
C
102
}
330
C
100
AcDbDictionary
281
     1
  0
DICTIONARY
  5
413
102
{ACAD_REACTORS
330
C
102
}
330
C
100
AcDbDictionary
281
     1
  0
DICTIONARY
  5
3A0
102
{ACAD_REACTORS
330
39F
102
}
330
39F
100
AcDbDictionary
281
     1
  0
XRECORD
  5
4CC
102
{ACAD_REACTORS
330
4CB
102
}
330
4CB
100
AcDbXrecord
280
     1
290
     1
  0
XRECORD
  5
4CE
102
{ACAD_REACTORS
330
4CD
102
}
330
4CD
100
AcDbXrecord
280
     1
290
     1
  0
LAYOUT
  5
1E
102
{ACAD_REACTORS
330
1A
102
}
330
1A
100
AcDbPlotSettings
  1

  2

  4

  6

 40
0.0
 41
0.0
 42
0.0
 43
0.0
 44
0.0
 45
0.0
 46
0.0
 47
0.0
 48
0.0
 49
0.0
140
0.0
141
0.0
142
1.0
143
1.0
 70
   688
 72
     0
 73
     0
 74
     5
  7

 75
    16
147
1.0
 76
     0
 77
     2
 78
   300
148
0.0
149
0.0
100
AcDbLayout
  1
Layout1
 70
     1
 71
     1
 10
0.0
 20
0.0
 11
12.0
 21
9.0
 12
0.0
 22
0.0
 32
0.0
 14
1.000000000000000E+20
 24
1.000000000000000E+20
 34
1.000000000000000E+20
 15
-1.000000000000000E+20
 25
-1.000000000000000E+20
 35
-1.000000000000000E+20
146
0.0
 13
0.0
 23
0.0
 33
0.0
 16
1.0
 26
0.0
 36
0.0
 17
0.0
 27
1.0
 37
0.0
 76
     0
330
1B
  0
LAYOUT
  5
26
102
{ACAD_REACTORS
330
1A
102
}
330
1A
100
AcDbPlotSettings
  1

  2

  4

  6

 40
0.0
 41
0.0
 42
0.0
 43
0.0
 44
0.0
 45
0.0
 46
0.0
 47
0.0
 48
0.0
 49
0.0
140
0.0
141
0.0
142
1.0
143
1.0
 70
   688
 72
     0
 73
     0
 74
     5
  7

 75
    16
147
1.0
 76
     0
 77
     2
 78
   300
148
0.0
149
0.0
100
AcDbLayout
  1
Layout2
 70
     1
 71
     2
 10
0.0
 20
0.0
 11
12.0
 21
9.0
 12
0.0
 22
0.0
 32
0.0
 14
0.0
 24
0.0
 34
0.0
 15
0.0
 25
0.0
 35
0.0
146
0.0
 13
0.0
 23
0.0
 33
0.0
 16
1.0
 26
0.0
 36
0.0
 17
0.0
 27
1.0
 37
0.0
 76
     0
330
23
  0
LAYOUT
  5
22
102
{ACAD_REACTORS
330
1A
102
}
330
1A
100
AcDbPlotSettings
  1

  2

  4

  6

 40
0.0
 41
0.0
 42
0.0
 43
0.0
 44
0.0
 45
0.0
 46
0.0
 47
0.0
 48
0.0
 49
0.0
140
0.0
141
0.0
142
1.0
143
1.0
 70
  1712
 72
     0
 73
     0
 74
     0
  7

 75
     0
147
1.0
 76
     0
 77
     2
 78
   300
148
0.0
149
0.0
100
AcDbLayout
  1
Model
 70
     1
 71
     0
 10
0.0
 20
0.0
 11
12.0
 21
9.0
 12
0.0
 22
0.0
 32
0.0
 14
0.0
 24
0.0
 34
0.0
 15
0.0
 25
0.0
 35
0.0
146
0.0
 13
0.0
 23
0.0
 33
0.0
 16
1.0
 26
0.0
 36
0.0
 17
0.0
 27
1.0
 37
0.0
 76
     0
330
1F
331
291
  0
MATERIAL
  5
294
102
{ACAD_REACTORS
330
C8
102
}
330
C8
100
AcDbMaterial
  1
ByBlock
 73
     1
 78
     1
172
     1
176
     1
270
     1
274
     1
 94
       63
  0
MATERIAL
  5
293
102
{ACAD_REACTORS
330
C8
102
}
330
C8
100
AcDbMaterial
  1
ByLayer
 73
     1
 78
     1
172
     1
176
     1
270
     1
274
     1
 94
       63
  0
MATERIAL
  5
295
102
{ACAD_REACTORS
330
C8
102
}
330
C8
100
AcDbMaterial
  1
Global
 73
     1
 78
     1
172
     1
176
     1
270
     1
274
     1
 94
       63
  0
MLEADERSTYLE
  5
2ED
102
{ACAD_REACTORS
330
2EC
102
}
330
2EC
100
AcDbMLeaderStyle
170
     2
171
     1
172
     0
 90
        2
 40
0.0
 41
0.0
173
     1
 91
-1056964608
340
14
 92
       -2
290
     1
 42
0.09
291
     1
 43
0.36
  3
Standard
 44
0.18
300

342
11
174
     1
178
     6
175
     1
176
     0
 93
-1056964608
 45
0.18
292
     0
297
     0
 46
0.18
 94
-1056964608
 47
1.0
 49
1.0
140
1.0
293
     1
141
0.0
294
     1
177
     0
142
1.0
295
     0
296
     0
143
0.125
1001
ACAD_MLEADERVER
1070
     2
  0
MLINESTYLE
  5
18
102
{ACAD_REACTORS
330
17
102
}
330
17
100
AcDbMlineStyle
  2
STANDARD
 70
     0
  3

 62
   256
 51
90.0
 52
90.0
 71
     2
 49
0.5
 62
   256
  6
BYLAYER
 49
-0.5
 62
   256
  6
BYLAYER
  0
ACDBPLACEHOLDER
  5
F
102
{ACAD_REACTORS
330
E
102
}
330
E
  0
SCALE
  5
2CB
102
{ACAD_REACTORS
330
2CA
102
}
330
2CA
100
AcDbScale
 70
     0
300
1:1
140
1.0
141
1.0
290
     1
  0
SCALE
  5
2CC
102
{ACAD_REACTORS
330
2CA
102
}
330
2CA
100
AcDbScale
 70
     0
300
1:2
140
1.0
141
2.0
290
     0
  0
SCALE
  5
2CD
102
{ACAD_REACTORS
330
2CA
102
}
330
2CA
100
AcDbScale
 70
     0
300
1:4
140
1.0
141
4.0
290
     0
  0
SCALE
  5
2CE
102
{ACAD_REACTORS
330
2CA
102
}
330
2CA
100
AcDbScale
 70
     0
300
1:5
140
1.0
141
5.0
290
     0
  0
SCALE
  5
2CF
102
{ACAD_REACTORS
330
2CA
102
}
330
2CA
100
AcDbScale
 70
     0
300
1:8
140
1.0
141
8.0
290
     0
  0
SCALE
  5
2D0
102
{ACAD_REACTORS
330
2CA
102
}
330
2CA
100
AcDbScale
 70
     0
300
1:10
140
1.0
141
10.0
290
     0
  0
SCALE
  5
2D1
102
{ACAD_REACTORS
330
2CA
102
}
330
2CA
100
AcDbScale
 70
     0
300
1:16
140
1.0
141
16.0
290
     0
  0
SCALE
  5
2D2
102
{ACAD_REACTORS
330
2CA
102
}
330
2CA
100
AcDbScale
 70
     0
300
1:20
140
1.0
141
20.0
290
     0
  0
SCALE
  5
2D3
102
{ACAD_REACTORS
330
2CA
102
}
330
2CA
100
AcDbScale
 70
     0
300
1:30
140
1.0
141
30.0
290
     0
  0
SCALE
  5
2D4
102
{ACAD_REACTORS
330
2CA
102
}
330
2CA
100
AcDbScale
 70
     0
300
1:40
140
1.0
141
40.0
290
     0
  0
SCALE
  5
2D5
102
{ACAD_REACTORS
330
2CA
102
}
330
2CA
100
AcDbScale
 70
     0
300
1:50
140
1.0
141
50.0
290
     0
  0
SCALE
  5
2D6
102
{ACAD_REACTORS
330
2CA
102
}
330
2CA
100
AcDbScale
 70
     0
300
1:100
140
1.0
141
100.0
290
     0
  0
SCALE
  5
2D7
102
{ACAD_REACTORS
330
2CA
102
}
330
2CA
100
AcDbScale
 70
     0
300
2:1
140
2.0
141
1.0
290
     0
  0
SCALE
  5
2D8
102
{ACAD_REACTORS
330
2CA
102
}
330
2CA
100
AcDbScale
 70
     0
300
4:1
140
4.0
141
1.0
290
     0
  0
SCALE
  5
2D9
102
{ACAD_REACTORS
330
2CA
102
}
330
2CA
100
AcDbScale
 70
     0
300
8:1
140
8.0
141
1.0
290
     0
  0
SCALE
  5
2DA
102
{ACAD_REACTORS
330
2CA
102
}
330
2CA
100
AcDbScale
 70
     0
300
10:1
140
10.0
141
1.0
290
     0
  0
SCALE
  5
2DB
102
{ACAD_REACTORS
330
2CA
102
}
330
2CA
100
AcDbScale
 70
     0
300
100:1
140
100.0
141
1.0
290
     0
  0
SCALE
  5
2DC
102
{ACAD_REACTORS
330
2CA
102
}
330
2CA
100
AcDbScale
 70
     0
300
1/128" = 1'-0"
140
0.0078125
141
12.0
290
     0
  0
SCALE
  5
2DD
102
{ACAD_REACTORS
330
2CA
102
}
330
2CA
100
AcDbScale
 70
     0
300
1/64" = 1'-0"
140
0.015625
141
12.0
290
     0
  0
SCALE
  5
2DE
102
{ACAD_REACTORS
330
2CA
102
}
330
2CA
100
AcDbScale
 70
     0
300
1/32" = 1'-0"
140
0.03125
141
12.0
290
     0
  0
SCALE
  5
2DF
102
{ACAD_REACTORS
330
2CA
102
}
330
2CA
100
AcDbScale
 70
     0
300
1/16" = 1'-0"
140
0.0625
141
12.0
290
     0
  0
SCALE
  5
2E0
102
{ACAD_REACTORS
330
2CA
102
}
330
2CA
100
AcDbScale
 70
     0
300
3/32" = 1'-0"
140
0.09375
141
12.0
290
     0
  0
SCALE
  5
2E1
102
{ACAD_REACTORS
330
2CA
102
}
330
2CA
100
AcDbScale
 70
     0
300
1/8" = 1'-0"
140
0.125
141
12.0
290
     0
  0
SCALE
  5
2E2
102
{ACAD_REACTORS
330
2CA
102
}
330
2CA
100
AcDbScale
 70
     0
300
3/16" = 1'-0"
140
0.1875
141
12.0
290
     0
  0
SCALE
  5
2E3
102
{ACAD_REACTORS
330
2CA
102
}
330
2CA
100
AcDbScale
 70
     0
300
1/4" = 1'-0"
140
0.25
141
12.0
290
     0
  0
SCALE
  5
2E4
102
{ACAD_REACTORS
330
2CA
102
}
330
2CA
100
AcDbScale
 70
     0
300
3/8" = 1'-0"
140
0.375
141
12.0
290
     0
  0
SCALE
  5
2E5
102
{ACAD_REACTORS
330
2CA
102
}
330
2CA
100
AcDbScale
 70
     0
300
1/2" = 1'-0"
140
0.5
141
12.0
290
     0
  0
SCALE
  5
2E6
102
{ACAD_REACTORS
330
2CA
102
}
330
2CA
100
AcDbScale
 70
     0
300
3/4" = 1'-0"
140
0.75
141
12.0
290
     0
  0
SCALE
  5
2E7
102
{ACAD_REACTORS
330
2CA
102
}
330
2CA
100
AcDbScale
 70
     0
300
1" = 1'-0"
140
1.0
141
12.0
290
     0
  0
SCALE
  5
2E8
102
{ACAD_REACTORS
330
2CA
102
}
330
2CA
100
AcDbScale
 70
     0
300
1-1/2" = 1'-0"
140
1.5
141
12.0
290
     0
  0
SCALE
  5
2E9
102
{ACAD_REACTORS
330
2CA
102
}
330
2CA
100
AcDbScale
 70
     0
300
3" = 1'-0"
140
3.0
141
12.0
290
     0
  0
SCALE
  5
2EA
102
{ACAD_REACTORS
330
2CA
102
}
330
2CA
100
AcDbScale
 70
     0
300
6" = 1'-0"
140
6.0
141
12.0
290
     0
  0
SCALE
  5
2EB
102
{ACAD_REACTORS
330
2CA
102
}
330
2CA
100
AcDbScale
 70
     0
300
1'-0" = 1'-0"
140
12.0
141
12.0
290
     0
  0
TABLESTYLE
  5
124
102
{ACAD_XDICTIONARY
360
30B
102
}
102
{ACAD_REACTORS
330
123
102
}
330
123
100
AcDbTableStyle
  3
Standard
 70
     0
 71
     0
 40
0.06
 41
0.06
280
     0
281
     0
  7
STANDARD
140
0.18
170
     2
 62
     0
 63
     7
283
     0
 90
      512
 91
        0
  1

274
    -2
284
     1
 64
     0
275
    -2
285
     1
 65
     0
276
    -2
286
     1
 66
     0
277
    -2
287
     1
 67
     0
278
    -2
288
     1
 68
     0
279
    -2
289
     1
 69
     0
  7
STANDARD
140
0.25
170
     5
 62
     0
 63
     7
283
     0
 90
      512
 91
        0
  1

274
    -2
284
     1
 64
     0
275
    -2
285
     1
 65
     0
276
    -2
286
     1
 66
     0
277
    -2
287
     1
 67
     0
278
    -2
288
     1
 68
     0
279
    -2
289
     1
 69
     0
  7
STANDARD
140
0.18
170
     5
 62
     0
 63
     7
283
     0
 90
      512
 91
        0
  1

274
    -2
284
     1
 64
     0
275
    -2
285
     1
 65
     0
276
    -2
286
     1
 66
     0
277
    -2
287
     1
 67
     0
278
    -2
288
     1
 68
     0
279
    -2
289
     1
 69
     0
  0
VISUALSTYLE
  5
29C
102
{ACAD_REACTORS
330
296
102
}
330
296
100
AcDbVisualStyle
  2
2dWireframe
 70
     4
 71
     0
 72
     2
 73
     0
 90
        0
 40
-0.6
 41
-30.0
 62
     5
 63
     7
421
 16777215
 74
     1
 91
        4
 64
     7
 65
   257
 75
     1
175
     1
 42
1.0
 92
        0
 66
   257
 43
1.0
 76
     1
 77
     6
 78
     2
 67
     7
 79
     5
170
     0
171
     0
290
     0
174
     0
 93
        1
 44
0.0
173
     0
291
     0
 45
0.0
  0
VISUALSTYLE
  5
29E
102
{ACAD_REACTORS
330
296
102
}
330
296
100
AcDbVisualStyle
  2
3D Hidden
 70
     6
 71
     1
 72
     2
 73
     2
 90
        0
 40
-0.6
 41
-30.0
 62
     5
 63
     7
421
 16777215
 74
     2
 91
        2
 64
     7
 65
   257
 75
     2
175
     1
 42
40.0
 92
        0
 66
   257
 43
1.0
 76
     1
 77
     6
 78
     2
 67
     7
 79
     3
170
     0
171
     0
290
     0
174
     0
 93
        1
 44
0.0
173
     0
291
     0
 45
0.0
  0
VISUALSTYLE
  5
29D
102
{ACAD_REACTORS
330
296
102
}
330
296
100
AcDbVisualStyle
  2
3dWireframe
 70
     5
 71
     0
 72
     2
 73
     0
 90
        0
 40
-0.6
 41
-30.0
 62
     5
 63
     7
421
 16777215
 74
     1
 91
        4
 64
     7
 65
   257
 75
     1
175
     1
 42
1.0
 92
        0
 66
   257
 43
1.0
 76
     1
 77
     6
 78
     2
 67
     7
 79
     5
170
     0
171
     0
290
     0
174
     0
 93
        1
 44
0.0
173
     0
291
     0
 45
0.0
  0
VISUALSTYLE
  5
29B
102
{ACAD_REACTORS
330
296
102
}
330
296
100
AcDbVisualStyle
  2
Basic
 70
     7
 71
     1
 72
     0
 73
     1
 90
        0
 40
-0.6
 41
-30.0
 62
     5
 63
     7
421
 16777215
 74
     0
 91
        4
 64
     7
 65
   257
 75
     1
175
     1
 42
1.0
 92
        8
 66
     7
 43
1.0
 76
     1
 77
     6
 78
     2
 67
     7
 79
     5
170
     0
171
     0
290
     0
174
     0
 93
        1
 44
0.0
173
     0
291
     1
 45
0.0
  0
VISUALSTYLE
  5
2A2
102
{ACAD_REACTORS
330
296
102
}
330
296
100
AcDbVisualStyle
  2
Brighten
 70
    12
 71
     2
 72
     2
 73
     0
 90
        0
 40
-0.6
 41
-30.0
 62
     5
 63
     7
421
 16777215
 74
     1
 91
        4
 64
     7
 65
   257
 75
     1
175
     1
 42
1.0
 92
        8
 66
     7
 43
1.0
 76
     1
 77
     6
 78
     2
 67
     7
 79
     5
170
     0
171
     0
290
     0
174
     0
 93
        1
 44
50.0
173
     0
291
     1
 45
0.0
  0
VISUALSTYLE
  5
2A6
102
{ACAD_REACTORS
330
296
102
}
330
296
100
AcDbVisualStyle
  2
ColorChange
 70
    16
 71
     2
 72
     2
 73
     3
 90
        0
 40
-0.6
 41
-30.0
 62
     5
 63
     8
421
  8421504
 74
     1
 91
        4
 64
     7
 65
   257
 75
     1
175
     1
 42
1.0
 92
        8
 66
     8
424
  8421504
 43
1.0
 76
     1
 77
     6
 78
     2
 67
     7
 79
     5
170
     0
171
     0
290
     0
174
     0
 93
        1
 44
0.0
173
     0
291
     1
 45
0.0
  0
VISUALSTYLE
  5
29F
102
{ACAD_REACTORS
330
296
102
}
330
296
100
AcDbVisualStyle
  2
Conceptual
 70
     9
 71
     3
 72
     2
 73
     0
 90
        0
 40
-0.6
 41
-30.0
 62
     5
 63
     7
421
 16777215
 74
     2
 91
        2
 64
     7
 65
   257
 75
     1
175
     1
 42
40.0
 92
        8
 66
     7
 43
1.0
 76
     1
 77
     6
 78
     2
 67
     7
 79
     3
170
     0
171
     0
290
     0
174
     0
 93
        1
 44
0.0
173
     0
291
     0
 45
0.0
  0
VISUALSTYLE
  5
2A1
102
{ACAD_REACTORS
330
296
102
}
330
296
100
AcDbVisualStyle
  2
Dim
 70
    11
 71
     2
 72
     2
 73
     0
 90
        0
 40
-0.6
 41
-30.0
 62
     5
 63
     7
421
 16777215
 74
     1
 91
        4
 64
     7
 65
   257
 75
     1
175
     1
 42
1.0
 92
        8
 66
     7
 43
1.0
 76
     1
 77
     6
 78
     2
 67
     7
 79
     5
170
     0
171
     0
290
     0
174
     0
 93
        1
 44
-50.0
173
     0
291
     1
 45
0.0
  0
VISUALSTYLE
  5
2A5
102
{ACAD_REACTORS
330
296
102
}
330
296
100
AcDbVisualStyle
  2
Facepattern
 70
    15
 71
     2
 72
     2
 73
     0
 90
        0
 40
-0.6
 41
-30.0
 62
     5
 63
     7
421
 16777215
 74
     1
 91
        4
 64
     7
 65
   257
 75
     1
175
     1
 42
1.0
 92
        8
 66
     7
 43
1.0
 76
     1
 77
     6
 78
     2
 67
     7
 79
     5
170
     0
171
     0
290
     0
174
     0
 93
        1
 44
0.0
173
     0
291
     1
 45
0.0
  0
VISUALSTYLE
  5
297
102
{ACAD_REACTORS
330
296
102
}
330
296
100
AcDbVisualStyle
  2
Flat
 70
     0
 71
     2
 72
     1
 73
     1
 90
        2
 40
-0.6
 41
30.0
 62
     5
 63
     7
421
 16777215
 74
     0
 91
        4
 64
     7
 65
   257
 75
     1
175
     1
 42
1.0
 92
        8
 66
     7
 43
1.0
 76
     1
 77
     6
 78
     2
 67
     7
 79
     5
170
     0
171
     0
290
     0
174
     0
 93
       13
 44
0.0
173
     0
291
     1
 45
0.0
  0
VISUALSTYLE
  5
298
102
{ACAD_REACTORS
330
296
102
}
330
296
100
AcDbVisualStyle
  2
FlatWithEdges
 70
     1
 71
     2
 72
     1
 73
     1
 90
        2
 40
-0.6
 41
30.0
 62
     5
 63
     7
421
 16777215
 74
     1
 91
        4
 64
     7
 65
   257
 75
     1
175
     1
 42
1.0
 92
        0
 66
   257
 43
1.0
 76
     1
 77
     6
 78
     2
 67
     7
 79
     5
170
     0
171
     0
290
     0
174
     0
 93
       13
 44
0.0
173
     0
291
     1
 45
0.0
  0
VISUALSTYLE
  5
299
102
{ACAD_REACTORS
330
296
102
}
330
296
100
AcDbVisualStyle
  2
Gouraud
 70
     2
 71
     2
 72
     2
 73
     1
 90
        2
 40
-0.6
 41
30.0
 62
     5
 63
     7
421
 16777215
 74
     0
 91
        4
 64
     7
 65
   257
 75
     1
175
     1
 42
1.0
 92
        0
 66
     7
 43
1.0
 76
     1
 77
     6
 78
     2
 67
     7
 79
     5
170
     0
171
     0
290
     0
174
     0
 93
       13
 44
0.0
173
     0
291
     1
 45
0.0
  0
VISUALSTYLE
  5
29A
102
{ACAD_REACTORS
330
296
102
}
330
296
100
AcDbVisualStyle
  2
GouraudWithEdges
 70
     3
 71
     2
 72
     2
 73
     1
 90
        2
 40
-0.6
 41
30.0
 62
     5
 63
     7
421
 16777215
 74
     1
 91
        4
 64
     7
 65
   257
 75
     1
175
     1
 42
1.0
 92
        0
 66
   257
 43
1.0
 76
     1
 77
     6
 78
     2
 67
     7
 79
     5
170
     0
171
     0
290
     0
174
     0
 93
       13
 44
0.0
173
     0
291
     1
 45
0.0
  0
VISUALSTYLE
  5
2A4
102
{ACAD_REACTORS
330
296
102
}
330
296
100
AcDbVisualStyle
  2
Linepattern
 70
    14
 71
     2
 72
     2
 73
     0
 90
        0
 40
-0.6
 41
-30.0
 62
     5
 63
     7
421
 16777215
 74
     1
 91
        4
 64
     7
 65
   257
 75
     7
175
     7
 42
1.0
 92
        8
 66
     7
 43
1.0
 76
     1
 77
     6
 78
     2
 67
     7
 79
     5
170
     0
171
     0
290
     0
174
     0
 93
        1
 44
0.0
173
     0
291
     1
 45
0.0
  0
VISUALSTYLE
  5
2A0
102
{ACAD_REACTORS
330
296
102
}
330
296
100
AcDbVisualStyle
  2
Realistic
 70
     8
 71
     2
 72
     2
 73
     0
 90
        0
 40
-0.6
 41
-30.0
 62
     5
 63
     7
421
 16777215
 74
     1
 91
        0
 64
     7
 65
   257
 75
     1
175
     1
 42
1.0
 92
        8
 66
     8
424
  7895160
 43
1.0
 76
     1
 77
     6
 78
     2
 67
     7
 79
     5
170
     0
171
     0
290
     0
174
     0
 93
       13
 44
0.0
173
     0
291
     0
 45
0.0
  0
VISUALSTYLE
  5
2A3
102
{ACAD_REACTORS
330
296
102
}
330
296
100
AcDbVisualStyle
  2
Thicken
 70
    13
 71
     2
 72
     2
 73
     0
 90
        0
 40
-0.6
 41
-30.0
 62
     5
 63
     7
421
 16777215
 74
     1
 91
        4
 64
     7
 65
   257
 75
     1
175
     1
 42
1.0
 92
       12
 66
     7
 43
1.0
 76
     1
 77
     6
 78
     2
 67
     7
 79
     5
170
     0
171
     0
290
     0
174
     0
 93
        1
 44
0.0
173
     0
291
     1
 45
0.0
  0
DICTIONARYVAR
  5
310
102
{ACAD_REACTORS
330
9E
102
}
330
9E
100
DictionaryVariables
280
     0
  1
1:1
  0
DICTIONARYVAR
  5
30E
102
{ACAD_REACTORS
330
9E
102
}
330
9E
100
DictionaryVariables
280
     0
  1
STANDARD
  0
DICTIONARYVAR
  5
144
102
{ACAD_REACTORS
330
9E
102
}
330
9E
100
DictionaryVariables
280
     0
  1
STANDARD
  0
DICTIONARYVAR
  5
A0
102
{ACAD_REACTORS
330
9E
102
}
330
9E
100
DictionaryVariables
280
     0
  1
2
  0
DICTIONARYVAR
  5
9F
102
{ACAD_REACTORS
330
9E
102
}
330
9E
100
DictionaryVariables
280
     0
  1
1
  0
DICTIONARYVAR
  5
36B
102
{ACAD_REACTORS
330
9E
102
}
330
9E
100
DictionaryVariables
280
     0
  1
1
  0
DICTIONARYVAR
  5
36C
102
{ACAD_REACTORS
330
9E
102
}
330
9E
100
DictionaryVariables
280
     0
  1
15
  0
DICTIONARYVAR
  5
311
102
{ACAD_REACTORS
330
9E
102
}
330
9E
100
DictionaryVariables
280
     0
  1
0
  0
DICTIONARYVAR
  5
30F
102
{ACAD_REACTORS
330
9E
102
}
330
9E
100
DictionaryVariables
280
     0
  1
0
  0
DICTIONARY
  5
69
102
{ACAD_REACTORS
330
63
102
}
330
63
100
AcDbDictionary
281
     1
  0
XRECORD
  5
12C
102
{ACAD_REACTORS
330
63
102
}
330
63
100
AcDbXrecord
280
     1
 90
-1023410169
  0
DICTIONARY
  5
30B
330
124
100
AcDbDictionary
280
     1
281
     1
  3
ACAD_ROUNDTRIP_2008_TABLESTYLE_CELLSTYLEMAP
360
6A7
  0
CELLSTYLEMAP
  5
6A7
102
{ACAD_REACTORS
330
30B
102
}
330
30B
100
AcDbCellStyleMap
 90
        3
300
CELLSTYLE
  1
TABLEFORMAT_BEGIN
 90
        5
170
     1
 91
        0
 92
    32768
 62
   257
 93
        1
300
CONTENTFORMAT
  1
CONTENTFORMAT_BEGIN
 90
        0
 91
        0
 92
      512
 93
        0
300

 40
0.0
140
1.0
 94
        5
 62
     0
340
11
144
0.25
309
CONTENTFORMAT_END
171
     0
 94
        6
 95
        1
302
GRIDFORMAT
  1
GRIDFORMAT_BEGIN
 90
        0
 91
        1
 62
     0
 92
       -2
340
0
 93
        0
 40
0.045
309
GRIDFORMAT_END
 95
        2
302
GRIDFORMAT
  1
GRIDFORMAT_BEGIN
 90
        0
 91
        1
 62
     0
 92
       -2
340
0
 93
        0
 40
0.045
309
GRIDFORMAT_END
 95
        4
302
GRIDFORMAT
  1
GRIDFORMAT_BEGIN
 90
        0
 91
        1
 62
     0
 92
       -2
340
0
 93
        0
 40
0.045
309
GRIDFORMAT_END
 95
        8
302
GRIDFORMAT
  1
GRIDFORMAT_BEGIN
 90
        0
 91
        1
 62
     0
 92
       -2
340
0
 93
        0
 40
0.045
309
GRIDFORMAT_END
 95
       16
302
GRIDFORMAT
  1
GRIDFORMAT_BEGIN
 90
        0
 91
        1
 62
     0
 92
       -2
340
0
 93
        0
 40
0.045
309
GRIDFORMAT_END
 95
       32
302
GRIDFORMAT
  1
GRIDFORMAT_BEGIN
 90
        0
 91
        1
 62
     0
 92
       -2
340
0
 93
        0
 40
0.045
309
GRIDFORMAT_END
309
TABLEFORMAT_END
  1
CELLSTYLE_BEGIN
 90
        1
 91
        1
300
_TITLE
309
CELLSTYLE_END
300
CELLSTYLE
  1
TABLEFORMAT_BEGIN
 90
        5
170
     1
 91
        0
 92
        0
 62
   257
 93
        1
300
CONTENTFORMAT
  1
CONTENTFORMAT_BEGIN
 90
        0
 91
        0
 92
      512
 93
        0
300

 40
0.0
140
1.0
 94
        5
 62
     0
340
11
144
0.18
309
CONTENTFORMAT_END
171
     0
 94
        6
 95
        1
302
GRIDFORMAT
  1
GRIDFORMAT_BEGIN
 90
        0
 91
        1
 62
     0
 92
       -2
340
0
 93
        0
 40
0.045
309
GRIDFORMAT_END
 95
        2
302
GRIDFORMAT
  1
GRIDFORMAT_BEGIN
 90
        0
 91
        1
 62
     0
 92
       -2
340
0
 93
        0
 40
0.045
309
GRIDFORMAT_END
 95
        4
302
GRIDFORMAT
  1
GRIDFORMAT_BEGIN
 90
        0
 91
        1
 62
     0
 92
       -2
340
0
 93
        0
 40
0.045
309
GRIDFORMAT_END
 95
        8
302
GRIDFORMAT
  1
GRIDFORMAT_BEGIN
 90
        0
 91
        1
 62
     0
 92
       -2
340
0
 93
        0
 40
0.045
309
GRIDFORMAT_END
 95
       16
302
GRIDFORMAT
  1
GRIDFORMAT_BEGIN
 90
        0
 91
        1
 62
     0
 92
       -2
340
0
 93
        0
 40
0.045
309
GRIDFORMAT_END
 95
       32
302
GRIDFORMAT
  1
GRIDFORMAT_BEGIN
 90
        0
 91
        1
 62
     0
 92
       -2
340
0
 93
        0
 40
0.045
309
GRIDFORMAT_END
309
TABLEFORMAT_END
  1
CELLSTYLE_BEGIN
 90
        2
 91
        1
300
_HEADER
309
CELLSTYLE_END
300
CELLSTYLE
  1
TABLEFORMAT_BEGIN
 90
        5
170
     1
 91
        0
 92
        0
 62
   257
 93
        1
300
CONTENTFORMAT
  1
CONTENTFORMAT_BEGIN
 90
        0
 91
        0
 92
      512
 93
        0
300

 40
0.0
140
1.0
 94
        2
 62
     0
340
11
144
0.18
309
CONTENTFORMAT_END
171
     0
 94
        6
 95
        1
302
GRIDFORMAT
  1
GRIDFORMAT_BEGIN
 90
        0
 91
        1
 62
     0
 92
       -2
340
0
 93
        0
 40
0.045
309
GRIDFORMAT_END
 95
        2
302
GRIDFORMAT
  1
GRIDFORMAT_BEGIN
 90
        0
 91
        1
 62
     0
 92
       -2
340
0
 93
        0
 40
0.045
309
GRIDFORMAT_END
 95
        4
302
GRIDFORMAT
  1
GRIDFORMAT_BEGIN
 90
        0
 91
        1
 62
     0
 92
       -2
340
0
 93
        0
 40
0.045
309
GRIDFORMAT_END
 95
        8
302
GRIDFORMAT
  1
GRIDFORMAT_BEGIN
 90
        0
 91
        1
 62
     0
 92
       -2
340
0
 93
        0
 40
0.045
309
GRIDFORMAT_END
 95
       16
302
GRIDFORMAT
  1
GRIDFORMAT_BEGIN
 90
        0
 91
        1
 62
     0
 92
       -2
340
0
 93
        0
 40
0.045
309
GRIDFORMAT_END
 95
       32
302
GRIDFORMAT
  1
GRIDFORMAT_BEGIN
 90
        0
 91
        1
 62
     0
 92
       -2
340
0
 93
        0
 40
0.045
309
GRIDFORMAT_END
309
TABLEFORMAT_END
  1
CELLSTYLE_BEGIN
 90
        3
 91
        2
300
_DATA
309
CELLSTYLE_END
  0
ENDSEC
  0
EOF
