  0
SECTION
  2
HEADER
  9
$ACADVER
  1
AC1009
  9
$INSBASE
 10
4511.8374588117922031
 20
347.3113709681069849
 30
0.0
  9
$EXTMIN
 10
4482.1420023084810964
 20
333.5195671224865919
 30
-0.0000000000112498
  9
$EXTMAX
 10
4541.4341759808503411
 20
361.1085462706971043
 30
0.0000000000002956
  9
$LIMMIN
 10
0.0
 20
0.0
  9
$LIMMAX
 10
11.6929133858000007
 20
8.2677165353999982
  9
$ORTHOMODE
 70
     0
  9
$REGENMODE
 70
     1
  9
$FILLMODE
 70
     1
  9
$QTEXTMODE
 70
     0
  9
$MIRRTEXT
 70
     0
  9
$DRAGMODE
 70
     2
  9
$LTSCALE
 40
0.6431102362
  9
$OSMODE
 70
   575
  9
$ATTMODE
 70
     1
  9
$TEXTSIZE
 40
0.2
  9
$TRACEWID
 40
0.05
  9
$TEXTSTYLE
  7
STANDARD
  9
$CLAYER
  8
0
  9
$CELTYPE
  6
BYLAYER
  9
$CECOLOR
 62
   256
  9
$DIMSCALE
 40
1.0
  9
$DIMASZ
 40
0.1875
  9
$DIMEXO
 40
0.0625
  9
$DIMDLI
 40
0.4443307087
  9
$DIMRND
 40
0.0
  9
$DIMDLE
 40
0.0
  9
$DIMEXE
 40
0.125
  9
$DIMTP
 40
0.01
  9
$DIMTM
 40
0.01
  9
$DIMTXT
 40
2.0
  9
$DIMCEN
 40
0.1052362205
  9
$DIMTSZ
 40
0.0
  9
$DIMTOL
 70
     1
  9
$DIMLIM
 70
     0
  9
$DIMTIH
 70
     1
  9
$DIMTOH
 70
     1
  9
$DIMSE1
 70
     0
  9
$DIMSE2
 70
     0
  9
$DIMTAD
 70
     0
  9
$DIMZIN
 70
     0
  9
$DIMBLK
  1

  9
$DIMASO
 70
     1
  9
$DIMSHO
 70
     1
  9
$DIMPOST
  1
\X
  9
$DIMAPOST
  1

  9
$DIMALT
 70
     1
  9
$DIMALTD
 70
     2
  9
$DIMALTF
 40
25.3999999999999986
  9
$DIMLFAC
 40
1.0
  9
$DIMTOFL
 70
     0
  9
$DIMTVP
 40
0.0
  9
$DIMTIX
 70
     0
  9
$DIMSOXD
 70
     0
  9
$DIMSAH
 70
     0
  9
$DIMBLK1
  1

  9
$DIMBLK2
  1

  9
$DIMSTYLE
  2
STANDARD
  9
$DIMCLRD
 70
     0
  9
$DIMCLRE
 70
     0
  9
$DIMCLRT
 70
     0
  9
$DIMTFAC
 40
1.0
  9
$DIMGAP
 40
0.09
  9
$LUNITS
 70
     2
  9
$LUPREC
 70
     4
  9
$SKETCHINC
 40
0.1
  9
$FILLETRAD
 40
0.0
  9
$AUNITS
 70
     0
  9
$AUPREC
 70
     0
  9
$MENU
  1
.
  9
$ELEVATION
 40
0.0
  9
$PELEVATION
 40
0.0
  9
$THICKNESS
 40
0.0
  9
$LIMCHECK
 70
     0
  9
$BLIPMODE
 70
     0
  9
$CHAMFERA
 40
0.0
  9
$CHAMFERB
 40
0.0
  9
$SKPOLY
 70
     0
  9
$TDCREATE
 40
2458060.468368056230247
  9
$TDUPDATE
 40
2459389.5470486111007631
  9
$TDINDWG
 40
0.5272871528
  9
$TDUSRTIMER
 40
0.5272871528
  9
$USRTIMER
 70
     1
  9
$ANGBASE
 50
0.0
  9
$ANGDIR
 70
     0
  9
$PDMODE
 70
     0
  9
$PDSIZE
 40
0.3125
  9
$PLINEWID
 40
0.0
  9
$COORDS
 70
     2
  9
$SPLFRAME
 70
     0
  9
$SPLINETYPE
 70
     6
  9
$SPLINESEGS
 70
     8
  9
$ATTDIA
 70
     1
  9
$ATTREQ
 70
     1
  9
$HANDLING
 70
     1
  9
$HANDSEED
  5
20E36
  9
$SURFTAB1
 70
     6
  9
$SURFTAB2
 70
     6
  9
$SURFTYPE
 70
     6
  9
$SURFU
 70
     6
  9
$SURFV
 70
     6
  9
$UCSNAME
  2

  9
$UCSORG
 10
0.0
 20
0.0
 30
0.0
  9
$UCSXDIR
 10
1.0
 20
0.0
 30
0.0
  9
$UCSYDIR
 10
0.0
 20
1.0
 30
0.0
  9
$PUCSNAME
  2

  9
$PUCSORG
 10
0.0
 20
0.0
 30
0.0
  9
$PUCSXDIR
 10
1.0
 20
0.0
 30
0.0
  9
$PUCSYDIR
 10
0.0
 20
1.0
 30
0.0
  9
$USERI1
 70
     0
  9
$USERI2
 70
     0
  9
$USERI3
 70
     0
  9
$USERI4
 70
     0
  9
$USERI5
 70
     0
  9
$USERR1
 40
0.0
  9
$USERR2
 40
0.0
  9
$USERR3
 40
0.0
  9
$USERR4
 40
0.0
  9
$USERR5
 40
0.0
  9
$WORLDVIEW
 70
     1
  9
$SHADEDGE
 70
     3
  9
$SHADEDIF
 70
    70
  9
$TILEMODE
 70
     1
  9
$MAXACTVP
 70
    64
  9
$PLIMCHECK
 70
     0
  9
$PEXTMIN
 10
1.0000000000000000E+20
 20
1.0000000000000000E+20
 30
1.0000000000000000E+20
  9
$PEXTMAX
 10
-1.0000000000000000E+20
 20
-1.0000000000000000E+20
 30
-1.0000000000000000E+20
  9
$PLIMMIN
 10
0.0
 20
0.0
  9
$PLIMMAX
 10
12.0
 20
9.0
  9
$UNITMODE
 70
     0
  9
$VISRETAIN
 70
     1
  9
$PLINEGEN
 70
     0
  9
$PSLTSCALE
 70
     1
  0
ENDSEC
  0
SECTION
  2
TABLES
  0
TABLE
  2
VPORT
 70
     1
  0
VPORT
  2
*ACTIVE
 70
     0
 10
0.0
 20
0.0
 11
1.0
 21
1.0
 12
600.4227324219317552
 22
214.7344515254829957
 13
0.0
 23
0.0
 14
1.0
 24
1.0
 15
0.0
 25
0.0
 16
0.0
 26
0.0
 36
60.4960186965801583
 17
3911.3653564453120453
 27
132.5796051025390057
 37
0.0
 40
37.5998373582247893
 41
2.5405405405405399
 42
50.0
 43
0.0
 44
0.0
 50
0.0
 51
0.0
 71
     0
 72
   100
 73
     1
 74
     1
 75
     0
 76
     0
 77
     0
 78
     0
  0
ENDTAB
  0
TABLE
  2
LTYPE
 70
     2
  0
LTYPE
  2
CONTINUOUS
 70
     0
  3
Solid line
 72
    65
 73
     0
 40
0.0
  0
LTYPE
  2
PHANTOM2
 70
     0
  3
___ _ _ ___ _ _ ___ _ _ ___ _ _
 72
    65
 73
     6
 40
1.25
 49
0.625
 49
-0.125
 49
0.125
 49
-0.125
 49
0.125
 49
-0.125
  0
ENDTAB
  0
TABLE
  2
LAYER
 70
     2
  0
LAYER
  2
0
 70
     0
 62
   255
  6
CONTINUOUS
  0
LAYER
  2
DEFPOINTS
 70
     0
 62
     7
  6
CONTINUOUS
  0
ENDTAB
  0
TABLE
  2
STYLE
 70
     1
  0
STYLE
  2
STANDARD
 70
     0
 40
0.0
 41
0.8
 50
0.0
 71
     0
 42
0.2
  3
txt
  4

  0
ENDTAB
  0
TABLE
  2
VIEW
 70
     3
  0
ENDTAB
  0
TABLE
  2
UCS
 70
     0
  0
ENDTAB
  0
TABLE
  2
APPID
 70
    11
  0
APPID
  2
ACAD
 70
     0
  0
APPID
  2
ACAD_MLEADERVER
 70
     0
  0
APPID
  2
ACAD_EXEMPT_FROM_CAD_STANDARDS
 70
     0
  0
APPID
  2
ACAD_NAV_VCDISPLAY
 70
     0
  0
APPID
  2
ACAECLAYERSTANDARD
 70
     0
  0
APPID
  2
ACCMTRANSPARENCY
 70
     0
  0
APPID
  2
ACAD_DSTYLE_DIMJAG
 70
     0
  0
APPID
  2
ACAD_DSTYLE_DIMTALN
 70
     0
  0
APPID
  2
ACDBATTR
 70
     0
  0
APPID
  2
ACADANNOTATIVE
 70
     0
  0
APPID
  2
DCO15
 70
     0
  0
ENDTAB
  0
TABLE
  2
DIMSTYLE
 70
     1
  0
DIMSTYLE
  2
STANDARD
 70
     0
  3

  4

  5

  6

  7

 40
1.0
 41
0.1875
 42
0.0625
 43
0.38
 44
0.125
 45
0.0
 46
0.0
 47
0.01
 48
0.01
140
0.15625
141
0.09
142
0.0
143
25.3999999999999986
144
1.0
145
0.0
146
1.0
147
0.09
 71
     1
 72
     0
 73
     1
 74
     1
 75
     0
 76
     0
 77
     0
 78
     4
170
     0
171
     2
172
     0
173
     0
174
     0
175
     0
176
     0
177
     0
178
     0
  0
ENDTAB
  0
ENDSEC
  0
SECTION
  2
BLOCKS
  0
BLOCK
  8
0
  2
$MODEL_SPACE
 70
     0
 10
0.0
 20
0.0
 30
0.0
  3
$MODEL_SPACE
  1

  0
ENDBLK
  5
21
  8
0
  0
BLOCK
 67
     1
  8
0
  2
$PAPER_SPACE
 70
     0
 10
0.0
 20
0.0
 30
0.0
  3
$PAPER_SPACE
  1

  0
ENDBLK
  5
1D
 67
     1
  8
0
  0
ENDSEC
  0
SECTION
  2
ENTITIES
  0
ATTDEF
  5
20106
  8
DEFPOINTS
 10
4511.8375331426950652
 20
347.3103066151174971
 30
0.0
 40
0.001
  1
K-17502T
  3

  2
MODELNUMBER
 70
     0
1001
ACDBATTR
1070
     0
1070
     1
  0
ATTDEF
  5
20107
  8
DEFPOINTS
 10
4511.8374073330378451
 20
347.308639774738424
 30
0.0
 40
0.001
  1
MELANIE
  3

  2
TRADENAME
 70
     0
1001
ACDBATTR
1070
     0
1070
     1
  0
ATTDEF
  5
20108
  8
DEFPOINTS
 10
4511.8375331426950652
 20
347.3069732817842237
 30
0.0
 40
0.001
  1
BATH
  3

  2
PRODUCT
 70
     0
1001
ACDBATTR
1070
     0
1070
     1
  0
LINE
  5
20D46
  8
0
 10
4541.3656762584887474
 20
347.3113709680069974
 30
0.0
 11
4541.3439041435876788
 21
347.3113709680069974
 31
0.0
  0
CIRCLE
  5
20D47
  8
0
 10
4529.6333927939876958
 20
347.3113709680069974
 30
0.0
 40
1.7813257916999989
  0
CIRCLE
  5
20D48
  8
0
 10
4529.6333927939876958
 20
347.3113709680069974
 30
0.0
 40
1.0236220471999991
  0
ARC
  5
20D49
  8
0
 10
4504.3047390297970196
 20
347.1531417074950241
 30
0.0
 40
9.2286498961480952
 50
143.6195618128863885
 51
179.0175905288741092
  0
ARC
  5
20D4A
  8
0
 10
4504.3862573505266482
 20
347.789139674965611
 30
0.0
 40
8.9346331568684842
 50
123.3732391827844026
 51
147.2155876398952898
  0
ARC
  5
20D4B
  8
0
 10
4502.0720701358786755
 20
351.1837338114784188
 30
0.0
 40
4.8272191068570489
 50
92.9075011728020854
 51
122.5986930164387019
  0
ARC
  5
20D4C
  8
0
 10
4494.5362281237939897
 20
-821.0330774827334608
 30
0.0
 40
1177.0603977012119685
 50
88.3068256579588393
 51
89.6450942600335452
  0
ARC
  5
20D4D
  8
0
 10
4529.2425863275338997
 20
350.1686363768678802
 30
0.0
 40
5.3452550684611886
 50
61.0957352343885489
 51
89.2234825771367497
  0
ARC
  5
20D4E
  8
0
 10
4529.3989865547500813
 20
350.3010939734958242
 30
0.0
 40
5.1542177236263029
 50
35.8672677125465285
 51
61.9060749911729573
  0
ARC
  5
20D4F
  8
0
 10
4526.8185896357554157
 20
348.2304316714269135
 30
0.0
 40
8.4601628588068856
 50
6.2859940677451629
 51
36.9924896559236416
  0
ARC
  5
20D50
  8
0
 10
4519.7517911895793077
 20
347.4141937330982728
 30
0.0
 40
15.5738902631192602
 50
359.6217160148630114
 51
6.4242398043920188
  0
ARC
  5
20D51
  8
0
 10
4496.639760693318749
 20
347.305856292706892
 30
0.0
 40
9.8232522122528305
 50
171.3717821902332901
 51
179.9678347215794076
  0
ARC
  5
20D52
  8
0
 10
4498.5477930820343317
 20
346.9168205037835833
 30
0.0
 40
11.7684659659512807
 50
144.2423289312546899
 51
170.8927781791969949
  0
ARC
  5
20D53
  8
0
 10
4498.4907457532017361
 20
347.3323597614847245
 30
0.0
 40
11.4833697082359301
 50
119.328667325831006
 51
145.758663516484404
  0
ARC
  5
20D54
  8
0
 10
4496.1148692284868957
 20
351.333886593999182
 30
0.0
 40
6.8318996141065531
 50
90.8070389277085894
 51
118.3950051718947947
  0
ARC
  5
20D55
  8
0
 10
4496.332510496094983
 20
-287.3500892467760082
 30
0.0
 40
645.515274044624789
 50
86.96653337249424
 51
90.0278589122969919
  0
ARC
  5
20D56
  8
0
 10
4530.3529501151288059
 20
352.3858141592298807
 30
0.0
 40
4.8768738554629012
 50
47.4391871909954332
 51
88.3579942070034718
  0
ARC
  5
20D57
  8
0
 10
4530.3571301010852039
 20
352.394934433680703
 30
0.0
 40
4.8673299811761837
 50
28.9410386017257011
 51
47.4028145255515767
  0
ARC
  5
20D58
  8
0
 10
4519.6863320215697968
 20
347.3429184231520139
 30
0.0
 40
16.6668078242974715
 50
359.891548692055494
 51
26.3873862710249014
  0
ARC
  5
20D59
  8
0
 10
4546.5605462162211552
 20
347.2554996709142188
 30
0.0
 40
61.0788569791042519
 50
173.2499809349808118
 51
179.9475892292387016
  0
ARC
  5
20D5A
  8
0
 10
4491.9634727616457894
 20
354.08555738947382
 30
0.0
 40
6.0684550185224033
 50
149.4130651904150966
 51
176.7029540162126011
  0
ARC
  5
20D5B
  8
0
 10
4489.7921005369480554
 20
355.2227837488711089
 30
0.0
 40
3.622728008269231
 50
110.0508058144909
 51
147.4214479945578944
  0
ARC
  5
20D5C
  8
0
 10
4490.6360131334604375
 20
352.6579837700849112
 30
0.0
 40
6.3220040033240688
 50
88.1256250020810228
 51
109.266043024316204
  0
ARC
  5
20D5D
  8
0
 10
4490.3140362976100732
 20
313.1323031541907085
 30
0.0
 40
45.8473511833518472
 50
88.5434980185908387
 51
89.3391923985045793
  0
ARC
  5
20D5E
  8
0
 10
4511.7304065343350885
 20
-549.6401717925931507
 30
0.0
 40
908.8306630400833228
 50
88.7955496806839761
 51
91.2767990190165648
  0
ARC
  5
20D5F
  8
0
 10
4530.9891529710830582
 20
345.3626414442816213
 30
0.0
 40
13.6279292674991606
 50
83.4271889307864143
 51
90.6519199564365579
  0
ARC
  5
20D60
  8
0
 10
4532.058479819816057
 20
354.5173507457963069
 30
0.0
 40
4.4110142814326441
 50
44.2158007869686784
 51
83.6142051764906
  0
ARC
  5
20D61
  8
0
 10
4531.8831616219731586
 20
354.1860812131038756
 30
0.0
 40
4.7690738482593078
 50
5.6787142692396149
 51
45.5995493569720765
  0
ARC
  5
20D62
  8
0
 10
4452.2134789261426704
 20
346.8975805946110995
 30
0.0
 40
84.7713126367250851
 50
0.2796764072289237
 51
5.2525035177513937
  0
ARC
  5
20D63
  8
0
 10
4540.2982911621438689
 20
360.0179651839766848
 30
0.0
 40
1.07324043619202
 50
5.4511009697986408
 51
88.9329784569430331
  0
ARC
  5
20D64
  8
0
 10
4523.070916631631917
 20
708258.1360046734334901
 30
0.0
 40
707897.0451952664880082
 50
269.996791771787116
 51
270.0013959670715167
  0
ARC
  5
20D65
  8
0
 10
4483.3800196047614008
 20
360.0201107005087238
 30
0.0
 40
1.07310853369548
 50
87.1793826778309295
 51
177.1486682629929135
  0
ARC
  5
20D66
  8
0
 10
4541.5589646435173563
 20
347.2160807946232239
 30
0.0
 40
5.0361067305725333
 50
165.3541210738785878
 51
178.9158191246933995
  0
ARC
  5
20D67
  8
0
 10
4533.5981370608660654
 20
347.3412240604960743
 30
0.0
 40
3.294896091118479
 50
359.4808699409559267
 51
20.3944014021511784
  0
ARC
  5
20D68
  8
0
 10
4541.8800692215427262
 20
347.3166972102910108
 30
0.0
 40
5.2765020598686663
 50
168.1057992900528859
 51
191.9671234938815871
  0
LINE
  5
20D69
  8
0
 10
4482.3082396098961908
 20
360.0734920427206021
 30
0.0
 11
4482.3082396098961908
 21
334.5492498934934247
 31
0.0
  0
LINE
  5
20D6A
  8
0
 10
4541.3666780136891248
 20
360.1199189446862192
 30
0.0
 11
4541.3666780136891248
 21
334.5028229915278075
 31
0.0
  0
LINE
  5
20D6B
  8
0
 10
4541.3656762584887474
 20
347.3113709682070862
 30
0.0
 11
4541.3439041435876788
 21
347.3113709682070862
 31
0.0
  0
ARC
  5
20D6C
  8
0
 10
4504.3047390297970196
 20
347.4696002287191163
 30
0.0
 40
9.2286498961481058
 50
180.9824094711258908
 51
216.3804381871136115
  0
ARC
  5
20D6D
  8
0
 10
4504.3862989401750383
 20
346.833643425661478
 30
0.0
 40
8.9346904115592931
 50
212.7844898743609861
 51
236.6266833029658869
  0
ARC
  5
20D6E
  8
0
 10
4502.0720696947782926
 20
343.4390067469951759
 30
0.0
 40
4.8272177085158727
 50
237.4013025842230888
 51
267.0925032265330969
  0
ARC
  5
20D6F
  8
0
 10
4494.5362281237939897
 20
1515.6558194189469759
 30
0.0
 40
1177.0603977012119685
 50
270.3549057399665116
 51
271.6931743420411749
  0
ARC
  5
20D70
  8
0
 10
4529.2425863275338997
 20
344.4541055593460896
 30
0.0
 40
5.3452550684611886
 50
270.7765174228633214
 51
298.9042647656114013
  0
ARC
  5
20D71
  8
0
 10
4529.3989865547500813
 20
344.3216479627182025
 30
0.0
 40
5.1542177236263029
 50
298.0939250088271137
 51
324.1327322874535071
  0
ARC
  5
20D72
  8
0
 10
4526.8185896357554157
 20
346.3923102647871133
 30
0.0
 40
8.4601628588068856
 50
323.0075103440764224
 51
353.7140059322549064
  0
ARC
  5
20D73
  8
0
 10
4519.7517911895756697
 20
347.2085482031159245
 30
0.0
 40
15.5738902631221894
 50
353.5757601956112239
 51
0.3782839851370171
  0
ARC
  5
20D74
  8
0
 10
4496.6397606933196585
 20
347.3168856435071916
 30
0.0
 40
9.8232522122545358
 50
180.0321652784205071
 51
188.628217809763413
  0
ARC
  5
20D75
  8
0
 10
4498.5477930820343317
 20
347.7059214324305003
 30
0.0
 40
11.7684659659512807
 50
189.1072218207997935
 51
215.7576710687453101
  0
ARC
  5
20D76
  8
0
 10
4498.4907457532017361
 20
347.2903821747293023
 30
0.0
 40
11.4833697082359301
 50
214.241336483515596
 51
240.6713326741688945
  0
ARC
  5
20D77
  8
0
 10
4496.1148692284868957
 20
343.2888553422149016
 30
0.0
 40
6.8318996141065531
 50
241.6049948281051911
 51
269.1929610722913822
  0
ARC
  5
20D78
  8
0
 10
4496.332510496094983
 20
981.9728311829900349
 30
0.0
 40
645.515274044624789
 50
269.9721410877029939
 51
273.0334666275056748
  0
ARC
  5
20D79
  8
0
 10
4530.3529501151288059
 20
342.2369277769840892
 30
0.0
 40
4.8768738554629012
 50
271.6420057929964855
 51
312.5608128090045739
  0
ARC
  5
20D7A
  8
0
 10
4530.3571301010852039
 20
342.2278075025333237
 30
0.0
 40
4.8673299811761837
 50
312.5971854744483949
 51
331.0589613982742776
  0
ARC
  5
20D7B
  8
0
 10
4519.6863320215697968
 20
347.2798235130620128
 30
0.0
 40
16.6668078242974715
 50
333.6126137289750773
 51
0.1084513079445358
  0
ARC
  5
20D7C
  8
0
 10
4546.5605462162211552
 20
347.3672422652999217
 30
0.0
 40
61.0788569791042519
 50
180.0524107707612131
 51
186.7500190650191882
  0
ARC
  5
20D7D
  8
0
 10
4491.9634727616457894
 20
340.5371845467403205
 30
0.0
 40
6.0684550185224033
 50
183.2970459837873136
 51
210.5869348095849034
  0
ARC
  5
20D7E
  8
0
 10
4489.7921005369480554
 20
339.3999581873428042
 30
0.0
 40
3.622728008269231
 50
212.5785520054419919
 51
249.9491941855091
  0
ARC
  5
20D7F
  8
0
 10
4490.6360131334604375
 20
341.9647581661291156
 30
0.0
 40
6.3220040033240688
 50
250.7339569756838102
 51
271.8743749979190056
  0
ARC
  5
20D80
  8
0
 10
4490.3140362976100732
 20
381.4904387820233183
 30
0.0
 40
45.8473511833518472
 50
270.6608076014953781
 51
271.4565019814091897
  0
ARC
  5
20D81
  8
0
 10
4511.7304065343350885
 20
1244.2629137288070069
 30
0.0
 40
908.8306630400833228
 50
268.7232009809835063
 51
271.2044503193160949
  0
ARC
  5
20D82
  8
0
 10
4530.9891529710830582
 20
349.2601004919325192
 30
0.0
 40
13.6279292674991606
 50
269.3480800435635274
 51
276.5728110692136283
  0
ARC
  5
20D83
  8
0
 10
4532.058479819816057
 20
340.1053911904177198
 30
0.0
 40
4.4110142814326441
 50
276.3857948235094
 51
315.784199213031286
  0
ARC
  5
20D84
  8
0
 10
4531.8831616219731586
 20
340.4366607231100943
 30
0.0
 40
4.7690738482593078
 50
314.400450643028023
 51
354.321285730760394
  0
ARC
  5
20D85
  8
0
 10
4452.2134789261463084
 20
347.7251613416026998
 30
0.0
 40
84.7713126367225129
 50
354.7474964822486072
 51
359.7203235927710807
  0
ARC
  5
20D86
  8
0
 10
4540.2982911621438689
 20
334.6047767522372851
 30
0.0
 40
1.07324043619202
 50
271.0670215430570238
 51
354.5488990302014258
  0
ARC
  5
20D87
  8
0
 10
4523.070916631631917
 20
-707563.5132627373095602
 30
0.0
 40
707897.0451952664880082
 50
89.9986040329284833
 51
90.0032082282129267
  0
ARC
  5
20D88
  8
0
 10
4483.3800196047614008
 20
334.602631235705303
 30
0.0
 40
1.0731085336954549
 50
182.8513317370037043
 51
272.8206173221690847
  0
ARC
  5
20D89
  8
0
 10
4541.5589646435191753
 20
347.4066611415909165
 30
0.0
 40
5.0361067305727758
 50
181.0841808753066005
 51
194.6458789261214122
  0
ARC
  5
20D8A
  8
0
 10
4533.5981370608660654
 20
347.2815178757180092
 30
0.0
 40
3.2948960911184901
 50
339.6055985978488252
 51
0.519130059044092
  0
ENDSEC
  0
EOF
