  0
SECTION
  2
HEADER
  9
$ACADVER
  1
AC1009
  9
$INSBASE
 10
0.0
 20
0.0
 30
0.0
  9
$EXTMIN
 10
307.48288678179102
 20
1288.8469272823411
 30
-0.0000000000112498
  9
$EXTMAX
 10
1145.7705982791319
 20
1758.916555612351
 30
0.0000000000002956
  9
$LIMMIN
 10
0.0
 20
0.0
  9
$LIMMAX
 10
23.3858267717
 20
16.535433070900002
  9
$ORTHOMODE
 70
     0
  9
$REGENMODE
 70
     1
  9
$FILLMODE
 70
     1
  9
$QTEXTMODE
 70
     0
  9
$MIRRTEXT
 70
     1
  9
$DRAGMODE
 70
     2
  9
$LTSCALE
 40
18.0
  9
$OSMODE
 70
    39
  9
$ATTMODE
 70
     1
  9
$TEXTSIZE
 40
10.0
  9
$TRACEWID
 40
0.05
  9
$TEXTSTYLE
  7
STANDARD
  9
$CLAYER
  8
AM_6
  9
$CELTYPE
  6
BYLAYER
  9
$CECOLOR
 62
   256
  9
$DIMSCALE
 40
101.59999999999999
  9
$DIMASZ
 40
0.1875
  9
$DIMEXO
 40
0.0
  9
$DIMDLI
 40
0.8886614172999999
  9
$DIMRND
 40
0.0
  9
$DIMDLE
 40
0.0
  9
$DIMEXE
 40
0.04209448819
  9
$DIMTP
 40
0.0
  9
$DIMTM
 40
0.0
  9
$DIMTXT
 40
0.18
  9
$DIMCEN
 40
0.0
  9
$DIMTSZ
 40
0.0
  9
$DIMTOL
 70
     0
  9
$DIMLIM
 70
     0
  9
$DIMTIH
 70
     1
  9
$DIMTOH
 70
     1
  9
$DIMSE1
 70
     0
  9
$DIMSE2
 70
     0
  9
$DIMTAD
 70
     0
  9
$DIMZIN
 70
     8
  9
$DIMBLK
  1

  9
$DIMASO
 70
     1
  9
$DIMSHO
 70
     1
  9
$DIMPOST
  1

  9
$DIMAPOST
  1

  9
$DIMALT
 70
     0
  9
$DIMALTD
 70
     2
  9
$DIMALTF
 40
25.399999999999999
  9
$DIMLFAC
 40
1.0
  9
$DIMTOFL
 70
     0
  9
$DIMTVP
 40
0.0
  9
$DIMTIX
 70
     0
  9
$DIMSOXD
 70
     0
  9
$DIMSAH
 70
     0
  9
$DIMBLK1
  1

  9
$DIMBLK2
  1

  9
$DIMSTYLE
  2
STANDARD
  9
$DIMCLRD
 70
     0
  9
$DIMCLRE
 70
     0
  9
$DIMCLRT
 70
     0
  9
$DIMTFAC
 40
1.0
  9
$DIMGAP
 40
0.09
  9
$LUNITS
 70
     2
  9
$LUPREC
 70
     4
  9
$SKETCHINC
 40
0.1
  9
$FILLETRAD
 40
0.0
  9
$AUNITS
 70
     0
  9
$AUPREC
 70
     0
  9
$MENU
  1
acad
  9
$ELEVATION
 40
0.0
  9
$PELEVATION
 40
0.0
  9
$THICKNESS
 40
0.0
  9
$LIMCHECK
 70
     0
  9
$BLIPMODE
 70
     0
  9
$CHAMFERA
 40
0.0
  9
$CHAMFERB
 40
0.0
  9
$SKPOLY
 70
     0
  9
$TDCREATE
 40
2452772.6290214472
  9
$TDUPDATE
 40
2454629.493880556
  9
$TDINDWG
 40
0.4968437847
  9
$TDUSRTIMER
 40
0.4968437847
  9
$USRTIMER
 70
     1
  9
$ANGBASE
 50
0.0
  9
$ANGDIR
 70
     0
  9
$PDMODE
 70
     0
  9
$PDSIZE
 40
0.0
  9
$PLINEWID
 40
0.0
  9
$COORDS
 70
     1
  9
$SPLFRAME
 70
     0
  9
$SPLINETYPE
 70
     6
  9
$SPLINESEGS
 70
     8
  9
$ATTDIA
 70
     0
  9
$ATTREQ
 70
     1
  9
$HANDLING
 70
     1
  9
$HANDSEED
  5
1D651
  9
$SURFTAB1
 70
     6
  9
$SURFTAB2
 70
     6
  9
$SURFTYPE
 70
     6
  9
$SURFU
 70
     6
  9
$SURFV
 70
     6
  9
$UCSNAME
  2

  9
$UCSORG
 10
0.0
 20
0.0
 30
0.0
  9
$UCSXDIR
 10
1.0
 20
0.0
 30
0.0
  9
$UCSYDIR
 10
0.0
 20
1.0
 30
0.0
  9
$PUCSNAME
  2

  9
$PUCSORG
 10
0.0
 20
0.0
 30
0.0
  9
$PUCSXDIR
 10
1.0
 20
0.0
 30
0.0
  9
$PUCSYDIR
 10
0.0
 20
1.0
 30
0.0
  9
$USERI1
 70
     0
  9
$USERI2
 70
     0
  9
$USERI3
 70
     0
  9
$USERI4
 70
     0
  9
$USERI5
 70
     0
  9
$USERR1
 40
0.0
  9
$USERR2
 40
0.0
  9
$USERR3
 40
0.0
  9
$USERR4
 40
0.0
  9
$USERR5
 40
0.0
  9
$WORLDVIEW
 70
     1
  9
$SHADEDGE
 70
     3
  9
$SHADEDIF
 70
    70
  9
$TILEMODE
 70
     1
  9
$MAXACTVP
 70
    16
  9
$PLIMCHECK
 70
     0
  9
$PEXTMIN
 10
1.0000000000000000E+020
 20
1.0000000000000000E+020
 30
1.0000000000000000E+020
  9
$PEXTMAX
 10
-1.0000000000000000E+020
 20
-1.0000000000000000E+020
 30
-1.0000000000000000E+020
  9
$PLIMMIN
 10
-0.2500002402958907
 20
-0.2499999962453767
  9
$PLIMMAX
 10
10.74999951940821
 20
8.2499997634587316
  9
$UNITMODE
 70
     0
  9
$VISRETAIN
 70
     0
  9
$PLINEGEN
 70
     1
  9
$PSLTSCALE
 70
     0
  0
ENDSEC
  0
SECTION
  2
TABLES
  0
TABLE
  2
VPORT
 70
     1
  0
VPORT
  2
*ACTIVE
 70
     0
 10
0.0
 20
0.0
 11
1.0
 21
1.0
 12
726.6267425304618
 22
1523.881741447346
 13
0.0
 23
0.0
 14
1.0
 24
1.0
 15
0.0
 25
0.0
 16
0.0
 26
0.0
 36
1.0
 17
0.0
 27
0.0
 37
0.0
 40
552.44159089340747
 41
1.5250965250965249
 42
50.0
 43
0.0
 44
0.0
 50
0.0
 51
0.0
 71
     0
 72
   100
 73
     1
 74
     1
 75
     0
 76
     0
 77
     0
 78
     0
  0
ENDTAB
  0
TABLE
  2
LTYPE
 70
    17
  0
LTYPE
  2
CONTINUOUS
 70
     0
  3
Solid line
 72
    65
 73
     0
 40
0.0
  0
LTYPE
  2
CENTER
 70
     0
  3
____ _ ____ _ ____ _ ____ _ ____ _ ____ _ ____
 72
    65
 73
     4
 40
0.6
 49
0.375
 49
-0.075
 49
0.075
 49
-0.075
  0
LTYPE
  2
HIDDEN
 70
     0
  3
- - - - - - - - - - - - - - - - - - - -
 72
    65
 73
     2
 40
0.2
 49
0.1
 49
-0.1
  0
LTYPE
  2
PHANTOM
 70
     0
  3
_____ _ _ _____ _ _ _____ _ _ _____
 72
    65
 73
     6
 40
0.8
 49
0.45
 49
-0.05
 49
0.1
 49
-0.05
 49
0.1
 49
-0.05
  0
LTYPE
  2
AMCONSTR
 70
     0
  3
_______________________
 72
    65
 73
     2
 40
9999.0
 49
9999.0
 49
0.0
  0
LTYPE
  2
PHANTOM2
 70
     0
  3
Phantom (.5x) ___ _ _ ___ _ _ ___ _ _ ___ _ _
 72
    65
 73
     6
 40
1.25
 49
0.625
 49
-0.125
 49
0.125
 49
-0.125
 49
0.125
 49
-0.125
  0
LTYPE
  2
CENTER2
 70
     0
  3
Center (.5x) ___ _ ___ _ ___ _ ___ _ ___ _ ___
 72
    65
 73
     4
 40
1.125
 49
0.75
 49
-0.125
 49
0.125
 49
-0.125
  0
LTYPE
  2
HIDDEN2
 70
     0
  3
Hidden (.5x) _ _ _ _ _ _ _ _ _ _ _ _ _ _ _ _ _
 72
    65
 73
     2
 40
0.1875
 49
0.125
 49
-0.0625
  0
LTYPE
  2
AMZIGZAG2
 70
     0
  3
/\/-/\/-/\/-/\/-/\/-/\/
 72
    65
 73
     2
 40
0.4401
 49
0.0001
 49
-0.4400000000000001
  0
LTYPE
  2
ACANSTGB
 70
     0
  3
__ . . __ . .
 72
    65
 73
     6
 40
0.35433070866
 49
0.15748031496
 49
-0.03937007874
 49
0.03937007874
 49
-0.03937007874
 49
0.03937007874
 49
-0.03937007874
  0
LTYPE
  2
ACANSTGL
 70
     0
  3
_ _ _ _ _
 72
    65
 73
     2
 40
0.11811023622
 49
0.07874015748
 49
-0.03937007874
  0
LTYPE
  2
AM_ISO02W050
 70
     0
  3
__ __ __ __ __ __ __ __ __ __ __ __ __ __ __
 72
    65
 73
     2
 40
7.5
 49
6.0
 49
-1.5
  0
LTYPE
  2
AM_ISO08W050
 70
     0
  3
____ . ____ . ____ . ____ . ____ . ____ . ____
 72
    65
 73
     4
 40
18.0
 49
12.0
 49
-1.5
 49
3.0
 49
-1.5
  0
LTYPE
  2
AM_ISO09W050
 70
     0
  3
_____ . . _____ . . _____ . . ____ .. ____
 72
    65
 73
     6
 40
22.5
 49
12.0
 49
-1.5
 49
3.0
 49
-1.5
 49
3.0
 49
-1.5
  0
LTYPE
  2
AM_ISO08W050X2
 70
     0
  3
__ . __ . __ . __ . __ . __
 72
    65
 73
     4
 40
9.0
 49
6.0
 49
-0.75
 49
1.5
 49
-0.75
  0
LTYPE
  2
AM_ISO02W050X2
 70
     0
  3
 _ _ _ _ _ _ _ _ _ _ _ _
 72
    65
 73
     2
 40
3.75
 49
3.0
 49
-0.75
  0
LTYPE
  2
AMZIGZAG
 70
     0
  3
/\/-/\/-/\/-/\/-/\/-/\/
 72
    65
 73
     2
 40
11.0001
 49
0.0001
 49
-11.0
  0
ENDTAB
  0
TABLE
  2
LAYER
 70
    11
  0
LAYER
  2
0
 70
     0
 62
     7
  6
CONTINUOUS
  0
LAYER
  2
DEFAULT_2
 70
     0
 62
     2
  6
HIDDEN
  0
LAYER
  2
DEFAULT_3
 70
     0
 62
     7
  6
PHANTOM
  0
LAYER
  2
DEFPOINTS
 70
     0
 62
     7
  6
CONTINUOUS
  0
LAYER
  2
AM_5
 70
     0
 62
     3
  6
CONTINUOUS
  0
LAYER
  2
AM_TR
 70
     0
 62
     3
  6
CONTINUOUS
  0
LAYER
  2
AM_1
 70
     0
 62
    14
  6
CONTINUOUS
  0
LAYER
  2
AM_10
 70
     0
 62
     7
  6
CONTINUOUS
  0
LAYER
  2
DIM
 70
     0
 62
     3
  6
CONTINUOUS
  0
LAYER
  2
AM_7N
 70
     0
 62
     4
  6
CENTER
  0
LAYER
  2
AM_6
 70
     0
 62
     2
  6
CONTINUOUS
  0
ENDTAB
  0
TABLE
  2
STYLE
 70
     6
  0
STYLE
  2
STANDARD
 70
     0
 40
0.0
 41
1.0
 50
0.0
 71
     0
 42
10.0
  3
gbenor.shx
  4
gbcbig.shx
  0
STYLE
  2

 70
     1
 40
0.0
 41
1.0
 50
0.0
 71
     0
 42
0.2
  3
ltypeshp.shx
  4

  0
STYLE
  2
ACANSTS
 70
     0
 40
1.0
 41
1.0
 50
0.0
 71
     0
 42
0.2
  3
romans.shx
  4
gbcbig.shx
  0
STYLE
  2
ACANSGDT
 70
     0
 40
0.0
 41
1.0
 50
0.0
 71
     0
 42
0.2
  3
amgdtans.shx
  4

  0
STYLE
  2
ADESK1
 70
     0
 40
0.0
 41
1.0
 50
0.0
 71
     0
 42
0.12
  3
romans.shx
  4
gbcbig.shx
  0
STYLE
  2
ROMANK
 70
     0
 40
0.0
 41
1.0
 50
0.0
 71
     0
 42
0.4
  3
romans
  4

  0
ENDTAB
  0
TABLE
  2
VIEW
 70
     0
  0
ENDTAB
  0
TABLE
  2
UCS
 70
     0
  0
ENDTAB
  0
TABLE
  2
APPID
 70
    16
  0
APPID
  2
ACAD
 70
     0
  0
APPID
  2
MCAD_NO_VIS
 70
     0
  0
APPID
  2
ACAD_TEMP_GRAPHIC
 70
     0
  0
APPID
  2
ACATTRIBSERVICES
 70
     0
  0
APPID
  2
ACAD_DIMASSOC_CALC_DIMLFAC
 70
     0
  0
APPID
  2
ACAD_DIMASSOC_DIMLFAC
 70
     0
  0
APPID
  2
ACAD_DIMASSOC_OVERRIDDEN_D
 70
     0
  0
APPID
  2
GENIUS_GENODEF_13
 70
     0
  0
APPID
  2
GENIUS_GENOBJ-N-FIL_13
 70
     0
  0
APPID
  2
GENIUS_GENDTOL_13
 70
     0
  0
APPID
  2
GENIUS_GENREC_14
 70
     0
  0
APPID
  2
GENIUS_GENOBJ-N-REC_13
 70
     0
  0
APPID
  2
CONTENTBLOCKICON
 70
     0
  0
APPID
  2
GENIUS_GENSCREG_15
 70
     0
  0
APPID
  2
GENIUS_GENOBJ-N-SDF_13
 70
     0
  0
APPID
  2
DCO15
 70
     0
  0
ENDTAB
  0
TABLE
  2
DIMSTYLE
 70
     7
  0
DIMSTYLE
  2
STANDARD
 70
     0
  3

  4

  5

  6

  7

 40
101.59999999999999
 41
0.1875
 42
0.0
 43
0.8886614172999999
 44
0.04209448819
 45
0.0
 46
0.0
 47
0.0
 48
0.0
140
0.18
141
0.0
142
0.0
143
25.399999999999999
144
0.03937
145
0.0
146
1.0
147
0.09
 71
     0
 72
     0
 73
     1
 74
     1
 75
     0
 76
     0
 77
     0
 78
     8
170
     0
171
     2
172
     0
173
     0
174
     0
175
     0
176
     0
177
     0
178
     0
  0
DIMSTYLE
  2
AM_ANSI
 70
     0
  3

  4
mm
  5

  6

  7

 40
1.0
 41
0.1
 42
0.05
 43
0.5
 44
0.1
 45
0.0
 46
0.0
 47
0.1
 48
0.1
140
0.12
141
0.0
142
0.0
143
25.399999999999999
144
1.0
145
0.0
146
0.71
147
0.06
 71
     0
 72
     0
 73
     1
 74
     1
 75
     0
 76
     0
 77
     0
 78
     7
170
     0
171
     2
172
     0
173
     0
174
     0
175
     0
176
   256
177
   256
178
     2
  0
DIMSTYLE
  2
AM_ANSI$3
 70
     0
  3

  4
mm
  5

  6

  7

 40
1.0
 41
0.1
 42
0.05
 43
0.5
 44
0.1
 45
0.0
 46
0.0
 47
0.1
 48
0.1
140
0.12
141
0.0
142
0.0
143
25.399999999999999
144
1.0
145
0.0
146
0.71
147
0.06
 71
     0
 72
     0
 73
     1
 74
     1
 75
     0
 76
     0
 77
     0
 78
     7
170
     0
171
     2
172
     0
173
     0
174
     0
175
     0
176
   256
177
   256
178
     2
  0
DIMSTYLE
  2
AM_ANSI$4
 70
     0
  3

  4
mm
  5

  6

  7

 40
1.0
 41
0.1
 42
0.05
 43
0.5
 44
0.1
 45
0.0
 46
0.0
 47
0.1
 48
0.1
140
0.12
141
0.0
142
0.0
143
25.399999999999999
144
1.0
145
0.0
146
0.71
147
0.06
 71
     0
 72
     0
 73
     1
 74
     1
 75
     0
 76
     0
 77
     0
 78
     7
170
     0
171
     2
172
     0
173
     0
174
     0
175
     0
176
   256
177
   256
178
     2
  0
DIMSTYLE
  2
AM_ANSI$7
 70
     0
  3

  4
mm
  5

  6

  7

 40
1.0
 41
0.1
 42
0.05
 43
0.5
 44
0.1
 45
0.0
 46
0.0
 47
0.1
 48
0.1
140
0.24
141
0.0
142
0.0
143
25.399999999999999
144
1.0
145
0.0
146
0.71
147
0.06
 71
     0
 72
     0
 73
     1
 74
     1
 75
     0
 76
     0
 77
     0
 78
     7
170
     0
171
     2
172
     0
173
     0
174
     0
175
     0
176
   256
177
   256
178
     2
  0
DIMSTYLE
  2
AM_ANSI$SF
 70
     0
  3

  4
mm
  5

  6

  7

 40
1.0
 41
0.1
 42
0.05
 43
0.5
 44
0.1
 45
0.0
 46
0.0
 47
0.1
 48
0.1
140
0.12
141
0.0
142
0.0
143
25.399999999999999
144
1.0
145
0.0
146
0.71
147
0.06
 71
     0
 72
     0
 73
     1
 74
     1
 75
     1
 76
     1
 77
     0
 78
     7
170
     0
171
     2
172
     0
173
     0
174
     0
175
     0
176
   256
177
   256
178
     2
  0
DIMSTYLE
  2
AM_ANSI$SH
 70
     0
  3

  4
mm
  5

  6
GENAXEH
  7

 40
1.0
 41
0.1
 42
0.05
 43
0.5
 44
0.1
 45
0.0
 46
0.0
 47
0.1
 48
0.1
140
0.12
141
0.0
142
0.0
143
25.399999999999999
144
1.0
145
0.0
146
0.71
147
0.06
 71
     0
 72
     0
 73
     1
 74
     1
 75
     1
 76
     1
 77
     0
 78
     7
170
     0
171
     2
172
     0
173
     1
174
     0
175
     0
176
   256
177
   256
178
     2
  0
ENDTAB
  0
ENDSEC
  0
SECTION
  2
BLOCKS
  0
BLOCK
  8
0
  2
$MODEL_SPACE
 70
     0
 10
0.0
 20
0.0
 30
0.0
  3
$MODEL_SPACE
  1

  0
ENDBLK
  5
F426
  8
0
  0
BLOCK
 67
     1
  8
0
  2
$PAPER_SPACE
 70
     0
 10
0.0
 20
0.0
 30
0.0
  3
$PAPER_SPACE
  1

  0
ENDBLK
  5
F424
 67
     1
  8
0
  0
BLOCK
  8
0
  2
GENAXEH
 70
     0
 10
0.0
 20
0.0
 30
0.0
  3
GENAXEH
  1

  0
LINE
  5
FBE3
  8
0
 10
-1.0
 20
0.0
 30
0.0
 11
1.0
 21
0.0
 31
0.0
  0
ENDBLK
  5
FBE5
  8
0
  0
BLOCK
  8
0
  2
BLOT2777
 70
     0
 10
0.0
 20
0.0
 30
0.0
  3
BLOT2777
  1

  0
POLYLINE
  5
FDD4
  8
0
  6
CONTINUOUS
 66
     1
 10
0.0
 20
0.0
 30
0.0
  0
VERTEX
  5
1D617
  8
0
  6
CONTINUOUS
 10
-0.0990392268
 20
0.0061707734
 30
0.0
  0
VERTEX
  5
1D618
  8
0
  6
CONTINUOUS
 10
-0.0489460416
 20
0.0562639609
 30
0.0
  0
SEQEND
  5
1D619
  8
0
  6
CONTINUOUS
  0
POLYLINE
  5
FDD5
  8
0
  6
CONTINUOUS
 66
     1
 10
0.0
 20
0.0
 30
0.0
  0
VERTEX
  5
1D61A
  8
0
  6
CONTINUOUS
 10
-0.0990392268
 20
-0.0079713622
 30
0.0
  0
VERTEX
  5
1D61B
  8
0
  6
CONTINUOUS
 10
-0.0301621202
 20
0.0609057471
 30
0.0
  0
SEQEND
  5
1D61C
  8
0
  6
CONTINUOUS
  0
POLYLINE
  5
FDD6
  8
0
  6
CONTINUOUS
 66
     1
 10
0.0
 20
0.0
 30
0.0
  0
VERTEX
  5
1D61D
  8
0
  6
CONTINUOUS
 10
-0.0954193696
 20
-0.0184936356
 30
0.0
  0
VERTEX
  5
1D61E
  8
0
  6
CONTINUOUS
 10
-0.0127292378
 20
0.0641964972
 30
0.0
  0
SEQEND
  5
1D61F
  8
0
  6
CONTINUOUS
  0
POLYLINE
  5
FDD7
  8
0
  6
CONTINUOUS
 66
     1
 10
0.0
 20
0.0
 30
0.0
  0
VERTEX
  5
1D620
  8
0
  6
CONTINUOUS
 10
-0.091067858
 20
-0.0282842629
 30
0.0
  0
VERTEX
  5
1D621
  8
0
  6
CONTINUOUS
 10
0.0014128971
 20
0.0641964972
 30
0.0
  0
SEQEND
  5
1D622
  8
0
  6
CONTINUOUS
  0
POLYLINE
  5
FDD8
  8
0
  6
CONTINUOUS
 66
     1
 10
0.0
 20
0.0
 30
0.0
  0
VERTEX
  5
1D623
  8
0
  6
CONTINUOUS
 10
-0.0839966908
 20
-0.0353552327
 30
0.0
  0
VERTEX
  5
1D624
  8
0
  6
CONTINUOUS
 10
0.0155550325
 20
0.0641964972
 30
0.0
  0
SEQEND
  5
1D625
  8
0
  6
CONTINUOUS
  0
POLYLINE
  5
FDD9
  8
0
  6
CONTINUOUS
 66
     1
 10
0.0
 20
0.0
 30
0.0
  0
VERTEX
  5
1D626
  8
0
  6
CONTINUOUS
 10
-0.0766486153
 20
-0.0421492867
 30
0.0
  0
VERTEX
  5
1D627
  8
0
  6
CONTINUOUS
 10
0.0271335039
 20
0.0616328306
 30
0.0
  0
SEQEND
  5
1D628
  8
0
  6
CONTINUOUS
  0
POLYLINE
  5
FDDA
  8
0
  6
CONTINUOUS
 66
     1
 10
0.0
 20
0.0
 30
0.0
  0
VERTEX
  5
1D629
  8
0
  6
CONTINUOUS
 10
-0.0672799051
 20
-0.0469227172
 30
0.0
  0
VERTEX
  5
1D62A
  8
0
  6
CONTINUOUS
 10
0.0385377966
 20
0.0588949881
 30
0.0
  0
SEQEND
  5
1D62B
  8
0
  6
CONTINUOUS
  0
POLYLINE
  5
FDDB
  8
0
  6
CONTINUOUS
 66
     1
 10
0.0
 20
0.0
 30
0.0
  0
VERTEX
  5
1D62C
  8
0
  6
CONTINUOUS
 10
-0.0579111986
 20
-0.051696144
 30
0.0
  0
VERTEX
  5
1D62D
  8
0
  6
CONTINUOUS
 10
0.049676653
 20
0.0558917075
 30
0.0
  0
SEQEND
  5
1D62E
  8
0
  6
CONTINUOUS
  0
POLYLINE
  5
FDDC
  8
0
  6
CONTINUOUS
 66
     1
 10
0.0
 20
0.0
 30
0.0
  0
VERTEX
  5
1D62F
  8
0
  6
CONTINUOUS
 10
-0.0485424921
 20
-0.0564695708
 30
0.0
  0
VERTEX
  5
1D630
  8
0
  6
CONTINUOUS
 10
0.0590453595
 20
0.0511182807
 30
0.0
  0
SEQEND
  5
1D631
  8
0
  6
CONTINUOUS
  0
POLYLINE
  5
FDDD
  8
0
  6
CONTINUOUS
 66
     1
 10
0.0
 20
0.0
 30
0.0
  0
VERTEX
  5
1D632
  8
0
  6
CONTINUOUS
 10
-0.0371572115
 20
-0.0592264272
 30
0.0
  0
VERTEX
  5
1D633
  8
0
  6
CONTINUOUS
 10
0.0684140697
 20
0.0463448539
 30
0.0
  0
SEQEND
  5
1D634
  8
0
  6
CONTINUOUS
  0
POLYLINE
  5
FDDE
  8
0
  6
CONTINUOUS
 66
     1
 10
0.0
 20
0.0
 30
0.0
  0
VERTEX
  5
1D635
  8
0
  6
CONTINUOUS
 10
-0.0257529188
 20
-0.0619642697
 30
0.0
  0
VERTEX
  5
1D636
  8
0
  6
CONTINUOUS
 10
0.0777815506
 20
0.0415701978
 30
0.0
  0
SEQEND
  5
1D637
  8
0
  6
CONTINUOUS
  0
POLYLINE
  5
FDDF
  8
0
  6
CONTINUOUS
 66
     1
 10
0.0
 20
0.0
 30
0.0
  0
VERTEX
  5
1D638
  8
0
  6
CONTINUOUS
 10
-0.0138430092
 20
-0.0641964972
 30
0.0
  0
VERTEX
  5
1D639
  8
0
  6
CONTINUOUS
 10
0.0848527178
 20
0.0344992317
 30
0.0
  0
SEQEND
  5
1D63A
  8
0
  6
CONTINUOUS
  0
POLYLINE
  5
FDE0
  8
0
  6
CONTINUOUS
 66
     1
 10
0.0
 20
0.0
 30
0.0
  0
VERTEX
  5
1D63B
  8
0
  6
CONTINUOUS
 10
0.0002991263
 20
-0.0641964972
 30
0.0
  0
VERTEX
  5
1D63C
  8
0
  6
CONTINUOUS
 10
0.0917786211
 20
0.0272829998
 30
0.0
  0
SEQEND
  5
1D63D
  8
0
  6
CONTINUOUS
  0
POLYLINE
  5
FDE1
  8
0
  6
CONTINUOUS
 66
     1
 10
0.0
 20
0.0
 30
0.0
  0
VERTEX
  5
1D63E
  8
0
  6
CONTINUOUS
 10
0.014441262
 20
-0.0641964972
 30
0.0
  0
VERTEX
  5
1D63F
  8
0
  6
CONTINUOUS
 10
0.0959208161
 20
0.0172830578
 30
0.0
  0
SEQEND
  5
1D640
  8
0
  6
CONTINUOUS
  0
POLYLINE
  5
FDE2
  8
0
  6
CONTINUOUS
 66
     1
 10
0.0
 20
0.0
 30
0.0
  0
VERTEX
  5
1D641
  8
0
  6
CONTINUOUS
 10
0.0324149951
 20
-0.0603648983
 30
0.0
  0
VERTEX
  5
1D642
  8
0
  6
CONTINUOUS
 10
0.0990392268
 20
0.0062593385
 30
0.0
  0
SEQEND
  5
1D643
  8
0
  6
CONTINUOUS
  0
POLYLINE
  5
FDE3
  8
0
  6
CONTINUOUS
 66
     1
 10
0.0
 20
0.0
 30
0.0
  0
VERTEX
  5
1D644
  8
0
  6
CONTINUOUS
 10
0.0524364598
 20
-0.0544855669
 30
0.0
  0
VERTEX
  5
1D645
  8
0
  6
CONTINUOUS
 10
0.0990392268
 20
-0.0078827972
 30
0.0
  0
SEQEND
  5
1D646
  8
0
  6
CONTINUOUS
  0
ENDBLK
  5
FDE5
  8
0
  0
ENDSEC
  0
SECTION
  2
ENTITIES
  0
LINE
  5
93
  8
0
  6
CONTINUOUS
 62
     7
 10
307.50235616273221
 20
1725.5454667879751
 30
0.0
 11
307.50235616273221
 21
1322.1934667879721
 31
0.0
  0
POLYLINE
  5
1B7
  8
0
  6
CONTINUOUS
 62
     7
 66
     1
 10
0.0
 20
0.0
 30
0.0
  0
VERTEX
  5
1D503
  8
0
  6
CONTINUOUS
 62
     7
 10
343.83072807786812
 20
1581.467149235275
 30
0.0
  0
VERTEX
  5
1D504
  8
0
  6
CONTINUOUS
 62
     7
 10
344.0372082034155
 20
1585.9056375591861
 30
0.0
  0
VERTEX
  5
1D505
  8
0
  6
CONTINUOUS
 62
     7
 10
344.5957817776507
 20
1590.3630339275951
 30
0.0
  0
VERTEX
  5
1D506
  8
0
  6
CONTINUOUS
 62
     7
 10
345.51234108240169
 20
1594.8006638534091
 30
0.0
  0
VERTEX
  5
1D507
  8
0
  6
CONTINUOUS
 62
     7
 10
346.78689271160692
 20
1599.1779312076069
 30
0.0
  0
VERTEX
  5
1D508
  8
0
  6
CONTINUOUS
 62
     7
 10
348.41312481604109
 20
1603.4537109110349
 30
0.0
  0
VERTEX
  5
1D509
  8
0
  6
CONTINUOUS
 62
     7
 10
350.37840158650943
 20
1607.587906137687
 30
0.0
  0
VERTEX
  5
1D50A
  8
0
  6
CONTINUOUS
 62
     7
 10
352.6642192449799
 20
1611.5429880014231
 30
0.0
  0
VERTEX
  5
1D50B
  8
0
  6
CONTINUOUS
 62
     7
 10
355.24827417342749
 20
1615.286924287964
 30
0.0
  0
VERTEX
  5
1D50C
  8
0
  6
CONTINUOUS
 62
     7
 10
358.11449745799467
 20
1618.8029987594889
 30
0.0
  0
VERTEX
  5
1D50D
  8
0
  6
CONTINUOUS
 62
     7
 10
361.25156866411271
 20
1622.07970452512
 30
0.0
  0
VERTEX
  5
1D50E
  8
0
  6
CONTINUOUS
 62
     7
 10
364.6494597804413
 20
1625.104392486388
 30
0.0
  0
VERTEX
  5
1D50F
  8
0
  6
CONTINUOUS
 62
     7
 10
368.29355655117251
 20
1627.8590606270261
 30
0.0
  0
VERTEX
  5
1D510
  8
0
  6
CONTINUOUS
 62
     7
 10
372.1548113431927
 20
1630.3176368122181
 30
0.0
  0
VERTEX
  5
1D511
  8
0
  6
CONTINUOUS
 62
     7
 10
376.19825448318443
 20
1632.4571443035929
 30
0.0
  0
VERTEX
  5
1D512
  8
0
  6
CONTINUOUS
 62
     7
 10
380.38564651478367
 20
1634.260114149507
 30
0.0
  0
VERTEX
  5
1D513
  8
0
  6
CONTINUOUS
 62
     7
 10
384.67695012922923
 20
1635.715226982222
 30
0.0
  0
VERTEX
  5
1D514
  8
0
  6
CONTINUOUS
 62
     7
 10
389.03187627335137
 20
1636.8174989864599
 30
0.0
  0
VERTEX
  5
1D515
  8
0
  6
CONTINUOUS
 62
     7
 10
393.41131942196807
 20
1637.568023632218
 30
0.0
  0
SEQEND
  5
1D516
  8
0
  6
CONTINUOUS
 62
     7
  0
POLYLINE
  5
1CC
  8
0
  6
CONTINUOUS
 62
     7
 66
     1
 10
0.0
 20
0.0
 30
0.0
  0
VERTEX
  5
1D517
  8
0
  6
CONTINUOUS
 62
     7
 10
326.3293589252425
 20
1581.613521571413
 30
0.0
  0
VERTEX
  5
1D518
  8
0
  6
CONTINUOUS
 62
     7
 10
326.60316475814028
 20
1587.4096066823081
 30
0.0
  0
VERTEX
  5
1D519
  8
0
  6
CONTINUOUS
 62
     7
 10
327.33667785547732
 20
1593.2307178137669
 30
0.0
  0
VERTEX
  5
1D51A
  8
0
  6
CONTINUOUS
 62
     7
 10
328.53755428532901
 20
1599.0263584449381
 30
0.0
  0
VERTEX
  5
1D51B
  8
0
  6
CONTINUOUS
 62
     7
 10
330.2057640045096
 20
1604.7435171401271
 30
0.0
  0
VERTEX
  5
1D51C
  8
0
  6
CONTINUOUS
 62
     7
 10
332.3330271718587
 20
1610.328485721282
 30
0.0
  0
VERTEX
  5
1D51D
  8
0
  6
CONTINUOUS
 62
     7
 10
334.90280842805799
 20
1615.7288927106381
 30
0.0
  0
VERTEX
  5
1D51E
  8
0
  6
CONTINUOUS
 62
     7
 10
337.89091371420369
 20
1620.8957143302209
 30
0.0
  0
VERTEX
  5
1D51F
  8
0
  6
CONTINUOUS
 62
     7
 10
341.26819316741609
 20
1625.787100849175
 30
0.0
  0
VERTEX
  5
1D520
  8
0
  6
CONTINUOUS
 62
     7
 10
345.01365147276368
 20
1630.3812084808851
 30
0.0
  0
VERTEX
  5
1D521
  8
0
  6
CONTINUOUS
 62
     7
 10
349.11249784451502
 20
1634.6630004658909
 30
0.0
  0
VERTEX
  5
1D522
  8
0
  6
CONTINUOUS
 62
     7
 10
353.55162778259552
 20
1638.615949735507
 30
0.0
  0
VERTEX
  5
1D523
  8
0
  6
CONTINUOUS
 62
     7
 10
358.31194392110052
 20
1642.216534873671
 30
0.0
  0
VERTEX
  5
1D524
  8
0
  6
CONTINUOUS
 62
     7
 10
363.35549717659887
 20
1645.430682583039
 30
0.0
  0
VERTEX
  5
1D525
  8
0
  6
CONTINUOUS
 62
     7
 10
368.63660963189608
 20
1648.2283559614989
 30
0.0
  0
VERTEX
  5
1D526
  8
0
  6
CONTINUOUS
 62
     7
 10
374.10533964437491
 20
1650.5867071807991
 30
0.0
  0
VERTEX
  5
1D527
  8
0
  6
CONTINUOUS
 62
     7
 10
379.70940417914238
 20
1652.4909170071151
 30
0.0
  0
VERTEX
  5
1D528
  8
0
  6
CONTINUOUS
 62
     7
 10
385.3961975096172
 20
1653.9344391187731
 30
0.0
  0
VERTEX
  5
1D529
  8
0
  6
CONTINUOUS
 62
     7
 10
391.11466495507921
 20
1654.918664115012
 30
0.0
  0
SEQEND
  5
1D52A
  8
0
  6
CONTINUOUS
 62
     7
  0
LINE
  5
68C
  8
0
  6
CONTINUOUS
 62
     7
 10
1112.4283561627451
 20
1288.9194667879849
 30
0.0
 11
340.77635616271982
 21
1288.9194667879849
 31
0.0
  0
POLYLINE
  5
6A9
  8
0
  6
CONTINUOUS
 62
     7
 66
     1
 10
0.0
 20
0.0
 30
0.0
  0
VERTEX
  5
1D52B
  8
0
  6
CONTINUOUS
 62
     7
 10
398.87921193546208
 20
1311.394093537903
 30
0.0
  0
VERTEX
  5
1D52C
  8
0
  6
CONTINUOUS
 62
     7
 10
392.6255197540886
 20
1311.9025443574319
 30
0.0
  0
VERTEX
  5
1D52D
  8
0
  6
CONTINUOUS
 62
     7
 10
386.451831568047
 20
1312.8906197803119
 30
0.0
  0
VERTEX
  5
1D52E
  8
0
  6
CONTINUOUS
 62
     7
 10
380.40905282810849
 20
1314.35593781486
 30
0.0
  0
VERTEX
  5
1D52F
  8
0
  6
CONTINUOUS
 62
     7
 10
374.54692717875878
 20
1316.288342250798
 30
0.0
  0
VERTEX
  5
1D530
  8
0
  6
CONTINUOUS
 62
     7
 10
368.91157407053112
 20
1318.6701807078459
 30
0.0
  0
VERTEX
  5
1D531
  8
0
  6
CONTINUOUS
 62
     7
 10
363.54395820685022
 20
1321.477480066558
 30
0.0
  0
VERTEX
  5
1D532
  8
0
  6
CONTINUOUS
 62
     7
 10
358.47736942717171
 20
1324.6823042080759
 30
0.0
  0
VERTEX
  5
1D533
  8
0
  6
CONTINUOUS
 62
     7
 10
353.72538487474958
 20
1328.264768163262
 30
0.0
  0
VERTEX
  5
1D534
  8
0
  6
CONTINUOUS
 62
     7
 10
349.29202716793219
 20
1332.21455969469
 30
0.0
  0
VERTEX
  5
1D535
  8
0
  6
CONTINUOUS
 62
     7
 10
345.18353103137639
 20
1336.5254191349629
 30
0.0
  0
VERTEX
  5
1D536
  8
0
  6
CONTINUOUS
 62
     7
 10
341.41021578405349
 20
1341.1932567690351
 30
0.0
  0
VERTEX
  5
1D537
  8
0
  6
CONTINUOUS
 62
     7
 10
337.98780609855021
 20
1346.213383005113
 30
0.0
  0
VERTEX
  5
1D538
  8
0
  6
CONTINUOUS
 62
     7
 10
334.93640982390212
 20
1351.5798271871131
 30
0.0
  0
VERTEX
  5
1D539
  8
0
  6
CONTINUOUS
 62
     7
 10
332.28265053908399
 20
1357.2778252195819
 30
0.0
  0
VERTEX
  5
1D53A
  8
0
  6
CONTINUOUS
 62
     7
 10
330.05799760461377
 20
1363.276824997007
 30
0.0
  0
VERTEX
  5
1D53B
  8
0
  6
CONTINUOUS
 62
     7
 10
328.29086305400409
 20
1369.5382103507841
 30
0.0
  0
VERTEX
  5
1D53C
  8
0
  6
CONTINUOUS
 62
     7
 10
327.00445595454948
 20
1376.0168063039271
 30
0.0
  0
VERTEX
  5
1D53D
  8
0
  6
CONTINUOUS
 62
     7
 10
326.21536147985898
 20
1382.6617842864609
 30
0.0
  0
VERTEX
  5
1D53E
  8
0
  6
CONTINUOUS
 62
     7
 10
325.93257398346032
 20
1389.418341055276
 30
0.0
  0
SEQEND
  5
1D53F
  8
0
  6
CONTINUOUS
 62
     7
  0
POLYLINE
  5
785
  8
0
  6
CONTINUOUS
 62
     7
 66
     1
 10
0.0
 20
0.0
 30
0.0
  0
VERTEX
  5
1D540
  8
0
  6
CONTINUOUS
 62
     7
 10
1046.446145267415
 20
1332.5475411267801
 30
0.0
  0
VERTEX
  5
1D541
  8
0
  6
CONTINUOUS
 62
     7
 10
1034.06518513734
 20
1332.3097250517419
 30
0.0
  0
VERTEX
  5
1D542
  8
0
  6
CONTINUOUS
 62
     7
 10
1022.340348602287
 20
1332.093210961026
 30
0.0
  0
SEQEND
  5
1D543
  8
0
  6
CONTINUOUS
 62
     7
  0
LINE
  5
78F
  8
0
  6
CONTINUOUS
 62
     7
 10
1022.340348602269
 20
1332.093210961013
 30
0.0
 11
1000.424387821611
 21
1331.7109044358069
 31
0.0
  0
LINE
  5
7A5
  8
0
  6
CONTINUOUS
 62
     7
 10
1000.424387821611
 20
1331.7109044358069
 30
0.0
 11
979.98632232240197
 21
1331.380192808685
 31
0.0
  0
LINE
  5
7A7
  8
0
  6
CONTINUOUS
 62
     7
 10
979.98632232240197
 20
1331.380192808685
 30
0.0
 11
960.60807171145279
 21
1331.089050256616
 31
0.0
  0
LINE
  5
7A9
  8
0
  6
CONTINUOUS
 62
     7
 10
960.60807171145279
 20
1331.089050256616
 30
0.0
 11
941.91318565704478
 21
1330.8282661604619
 31
0.0
  0
LINE
  5
7AF
  8
0
  6
CONTINUOUS
 62
     7
 10
941.91318565704478
 20
1330.8282661604619
 30
0.0
 11
923.57818148383558
 21
1330.591100040943
 31
0.0
  0
LINE
  5
7B0
  8
0
  6
CONTINUOUS
 62
     7
 10
923.57818148383558
 20
1330.591100040943
 30
0.0
 11
905.37687400035395
 21
1330.37338664349
 31
0.0
  0
LINE
  5
7B1
  8
0
  6
CONTINUOUS
 62
     7
 10
905.37687400035395
 20
1330.37338664349
 30
0.0
 11
887.19928400050742
 21
1330.173235822062
 31
0.0
  0
LINE
  5
7B2
  8
0
  6
CONTINUOUS
 62
     7
 10
887.19928400050742
 20
1330.173235822062
 30
0.0
 11
869.0232314829708
 21
1329.9902419386069
 31
0.0
  0
LINE
  5
7B3
  8
0
  6
CONTINUOUS
 62
     7
 10
869.0232314829708
 20
1329.9902419386069
 30
0.0
 11
850.79973378731029
 21
1329.8241021438901
 31
0.0
  0
POLYLINE
  5
7B4
  8
0
  6
CONTINUOUS
 62
     7
 66
     1
 10
0.0
 20
0.0
 30
0.0
  0
VERTEX
  5
1D544
  8
0
  6
CONTINUOUS
 62
     7
 10
850.79973378732404
 20
1329.8241021438989
 30
0.0
  0
VERTEX
  5
1D545
  8
0
  6
CONTINUOUS
 62
     7
 10
832.44103757107234
 20
1329.674627787022
 30
0.0
  0
VERTEX
  5
1D546
  8
0
  6
CONTINUOUS
 62
     7
 10
823.15408752929943
 20
1329.6060112414959
 30
0.0
  0
SEQEND
  5
1D547
  8
0
  6
CONTINUOUS
 62
     7
  0
POLYLINE
  5
7C6
  8
0
  6
CONTINUOUS
 62
     7
 66
     1
 10
0.0
 20
0.0
 30
0.0
  0
VERTEX
  5
1D548
  8
0
  6
CONTINUOUS
 62
     7
 10
642.60167644284957
 20
1329.6610056857421
 30
0.0
  0
VERTEX
  5
1D549
  8
0
  6
CONTINUOUS
 62
     7
 10
521.01440453530813
 20
1330.7721671311849
 30
0.0
  0
VERTEX
  5
1D54A
  8
0
  6
CONTINUOUS
 62
     7
 10
399.42379762810009
 20
1332.816688630144
 30
0.0
  0
SEQEND
  5
1D54B
  8
0
  6
CONTINUOUS
 62
     7
  0
POLYLINE
  5
812
  8
0
  6
CONTINUOUS
 62
     7
 66
     1
 10
0.0
 20
0.0
 30
0.0
  0
VERTEX
  5
1D54C
  8
0
  6
CONTINUOUS
 62
     7
 10
823.15408749885671
 20
1329.606016169095
 30
0.0
  0
VERTEX
  5
1D54D
  8
0
  6
CONTINUOUS
 62
     7
 10
817.81485521061404
 20
1329.8089910133531
 30
0.0
  0
VERTEX
  5
1D54E
  8
0
  6
CONTINUOUS
 62
     7
 10
812.5124719520245
 20
1330.45189792159
 30
0.0
  0
VERTEX
  5
1D54F
  8
0
  6
CONTINUOUS
 62
     7
 10
807.28009119509079
 20
1331.5305021753261
 30
0.0
  0
VERTEX
  5
1D550
  8
0
  6
CONTINUOUS
 62
     7
 10
802.15453596996667
 20
1333.0372224740529
 30
0.0
  0
VERTEX
  5
1D551
  8
0
  6
CONTINUOUS
 62
     7
 10
797.17107735674654
 20
1334.961493118808
 30
0.0
  0
VERTEX
  5
1D552
  8
0
  6
CONTINUOUS
 62
     7
 10
792.3632265813211
 20
1337.2901696196891
 30
0.0
  0
VERTEX
  5
1D553
  8
0
  6
CONTINUOUS
 62
     7
 10
787.76334033791488
 20
1340.0074765548591
 30
0.0
  0
VERTEX
  5
1D554
  8
0
  6
CONTINUOUS
 62
     7
 10
783.40248663643433
 20
1343.095052467597
 30
0.0
  0
VERTEX
  5
1D555
  8
0
  6
CONTINUOUS
 62
     7
 10
779.31060645852995
 20
1346.531690074884
 30
0.0
  0
VERTEX
  5
1D556
  8
0
  6
CONTINUOUS
 62
     7
 10
775.51609601861855
 20
1350.2933519546309
 30
0.0
  0
VERTEX
  5
1D557
  8
0
  6
CONTINUOUS
 62
     7
 10
772.04419980775856
 20
1354.3547849493591
 30
0.0
  0
VERTEX
  5
1D558
  8
0
  6
CONTINUOUS
 62
     7
 10
768.9173300848488
 20
1358.6900519607841
 30
0.0
  0
VERTEX
  5
1D559
  8
0
  6
CONTINUOUS
 62
     7
 10
766.15724953952304
 20
1363.269691640711
 30
0.0
  0
VERTEX
  5
1D55A
  8
0
  6
CONTINUOUS
 62
     7
 10
763.78447499115998
 20
1368.059610798457
 30
0.0
  0
VERTEX
  5
1D55B
  8
0
  6
CONTINUOUS
 62
     7
 10
761.81433169248328
 20
1373.028246093596
 30
0.0
  0
VERTEX
  5
1D55C
  8
0
  6
CONTINUOUS
 62
     7
 10
760.25975762099552
 20
1378.1431553456021
 30
0.0
  0
VERTEX
  5
1D55D
  8
0
  6
CONTINUOUS
 62
     7
 10
759.1317203343059
 20
1383.3687761567089
 30
0.0
  0
VERTEX
  5
1D55E
  8
0
  6
CONTINUOUS
 62
     7
 10
758.43797608804005
 20
1388.6692930334209
 30
0.0
  0
VERTEX
  5
1D55F
  8
0
  6
CONTINUOUS
 62
     7
 10
758.18324429368658
 20
1394.0087401650339
 30
0.0
  0
SEQEND
  5
1D560
  8
0
  6
CONTINUOUS
 62
     7
  0
POLYLINE
  5
854
  8
0
  6
CONTINUOUS
 62
     7
 66
     1
 10
0.0
 20
0.0
 30
0.0
  0
VERTEX
  5
1D561
  8
0
  6
CONTINUOUS
 62
     7
 10
399.42379809550772
 20
1332.816684017507
 30
0.0
  0
VERTEX
  5
1D562
  8
0
  6
CONTINUOUS
 62
     7
 10
394.51070925775281
 20
1333.1247287557601
 30
0.0
  0
VERTEX
  5
1D563
  8
0
  6
CONTINUOUS
 62
     7
 10
389.64021508199221
 20
1333.8543529810231
 30
0.0
  0
VERTEX
  5
1D564
  8
0
  6
CONTINUOUS
 62
     7
 10
384.84845741135359
 20
1335.000706990071
 30
0.0
  0
VERTEX
  5
1D565
  8
0
  6
CONTINUOUS
 62
     7
 10
380.1717100769892
 20
1336.5554304033251
 30
0.0
  0
VERTEX
  5
1D566
  8
0
  6
CONTINUOUS
 62
     7
 10
375.64575708676421
 20
1338.5066883143991
 30
0.0
  0
VERTEX
  5
1D567
  8
0
  6
CONTINUOUS
 62
     7
 10
371.30483653316332
 20
1340.8395556527209
 30
0.0
  0
VERTEX
  5
1D568
  8
0
  6
CONTINUOUS
 62
     7
 10
367.18164230052213
 20
1343.536213830633
 30
0.0
  0
VERTEX
  5
1D569
  8
0
  6
CONTINUOUS
 62
     7
 10
363.30722280022752
 20
1346.576085495351
 30
0.0
  0
VERTEX
  5
1D56A
  8
0
  6
CONTINUOUS
 62
     7
 10
359.71093150154047
 20
1349.935823881267
 30
0.0
  0
VERTEX
  5
1D56B
  8
0
  6
CONTINUOUS
 62
     7
 10
356.42030687125231
 20
1353.5891702143961
 30
0.0
  0
VERTEX
  5
1D56C
  8
0
  6
CONTINUOUS
 62
     7
 10
353.46052469838469
 20
1357.5071418755069
 30
0.0
  0
VERTEX
  5
1D56D
  8
0
  6
CONTINUOUS
 62
     7
 10
350.85440997158003
 20
1361.657427423019
 30
0.0
  0
VERTEX
  5
1D56E
  8
0
  6
CONTINUOUS
 62
     7
 10
348.61996084639401
 20
1366.0081660316459
 30
0.0
  0
VERTEX
  5
1D56F
  8
0
  6
CONTINUOUS
 62
     7
 10
346.77283055028238
 20
1370.524298751985
 30
0.0
  0
VERTEX
  5
1D570
  8
0
  6
CONTINUOUS
 62
     7
 10
345.3246605637396
 20
1375.170239645518
 30
0.0
  0
VERTEX
  5
1D571
  8
0
  6
CONTINUOUS
 62
     7
 10
344.28287178116437
 20
1379.9125318627009
 30
0.0
  0
VERTEX
  5
1D572
  8
0
  6
CONTINUOUS
 62
     7
 10
343.65218564601679
 20
1384.716681004702
 30
0.0
  0
VERTEX
  5
1D573
  8
0
  6
CONTINUOUS
 62
     7
 10
343.43439604861487
 20
1389.4924474348629
 30
0.0
  0
SEQEND
  5
1D574
  8
0
  6
CONTINUOUS
 62
     7
  0
LINE
  5
B5A
  8
0
  6
CONTINUOUS
 62
     7
 10
698.07383880280031
 20
1387.4280546929399
 30
0.0
 11
697.75174548712857
 21
1387.434646368856
 31
0.0
  0
LINE
  5
E20
  8
0
  6
CONTINUOUS
 62
     7
 10
697.20492132295647
 20
1599.9710580541309
 30
0.0
 11
697.23750100887355
 21
1595.863036846778
 31
0.0
  0
LINE
  5
E36
  8
0
  6
CONTINUOUS
 62
     7
 10
697.75358298408889
 20
1387.7540396035649
 30
0.0
 11
697.75174606627468
 21
1387.434646358691
 31
0.0
  0
POLYLINE
  5
F69
  8
0
  6
CONTINUOUS
 62
     7
 66
     1
 10
0.0
 20
0.0
 30
0.0
  0
VERTEX
  5
1D575
  8
0
  6
CONTINUOUS
 62
     7
 10
697.75174548717041
 20
1387.4346463688671
 30
0.0
  0
VERTEX
  5
1D576
  8
0
  6
CONTINUOUS
 62
     7
 10
697.59683931992913
 20
1383.564576293425
 30
0.0
  0
VERTEX
  5
1D577
  8
0
  6
CONTINUOUS
 62
     7
 10
697.19459505456325
 20
1379.6727572139901
 30
0.0
  0
VERTEX
  5
1D578
  8
0
  6
CONTINUOUS
 62
     7
 10
696.53880122264673
 20
1375.7689629286431
 30
0.0
  0
VERTEX
  5
1D579
  8
0
  6
CONTINUOUS
 62
     7
 10
695.61956689147326
 20
1371.8552557954349
 30
0.0
  0
VERTEX
  5
1D57A
  8
0
  6
CONTINUOUS
 62
     7
 10
694.4238817847945
 20
1367.9373542484791
 30
0.0
  0
VERTEX
  5
1D57B
  8
0
  6
CONTINUOUS
 62
     7
 10
692.93735786930483
 20
1364.0282896053361
 30
0.0
  0
VERTEX
  5
1D57C
  8
0
  6
CONTINUOUS
 62
     7
 10
691.14438105399313
 20
1360.1458009212761
 30
0.0
  0
VERTEX
  5
1D57D
  8
0
  6
CONTINUOUS
 62
     7
 10
689.03065031570429
 20
1356.315975845351
 30
0.0
  0
VERTEX
  5
1D57E
  8
0
  6
CONTINUOUS
 62
     7
 10
686.58703965817404
 20
1352.5756820305501
 30
0.0
  0
VERTEX
  5
1D57F
  8
0
  6
CONTINUOUS
 62
     7
 10
683.81115595415758
 20
1348.9692077703039
 30
0.0
  0
VERTEX
  5
1D580
  8
0
  6
CONTINUOUS
 62
     7
 10
680.71343441780482
 20
1345.550303924854
 30
0.0
  0
VERTEX
  5
1D581
  8
0
  6
CONTINUOUS
 62
     7
 10
677.33385480155994
 20
1342.3891220938201
 30
0.0
  0
VERTEX
  5
1D582
  8
0
  6
CONTINUOUS
 62
     7
 10
673.74037730479904
 20
1339.5543883170139
 30
0.0
  0
VERTEX
  5
1D583
  8
0
  6
CONTINUOUS
 62
     7
 10
670.00127282972971
 20
1337.0860751536061
 30
0.0
  0
VERTEX
  5
1D584
  8
0
  6
CONTINUOUS
 62
     7
 10
666.2092802918196
 20
1335.014317935678
 30
0.0
  0
SEQEND
  5
1D585
  8
0
  6
CONTINUOUS
 62
     7
  0
LINE
  5
1070
  8
0
  6
CONTINUOUS
 62
     7
 10
758.18323934577666
 20
1394.0087401446899
 30
0.0
 11
758.16595927873175
 21
1411.972613802852
 31
0.0
  0
LINE
  5
1071
  8
0
  6
CONTINUOUS
 62
     7
 10
758.16595927873175
 20
1411.972613802852
 30
0.0
 11
758.16561306655501
 21
1427.969772562861
 31
0.0
  0
LINE
  5
1072
  8
0
  6
CONTINUOUS
 62
     7
 10
758.16561306655501
 20
1427.969772562861
 30
0.0
 11
758.17685528946004
 21
1442.5456798092639
 31
0.0
  0
LINE
  5
1073
  8
0
  6
CONTINUOUS
 62
     7
 10
758.17685528946004
 20
1442.5456798092639
 30
0.0
 11
758.20880354151939
 21
1462.6878521435749
 31
0.0
  0
LINE
  5
1074
  8
0
  6
CONTINUOUS
 62
     7
 10
758.20880354151939
 20
1462.6878521435749
 30
0.0
 11
758.25414993801405
 21
1481.742240420285
 31
0.0
  0
LINE
  5
1075
  8
0
  6
CONTINUOUS
 62
     7
 10
758.25414993801405
 20
1481.742240420285
 30
0.0
 11
758.33182139050939
 21
1506.755116541251
 31
0.0
  0
LINE
  5
1076
  8
0
  6
CONTINUOUS
 62
     7
 10
758.33182139050939
 20
1506.755116541251
 30
0.0
 11
758.42794762953781
 21
1531.800001721904
 31
0.0
  0
LINE
  5
1077
  8
0
  6
CONTINUOUS
 62
     7
 10
758.42794762953781
 20
1531.800001721904
 30
0.0
 11
758.51500824282812
 21
1550.8873532855021
 31
0.0
  0
LINE
  5
1078
  8
0
  6
CONTINUOUS
 62
     7
 10
758.51500824282812
 20
1550.8873532855021
 30
0.0
 11
758.62286508576005
 21
1571.0400658476469
 31
0.0
  0
POLYLINE
  5
1079
  8
0
  6
CONTINUOUS
 62
     7
 66
     1
 10
0.0
 20
0.0
 30
0.0
  0
VERTEX
  5
1D586
  8
0
  6
CONTINUOUS
 62
     7
 10
758.62286508579564
 20
1571.0400658476531
 30
0.0
  0
VERTEX
  5
1D587
  8
0
  6
CONTINUOUS
 62
     7
 10
758.71271769756265
 20
1585.6163798598241
 30
0.0
  0
VERTEX
  5
1D588
  8
0
  6
CONTINUOUS
 62
     7
 10
758.76506278973818
 20
1593.3884482069659
 30
0.0
  0
SEQEND
  5
1D589
  8
0
  6
CONTINUOUS
 62
     7
  0
POLYLINE
  5
10E0
  8
0
  6
CONTINUOUS
 62
     7
 66
     1
 10
0.0
 20
0.0
 30
0.0
  0
VERTEX
  5
1D58A
  8
0
  6
CONTINUOUS
 62
     7
 10
758.76506859106303
 20
1593.3884481561511
 30
0.0
  0
VERTEX
  5
1D58B
  8
0
  6
CONTINUOUS
 62
     7
 10
759.05765813031746
 20
1598.818761674451
 30
0.0
  0
VERTEX
  5
1D58C
  8
0
  6
CONTINUOUS
 62
     7
 10
759.80443913106865
 20
1604.2058040169611
 30
0.0
  0
VERTEX
  5
1D58D
  8
0
  6
CONTINUOUS
 62
     7
 10
760.9999466714944
 20
1609.5108794011719
 30
0.0
  0
VERTEX
  5
1D58E
  8
0
  6
CONTINUOUS
 62
     7
 10
762.63531722851621
 20
1614.69594937647
 30
0.0
  0
VERTEX
  5
1D58F
  8
0
  6
CONTINUOUS
 62
     7
 10
764.69941178460431
 20
1619.726204411181
 30
0.0
  0
VERTEX
  5
1D590
  8
0
  6
CONTINUOUS
 62
     7
 10
767.17892858323455
 20
1624.568252049907
 30
0.0
  0
VERTEX
  5
1D591
  8
0
  6
CONTINUOUS
 62
     7
 10
770.05592368271016
 20
1629.186091612788
 30
0.0
  0
VERTEX
  5
1D592
  8
0
  6
CONTINUOUS
 62
     7
 10
773.30846411177481
 20
1633.5448116634179
 30
0.0
  0
VERTEX
  5
1D593
  8
0
  6
CONTINUOUS
 62
     7
 10
776.91609697778756
 20
1637.616986897275
 30
0.0
  0
VERTEX
  5
1D594
  8
0
  6
CONTINUOUS
 62
     7
 10
780.85088039092079
 20
1641.37099839863
 30
0.0
  0
VERTEX
  5
1D595
  8
0
  6
CONTINUOUS
 62
     7
 10
785.08416169825057
 20
1644.7802330330269
 30
0.0
  0
VERTEX
  5
1D596
  8
0
  6
CONTINUOUS
 62
     7
 10
789.58841253224807
 20
1647.8228053171731
 30
0.0
  0
VERTEX
  5
1D597
  8
0
  6
CONTINUOUS
 62
     7
 10
794.33278366837476
 20
1650.4775299340799
 30
0.0
  0
VERTEX
  5
1D598
  8
0
  6
CONTINUOUS
 62
     7
 10
799.28207363259571
 20
1652.7245523335839
 30
0.0
  0
VERTEX
  5
1D599
  8
0
  6
CONTINUOUS
 62
     7
 10
804.40110147431551
 20
1654.548071450055
 30
0.0
  0
VERTEX
  5
1D59A
  8
0
  6
CONTINUOUS
 62
     7
 10
809.6565139657032
 20
1655.9360234010931
 30
0.0
  0
VERTEX
  5
1D59B
  8
0
  6
CONTINUOUS
 62
     7
 10
815.01220789233037
 20
1656.878214861903
 30
0.0
  0
VERTEX
  5
1D59C
  8
0
  6
CONTINUOUS
 62
     7
 10
820.42637874548382
 20
1657.367064359187
 30
0.0
  0
VERTEX
  5
1D59D
  8
0
  6
CONTINUOUS
 62
     7
 10
829.87053274127607
 20
1657.4231749300429
 30
0.0
  0
SEQEND
  5
1D59E
  8
0
  6
CONTINUOUS
 62
     7
  0
POLYLINE
  5
1717
  8
0
  6
CONTINUOUS
 62
     7
 66
     1
 10
0.0
 20
0.0
 30
0.0
  0
VERTEX
  5
1D59F
  8
0
  6
CONTINUOUS
 62
     7
 10
666.2092808404268
 20
1335.0143167266181
 30
0.0
  0
VERTEX
  5
1D5A0
  8
0
  6
CONTINUOUS
 62
     7
 10
662.95406263160112
 20
1333.546278443504
 30
0.0
  0
VERTEX
  5
1D5A1
  8
0
  6
CONTINUOUS
 62
     7
 10
659.65095959081373
 20
1332.3242616749451
 30
0.0
  0
VERTEX
  5
1D5A2
  8
0
  6
CONTINUOUS
 62
     7
 10
656.316221662928
 20
1331.3419980971919
 30
0.0
  0
VERTEX
  5
1D5A3
  8
0
  6
CONTINUOUS
 62
     7
 10
652.94902986033412
 20
1330.589378367989
 30
0.0
  0
VERTEX
  5
1D5A4
  8
0
  6
CONTINUOUS
 62
     7
 10
649.54320932122926
 20
1330.0593494762979
 30
0.0
  0
VERTEX
  5
1D5A5
  8
0
  6
CONTINUOUS
 62
     7
 10
646.09402230546402
 20
1329.7494653818101
 30
0.0
  0
VERTEX
  5
1D5A6
  8
0
  6
CONTINUOUS
 62
     7
 10
642.60167649366485
 20
1329.661015134534
 30
0.0
  0
SEQEND
  5
1D5A7
  8
0
  6
CONTINUOUS
 62
     7
  0
POLYLINE
  5
17A8
  8
0
  6
CONTINUOUS
 62
     7
 66
     1
 10
0.0
 20
0.0
 30
0.0
  0
VERTEX
  5
1D5A8
  8
0
  6
CONTINUOUS
 62
     7
 10
640.87682563801354
 20
1658.076496214398
 30
0.0
  0
VERTEX
  5
1D5A9
  8
0
  6
CONTINUOUS
 62
     7
 10
644.37304443174799
 20
1658.086013492775
 30
0.0
  0
VERTEX
  5
1D5AA
  8
0
  6
CONTINUOUS
 62
     7
 10
647.85695474101522
 20
1657.8663313108809
 30
0.0
  0
VERTEX
  5
1D5AB
  8
0
  6
CONTINUOUS
 62
     7
 10
651.3681287397194
 20
1657.4065632896049
 30
0.0
  0
VERTEX
  5
1D5AC
  8
0
  6
CONTINUOUS
 62
     7
 10
654.94540927624621
 20
1656.6820252720461
 30
0.0
  0
VERTEX
  5
1D5AD
  8
0
  6
CONTINUOUS
 62
     7
 10
658.62008970948227
 20
1655.654290146947
 30
0.0
  0
VERTEX
  5
1D5AE
  8
0
  6
CONTINUOUS
 62
     7
 10
662.41204088601796
 20
1654.2719852864641
 30
0.0
  0
VERTEX
  5
1D5AF
  8
0
  6
CONTINUOUS
 62
     7
 10
666.3334929872799
 20
1652.468549289591
 30
0.0
  0
VERTEX
  5
1D5B0
  8
0
  6
CONTINUOUS
 62
     7
 10
670.35587375624164
 20
1650.1790662180831
 30
0.0
  0
VERTEX
  5
1D5B1
  8
0
  6
CONTINUOUS
 62
     7
 10
674.31091902371554
 20
1647.431120492223
 30
0.0
  0
VERTEX
  5
1D5B2
  8
0
  6
CONTINUOUS
 62
     7
 10
678.06379295054649
 20
1644.2855004284031
 30
0.0
  0
VERTEX
  5
1D5B3
  8
0
  6
CONTINUOUS
 62
     7
 10
681.53764164926542
 20
1640.802422853008
 30
0.0
  0
VERTEX
  5
1D5B4
  8
0
  6
CONTINUOUS
 62
     7
 10
684.67640976847895
 20
1637.055119857421
 30
0.0
  0
VERTEX
  5
1D5B5
  8
0
  6
CONTINUOUS
 62
     7
 10
687.44552293985896
 20
1633.1223056250269
 30
0.0
  0
VERTEX
  5
1D5B6
  8
0
  6
CONTINUOUS
 62
     7
 10
689.83870768868655
 20
1629.0659388432071
 30
0.0
  0
VERTEX
  5
1D5B7
  8
0
  6
CONTINUOUS
 62
     7
 10
691.86656266266073
 20
1624.9285926652631
 30
0.0
  0
VERTEX
  5
1D5B8
  8
0
  6
CONTINUOUS
 62
     7
 10
693.53979586182675
 20
1620.755111461822
 30
0.0
  0
VERTEX
  5
1D5B9
  8
0
  6
CONTINUOUS
 62
     7
 10
694.87780836482125
 20
1616.56935238605
 30
0.0
  0
VERTEX
  5
1D5BA
  8
0
  6
CONTINUOUS
 62
     7
 10
695.89840211738192
 20
1612.3904595500751
 30
0.0
  0
VERTEX
  5
1D5BB
  8
0
  6
CONTINUOUS
 62
     7
 10
696.61792833900824
 20
1608.230673102076
 30
0.0
  0
VERTEX
  5
1D5BC
  8
0
  6
CONTINUOUS
 62
     7
 10
697.05081185216841
 20
1604.0858593139819
 30
0.0
  0
VERTEX
  5
1D5BD
  8
0
  6
CONTINUOUS
 62
     7
 10
697.20492055082275
 20
1599.971058043968
 30
0.0
  0
SEQEND
  5
1D5BE
  8
0
  6
CONTINUOUS
 62
     7
  0
POLYLINE
  5
1911
  8
0
  6
CONTINUOUS
 62
     7
 66
     1
 10
0.0
 20
0.0
 30
0.0
  0
VERTEX
  5
1D5BF
  8
0
  6
CONTINUOUS
 62
     7
 10
1059.7933928934069
 20
1637.568023632218
 30
0.0
  0
VERTEX
  5
1D5C0
  8
0
  6
CONTINUOUS
 62
     7
 10
1064.1728361233399
 20
1636.8174989763031
 30
0.0
  0
VERTEX
  5
1D5C1
  8
0
  6
CONTINUOUS
 62
     7
 10
1068.5277623283471
 20
1635.7152269314349
 30
0.0
  0
VERTEX
  5
1D5C2
  8
0
  6
CONTINUOUS
 62
     7
 10
1072.8190659936661
 20
1634.260114078377
 30
0.0
  0
VERTEX
  5
1D5C3
  8
0
  6
CONTINUOUS
 62
     7
 10
1077.0064580455801
 20
1632.457144201991
 30
0.0
  0
VERTEX
  5
1D5C4
  8
0
  6
CONTINUOUS
 62
     7
 10
1081.0499011855129
 20
1630.3176366903031
 30
0.0
  0
VERTEX
  5
1D5C5
  8
0
  6
CONTINUOUS
 62
     7
 10
1084.9111559572771
 20
1627.8590604949529
 30
0.0
  0
VERTEX
  5
1D5C6
  8
0
  6
CONTINUOUS
 62
     7
 10
1088.5552526873209
 20
1625.104392364472
 30
0.0
  0
VERTEX
  5
1D5C7
  8
0
  6
CONTINUOUS
 62
     7
 10
1091.9531437731489
 20
1622.0797044133319
 30
0.0
  0
VERTEX
  5
1D5C8
  8
0
  6
CONTINUOUS
 62
     7
 10
1095.0902149590111
 20
1618.8029986477591
 30
0.0
  0
VERTEX
  5
1D5C9
  8
0
  6
CONTINUOUS
 62
     7
 10
1097.9564382435781
 20
1615.2869241559199
 30
0.0
  0
VERTEX
  5
1D5CA
  8
0
  6
CONTINUOUS
 62
     7
 10
1100.540493182154
 20
1611.5429878287209
 30
0.0
  0
VERTEX
  5
1D5CB
  8
0
  6
CONTINUOUS
 62
     7
 10
1102.826310840624
 20
1607.5879059344841
 30
0.0
  0
VERTEX
  5
1D5CC
  8
0
  6
CONTINUOUS
 62
     7
 10
1104.791587600906
 20
1603.453710687488
 30
0.0
  0
VERTEX
  5
1D5CD
  8
0
  6
CONTINUOUS
 62
     7
 10
1106.417819684968
 20
1599.1779309942469
 30
0.0
  0
VERTEX
  5
1D5CE
  8
0
  6
CONTINUOUS
 62
     7
 10
1107.6923712837299
 20
1594.800663660393
 30
0.0
  0
VERTEX
  5
1D5CF
  8
0
  6
CONTINUOUS
 62
     7
 10
1108.6089305682251
 20
1590.3630337751781
 30
0.0
  0
VERTEX
  5
1D5D0
  8
0
  6
CONTINUOUS
 62
     7
 10
1109.1675041220881
 20
1585.9056374778991
 30
0.0
  0
VERTEX
  5
1D5D1
  8
0
  6
CONTINUOUS
 62
     7
 10
1109.373984247635
 20
1581.467149235275
 30
0.0
  0
SEQEND
  5
1D5D2
  8
0
  6
CONTINUOUS
 62
     7
  0
POLYLINE
  5
1926
  8
0
  6
CONTINUOUS
 62
     7
 66
     1
 10
0.0
 20
0.0
 30
0.0
  0
VERTEX
  5
1D5D3
  8
0
  6
CONTINUOUS
 62
     7
 10
1062.090047360296
 20
1654.918664115012
 30
0.0
  0
VERTEX
  5
1D5D4
  8
0
  6
CONTINUOUS
 62
     7
 10
1067.8085149073299
 20
1653.9344390984591
 30
0.0
  0
VERTEX
  5
1D5D5
  8
0
  6
CONTINUOUS
 62
     7
 10
1073.4953083292489
 20
1652.4909169563
 30
0.0
  0
VERTEX
  5
1D5D6
  8
0
  6
CONTINUOUS
 62
     7
 10
1079.099372914832
 20
1650.5867070791969
 30
0.0
  0
VERTEX
  5
1D5D7
  8
0
  6
CONTINUOUS
 62
     7
 10
1084.568102957812
 20
1648.228355829425
 30
0.0
  0
VERTEX
  5
1D5D8
  8
0
  6
CONTINUOUS
 62
     7
 10
1089.849215423237
 20
1645.430682420465
 30
0.0
  0
VERTEX
  5
1D5D9
  8
0
  6
CONTINUOUS
 62
     7
 10
1094.892768648293
 20
1642.21653470094
 30
0.0
  0
VERTEX
  5
1D5DA
  8
0
  6
CONTINUOUS
 62
     7
 10
1099.6530847461111
 20
1638.615949572933
 30
0.0
  0
VERTEX
  5
1D5DB
  8
0
  6
CONTINUOUS
 62
     7
 10
1104.0922146232481
 20
1634.6630003236601
 30
0.0
  0
VERTEX
  5
1D5DC
  8
0
  6
CONTINUOUS
 62
     7
 10
1108.1910609746849
 20
1630.3812083386249
 30
0.0
  0
VERTEX
  5
1D5DD
  8
0
  6
CONTINUOUS
 62
     7
 10
1111.9365192800319
 20
1625.7871006866301
 30
0.0
  0
VERTEX
  5
1D5DE
  8
0
  6
CONTINUOUS
 62
     7
 10
1115.3137987434311
 20
1620.895714106704
 30
0.0
  0
VERTEX
  5
1D5DF
  8
0
  6
CONTINUOUS
 62
     7
 10
1118.301904029576
 20
1615.7288924464631
 30
0.0
  0
VERTEX
  5
1D5E0
  8
0
  6
CONTINUOUS
 62
     7
 10
1120.8716852755899
 20
1610.3284854266351
 30
0.0
  0
VERTEX
  5
1D5E1
  8
0
  6
CONTINUOUS
 62
     7
 10
1122.998948412438
 20
1604.7435168455081
 30
0.0
  0
VERTEX
  5
1D5E2
  8
0
  6
CONTINUOUS
 62
     7
 10
1124.667158101176
 20
1599.0263581909489
 30
0.0
  0
VERTEX
  5
1D5E3
  8
0
  6
CONTINUOUS
 62
     7
 10
1125.8680345005271
 20
1593.2307176105639
 30
0.0
  0
VERTEX
  5
1D5E4
  8
0
  6
CONTINUOUS
 62
     7
 10
1126.601547567421
 20
1587.4096065705489
 30
0.0
  0
VERTEX
  5
1D5E5
  8
0
  6
CONTINUOUS
 62
     7
 10
1126.8753533901329
 20
1581.613521571413
 30
0.0
  0
SEQEND
  5
1D5E6
  8
0
  6
CONTINUOUS
 62
     7
  0
LINE
  5
1A25
  8
0
  6
CONTINUOUS
 62
     7
 10
1112.4283561627451
 20
1758.8194667879859
 30
0.0
 11
340.77635616271982
 21
1758.8194667879859
 31
0.0
  0
POLYLINE
  5
1E18
  8
0
  6
CONTINUOUS
 62
     7
 66
     1
 10
0.0
 20
0.0
 30
0.0
  0
VERTEX
  5
1D5E7
  8
0
  6
CONTINUOUS
 62
     7
 10
1109.770288113403
 20
1389.492228019513
 30
0.0
  0
VERTEX
  5
1D5E8
  8
0
  6
CONTINUOUS
 62
     7
 10
1109.575274645191
 20
1384.982460864321
 30
0.0
  0
VERTEX
  5
1D5E9
  8
0
  6
CONTINUOUS
 62
     7
 10
1109.0206184519479
 20
1380.4945752096501
 30
0.0
  0
VERTEX
  5
1D5EA
  8
0
  6
CONTINUOUS
 62
     7
 10
1108.107067147226
 20
1376.0553329527861
 30
0.0
  0
VERTEX
  5
1D5EB
  8
0
  6
CONTINUOUS
 62
     7
 10
1106.8352845447509
 20
1371.6857312779721
 30
0.0
  0
VERTEX
  5
1D5EC
  8
0
  6
CONTINUOUS
 62
     7
 10
1105.2065810406491
 20
1367.408909290647
 30
0.0
  0
VERTEX
  5
1D5ED
  8
0
  6
CONTINUOUS
 62
     7
 10
1103.226521124787
 20
1363.255612999837
 30
0.0
  0
VERTEX
  5
1D5EE
  8
0
  6
CONTINUOUS
 62
     7
 10
1100.904378154155
 20
1359.257430384077
 30
0.0
  0
VERTEX
  5
1D5EF
  8
0
  6
CONTINUOUS
 62
     7
 10
1098.2505743482179
 20
1355.4422675495989
 30
0.0
  0
VERTEX
  5
1D5F0
  8
0
  6
CONTINUOUS
 62
     7
 10
1095.2773403353201
 20
1351.8370838024091
 30
0.0
  0
VERTEX
  5
1D5F1
  8
0
  6
CONTINUOUS
 62
     7
 10
1092.002459894996
 20
1348.471706037348
 30
0.0
  0
VERTEX
  5
1D5F2
  8
0
  6
CONTINUOUS
 62
     7
 10
1088.450929797152
 20
1345.3775275673499
 30
0.0
  0
VERTEX
  5
1D5F3
  8
0
  6
CONTINUOUS
 62
     7
 10
1084.652296154891
 20
1342.5829373119891
 30
0.0
  0
VERTEX
  5
1D5F4
  8
0
  6
CONTINUOUS
 62
     7
 10
1080.635382461551
 20
1340.1098084202929
 30
0.0
  0
VERTEX
  5
1D5F5
  8
0
  6
CONTINUOUS
 62
     7
 10
1076.428530738121
 20
1337.9756319825501
 30
0.0
  0
VERTEX
  5
1D5F6
  8
0
  6
CONTINUOUS
 62
     7
 10
1072.068585787739
 20
1336.1979040064
 30
0.0
  0
VERTEX
  5
1D5F7
  8
0
  6
CONTINUOUS
 62
     7
 10
1067.596448102573
 20
1334.7896188676491
 30
0.0
  0
VERTEX
  5
1D5F8
  8
0
  6
CONTINUOUS
 62
     7
 10
1063.0411757196559
 20
1333.7552938039839
 30
0.0
  0
VERTEX
  5
1D5F9
  8
0
  6
CONTINUOUS
 62
     7
 10
1058.425700002713
 20
1333.0969120575139
 30
0.0
  0
VERTEX
  5
1D5FA
  8
0
  6
CONTINUOUS
 62
     7
 10
1046.446145267415
 20
1332.5475411267801
 30
0.0
  0
SEQEND
  5
1D5FB
  8
0
  6
CONTINUOUS
 62
     7
  0
LINE
  5
1EE3
  8
0
  6
CONTINUOUS
 62
     7
 10
1145.702356162732
 20
1725.5454667879751
 30
0.0
 11
1145.702356162732
 21
1322.1934667879721
 31
0.0
  0
POLYLINE
  5
1F32
  8
0
  6
CONTINUOUS
 62
     7
 66
     1
 10
0.0
 20
0.0
 30
0.0
  0
VERTEX
  5
1D5FC
  8
0
  6
CONTINUOUS
 62
     7
 10
1127.2721383319149
 20
1389.418341055276
 30
0.0
  0
VERTEX
  5
1D5FD
  8
0
  6
CONTINUOUS
 62
     7
 10
1126.989350835458
 20
1382.6617842864609
 30
0.0
  0
VERTEX
  5
1D5FE
  8
0
  6
CONTINUOUS
 62
     7
 10
1126.2002563608839
 20
1376.0168063039271
 30
0.0
  0
VERTEX
  5
1D5FF
  8
0
  6
CONTINUOUS
 62
     7
 10
1124.9138492613131
 20
1369.5382103507841
 30
0.0
  0
VERTEX
  5
1D600
  8
0
  6
CONTINUOUS
 62
     7
 10
1123.1467147208889
 20
1363.276824997007
 30
0.0
  0
VERTEX
  5
1D601
  8
0
  6
CONTINUOUS
 62
     7
 10
1120.922061776291
 20
1357.2778252195819
 30
0.0
  0
VERTEX
  5
1D602
  8
0
  6
CONTINUOUS
 62
     7
 10
1118.2683024914729
 20
1351.5798271871131
 30
0.0
  0
VERTEX
  5
1D603
  8
0
  6
CONTINUOUS
 62
     7
 10
1115.216906216825
 20
1346.213383005113
 30
0.0
  0
VERTEX
  5
1D604
  8
0
  6
CONTINUOUS
 62
     7
 10
1111.794496531322
 20
1341.1932567690351
 30
0.0
  0
VERTEX
  5
1D605
  8
0
  6
CONTINUOUS
 62
     7
 10
1108.0211812839991
 20
1336.5254191349629
 30
0.0
  0
VERTEX
  5
1D606
  8
0
  6
CONTINUOUS
 62
     7
 10
1103.912685147385
 20
1332.21455969469
 30
0.0
  0
VERTEX
  5
1D607
  8
0
  6
CONTINUOUS
 62
     7
 10
1099.4793274406261
 20
1328.264768163262
 30
0.0
  0
VERTEX
  5
1D608
  8
0
  6
CONTINUOUS
 62
     7
 10
1094.7273428882031
 20
1324.6823042080759
 30
0.0
  0
VERTEX
  5
1D609
  8
0
  6
CONTINUOUS
 62
     7
 10
1089.660754108525
 20
1321.477480066558
 30
0.0
  0
VERTEX
  5
1D60A
  8
0
  6
CONTINUOUS
 62
     7
 10
1084.2931382549721
 20
1318.6701807078459
 30
0.0
  0
VERTEX
  5
1D60B
  8
0
  6
CONTINUOUS
 62
     7
 10
1078.657785136616
 20
1316.288342250798
 30
0.0
  0
VERTEX
  5
1D60C
  8
0
  6
CONTINUOUS
 62
     7
 10
1072.795659487266
 20
1314.35593781486
 30
0.0
  0
VERTEX
  5
1D60D
  8
0
  6
CONTINUOUS
 62
     7
 10
1066.7528807473279
 20
1312.8906197803119
 30
0.0
  0
VERTEX
  5
1D60E
  8
0
  6
CONTINUOUS
 62
     7
 10
1060.5791925613451
 20
1311.9025443574319
 30
0.0
  0
VERTEX
  5
1D60F
  8
0
  6
CONTINUOUS
 62
     7
 10
1054.3255003798549
 20
1311.394093537903
 30
0.0
  0
SEQEND
  5
1D610
  8
0
  6
CONTINUOUS
 62
     7
  0
CIRCLE
  5
8373
  8
0
  6
CONTINUOUS
 62
     7
 10
567.85235616273258
 20
1506.597466787978
 30
0.0
 40
49.212499999999999
  0
CIRCLE
  5
8376
  8
0
  6
CONTINUOUS
 62
     7
 10
885.35235616273246
 20
1506.597466787978
 30
0.0
 40
49.212499999999999
  0
ARC
  5
8383
  8
0
  6
CONTINUOUS
 62
     7
 10
-14540.70264383724
 20
1454.0194667879859
 30
0.0
 40
15238.600311877361
 50
359.7508471122008
 51
0.5333268877000013
  0
ARC
  5
8387
  8
0
  6
CONTINUOUS
 62
     7
 10
726.60235616273246
 20
8929.8744667879801
 30
0.0
 40
7625.5259265757604
 50
267.53683374240057
 51
272.46316625760062
  0
ARC
  5
8389
  8
0
  6
CONTINUOUS
 62
     7
 10
15582.427356162731
 20
1454.0194667879859
 30
0.0
 40
15256.631553000479
 50
179.5208191252004
 51
180.24260813430041
  0
ARC
  5
838A
  8
0
  6
CONTINUOUS
 62
     7
 10
15582.427356162731
 20
1454.0194667879859
 30
0.0
 40
15239.129571768801
 50
179.5208191252004
 51
180.24260813430041
  0
ARC
  5
838B
  8
0
  6
CONTINUOUS
 62
     7
 10
-14129.22264383726
 20
1454.0194667879859
 30
0.0
 40
15256.631553000479
 50
359.75739186570081
 51
0.4791808748000011
  0
ARC
  5
838C
  8
0
  6
CONTINUOUS
 62
     7
 10
-14129.22264383726
 20
1454.0194667879859
 30
0.0
 40
15239.129571768801
 50
359.75739186570081
 51
0.4791808748000011
  0
ARC
  5
838D
  8
0
  6
CONTINUOUS
 62
     7
 10
726.60235616273246
 20
-879.60553321201405
 30
0.0
 40
2539.1295717687999
 50
82.459755958300164
 51
87.669097656743887
  0
ARC
  5
838F
  8
0
  6
CONTINUOUS
 62
     7
 10
726.60235616273246
 20
-879.60553321201405
 30
0.0
 40
2539.1295717687999
 50
91.934775109600196
 51
97.540244041700234
  0
ARC
  5
8390
  8
0
  6
CONTINUOUS
 62
     7
 10
726.60235616273246
 20
-879.60553321201405
 30
0.0
 40
2556.6315530004799
 50
82.459755958100203
 51
97.540244041900209
  0
CIRCLE
  5
8399
  8
0
  6
CONTINUOUS
 62
     7
 10
929.80235616273239
 20
1711.575466787971
 30
0.0
 40
17.462499999999999
  0
CIRCLE
  5
839A
  8
0
  6
CONTINUOUS
 62
     7
 10
828.20235616273214
 20
1711.575466787971
 30
0.0
 40
17.462499999999999
  0
CIRCLE
  5
839B
  8
0
  6
CONTINUOUS
 62
     7
 10
726.60235616273246
 20
1711.575466787971
 30
0.0
 40
17.462499999999999
  0
CIRCLE
  5
839C
  8
0
  6
CONTINUOUS
 62
     7
 10
625.00235616273221
 20
1711.575466787971
 30
0.0
 40
17.462499999999999
  0
CIRCLE
  5
839D
  8
0
  6
CONTINUOUS
 62
     7
 10
523.40235616273219
 20
1711.575466787971
 30
0.0
 40
17.462499999999999
  0
ARC
  5
83E4
  8
0
  6
CONTINUOUS
 62
     7
 10
1112.4283561627451
 20
1322.1934667879721
 30
0.0
 40
33.274000000000001
 50
270.00000000000063
 51
0.0000000000007994
  0
ARC
  5
83E5
  8
0
  6
CONTINUOUS
 62
     7
 10
340.77635616271982
 20
1322.1934667879721
 30
0.0
 40
33.274000000000001
 50
180.0000000000004
 51
270.00000000000063
  0
ARC
  5
83E6
  8
0
  6
CONTINUOUS
 62
     7
 10
340.77635616271982
 20
1725.5454667879751
 30
0.0
 40
33.274000000000001
 50
90.000000000000185
 51
180.0000000000004
  0
ARC
  5
83E7
  8
0
  6
CONTINUOUS
 62
     7
 10
1112.4283561627451
 20
1725.5454667879751
 30
0.0
 40
33.274000000000001
 50
0.0
 51
90.000000000000185
  0
TEXT
  5
1489E
  8
AM_TR
 10
15233.46532376406
 20
-2563.366941877001
 30
0.0
 40
180.0
  1

  0
TEXT
  5
16DE0
  8
AM_TR
 10
15233.46532376406
 20
-2563.366941877001
 30
0.0
 40
180.0
  1

  0
VIEWPORT
  5
1BA3F
 67
     1
  8
0
 10
5.2499996395561626
 20
3.999999883606677
 30
0.0
 40
18.959600603611229
 41
8.9929997457669462
 68
     1
 69
     1
1001
ACAD
1000
MVIEW
1002
{
1070
    16
1010
0.0
1020
0.0
1030
0.0
1010
0.0
1020
0.0
1030
1.0
1040
0.0
1040
8.9929997457669462
1040
5.2499996395561626
1040
3.999999883606677
1040
50.0
1040
0.0
1040
0.0
1070
     0
1070
   100
1070
     1
1070
     1
1070
     0
1070
     0
1070
     0
1070
     0
1040
0.0
1040
0.0
1040
0.0
1040
10.0
1040
10.0
1040
10.0
1040
10.0
1070
     0
1002
{
1002
}
1002
}
1001
GENIUS_GENOBJ-N-SDF_13
1002
{
1000
OWNER
1000
GEN
1002
}
1001
GENIUS_GENODEF_13
1002
{
1000
HIER
1070
     0
1002
}
1002
{
1000
MANEDIT
1070
     0
1002
}
1002
{
1000
NOSEL
1070
     0
1002
}
1002
{
1000
BEHIND
1070
     0
1002
}
1002
{
1000
OTHER
1070
     0
1002
}
1002
{
1000
REACTOR
1002
}
1001
GENIUS_GENSCREG_15
1000
PF
1040
1.0
1000
DF
1040
1.0
1000
MIN
1011
-4.2298006622494517
1021
0.0
1031
0.0
1021
-0.4964999892767957
1031
0.0
1000
MAX
1011
14.72979994136178
1021
0.0
1031
0.0
1021
8.4964997564901523
1031
0.0
1000
FLAGS
1070
     2
  0
ENDSEC
  0
EOF
