  0
SECTION
  2
HEADER
  9
$ACADVER
  1
AC1015
  9
$ACADMAINTVER
 70
    20
  9
$DWGCODEPAGE
  3
ANSI_936
  9
$INSBASE
 10
0.0
 20
0.0
 30
0.0
  9
$EXTMIN
 10
33.75264511483476
 20
20.61744587664861
 30
0.0
  9
$EXTMAX
 10
1555.864187120993
 20
1408.618512216072
 30
0.0
  9
$LIMMIN
 10
0.0
 20
0.0
  9
$LIMMAX
 10
17.0
 20
11.0
  9
$ORTHOMODE
 70
     0
  9
$REGENMODE
 70
     1
  9
$FILLMODE
 70
     1
  9
$QTEXTMODE
 70
     0
  9
$MIRRTEXT
 70
     1
  9
$LTSCALE
 40
1.0
  9
$ATTMODE
 70
     1
  9
$TEXTSIZE
 40
0.2
  9
$TRACEWID
 40
0.05
  9
$TEXTSTYLE
  7
STANDARD
  9
$CLAYER
  8
0
  9
$CELTYPE
  6
ByLayer
  9
$CECOLOR
 62
   256
  9
$CELTSCALE
 40
1.0
  9
$DISPSILH
 70
     0
  9
$DIMSCALE
 40
1.0
  9
$DIMASZ
 40
0.12
  9
$DIMEXO
 40
0.05
  9
$DIMDLI
 40
0.5
  9
$DIMRND
 40
0.0
  9
$DIMDLE
 40
0.0
  9
$DIMEXE
 40
0.1
  9
$DIMTP
 40
0.1
  9
$DIMTM
 40
0.1
  9
$DIMTXT
 40
0.12
  9
$DIMCEN
 40
0.0
  9
$DIMTSZ
 40
0.0
  9
$DIMTOL
 70
     0
  9
$DIMLIM
 70
     0
  9
$DIMTIH
 70
     1
  9
$DIMTOH
 70
     1
  9
$DIMSE1
 70
     0
  9
$DIMSE2
 70
     0
  9
$DIMTAD
 70
     0
  9
$DIMZIN
 70
     7
  9
$DIMBLK
  1

  9
$DIMASO
 70
     1
  9
$DIMSHO
 70
     1
  9
$DIMPOST
  1

  9
$DIMAPOST
  1
mm
  9
$DIMALT
 70
     0
  9
$DIMALTD
 70
     2
  9
$DIMALTF
 40
25.4
  9
$DIMLFAC
 40
1.0
  9
$DIMTOFL
 70
     0
  9
$DIMTVP
 40
0.0
  9
$DIMTIX
 70
     0
  9
$DIMSOXD
 70
     0
  9
$DIMSAH
 70
     0
  9
$DIMBLK1
  1

  9
$DIMBLK2
  1

  9
$DIMSTYLE
  2
AM_ANSI
  9
$DIMCLRD
 70
   256
  9
$DIMCLRE
 70
   256
  9
$DIMCLRT
 70
   140
  9
$DIMTFAC
 40
0.71
  9
$DIMGAP
 40
0.06
  9
$DIMJUST
 70
     0
  9
$DIMSD1
 70
     0
  9
$DIMSD2
 70
     0
  9
$DIMTOLJ
 70
     1
  9
$DIMTZIN
 70
     7
  9
$DIMALTZ
 70
     0
  9
$DIMALTTZ
 70
     0
  9
$DIMUPT
 70
     0
  9
$DIMDEC
 70
     4
  9
$DIMTDEC
 70
     4
  9
$DIMALTU
 70
     2
  9
$DIMALTTD
 70
     4
  9
$DIMTXSTY
  7
STANDARD
  9
$DIMAUNIT
 70
     0
  9
$DIMADEC
 70
     0
  9
$DIMALTRND
 40
0.0
  9
$DIMAZIN
 70
     2
  9
$DIMDSEP
 70
    46
  9
$DIMATFIT
 70
     3
  9
$DIMFRAC
 70
     0
  9
$DIMLDRBLK
  1

  9
$DIMLUNIT
 70
     2
  9
$DIMLWD
 70
    -1
  9
$DIMLWE
 70
    -1
  9
$DIMTMOVE
 70
     0
  9
$LUNITS
 70
     2
  9
$LUPREC
 70
     4
  9
$SKETCHINC
 40
0.1
  9
$FILLETRAD
 40
0.125
  9
$AUNITS
 70
     0
  9
$AUPREC
 70
     0
  9
$MENU
  1
.
  9
$ELEVATION
 40
0.0
  9
$PELEVATION
 40
0.0
  9
$THICKNESS
 40
0.0
  9
$LIMCHECK
 70
     0
  9
$CHAMFERA
 40
0.125
  9
$CHAMFERB
 40
0.125
  9
$CHAMFERC
 40
1.0
  9
$CHAMFERD
 40
0.0
  9
$SKPOLY
 70
     0
  9
$TDCREATE
 40
2455323.584974005
  9
$TDUCREATE
 40
2455323.251640671
  9
$TDUPDATE
 40
2455323.585490857
  9
$TDUUPDATE
 40
2455323.252157523
  9
$TDINDWG
 40
0.0005172106
  9
$TDUSRTIMER
 40
0.0005172106
  9
$USRTIMER
 70
     1
  9
$ANGBASE
 50
0.0
  9
$ANGDIR
 70
     0
  9
$PDMODE
 70
     0
  9
$PDSIZE
 40
0.0
  9
$PLINEWID
 40
0.0
  9
$SPLFRAME
 70
     0
  9
$SPLINETYPE
 70
     6
  9
$SPLINESEGS
 70
     8
  9
$HANDSEED
  5
EEA
  9
$SURFTAB1
 70
     6
  9
$SURFTAB2
 70
     6
  9
$SURFTYPE
 70
     6
  9
$SURFU
 70
     6
  9
$SURFV
 70
     6
  9
$UCSBASE
  2

  9
$UCSNAME
  2

  9
$UCSORG
 10
0.0
 20
0.0
 30
0.0
  9
$UCSXDIR
 10
1.0
 20
0.0
 30
0.0
  9
$UCSYDIR
 10
0.0
 20
1.0
 30
0.0
  9
$UCSORTHOREF
  2

  9
$UCSORTHOVIEW
 70
     0
  9
$UCSORGTOP
 10
0.0
 20
0.0
 30
0.0
  9
$UCSORGBOTTOM
 10
0.0
 20
0.0
 30
0.0
  9
$UCSORGLEFT
 10
0.0
 20
0.0
 30
0.0
  9
$UCSORGRIGHT
 10
0.0
 20
0.0
 30
0.0
  9
$UCSORGFRONT
 10
0.0
 20
0.0
 30
0.0
  9
$UCSORGBACK
 10
0.0
 20
0.0
 30
0.0
  9
$PUCSBASE
  2

  9
$PUCSNAME
  2

  9
$PUCSORG
 10
0.0
 20
0.0
 30
0.0
  9
$PUCSXDIR
 10
1.0
 20
0.0
 30
0.0
  9
$PUCSYDIR
 10
0.0
 20
1.0
 30
0.0
  9
$PUCSORTHOREF
  2

  9
$PUCSORTHOVIEW
 70
     0
  9
$PUCSORGTOP
 10
0.0
 20
0.0
 30
0.0
  9
$PUCSORGBOTTOM
 10
0.0
 20
0.0
 30
0.0
  9
$PUCSORGLEFT
 10
0.0
 20
0.0
 30
0.0
  9
$PUCSORGRIGHT
 10
0.0
 20
0.0
 30
0.0
  9
$PUCSORGFRONT
 10
0.0
 20
0.0
 30
0.0
  9
$PUCSORGBACK
 10
0.0
 20
0.0
 30
0.0
  9
$USERI1
 70
     0
  9
$USERI2
 70
     0
  9
$USERI3
 70
     0
  9
$USERI4
 70
     0
  9
$USERI5
 70
     0
  9
$USERR1
 40
0.0
  9
$USERR2
 40
0.0
  9
$USERR3
 40
0.0
  9
$USERR4
 40
0.0
  9
$USERR5
 40
0.0
  9
$WORLDVIEW
 70
     1
  9
$SHADEDGE
 70
     3
  9
$SHADEDIF
 70
    70
  9
$TILEMODE
 70
     1
  9
$MAXACTVP
 70
    64
  9
$PINSBASE
 10
0.0
 20
0.0
 30
0.0
  9
$PLIMCHECK
 70
     0
  9
$PEXTMIN
 10
1.000000000000000E+20
 20
1.000000000000000E+20
 30
1.000000000000000E+20
  9
$PEXTMAX
 10
-1.000000000000000E+20
 20
-1.000000000000000E+20
 30
-1.000000000000000E+20
  9
$PLIMMIN
 10
0.0
 20
0.0
  9
$PLIMMAX
 10
12.0
 20
9.0
  9
$UNITMODE
 70
     0
  9
$VISRETAIN
 70
     1
  9
$PLINEGEN
 70
     0
  9
$PSLTSCALE
 70
     1
  9
$TREEDEPTH
 70
  3020
  9
$CMLSTYLE
  2
Standard
  9
$CMLJUST
 70
     0
  9
$CMLSCALE
 40
1.0
  9
$PROXYGRAPHICS
 70
     1
  9
$MEASUREMENT
 70
     0
  9
$CELWEIGHT
370
    -1
  9
$ENDCAPS
280
     0
  9
$JOINSTYLE
280
     0
  9
$LWDISPLAY
290
     0
  9
$INSUNITS
 70
     1
  9
$HYPERLINKBASE
  1

  9
$STYLESHEET
  1

  9
$XEDIT
290
     1
  9
$CEPSNTYPE
380
     0
  9
$PSTYLEMODE
290
     1
  9
$FINGERPRINTGUID
  2
{984C1FBD-E81D-4E56-B28B-D5BA41E879BB}
  9
$VERSIONGUID
  2
{6A16FF0A-E307-4197-8C62-7140FCC42D1A}
  9
$EXTNAMES
290
     1
  9
$PSVPSCALE
 40
0.0
  9
$OLESTARTUP
290
     0
  0
ENDSEC
  0
SECTION
  2
CLASSES
  0
CLASS
  1
ACDBDICTIONARYWDFLT
  2
AcDbDictionaryWithDefault
  3
ObjectDBX Classes
 90
        0
280
     0
281
     0
  0
CLASS
  1
ACDBPLACEHOLDER
  2
AcDbPlaceHolder
  3
ObjectDBX Classes
 90
        0
280
     0
281
     0
  0
CLASS
  1
LAYOUT
  2
AcDbLayout
  3
ObjectDBX Classes
 90
        0
280
     0
281
     0
  0
CLASS
  1
ACME_DOCUMENT
  2
AcMeDbDoc
  3
AcMeServices
 90
     1024
280
     0
281
     0
  0
CLASS
  1
AMGSETTINGSOBJ
  2
AmgSettingsObj
  3
"AcadM|Product Description: AutoCAD Mechanical|Company: Autodesk, Inc."
 90
     1024
280
     0
281
     0
  0
CLASS
  1
ACMESCOPE
  2
AcMeScope
  3
AcMeServices
 90
     1024
280
     0
281
     0
  0
CLASS
  1
ACMECOMMANDHISTORY
  2
AcMeCommandHistory
  3
AcMeServices
 90
     1024
280
     0
281
     0
  0
CLASS
  1
ACIMSYSVARMAN
  2
AcImSysVarManager
  3
AcMeServices
 90
     1024
280
     0
281
     0
  0
CLASS
  1
ACIMREALSYSVAR
  2
AcImRealSysVar
  3
AcMeServices
 90
     1024
280
     0
281
     0
  0
CLASS
  1
ACIMINTSYSVAR
  2
AcImIntSysVar
  3
AcMeServices
 90
     1024
280
     0
281
     0
  0
CLASS
  1
ACMEDRAWINGMAN
  2
AcMeDrawingMan
  3
AcMeServices
 90
     1024
280
     0
281
     0
  0
CLASS
  1
ACMEVIEW
  2
AcMeView
  3
AcMeServices
 90
     1024
280
     0
281
     0
  0
CLASS
  1
ACDBENTITYCACHE
  2
AcMeEntityCache
  3
AcMeServices
 90
     1024
280
     0
281
     0
  0
CLASS
  1
GSMANAGER
  2
AcMeGSManager
  3
AcMeServices
 90
     1024
280
     0
281
     0
  0
CLASS
  1
AMDTINTERNALREACTOR
  2
AmdtInternalReactor
  3
AcMeServices
 90
     1024
280
     0
281
     0
  0
CLASS
  1
ACMESTATEMGR
  2
AcMeStateMgr
  3
AcMeServices
 90
     1024
280
     0
281
     0
  0
CLASS
  1
ACGREFMASTER
  2
AcGrefMaster
  3
AcAttribServices
 90
     1024
280
     0
281
     0
  0
CLASS
  1
ACME_DATABASE
  2
AcMeDbDatabase
  3
AcMeServices
 90
     1024
280
     0
281
     0
  0
CLASS
  1
ACRFINSADJUSTERMGR
  2
AcRfInsAdjusterMgr
  3
AcMeServices
 90
     1024
280
     0
281
     0
  0
CLASS
  1
ACGREFACADMASTER
  2
AcGrefacadMaster
  3
AcGrefServices
 90
     1024
280
     0
281
     0
  0
CLASS
  1
AMIMASTER
  2
AmiMaster
  3
AmiServices
 90
     1024
280
     0
281
     0
  0
CLASS
  1
ACMDATADICTIONARY
  2
AcmDataDictionary
  3
"AcmSymBB|Product Description: AutoCAD Mechanical|Company: Autodesk, Inc."
 90
     1024
280
     0
281
     0
  0
CLASS
  1
ACMDATAENTRYBLOCK
  2
AcmDataEntryBlock
  3
AcmSymBB|Product Description: AutoCAD Mechanical|Company: Autodesk, Inc.
 90
     1024
280
     0
281
     0
  0
CLASS
  1
ACIMSTRSYSVAR
  2
AcImStrSysVar
  3
AcMeServices
 90
     1024
280
     0
281
     0
  0
CLASS
  1
ACMSTANDARDANSI
  2
AcmStandardANSI
  3
"Amdt_StdImp|Product Description: AutoCAD Mechanical|Company: Autodesk, Inc."
 90
     1024
280
     0
281
     0
  0
CLASS
  1
AMGOBJPROPCFG
  2
AmgObjPropCfg
  3
"AmgLay|Product Description: AutoCAD Mechanical|Company: Autodesk, Inc."
 90
     1025
280
     0
281
     0
  0
CLASS
  1
ACMSURFSTANDARDANSI
  2
AcmSurfTextStdANSI
  3
"Amdt_StdImp|Product Description: AutoCAD Mechanical|Company: Autodesk, Inc."
 90
     1024
280
     0
281
     0
  0
CLASS
  1
ACMFCFSTANDARDANSI
  2
AcmFCFStdANSI
  3
"Amdt_StdImp|Product Description: AutoCAD Mechanical|Company: Autodesk, Inc."
 90
     1024
280
     0
281
     0
  0
CLASS
  1
ACMWELDSTANDARDANSI
  2
AcmWeldingStdANSI
  3
"Amdt_StdImp|Product Description: AutoCAD Mechanical|Company: Autodesk, Inc."
 90
     1024
280
     0
281
     0
  0
CLASS
  1
ACMIDSTANDARDANSI
  2
AcmIdStdANSI
  3
"Amdt_StdImp|Product Description: AutoCAD Mechanical|Company: Autodesk, Inc."
 90
     1024
280
     0
281
     0
  0
CLASS
  1
ACMDATUMSTANDARDANSI
  2
AcmDatumStdANSI
  3
"Amdt_StdImp|Product Description: AutoCAD Mechanical|Company: Autodesk, Inc."
 90
     1024
280
     0
281
     0
  0
CLASS
  1
ACMBOMSTANDARDANSI
  2
AcmBOMStdANSI
  3
"Amdt_StdImp|Product Description: AutoCAD Mechanical|Company: Autodesk, Inc."
 90
     1024
280
     0
281
     0
  0
CLASS
  1
ACMDETAILSTANDARDANSI
  2
AmdtDetailSymStdANSI
  3
"Amdt_StdImp|Product Description: AutoCAD Mechanical|Company: Autodesk, Inc."
 90
     1024
280
     0
281
     0
  0
CLASS
  1
ACMSECTIONSTANDARDANSI
  2
AmdtSectionSymStdANSI
  3
"Amdt_StdImp|Product Description: AutoCAD Mechanical|Company: Autodesk, Inc."
 90
     1024
280
     0
281
     0
  0
CLASS
  1
ACMCENTERLINESTANDARDANSI
  2
AmdtCenterLineStdANSI
  3
"Amdt_StdImp|Product Description: AutoCAD Mechanical|Company: Autodesk, Inc."
 90
     1024
280
     0
281
     0
  0
CLASS
  1
ACMNOTESTANDARDANSI
  2
AmdtNoteStdANSI
  3
"Amdt_StdImp|Product Description: AutoCAD Mechanical|Company: Autodesk, Inc."
 90
     1024
280
     0
281
     0
  0
CLASS
  1
ACAMGLAYSTD
  2
AcAmgLayStd
  3
"AmgLay|Product Description: AutoCAD Mechanical|Company: Autodesk, Inc."
 90
     1024
280
     0
281
     0
  0
CLASS
  1
ACAMGDIMSTD
  2
AcAmgDimStd
  3
"AmgDim|Product Description: AutoCAD Mechanical|Company: Autodesk, Inc."
 90
     1024
280
     0
281
     0
  0
CLASS
  1
ACAMGHOLECHARTSTDANSI
  2
AcAmgHoleChartStdANSI
  3
AmgDim|Product Description: AutoCAD Mechanical|Company: Autodesk, Inc.
 90
     1024
280
     0
281
     0
  0
CLASS
  1
ACAMGTITLESTD
  2
AcAmgTitleStd
  3
"AmgTitle|Product Description: AutoCAD Mechanical|Company: Autodesk, Inc."
 90
     4095
280
     0
281
     0
  0
CLASS
  1
LAYER_INDEX
  2
AcDbLayerIndex
  3
ObjectDBX Classes
 90
    32768
280
     0
281
     0
  0
CLASS
  1
IDBUFFER
  2
AcDbIdBuffer
  3
ObjectDBX Classes
 90
    32768
280
     0
281
     0
  0
CLASS
  1
DICTIONARYVAR
  2
AcDbDictionaryVar
  3
ObjectDBX Classes
 90
        0
280
     0
281
     0
  0
CLASS
  1
AM_DRAWING_MGR
  2
AcDmDwgMgr
  3
AcMechDwgViewMgmt
 90
     1024
280
     0
281
     0
  0
CLASS
  1
AM_DWG_DOCUMENT
  2
AcDmDwgDocument
  3
AcMechDwgViewMgmt
 90
     1024
280
     0
281
     0
  0
CLASS
  1
AM_DWG_SHEET
  2
AcDmSheet
  3
AcMechDwgViewMgmt
 90
     1024
280
     0
281
     0
  0
CLASS
  1
AM_VIEWDIMPARMAP
  2
AcDmViewDimParMap
  3
AcMechDwgViewMgmt
 90
     1024
280
     0
281
     0
  0
CLASS
  1
AM_DWGMGR_NAME
  2
AcDmDwgMgrName
  3
AcMechDwgViewMgmt
 90
     1024
280
     0
281
     0
  0
CLASS
  1
AMDTMENUSTATEMGR
  2
AmdtMenuStateMgr
  3
McadcomServices
 90
     1024
280
     0
281
     0
  0
CLASS
  1
AMDTMCOMMENUSTATE
  2
AmdtMcomMenuState
  3
McadcomServices
 90
     1024
280
     0
281
     0
  0
CLASS
  1
MAPIAMMOUDLE
  2
MApiAmModule
  3
MApiAmServices
 90
     1024
280
     0
281
     0
  0
CLASS
  1
AMDTADMENUSTATE
  2
AmdtAdMenuState
  3
DesignerServices
 90
     1024
280
     0
281
     0
  0
CLASS
  1
ADAPPL
  2
AcAdAppl
  3
DesignerServices
 90
     1024
280
     0
281
     0
  0
CLASS
  1
DEPMGR
  2
AcAdDepMgr
  3
DesignerServices
 90
     1024
280
     0
281
     0
  0
CLASS
  1
PARAMMGR
  2
AcAdParamMgr
  3
DesignerServices
 90
     1024
280
     0
281
     0
  0
CLASS
  1
PARAMSCOPE
  2
AcAdParamScope
  3
DesignerServices
 90
     1024
280
     0
281
     0
  0
CLASS
  1
NAMEDAPPL
  2
AcAdNamedAppl
  3
DesignerServices
 90
     1024
280
     0
281
     0
  0
CLASS
  1
AMDTDMMENUSTATE
  2
AmdtDmMenuState
  3
AcMechDwgViewMgmt
 90
     1024
280
     0
281
     0
  0
CLASS
  1
AMDTAMMENUSTATE
  2
AmdtAmMenuState
  3
DesignerAssemblies
 90
     1024
280
     0
281
     0
  0
CLASS
  1
ACAMPROJECT
  2
AcAmProject
  3
DesignerAssemblies
 90
     1024
280
     0
281
     0
  0
CLASS
  1
ACAMGRCOMPDEF
  2
AcAmGrCompDef
  3
DesignerAssemblies
 90
     1024
280
     0
281
     0
  0
CLASS
  1
ACCMCONTEXT
  2
AcCmContext
  3
DesignerAssemblies
 90
     1024
280
     0
281
     0
  0
CLASS
  1
ACAMCOMPDEF
  2
AcAmCompDef
  3
DesignerAssemblies
 90
     1024
280
     0
281
     0
  0
CLASS
  1
ACAMCOMPDEFMGR
  2
AcAmCompDefMgr
  3
DesignerAssemblies
 90
     1024
280
     0
281
     0
  0
CLASS
  1
AMCONTEXTMGR
  2
AcAmContextMgr
  3
DesignerAssemblies
 90
     1024
280
     0
281
     0
  0
CLASS
  1
ACAMCONTEXTMODELER
  2
AcAmContextModeler
  3
DesignerAssemblies
 90
     1024
280
     0
281
     0
  0
CLASS
  1
ACMTHREADLINESTANDARDANSI
  2
AmdtThreadLineStdANSI
  3
"Amdt_StdImp|Product Description: AutoCAD Mechanical|Company: Autodesk, Inc."
 90
     1024
280
     0
281
     0
  0
CLASS
  1
CATALOGSTATE
  2
AcAmCatalogState
  3
DesignerAssemblies
 90
     1024
280
     0
281
     0
  0
CLASS
  1
ACAMGRCOMPDEFSET
  2
AcAmGrCompDefSet
  3
DesignerAssemblies
 90
     1024
280
     0
281
     0
  0
CLASS
  1
AMDTBROWSERDBTAB
  2
AmdtBrowserDbTab
  3
McadcomServices
 90
     1024
280
     0
281
     0
  0
CLASS
  1
CBROWSERAPPOBJECT
  2
CBrowserAppObject
  3
McadcomServices
 90
     1024
280
     0
281
     0
  0
CLASS
  1
DM_PLACEHOLDER
  2
AcDmSelsetPlaceholder
  3
AcMechDwgViewMgmt
 90
     1024
280
     0
281
     0
  0
CLASS
  1
TABLESTYLE
  2
AcDbTableStyle
  3
ObjectDBX Classes
 90
     4095
280
     0
281
     0
  0
CLASS
  1
AMDTNOTETEMPLATEDB
  2
AmdtNoteTemplateDB
  3
AcmSymBB|Product Description: AutoCAD Mechanical|Company: Autodesk, Inc.
 90
     1024
280
     0
281
     0
  0
CLASS
  1
MATERIAL
  2
AcDbMaterial
  3
ObjectDBX Classes
 90
     1153
280
     0
281
     0
  0
CLASS
  1
VISUALSTYLE
  2
AcDbVisualStyle
  3
ObjectDBX Classes
 90
     4095
280
     0
281
     0
  0
CLASS
  1
ACRFATTGENMGR
  2
AcRfAttGeneralMgr
  3
AcAttribServices
 90
     1024
280
     0
281
     0
  0
CLASS
  1
ACRFOBJATTMGR
  2
AcRfObjAttGroupMgr
  3
AcAttribServices
 90
     1024
280
     0
281
     0
  0
CLASS
  1
ACRFMCADAPIATTHOLDER
  2
AcRfMCADAPIAttHolder
  3
AcAttribServices
 90
     1024
280
     0
281
     0
  0
CLASS
  1
AMDTSYSATTR
  2
AmdtSystemAttribute
  3
AcAttribServices
 90
     1024
280
     0
281
     0
  0
CLASS
  1
ACMTAPERSTANDARDANSI
  2
AcmTaperStdANSI
  3
"Amdt_StdImp|Product Description: AutoCAD Mechanical|Company: Autodesk, Inc."
 90
     1024
280
     0
281
     0
  0
CLASS
  1
CAMSSTRUCTBTNSTATE
  2
StructBtnState
  3
DesignerAssemblies
 90
     1024
280
     0
281
     0
  0
CLASS
  1
SCALE
  2
AcDbScale
  3
ObjectDBX Classes
 90
     1153
280
     0
281
     0
  0
CLASS
  1
MLEADERSTYLE
  2
AcDbMLeaderStyle
  3
ACDB_MLEADERSTYLE_CLASS
 90
     4095
280
     0
281
     0
  0
CLASS
  1
ACMANOOTATIONVIEWSTANDARDANSI
  2
AmdtAnViewStdANSI
  3
"Amdt_StdImp|Product Description: AutoCAD Mechanical|Company: Autodesk, Inc."
 90
     1024
280
     0
281
     0
  0
CLASS
  1
CELLSTYLEMAP
  2
AcDbCellStyleMap
  3
ObjectDBX Classes
 90
     1152
280
     0
281
     0
  0
CLASS
  1
EXACXREFPANELOBJECT
  2
ExAcXREFPanelObject
  3
EXAC_ESW
 90
     1025
280
     0
281
     0
  0
CLASS
  1
NPOCOLLECTION
  2
AcDbImpNonPersistentObjectsCollection
  3
ObjectDBX Classes
 90
     1153
280
     0
281
     0
  0
CLASS
  1
SORTENTSTABLE
  2
AcDbSortentsTable
  3
ObjectDBX Classes
 90
        0
280
     0
281
     0
  0
CLASS
  1
ACAMGFILTERDAT
  2
AcAmgFilterDat
  3
"AcadM|Product Description: AutoCAD Mechanical|Company: Autodesk, Inc."
 90
     1024
280
     0
281
     0
  0
ENDSEC
  0
SECTION
  2
TABLES
  0
TABLE
  2
VPORT
  5
8
330
0
100
AcDbSymbolTable
 70
     1
  0
VPORT
  5
291
330
8
100
AcDbSymbolTableRecord
100
AcDbViewportTableRecord
  2
*Active
 70
     0
 10
0.0
 20
0.0
 11
1.0
 21
1.0
 12
952.4746888690048
 22
1070.064477805363
 13
0.0
 23
0.0
 14
0.125
 24
0.125
 15
1.0
 25
1.0
 16
0.0
 26
0.0
 36
1.0
 17
0.0
 27
0.0
 37
0.0
 40
922.3846826787573
 41
2.143364928909952
 42
50.0
 43
0.0
 44
0.0
 50
0.0
 51
0.0
 71
     0
 72
   100
 73
     1
 74
     3
 75
     0
 76
     0
 77
     0
 78
     0
281
     0
 65
     1
110
0.0
120
0.0
130
0.0
111
1.0
121
0.0
131
0.0
112
0.0
122
1.0
132
0.0
 79
     0
146
0.0
  0
ENDTAB
  0
TABLE
  2
LTYPE
  5
5
330
0
100
AcDbSymbolTable
 70
    16
  0
LTYPE
  5
14
330
5
100
AcDbSymbolTableRecord
100
AcDbLinetypeTableRecord
  2
ByBlock
 70
     0
  3

 72
    65
 73
     0
 40
0.0
  0
LTYPE
  5
15
330
5
100
AcDbSymbolTableRecord
100
AcDbLinetypeTableRecord
  2
ByLayer
 70
     0
  3

 72
    65
 73
     0
 40
0.0
  0
LTYPE
  5
16
330
5
100
AcDbSymbolTableRecord
100
AcDbLinetypeTableRecord
  2
Continuous
 70
     0
  3
Solid line
 72
    65
 73
     0
 40
0.0
  0
LTYPE
  5
6C
330
5
100
AcDbSymbolTableRecord
100
AcDbLinetypeTableRecord
  2
AM_ISO02W050
 70
     0
  3
__ __ __ __ __ __ __ __ __ __ __ __ __ __ __
 72
    65
 73
     2
 40
7.5
 49
6.0
 74
     0
 49
-1.5
 74
     0
  0
LTYPE
  5
6D
330
5
100
AcDbSymbolTableRecord
100
AcDbLinetypeTableRecord
  2
AM_ISO08W050
 70
     0
  3
____ . ____ . ____ . ____ . ____ . ____ . ____
 72
    65
 73
     4
 40
18.0
 49
12.0
 74
     0
 49
-1.5
 74
     0
 49
3.0
 74
     0
 49
-1.5
 74
     0
  0
LTYPE
  5
6E
330
5
100
AcDbSymbolTableRecord
100
AcDbLinetypeTableRecord
  2
AM_ISO09W050
 70
     0
  3
_____ . . _____ . . _____ . . ____ .. ____
 72
    65
 73
     6
 40
22.5
 49
12.0
 74
     0
 49
-1.5
 74
     0
 49
3.0
 74
     0
 49
-1.5
 74
     0
 49
3.0
 74
     0
 49
-1.5
 74
     0
  0
LTYPE
  5
6F
330
5
100
AcDbSymbolTableRecord
100
AcDbLinetypeTableRecord
  2
Amconstr
 70
     0
  3
_______________________
 72
    65
 73
     2
 40
9999.0
 49
9999.0
 74
     0
 49
0.0
 74
     0
  0
LTYPE
  5
70
330
5
100
AcDbSymbolTableRecord
100
AcDbLinetypeTableRecord
  2
AM_ISO08W050x2
 70
     0
  3
__ . __ . __ . __ . __ . __
 72
    65
 73
     4
 40
9.0
 49
6.0
 74
     0
 49
-0.75
 74
     0
 49
1.5
 74
     0
 49
-0.75
 74
     0
  0
LTYPE
  5
71
330
5
100
AcDbSymbolTableRecord
100
AcDbLinetypeTableRecord
  2
AM_ISO02W050x2
 70
     0
  3
 _ _ _ _ _ _ _ _ _ _ _ _
 72
    65
 73
     2
 40
3.75
 49
3.0
 74
     0
 49
-0.75
 74
     0
  0
LTYPE
  5
74
330
5
100
AcDbSymbolTableRecord
100
AcDbLinetypeTableRecord
  2
Amzigzag
 70
     0
  3
/\/-/\/-/\/-/\/-/\/-/\/
 72
    65
 73
     2
 40
11.0001
 49
0.0001
 74
     4
 75
   136
340
254
 46
0.04
 50
0.0
 44
0.0
 45
0.0
 49
-11.0
 74
     0
  0
LTYPE
  5
75
330
5
100
AcDbSymbolTableRecord
100
AcDbLinetypeTableRecord
  2
HIDDEN
 70
     0
  3
Hidden __ __ __ __ __ __ __ __ __ __ __ __ __ _
 72
    65
 73
     2
 40
0.375
 49
0.25
 74
     0
 49
-0.125
 74
     0
  0
LTYPE
  5
76
330
5
100
AcDbSymbolTableRecord
100
AcDbLinetypeTableRecord
  2
CENTER
 70
     0
  3
Center ____ _ ____ _ ____ _ ____ _ ____ _ ____
 72
    65
 73
     4
 40
2.0
 49
1.25
 74
     0
 49
-0.25
 74
     0
 49
0.25
 74
     0
 49
-0.25
 74
     0
  0
LTYPE
  5
77
330
5
100
AcDbSymbolTableRecord
100
AcDbLinetypeTableRecord
  2
PHANTOM2
 70
     0
  3
Phantom (.5x) ___ _ _ ___ _ _ ___ _ _ ___ _ _
 72
    65
 73
     6
 40
1.25
 49
0.625
 74
     0
 49
-0.125
 74
     0
 49
0.125
 74
     0
 49
-0.125
 74
     0
 49
0.125
 74
     0
 49
-0.125
 74
     0
  0
LTYPE
  5
78
330
5
100
AcDbSymbolTableRecord
100
AcDbLinetypeTableRecord
  2
CENTER2
 70
     0
  3
Center (.5x) ___ _ ___ _ ___ _ ___ _ ___ _ ___
 72
    65
 73
     4
 40
1.125
 49
0.75
 74
     0
 49
-0.125
 74
     0
 49
0.125
 74
     0
 49
-0.125
 74
     0
  0
LTYPE
  5
79
330
5
100
AcDbSymbolTableRecord
100
AcDbLinetypeTableRecord
  2
HIDDEN2
 70
     0
  3
Hidden (.5x) _ _ _ _ _ _ _ _ _ _ _ _ _ _ _ _ _
 72
    65
 73
     2
 40
0.1875
 49
0.125
 74
     0
 49
-0.0625
 74
     0
  0
LTYPE
  5
7A
330
5
100
AcDbSymbolTableRecord
100
AcDbLinetypeTableRecord
  2
Amzigzag2
 70
     0
  3
/\/-/\/-/\/-/\/-/\/-/\/
 72
    65
 73
     2
 40
0.4401
 49
0.0001
 74
     4
 75
   136
340
254
 46
0.0016
 50
0.0
 44
0.0
 45
0.0
 49
-0.4400000000000001
 74
     0
  0
LTYPE
  5
87
330
5
100
AcDbSymbolTableRecord
100
AcDbLinetypeTableRecord
  2
ACANSTGB
 70
     0
  3
__ . . __ . .
 72
    65
 73
     6
 40
0.35433070866
 49
0.15748031496
 74
     0
 49
-0.03937007874
 74
     0
 49
0.03937007874
 74
     0
 49
-0.03937007874
 74
     0
 49
0.03937007874
 74
     0
 49
-0.03937007874
 74
     0
  0
LTYPE
  5
88
330
5
100
AcDbSymbolTableRecord
100
AcDbLinetypeTableRecord
  2
ACANSTGL
 70
     0
  3
_ _ _ _ _
 72
    65
 73
     2
 40
0.11811023622
 49
0.07874015748
 74
     0
 49
-0.03937007874
 74
     0
  0
ENDTAB
  0
TABLE
  2
LAYER
  5
2
330
0
100
AcDbSymbolTable
 70
     2
  0
LAYER
  5
10
102
{ACAD_XDICTIONARY
360
EB4
102
}
330
2
100
AcDbSymbolTableRecord
100
AcDbLayerTableRecord
  2
0
 70
     0
 62
     7
  6
Continuous
370
    -3
390
F
  0
LAYER
  5
38C
102
{ACAD_XDICTIONARY
360
38D
102
}
330
2
100
AcDbSymbolTableRecord
100
AcDbLayerTableRecord
  2
hat
 70
     0
 62
     3
  6
Continuous
370
    -3
390
F
  0
ENDTAB
  0
TABLE
  2
STYLE
  5
3
330
0
100
AcDbSymbolTable
 70
     8
  0
STYLE
  5
11
330
3
100
AcDbSymbolTableRecord
100
AcDbTextStyleTableRecord
  2
STANDARD
 70
     0
 40
0.0
 41
1.0
 50
0.0
 71
     0
 42
0.2
  3
ROMANS.SHX
  4

  0
STYLE
  5
73
330
3
100
AcDbSymbolTableRecord
100
AcDbTextStyleTableRecord
  2

 70
     1
 40
0.0
 41
1.0
 50
0.0
 71
     0
 42
0.2
  3
ltypeshp.shx
  4

  0
STYLE
  5
7B
330
3
100
AcDbSymbolTableRecord
100
AcDbTextStyleTableRecord
  2
ACANSTS
 70
     0
 40
1.0
 41
1.0
 50
0.0
 71
     0
 42
0.2
  3
romans.shx
  4

  0
STYLE
  5
86
330
3
100
AcDbSymbolTableRecord
100
AcDbTextStyleTableRecord
  2
ACANSGDT
 70
     0
 40
0.0
 41
1.0
 50
0.0
 71
     0
 42
0.2
  3
amgdt.shx
  4

  0
STYLE
  5
13F
330
3
100
AcDbSymbolTableRecord
100
AcDbTextStyleTableRecord
  2
USER1
 70
     0
 40
0.0
 41
1.0
 50
0.0
 71
     0
 42
0.2
  3
TXT.SHX
  4

  0
STYLE
  5
140
330
3
100
AcDbSymbolTableRecord
100
AcDbTextStyleTableRecord
  2
USER2
 70
     0
 40
0.0
 41
1.0
 50
0.0
 71
     0
 42
0.2
  3
SIMPLEX.SHX
  4

  0
STYLE
  5
141
330
3
100
AcDbSymbolTableRecord
100
AcDbTextStyleTableRecord
  2
USER3
 70
     0
 40
0.0
 41
1.0
 50
0.0
 71
     0
 42
0.2
  3
ITALIC.SHX
  4

  0
STYLE
  5
254
330
3
100
AcDbSymbolTableRecord
100
AcDbTextStyleTableRecord
  2

 70
     1
 40
0.0
 41
1.0
 50
0.0
 71
     0
 42
0.2
  3
genltshp.shx
  4

  0
ENDTAB
  0
TABLE
  2
VIEW
  5
6
330
0
100
AcDbSymbolTable
 70
     0
  0
ENDTAB
  0
TABLE
  2
UCS
  5
7
330
0
100
AcDbSymbolTable
 70
     0
  0
ENDTAB
  0
TABLE
  2
APPID
  5
9
330
0
100
AcDbSymbolTable
 70
    15
  0
APPID
  5
12
330
9
100
AcDbSymbolTableRecord
100
AcDbRegAppTableRecord
  2
ACAD
 70
     0
  0
APPID
  5
4E
330
9
100
AcDbSymbolTableRecord
100
AcDbRegAppTableRecord
  2
MCAD_NO_VIS
 70
     0
  0
APPID
  5
4F
330
9
100
AcDbSymbolTableRecord
100
AcDbRegAppTableRecord
  2
ACAD_TEMP_GRAPHIC
 70
     0
  0
APPID
  5
60
330
9
100
AcDbSymbolTableRecord
100
AcDbRegAppTableRecord
  2
ACATTRIBSERVICES
 70
     0
  0
APPID
  5
F7
330
9
100
AcDbSymbolTableRecord
100
AcDbRegAppTableRecord
  2
AD_DRAW
 70
     0
  0
APPID
  5
115
330
9
100
AcDbSymbolTableRecord
100
AcDbRegAppTableRecord
  2
DESIGNERASSEMBLIES
 70
     0
  0
APPID
  5
11A
330
9
100
AcDbSymbolTableRecord
100
AcDbRegAppTableRecord
  2
ACADM_DIM_EDIT
 70
     0
  0
APPID
  5
11B
330
9
100
AcDbSymbolTableRecord
100
AcDbRegAppTableRecord
  2
AMDT_DM_ADJ
 70
     0
  0
APPID
  5
1D3
330
9
100
AcDbSymbolTableRecord
100
AcDbRegAppTableRecord
  2
ACAD_DSTYLE_DIMARC_LENGTH_SYMBOL
 70
     0
  0
APPID
  5
1D4
330
9
100
AcDbSymbolTableRecord
100
AcDbRegAppTableRecord
  2
ACAD_DSTYLE_DIMJOGGED_JOGANGLE_SYMBOL
 70
     0
  0
APPID
  5
2EE
330
9
100
AcDbSymbolTableRecord
100
AcDbRegAppTableRecord
  2
ACAD_MLEADERVER
 70
     0
  0
APPID
  5
38E
330
9
100
AcDbSymbolTableRecord
100
AcDbRegAppTableRecord
  2
DCO15
 70
     0
  0
APPID
  5
EDE
330
9
100
AcDbSymbolTableRecord
100
AcDbRegAppTableRecord
  2
ACAD_DSTYLE_DIM_LINETYPE
 70
     0
  0
APPID
  5
EDF
330
9
100
AcDbSymbolTableRecord
100
AcDbRegAppTableRecord
  2
ACAD_DSTYLE_DIM_EXT1_LINETYPE
 70
     0
  0
APPID
  5
EE0
330
9
100
AcDbSymbolTableRecord
100
AcDbRegAppTableRecord
  2
ACAD_DSTYLE_DIM_EXT2_LINETYPE
 70
     0
  0
ENDTAB
  0
TABLE
  2
DIMSTYLE
  5
A
330
0
100
AcDbSymbolTable
 70
     7
100
AcDbDimStyleTable
 71
     1
340
8C
  0
DIMSTYLE
105
27
330
A
100
AcDbSymbolTableRecord
100
AcDbDimStyleTableRecord
  2
Standard
 70
     0
340
11
  0
DIMSTYLE
105
8C
102
{ACAD_REACTORS
330
6A
102
}
330
A
100
AcDbSymbolTableRecord
100
AcDbDimStyleTableRecord
  2
AM_ANSI
 70
     0
  4
mm
 41
0.12
 42
0.05
 43
0.5
 44
0.1
 47
0.1
 48
0.1
 78
     7
 79
     2
140
0.12
141
0.0
146
0.71
147
0.06
176
   256
177
   256
178
   140
274
     4
284
     7
340
11
371
    -1
372
    -1
1001
ACAD_DSTYLE_DIMJOGGED_JOGANGLE_SYMBOL
1070
   384
1040
0.7853981633974483
1001
ACAD_DSTYLE_DIMARC_LENGTH_SYMBOL
1070
   379
1070
     1
1001
ACAD_DSTYLE_DIM_LINETYPE
1070
   380
1005
14
1001
ACAD_DSTYLE_DIM_EXT1_LINETYPE
1070
   381
1005
14
1001
ACAD_DSTYLE_DIM_EXT2_LINETYPE
1070
   382
1005
14
  0
DIMSTYLE
105
8D
330
A
100
AcDbSymbolTableRecord
100
AcDbDimStyleTableRecord
  2
AM_ANSI$3
 70
     0
  4
mm
 41
0.12
 42
0.05
 43
0.5
 44
0.1
 47
0.1
 48
0.1
 78
     7
 79
     2
140
0.12
141
0.0
146
0.71
147
0.06
176
   256
177
   256
178
   140
274
     4
284
     7
288
     1
289
     0
340
11
371
    -1
372
    -1
1001
ACAD_DSTYLE_DIMJOGGED_JOGANGLE_SYMBOL
1070
   384
1040
0.7853981633974483
1001
ACAD_DSTYLE_DIMARC_LENGTH_SYMBOL
1070
   379
1070
     1
1001
ACAD_DSTYLE_DIM_LINETYPE
1070
   380
1005
14
1001
ACAD_DSTYLE_DIM_EXT1_LINETYPE
1070
   381
1005
14
1001
ACAD_DSTYLE_DIM_EXT2_LINETYPE
1070
   382
1005
14
  0
DIMSTYLE
105
8E
330
A
100
AcDbSymbolTableRecord
100
AcDbDimStyleTableRecord
  2
AM_ANSI$4
 70
     0
  4
mm
 41
0.12
 42
0.05
 43
0.5
 44
0.1
 47
0.1
 48
0.1
 78
     7
 79
     2
140
0.12
141
0.0
146
0.71
147
0.06
176
   256
177
   256
178
   140
274
     4
284
     7
340
11
371
    -1
372
    -1
1001
ACAD_DSTYLE_DIMJOGGED_JOGANGLE_SYMBOL
1070
   384
1040
0.7853981633974483
1001
ACAD_DSTYLE_DIMARC_LENGTH_SYMBOL
1070
   379
1070
     1
1001
ACAD_DSTYLE_DIM_LINETYPE
1070
   380
1005
14
1001
ACAD_DSTYLE_DIM_EXT1_LINETYPE
1070
   381
1005
14
1001
ACAD_DSTYLE_DIM_EXT2_LINETYPE
1070
   382
1005
14
  0
DIMSTYLE
105
8F
330
A
100
AcDbSymbolTableRecord
100
AcDbDimStyleTableRecord
  2
AM_ANSI$7
 70
     0
  4
mm
 41
0.12
 42
0.05
 43
0.5
 44
0.1
 47
0.1
 48
0.1
 78
     7
 79
     2
140
0.12
141
0.0
146
0.71
147
0.06
176
   256
177
   256
178
   140
274
     4
284
     7
340
11
371
    -1
372
    -1
1001
ACAD_DSTYLE_DIMJOGGED_JOGANGLE_SYMBOL
1070
   384
1040
0.7853981633974483
1001
ACAD_DSTYLE_DIMARC_LENGTH_SYMBOL
1070
   379
1070
     1
1001
ACAD_DSTYLE_DIM_LINETYPE
1070
   380
1005
14
1001
ACAD_DSTYLE_DIM_EXT1_LINETYPE
1070
   381
1005
14
1001
ACAD_DSTYLE_DIM_EXT2_LINETYPE
1070
   382
1005
14
  0
DIMSTYLE
105
90
330
A
100
AcDbSymbolTableRecord
100
AcDbDimStyleTableRecord
  2
AM_ANSI$SF
 70
     0
  4
mm
 41
0.12
 42
0.05
 43
0.5
 44
0.1
 47
0.1
 48
0.1
 75
     1
 76
     1
 78
     7
 79
     2
140
0.12
141
0.0
146
0.71
147
0.06
176
   256
177
   256
178
   140
274
     4
284
     7
340
11
371
    -1
372
    -1
1001
ACAD_DSTYLE_DIMJOGGED_JOGANGLE_SYMBOL
1070
   384
1040
0.7853981633974483
1001
ACAD_DSTYLE_DIMARC_LENGTH_SYMBOL
1070
   379
1070
     1
1001
ACAD_DSTYLE_DIM_LINETYPE
1070
   380
1005
14
1001
ACAD_DSTYLE_DIM_EXT1_LINETYPE
1070
   381
1005
14
1001
ACAD_DSTYLE_DIM_EXT2_LINETYPE
1070
   382
1005
14
  0
DIMSTYLE
105
95
330
A
100
AcDbSymbolTableRecord
100
AcDbDimStyleTableRecord
  2
AM_ANSI$SH
 70
     0
  4
mm
 41
0.12
 42
0.05
 43
0.5
 44
0.1
 47
0.1
 48
0.1
 75
     1
 76
     1
 78
     7
 79
     2
140
0.12
141
0.0
146
0.71
147
0.06
173
     1
176
   256
177
   256
178
   140
274
     4
284
     7
340
11
343
91
371
    -1
372
    -1
1001
ACAD_DSTYLE_DIMJOGGED_JOGANGLE_SYMBOL
1070
   384
1040
0.7853981633974483
1001
ACAD_DSTYLE_DIMARC_LENGTH_SYMBOL
1070
   379
1070
     1
1001
ACAD_DSTYLE_DIM_LINETYPE
1070
   380
1005
14
1001
ACAD_DSTYLE_DIM_EXT1_LINETYPE
1070
   381
1005
14
1001
ACAD_DSTYLE_DIM_EXT2_LINETYPE
1070
   382
1005
14
  0
ENDTAB
  0
TABLE
  2
BLOCK_RECORD
  5
1
330
0
100
AcDbSymbolTable
 70
     6
  0
BLOCK_RECORD
  5
1F
102
{ACAD_XDICTIONARY
360
99
102
}
330
1
100
AcDbSymbolTableRecord
100
AcDbBlockTableRecord
  2
*Model_Space
340
22
  0
BLOCK_RECORD
  5
1B
330
1
100
AcDbSymbolTableRecord
100
AcDbBlockTableRecord
  2
*Paper_Space
340
1E
  0
BLOCK_RECORD
  5
23
330
1
100
AcDbSymbolTableRecord
100
AcDbBlockTableRecord
  2
*Paper_Space0
340
26
  0
BLOCK_RECORD
  5
91
330
1
100
AcDbSymbolTableRecord
100
AcDbBlockTableRecord
  2
GENAXEH
340
0
  0
ENDTAB
  0
ENDSEC
  0
SECTION
  2
BLOCKS
  0
BLOCK
  5
20
330
1F
100
AcDbEntity
  8
0
100
AcDbBlockBegin
  2
*Model_Space
 70
     0
 10
0.0
 20
0.0
 30
0.0
  3
*Model_Space
  1

  0
ENDBLK
  5
21
330
1F
100
AcDbEntity
  8
0
100
AcDbBlockEnd
  0
BLOCK
  5
1C
330
1B
100
AcDbEntity
 67
     1
  8
0
100
AcDbBlockBegin
  2
*Paper_Space
 70
     0
 10
0.0
 20
0.0
 30
0.0
  3
*Paper_Space
  1

  0
ENDBLK
  5
1D
330
1B
100
AcDbEntity
 67
     1
  8
0
100
AcDbBlockEnd
  0
BLOCK
  5
24
330
23
100
AcDbEntity
 67
     1
  8
0
100
AcDbBlockBegin
  2
*Paper_Space0
 70
     0
 10
0.0
 20
0.0
 30
0.0
  3
*Paper_Space0
  1

  0
ENDBLK
  5
25
330
23
100
AcDbEntity
 67
     1
  8
0
100
AcDbBlockEnd
  0
BLOCK
  5
93
330
91
100
AcDbEntity
  8
0
100
AcDbBlockBegin
  2
GENAXEH
 70
     0
 10
0.0
 20
0.0
 30
0.0
  3
GENAXEH
  1

  0
LINE
  5
92
330
91
100
AcDbEntity
  8
0
100
AcDbLine
 10
-1.0
 20
0.0
 30
0.0
 11
1.0
 21
0.0
 31
0.0
  0
ENDBLK
  5
94
330
91
100
AcDbEntity
  8
0
100
AcDbBlockEnd
  0
ENDSEC
  0
SECTION
  2
ENTITIES
  0
POLYLINE
  5
CDD
330
1F
100
AcDbEntity
  8
0
100
AcDb2dPolyline
 66
     1
 10
0.0
 20
0.0
 30
0.0
  0
VERTEX
  5
CDE
330
CDD
100
AcDbEntity
  8
0
100
AcDbVertex
100
AcDb2dVertex
 10
896.3830330782222
 20
776.6167886094789
 30
0.0
  0
VERTEX
  5
CDF
330
CDD
100
AcDbEntity
  8
0
100
AcDbVertex
100
AcDb2dVertex
 10
898.9236291951979
 20
777.252799442019
 30
0.0
  0
VERTEX
  5
CE0
330
CDD
100
AcDbEntity
  8
0
100
AcDbVertex
100
AcDb2dVertex
 10
901.0419416970735
 20
778.9471047222004
 30
0.0
  0
VERTEX
  5
CE1
330
CDD
100
AcDbEntity
  8
0
100
AcDbVertex
100
AcDb2dVertex
 10
902.3122397555612
 20
781.2756972283298
 30
0.0
  0
SEQEND
  5
CE2
330
CDD
100
AcDbEntity
  8
0
  0
POLYLINE
  5
CE3
330
1F
100
AcDbEntity
  8
0
100
AcDb2dPolyline
 66
     1
 10
0.0
 20
0.0
 30
0.0
  0
VERTEX
  5
CE4
330
CE3
100
AcDbEntity
  8
0
100
AcDbVertex
100
AcDb2dVertex
 10
902.3122397555612
 20
781.2756972283298
 30
0.0
  0
VERTEX
  5
CE5
330
CE3
100
AcDbEntity
  8
0
100
AcDbVertex
100
AcDb2dVertex
 10
908.4551736503398
 20
812.4109267107298
 30
0.0
  0
VERTEX
  5
CE6
330
CE3
100
AcDbEntity
  8
0
100
AcDbVertex
100
AcDb2dVertex
 10
913.7500931017314
 20
843.5444325865374
 30
0.0
  0
SEQEND
  5
CE7
330
CE3
100
AcDbEntity
  8
0
  0
POLYLINE
  5
CE8
330
1F
100
AcDbEntity
  8
0
100
AcDb2dPolyline
 66
     1
 10
0.0
 20
0.0
 30
0.0
  0
VERTEX
  5
CE9
330
CE8
100
AcDbEntity
  8
0
100
AcDbVertex
100
AcDb2dVertex
 10
638.4142816293829
 20
843.5444325865374
 30
0.0
  0
VERTEX
  5
CEA
330
CE8
100
AcDbEntity
  8
0
100
AcDbVertex
100
AcDb2dVertex
 10
643.7092010807746
 20
812.4109267107298
 30
0.0
  0
VERTEX
  5
CEB
330
CE8
100
AcDbEntity
  8
0
100
AcDbVertex
100
AcDb2dVertex
 10
650.0624149798077
 20
781.2756972283298
 30
0.0
  0
VERTEX
  5
CEC
330
CE8
100
AcDbEntity
  8
0
100
AcDbVertex
100
AcDb2dVertex
 10
651.1224330340406
 20
778.9471047222004
 30
0.0
  0
VERTEX
  5
CED
330
CE8
100
AcDbEntity
  8
0
100
AcDbVertex
100
AcDb2dVertex
 10
653.2390219293233
 20
777.252799442019
 30
0.0
  0
VERTEX
  5
CEE
330
CE8
100
AcDbEntity
  8
0
100
AcDbVertex
100
AcDb2dVertex
 10
655.7813416528915
 20
776.6167886094789
 30
0.0
  0
SEQEND
  5
CEF
330
CE8
100
AcDbEntity
  8
0
  0
LINE
  5
CF0
330
1F
100
AcDbEntity
  8
0
100
AcDbLine
 10
655.7813416528915
 20
776.6167886094789
 30
0.0
 11
896.3830330782222
 21
776.6167886094789
 31
0.0
  0
POLYLINE
  5
CF1
330
1F
100
AcDbEntity
  8
0
100
AcDb2dPolyline
 66
     1
 10
0.0
 20
0.0
 30
0.0
  0
VERTEX
  5
CF2
330
CF1
100
AcDbEntity
  8
0
100
AcDbVertex
100
AcDb2dVertex
 10
913.7500931017314
 20
843.5444325865374
 30
0.0
  0
VERTEX
  5
CF3
330
CF1
100
AcDbEntity
  8
0
100
AcDbVertex
100
AcDb2dVertex
 10
919.6792997790703
 20
875.7379565165786
 30
0.0
  0
VERTEX
  5
CF4
330
CF1
100
AcDbEntity
  8
0
100
AcDbVertex
100
AcDb2dVertex
 10
925.1862228413083
 20
908.1434840574665
 30
0.0
  0
VERTEX
  5
CF5
330
CF1
100
AcDbEntity
  8
0
100
AcDbVertex
100
AcDb2dVertex
 10
929.8468550667514
 20
940.5472879917622
 30
0.0
  0
VERTEX
  5
CF6
330
CF1
100
AcDbEntity
  8
0
100
AcDbVertex
100
AcDb2dVertex
 10
933.657749242216
 20
973.1648191434969
 30
0.0
  0
VERTEX
  5
CF7
330
CF1
100
AcDbEntity
  8
0
100
AcDbVertex
100
AcDb2dVertex
 10
936.8360797983237
 20
1005.780626688639
 30
0.0
  0
SEQEND
  5
CF8
330
CF1
100
AcDbEntity
  8
0
  0
POLYLINE
  5
CF9
330
1F
100
AcDbEntity
  8
0
100
AcDb2dPolyline
 66
     1
 10
0.0
 20
0.0
 30
0.0
  0
VERTEX
  5
CFA
330
CF9
100
AcDbEntity
  8
0
100
AcDbVertex
100
AcDb2dVertex
 10
615.3282949327895
 20
1005.780626688639
 30
0.0
  0
VERTEX
  5
CFB
330
CF9
100
AcDbEntity
  8
0
100
AcDbVertex
100
AcDb2dVertex
 10
618.5049018823065
 20
973.1648191434969
 30
0.0
  0
VERTEX
  5
CFC
330
CF9
100
AcDbEntity
  8
0
100
AcDbVertex
100
AcDb2dVertex
 10
622.5295232752091
 20
940.5472879917622
 30
0.0
  0
VERTEX
  5
CFD
330
CF9
100
AcDbEntity
  8
0
100
AcDbVertex
100
AcDb2dVertex
 10
627.1884318940601
 20
908.1434840574665
 30
0.0
  0
VERTEX
  5
CFE
330
CF9
100
AcDbEntity
  8
0
100
AcDbVertex
100
AcDb2dVertex
 10
632.4833513454523
 20
875.7379565165786
 30
0.0
  0
VERTEX
  5
CFF
330
CF9
100
AcDbEntity
  8
0
100
AcDbVertex
100
AcDb2dVertex
 10
638.4142816293829
 20
843.5444325865374
 30
0.0
  0
SEQEND
  5
D00
330
CF9
100
AcDbEntity
  8
0
  0
POLYLINE
  5
D01
330
1F
100
AcDbEntity
  8
0
100
AcDb2dPolyline
 66
     1
 10
0.0
 20
0.0
 30
0.0
  0
VERTEX
  5
D02
330
D01
100
AcDbEntity
  8
0
100
AcDbVertex
100
AcDb2dVertex
 10
936.8360797983237
 20
1005.780626688639
 30
0.0
  0
VERTEX
  5
D03
330
D01
100
AcDbEntity
  8
0
100
AcDbVertex
100
AcDb2dVertex
 10
939.8006831369942
 20
1039.244448677169
 30
0.0
  0
VERTEX
  5
D04
330
D01
100
AcDbEntity
  8
0
100
AcDbVertex
100
AcDb2dVertex
 10
941.9189956388688
 20
1072.708270665698
 30
0.0
  0
VERTEX
  5
D05
330
D01
100
AcDbEntity
  8
0
100
AcDbVertex
100
AcDb2dVertex
 10
943.1892936973566
 20
1106.384096265074
 30
0.0
  0
VERTEX
  5
D06
330
D01
100
AcDbEntity
  8
0
100
AcDbVertex
100
AcDb2dVertex
 10
943.401297308204
 20
1140.05992186445
 30
0.0
  0
VERTEX
  5
D07
330
D01
100
AcDbEntity
  8
0
100
AcDbVertex
100
AcDb2dVertex
 10
942.7652864756637
 20
1173.735747463826
 30
0.0
  0
VERTEX
  5
D08
330
D01
100
AcDbEntity
  8
0
100
AcDbVertex
100
AcDb2dVertex
 10
941.0709811954818
 20
1207.199569452355
 30
0.0
  0
VERTEX
  5
D09
330
D01
100
AcDbEntity
  8
0
100
AcDbVertex
100
AcDb2dVertex
 10
938.7423886893529
 20
1240.875395051731
 30
0.0
  0
SEQEND
  5
D0A
330
D01
100
AcDbEntity
  8
0
  0
POLYLINE
  5
D0B
330
1F
100
AcDbEntity
  8
0
100
AcDb2dPolyline
 66
     1
 10
0.0
 20
0.0
 30
0.0
  0
VERTEX
  5
D0C
330
D0B
100
AcDbEntity
  8
0
100
AcDbVertex
100
AcDb2dVertex
 10
613.4219860417616
 20
1240.875395051731
 30
0.0
  0
VERTEX
  5
D0D
330
D0B
100
AcDbEntity
  8
0
100
AcDbVertex
100
AcDb2dVertex
 10
611.0916699290401
 20
1207.199569452355
 30
0.0
  0
VERTEX
  5
D0E
330
D0B
100
AcDbEntity
  8
0
100
AcDbVertex
100
AcDb2dVertex
 10
609.6093682597047
 20
1173.735747463826
 30
0.0
  0
VERTEX
  5
D0F
330
D0B
100
AcDbEntity
  8
0
100
AcDbVertex
100
AcDb2dVertex
 10
608.9733574271649
 20
1140.05992186445
 30
0.0
  0
VERTEX
  5
D10
330
D0B
100
AcDbEntity
  8
0
100
AcDbVertex
100
AcDb2dVertex
 10
609.1853610380121
 20
1106.384096265074
 30
0.0
  0
VERTEX
  5
D11
330
D0B
100
AcDbEntity
  8
0
100
AcDbVertex
100
AcDb2dVertex
 10
610.2453790922454
 20
1072.708270665698
 30
0.0
  0
VERTEX
  5
D12
330
D0B
100
AcDbEntity
  8
0
100
AcDbVertex
100
AcDb2dVertex
 10
612.3619679875282
 20
1039.244448677169
 30
0.0
  0
VERTEX
  5
D13
330
D0B
100
AcDbEntity
  8
0
100
AcDbVertex
100
AcDb2dVertex
 10
615.3282949327895
 20
1005.780626688639
 30
0.0
  0
SEQEND
  5
D14
330
D0B
100
AcDbEntity
  8
0
  0
POLYLINE
  5
D15
330
1F
100
AcDbEntity
  8
0
100
AcDb2dPolyline
 66
     1
 10
0.0
 20
0.0
 30
0.0
  0
VERTEX
  5
D16
330
D15
100
AcDbEntity
  8
0
100
AcDbVertex
100
AcDb2dVertex
 10
894.0527169655002
 20
1127.563774070639
 30
0.0
  0
VERTEX
  5
D17
330
D15
100
AcDbEntity
  8
0
100
AcDbVertex
100
AcDb2dVertex
 10
895.5350186348354
 20
1130.740381020155
 30
0.0
  0
VERTEX
  5
D18
330
D15
100
AcDbEntity
  8
0
100
AcDbVertex
100
AcDb2dVertex
 10
896.8053166933232
 20
1133.706707965417
 30
0.0
  0
VERTEX
  5
D19
330
D15
100
AcDbEntity
  8
0
100
AcDbVertex
100
AcDb2dVertex
 10
898.9236291951979
 20
1140.05992186445
 30
0.0
  0
VERTEX
  5
D1A
330
D15
100
AcDbEntity
  8
0
100
AcDbVertex
100
AcDb2dVertex
 10
899.5596400277381
 20
1143.448532424813
 30
0.0
  0
VERTEX
  5
D1B
330
D15
100
AcDbEntity
  8
0
100
AcDbVertex
100
AcDb2dVertex
 10
900.1939272536867
 20
1146.625139374329
 30
0.0
  0
VERTEX
  5
D1C
330
D15
100
AcDbEntity
  8
0
100
AcDbVertex
100
AcDb2dVertex
 10
900.6179344753796
 20
1149.803469930438
 30
0.0
  0
VERTEX
  5
D1D
330
D15
100
AcDbEntity
  8
0
100
AcDbVertex
100
AcDb2dVertex
 10
901.0419416970735
 20
1153.192080490801
 30
0.0
  0
VERTEX
  5
D1E
330
D15
100
AcDbEntity
  8
0
100
AcDbVertex
100
AcDb2dVertex
 10
901.2539453079201
 20
1156.368687440318
 30
0.0
  0
VERTEX
  5
D1F
330
D15
100
AcDbEntity
  8
0
100
AcDbVertex
100
AcDb2dVertex
 10
901.0419416970735
 20
1159.545294389833
 30
0.0
  0
VERTEX
  5
D20
330
D15
100
AcDbEntity
  8
0
100
AcDbVertex
100
AcDb2dVertex
 10
901.0419416970735
 20
1162.933904950197
 30
0.0
  0
VERTEX
  5
D21
330
D15
100
AcDbEntity
  8
0
100
AcDbVertex
100
AcDb2dVertex
 10
900.1939272536867
 20
1169.287118849229
 30
0.0
  0
VERTEX
  5
D22
330
D15
100
AcDbEntity
  8
0
100
AcDbVertex
100
AcDb2dVertex
 10
899.3476364168918
 20
1172.675729409592
 30
0.0
  0
VERTEX
  5
D23
330
D15
100
AcDbEntity
  8
0
100
AcDbVertex
100
AcDb2dVertex
 10
898.7116255843513
 20
1175.854059965701
 30
0.0
  0
VERTEX
  5
D24
330
D15
100
AcDbEntity
  8
0
100
AcDbVertex
100
AcDb2dVertex
 10
896.5933130824769
 20
1182.207273864734
 30
0.0
  0
VERTEX
  5
D25
330
D15
100
AcDbEntity
  8
0
100
AcDbVertex
100
AcDb2dVertex
 10
895.1110114131415
 20
1185.38388081425
 30
0.0
  0
VERTEX
  5
D26
330
D15
100
AcDbEntity
  8
0
100
AcDbVertex
100
AcDb2dVertex
 10
893.8407133546538
 20
1188.350207759512
 30
0.0
  0
VERTEX
  5
D27
330
D15
100
AcDbEntity
  8
0
100
AcDbVertex
100
AcDb2dVertex
 10
892.1464080744719
 20
1191.526814709028
 30
0.0
  0
VERTEX
  5
D28
330
D15
100
AcDbEntity
  8
0
100
AcDbVertex
100
AcDb2dVertex
 10
890.4521027942903
 20
1194.491418047698
 30
0.0
  0
VERTEX
  5
D29
330
D15
100
AcDbEntity
  8
0
100
AcDbVertex
100
AcDb2dVertex
 10
888.5457939032621
 20
1197.457744992959
 30
0.0
  0
VERTEX
  5
D2A
330
D15
100
AcDbEntity
  8
0
100
AcDbVertex
100
AcDb2dVertex
 10
886.4274814013876
 20
1200.210344720782
 30
0.0
  0
VERTEX
  5
D2B
330
D15
100
AcDbEntity
  8
0
100
AcDbVertex
100
AcDb2dVertex
 10
884.3091688995118
 20
1203.174948059452
 30
0.0
  0
VERTEX
  5
D2C
330
D15
100
AcDbEntity
  8
0
100
AcDbVertex
100
AcDb2dVertex
 10
881.9805763933826
 20
1205.929271393867
 30
0.0
  0
VERTEX
  5
D2D
330
D15
100
AcDbEntity
  8
0
100
AcDbVertex
100
AcDb2dVertex
 10
876.8976605528386
 20
1211.436194456105
 30
0.0
  0
VERTEX
  5
D2E
330
D15
100
AcDbEntity
  8
0
100
AcDbVertex
100
AcDb2dVertex
 10
874.1433372184227
 20
1213.976790573082
 30
0.0
  0
VERTEX
  5
D2F
330
D15
100
AcDbEntity
  8
0
100
AcDbVertex
100
AcDb2dVertex
 10
871.1787338797533
 20
1216.51911029665
 30
0.0
  0
VERTEX
  5
D30
330
D15
100
AcDbEntity
  8
0
100
AcDbVertex
100
AcDb2dVertex
 10
865.2478035958225
 20
1221.178018915501
 30
0.0
  0
VERTEX
  5
D31
330
D15
100
AcDbEntity
  8
0
100
AcDbVertex
100
AcDb2dVertex
 10
861.859193035459
 20
1223.508335028222
 30
0.0
  0
VERTEX
  5
D32
330
D15
100
AcDbEntity
  8
0
100
AcDbVertex
100
AcDb2dVertex
 10
858.6825860859431
 20
1225.838651140944
 30
0.0
  0
VERTEX
  5
D33
330
D15
100
AcDbEntity
  8
0
100
AcDbVertex
100
AcDb2dVertex
 10
855.0819719147332
 20
1227.743236425381
 30
0.0
  0
VERTEX
  5
D34
330
D15
100
AcDbEntity
  8
0
100
AcDbVertex
100
AcDb2dVertex
 10
851.6933613543697
 20
1229.861548927255
 30
0.0
  0
VERTEX
  5
D35
330
D15
100
AcDbEntity
  8
0
100
AcDbVertex
100
AcDb2dVertex
 10
847.8807435723133
 20
1231.767857818283
 30
0.0
  0
VERTEX
  5
D36
330
D15
100
AcDbEntity
  8
0
100
AcDbVertex
100
AcDb2dVertex
 10
844.2801294011035
 20
1233.674166709311
 30
0.0
  0
VERTEX
  5
D37
330
D15
100
AcDbEntity
  8
0
100
AcDbVertex
100
AcDb2dVertex
 10
840.4675116190471
 20
1235.368471989493
 30
0.0
  0
VERTEX
  5
D38
330
D15
100
AcDbEntity
  8
0
100
AcDbVertex
100
AcDb2dVertex
 10
836.4446138327364
 20
1237.062777269675
 30
0.0
  0
VERTEX
  5
D39
330
D15
100
AcDbEntity
  8
0
100
AcDbVertex
100
AcDb2dVertex
 10
832.6319960506801
 20
1238.54507893901
 30
0.0
  0
VERTEX
  5
D3A
330
D15
100
AcDbEntity
  8
0
100
AcDbVertex
100
AcDb2dVertex
 10
828.3953710469297
 20
1239.81710060409
 30
0.0
  0
VERTEX
  5
D3B
330
D15
100
AcDbEntity
  8
0
100
AcDbVertex
100
AcDb2dVertex
 10
824.370749654026
 20
1241.299402273425
 30
0.0
  0
VERTEX
  5
D3C
330
D15
100
AcDbEntity
  8
0
100
AcDbVertex
100
AcDb2dVertex
 10
820.1358482568688
 20
1242.357696721066
 30
0.0
  0
VERTEX
  5
D3D
330
D15
100
AcDbEntity
  8
0
100
AcDbVertex
100
AcDb2dVertex
 10
815.8992232531186
 20
1243.627994779554
 30
0.0
  0
VERTEX
  5
D3E
330
D15
100
AcDbEntity
  8
0
100
AcDbVertex
100
AcDb2dVertex
 10
811.6643218559612
 20
1244.476009222941
 30
0.0
  0
VERTEX
  5
D3F
330
D15
100
AcDbEntity
  8
0
100
AcDbVertex
100
AcDb2dVertex
 10
807.2156932413644
 20
1245.322300059736
 30
0.0
  0
VERTEX
  5
D40
330
D15
100
AcDbEntity
  8
0
100
AcDbVertex
100
AcDb2dVertex
 10
802.9790682376141
 20
1246.170314503123
 30
0.0
  0
VERTEX
  5
D41
330
D15
100
AcDbEntity
  8
0
100
AcDbVertex
100
AcDb2dVertex
 10
798.5321632296106
 20
1246.80460172907
 30
0.0
  0
VERTEX
  5
D42
330
D15
100
AcDbEntity
  8
0
100
AcDbVertex
100
AcDb2dVertex
 10
785.1897245990044
 20
1248.076623394151
 30
0.0
  0
VERTEX
  5
D43
330
D15
100
AcDbEntity
  8
0
100
AcDbVertex
100
AcDb2dVertex
 10
780.5290923735612
 20
1248.288627004997
 30
0.0
  0
VERTEX
  5
D44
330
D15
100
AcDbEntity
  8
0
100
AcDbVertex
100
AcDb2dVertex
 10
771.6335587509598
 20
1248.288627004997
 30
0.0
  0
VERTEX
  5
D45
330
D15
100
AcDbEntity
  8
0
100
AcDbVertex
100
AcDb2dVertex
 10
767.186653742956
 20
1248.076623394151
 30
0.0
  0
VERTEX
  5
D46
330
D15
100
AcDbEntity
  8
0
100
AcDbVertex
100
AcDb2dVertex
 10
762.526021517513
 20
1247.652616172458
 30
0.0
  0
VERTEX
  5
D47
330
D15
100
AcDbEntity
  8
0
100
AcDbVertex
100
AcDb2dVertex
 10
753.6304878949112
 20
1246.80460172907
 30
0.0
  0
VERTEX
  5
D48
330
D15
100
AcDbEntity
  8
0
100
AcDbVertex
100
AcDb2dVertex
 10
749.3955864977533
 20
1246.170314503123
 30
0.0
  0
VERTEX
  5
D49
330
D15
100
AcDbEntity
  8
0
100
AcDbVertex
100
AcDb2dVertex
 10
740.5000528751529
 20
1244.476009222941
 30
0.0
  0
VERTEX
  5
D4A
330
D15
100
AcDbEntity
  8
0
100
AcDbVertex
100
AcDb2dVertex
 10
736.2634278714026
 20
1243.627994779554
 30
0.0
  0
VERTEX
  5
D4B
330
D15
100
AcDbEntity
  8
0
100
AcDbVertex
100
AcDb2dVertex
 10
732.0285264742452
 20
1242.357696721066
 30
0.0
  0
VERTEX
  5
D4C
330
D15
100
AcDbEntity
  8
0
100
AcDbVertex
100
AcDb2dVertex
 10
727.7919014704949
 20
1241.299402273425
 30
0.0
  0
VERTEX
  5
D4D
330
D15
100
AcDbEntity
  8
0
100
AcDbVertex
100
AcDb2dVertex
 10
723.7672800775926
 20
1239.81710060409
 30
0.0
  0
VERTEX
  5
D4E
330
D15
100
AcDbEntity
  8
0
100
AcDbVertex
100
AcDb2dVertex
 10
719.7443822912805
 20
1238.54507893901
 30
0.0
  0
VERTEX
  5
D4F
330
D15
100
AcDbEntity
  8
0
100
AcDbVertex
100
AcDb2dVertex
 10
715.7197608983778
 20
1237.062777269675
 30
0.0
  0
VERTEX
  5
D50
330
D15
100
AcDbEntity
  8
0
100
AcDbVertex
100
AcDb2dVertex
 10
711.6951395054748
 20
1235.368471989493
 30
0.0
  0
VERTEX
  5
D51
330
D15
100
AcDbEntity
  8
0
100
AcDbVertex
100
AcDb2dVertex
 10
707.8825217234175
 20
1233.674166709311
 30
0.0
  0
VERTEX
  5
D52
330
D15
100
AcDbEntity
  8
0
100
AcDbVertex
100
AcDb2dVertex
 10
700.6812933809988
 20
1229.861548927255
 30
0.0
  0
VERTEX
  5
D53
330
D15
100
AcDbEntity
  8
0
100
AcDbVertex
100
AcDb2dVertex
 10
697.0806792097891
 20
1227.743236425381
 30
0.0
  0
VERTEX
  5
D54
330
D15
100
AcDbEntity
  8
0
100
AcDbVertex
100
AcDb2dVertex
 10
693.6920686494259
 20
1225.838651140944
 30
0.0
  0
VERTEX
  5
D55
330
D15
100
AcDbEntity
  8
0
100
AcDbVertex
100
AcDb2dVertex
 10
690.3034580890626
 20
1223.508335028222
 30
0.0
  0
VERTEX
  5
D56
330
D15
100
AcDbEntity
  8
0
100
AcDbVertex
100
AcDb2dVertex
 10
683.9502441900304
 20
1218.847702802779
 30
0.0
  0
VERTEX
  5
D57
330
D15
100
AcDbEntity
  8
0
100
AcDbVertex
100
AcDb2dVertex
 10
680.985640851361
 20
1216.51911029665
 30
0.0
  0
VERTEX
  5
D58
330
D15
100
AcDbEntity
  8
0
100
AcDbVertex
100
AcDb2dVertex
 10
678.0193139060984
 20
1213.976790573082
 30
0.0
  0
VERTEX
  5
D59
330
D15
100
AcDbEntity
  8
0
100
AcDbVertex
100
AcDb2dVertex
 10
672.7243944547072
 20
1208.68187112169
 30
0.0
  0
VERTEX
  5
D5A
330
D15
100
AcDbEntity
  8
0
100
AcDbVertex
100
AcDb2dVertex
 10
668.0654858358557
 20
1203.174948059452
 30
0.0
  0
VERTEX
  5
D5B
330
D15
100
AcDbEntity
  8
0
100
AcDbVertex
100
AcDb2dVertex
 10
665.7351697231347
 20
1200.210344720782
 30
0.0
  0
VERTEX
  5
D5C
330
D15
100
AcDbEntity
  8
0
100
AcDbVertex
100
AcDb2dVertex
 10
663.8288608321063
 20
1197.457744992959
 30
0.0
  0
VERTEX
  5
D5D
330
D15
100
AcDbEntity
  8
0
100
AcDbVertex
100
AcDb2dVertex
 10
660.016243050049
 20
1191.526814709028
 30
0.0
  0
VERTEX
  5
D5E
330
D15
100
AcDbEntity
  8
0
100
AcDbVertex
100
AcDb2dVertex
 10
658.533941380715
 20
1188.350207759512
 30
0.0
  0
VERTEX
  5
D5F
330
D15
100
AcDbEntity
  8
0
100
AcDbVertex
100
AcDb2dVertex
 10
657.0516397113797
 20
1185.38388081425
 30
0.0
  0
VERTEX
  5
D60
330
D15
100
AcDbEntity
  8
0
100
AcDbVertex
100
AcDb2dVertex
 10
654.5110435944043
 20
1179.030666915217
 30
0.0
  0
VERTEX
  5
D61
330
D15
100
AcDbEntity
  8
0
100
AcDbVertex
100
AcDb2dVertex
 10
652.8167383142227
 20
1172.675729409592
 30
0.0
  0
VERTEX
  5
D62
330
D15
100
AcDbEntity
  8
0
100
AcDbVertex
100
AcDb2dVertex
 10
652.1807274816819
 20
1169.287118849229
 30
0.0
  0
VERTEX
  5
D63
330
D15
100
AcDbEntity
  8
0
100
AcDbVertex
100
AcDb2dVertex
 10
651.5447166491412
 20
1166.110511899713
 30
0.0
  0
VERTEX
  5
D64
330
D15
100
AcDbEntity
  8
0
100
AcDbVertex
100
AcDb2dVertex
 10
651.332713038295
 20
1162.933904950197
 30
0.0
  0
VERTEX
  5
D65
330
D15
100
AcDbEntity
  8
0
100
AcDbVertex
100
AcDb2dVertex
 10
651.1224330340406
 20
1159.545294389833
 30
0.0
  0
VERTEX
  5
D66
330
D15
100
AcDbEntity
  8
0
100
AcDbVertex
100
AcDb2dVertex
 10
651.1224330340406
 20
1153.192080490801
 30
0.0
  0
VERTEX
  5
D67
330
D15
100
AcDbEntity
  8
0
100
AcDbVertex
100
AcDb2dVertex
 10
651.5447166491412
 20
1149.803469930438
 30
0.0
  0
VERTEX
  5
D68
330
D15
100
AcDbEntity
  8
0
100
AcDbVertex
100
AcDb2dVertex
 10
651.9687238708357
 20
1146.625139374329
 30
0.0
  0
VERTEX
  5
D69
330
D15
100
AcDbEntity
  8
0
100
AcDbVertex
100
AcDb2dVertex
 10
652.6047347033759
 20
1143.448532424813
 30
0.0
  0
VERTEX
  5
D6A
330
D15
100
AcDbEntity
  8
0
100
AcDbVertex
100
AcDb2dVertex
 10
653.451025540171
 20
1140.05992186445
 30
0.0
  0
VERTEX
  5
D6B
330
D15
100
AcDbEntity
  8
0
100
AcDbVertex
100
AcDb2dVertex
 10
654.2990399835575
 20
1136.883314914933
 30
0.0
  0
VERTEX
  5
D6C
330
D15
100
AcDbEntity
  8
0
100
AcDbVertex
100
AcDb2dVertex
 10
655.3573344311989
 20
1133.706707965417
 30
0.0
  0
VERTEX
  5
D6D
330
D15
100
AcDbEntity
  8
0
100
AcDbVertex
100
AcDb2dVertex
 10
656.6276324896866
 20
1130.740381020155
 30
0.0
  0
VERTEX
  5
D6E
330
D15
100
AcDbEntity
  8
0
100
AcDbVertex
100
AcDb2dVertex
 10
658.1116577656139
 20
1127.563774070639
 30
0.0
  0
SEQEND
  5
D6F
330
D15
100
AcDbEntity
  8
0
  0
POLYLINE
  5
D70
330
1F
100
AcDbEntity
  8
0
100
AcDb2dPolyline
 66
     1
 10
0.0
 20
0.0
 30
0.0
 70
     1
  0
VERTEX
  5
D71
330
D70
100
AcDbEntity
  8
0
100
AcDbVertex
100
AcDb2dVertex
 10
776.0821873655568
 20
1408.618512216072
 30
0.0
  0
VERTEX
  5
D72
330
D70
100
AcDbEntity
  8
0
100
AcDbVertex
100
AcDb2dVertex
 10
770.9992715250128
 20
1408.618512216072
 30
0.0
  0
VERTEX
  5
D73
330
D70
100
AcDbEntity
  8
0
100
AcDbVertex
100
AcDb2dVertex
 10
765.9146320778754
 20
1408.194504994377
 30
0.0
  0
VERTEX
  5
D74
330
D70
100
AcDbEntity
  8
0
100
AcDbVertex
100
AcDb2dVertex
 10
760.8317162373314
 20
1407.982501383531
 30
0.0
  0
VERTEX
  5
D75
330
D70
100
AcDbEntity
  8
0
100
AcDbVertex
100
AcDb2dVertex
 10
755.7488003967864
 20
1407.348214157583
 30
0.0
  0
VERTEX
  5
D76
330
D70
100
AcDbEntity
  8
0
100
AcDbVertex
100
AcDb2dVertex
 10
750.8778881670886
 20
1406.500199714196
 30
0.0
  0
VERTEX
  5
D77
330
D70
100
AcDbEntity
  8
0
100
AcDbVertex
100
AcDb2dVertex
 10
745.7949723265446
 20
1405.652185270809
 30
0.0
  0
VERTEX
  5
D78
330
D70
100
AcDbEntity
  8
0
100
AcDbVertex
100
AcDb2dVertex
 10
740.7120564859992
 20
1404.593890823168
 30
0.0
  0
VERTEX
  5
D79
330
D70
100
AcDbEntity
  8
0
100
AcDbVertex
100
AcDb2dVertex
 10
735.8411442563019
 20
1403.535596375526
 30
0.0
  0
VERTEX
  5
D7A
330
D70
100
AcDbEntity
  8
0
100
AcDbVertex
100
AcDb2dVertex
 10
730.9685084200109
 20
1402.053294706192
 30
0.0
  0
VERTEX
  5
D7B
330
D70
100
AcDbEntity
  8
0
100
AcDbVertex
100
AcDb2dVertex
 10
726.0975961903132
 20
1400.570993036857
 30
0.0
  0
VERTEX
  5
D7C
330
D70
100
AcDbEntity
  8
0
100
AcDbVertex
100
AcDb2dVertex
 10
721.2266839606159
 20
1398.874964150083
 30
0.0
  0
VERTEX
  5
D7D
330
D70
100
AcDbEntity
  8
0
100
AcDbVertex
100
AcDb2dVertex
 10
711.9071431163215
 20
1395.062346368027
 30
0.0
  0
VERTEX
  5
D7E
330
D70
100
AcDbEntity
  8
0
100
AcDbVertex
100
AcDb2dVertex
 10
707.2482344974705
 20
1392.945757472744
 30
0.0
  0
VERTEX
  5
D7F
330
D70
100
AcDbEntity
  8
0
100
AcDbVertex
100
AcDb2dVertex
 10
702.5876022720272
 20
1390.615441360022
 30
0.0
  0
VERTEX
  5
D80
330
D70
100
AcDbEntity
  8
0
100
AcDbVertex
100
AcDb2dVertex
 10
698.1406972640225
 20
1388.285125247301
 30
0.0
  0
VERTEX
  5
D81
330
D70
100
AcDbEntity
  8
0
100
AcDbVertex
100
AcDb2dVertex
 10
693.6920686494259
 20
1385.744529130325
 30
0.0
  0
VERTEX
  5
D82
330
D70
100
AcDbEntity
  8
0
100
AcDbVertex
100
AcDb2dVertex
 10
689.4571672522683
 20
1382.99020579591
 30
0.0
  0
VERTEX
  5
D83
330
D70
100
AcDbEntity
  8
0
100
AcDbVertex
100
AcDb2dVertex
 10
680.985640851361
 20
1377.06099911857
 30
0.0
  0
VERTEX
  5
D84
330
D70
100
AcDbEntity
  8
0
100
AcDbVertex
100
AcDb2dVertex
 10
676.961019458457
 20
1374.096395779901
 30
0.0
  0
VERTEX
  5
D85
330
D70
100
AcDbEntity
  8
0
100
AcDbVertex
100
AcDb2dVertex
 10
672.9363980655543
 20
1370.706061612945
 30
0.0
  0
VERTEX
  5
D86
330
D70
100
AcDbEntity
  8
0
100
AcDbVertex
100
AcDb2dVertex
 10
665.3111625014408
 20
1363.928840492219
 30
0.0
  0
VERTEX
  5
D87
330
D70
100
AcDbEntity
  8
0
100
AcDbVertex
100
AcDb2dVertex
 10
661.5002683259763
 20
1360.328226321009
 30
0.0
  0
VERTEX
  5
D88
330
D70
100
AcDbEntity
  8
0
100
AcDbVertex
100
AcDb2dVertex
 10
658.1116577656139
 20
1356.515608538953
 30
0.0
  0
VERTEX
  5
D89
330
D70
100
AcDbEntity
  8
0
100
AcDbVertex
100
AcDb2dVertex
 10
654.5110435944043
 20
1352.702990756897
 30
0.0
  0
VERTEX
  5
D8A
330
D70
100
AcDbEntity
  8
0
100
AcDbVertex
100
AcDb2dVertex
 10
651.332713038295
 20
1348.892096581432
 30
0.0
  0
VERTEX
  5
D8B
330
D70
100
AcDbEntity
  8
0
100
AcDbVertex
100
AcDb2dVertex
 10
648.1561060887793
 20
1344.655471577682
 30
0.0
  0
VERTEX
  5
D8C
330
D70
100
AcDbEntity
  8
0
100
AcDbVertex
100
AcDb2dVertex
 10
644.9794991392622
 20
1340.630850184779
 30
0.0
  0
VERTEX
  5
D8D
330
D70
100
AcDbEntity
  8
0
100
AcDbVertex
100
AcDb2dVertex
 10
642.0148958005929
 20
1336.395948787621
 30
0.0
  0
VERTEX
  5
D8E
330
D70
100
AcDbEntity
  8
0
100
AcDbVertex
100
AcDb2dVertex
 10
636.5079727383545
 20
1327.50041516502
 30
0.0
  0
VERTEX
  5
D8F
330
D70
100
AcDbEntity
  8
0
100
AcDbVertex
100
AcDb2dVertex
 10
633.9656530147863
 20
1323.051786550424
 30
0.0
  0
VERTEX
  5
D90
330
D70
100
AcDbEntity
  8
0
100
AcDbVertex
100
AcDb2dVertex
 10
631.6370605086571
 20
1318.604881542419
 30
0.0
  0
VERTEX
  5
D91
330
D70
100
AcDbEntity
  8
0
100
AcDbVertex
100
AcDb2dVertex
 10
629.3067443959353
 20
1313.945972923568
 30
0.0
  0
VERTEX
  5
D92
330
D70
100
AcDbEntity
  8
0
100
AcDbVertex
100
AcDb2dVertex
 10
627.1884318940601
 20
1309.073337087278
 30
0.0
  0
VERTEX
  5
D93
330
D70
100
AcDbEntity
  8
0
100
AcDbVertex
100
AcDb2dVertex
 10
625.2821230030321
 20
1304.414428468427
 30
0.0
  0
VERTEX
  5
D94
330
D70
100
AcDbEntity
  8
0
100
AcDbVertex
100
AcDb2dVertex
 10
623.3758141120042
 20
1299.543516238729
 30
0.0
  0
VERTEX
  5
D95
330
D70
100
AcDbEntity
  8
0
100
AcDbVertex
100
AcDb2dVertex
 10
621.8935124426689
 20
1294.458876791592
 30
0.0
  0
VERTEX
  5
D96
330
D70
100
AcDbEntity
  8
0
100
AcDbVertex
100
AcDb2dVertex
 10
620.1992071624881
 20
1289.587964561895
 30
0.0
  0
VERTEX
  5
D97
330
D70
100
AcDbEntity
  8
0
100
AcDbVertex
100
AcDb2dVertex
 10
617.6568874389195
 20
1279.422132880805
 30
0.0
  0
VERTEX
  5
D98
330
D70
100
AcDbEntity
  8
0
100
AcDbVertex
100
AcDb2dVertex
 10
616.5985929912785
 20
1274.33921704026
 30
0.0
  0
VERTEX
  5
D99
330
D70
100
AcDbEntity
  8
0
100
AcDbVertex
100
AcDb2dVertex
 10
614.9042877110969
 20
1264.173385359172
 30
0.0
  0
VERTEX
  5
D9A
330
D70
100
AcDbEntity
  8
0
100
AcDbVertex
100
AcDb2dVertex
 10
614.2682768785562
 20
1259.090469518627
 30
0.0
  0
VERTEX
  5
D9B
330
D70
100
AcDbEntity
  8
0
100
AcDbVertex
100
AcDb2dVertex
 10
613.8459932634551
 20
1253.795550067235
 30
0.0
  0
VERTEX
  5
D9C
330
D70
100
AcDbEntity
  8
0
100
AcDbVertex
100
AcDb2dVertex
 10
613.6339896526078
 20
1248.710910620099
 30
0.0
  0
VERTEX
  5
D9D
330
D70
100
AcDbEntity
  8
0
100
AcDbVertex
100
AcDb2dVertex
 10
613.4219860417616
 20
1243.415991168708
 30
0.0
  0
VERTEX
  5
D9E
330
D70
100
AcDbEntity
  8
0
100
AcDbVertex
100
AcDb2dVertex
 10
613.6339896526078
 20
1238.121071717316
 30
0.0
  0
VERTEX
  5
D9F
330
D70
100
AcDbEntity
  8
0
100
AcDbVertex
100
AcDb2dVertex
 10
613.8459932634551
 20
1233.038155876772
 30
0.0
  0
VERTEX
  5
DA0
330
D70
100
AcDbEntity
  8
0
100
AcDbVertex
100
AcDb2dVertex
 10
614.0579968743018
 20
1227.743236425381
 30
0.0
  0
VERTEX
  5
DA1
330
D70
100
AcDbEntity
  8
0
100
AcDbVertex
100
AcDb2dVertex
 10
614.6922841002501
 20
1222.660320584835
 30
0.0
  0
VERTEX
  5
DA2
330
D70
100
AcDbEntity
  8
0
100
AcDbVertex
100
AcDb2dVertex
 10
615.3282949327895
 20
1217.365401133444
 30
0.0
  0
VERTEX
  5
DA3
330
D70
100
AcDbEntity
  8
0
100
AcDbVertex
100
AcDb2dVertex
 10
617.0226002129711
 20
1207.199569452355
 30
0.0
  0
VERTEX
  5
DA4
330
D70
100
AcDbEntity
  8
0
100
AcDbVertex
100
AcDb2dVertex
 10
619.5631963299478
 20
1197.033737771266
 30
0.0
  0
VERTEX
  5
DA5
330
D70
100
AcDbEntity
  8
0
100
AcDbVertex
100
AcDb2dVertex
 10
622.5295232752091
 20
1187.290189705278
 30
0.0
  0
VERTEX
  5
DA6
330
D70
100
AcDbEntity
  8
0
100
AcDbVertex
100
AcDb2dVertex
 10
624.4358321662375
 20
1182.207273864734
 30
0.0
  0
VERTEX
  5
DA7
330
D70
100
AcDbEntity
  8
0
100
AcDbVertex
100
AcDb2dVertex
 10
626.3421410572655
 20
1177.548365245882
 30
0.0
  0
VERTEX
  5
DA8
330
D70
100
AcDbEntity
  8
0
100
AcDbVertex
100
AcDb2dVertex
 10
628.246726341702
 20
1172.675729409592
 30
0.0
  0
VERTEX
  5
DA9
330
D70
100
AcDbEntity
  8
0
100
AcDbVertex
100
AcDb2dVertex
 10
632.9073585671449
 20
1163.35791217189
 30
0.0
  0
VERTEX
  5
DAA
330
D70
100
AcDbEntity
  8
0
100
AcDbVertex
100
AcDb2dVertex
 10
635.2376746798673
 20
1158.909283557293
 30
0.0
  0
VERTEX
  5
DAB
330
D70
100
AcDbEntity
  8
0
100
AcDbVertex
100
AcDb2dVertex
 10
640.7428741355134
 20
1150.013749934692
 30
0.0
  0
VERTEX
  5
DAC
330
D70
100
AcDbEntity
  8
0
100
AcDbVertex
100
AcDb2dVertex
 10
643.4971974699283
 20
1145.778848537534
 30
0.0
  0
VERTEX
  5
DAD
330
D70
100
AcDbEntity
  8
0
100
AcDbVertex
100
AcDb2dVertex
 10
646.4618008085972
 20
1141.542223533785
 30
0.0
  0
VERTEX
  5
DAE
330
D70
100
AcDbEntity
  8
0
100
AcDbVertex
100
AcDb2dVertex
 10
649.6384077581133
 20
1137.517602140881
 30
0.0
  0
VERTEX
  5
DAF
330
D70
100
AcDbEntity
  8
0
100
AcDbVertex
100
AcDb2dVertex
 10
653.0270183184766
 20
1133.494704354571
 30
0.0
  0
VERTEX
  5
DB0
330
D70
100
AcDbEntity
  8
0
100
AcDbVertex
100
AcDb2dVertex
 10
656.205348874586
 20
1129.470082961667
 30
0.0
  0
VERTEX
  5
DB1
330
D70
100
AcDbEntity
  8
0
100
AcDbVertex
100
AcDb2dVertex
 10
659.8059630457956
 20
1125.657465179611
 30
0.0
  0
VERTEX
  5
DB2
330
D70
100
AcDbEntity
  8
0
100
AcDbVertex
100
AcDb2dVertex
 10
663.4065772170043
 20
1122.056851008401
 30
0.0
  0
VERTEX
  5
DB3
330
D70
100
AcDbEntity
  8
0
100
AcDbVertex
100
AcDb2dVertex
 10
667.2174713924687
 20
1118.456236837191
 30
0.0
  0
VERTEX
  5
DB4
330
D70
100
AcDbEntity
  8
0
100
AcDbVertex
100
AcDb2dVertex
 10
671.0300891745251
 20
1115.067626276828
 30
0.0
  0
VERTEX
  5
DB5
330
D70
100
AcDbEntity
  8
0
100
AcDbVertex
100
AcDb2dVertex
 10
674.8427069565823
 20
1111.891019327312
 30
0.0
  0
VERTEX
  5
DB6
330
D70
100
AcDbEntity
  8
0
100
AcDbVertex
100
AcDb2dVertex
 10
678.8673283494854
 20
1108.714412377795
 30
0.0
  0
VERTEX
  5
DB7
330
D70
100
AcDbEntity
  8
0
100
AcDbVertex
100
AcDb2dVertex
 10
683.1022297466433
 20
1105.537805428279
 30
0.0
  0
VERTEX
  5
DB8
330
D70
100
AcDbEntity
  8
0
100
AcDbVertex
100
AcDb2dVertex
 10
687.3388547503927
 20
1102.571478483017
 30
0.0
  0
VERTEX
  5
DB9
330
D70
100
AcDbEntity
  8
0
100
AcDbVertex
100
AcDb2dVertex
 10
691.575479754143
 20
1099.818878755195
 30
0.0
  0
VERTEX
  5
DBA
330
D70
100
AcDbEntity
  8
0
100
AcDbVertex
100
AcDb2dVertex
 10
700.4710133767444
 20
1094.73596291465
 30
0.0
  0
VERTEX
  5
DBB
330
D70
100
AcDbEntity
  8
0
100
AcDbVertex
100
AcDb2dVertex
 10
704.9179183847481
 20
1092.405646801928
 30
0.0
  0
VERTEX
  5
DBC
330
D70
100
AcDbEntity
  8
0
100
AcDbVertex
100
AcDb2dVertex
 10
714.2374592290425
 20
1088.170745404771
 30
0.0
  0
VERTEX
  5
DBD
330
D70
100
AcDbEntity
  8
0
100
AcDbVertex
100
AcDb2dVertex
 10
718.8963678478939
 20
1086.264436513742
 30
0.0
  0
VERTEX
  5
DBE
330
D70
100
AcDbEntity
  8
0
100
AcDbVertex
100
AcDb2dVertex
 10
723.7672800775926
 20
1084.568407626969
 30
0.0
  0
VERTEX
  5
DBF
330
D70
100
AcDbEntity
  8
0
100
AcDbVertex
100
AcDb2dVertex
 10
728.4279123030355
 20
1082.875825953379
 30
0.0
  0
VERTEX
  5
DC0
330
D70
100
AcDbEntity
  8
0
100
AcDbVertex
100
AcDb2dVertex
 10
733.5108281435796
 20
1081.391800677452
 30
0.0
  0
VERTEX
  5
DC1
330
D70
100
AcDbEntity
  8
0
100
AcDbVertex
100
AcDb2dVertex
 10
738.3817403732782
 20
1080.121502618964
 30
0.0
  0
VERTEX
  5
DC2
330
D70
100
AcDbEntity
  8
0
100
AcDbVertex
100
AcDb2dVertex
 10
743.252652602976
 20
1079.063208171323
 30
0.0
  0
VERTEX
  5
DC3
330
D70
100
AcDbEntity
  8
0
100
AcDbVertex
100
AcDb2dVertex
 10
748.33556844352
 20
1078.003190117089
 30
0.0
  0
VERTEX
  5
DC4
330
D70
100
AcDbEntity
  8
0
100
AcDbVertex
100
AcDb2dVertex
 10
753.2082042798106
 20
1077.156899280295
 30
0.0
  0
VERTEX
  5
DC5
330
D70
100
AcDbEntity
  8
0
100
AcDbVertex
100
AcDb2dVertex
 10
758.2911201203546
 20
1076.520888447754
 30
0.0
  0
VERTEX
  5
DC6
330
D70
100
AcDbEntity
  8
0
100
AcDbVertex
100
AcDb2dVertex
 10
768.4569518014441
 20
1075.67459761096
 30
0.0
  0
VERTEX
  5
DC7
330
D70
100
AcDbEntity
  8
0
100
AcDbVertex
100
AcDb2dVertex
 10
783.7056993230771
 20
1075.67459761096
 30
0.0
  0
VERTEX
  5
DC8
330
D70
100
AcDbEntity
  8
0
100
AcDbVertex
100
AcDb2dVertex
 10
793.8732546107594
 20
1076.520888447754
 30
0.0
  0
VERTEX
  5
DC9
330
D70
100
AcDbEntity
  8
0
100
AcDbVertex
100
AcDb2dVertex
 10
798.9561704513034
 20
1077.156899280295
 30
0.0
  0
VERTEX
  5
DCA
330
D70
100
AcDbEntity
  8
0
100
AcDbVertex
100
AcDb2dVertex
 10
803.8270826810013
 20
1078.003190117089
 30
0.0
  0
VERTEX
  5
DCB
330
D70
100
AcDbEntity
  8
0
100
AcDbVertex
100
AcDb2dVertex
 10
808.9099985215463
 20
1079.063208171323
 30
0.0
  0
VERTEX
  5
DCC
330
D70
100
AcDbEntity
  8
0
100
AcDbVertex
100
AcDb2dVertex
 10
813.7809107512438
 20
1080.121502618964
 30
0.0
  0
VERTEX
  5
DCD
330
D70
100
AcDbEntity
  8
0
100
AcDbVertex
100
AcDb2dVertex
 10
818.863826591788
 20
1081.391800677452
 30
0.0
  0
VERTEX
  5
DCE
330
D70
100
AcDbEntity
  8
0
100
AcDbVertex
100
AcDb2dVertex
 10
823.7364624280788
 20
1082.875825953379
 30
0.0
  0
VERTEX
  5
DCF
330
D70
100
AcDbEntity
  8
0
100
AcDbVertex
100
AcDb2dVertex
 10
828.6073746577763
 20
1084.568407626969
 30
0.0
  0
VERTEX
  5
DD0
330
D70
100
AcDbEntity
  8
0
100
AcDbVertex
100
AcDb2dVertex
 10
833.2662832766274
 20
1086.264436513742
 30
0.0
  0
VERTEX
  5
DD1
330
D70
100
AcDbEntity
  8
0
100
AcDbVertex
100
AcDb2dVertex
 10
837.9269155020706
 20
1088.170745404771
 30
0.0
  0
VERTEX
  5
DD2
330
D70
100
AcDbEntity
  8
0
100
AcDbVertex
100
AcDb2dVertex
 10
842.7978277317693
 20
1090.287334300053
 30
0.0
  0
VERTEX
  5
DD3
330
D70
100
AcDbEntity
  8
0
100
AcDbVertex
100
AcDb2dVertex
 10
847.244732739773
 20
1092.405646801928
 30
0.0
  0
VERTEX
  5
DD4
330
D70
100
AcDbEntity
  8
0
100
AcDbVertex
100
AcDb2dVertex
 10
851.9053649652162
 20
1094.73596291465
 30
0.0
  0
VERTEX
  5
DD5
330
D70
100
AcDbEntity
  8
0
100
AcDbVertex
100
AcDb2dVertex
 10
856.3522699732208
 20
1097.276559031626
 30
0.0
  0
VERTEX
  5
DD6
330
D70
100
AcDbEntity
  8
0
100
AcDbVertex
100
AcDb2dVertex
 10
860.5888949769711
 20
1099.818878755195
 30
0.0
  0
VERTEX
  5
DD7
330
D70
100
AcDbEntity
  8
0
100
AcDbVertex
100
AcDb2dVertex
 10
865.0357999849747
 20
1102.571478483017
 30
0.0
  0
VERTEX
  5
DD8
330
D70
100
AcDbEntity
  8
0
100
AcDbVertex
100
AcDb2dVertex
 10
869.272424988725
 20
1105.537805428279
 30
0.0
  0
VERTEX
  5
DD9
330
D70
100
AcDbEntity
  8
0
100
AcDbVertex
100
AcDb2dVertex
 10
881.3445655608425
 20
1115.067626276828
 30
0.0
  0
VERTEX
  5
DDA
330
D70
100
AcDbEntity
  8
0
100
AcDbVertex
100
AcDb2dVertex
 10
885.1571833428989
 20
1118.456236837191
 30
0.0
  0
VERTEX
  5
DDB
330
D70
100
AcDbEntity
  8
0
100
AcDbVertex
100
AcDb2dVertex
 10
892.3584116853184
 20
1125.657465179611
 30
0.0
  0
VERTEX
  5
DDC
330
D70
100
AcDbEntity
  8
0
100
AcDbVertex
100
AcDb2dVertex
 10
895.9590258565283
 20
1129.470082961667
 30
0.0
  0
VERTEX
  5
DDD
330
D70
100
AcDbEntity
  8
0
100
AcDbVertex
100
AcDb2dVertex
 10
899.3476364168918
 20
1133.494704354571
 30
0.0
  0
VERTEX
  5
DDE
330
D70
100
AcDbEntity
  8
0
100
AcDbVertex
100
AcDb2dVertex
 10
905.7008503159247
 20
1141.542223533785
 30
0.0
  0
VERTEX
  5
DDF
330
D70
100
AcDbEntity
  8
0
100
AcDbVertex
100
AcDb2dVertex
 10
911.6317805998555
 20
1150.013749934692
 30
0.0
  0
VERTEX
  5
DE0
330
D70
100
AcDbEntity
  8
0
100
AcDbVertex
100
AcDb2dVertex
 10
914.3843803276785
 20
1154.462378549289
 30
0.0
  0
VERTEX
  5
DE1
330
D70
100
AcDbEntity
  8
0
100
AcDbVertex
100
AcDb2dVertex
 10
919.4672961682227
 20
1163.35791217189
 30
0.0
  0
VERTEX
  5
DE2
330
D70
100
AcDbEntity
  8
0
100
AcDbVertex
100
AcDb2dVertex
 10
921.7976122809448
 20
1168.016820790741
 30
0.0
  0
VERTEX
  5
DE3
330
D70
100
AcDbEntity
  8
0
100
AcDbVertex
100
AcDb2dVertex
 10
923.9159247828196
 20
1172.675729409592
 30
0.0
  0
VERTEX
  5
DE4
330
D70
100
AcDbEntity
  8
0
100
AcDbVertex
100
AcDb2dVertex
 10
926.0342372846951
 20
1177.548365245882
 30
0.0
  0
VERTEX
  5
DE5
330
D70
100
AcDbEntity
  8
0
100
AcDbVertex
100
AcDb2dVertex
 10
927.9405461757233
 20
1182.207273864734
 30
0.0
  0
VERTEX
  5
DE6
330
D70
100
AcDbEntity
  8
0
100
AcDbVertex
100
AcDb2dVertex
 10
929.6348514559049
 20
1187.290189705278
 30
0.0
  0
VERTEX
  5
DE7
330
D70
100
AcDbEntity
  8
0
100
AcDbVertex
100
AcDb2dVertex
 10
932.5994547945745
 20
1197.033737771266
 30
0.0
  0
VERTEX
  5
DE8
330
D70
100
AcDbEntity
  8
0
100
AcDbVertex
100
AcDb2dVertex
 10
935.1417745181429
 20
1207.199569452355
 30
0.0
  0
VERTEX
  5
DE9
330
D70
100
AcDbEntity
  8
0
100
AcDbVertex
100
AcDb2dVertex
 10
936.8360797983237
 20
1217.365401133444
 30
0.0
  0
VERTEX
  5
DEA
330
D70
100
AcDbEntity
  8
0
100
AcDbVertex
100
AcDb2dVertex
 10
937.470367024272
 20
1222.660320584835
 30
0.0
  0
VERTEX
  5
DEB
330
D70
100
AcDbEntity
  8
0
100
AcDbVertex
100
AcDb2dVertex
 10
938.1063778568124
 20
1227.743236425381
 30
0.0
  0
VERTEX
  5
DEC
330
D70
100
AcDbEntity
  8
0
100
AcDbVertex
100
AcDb2dVertex
 10
938.5303850785053
 20
1233.038155876772
 30
0.0
  0
VERTEX
  5
DED
330
D70
100
AcDbEntity
  8
0
100
AcDbVertex
100
AcDb2dVertex
 10
938.7423886893529
 20
1238.121071717316
 30
0.0
  0
VERTEX
  5
DEE
330
D70
100
AcDbEntity
  8
0
100
AcDbVertex
100
AcDb2dVertex
 10
938.7423886893529
 20
1243.415991168708
 30
0.0
  0
VERTEX
  5
DEF
330
D70
100
AcDbEntity
  8
0
100
AcDbVertex
100
AcDb2dVertex
 10
938.5303850785053
 20
1248.710910620099
 30
0.0
  0
VERTEX
  5
DF0
330
D70
100
AcDbEntity
  8
0
100
AcDbVertex
100
AcDb2dVertex
 10
938.3183814676588
 20
1253.795550067235
 30
0.0
  0
VERTEX
  5
DF1
330
D70
100
AcDbEntity
  8
0
100
AcDbVertex
100
AcDb2dVertex
 10
937.8943742459659
 20
1259.090469518627
 30
0.0
  0
VERTEX
  5
DF2
330
D70
100
AcDbEntity
  8
0
100
AcDbVertex
100
AcDb2dVertex
 10
937.2583634134256
 20
1264.173385359172
 30
0.0
  0
VERTEX
  5
DF3
330
D70
100
AcDbEntity
  8
0
100
AcDbVertex
100
AcDb2dVertex
 10
935.5640581332439
 20
1274.33921704026
 30
0.0
  0
VERTEX
  5
DF4
330
D70
100
AcDbEntity
  8
0
100
AcDbVertex
100
AcDb2dVertex
 10
934.5057636856026
 20
1279.422132880805
 30
0.0
  0
VERTEX
  5
DF5
330
D70
100
AcDbEntity
  8
0
100
AcDbVertex
100
AcDb2dVertex
 10
931.963443962034
 20
1289.587964561895
 30
0.0
  0
VERTEX
  5
DF6
330
D70
100
AcDbEntity
  8
0
100
AcDbVertex
100
AcDb2dVertex
 10
930.4811422926986
 20
1294.458876791592
 30
0.0
  0
VERTEX
  5
DF7
330
D70
100
AcDbEntity
  8
0
100
AcDbVertex
100
AcDb2dVertex
 10
928.7868370125181
 20
1299.543516238729
 30
0.0
  0
VERTEX
  5
DF8
330
D70
100
AcDbEntity
  8
0
100
AcDbVertex
100
AcDb2dVertex
 10
926.88052812149
 20
1304.414428468427
 30
0.0
  0
VERTEX
  5
DF9
330
D70
100
AcDbEntity
  8
0
100
AcDbVertex
100
AcDb2dVertex
 10
924.9742192304607
 20
1309.073337087278
 30
0.0
  0
VERTEX
  5
DFA
330
D70
100
AcDbEntity
  8
0
100
AcDbVertex
100
AcDb2dVertex
 10
922.8576303351781
 20
1313.945972923568
 30
0.0
  0
VERTEX
  5
DFB
330
D70
100
AcDbEntity
  8
0
100
AcDbVertex
100
AcDb2dVertex
 10
920.5273142224571
 20
1318.604881542419
 30
0.0
  0
VERTEX
  5
DFC
330
D70
100
AcDbEntity
  8
0
100
AcDbVertex
100
AcDb2dVertex
 10
918.1969981097349
 20
1323.051786550424
 30
0.0
  0
VERTEX
  5
DFD
330
D70
100
AcDbEntity
  8
0
100
AcDbVertex
100
AcDb2dVertex
 10
915.6564019927596
 20
1327.50041516502
 30
0.0
  0
VERTEX
  5
DFE
330
D70
100
AcDbEntity
  8
0
100
AcDbVertex
100
AcDb2dVertex
 10
910.1494789305213
 20
1336.395948787621
 30
0.0
  0
VERTEX
  5
DFF
330
D70
100
AcDbEntity
  8
0
100
AcDbVertex
100
AcDb2dVertex
 10
907.183151985259
 20
1340.630850184779
 30
0.0
  0
VERTEX
  5
E00
330
D70
100
AcDbEntity
  8
0
100
AcDbVertex
100
AcDb2dVertex
 10
904.2185486465895
 20
1344.655471577682
 30
0.0
  0
VERTEX
  5
E01
330
D70
100
AcDbEntity
  8
0
100
AcDbVertex
100
AcDb2dVertex
 10
900.8299380862261
 20
1348.892096581432
 30
0.0
  0
VERTEX
  5
E02
330
D70
100
AcDbEntity
  8
0
100
AcDbVertex
100
AcDb2dVertex
 10
897.65333113671
 20
1352.702990756897
 30
0.0
  0
VERTEX
  5
E03
330
D70
100
AcDbEntity
  8
0
100
AcDbVertex
100
AcDb2dVertex
 10
894.2647205763467
 20
1356.515608538953
 30
0.0
  0
VERTEX
  5
E04
330
D70
100
AcDbEntity
  8
0
100
AcDbVertex
100
AcDb2dVertex
 10
890.6641064051369
 20
1360.328226321009
 30
0.0
  0
VERTEX
  5
E05
330
D70
100
AcDbEntity
  8
0
100
AcDbVertex
100
AcDb2dVertex
 10
887.0634922339268
 20
1363.928840492219
 30
0.0
  0
VERTEX
  5
E06
330
D70
100
AcDbEntity
  8
0
100
AcDbVertex
100
AcDb2dVertex
 10
883.2508744518706
 20
1367.317451052582
 30
0.0
  0
VERTEX
  5
E07
330
D70
100
AcDbEntity
  8
0
100
AcDbVertex
100
AcDb2dVertex
 10
879.2262530589677
 20
1370.706061612945
 30
0.0
  0
VERTEX
  5
E08
330
D70
100
AcDbEntity
  8
0
100
AcDbVertex
100
AcDb2dVertex
 10
875.4136352769117
 20
1374.096395779901
 30
0.0
  0
VERTEX
  5
E09
330
D70
100
AcDbEntity
  8
0
100
AcDbVertex
100
AcDb2dVertex
 10
871.1787338797533
 20
1377.06099911857
 30
0.0
  0
VERTEX
  5
E0A
330
D70
100
AcDbEntity
  8
0
100
AcDbVertex
100
AcDb2dVertex
 10
867.1541124868506
 20
1380.02560245724
 30
0.0
  0
VERTEX
  5
E0B
330
D70
100
AcDbEntity
  8
0
100
AcDbVertex
100
AcDb2dVertex
 10
862.9192110896921
 20
1382.99020579591
 30
0.0
  0
VERTEX
  5
E0C
330
D70
100
AcDbEntity
  8
0
100
AcDbVertex
100
AcDb2dVertex
 10
858.4705824750965
 20
1385.744529130325
 30
0.0
  0
VERTEX
  5
E0D
330
D70
100
AcDbEntity
  8
0
100
AcDbVertex
100
AcDb2dVertex
 10
854.0236774670917
 20
1388.285125247301
 30
0.0
  0
VERTEX
  5
E0E
330
D70
100
AcDbEntity
  8
0
100
AcDbVertex
100
AcDb2dVertex
 10
849.5750488524953
 20
1390.615441360022
 30
0.0
  0
VERTEX
  5
E0F
330
D70
100
AcDbEntity
  8
0
100
AcDbVertex
100
AcDb2dVertex
 10
844.9161402336439
 20
1392.945757472744
 30
0.0
  0
VERTEX
  5
E10
330
D70
100
AcDbEntity
  8
0
100
AcDbVertex
100
AcDb2dVertex
 10
840.4675116190471
 20
1395.062346368027
 30
0.0
  0
VERTEX
  5
E11
330
D70
100
AcDbEntity
  8
0
100
AcDbVertex
100
AcDb2dVertex
 10
835.5965993893496
 20
1396.968655259055
 30
0.0
  0
VERTEX
  5
E12
330
D70
100
AcDbEntity
  8
0
100
AcDbVertex
100
AcDb2dVertex
 10
830.9376907704983
 20
1398.874964150083
 30
0.0
  0
VERTEX
  5
E13
330
D70
100
AcDbEntity
  8
0
100
AcDbVertex
100
AcDb2dVertex
 10
826.0650549342079
 20
1400.570993036857
 30
0.0
  0
VERTEX
  5
E14
330
D70
100
AcDbEntity
  8
0
100
AcDbVertex
100
AcDb2dVertex
 10
816.3232304748126
 20
1403.535596375526
 30
0.0
  0
VERTEX
  5
E15
330
D70
100
AcDbEntity
  8
0
100
AcDbVertex
100
AcDb2dVertex
 10
811.4523182451147
 20
1404.593890823168
 30
0.0
  0
VERTEX
  5
E16
330
D70
100
AcDbEntity
  8
0
100
AcDbVertex
100
AcDb2dVertex
 10
806.3694024045696
 20
1405.652185270809
 30
0.0
  0
VERTEX
  5
E17
330
D70
100
AcDbEntity
  8
0
100
AcDbVertex
100
AcDb2dVertex
 10
801.4967665682801
 20
1406.500199714196
 30
0.0
  0
VERTEX
  5
E18
330
D70
100
AcDbEntity
  8
0
100
AcDbVertex
100
AcDb2dVertex
 10
796.413850727735
 20
1407.348214157583
 30
0.0
  0
VERTEX
  5
E19
330
D70
100
AcDbEntity
  8
0
100
AcDbVertex
100
AcDb2dVertex
 10
791.3309348871909
 20
1407.982501383531
 30
0.0
  0
VERTEX
  5
E1A
330
D70
100
AcDbEntity
  8
0
100
AcDbVertex
100
AcDb2dVertex
 10
786.2480190466458
 20
1408.194504994377
 30
0.0
  0
VERTEX
  5
E1B
330
D70
100
AcDbEntity
  8
0
100
AcDbVertex
100
AcDb2dVertex
 10
781.1651032061018
 20
1408.618512216072
 30
0.0
  0
SEQEND
  5
E1C
330
D70
100
AcDbEntity
  8
0
  0
POLYLINE
  5
E1D
330
1F
100
AcDbEntity
  8
0
100
AcDb2dPolyline
 66
     1
 10
0.0
 20
0.0
 30
0.0
  0
VERTEX
  5
E1E
330
E1D
100
AcDbEntity
  8
0
100
AcDbVertex
100
AcDb2dVertex
 10
915.6564019927596
 20
1187.926200537819
 30
0.0
  0
VERTEX
  5
E1F
330
E1D
100
AcDbEntity
  8
0
100
AcDbVertex
100
AcDb2dVertex
 10
916.0786856078605
 20
1192.162825541568
 30
0.0
  0
VERTEX
  5
E20
330
E1D
100
AcDbEntity
  8
0
100
AcDbVertex
100
AcDb2dVertex
 10
916.0786856078605
 20
1204.658973335379
 30
0.0
  0
VERTEX
  5
E21
330
E1D
100
AcDbEntity
  8
0
100
AcDbVertex
100
AcDb2dVertex
 10
915.6564019927596
 20
1208.893874732537
 30
0.0
  0
VERTEX
  5
E22
330
E1D
100
AcDbEntity
  8
0
100
AcDbVertex
100
AcDb2dVertex
 10
915.2323947710653
 20
1212.91849612544
 30
0.0
  0
VERTEX
  5
E23
330
E1D
100
AcDbEntity
  8
0
100
AcDbVertex
100
AcDb2dVertex
 10
914.3843803276785
 20
1217.153397522597
 30
0.0
  0
VERTEX
  5
E24
330
E1D
100
AcDbEntity
  8
0
100
AcDbVertex
100
AcDb2dVertex
 10
913.7500931017314
 20
1221.178018915501
 30
0.0
  0
VERTEX
  5
E25
330
E1D
100
AcDbEntity
  8
0
100
AcDbVertex
100
AcDb2dVertex
 10
912.690075047497
 20
1225.202640308404
 30
0.0
  0
VERTEX
  5
E26
330
E1D
100
AcDbEntity
  8
0
100
AcDbVertex
100
AcDb2dVertex
 10
911.6317805998555
 20
1229.437541705562
 30
0.0
  0
VERTEX
  5
E27
330
E1D
100
AcDbEntity
  8
0
100
AcDbVertex
100
AcDb2dVertex
 10
910.1494789305213
 20
1233.462163098465
 30
0.0
  0
VERTEX
  5
E28
330
E1D
100
AcDbEntity
  8
0
100
AcDbVertex
100
AcDb2dVertex
 10
908.8774572654406
 20
1237.274780880521
 30
0.0
  0
VERTEX
  5
E29
330
E1D
100
AcDbEntity
  8
0
100
AcDbVertex
100
AcDb2dVertex
 10
907.183151985259
 20
1241.299402273425
 30
0.0
  0
VERTEX
  5
E2A
330
E1D
100
AcDbEntity
  8
0
100
AcDbVertex
100
AcDb2dVertex
 10
905.4888467050773
 20
1245.112020055481
 30
0.0
  0
VERTEX
  5
E2B
330
E1D
100
AcDbEntity
  8
0
100
AcDbVertex
100
AcDb2dVertex
 10
903.5825378140492
 20
1248.922914230946
 30
0.0
  0
VERTEX
  5
E2C
330
E1D
100
AcDbEntity
  8
0
100
AcDbVertex
100
AcDb2dVertex
 10
899.3476364168918
 20
1256.548149795058
 30
0.0
  0
VERTEX
  5
E2D
330
E1D
100
AcDbEntity
  8
0
100
AcDbVertex
100
AcDb2dVertex
 10
896.8053166933232
 20
1260.148763966268
 30
0.0
  0
VERTEX
  5
E2E
330
E1D
100
AcDbEntity
  8
0
100
AcDbVertex
100
AcDb2dVertex
 10
894.4767241871941
 20
1263.749378137478
 30
0.0
  0
VERTEX
  5
E2F
330
E1D
100
AcDbEntity
  8
0
100
AcDbVertex
100
AcDb2dVertex
 10
886.2154777905411
 20
1273.915209818567
 30
0.0
  0
VERTEX
  5
E30
330
E1D
100
AcDbEntity
  8
0
100
AcDbVertex
100
AcDb2dVertex
 10
883.0388708410241
 20
1277.091816768083
 30
0.0
  0
VERTEX
  5
E31
330
E1D
100
AcDbEntity
  8
0
100
AcDbVertex
100
AcDb2dVertex
 10
880.0742675023547
 20
1280.270147324192
 30
0.0
  0
VERTEX
  5
E32
330
E1D
100
AcDbEntity
  8
0
100
AcDbVertex
100
AcDb2dVertex
 10
869.9084358212656
 20
1289.163957340201
 30
0.0
  0
VERTEX
  5
E33
330
E1D
100
AcDbEntity
  8
0
100
AcDbVertex
100
AcDb2dVertex
 10
866.3078216500554
 20
1291.918280674616
 30
0.0
  0
VERTEX
  5
E34
330
E1D
100
AcDbEntity
  8
0
100
AcDbVertex
100
AcDb2dVertex
 10
858.6825860859431
 20
1297.001196515161
 30
0.0
  0
VERTEX
  5
E35
330
E1D
100
AcDbEntity
  8
0
100
AcDbVertex
100
AcDb2dVertex
 10
854.8699683038867
 20
1299.331512627883
 30
0.0
  0
VERTEX
  5
E36
330
E1D
100
AcDbEntity
  8
0
100
AcDbVertex
100
AcDb2dVertex
 10
850.8453469109829
 20
1301.660105134012
 30
0.0
  0
VERTEX
  5
E37
330
E1D
100
AcDbEntity
  8
0
100
AcDbVertex
100
AcDb2dVertex
 10
846.8224491246722
 20
1303.778417635887
 30
0.0
  0
VERTEX
  5
E38
330
E1D
100
AcDbEntity
  8
0
100
AcDbVertex
100
AcDb2dVertex
 10
842.5858241209219
 20
1305.896730137762
 30
0.0
  0
VERTEX
  5
E39
330
E1D
100
AcDbEntity
  8
0
100
AcDbVertex
100
AcDb2dVertex
 10
834.1142977200142
 20
1309.709347919818
 30
0.0
  0
VERTEX
  5
E3A
330
E1D
100
AcDbEntity
  8
0
100
AcDbVertex
100
AcDb2dVertex
 10
829.6656691054177
 20
1311.191649589153
 30
0.0
  0
VERTEX
  5
E3B
330
E1D
100
AcDbEntity
  8
0
100
AcDbVertex
100
AcDb2dVertex
 10
825.2187640974138
 20
1312.885954869334
 30
0.0
  0
VERTEX
  5
E3C
330
E1D
100
AcDbEntity
  8
0
100
AcDbVertex
100
AcDb2dVertex
 10
820.7701354828172
 20
1314.156252927822
 30
0.0
  0
VERTEX
  5
E3D
330
E1D
100
AcDbEntity
  8
0
100
AcDbVertex
100
AcDb2dVertex
 10
816.111226863966
 20
1315.428274592903
 30
0.0
  0
VERTEX
  5
E3E
330
E1D
100
AcDbEntity
  8
0
100
AcDbVertex
100
AcDb2dVertex
 10
811.4523182451147
 20
1316.698572651391
 30
0.0
  0
VERTEX
  5
E3F
330
E1D
100
AcDbEntity
  8
0
100
AcDbVertex
100
AcDb2dVertex
 10
797.4738687819693
 20
1319.240892374959
 30
0.0
  0
VERTEX
  5
E40
330
E1D
100
AcDbEntity
  8
0
100
AcDbVertex
100
AcDb2dVertex
 10
792.8132365565252
 20
1319.66317599006
 30
0.0
  0
VERTEX
  5
E41
330
E1D
100
AcDbEntity
  8
0
100
AcDbVertex
100
AcDb2dVertex
 10
787.9423243268274
 20
1320.087183211754
 30
0.0
  0
VERTEX
  5
E42
330
E1D
100
AcDbEntity
  8
0
100
AcDbVertex
100
AcDb2dVertex
 10
783.2834157079762
 20
1320.511190433447
 30
0.0
  0
VERTEX
  5
E43
330
E1D
100
AcDbEntity
  8
0
100
AcDbVertex
100
AcDb2dVertex
 10
768.8809590231376
 20
1320.511190433447
 30
0.0
  0
VERTEX
  5
E44
330
E1D
100
AcDbEntity
  8
0
100
AcDbVertex
100
AcDb2dVertex
 10
764.2203267976938
 20
1320.087183211754
 30
0.0
  0
VERTEX
  5
E45
330
E1D
100
AcDbEntity
  8
0
100
AcDbVertex
100
AcDb2dVertex
 10
759.3494145679961
 20
1319.66317599006
 30
0.0
  0
VERTEX
  5
E46
330
E1D
100
AcDbEntity
  8
0
100
AcDbVertex
100
AcDb2dVertex
 10
754.6905059491446
 20
1319.240892374959
 30
0.0
  0
VERTEX
  5
E47
330
E1D
100
AcDbEntity
  8
0
100
AcDbVertex
100
AcDb2dVertex
 10
740.7120564859992
 20
1316.698572651391
 30
0.0
  0
VERTEX
  5
E48
330
E1D
100
AcDbEntity
  8
0
100
AcDbVertex
100
AcDb2dVertex
 10
736.0514242605558
 20
1315.428274592903
 30
0.0
  0
VERTEX
  5
E49
330
E1D
100
AcDbEntity
  8
0
100
AcDbVertex
100
AcDb2dVertex
 10
731.6045192525516
 20
1314.156252927822
 30
0.0
  0
VERTEX
  5
E4A
330
E1D
100
AcDbEntity
  8
0
100
AcDbVertex
100
AcDb2dVertex
 10
726.9456106337002
 20
1312.885954869334
 30
0.0
  0
VERTEX
  5
E4B
330
E1D
100
AcDbEntity
  8
0
100
AcDbVertex
100
AcDb2dVertex
 10
722.4969820191035
 20
1311.191649589153
 30
0.0
  0
VERTEX
  5
E4C
330
E1D
100
AcDbEntity
  8
0
100
AcDbVertex
100
AcDb2dVertex
 10
718.2603570153542
 20
1309.709347919818
 30
0.0
  0
VERTEX
  5
E4D
330
E1D
100
AcDbEntity
  8
0
100
AcDbVertex
100
AcDb2dVertex
 10
713.8134520073499
 20
1307.80303902879
 30
0.0
  0
VERTEX
  5
E4E
330
E1D
100
AcDbEntity
  8
0
100
AcDbVertex
100
AcDb2dVertex
 10
709.5768270035996
 20
1305.896730137762
 30
0.0
  0
VERTEX
  5
E4F
330
E1D
100
AcDbEntity
  8
0
100
AcDbVertex
100
AcDb2dVertex
 10
705.5539292172884
 20
1303.778417635887
 30
0.0
  0
VERTEX
  5
E50
330
E1D
100
AcDbEntity
  8
0
100
AcDbVertex
100
AcDb2dVertex
 10
701.3173042135385
 20
1301.660105134012
 30
0.0
  0
VERTEX
  5
E51
330
E1D
100
AcDbEntity
  8
0
100
AcDbVertex
100
AcDb2dVertex
 10
697.2926828206355
 20
1299.331512627883
 30
0.0
  0
VERTEX
  5
E52
330
E1D
100
AcDbEntity
  8
0
100
AcDbVertex
100
AcDb2dVertex
 10
693.481788645171
 20
1297.001196515161
 30
0.0
  0
VERTEX
  5
E53
330
E1D
100
AcDbEntity
  8
0
100
AcDbVertex
100
AcDb2dVertex
 10
689.6691708631151
 20
1294.458876791592
 30
0.0
  0
VERTEX
  5
E54
330
E1D
100
AcDbEntity
  8
0
100
AcDbVertex
100
AcDb2dVertex
 10
686.0685566919051
 20
1291.918280674616
 30
0.0
  0
VERTEX
  5
E55
330
E1D
100
AcDbEntity
  8
0
100
AcDbVertex
100
AcDb2dVertex
 10
682.467942520695
 20
1289.163957340201
 30
0.0
  0
VERTEX
  5
E56
330
E1D
100
AcDbEntity
  8
0
100
AcDbVertex
100
AcDb2dVertex
 10
678.8673283494854
 20
1286.199354001531
 30
0.0
  0
VERTEX
  5
E57
330
E1D
100
AcDbEntity
  8
0
100
AcDbVertex
100
AcDb2dVertex
 10
675.478717789123
 20
1283.234750662862
 30
0.0
  0
VERTEX
  5
E58
330
E1D
100
AcDbEntity
  8
0
100
AcDbVertex
100
AcDb2dVertex
 10
672.302110839606
 20
1280.270147324192
 30
0.0
  0
VERTEX
  5
E59
330
E1D
100
AcDbEntity
  8
0
100
AcDbVertex
100
AcDb2dVertex
 10
669.1237802834966
 20
1277.091816768083
 30
0.0
  0
VERTEX
  5
E5A
330
E1D
100
AcDbEntity
  8
0
100
AcDbVertex
100
AcDb2dVertex
 10
666.1591769448278
 20
1273.915209818567
 30
0.0
  0
VERTEX
  5
E5B
330
E1D
100
AcDbEntity
  8
0
100
AcDbVertex
100
AcDb2dVertex
 10
663.1945736061579
 20
1270.526599258204
 30
0.0
  0
VERTEX
  5
E5C
330
E1D
100
AcDbEntity
  8
0
100
AcDbVertex
100
AcDb2dVertex
 10
660.440250271743
 20
1267.137988697841
 30
0.0
  0
VERTEX
  5
E5D
330
E1D
100
AcDbEntity
  8
0
100
AcDbVertex
100
AcDb2dVertex
 10
657.8996541547667
 20
1263.749378137478
 30
0.0
  0
VERTEX
  5
E5E
330
E1D
100
AcDbEntity
  8
0
100
AcDbVertex
100
AcDb2dVertex
 10
655.3573344311989
 20
1260.148763966268
 30
0.0
  0
VERTEX
  5
E5F
330
E1D
100
AcDbEntity
  8
0
100
AcDbVertex
100
AcDb2dVertex
 10
653.0270183184766
 20
1256.548149795058
 30
0.0
  0
VERTEX
  5
E60
330
E1D
100
AcDbEntity
  8
0
100
AcDbVertex
100
AcDb2dVertex
 10
650.6984258123475
 20
1252.735532013002
 30
0.0
  0
VERTEX
  5
E61
330
E1D
100
AcDbEntity
  8
0
100
AcDbVertex
100
AcDb2dVertex
 10
644.9794991392622
 20
1241.299402273425
 30
0.0
  0
VERTEX
  5
E62
330
E1D
100
AcDbEntity
  8
0
100
AcDbVertex
100
AcDb2dVertex
 10
643.4971974699283
 20
1237.274780880521
 30
0.0
  0
VERTEX
  5
E63
330
E1D
100
AcDbEntity
  8
0
100
AcDbVertex
100
AcDb2dVertex
 10
642.0148958005929
 20
1233.462163098465
 30
0.0
  0
VERTEX
  5
E64
330
E1D
100
AcDbEntity
  8
0
100
AcDbVertex
100
AcDb2dVertex
 10
640.7428741355134
 20
1229.437541705562
 30
0.0
  0
VERTEX
  5
E65
330
E1D
100
AcDbEntity
  8
0
100
AcDbVertex
100
AcDb2dVertex
 10
639.4725760770243
 20
1225.202640308404
 30
0.0
  0
VERTEX
  5
E66
330
E1D
100
AcDbEntity
  8
0
100
AcDbVertex
100
AcDb2dVertex
 10
637.7782707968435
 20
1217.153397522597
 30
0.0
  0
VERTEX
  5
E67
330
E1D
100
AcDbEntity
  8
0
100
AcDbVertex
100
AcDb2dVertex
 10
637.1422599643032
 20
1212.91849612544
 30
0.0
  0
VERTEX
  5
E68
330
E1D
100
AcDbEntity
  8
0
100
AcDbVertex
100
AcDb2dVertex
 10
636.5079727383545
 20
1208.893874732537
 30
0.0
  0
VERTEX
  5
E69
330
E1D
100
AcDbEntity
  8
0
100
AcDbVertex
100
AcDb2dVertex
 10
636.0839655166619
 20
1200.422348331629
 30
0.0
  0
VERTEX
  5
E6A
330
E1D
100
AcDbEntity
  8
0
100
AcDbVertex
100
AcDb2dVertex
 10
636.0839655166619
 20
1196.185723327879
 30
0.0
  0
VERTEX
  5
E6B
330
E1D
100
AcDbEntity
  8
0
100
AcDbVertex
100
AcDb2dVertex
 10
636.2959691275082
 20
1192.162825541568
 30
0.0
  0
VERTEX
  5
E6C
330
E1D
100
AcDbEntity
  8
0
100
AcDbVertex
100
AcDb2dVertex
 10
636.5079727383545
 20
1187.926200537819
 30
0.0
  0
SEQEND
  5
E6D
330
E1D
100
AcDbEntity
  8
0
  0
ELLIPSE
  5
EA1
330
1F
100
AcDbEntity
  8
hat
  6
PHANTOM2
 62
     0
 48
0.2
370
     0
100
AcDbEllipse
 10
776.0821873655568
 20
1357.499584406817
 30
0.0
 11
15.99744629378347
 21
0.0
 31
0.0
210
0.0
220
0.0
230
1.0
 40
0.9814111148659915
 41
0.0
 42
6.283185307179586
  0
ENDSEC
  0
SECTION
  2
OBJECTS
  0
DICTIONARY
  5
C
330
0
100
AcDbDictionary
281
     1
  3
ACAD_2007HEADERVARS_RT
350
ED3
  3
ACAD_COLOR
350
C9
  3
ACAD_GROUP
350
D
  3
ACAD_LAYOUT
350
1A
  3
ACAD_MATERIAL
350
C8
  3
ACAD_MLEADERSTYLE
350
2EC
  3
ACAD_MLINESTYLE
350
17
  3
ACAD_PLOTSETTINGS
350
19
  3
ACAD_PLOTSTYLENAME
350
E
  3
ACAD_SCALELIST
350
2CA
  3
ACAD_TABLESTYLE
350
123
  3
ACAD_VISUALSTYLE
350
296
  3
ACDB_RECOMPOSE_DATA
350
30D
  3
AcDbVariableDictionary
350
9E
  3
AcmDictionary
350
63
  3
AcmSystemVariableManager
350
EE1
  3
AMG
350
49
  3
AMGSNAPSETTINGS
350
56B
  3
DWGPROPS
350
ED2
  0
DICTIONARY
  5
EB4
330
10
100
AcDbDictionary
280
     1
281
     1
  3
ADSK_XREC_LAYER_RECONCILED
360
EB5
  0
DICTIONARY
  5
38D
330
38C
100
AcDbDictionary
280
     1
281
     1
  3
ADSK_XREC_LAYER_RECONCILED
360
EB6
  0
DICTIONARY
  5
99
330
1F
100
AcDbDictionary
280
     1
281
     1
  0
DICTIONARY
  5
ED3
102
{ACAD_REACTORS
330
C
102
}
330
C
100
AcDbDictionary
281
     1
  3
DIMARCSYM
350
ED4
  3
DIMLTEX1
350
ED6
  3
DIMLTEX2
350
ED7
  3
DIMLTYPE
350
ED5
  0
DICTIONARY
  5
C9
102
{ACAD_REACTORS
330
C
102
}
330
C
100
AcDbDictionary
281
     1
  0
DICTIONARY
  5
D
102
{ACAD_REACTORS
330
C
102
}
330
C
100
AcDbDictionary
281
     1
  0
DICTIONARY
  5
1A
102
{ACAD_REACTORS
330
C
102
}
330
C
100
AcDbDictionary
281
     1
  3
Layout1
350
1E
  3
Layout2
350
26
  3
Model
350
22
  0
DICTIONARY
  5
C8
102
{ACAD_REACTORS
330
C
102
}
330
C
100
AcDbDictionary
281
     1
  3
ByBlock
350
294
  3
ByLayer
350
293
  3
Global
350
295
  0
DICTIONARY
  5
2EC
102
{ACAD_REACTORS
330
C
102
}
330
C
100
AcDbDictionary
281
     1
  3
Standard
350
2ED
  0
DICTIONARY
  5
17
102
{ACAD_REACTORS
330
C
102
}
330
C
100
AcDbDictionary
281
     1
  3
Standard
350
18
  0
DICTIONARY
  5
19
102
{ACAD_REACTORS
330
C
102
}
330
C
100
AcDbDictionary
281
     1
  0
ACDBDICTIONARYWDFLT
  5
E
102
{ACAD_REACTORS
330
C
102
}
330
C
100
AcDbDictionary
281
     1
  3
Normal
350
F
100
AcDbDictionaryWithDefault
340
F
  0
DICTIONARY
  5
2CA
102
{ACAD_REACTORS
330
C
102
}
330
C
100
AcDbDictionary
281
     1
  3
A0
350
2CB
  3
A1
350
2CC
  3
A2
350
2CD
  3
A3
350
2CE
  3
A4
350
2CF
  3
A5
350
2D0
  3
A6
350
2D1
  3
A7
350
2D2
  3
A8
350
2D3
  3
A9
350
2D4
  3
B0
350
2D5
  3
B1
350
2D6
  3
B2
350
2D7
  3
B3
350
2D8
  3
B4
350
2D9
  3
B5
350
2DA
  3
B6
350
2DB
  3
B7
350
2DC
  3
B8
350
2DD
  3
B9
350
2DE
  3
C0
350
2DF
  3
C1
350
2E0
  3
C2
350
2E1
  3
C3
350
2E2
  3
C4
350
2E3
  3
C5
350
2E4
  3
C6
350
2E5
  3
C7
350
2E6
  3
C8
350
2E7
  3
C9
350
2E8
  3
D0
350
2E9
  3
D1
350
2EA
  3
D2
350
2EB
  0
DICTIONARY
  5
123
102
{ACAD_REACTORS
330
C
102
}
330
C
100
AcDbDictionary
281
     1
  3
Standard
350
124
  0
DICTIONARY
  5
296
102
{ACAD_REACTORS
330
C
102
}
330
C
100
AcDbDictionary
281
     1
  3
2dWireframe
350
29C
  3
3D Hidden
350
29E
  3
3dWireframe
350
29D
  3
Basic
350
29B
  3
Brighten
350
2A2
  3
ColorChange
350
2A6
  3
Conceptual
350
29F
  3
Dim
350
2A1
  3
Facepattern
350
2A5
  3
Flat
350
297
  3
FlatWithEdges
350
298
  3
Gouraud
350
299
  3
GouraudWithEdges
350
29A
  3
Linepattern
350
2A4
  3
Realistic
350
2A0
  3
Thicken
350
2A3
  0
XRECORD
  5
30D
102
{ACAD_REACTORS
330
C
102
}
330
C
100
AcDbXrecord
280
     1
 90
        1
330
124
  0
DICTIONARY
  5
9E
102
{ACAD_REACTORS
330
C
102
}
330
C
100
AcDbDictionary
281
     1
  3
CANNOSCALE
350
310
  3
CMLEADERSTYLE
350
30E
  3
CTABLESTYLE
350
144
  3
DIMASSOC
350
A0
  3
INDEXCTL
350
9F
  3
LAYEREVAL
350
36B
  3
LAYERNOTIFY
350
36C
  3
LIGHTINGUNITS
350
311
  3
MSLTSCALE
350
30F
  3
SORTENTS
350
ED0
  0
DICTIONARY
  5
63
102
{ACAD_REACTORS
330
C
102
}
330
C
100
AcDbDictionary
281
     1
  3
AcmStdDictionary
350
69
  3
AMDTSECTSYM_ARROWCOLOR
350
12C
  0
DICTIONARY
  5
49
102
{ACAD_REACTORS
330
C
102
}
330
C
100
AcDbDictionary
281
     1
  0
DICTIONARY
  5
56B
102
{ACAD_REACTORS
330
C
102
}
330
C
100
AcDbDictionary
281
     1
  0
XRECORD
  5
ED2
102
{ACAD_REACTORS
330
C
102
}
330
C
100
AcDbXrecord
280
     1
  1
DWGPROPS COOKIE
  2

  3

  4

  6

  7

  8
ko59342
  9

300
AmdtFileType=84
301
=
302
=
303
=
304
=
305
=
306
=
307
=
308
=
309
=
 40
0.000517037037037
 41
2455323.584974005
 42
2455323.585490857
  1

 90
        1
  0
XRECORD
  5
EB5
102
{ACAD_REACTORS
330
EB4
102
}
330
EB4
100
AcDbXrecord
280
     1
290
     1
  0
XRECORD
  5
EB6
102
{ACAD_REACTORS
330
38D
102
}
330
38D
100
AcDbXrecord
280
     1
290
     1
  0
XRECORD
  5
ED4
102
{ACAD_REACTORS
330
ED3
102
}
330
ED3
100
AcDbXrecord
280
     1
 70
     1
  0
XRECORD
  5
ED6
102
{ACAD_REACTORS
330
ED3
102
}
330
ED3
100
AcDbXrecord
280
     1
340
14
  0
XRECORD
  5
ED7
102
{ACAD_REACTORS
330
ED3
102
}
330
ED3
100
AcDbXrecord
280
     1
340
14
  0
XRECORD
  5
ED5
102
{ACAD_REACTORS
330
ED3
102
}
330
ED3
100
AcDbXrecord
280
     1
340
14
  0
LAYOUT
  5
1E
102
{ACAD_XDICTIONARY
360
ED8
102
}
102
{ACAD_REACTORS
330
1A
102
}
330
1A
100
AcDbPlotSettings
  1

  2

  4

  6

 40
0.0
 41
0.0
 42
0.0
 43
0.0
 44
0.0
 45
0.0
 46
0.0
 47
0.0
 48
0.0
 49
0.0
140
0.0
141
0.0
142
1.0
143
1.0
 70
   688
 72
     0
 73
     0
 74
     5
  7

 75
    16
147
1.0
148
0.0
149
0.0
100
AcDbLayout
  1
Layout1
 70
     1
 71
     1
 10
0.0
 20
0.0
 11
12.0
 21
9.0
 12
0.0
 22
0.0
 32
0.0
 14
1.000000000000000E+20
 24
1.000000000000000E+20
 34
1.000000000000000E+20
 15
-1.000000000000000E+20
 25
-1.000000000000000E+20
 35
-1.000000000000000E+20
146
0.0
 13
0.0
 23
0.0
 33
0.0
 16
1.0
 26
0.0
 36
0.0
 17
0.0
 27
1.0
 37
0.0
 76
     0
330
1B
  0
LAYOUT
  5
26
102
{ACAD_XDICTIONARY
360
EDC
102
}
102
{ACAD_REACTORS
330
1A
102
}
330
1A
100
AcDbPlotSettings
  1

  2

  4

  6

 40
0.0
 41
0.0
 42
0.0
 43
0.0
 44
0.0
 45
0.0
 46
0.0
 47
0.0
 48
0.0
 49
0.0
140
0.0
141
0.0
142
1.0
143
1.0
 70
   688
 72
     0
 73
     0
 74
     5
  7

 75
    16
147
1.0
148
0.0
149
0.0
100
AcDbLayout
  1
Layout2
 70
     1
 71
     2
 10
0.0
 20
0.0
 11
12.0
 21
9.0
 12
0.0
 22
0.0
 32
0.0
 14
0.0
 24
0.0
 34
0.0
 15
0.0
 25
0.0
 35
0.0
146
0.0
 13
0.0
 23
0.0
 33
0.0
 16
1.0
 26
0.0
 36
0.0
 17
0.0
 27
1.0
 37
0.0
 76
     0
330
23
  0
LAYOUT
  5
22
102
{ACAD_XDICTIONARY
360
EDA
102
}
102
{ACAD_REACTORS
330
1A
102
}
330
1A
100
AcDbPlotSettings
  1

  2

  4

  6

 40
0.0
 41
0.0
 42
0.0
 43
0.0
 44
0.0
 45
0.0
 46
0.0
 47
0.0
 48
0.0
 49
0.0
140
0.0
141
0.0
142
1.0
143
1.0
 70
  1712
 72
     0
 73
     0
 74
     0
  7

 75
     0
147
1.0
148
0.0
149
0.0
100
AcDbLayout
  1
Model
 70
     1
 71
     0
 10
0.0
 20
0.0
 11
12.0
 21
9.0
 12
0.0
 22
0.0
 32
0.0
 14
0.0
 24
0.0
 34
0.0
 15
0.0
 25
0.0
 35
0.0
146
0.0
 13
0.0
 23
0.0
 33
0.0
 16
1.0
 26
0.0
 36
0.0
 17
0.0
 27
1.0
 37
0.0
 76
     0
330
1F
331
291
  0
MATERIAL
  5
294
102
{ACAD_XDICTIONARY
360
EE6
102
}
102
{ACAD_REACTORS
330
C8
102
}
330
C8
100
AcDbMaterial
  1
ByBlock
 73
     1
 78
     1
172
     1
176
     1
270
     1
274
     1
  0
MATERIAL
  5
293
102
{ACAD_XDICTIONARY
360
EE4
102
}
102
{ACAD_REACTORS
330
C8
102
}
330
C8
100
AcDbMaterial
  1
ByLayer
 73
     1
 78
     1
172
     1
176
     1
270
     1
274
     1
  0
MATERIAL
  5
295
102
{ACAD_XDICTIONARY
360
EE8
102
}
102
{ACAD_REACTORS
330
C8
102
}
330
C8
100
AcDbMaterial
  1
Global
 73
     1
 78
     1
172
     1
176
     1
270
     1
274
     1
  0
MLEADERSTYLE
  5
2ED
102
{ACAD_REACTORS
330
2EC
102
}
330
2EC
100
AcDbMLeaderStyle
170
     2
171
     1
172
     0
 90
        2
 40
0.0
 41
0.0
173
     1
 91
-1056964608
340
14
 92
       -2
290
     1
 42
0.09
291
     1
 43
0.36
  3
Standard
 44
0.18
300

342
11
174
     1
178
     6
175
     1
176
     0
 93
-1056964608
 45
0.18
292
     0
297
     0
 46
0.18
 94
-1056964608
 47
1.0
 49
1.0
140
1.0
293
     1
141
0.0
294
     1
177
     0
142
1.0
295
     0
296
     0
143
0.125
1001
ACAD_MLEADERVER
1070
     2
  0
MLINESTYLE
  5
18
102
{ACAD_REACTORS
330
17
102
}
330
17
100
AcDbMlineStyle
  2
STANDARD
 70
     0
  3

 62
   256
 51
90.0
 52
90.0
 71
     2
 49
0.5
 62
   256
  6
BYLAYER
 49
-0.5
 62
   256
  6
BYLAYER
  0
ACDBPLACEHOLDER
  5
F
102
{ACAD_REACTORS
330
E
102
}
330
E
  0
SCALE
  5
2CB
102
{ACAD_REACTORS
330
2CA
102
}
330
2CA
100
AcDbScale
 70
     0
300
1:1
140
1.0
141
1.0
290
     1
  0
SCALE
  5
2CC
102
{ACAD_REACTORS
330
2CA
102
}
330
2CA
100
AcDbScale
 70
     0
300
1:2
140
1.0
141
2.0
290
     0
  0
SCALE
  5
2CD
102
{ACAD_REACTORS
330
2CA
102
}
330
2CA
100
AcDbScale
 70
     0
300
1:4
140
1.0
141
4.0
290
     0
  0
SCALE
  5
2CE
102
{ACAD_REACTORS
330
2CA
102
}
330
2CA
100
AcDbScale
 70
     0
300
1:5
140
1.0
141
5.0
290
     0
  0
SCALE
  5
2CF
102
{ACAD_REACTORS
330
2CA
102
}
330
2CA
100
AcDbScale
 70
     0
300
1:8
140
1.0
141
8.0
290
     0
  0
SCALE
  5
2D0
102
{ACAD_REACTORS
330
2CA
102
}
330
2CA
100
AcDbScale
 70
     0
300
1:10
140
1.0
141
10.0
290
     0
  0
SCALE
  5
2D1
102
{ACAD_REACTORS
330
2CA
102
}
330
2CA
100
AcDbScale
 70
     0
300
1:16
140
1.0
141
16.0
290
     0
  0
SCALE
  5
2D2
102
{ACAD_REACTORS
330
2CA
102
}
330
2CA
100
AcDbScale
 70
     0
300
1:20
140
1.0
141
20.0
290
     0
  0
SCALE
  5
2D3
102
{ACAD_REACTORS
330
2CA
102
}
330
2CA
100
AcDbScale
 70
     0
300
1:30
140
1.0
141
30.0
290
     0
  0
SCALE
  5
2D4
102
{ACAD_REACTORS
330
2CA
102
}
330
2CA
100
AcDbScale
 70
     0
300
1:40
140
1.0
141
40.0
290
     0
  0
SCALE
  5
2D5
102
{ACAD_REACTORS
330
2CA
102
}
330
2CA
100
AcDbScale
 70
     0
300
1:50
140
1.0
141
50.0
290
     0
  0
SCALE
  5
2D6
102
{ACAD_REACTORS
330
2CA
102
}
330
2CA
100
AcDbScale
 70
     0
300
1:100
140
1.0
141
100.0
290
     0
  0
SCALE
  5
2D7
102
{ACAD_REACTORS
330
2CA
102
}
330
2CA
100
AcDbScale
 70
     0
300
2:1
140
2.0
141
1.0
290
     0
  0
SCALE
  5
2D8
102
{ACAD_REACTORS
330
2CA
102
}
330
2CA
100
AcDbScale
 70
     0
300
4:1
140
4.0
141
1.0
290
     0
  0
SCALE
  5
2D9
102
{ACAD_REACTORS
330
2CA
102
}
330
2CA
100
AcDbScale
 70
     0
300
8:1
140
8.0
141
1.0
290
     0
  0
SCALE
  5
2DA
102
{ACAD_REACTORS
330
2CA
102
}
330
2CA
100
AcDbScale
 70
     0
300
10:1
140
10.0
141
1.0
290
     0
  0
SCALE
  5
2DB
102
{ACAD_REACTORS
330
2CA
102
}
330
2CA
100
AcDbScale
 70
     0
300
100:1
140
100.0
141
1.0
290
     0
  0
SCALE
  5
2DC
102
{ACAD_REACTORS
330
2CA
102
}
330
2CA
100
AcDbScale
 70
     0
300
1/128" = 1'-0"
140
0.0078125
141
12.0
290
     0
  0
SCALE
  5
2DD
102
{ACAD_REACTORS
330
2CA
102
}
330
2CA
100
AcDbScale
 70
     0
300
1/64" = 1'-0"
140
0.015625
141
12.0
290
     0
  0
SCALE
  5
2DE
102
{ACAD_REACTORS
330
2CA
102
}
330
2CA
100
AcDbScale
 70
     0
300
1/32" = 1'-0"
140
0.03125
141
12.0
290
     0
  0
SCALE
  5
2DF
102
{ACAD_REACTORS
330
2CA
102
}
330
2CA
100
AcDbScale
 70
     0
300
1/16" = 1'-0"
140
0.0625
141
12.0
290
     0
  0
SCALE
  5
2E0
102
{ACAD_REACTORS
330
2CA
102
}
330
2CA
100
AcDbScale
 70
     0
300
3/32" = 1'-0"
140
0.09375
141
12.0
290
     0
  0
SCALE
  5
2E1
102
{ACAD_REACTORS
330
2CA
102
}
330
2CA
100
AcDbScale
 70
     0
300
1/8" = 1'-0"
140
0.125
141
12.0
290
     0
  0
SCALE
  5
2E2
102
{ACAD_REACTORS
330
2CA
102
}
330
2CA
100
AcDbScale
 70
     0
300
3/16" = 1'-0"
140
0.1875
141
12.0
290
     0
  0
SCALE
  5
2E3
102
{ACAD_REACTORS
330
2CA
102
}
330
2CA
100
AcDbScale
 70
     0
300
1/4" = 1'-0"
140
0.25
141
12.0
290
     0
  0
SCALE
  5
2E4
102
{ACAD_REACTORS
330
2CA
102
}
330
2CA
100
AcDbScale
 70
     0
300
3/8" = 1'-0"
140
0.375
141
12.0
290
     0
  0
SCALE
  5
2E5
102
{ACAD_REACTORS
330
2CA
102
}
330
2CA
100
AcDbScale
 70
     0
300
1/2" = 1'-0"
140
0.5
141
12.0
290
     0
  0
SCALE
  5
2E6
102
{ACAD_REACTORS
330
2CA
102
}
330
2CA
100
AcDbScale
 70
     0
300
3/4" = 1'-0"
140
0.75
141
12.0
290
     0
  0
SCALE
  5
2E7
102
{ACAD_REACTORS
330
2CA
102
}
330
2CA
100
AcDbScale
 70
     0
300
1" = 1'-0"
140
1.0
141
12.0
290
     0
  0
SCALE
  5
2E8
102
{ACAD_REACTORS
330
2CA
102
}
330
2CA
100
AcDbScale
 70
     0
300
1-1/2" = 1'-0"
140
1.5
141
12.0
290
     0
  0
SCALE
  5
2E9
102
{ACAD_REACTORS
330
2CA
102
}
330
2CA
100
AcDbScale
 70
     0
300
3" = 1'-0"
140
3.0
141
12.0
290
     0
  0
SCALE
  5
2EA
102
{ACAD_REACTORS
330
2CA
102
}
330
2CA
100
AcDbScale
 70
     0
300
6" = 1'-0"
140
6.0
141
12.0
290
     0
  0
SCALE
  5
2EB
102
{ACAD_REACTORS
330
2CA
102
}
330
2CA
100
AcDbScale
 70
     0
300
1'-0" = 1'-0"
140
12.0
141
12.0
290
     0
  0
TABLESTYLE
  5
124
102
{ACAD_XDICTIONARY
360
30B
102
}
102
{ACAD_REACTORS
330
123
102
}
330
123
100
AcDbTableStyle
  3
Standard
 70
     0
 71
     0
 40
0.06
 41
0.06
280
     0
281
     0
  7
STANDARD
140
0.18
170
     2
 62
     0
 63
     7
283
     0
274
    -2
284
     1
 64
     0
275
    -2
285
     1
 65
     0
276
    -2
286
     1
 66
     0
277
    -2
287
     1
 67
     0
278
    -2
288
     1
 68
     0
279
    -2
289
     1
 69
     0
  7
STANDARD
140
0.25
170
     5
 62
     0
 63
     7
283
     0
274
    -2
284
     1
 64
     0
275
    -2
285
     1
 65
     0
276
    -2
286
     1
 66
     0
277
    -2
287
     1
 67
     0
278
    -2
288
     1
 68
     0
279
    -2
289
     1
 69
     0
  7
STANDARD
140
0.18
170
     5
 62
     0
 63
     7
283
     0
274
    -2
284
     1
 64
     0
275
    -2
285
     1
 65
     0
276
    -2
286
     1
 66
     0
277
    -2
287
     1
 67
     0
278
    -2
288
     1
 68
     0
279
    -2
289
     1
 69
     0
  0
VISUALSTYLE
  5
29C
102
{ACAD_REACTORS
330
296
102
}
330
296
100
AcDbVisualStyle
  2
2dWireframe
 70
     4
 71
     0
 72
     2
 73
     0
 90
        0
 40
-0.6
 41
-30.0
 62
     5
 63
     7
 74
     1
 91
        4
 64
     7
 65
   257
 75
     1
175
     1
 42
1.0
 92
        0
 66
   257
 43
1.0
 76
     1
 77
     6
 78
     2
 67
     7
 79
     5
170
     0
171
     0
290
     0
174
     0
 93
        1
 44
0.0
173
     0
291
     0
 45
0.0
1001
ACAD
1000
AcDbSavedByObjectVersion
1070
     0
  0
VISUALSTYLE
  5
29E
102
{ACAD_REACTORS
330
296
102
}
330
296
100
AcDbVisualStyle
  2
3D Hidden
 70
     6
 71
     1
 72
     2
 73
     2
 90
        0
 40
-0.6
 41
-30.0
 62
     5
 63
     7
 74
     2
 91
        2
 64
     7
 65
   257
 75
     2
175
     1
 42
40.0
 92
        0
 66
   257
 43
1.0
 76
     1
 77
     6
 78
     2
 67
     7
 79
     3
170
     0
171
     0
290
     0
174
     0
 93
        1
 44
0.0
173
     0
291
     0
 45
0.0
1001
ACAD
1000
AcDbSavedByObjectVersion
1070
     0
  0
VISUALSTYLE
  5
29D
102
{ACAD_REACTORS
330
296
102
}
330
296
100
AcDbVisualStyle
  2
3dWireframe
 70
     5
 71
     0
 72
     2
 73
     0
 90
        0
 40
-0.6
 41
-30.0
 62
     5
 63
     7
 74
     1
 91
        4
 64
     7
 65
   257
 75
     1
175
     1
 42
1.0
 92
        0
 66
   257
 43
1.0
 76
     1
 77
     6
 78
     2
 67
     7
 79
     5
170
     0
171
     0
290
     0
174
     0
 93
        1
 44
0.0
173
     0
291
     0
 45
0.0
1001
ACAD
1000
AcDbSavedByObjectVersion
1070
     0
  0
VISUALSTYLE
  5
29B
102
{ACAD_REACTORS
330
296
102
}
330
296
100
AcDbVisualStyle
  2
Basic
 70
     7
 71
     1
 72
     0
 73
     1
 90
        0
 40
-0.6
 41
-30.0
 62
     5
 63
     7
 74
     0
 91
        4
 64
     7
 65
   257
 75
     1
175
     1
 42
1.0
 92
        8
 66
     7
 43
1.0
 76
     1
 77
     6
 78
     2
 67
     7
 79
     5
170
     0
171
     0
290
     0
174
     0
 93
        1
 44
0.0
173
     0
291
     1
 45
0.0
1001
ACAD
1000
AcDbSavedByObjectVersion
1070
     0
  0
VISUALSTYLE
  5
2A2
102
{ACAD_REACTORS
330
296
102
}
330
296
100
AcDbVisualStyle
  2
Brighten
 70
    12
 71
     2
 72
     2
 73
     0
 90
        0
 40
-0.6
 41
-30.0
 62
     5
 63
     7
 74
     1
 91
        4
 64
     7
 65
   257
 75
     1
175
     1
 42
1.0
 92
        8
 66
     7
 43
1.0
 76
     1
 77
     6
 78
     2
 67
     7
 79
     5
170
     0
171
     0
290
     0
174
     0
 93
        1
 44
50.0
173
     0
291
     1
 45
0.0
1001
ACAD
1000
AcDbSavedByObjectVersion
1070
     0
  0
VISUALSTYLE
  5
2A6
102
{ACAD_REACTORS
330
296
102
}
330
296
100
AcDbVisualStyle
  2
ColorChange
 70
    16
 71
     2
 72
     2
 73
     3
 90
        0
 40
-0.6
 41
-30.0
 62
     5
 63
     8
 74
     1
 91
        4
 64
     7
 65
   257
 75
     1
175
     1
 42
1.0
 92
        8
 66
     8
 43
1.0
 76
     1
 77
     6
 78
     2
 67
     7
 79
     5
170
     0
171
     0
290
     0
174
     0
 93
        1
 44
0.0
173
     0
291
     1
 45
0.0
1001
ACAD
1000
AcDbSavedByObjectVersion
1070
     0
  0
VISUALSTYLE
  5
29F
102
{ACAD_REACTORS
330
296
102
}
330
296
100
AcDbVisualStyle
  2
Conceptual
 70
     9
 71
     3
 72
     2
 73
     0
 90
        0
 40
-0.6
 41
-30.0
 62
     5
 63
     7
 74
     2
 91
        2
 64
     7
 65
   257
 75
     1
175
     1
 42
40.0
 92
        8
 66
     7
 43
1.0
 76
     1
 77
     6
 78
     2
 67
     7
 79
     3
170
     0
171
     0
290
     0
174
     0
 93
        1
 44
0.0
173
     0
291
     0
 45
0.0
1001
ACAD
1000
AcDbSavedByObjectVersion
1070
     0
  0
VISUALSTYLE
  5
2A1
102
{ACAD_REACTORS
330
296
102
}
330
296
100
AcDbVisualStyle
  2
Dim
 70
    11
 71
     2
 72
     2
 73
     0
 90
        0
 40
-0.6
 41
-30.0
 62
     5
 63
     7
 74
     1
 91
        4
 64
     7
 65
   257
 75
     1
175
     1
 42
1.0
 92
        8
 66
     7
 43
1.0
 76
     1
 77
     6
 78
     2
 67
     7
 79
     5
170
     0
171
     0
290
     0
174
     0
 93
        1
 44
-50.0
173
     0
291
     1
 45
0.0
1001
ACAD
1000
AcDbSavedByObjectVersion
1070
     0
  0
VISUALSTYLE
  5
2A5
102
{ACAD_REACTORS
330
296
102
}
330
296
100
AcDbVisualStyle
  2
Facepattern
 70
    15
 71
     2
 72
     2
 73
     0
 90
        0
 40
-0.6
 41
-30.0
 62
     5
 63
     7
 74
     1
 91
        4
 64
     7
 65
   257
 75
     1
175
     1
 42
1.0
 92
        8
 66
     7
 43
1.0
 76
     1
 77
     6
 78
     2
 67
     7
 79
     5
170
     0
171
     0
290
     0
174
     0
 93
        1
 44
0.0
173
     0
291
     1
 45
0.0
1001
ACAD
1000
AcDbSavedByObjectVersion
1070
     0
  0
VISUALSTYLE
  5
297
102
{ACAD_REACTORS
330
296
102
}
330
296
100
AcDbVisualStyle
  2
Flat
 70
     0
 71
     2
 72
     1
 73
     1
 90
        2
 40
-0.6
 41
30.0
 62
     5
 63
     7
 74
     0
 91
        4
 64
     7
 65
   257
 75
     1
175
     1
 42
1.0
 92
        8
 66
     7
 43
1.0
 76
     1
 77
     6
 78
     2
 67
     7
 79
     5
170
     0
171
     0
290
     0
174
     0
 93
       13
 44
0.0
173
     0
291
     1
 45
0.0
1001
ACAD
1000
AcDbSavedByObjectVersion
1070
     0
  0
VISUALSTYLE
  5
298
102
{ACAD_REACTORS
330
296
102
}
330
296
100
AcDbVisualStyle
  2
FlatWithEdges
 70
     1
 71
     2
 72
     1
 73
     1
 90
        2
 40
-0.6
 41
30.0
 62
     5
 63
     7
 74
     1
 91
        4
 64
     7
 65
   257
 75
     1
175
     1
 42
1.0
 92
        0
 66
   257
 43
1.0
 76
     1
 77
     6
 78
     2
 67
     7
 79
     5
170
     0
171
     0
290
     0
174
     0
 93
       13
 44
0.0
173
     0
291
     1
 45
0.0
1001
ACAD
1000
AcDbSavedByObjectVersion
1070
     0
  0
VISUALSTYLE
  5
299
102
{ACAD_REACTORS
330
296
102
}
330
296
100
AcDbVisualStyle
  2
Gouraud
 70
     2
 71
     2
 72
     2
 73
     1
 90
        2
 40
-0.6
 41
30.0
 62
     5
 63
     7
 74
     0
 91
        4
 64
     7
 65
   257
 75
     1
175
     1
 42
1.0
 92
        0
 66
     7
 43
1.0
 76
     1
 77
     6
 78
     2
 67
     7
 79
     5
170
     0
171
     0
290
     0
174
     0
 93
       13
 44
0.0
173
     0
291
     1
 45
0.0
1001
ACAD
1000
AcDbSavedByObjectVersion
1070
     0
  0
VISUALSTYLE
  5
29A
102
{ACAD_REACTORS
330
296
102
}
330
296
100
AcDbVisualStyle
  2
GouraudWithEdges
 70
     3
 71
     2
 72
     2
 73
     1
 90
        2
 40
-0.6
 41
30.0
 62
     5
 63
     7
 74
     1
 91
        4
 64
     7
 65
   257
 75
     1
175
     1
 42
1.0
 92
        0
 66
   257
 43
1.0
 76
     1
 77
     6
 78
     2
 67
     7
 79
     5
170
     0
171
     0
290
     0
174
     0
 93
       13
 44
0.0
173
     0
291
     1
 45
0.0
1001
ACAD
1000
AcDbSavedByObjectVersion
1070
     0
  0
VISUALSTYLE
  5
2A4
102
{ACAD_REACTORS
330
296
102
}
330
296
100
AcDbVisualStyle
  2
Linepattern
 70
    14
 71
     2
 72
     2
 73
     0
 90
        0
 40
-0.6
 41
-30.0
 62
     5
 63
     7
 74
     1
 91
        4
 64
     7
 65
   257
 75
     7
175
     7
 42
1.0
 92
        8
 66
     7
 43
1.0
 76
     1
 77
     6
 78
     2
 67
     7
 79
     5
170
     0
171
     0
290
     0
174
     0
 93
        1
 44
0.0
173
     0
291
     1
 45
0.0
1001
ACAD
1000
AcDbSavedByObjectVersion
1070
     0
  0
VISUALSTYLE
  5
2A0
102
{ACAD_REACTORS
330
296
102
}
330
296
100
AcDbVisualStyle
  2
Realistic
 70
     8
 71
     2
 72
     2
 73
     0
 90
        0
 40
-0.6
 41
-30.0
 62
     5
 63
     7
 74
     1
 91
        0
 64
     7
 65
   257
 75
     1
175
     1
 42
1.0
 92
        8
 66
     8
 43
1.0
 76
     1
 77
     6
 78
     2
 67
     7
 79
     5
170
     0
171
     0
290
     0
174
     0
 93
       13
 44
0.0
173
     0
291
     0
 45
0.0
1001
ACAD
1000
AcDbSavedByObjectVersion
1070
     0
  0
VISUALSTYLE
  5
2A3
102
{ACAD_REACTORS
330
296
102
}
330
296
100
AcDbVisualStyle
  2
Thicken
 70
    13
 71
     2
 72
     2
 73
     0
 90
        0
 40
-0.6
 41
-30.0
 62
     5
 63
     7
 74
     1
 91
        4
 64
     7
 65
   257
 75
     1
175
     1
 42
1.0
 92
       12
 66
     7
 43
1.0
 76
     1
 77
     6
 78
     2
 67
     7
 79
     5
170
     0
171
     0
290
     0
174
     0
 93
        1
 44
0.0
173
     0
291
     1
 45
0.0
1001
ACAD
1000
AcDbSavedByObjectVersion
1070
     0
  0
DICTIONARYVAR
  5
310
102
{ACAD_REACTORS
330
9E
102
}
330
9E
100
DictionaryVariables
280
     0
  1
1:1
  0
DICTIONARYVAR
  5
30E
102
{ACAD_REACTORS
330
9E
102
}
330
9E
100
DictionaryVariables
280
     0
  1
STANDARD
  0
DICTIONARYVAR
  5
144
102
{ACAD_REACTORS
330
9E
102
}
330
9E
100
DictionaryVariables
280
     0
  1
STANDARD
  0
DICTIONARYVAR
  5
A0
102
{ACAD_REACTORS
330
9E
102
}
330
9E
100
DictionaryVariables
280
     0
  1
2
  0
DICTIONARYVAR
  5
9F
102
{ACAD_REACTORS
330
9E
102
}
330
9E
100
DictionaryVariables
280
     0
  1
0
  0
DICTIONARYVAR
  5
36B
102
{ACAD_REACTORS
330
9E
102
}
330
9E
100
DictionaryVariables
280
     0
  1
1
  0
DICTIONARYVAR
  5
36C
102
{ACAD_REACTORS
330
9E
102
}
330
9E
100
DictionaryVariables
280
     0
  1
15
  0
DICTIONARYVAR
  5
311
102
{ACAD_REACTORS
330
9E
102
}
330
9E
100
DictionaryVariables
280
     0
  1
0
  0
DICTIONARYVAR
  5
30F
102
{ACAD_REACTORS
330
9E
102
}
330
9E
100
DictionaryVariables
280
     0
  1
0
  0
DICTIONARYVAR
  5
ED0
102
{ACAD_REACTORS
330
9E
102
}
330
9E
100
DictionaryVariables
280
     0
  1
127
  0
DICTIONARY
  5
69
102
{ACAD_REACTORS
330
63
102
}
330
63
100
AcDbDictionary
281
     1
  0
XRECORD
  5
12C
102
{ACAD_REACTORS
330
63
102
}
330
63
100
AcDbXrecord
280
     1
 90
-1023410169
  0
DICTIONARY
  5
ED8
330
1E
100
AcDbDictionary
280
     1
281
     1
  3
ACAD_XREC_ROUNDTRIP
360
ED9
  0
DICTIONARY
  5
EDC
330
26
100
AcDbDictionary
280
     1
281
     1
  3
ACAD_XREC_ROUNDTRIP
360
EDD
  0
DICTIONARY
  5
EDA
330
22
100
AcDbDictionary
280
     1
281
     1
  3
ACAD_XREC_ROUNDTRIP
360
EDB
  0
DICTIONARY
  5
EE6
330
294
100
AcDbDictionary
280
     1
281
     1
  3
ACAD_XREC_ROUNDTRIP
360
EE7
  0
DICTIONARY
  5
EE4
330
293
100
AcDbDictionary
280
     1
281
     1
  3
ACAD_XREC_ROUNDTRIP
360
EE5
  0
DICTIONARY
  5
EE8
330
295
100
AcDbDictionary
280
     1
281
     1
  3
ACAD_XREC_ROUNDTRIP
360
EE9
  0
DICTIONARY
  5
30B
330
124
100
AcDbDictionary
280
     1
281
     1
  3
ACAD_ROUNDTRIP_2008_TABLESTYLE_CELLSTYLEMAP
360
ED1
  3
ACAD_XREC_ROUNDTRIP
360
EE3
  0
XRECORD
  5
ED9
102
{ACAD_REACTORS
330
ED8
102
}
330
ED8
100
AcDbXrecord
280
     1
102
SHADEPLOT
 70
     0
102
SHADEPLOTRESLEVEL
 70
     2
102
SHADEPLOTCUSTOMDPI
 70
   300
  0
XRECORD
  5
EDD
102
{ACAD_REACTORS
330
EDC
102
}
330
EDC
100
AcDbXrecord
280
     1
102
SHADEPLOT
 70
     0
102
SHADEPLOTRESLEVEL
 70
     2
102
SHADEPLOTCUSTOMDPI
 70
   300
  0
XRECORD
  5
EDB
102
{ACAD_REACTORS
330
EDA
102
}
330
EDA
100
AcDbXrecord
280
     1
102
SHADEPLOT
 70
     0
102
SHADEPLOTRESLEVEL
 70
     2
102
SHADEPLOTCUSTOMDPI
 70
   300
  0
XRECORD
  5
EE7
102
{ACAD_REACTORS
330
EE6
102
}
330
EE6
100
AcDbXrecord
280
     1
102
MATERIAL
148
0.0
149
0.0
149
0.0
 93
        0
 94
       63
282
     0
 72
     1
 77
     1
171
     1
175
     1
179
     1
273
     0
  0
XRECORD
  5
EE5
102
{ACAD_REACTORS
330
EE4
102
}
330
EE4
100
AcDbXrecord
280
     1
102
MATERIAL
148
0.0
149
0.0
149
0.0
 93
        0
 94
       63
282
     0
 72
     1
 77
     1
171
     1
175
     1
179
     1
273
     0
  0
XRECORD
  5
EE9
102
{ACAD_REACTORS
330
EE8
102
}
330
EE8
100
AcDbXrecord
280
     1
102
MATERIAL
148
0.0
149
0.0
149
0.0
 93
        0
 94
       63
282
     0
 72
     1
 77
     1
171
     1
175
     1
179
     1
273
     0
  0
CELLSTYLEMAP
  5
ED1
102
{ACAD_REACTORS
330
30B
102
}
330
30B
100
AcDbCellStyleMap
 90
        3
300
CELLSTYLE
  1
TABLEFORMAT_BEGIN
 90
        5
170
     1
 91
        0
 92
    32768
 62
   257
 93
        1
300
CONTENTFORMAT
  1
CONTENTFORMAT_BEGIN
 90
        0
 91
        0
 92
      512
 93
        0
300

 40
0.0
140
1.0
 94
        5
 62
     0
340
11
144
0.25
309
CONTENTFORMAT_END
171
     0
 94
        6
 95
        1
302
GRIDFORMAT
  1
GRIDFORMAT_BEGIN
 90
        0
 91
        1
 62
     0
 92
       -2
340
0
 93
        0
 40
0.045
309
GRIDFORMAT_END
 95
        2
302
GRIDFORMAT
  1
GRIDFORMAT_BEGIN
 90
        0
 91
        1
 62
     0
 92
       -2
340
0
 93
        0
 40
0.045
309
GRIDFORMAT_END
 95
        4
302
GRIDFORMAT
  1
GRIDFORMAT_BEGIN
 90
        0
 91
        1
 62
     0
 92
       -2
340
0
 93
        0
 40
0.045
309
GRIDFORMAT_END
 95
        8
302
GRIDFORMAT
  1
GRIDFORMAT_BEGIN
 90
        0
 91
        1
 62
     0
 92
       -2
340
0
 93
        0
 40
0.045
309
GRIDFORMAT_END
 95
       16
302
GRIDFORMAT
  1
GRIDFORMAT_BEGIN
 90
        0
 91
        1
 62
     0
 92
       -2
340
0
 93
        0
 40
0.045
309
GRIDFORMAT_END
 95
       32
302
GRIDFORMAT
  1
GRIDFORMAT_BEGIN
 90
        0
 91
        1
 62
     0
 92
       -2
340
0
 93
        0
 40
0.045
309
GRIDFORMAT_END
309
TABLEFORMAT_END
  1
CELLSTYLE_BEGIN
 90
        1
 91
        1
300
_TITLE
309
CELLSTYLE_END
300
CELLSTYLE
  1
TABLEFORMAT_BEGIN
 90
        5
170
     1
 91
        0
 92
        0
 62
   257
 93
        1
300
CONTENTFORMAT
  1
CONTENTFORMAT_BEGIN
 90
        0
 91
        0
 92
      512
 93
        0
300

 40
0.0
140
1.0
 94
        5
 62
     0
340
11
144
0.18
309
CONTENTFORMAT_END
171
     0
 94
        6
 95
        1
302
GRIDFORMAT
  1
GRIDFORMAT_BEGIN
 90
        0
 91
        1
 62
     0
 92
       -2
340
0
 93
        0
 40
0.045
309
GRIDFORMAT_END
 95
        2
302
GRIDFORMAT
  1
GRIDFORMAT_BEGIN
 90
        0
 91
        1
 62
     0
 92
       -2
340
0
 93
        0
 40
0.045
309
GRIDFORMAT_END
 95
        4
302
GRIDFORMAT
  1
GRIDFORMAT_BEGIN
 90
        0
 91
        1
 62
     0
 92
       -2
340
0
 93
        0
 40
0.045
309
GRIDFORMAT_END
 95
        8
302
GRIDFORMAT
  1
GRIDFORMAT_BEGIN
 90
        0
 91
        1
 62
     0
 92
       -2
340
0
 93
        0
 40
0.045
309
GRIDFORMAT_END
 95
       16
302
GRIDFORMAT
  1
GRIDFORMAT_BEGIN
 90
        0
 91
        1
 62
     0
 92
       -2
340
0
 93
        0
 40
0.045
309
GRIDFORMAT_END
 95
       32
302
GRIDFORMAT
  1
GRIDFORMAT_BEGIN
 90
        0
 91
        1
 62
     0
 92
       -2
340
0
 93
        0
 40
0.045
309
GRIDFORMAT_END
309
TABLEFORMAT_END
  1
CELLSTYLE_BEGIN
 90
        2
 91
        1
300
_HEADER
309
CELLSTYLE_END
300
CELLSTYLE
  1
TABLEFORMAT_BEGIN
 90
        5
170
     1
 91
        0
 92
        0
 62
   257
 93
        1
300
CONTENTFORMAT
  1
CONTENTFORMAT_BEGIN
 90
        0
 91
        0
 92
      512
 93
        0
300

 40
0.0
140
1.0
 94
        2
 62
     0
340
11
144
0.18
309
CONTENTFORMAT_END
171
     0
 94
        6
 95
        1
302
GRIDFORMAT
  1
GRIDFORMAT_BEGIN
 90
        0
 91
        1
 62
     0
 92
       -2
340
0
 93
        0
 40
0.045
309
GRIDFORMAT_END
 95
        2
302
GRIDFORMAT
  1
GRIDFORMAT_BEGIN
 90
        0
 91
        1
 62
     0
 92
       -2
340
0
 93
        0
 40
0.045
309
GRIDFORMAT_END
 95
        4
302
GRIDFORMAT
  1
GRIDFORMAT_BEGIN
 90
        0
 91
        1
 62
     0
 92
       -2
340
0
 93
        0
 40
0.045
309
GRIDFORMAT_END
 95
        8
302
GRIDFORMAT
  1
GRIDFORMAT_BEGIN
 90
        0
 91
        1
 62
     0
 92
       -2
340
0
 93
        0
 40
0.045
309
GRIDFORMAT_END
 95
       16
302
GRIDFORMAT
  1
GRIDFORMAT_BEGIN
 90
        0
 91
        1
 62
     0
 92
       -2
340
0
 93
        0
 40
0.045
309
GRIDFORMAT_END
 95
       32
302
GRIDFORMAT
  1
GRIDFORMAT_BEGIN
 90
        0
 91
        1
 62
     0
 92
       -2
340
0
 93
        0
 40
0.045
309
GRIDFORMAT_END
309
TABLEFORMAT_END
  1
CELLSTYLE_BEGIN
 90
        3
 91
        2
300
_DATA
309
CELLSTYLE_END
  0
XRECORD
  5
EE3
102
{ACAD_REACTORS
330
30B
102
}
330
30B
100
AcDbXrecord
280
     1
102
ACAD_ROUNDTRIP_PRE2007_TABLESTYLE
 90
      512
 91
        0
  1

 92
      512
 93
        0
  2

 94
      512
 95
        0
  3

  0
ENDSEC
  0
EOF
