  0
SECTION
  2
HEADER
  9
$ACADVER
  1
AC1009
  9
$INSBASE
 10
0.0
 20
0.0
 30
0.0
  9
$EXTMIN
 10
-30.15533
 20
-15.155331
 30
0.0
  9
$EXTMAX
 10
30.15533
 20
15.155331
 30
0.0
  9
$LIMMIN
 10
0.0
 20
0.0
  9
$LIMMAX
 10
12.0
 20
9.0
  9
$ORTHOMODE
 70
     0
  9
$REGENMODE
 70
     1
  9
$FILLMODE
 70
     1
  9
$QTEXTMODE
 70
     0
  9
$MIRRTEXT
 70
     1
  9
$DRAGMODE
 70
     2
  9
$LTSCALE
 40
1.0
  9
$OSMODE
 70
     0
  9
$ATTMODE
 70
     1
  9
$TEXTSIZE
 40
0.001
  9
$TRACEWID
 40
0.05
  9
$TEXTSTYLE
  7
STANDARD
  9
$CLAYER
  8
0
  9
$CELTYPE
  6
BYLAYER
  9
$CECOLOR
 62
     7
  9
$DIMSCALE
 40
1.0
  9
$DIMASZ
 40
0.18
  9
$DIMEXO
 40
0.0625
  9
$DIMDLI
 40
0.38
  9
$DIMRND
 40
0.0
  9
$DIMDLE
 40
0.0
  9
$DIMEXE
 40
0.18
  9
$DIMTP
 40
0.0
  9
$DIMTM
 40
0.0
  9
$DIMTXT
 40
0.18
  9
$DIMCEN
 40
0.09
  9
$DIMTSZ
 40
0.0
  9
$DIMTOL
 70
     0
  9
$DIMLIM
 70
     0
  9
$DIMTIH
 70
     1
  9
$DIMTOH
 70
     1
  9
$DIMSE1
 70
     0
  9
$DIMSE2
 70
     0
  9
$DIMTAD
 70
     0
  9
$DIMZIN
 70
     0
  9
$DIMBLK
  1

  9
$DIMASO
 70
     1
  9
$DIMSHO
 70
     0
  9
$DIMPOST
  1

  9
$DIMAPOST
  1

  9
$DIMALT
 70
     0
  9
$DIMALTD
 70
     2
  9
$DIMALTF
 40
25.4
  9
$DIMLFAC
 40
1.0
  9
$DIMTOFL
 70
     0
  9
$DIMTVP
 40
0.0
  9
$DIMTIX
 70
     0
  9
$DIMSOXD
 70
     0
  9
$DIMSAH
 70
     0
  9
$DIMBLK1
  1

  9
$DIMBLK2
  1

  9
$DIMSTYLE
  2
*UNNAMED
  9
$DIMCLRD
 70
     0
  9
$DIMCLRE
 70
     0
  9
$DIMCLRT
 70
     0
  9
$DIMTFAC
 40
1.0
  9
$DIMGAP
 40
0.09
  9
$LUNITS
 70
     2
  9
$LUPREC
 70
     4
  9
$SKETCHINC
 40
0.1
  9
$FILLETRAD
 40
0.0
  9
$AUNITS
 70
     0
  9
$AUPREC
 70
     0
  9
$MENU
  1
acad
  9
$ELEVATION
 40
0.0
  9
$PELEVATION
 40
0.0
  9
$THICKNESS
 40
0.0
  9
$LIMCHECK
 70
     0
  9
$BLIPMODE
 70
     1
  9
$CHAMFERA
 40
0.0
  9
$CHAMFERB
 40
0.0
  9
$SKPOLY
 70
     0
  9
$TDCREATE
 40
2450953.417110763
  9
$TDUPDATE
 40
2450953.417110763
  9
$TDINDWG
 40
0.0000000000
  9
$TDUSRTIMER
 40
0.0000000000
  9
$USRTIMER
 70
     1
  9
$ANGBASE
 50
0.0
  9
$ANGDIR
 70
     0
  9
$PDMODE
 70
     0
  9
$PDSIZE
 40
0.0
  9
$PLINEWID
 40
0.0
  9
$COORDS
 70
     0
  9
$SPLFRAME
 70
     0
  9
$SPLINETYPE
 70
     6
  9
$SPLINESEGS
 70
     8
  9
$ATTDIA
 70
     0
  9
$ATTREQ
 70
     1
  9
$HANDLING
 70
     0
  9
$HANDSEED
  5
0
  9
$SURFTAB1
 70
     6
  9
$SURFTAB2
 70
     6
  9
$SURFTYPE
 70
     6
  9
$SURFU
 70
     6
  9
$SURFV
 70
     6
  9
$UCSNAME
  2

  9
$UCSORG
 10
0.0
 20
0.0
 30
0.0
  9
$UCSXDIR
 10
1.0
 20
0.0
 30
0.0
  9
$UCSYDIR
 10
0.0
 20
1.0
 30
0.0
  9
$PUCSNAME
  2

  9
$PUCSORG
 10
0.0
 20
0.0
 30
0.0
  9
$PUCSXDIR
 10
1.0
 20
0.0
 30
0.0
  9
$PUCSYDIR
 10
0.0
 20
1.0
 30
0.0
  9
$USERI1
 70
     0
  9
$USERI2
 70
     0
  9
$USERI3
 70
     0
  9
$USERI4
 70
     0
  9
$USERI5
 70
     0
  9
$USERR1
 40
0.0
  9
$USERR2
 40
0.0
  9
$USERR3
 40
0.0
  9
$USERR4
 40
0.0
  9
$USERR5
 40
0.0
  9
$WORLDVIEW
 70
     1
  9
$SHADEDGE
 70
     3
  9
$SHADEDIF
 70
    70
  9
$TILEMODE
 70
     1
  9
$MAXACTVP
 70
    16
  9
$PINSBASE
 10
0.0
 20
0.0
 30
0.0
  9
$PLIMCHECK
 70
     0
  9
$PEXTMIN
 10
1.000000E+20
 20
1.000000E+20
 30
1.000000E+20
  9
$PEXTMAX
 10
-1.000000E+20
 20
-1.000000E+20
 30
-1.000000E+20
  9
$PLIMMIN
 10
0.0
 20
0.0
  9
$PLIMMAX
 10
12.0
 20
9.0
  9
$UNITMODE
 70
     0
  9
$VISRETAIN
 70
     0
  9
$PLINEGEN
 70
     0
  9
$PSLTSCALE
 70
     0
  9
$TREEDEPTH
 70
  3020
  9
$DWGCODEPAGE
  3
undefined
  0
ENDSEC
  0
SECTION
  2
TABLES
  0
TABLE
  2
VPORT
 70
     2
  0
VPORT
  2
*ACTIVE
 70
     0
 10
0.0
 20
0.0
 11
1.0
 21
1.0
 12
2.639121
 22
5.570758
 13
0.0
 23
0.0
 14
1.0
 24
1.0
 15
0.0
 25
0.0
 16
0.0
 26
0.0
 36
1.0
 17
0.0
 27
0.0
 37
0.0
 40
45.712796
 41
1.573846
 42
50.0
 43
0.0
 44
0.0
 50
0.0
 51
0.0
 71
     0
 72
   100
 73
     1
 74
     1
 75
     0
 76
     0
 77
     0
 78
     0
  0
ENDTAB
  0
TABLE
  2
LTYPE
 70
     2
  0
LTYPE
  2
CONTINUOUS
 70
    64
  3
Solid line
 72
    65
 73
     0
 40
0.0
  0
LTYPE
  2
HIDDEN
 70
     0
  3
_ _ _ _ _ _ _ _ _ _ _ _ _ _ _ _ _ _ _ _ _ _ _
 72
    65
 73
     2
 40
0.375
 49
0.25
 49
-0.125
  0
ENDTAB
  0
TABLE
  2
LAYER
 70
     1
  0
LAYER
  2
0
 70
    64
 62
     7
  6
CONTINUOUS
  0
ENDTAB
  0
TABLE
  2
STYLE
 70
     1
  0
STYLE
  2
STANDARD
 70
    64
 40
0.0
 41
1.0
 50
0.0
 71
     0
 42
0.001
  3
txt
  4

  0
ENDTAB
  0
TABLE
  2
VIEW
 70
     0
  0
ENDTAB
  0
TABLE
  2
UCS
 70
     0
  0
ENDTAB
  0
TABLE
  2
APPID
 70
     1
  0
APPID
  2
ACAD
 70
    64
  0
ENDTAB
  0
TABLE
  2
DIMSTYLE
 70
     0
  0
ENDTAB
  0
ENDSEC
  0
SECTION
  2
BLOCKS
  0
ENDSEC
  0
SECTION
  2
ENTITIES
  0
LINE
  8
0
 10
-29.249996
 20
-15.0
 30
0.0
 11
29.249996
 21
-15.0
 31
0.0
  0
LINE
  8
0
 10
-30.0
 20
14.249996
 30
0.0
 11
-30.0
 21
-14.249996
 31
0.0
  0
LINE
  8
0
 10
29.249996
 20
15.0
 30
0.0
 11
-29.249996
 21
15.0
 31
0.0
  0
LINE
  8
0
 10
30.0
 20
-14.249996
 30
0.0
 11
30.0
 21
14.249996
 31
0.0
  0
ARC
  8
0
 10
-22.906186
 20
-11.518241
 30
0.0
 40
24.000007
 50
85.750721
 51
97.572158
  0
LINE
  8
0
 10
-21.12793
 20
-12.415787
 30
0.0
 11
-3.654226
 21
-11.117525
 31
0.0
  0
ARC
  8
0
 10
110.398324
 20
-0.000332
 30
0.0
 40
135.526017
 50
179.999828
 51
182.621065
  0
ARC
  8
0
 10
20.500001
 20
-11.532378
 30
0.0
 40
24.000002
 50
76.965165
 51
93.293244
  0
ARC
  8
0
 10
23.483107
 20
-11.194092
 30
0.0
 40
1.0
 50
277.477868
 51
344.928814
  0
ARC
  8
0
 10
-44.329784
 20
0.000008
 30
0.0
 40
71.892303
 50
354.612578
 51
5.38749
  0
ARC
  8
0
 10
-3.480727
 20
6.309687
 30
0.0
 40
23.999994
 50
167.516861
 51
180.000043
  0
ARC
  8
0
 10
-3.480728
 20
-6.309687
 30
0.0
 40
23.999993
 50
179.99997
 51
192.483139
  0
ARC
  8
0
 10
-46.914713
 20
0.000015
 30
0.0
 40
66.237776
 50
353.940308
 51
6.059627
  0
ARC
  8
0
 10
15.965789
 20
6.715073
 30
0.0
 40
3.0
 50
5.302673
 51
89.537092
  0
ARC
  8
0
 10
-21.988236
 20
6.079895
 30
0.0
 40
3.0
 50
92.424178
 51
177.743007
  0
ARC
  8
0
 10
110.398328
 20
0.00024
 30
0.0
 40
135.526006
 50
177.378648
 51
179.999886
  0
ARC
  8
0
 10
-21.988219
 20
-6.079896
 30
0.0
 40
3.0
 50
182.257318
 51
267.576015
  0
ARC
  8
0
 10
15.965804
 20
-6.715095
 30
0.0
 40
3.0
 50
270.462214
 51
354.697257
  0
ARC
  8
0
 10
16.758727
 20
-7.040275
 30
0.0
 40
3.0
 50
271.990824
 51
354.527027
  0
ARC
  8
0
 10
-104.417058
 20
5.012085
 30
0.0
 40
124.773658
 50
352.362974
 51
354.324938
  0
ARC
  8
0
 10
18.27324
 20
-11.330734
 30
0.0
 40
1.0
 50
268.456783
 51
352.250566
  0
ARC
  8
0
 10
-25.803331
 20
-8.300773
 30
0.0
 40
1.499999
 50
185.434136
 51
267.566112
  0
ARC
  8
0
 10
-25.812988
 20
8.312041
 30
0.0
 40
1.500001
 50
92.424149
 51
174.556496
  0
ARC
  8
0
 10
110.421606
 20
0.00624
 30
0.0
 40
138.050776
 50
177.384932
 51
182.624212
  0
ARC
  8
0
 10
16.758727
 20
7.040268
 30
0.0
 40
2.999999
 50
5.472899
 51
88.009104
  0
ARC
  8
0
 10
-109.461233
 20
-7.258357
 30
0.0
 40
130.026845
 50
6.440237
 51
8.36219
  0
ARC
  8
0
 10
18.206626
 20
11.412206
 30
0.0
 40
1.0
 50
7.748967
 51
91.542974
  0
ARC
  8
0
 10
-25.936981
 20
11.281188
 30
0.0
 40
1.0
 50
97.572145
 51
167.51701
  0
LINE
  8
0
 10
-21.12793
 20
12.415802
 30
0.0
 11
-3.654352
 21
11.117526
 31
0.0
  0
LINE
  8
0
 10
-3.654352
 20
11.117526
 30
0.0
 11
19.121338
 21
12.427994
 31
0.0
  0
ARC
  8
0
 10
23.483108
 20
11.194091
 30
0.0
 40
1.0
 50
15.071061
 51
82.521777
  0
ARC
  8
0
 10
3.265764
 20
5.749978
 30
0.0
 40
21.937499
 50
8.66843
 51
15.07105
  0
ARC
  8
0
 10
3.265777
 20
5.749989
 30
0.0
 40
23.999995
 50
2.388025
 51
12.875085
  0
ARC
  8
0
 10
25.6875
 20
10.874984
 30
0.0
 40
1.0
 50
2.483325
 51
76.965295
  0
ARC
  8
0
 10
-47.429037
 20
0.138249
 30
0.0
 40
72.929037
 50
354.680208
 51
7.02396
  0
ARC
  8
0
 10
3.265763
 20
-5.749995
 30
0.0
 40
24.0
 50
347.124926
 51
357.611973
  0
ARC
  8
0
 10
25.6875
 20
-10.875
 30
0.0
 40
1.0
 50
283.034631
 51
347.124575
  0
ARC
  8
0
 10
3.265761
 20
-5.750017
 30
0.0
 40
21.937499
 50
344.92898
 51
357.718533
  0
ARC
  8
0
 10
20.499993
 20
11.532355
 30
0.0
 40
23.999997
 50
266.706773
 51
283.034858
  0
LINE
  8
0
 10
-3.654226
 20
-11.117525
 30
0.0
 11
19.121338
 21
-12.428005
 31
0.0
  0
ARC
  8
0
 10
-25.936996
 20
-11.281211
 30
0.0
 40
1.0
 50
192.483043
 51
262.427756
  0
ARC
  8
0
 10
-22.906189
 20
11.518226
 30
0.0
 40
23.999998
 50
262.427919
 51
274.24931
  0
ARC
  8
0
 10
3.261629
 20
368.443358
 30
0.0
 40
378.372506
 50
266.154387
 51
271.927782
  0
ARC
  8
0
 10
3.261629
 20
-368.443354
 30
0.0
 40
378.372506
 50
88.072218
 51
93.845613
  0
ARC
  8
0
 10
-3.034694
 20
266.798015
 30
0.0
 40
277.55063
 50
265.279459
 51
274.111081
  0
ARC
  8
0
 10
-3.034694
 20
-266.798011
 30
0.0
 40
277.55063
 50
85.888919
 51
94.720541
  0
CIRCLE
  8
0
 10
-21.643448
 20
0.000004
 30
0.0
 40
1.125004
  0
ARC
  8
0
 10
29.249996
 20
-14.249996
 30
0.0
 40
0.750004
 50
270.0
 51
0.0
  0
ARC
  8
0
 10
29.249996
 20
14.249996
 30
0.0
 40
0.750004
 50
0.0
 51
90.0
  0
ARC
  8
0
 10
-29.249996
 20
14.249996
 30
0.0
 40
0.750004
 50
90.0
 51
180.0
  0
ARC
  8
0
 10
-29.249996
 20
-14.249996
 30
0.0
 40
0.750004
 50
180.0
 51
270.0
  0
ATTDEF
  8
0
 62
     7
 10
0.0
 20
0.0
 30
0.0
 40
0.001
  1
K-1510-X
  3

  2
MODELNUMBER
 70
     8
  0
ATTDEF
  8
0
 62
     7
 10
0.0
 20
-0.0017
 30
0.0
 40
0.001
  1
HOURGLASS
  3

  2
TRADENAME
 70
     8
  0
ATTDEF
  8
0
 62
     7
 10
0.0
 20
-0.0034
 30
0.0
 40
0.001
  1
BATH
  3

  2
PRODUCT
 70
     8
  0
ATTDEF
  8
0
 62
     7
 10
0.0
 20
-0.0051
 30
0.0
 40
0.001
  1
ACRYLIC
  3

  2
MATERIAL
 70
     8
  0
ENDSEC
  0
EOF
