  0
SECTION
  2
HEADER
  9
$ACADVER
  1
AC1009
  9
$INSBASE
 10
2661.7835878666442113
 20
143.0182646955865948
 30
0.0
  9
$EXTMIN
 10
2655.4293005316540075
 20
141.7650334756758923
 30
-0.0000000349181948
  9
$EXTMAX
 10
2668.2539179996861094
 20
143.2955481797633865
 30
0.0000000814935746
  9
$LIMMIN
 10
0.0
 20
0.0
  9
$LIMMAX
 10
11.6929133858000007
 20
8.2677165353999982
  9
$ORTHOMODE
 70
     1
  9
$REGENMODE
 70
     1
  9
$FILLMODE
 70
     1
  9
$QTEXTMODE
 70
     0
  9
$MIRRTEXT
 70
     0
  9
$DRAGMODE
 70
     2
  9
$LTSCALE
 40
0.6431102362
  9
$OSMODE
 70
  4095
  9
$ATTMODE
 70
     1
  9
$TEXTSIZE
 40
0.2
  9
$TRACEWID
 40
0.05
  9
$TEXTSTYLE
  7
STANDARD
  9
$CLAYER
  8
0
  9
$CELTYPE
  6
BYLAYER
  9
$CECOLOR
 62
   256
  9
$DIMSCALE
 40
1.0
  9
$DIMASZ
 40
0.1875
  9
$DIMEXO
 40
0.0625
  9
$DIMDLI
 40
0.4443307087
  9
$DIMRND
 40
0.0
  9
$DIMDLE
 40
0.0
  9
$DIMEXE
 40
0.125
  9
$DIMTP
 40
0.01
  9
$DIMTM
 40
0.01
  9
$DIMTXT
 40
2.0
  9
$DIMCEN
 40
0.1052362205
  9
$DIMTSZ
 40
0.0
  9
$DIMTOL
 70
     1
  9
$DIMLIM
 70
     0
  9
$DIMTIH
 70
     1
  9
$DIMTOH
 70
     1
  9
$DIMSE1
 70
     0
  9
$DIMSE2
 70
     0
  9
$DIMTAD
 70
     0
  9
$DIMZIN
 70
     0
  9
$DIMBLK
  1

  9
$DIMASO
 70
     1
  9
$DIMSHO
 70
     1
  9
$DIMPOST
  1
\X
  9
$DIMAPOST
  1

  9
$DIMALT
 70
     1
  9
$DIMALTD
 70
     2
  9
$DIMALTF
 40
25.3999999999999986
  9
$DIMLFAC
 40
1.0
  9
$DIMTOFL
 70
     0
  9
$DIMTVP
 40
0.0
  9
$DIMTIX
 70
     0
  9
$DIMSOXD
 70
     0
  9
$DIMSAH
 70
     0
  9
$DIMBLK1
  1

  9
$DIMBLK2
  1

  9
$DIMSTYLE
  2
STANDARD
  9
$DIMCLRD
 70
     0
  9
$DIMCLRE
 70
     0
  9
$DIMCLRT
 70
     0
  9
$DIMTFAC
 40
1.0
  9
$DIMGAP
 40
0.09
  9
$LUNITS
 70
     2
  9
$LUPREC
 70
     4
  9
$SKETCHINC
 40
0.1
  9
$FILLETRAD
 40
0.0
  9
$AUNITS
 70
     0
  9
$AUPREC
 70
     0
  9
$MENU
  1
.
  9
$ELEVATION
 40
0.0
  9
$PELEVATION
 40
0.0
  9
$THICKNESS
 40
0.0
  9
$LIMCHECK
 70
     0
  9
$BLIPMODE
 70
     0
  9
$CHAMFERA
 40
0.0
  9
$CHAMFERB
 40
0.0
  9
$SKPOLY
 70
     0
  9
$TDCREATE
 40
2458060.468368056230247
  9
$TDUPDATE
 40
2459474.6255902778357267
  9
$TDINDWG
 40
0.6878890046
  9
$TDUSRTIMER
 40
0.6878890046
  9
$USRTIMER
 70
     1
  9
$ANGBASE
 50
0.0
  9
$ANGDIR
 70
     0
  9
$PDMODE
 70
     0
  9
$PDSIZE
 40
0.3125
  9
$PLINEWID
 40
0.0
  9
$COORDS
 70
     1
  9
$SPLFRAME
 70
     0
  9
$SPLINETYPE
 70
     6
  9
$SPLINESEGS
 70
     8
  9
$ATTDIA
 70
     1
  9
$ATTREQ
 70
     1
  9
$HANDLING
 70
     1
  9
$HANDSEED
  5
3EA07
  9
$SURFTAB1
 70
     6
  9
$SURFTAB2
 70
     6
  9
$SURFTYPE
 70
     6
  9
$SURFU
 70
     6
  9
$SURFV
 70
     6
  9
$UCSNAME
  2

  9
$UCSORG
 10
0.0
 20
0.0
 30
0.0
  9
$UCSXDIR
 10
1.0
 20
0.0
 30
0.0
  9
$UCSYDIR
 10
0.0
 20
1.0
 30
0.0
  9
$PUCSNAME
  2

  9
$PUCSORG
 10
0.0
 20
0.0
 30
0.0
  9
$PUCSXDIR
 10
1.0
 20
0.0
 30
0.0
  9
$PUCSYDIR
 10
0.0
 20
1.0
 30
0.0
  9
$USERI1
 70
     0
  9
$USERI2
 70
     0
  9
$USERI3
 70
     0
  9
$USERI4
 70
     0
  9
$USERI5
 70
     0
  9
$USERR1
 40
0.0
  9
$USERR2
 40
0.0
  9
$USERR3
 40
0.0
  9
$USERR4
 40
0.0
  9
$USERR5
 40
0.0
  9
$WORLDVIEW
 70
     1
  9
$SHADEDGE
 70
     3
  9
$SHADEDIF
 70
    70
  9
$TILEMODE
 70
     1
  9
$MAXACTVP
 70
    64
  9
$PLIMCHECK
 70
     0
  9
$PEXTMIN
 10
1.0000000000000000E+20
 20
1.0000000000000000E+20
 30
1.0000000000000000E+20
  9
$PEXTMAX
 10
-1.0000000000000000E+20
 20
-1.0000000000000000E+20
 30
-1.0000000000000000E+20
  9
$PLIMMIN
 10
0.0
 20
0.0
  9
$PLIMMAX
 10
12.0
 20
9.0
  9
$UNITMODE
 70
     0
  9
$VISRETAIN
 70
     1
  9
$PLINEGEN
 70
     0
  9
$PSLTSCALE
 70
     1
  0
ENDSEC
  0
SECTION
  2
TABLES
  0
TABLE
  2
VPORT
 70
     1
  0
VPORT
  2
*ACTIVE
 70
     0
 10
0.0
 20
0.0
 11
1.0
 21
1.0
 12
-641.8515059687050552
 22
-52.7312207481680488
 13
0.0
 23
0.0
 14
1.0
 24
1.0
 15
0.0
 25
0.0
 16
0.0
 26
0.0
 36
96.5995694866707311
 17
3303.693115234375
 27
195.2615115758877096
 37
0.0
 40
6.3078819749496979
 41
2.0410052910052912
 42
50.0
 43
0.0
 44
0.0
 50
0.0
 51
0.0
 71
     0
 72
   100
 73
     1
 74
     1
 75
     0
 76
     0
 77
     0
 78
     0
  0
ENDTAB
  0
TABLE
  2
LTYPE
 70
     2
  0
LTYPE
  2
CONTINUOUS
 70
     0
  3
Solid line
 72
    65
 73
     0
 40
0.0
  0
LTYPE
  2
PHANTOM2
 70
     0
  3
___ _ _ ___ _ _ ___ _ _ ___ _ _
 72
    65
 73
     6
 40
1.25
 49
0.625
 49
-0.125
 49
0.125
 49
-0.125
 49
0.125
 49
-0.125
  0
ENDTAB
  0
TABLE
  2
LAYER
 70
     2
  0
LAYER
  2
0
 70
     0
 62
   255
  6
CONTINUOUS
  0
LAYER
  2
DEFPOINTS
 70
     0
 62
     7
  6
CONTINUOUS
  0
ENDTAB
  0
TABLE
  2
STYLE
 70
     1
  0
STYLE
  2
STANDARD
 70
     0
 40
0.0
 41
0.8
 50
0.0
 71
     0
 42
0.2
  3
txt
  4

  0
ENDTAB
  0
TABLE
  2
VIEW
 70
     0
  0
ENDTAB
  0
TABLE
  2
UCS
 70
     0
  0
ENDTAB
  0
TABLE
  2
APPID
 70
     9
  0
APPID
  2
ACAD
 70
     0
  0
APPID
  2
ACAD_MLEADERVER
 70
     0
  0
APPID
  2
ACAD_EXEMPT_FROM_CAD_STANDARDS
 70
     0
  0
APPID
  2
ACAD_NAV_VCDISPLAY
 70
     0
  0
APPID
  2
ACAECLAYERSTANDARD
 70
     0
  0
APPID
  2
ACCMTRANSPARENCY
 70
     0
  0
APPID
  2
ACAD_DSTYLE_DIMJAG
 70
     0
  0
APPID
  2
ACAD_DSTYLE_DIMTALN
 70
     0
  0
APPID
  2
ACDBATTR
 70
     0
  0
ENDTAB
  0
TABLE
  2
DIMSTYLE
 70
     1
  0
DIMSTYLE
  2
STANDARD
 70
     0
  3

  4

  5

  6

  7

 40
1.0
 41
0.1875
 42
0.0625
 43
0.38
 44
0.125
 45
0.0
 46
0.0
 47
0.01
 48
0.01
140
0.15625
141
0.09
142
0.0
143
25.3999999999999986
144
1.0
145
0.0
146
1.0
147
0.09
 71
     1
 72
     0
 73
     1
 74
     1
 75
     0
 76
     0
 77
     0
 78
     4
170
     0
171
     2
172
     0
173
     0
174
     0
175
     0
176
     0
177
     0
178
     0
  0
ENDTAB
  0
ENDSEC
  0
SECTION
  2
BLOCKS
  0
BLOCK
  8
0
  2
$MODEL_SPACE
 70
     0
 10
0.0
 20
0.0
 30
0.0
  3
$MODEL_SPACE
  1

  0
ENDBLK
  5
21
  8
0
  0
BLOCK
 67
     1
  8
0
  2
$PAPER_SPACE
 70
     0
 10
0.0
 20
0.0
 30
0.0
  3
$PAPER_SPACE
  1

  0
ENDBLK
  5
1D
 67
     1
  8
0
  0
BLOCK
  8
0
  2
_FILLED
 70
     0
 10
0.0
 20
0.0
 30
0.0
  3
_FILLED
  1

  0
SOLID
  5
3E487
  8
0
  6
BYBLOCK
 62
     0
 10
0.0
 20
0.0
 30
0.0
 11
-1.0
 21
0.1666666667
 31
0.0
 12
-1.0
 22
-0.1666666667
 32
0.0
 13
-1.0
 23
-0.1666666667
 33
0.0
  0
ENDBLK
  5
3E488
  8
0
  6
BYBLOCK
 62
     0
  0
ENDSEC
  0
SECTION
  2
ENTITIES
  0
ATTDEF
  5
3E0AD
  8
DEFPOINTS
 10
2661.7851351885469739
 20
143.0239233825284941
 30
0.0
 40
0.001
  1
K-1491T
  3

  2
MODELNUMBER
 70
     0
1001
ACDBATTR
1070
     0
1070
     1
  0
ATTDEF
  5
3E0AE
  8
DEFPOINTS
 10
2661.7851351885469739
 20
143.0222567158618006
 30
0.0
 40
0.001
  1

  3

  2
TRADENAME
 70
     0
1001
ACDBATTR
1070
     0
1070
     1
  0
ATTDEF
  5
3E0AF
  8
DEFPOINTS
 10
2661.7851351885469739
 20
143.0205900491951923
 30
0.0
 40
0.001
  1
PILLOW
  3

  2
PRODUCT
 70
     0
1001
ACDBATTR
1070
     0
1070
     1
  0
ARC
  5
3E8DD
  8
0
 10
2658.8518910733650955
 20
-17.7303396130295994
 30
0.0
 40
159.5302332332740036
 50
88.9470127029567834
 51
90.1773878408271941
  0
ARC
  5
3E8DE
  8
0
 10
2658.3960095008351345
 20
160.4350406319256876
 30
0.0
 40
18.6359503682456307
 50
264.4854073391779821
 51
269.8830974640418958
  0
ARC
  5
3E8DF
  8
0
 10
2657.0995539881951117
 20
147.0066842933524072
 30
0.0
 40
5.1451553267383732
 50
255.7814285259007931
 51
264.4854073391779821
  0
ARC
  5
3E8E0
  8
0
 10
2656.0003403471991987
 20
142.6685475633532008
 30
0.0
 40
0.6699233867468176
 50
228.4096546532055072
 51
255.7814285259007931
  0
ARC
  5
3E8E1
  8
0
 10
2655.7452912277130963
 20
142.3811813093282126
 30
0.0
 40
0.2856976493182767
 50
180.0
 51
228.4096546532067009
  0
ARC
  5
3E8E2
  8
0
 10
2655.9630404945778537
 20
142.310990683928793
 30
0.0
 40
0.5083163594728219
 50
144.2301226351015089
 51
172.0629786423409939
  0
ARC
  5
3E8E4
  8
0
 10
2655.8206238592151749
 20
142.356676064113401
 30
0.0
 40
0.3688262447515826
 50
100.5599829654342017
 51
138.6659188473863082
  0
ARC
  5
3E8E5
  8
0
 10
2656.362776842096082
 20
139.4484750917999918
 30
0.0
 40
3.3271302778439789
 50
94.892824576256686
 51
100.5599829654342017
  0
ARC
  5
3E8E6
  8
0
 10
2656.7140691743561547
 20
135.344788681927696
 30
0.0
 40
7.4458252718045719
 50
89.1145070507927102
 51
94.892824576256686
  0
ARC
  5
3E8E7
  8
0
 10
2656.726523387657835
 20
147.9043609684096907
 30
0.0
 40
5.1156654874633567
 50
271.1493683110376764
 51
278.5293944051505832
  0
ARC
  5
3E8E8
  8
0
 10
2650.4581318784821633
 20
192.6254095027927917
 30
0.0
 40
50.2736743372259411
 50
278.0349737066466105
 51
279.813575785792807
  0
ARC
  5
3E8E9
  8
0
 10
2661.6403002950451082
 20
126.0355736421659998
 30
0.0
 40
17.2508906923847292
 50
92.3662347563288506
 51
98.7134056259493491
  0
ARC
  5
3E8EA
  8
0
 10
2662.129411720492044
 20
108.2613995674238936
 30
0.0
 40
35.0309609811231297
 50
90.5656301903673864
 51
91.9652779172702566
  0
ARC
  5
3E8EB
  8
0
 10
2657.9945578218121227
 20
143.7135972208633063
 30
0.0
 40
1.0513726224243971
 50
221.8796483593999938
 51
236.6424618827795996
  0
ARC
  5
3E8EC
  8
0
 10
2657.2147064369551117
 20
143.0143347012430866
 30
0.0
 40
0.0039300247584736
 50
89.7745844260045232
 51
221.426544802380306
  0
LINE
  5
3E8ED
  8
0
 10
2657.2147218985919608
 20
143.0182646955865948
 30
0.0
 11
2658.6173913695351985
 21
143.0182646955865948
 31
0.0
  0
ARC
  5
3E8EE
  8
0
 10
2664.7152846578128447
 20
-17.7303393370723903
 30
0.0
 40
159.5302329573246141
 50
89.8226121581306103
 51
91.0529872981116455
  0
ARC
  5
3E8EF
  8
0
 10
2665.1711662324519239
 20
160.4350406319256876
 30
0.0
 40
18.6359503682456307
 50
270.1169025359582179
 51
275.5145926608220179
  0
ARC
  5
3E8F0
  8
0
 10
2666.4676217450919467
 20
147.0066842933524072
 30
0.0
 40
5.1451553267383732
 50
275.5145926608220179
 51
284.2185714740991784
  0
ARC
  5
3E8F1
  8
0
 10
2667.5668353860878597
 20
142.6685475633532008
 30
0.0
 40
0.6699233867468176
 50
284.2185714740991784
 51
311.5903453467934128
  0
ARC
  5
3E8F2
  8
0
 10
2667.8218845055730526
 20
142.3811813093282126
 30
0.0
 40
0.2856976493182767
 50
311.5903453467934128
 51
0.0
  0
ARC
  5
3E8F3
  8
0
 10
2667.6041352387092047
 20
142.310990683928793
 30
0.0
 40
0.5083163594728219
 50
7.9370213576589776
 51
35.7698773648984698
  0
ARC
  5
3E8F4
  8
0
 10
2667.7465518740718835
 20
142.356676064113401
 30
0.0
 40
0.3688262447515826
 50
41.3340811526136775
 51
79.4400170345658125
  0
ARC
  5
3E8F5
  8
0
 10
2667.2043988911909764
 20
139.4484750917999918
 30
0.0
 40
3.3271302778439789
 50
79.4400170345658125
 51
85.1071754237433566
  0
ARC
  5
3E8F6
  8
0
 10
2666.8531065589309037
 20
135.344788681927696
 30
0.0
 40
7.4458252718045719
 50
85.1071754237433566
 51
90.885492949207304
  0
ARC
  5
3E8F7
  8
0
 10
2666.8406523456292234
 20
147.9043609684096907
 30
0.0
 40
5.1156654874633567
 50
261.4706055948494168
 51
268.8506316889622099
  0
ARC
  5
3E8F8
  8
0
 10
2673.1090438548039856
 20
192.6254095027927917
 30
0.0
 40
50.2736743372259411
 50
260.1864242142070793
 51
261.9650262933533895
  0
ARC
  5
3E8F9
  8
0
 10
2661.9268754382419502
 20
126.0355736421659998
 30
0.0
 40
17.2508906923847292
 50
81.2865943740506509
 51
87.6337652436711636
  0
ARC
  5
3E8FA
  8
0
 10
2661.4377640127950144
 20
108.2613995674246041
 30
0.0
 40
35.0309609811224618
 50
88.0347220827297434
 51
89.4343698096326136
  0
ARC
  5
3E8FB
  8
0
 10
2665.5726179114740262
 20
143.7135972208633063
 30
0.0
 40
1.051372622424406
 50
303.3575381172420862
 51
318.1203516406000062
  0
ARC
  5
3E8FC
  8
0
 10
2666.3524692963310372
 20
143.0143347012430866
 30
0.0
 40
0.0039300247584736
 50
318.5734551976195803
 51
90.2254155739954911
  0
LINE
  5
3E8FD
  8
0
 10
2666.3524538346950976
 20
143.0182646955865948
 30
0.0
 11
2664.9497843637532242
 21
143.0182646955865948
 31
0.0
  0
ENDSEC
  0
EOF
