  0
SECTION
  2
HEADER
  9
$ACADVER
  1
AC1009
  9
$INSBASE
 10
0.0
 20
0.0
 30
0.0
  9
$EXTMIN
 10
-33.664117
 20
-19.99023
 30
0.0
  9
$EXTMAX
 10
33.664117
 20
2.059855
 30
0.0
  9
$LIMMIN
 10
0.0
 20
0.0
  9
$LIMMAX
 10
12.0
 20
9.0
  9
$ORTHOMODE
 70
     1
  9
$REGENMODE
 70
     1
  9
$FILLMODE
 70
     0
  9
$QTEXTMODE
 70
     0
  9
$MIRRTEXT
 70
     1
  9
$DRAGMODE
 70
     2
  9
$LTSCALE
 40
1.0
  9
$OSMODE
 70
     0
  9
$ATTMODE
 70
     1
  9
$TEXTSIZE
 40
0.001
  9
$TRACEWID
 40
0.05
  9
$TEXTSTYLE
  7
STANDARD
  9
$CLAYER
  8
0
  9
$CELTYPE
  6
BYLAYER
  9
$CECOLOR
 62
   256
  9
$DIMSCALE
 40
1.0
  9
$DIMASZ
 40
0.18
  9
$DIMEXO
 40
0.0625
  9
$DIMDLI
 40
0.38
  9
$DIMRND
 40
0.0
  9
$DIMDLE
 40
0.0
  9
$DIMEXE
 40
0.18
  9
$DIMTP
 40
0.0
  9
$DIMTM
 40
0.0
  9
$DIMTXT
 40
0.18
  9
$DIMCEN
 40
0.09
  9
$DIMTSZ
 40
0.0
  9
$DIMTOL
 70
     0
  9
$DIMLIM
 70
     0
  9
$DIMTIH
 70
     1
  9
$DIMTOH
 70
     1
  9
$DIMSE1
 70
     0
  9
$DIMSE2
 70
     0
  9
$DIMTAD
 70
     0
  9
$DIMZIN
 70
     0
  9
$DIMBLK
  1

  9
$DIMASO
 70
     1
  9
$DIMSHO
 70
     1
  9
$DIMPOST
  1

  9
$DIMAPOST
  1

  9
$DIMALT
 70
     0
  9
$DIMALTD
 70
     2
  9
$DIMALTF
 40
25.4
  9
$DIMLFAC
 40
1.0
  9
$DIMTOFL
 70
     0
  9
$DIMTVP
 40
0.0
  9
$DIMTIX
 70
     0
  9
$DIMSOXD
 70
     0
  9
$DIMSAH
 70
     0
  9
$DIMBLK1
  1

  9
$DIMBLK2
  1

  9
$DIMSTYLE
  2
*UNNAMED
  9
$DIMCLRD
 70
     0
  9
$DIMCLRE
 70
     0
  9
$DIMCLRT
 70
     0
  9
$DIMTFAC
 40
1.0
  9
$DIMGAP
 40
0.09
  9
$LUNITS
 70
     2
  9
$LUPREC
 70
     4
  9
$SKETCHINC
 40
0.1
  9
$FILLETRAD
 40
0.0
  9
$AUNITS
 70
     0
  9
$AUPREC
 70
     0
  9
$MENU
  1
acad
  9
$ELEVATION
 40
0.0
  9
$PELEVATION
 40
0.0
  9
$THICKNESS
 40
0.0
  9
$LIMCHECK
 70
     0
  9
$BLIPMODE
 70
     0
  9
$CHAMFERA
 40
0.0
  9
$CHAMFERB
 40
0.0
  9
$SKPOLY
 70
     0
  9
$TDCREATE
 40
2450903.495748958
  9
$TDUPDATE
 40
2450917.616666435
  9
$TDINDWG
 40
0.0006994213
  9
$TDUSRTIMER
 40
0.0006994213
  9
$USRTIMER
 70
     1
  9
$ANGBASE
 50
0.0
  9
$ANGDIR
 70
     0
  9
$PDMODE
 70
     0
  9
$PDSIZE
 40
0.0
  9
$PLINEWID
 40
0.0
  9
$COORDS
 70
     1
  9
$SPLFRAME
 70
     0
  9
$SPLINETYPE
 70
     6
  9
$SPLINESEGS
 70
     8
  9
$ATTDIA
 70
     0
  9
$ATTREQ
 70
     1
  9
$HANDLING
 70
     0
  9
$HANDSEED
  5
0
  9
$SURFTAB1
 70
     6
  9
$SURFTAB2
 70
     6
  9
$SURFTYPE
 70
     6
  9
$SURFU
 70
     6
  9
$SURFV
 70
     6
  9
$UCSNAME
  2

  9
$UCSORG
 10
0.0
 20
0.0
 30
0.0
  9
$UCSXDIR
 10
1.0
 20
0.0
 30
0.0
  9
$UCSYDIR
 10
0.0
 20
1.0
 30
0.0
  9
$PUCSNAME
  2

  9
$PUCSORG
 10
0.0
 20
0.0
 30
0.0
  9
$PUCSXDIR
 10
1.0
 20
0.0
 30
0.0
  9
$PUCSYDIR
 10
0.0
 20
1.0
 30
0.0
  9
$USERI1
 70
     0
  9
$USERI2
 70
     0
  9
$USERI3
 70
     0
  9
$USERI4
 70
     0
  9
$USERI5
 70
     0
  9
$USERR1
 40
0.0
  9
$USERR2
 40
0.0
  9
$USERR3
 40
0.0
  9
$USERR4
 40
0.0
  9
$USERR5
 40
0.0
  9
$WORLDVIEW
 70
     1
  9
$SHADEDGE
 70
     3
  9
$SHADEDIF
 70
    70
  9
$TILEMODE
 70
     1
  9
$MAXACTVP
 70
    16
  9
$PINSBASE
 10
-1.403874E+99
 20
0.0
 30
-9484611101824.0
  9
$PLIMCHECK
 70
     0
  9
$PEXTMIN
 10
1.000000E+20
 20
1.000000E+20
 30
1.000000E+20
  9
$PEXTMAX
 10
-1.000000E+20
 20
-1.000000E+20
 30
-1.000000E+20
  9
$PLIMMIN
 10
0.0
 20
0.0
  9
$PLIMMAX
 10
12.0
 20
9.0
  9
$UNITMODE
 70
     0
  9
$VISRETAIN
 70
     0
  9
$PLINEGEN
 70
     0
  9
$PSLTSCALE
 70
     1
  9
$TREEDEPTH
 70
  3020
  9
$DWGCODEPAGE
  3
iso8859-1
  0
ENDSEC
  0
SECTION
  2
TABLES
  0
TABLE
  2
VPORT
 70
     2
  0
VPORT
  2
*ACTIVE
 70
     0
 10
0.0
 20
0.0
 11
1.0
 21
1.0
 12
2.796873
 22
3.329636
 13
0.0
 23
0.0
 14
1.0
 24
1.0
 15
0.0
 25
0.0
 16
0.0
 26
0.0
 36
1.0
 17
0.0
 27
0.0
 37
0.0
 40
50.9019
 41
1.573846
 42
50.0
 43
0.0
 44
0.0
 50
0.0
 51
0.0
 71
     0
 72
  1000
 73
     1
 74
     1
 75
     0
 76
     0
 77
     0
 78
     1
  0
ENDTAB
  0
TABLE
  2
LTYPE
 70
     2
  0
LTYPE
  2
CONTINUOUS
 70
    64
  3
Solid line
 72
    65
 73
     0
 40
0.0
  0
LTYPE
  2
HIDDEN
 70
    64
  3
__ __ __ __ __ __ __ __ __ __ __ __ __ __ __ __
 72
    65
 73
     2
 40
0.375
 49
0.25
 49
-0.125
  0
ENDTAB
  0
TABLE
  2
LAYER
 70
     1
  0
LAYER
  2
0
 70
    64
 62
     7
  6
CONTINUOUS
  0
ENDTAB
  0
TABLE
  2
STYLE
 70
     1
  0
STYLE
  2
STANDARD
 70
    64
 40
0.0
 41
1.0
 50
0.0
 71
     0
 42
0.001
  3
txt
  4

  0
ENDTAB
  0
TABLE
  2
VIEW
 70
     0
  0
ENDTAB
  0
TABLE
  2
UCS
 70
     0
  0
ENDTAB
  0
TABLE
  2
APPID
 70
     1
  0
APPID
  2
ACAD
 70
    64
  0
ENDTAB
  0
TABLE
  2
DIMSTYLE
 70
     0
  0
ENDTAB
  0
ENDSEC
  0
SECTION
  2
BLOCKS
  0
ENDSEC
  0
SECTION
  2
ENTITIES
  0
ARC
  8
0
  6
HIDDEN
 10
6.820688
 20
115.636611
 30
0.0
 40
134.228046
 50
267.087308
 51
276.894531
  0
LINE
  8
0
 10
-31.746166
 20
1.995659
 30
0.0
 11
31.746166
 21
1.995659
 31
0.0
  0
LINE
  8
0
 10
32.70956
 20
1.172547
 30
0.0
 11
-32.70956
 21
1.172547
 31
0.0
  0
LINE
  8
0
 10
-33.533106
 20
0.0
 30
0.0
 11
33.533106
 21
0.0
 31
0.0
  0
ARC
  8
0
  6
HIDDEN
 10
-5.547722
 20
3.995846
 30
0.0
 40
25.37502
 50
188.985605
 51
209.884483
  0
ARC
  8
0
  6
HIDDEN
 10
-6.820688
 20
115.636611
 30
0.0
 40
134.228046
 50
263.105469
 51
272.912692
  0
ARC
  8
0
  6
HIDDEN
 10
-22.549375
 20
-14.442363
 30
0.0
 40
3.201594
 50
183.604173
 51
263.105469
  0
LINE
  8
0
  6
HIDDEN
 10
-16.502787
 20
-19.99023
 30
0.0
 11
-20.014514
 21
-19.99023
 31
0.0
  0
LINE
  8
0
  6
HIDDEN
 10
-20.014514
 20
-19.99023
 30
0.0
 11
-20.014514
 21
-17.941424
 31
0.0
  0
LINE
  8
0
  6
HIDDEN
 10
-16.502787
 20
-18.241786
 30
0.0
 11
-16.502787
 21
-19.99023
 31
0.0
  0
ARC
  8
0
  6
HIDDEN
 10
-39.489639
 20
-15.509393
 30
0.0
 40
13.772241
 50
3.604173
 51
29.884483
  0
POLYLINE
  8
0
  6
HIDDEN
 66
     1
 10
0.0
 20
0.0
 30
0.0
 70
     1
  0
VERTEX
  8
0
  6
HIDDEN
 10
-32.705966
 20
-10.750856
 30
0.0
  0
VERTEX
  8
0
  6
HIDDEN
 10
-27.550063
 20
-10.750856
 30
0.0
  0
VERTEX
  8
0
  6
HIDDEN
 10
-27.550063
 20
-15.901941
 30
0.0
  0
VERTEX
  8
0
  6
HIDDEN
 10
-32.705966
 20
-15.901941
 30
0.0
  0
SEQEND
  8
0
  6
HIDDEN
  0
LINE
  8
0
 10
-9.270041
 20
-12.155697
 30
0.0
 11
-9.270041
 21
-12.155697
 31
0.0
  0
ARC
  8
0
 10
-32.627218
 20
1.968097
 30
0.0
 40
0.584496
 50
285.734758
 51
344.23506
  0
ARC
  8
0
 10
-32.037278
 20
0.71847
 30
0.0
 40
0.811264
 50
122.127462
 51
145.963912
  0
ARC
  8
0
 10
-33.380455
 20
1.625686
 30
0.0
 40
0.80959
 50
297.646472
 51
325.963912
  0
ARC
  8
0
 10
-32.546902
 20
0.034391
 30
0.0
 40
0.986804
 50
117.646472
 51
181.997238
  0
ARC
  8
0
 10
-31.808623
 20
1.736999
 30
0.0
 40
0.266094
 50
76.425056
 51
164.23506
  0
ARC
  8
0
  6
HIDDEN
 10
5.547722
 20
3.995846
 30
0.0
 40
25.37502
 50
330.115517
 51
351.014395
  0
ARC
  8
0
  6
HIDDEN
 10
22.549375
 20
-14.442363
 30
0.0
 40
3.201594
 50
276.894531
 51
356.395827
  0
LINE
  8
0
  6
HIDDEN
 10
16.502787
 20
-19.99023
 30
0.0
 11
20.014514
 21
-19.99023
 31
0.0
  0
LINE
  8
0
  6
HIDDEN
 10
16.502787
 20
-18.241786
 30
0.0
 11
16.502787
 21
-19.99023
 31
0.0
  0
LINE
  8
0
  6
HIDDEN
 10
20.014514
 20
-19.99023
 30
0.0
 11
20.014514
 21
-17.941424
 31
0.0
  0
LINE
  8
0
 10
9.24434
 20
-12.155697
 30
0.0
 11
9.24434
 21
-12.155697
 31
0.0
  0
ARC
  8
0
  6
HIDDEN
 10
39.489639
 20
-15.509393
 30
0.0
 40
13.772241
 50
150.115517
 51
176.395827
  0
ARC
  8
0
 10
32.627218
 20
1.968097
 30
0.0
 40
0.584496
 50
195.76494
 51
254.265242
  0
ARC
  8
0
 10
32.546902
 20
0.034391
 30
0.0
 40
0.986804
 50
358.002762
 51
62.353528
  0
ARC
  8
0
 10
32.037278
 20
0.71847
 30
0.0
 40
0.811264
 50
34.036088
 51
57.872538
  0
ARC
  8
0
 10
33.380455
 20
1.625686
 30
0.0
 40
0.80959
 50
214.036088
 51
242.353528
  0
ARC
  8
0
 10
31.808623
 20
1.736999
 30
0.0
 40
0.266094
 50
15.76494
 51
103.574944
  0
ATTDEF
  8
0
 10
0.0
 20
0.0
 30
0.0
 40
0.001
  1
K-1457-H
  3

  2
MODELNUMBER
 70
     8
  0
ATTDEF
  8
0
 10
0.0
 20
-0.001667
 30
0.0
 40
0.001
  1
PORTRAIT
  3

  2
TRADENAME
 70
     8
  0
ATTDEF
  8
0
 10
0.0
 20
-0.003333
 30
0.0
 40
0.001
  1
WHIRLPOOLS
  3

  2
PRODUCT
 70
     8
  0
ATTDEF
  8
0
 10
0.0
 20
-0.005
 30
0.0
 40
0.001
  1
ACRYLIC
  3

  2
MATERIAL
 70
     8
  0
ENDSEC
  0
EOF
