  0
SECTION
  2
HEADER
  9
$ACADVER
  1
AC1009
  9
$INSBASE
 10
0.0
 20
0.0
 30
0.0
  9
$EXTMIN
 10
-33.662578
 20
-21.514865
 30
0.0
  9
$EXTMAX
 10
33.61714
 20
21.514865
 30
0.0
  9
$LIMMIN
 10
0.0
 20
0.0
  9
$LIMMAX
 10
12.0
 20
9.0
  9
$ORTHOMODE
 70
     0
  9
$REGENMODE
 70
     1
  9
$FILLMODE
 70
     0
  9
$QTEXTMODE
 70
     0
  9
$MIRRTEXT
 70
     1
  9
$DRAGMODE
 70
     2
  9
$LTSCALE
 40
1.0
  9
$OSMODE
 70
     0
  9
$ATTMODE
 70
     1
  9
$TEXTSIZE
 40
0.001
  9
$TRACEWID
 40
0.05
  9
$TEXTSTYLE
  7
STANDARD
  9
$CLAYER
  8
0
  9
$CELTYPE
  6
BYLAYER
  9
$CECOLOR
 62
   256
  9
$DIMSCALE
 40
1.0
  9
$DIMASZ
 40
0.18
  9
$DIMEXO
 40
0.0625
  9
$DIMDLI
 40
0.38
  9
$DIMRND
 40
0.0
  9
$DIMDLE
 40
0.0
  9
$DIMEXE
 40
0.18
  9
$DIMTP
 40
0.0
  9
$DIMTM
 40
0.0
  9
$DIMTXT
 40
0.18
  9
$DIMCEN
 40
0.09
  9
$DIMTSZ
 40
0.0
  9
$DIMTOL
 70
     0
  9
$DIMLIM
 70
     0
  9
$DIMTIH
 70
     1
  9
$DIMTOH
 70
     1
  9
$DIMSE1
 70
     0
  9
$DIMSE2
 70
     0
  9
$DIMTAD
 70
     0
  9
$DIMZIN
 70
     0
  9
$DIMBLK
  1

  9
$DIMASO
 70
     1
  9
$DIMSHO
 70
     1
  9
$DIMPOST
  1

  9
$DIMAPOST
  1

  9
$DIMALT
 70
     0
  9
$DIMALTD
 70
     2
  9
$DIMALTF
 40
25.4
  9
$DIMLFAC
 40
1.0
  9
$DIMTOFL
 70
     0
  9
$DIMTVP
 40
0.0
  9
$DIMTIX
 70
     0
  9
$DIMSOXD
 70
     0
  9
$DIMSAH
 70
     0
  9
$DIMBLK1
  1

  9
$DIMBLK2
  1

  9
$DIMSTYLE
  2
*UNNAMED
  9
$DIMCLRD
 70
     0
  9
$DIMCLRE
 70
     0
  9
$DIMCLRT
 70
     0
  9
$DIMTFAC
 40
1.0
  9
$DIMGAP
 40
0.09
  9
$LUNITS
 70
     2
  9
$LUPREC
 70
     4
  9
$SKETCHINC
 40
0.1
  9
$FILLETRAD
 40
0.0
  9
$AUNITS
 70
     0
  9
$AUPREC
 70
     0
  9
$MENU
  1
acad
  9
$ELEVATION
 40
0.0
  9
$PELEVATION
 40
0.0
  9
$THICKNESS
 40
0.0
  9
$LIMCHECK
 70
     0
  9
$BLIPMODE
 70
     0
  9
$CHAMFERA
 40
0.0
  9
$CHAMFERB
 40
0.0
  9
$SKPOLY
 70
     0
  9
$TDCREATE
 40
2450899.343304629
  9
$TDUPDATE
 40
2450899.343505555
  9
$TDINDWG
 40
0.0001113426
  9
$TDUSRTIMER
 40
0.0001113426
  9
$USRTIMER
 70
     1
  9
$ANGBASE
 50
0.0
  9
$ANGDIR
 70
     0
  9
$PDMODE
 70
     0
  9
$PDSIZE
 40
0.0
  9
$PLINEWID
 40
0.0
  9
$COORDS
 70
     1
  9
$SPLFRAME
 70
     0
  9
$SPLINETYPE
 70
     6
  9
$SPLINESEGS
 70
     8
  9
$ATTDIA
 70
     0
  9
$ATTREQ
 70
     1
  9
$HANDLING
 70
     0
  9
$HANDSEED
  5
0
  9
$SURFTAB1
 70
     6
  9
$SURFTAB2
 70
     6
  9
$SURFTYPE
 70
     6
  9
$SURFU
 70
     6
  9
$SURFV
 70
     6
  9
$UCSNAME
  2

  9
$UCSORG
 10
0.0
 20
0.0
 30
0.0
  9
$UCSXDIR
 10
1.0
 20
0.0
 30
0.0
  9
$UCSYDIR
 10
0.0
 20
1.0
 30
0.0
  9
$PUCSNAME
  2

  9
$PUCSORG
 10
0.0
 20
0.0
 30
0.0
  9
$PUCSXDIR
 10
1.0
 20
0.0
 30
0.0
  9
$PUCSYDIR
 10
0.0
 20
1.0
 30
0.0
  9
$USERI1
 70
     0
  9
$USERI2
 70
     0
  9
$USERI3
 70
     0
  9
$USERI4
 70
     0
  9
$USERI5
 70
     0
  9
$USERR1
 40
0.0
  9
$USERR2
 40
0.0
  9
$USERR3
 40
0.0
  9
$USERR4
 40
0.0
  9
$USERR5
 40
0.0
  9
$WORLDVIEW
 70
     1
  9
$SHADEDGE
 70
     3
  9
$SHADEDIF
 70
    70
  9
$TILEMODE
 70
     1
  9
$MAXACTVP
 70
    16
  9
$PINSBASE
 10
0.0
 20
0.0
 30
0.0
  9
$PLIMCHECK
 70
     0
  9
$PEXTMIN
 10
1.000000E+20
 20
1.000000E+20
 30
1.000000E+20
  9
$PEXTMAX
 10
-1.000000E+20
 20
-1.000000E+20
 30
-1.000000E+20
  9
$PLIMMIN
 10
0.0
 20
0.0
  9
$PLIMMAX
 10
12.0
 20
9.0
  9
$UNITMODE
 70
     0
  9
$VISRETAIN
 70
     0
  9
$PLINEGEN
 70
     0
  9
$PSLTSCALE
 70
     1
  9
$TREEDEPTH
 70
  3020
  9
$DWGCODEPAGE
  3
iso8859-1
  0
ENDSEC
  0
SECTION
  2
TABLES
  0
TABLE
  2
VPORT
 70
     2
  0
VPORT
  2
*ACTIVE
 70
     0
 10
0.0
 20
0.0
 11
1.0
 21
1.0
 12
3.195109
 22
2.587887
 13
0.0
 23
0.0
 14
1.0
 24
1.0
 15
0.0
 25
0.0
 16
0.0
 26
0.0
 36
1.0
 17
0.0
 27
0.0
 37
0.0
 40
51.853588
 41
1.573846
 42
50.0
 43
0.0
 44
0.0
 50
0.0
 51
0.0
 71
     0
 72
  1000
 73
     1
 74
     1
 75
     0
 76
     0
 77
     0
 78
     1
  0
ENDTAB
  0
TABLE
  2
LTYPE
 70
     1
  0
LTYPE
  2
CONTINUOUS
 70
    64
  3
Solid line
 72
    65
 73
     0
 40
0.0
  0
ENDTAB
  0
TABLE
  2
LAYER
 70
     1
  0
LAYER
  2
0
 70
    64
 62
     7
  6
CONTINUOUS
  0
ENDTAB
  0
TABLE
  2
STYLE
 70
     1
  0
STYLE
  2
STANDARD
 70
    64
 40
0.0
 41
1.0
 50
0.0
 71
     0
 42
0.001
  3
txt
  4

  0
ENDTAB
  0
TABLE
  2
VIEW
 70
     0
  0
ENDTAB
  0
TABLE
  2
UCS
 70
     0
  0
ENDTAB
  0
TABLE
  2
APPID
 70
     1
  0
APPID
  2
ACAD
 70
    64
  0
ENDTAB
  0
TABLE
  2
DIMSTYLE
 70
     0
  0
ENDTAB
  0
ENDSEC
  0
SECTION
  2
BLOCKS
  0
ENDSEC
  0
SECTION
  2
ENTITIES
  0
ARC
  8
0
 10
-0.751558
 20
-89.758603
 30
0.0
 40
107.751591
 50
89.588395
 51
102.682809
  0
ARC
  8
0
 10
0.706119
 20
-89.758603
 30
0.0
 40
107.751591
 50
77.317191
 51
90.411605
  0
ARC
  8
0
 10
25.811698
 20
-0.285538
 30
0.0
 40
51.549635
 50
172.326684
 51
188.176709
  0
ARC
  8
0
 10
50.118046
 20
-1.623837
 30
0.0
 40
83.663005
 50
172.407017
 51
178.887861
  0
ARC
  8
0
 10
5.976552
 20
1.250799
 30
0.0
 40
38.886788
 50
168.082036
 51
181.843244
  0
ARC
  8
0
 10
19.348625
 20
0.587256
 30
0.0
 40
50.033111
 50
170.397766
 51
180.672516
  0
ARC
  8
0
 10
-11.597981
 20
-24.286041
 30
0.0
 40
43.80916
 50
95.588622
 51
107.187059
  0
ARC
  8
0
 10
-1.498148
 20
-90.897143
 30
0.0
 40
111.903318
 50
89.256175
 51
100.306784
  0
ARC
  8
0
 10
-16.304972
 20
5.416835
 30
0.0
 40
9.024824
 50
97.516559
 51
172.765434
  0
ARC
  8
0
 10
-26.55638
 20
10.921191
 30
0.0
 40
4.602142
 50
123.233431
 51
148.446303
  0
ARC
  8
0
 10
-23.3945
 20
8.227072
 30
0.0
 40
9.493523
 50
130.590814
 51
172.714539
  0
ARC
  8
0
 10
-22.094724
 20
7.726193
 30
0.0
 40
7.980569
 50
106.855763
 51
171.301469
  0
ARC
  8
0
 10
-19.868446
 20
6.814192
 30
0.0
 40
12.450448
 50
148.446303
 51
168.570744
  0
ARC
  8
0
 10
-22.697457
 20
11.597363
 30
0.0
 40
7.09183
 50
108.3858
 51
125.814576
  0
ARC
  8
0
 10
-22.902684
 20
12.262776
 30
0.0
 40
5.551973
 50
107.187059
 51
128.215996
  0
ARC
  8
0
 10
-26.369113
 20
16.943412
 30
0.0
 40
1.66575
 50
257.241084
 51
289.115238
  0
ARC
  8
0
 10
-26.179092
 20
13.5005
 30
0.0
 40
4.113878
 50
114.07716
 51
135.785777
  0
LINE
  8
0
 10
-26.736992
 20
15.318793
 30
0.0
 11
-27.857416
 21
17.256458
 31
0.0
  0
ARC
  8
0
 10
-29.645649
 20
15.636082
 30
0.0
 40
1.034681
 50
303.233431
 51
6.236909
  0
LINE
  8
0
 10
-27.739154
 20
14.646812
 30
0.0
 11
-29.127662
 21
16.369285
 31
0.0
  0
ARC
  8
0
 10
-30.243913
 20
16.328156
 30
0.0
 40
1.117008
 50
307.01263
 51
2.110117
  0
ARC
  8
0
 10
-25.852837
 20
12.916923
 30
0.0
 40
2.559435
 50
110.209222
 51
137.476924
  0
ARC
  8
0
 10
-28.751957
 20
14.519057
 30
0.0
 40
1.020828
 50
312.958584
 51
7.189298
  0
ARC
  8
0
 10
-25.787194
 20
12.805857
 30
0.0
 40
4.082574
 50
114.098196
 51
133.881201
  0
ARC
  8
0
 10
-26.965406
 20
17.422609
 30
0.0
 40
1.015339
 50
241.227931
 51
308.215996
  0
ARC
  8
0
 10
-27.429901
 20
18.155541
 30
0.0
 40
0.99555
 50
244.568814
 51
305.814576
  0
ARC
  8
0
 10
-17.043901
 20
-5.411927
 30
0.0
 40
25.016078
 50
100.306784
 51
108.3858
  0
ARC
  8
0
 10
-0.940487
 20
-113.684736
 30
0.0
 40
129.113304
 50
89.595714
 51
97.362333
  0
ARC
  8
0
 10
1.916417
 20
-162.398928
 30
0.0
 40
182.581666
 50
90.609097
 51
95.588622
  0
ARC
  8
0
 10
-25.857136
 20
-0.285538
 30
0.0
 40
51.549635
 50
351.823291
 51
7.673316
  0
ARC
  8
0
 10
-19.394063
 20
0.587256
 30
0.0
 40
50.033111
 50
359.327484
 51
9.602234
  0
ARC
  8
0
 10
-6.02199
 20
1.250799
 30
0.0
 40
38.886788
 50
358.156756
 51
11.917964
  0
ARC
  8
0
 10
-50.163485
 20
-1.623837
 30
0.0
 40
83.663005
 50
1.112139
 51
7.592983
  0
ARC
  8
0
 10
1.45271
 20
-90.897143
 30
0.0
 40
111.903318
 50
79.693216
 51
90.743825
  0
ARC
  8
0
 10
11.552543
 20
-24.286041
 30
0.0
 40
43.80916
 50
72.812941
 51
84.411378
  0
ARC
  8
0
 10
16.259534
 20
5.416835
 30
0.0
 40
9.024824
 50
7.234566
 51
82.483441
  0
ARC
  8
0
 10
0.895049
 20
-113.684736
 30
0.0
 40
129.113304
 50
82.637667
 51
90.404286
  0
ARC
  8
0
 10
-1.961855
 20
-162.398928
 30
0.0
 40
182.581666
 50
84.411378
 51
89.390903
  0
ARC
  8
0
 10
22.049285
 20
7.726193
 30
0.0
 40
7.980569
 50
8.698531
 51
73.144237
  0
ARC
  8
0
 10
26.510942
 20
10.921191
 30
0.0
 40
4.602142
 50
31.553697
 51
56.766569
  0
ARC
  8
0
 10
23.349061
 20
8.227072
 30
0.0
 40
9.493523
 50
7.285461
 51
49.409186
  0
ARC
  8
0
 10
19.823007
 20
6.814192
 30
0.0
 40
12.450448
 50
11.429256
 51
31.553697
  0
ARC
  8
0
 10
22.652019
 20
11.597363
 30
0.0
 40
7.09183
 50
54.185424
 51
71.6142
  0
ARC
  8
0
 10
26.323675
 20
16.943412
 30
0.0
 40
1.66575
 50
250.884762
 51
282.758916
  0
ARC
  8
0
 10
22.857246
 20
12.262776
 30
0.0
 40
5.551973
 50
51.784004
 51
72.812941
  0
ARC
  8
0
 10
16.998463
 20
-5.411927
 30
0.0
 40
25.016078
 50
71.6142
 51
79.693216
  0
ARC
  8
0
 10
26.133653
 20
13.5005
 30
0.0
 40
4.113878
 50
44.214223
 51
65.92284
  0
LINE
  8
0
 10
26.691554
 20
15.318793
 30
0.0
 11
27.811978
 21
17.256458
 31
0.0
  0
ARC
  8
0
 10
29.600211
 20
15.636082
 30
0.0
 40
1.034681
 50
173.763091
 51
236.766569
  0
LINE
  8
0
 10
27.693716
 20
14.646812
 30
0.0
 11
29.082224
 21
16.369285
 31
0.0
  0
ARC
  8
0
 10
25.807399
 20
12.916923
 30
0.0
 40
2.559435
 50
42.523076
 51
69.790778
  0
ARC
  8
0
 10
28.706519
 20
14.519057
 30
0.0
 40
1.020828
 50
172.810702
 51
227.041416
  0
ARC
  8
0
 10
25.741755
 20
12.805857
 30
0.0
 40
4.082574
 50
46.118799
 51
65.901804
  0
ARC
  8
0
 10
26.919968
 20
17.422609
 30
0.0
 40
1.015339
 50
231.784004
 51
298.772069
  0
ARC
  8
0
 10
30.198474
 20
16.328156
 30
0.0
 40
1.117008
 50
177.889883
 51
232.98737
  0
ARC
  8
0
 10
27.384462
 20
18.155541
 30
0.0
 40
0.99555
 50
234.185424
 51
295.431186
  0
ARC
  8
0
 10
-0.038772
 20
-7.496316
 30
0.0
 40
1.122671
 50
270.819284
 51
89.180716
  0
ARC
  8
0
 10
-2.067976
 20
214.284359
 30
0.0
 40
227.968967
 50
270.510539
 51
273.32706
  0
ARC
  8
0
 10
0.751926
 20
176.758502
 30
0.0
 40
189.402925
 50
269.761852
 51
273.332832
  0
ARC
  8
0
 10
-0.751558
 20
89.758603
 30
0.0
 40
107.751591
 50
257.317191
 51
270.411605
  0
ARC
  8
0
 10
2.022538
 20
214.284359
 30
0.0
 40
227.968967
 50
266.67294
 51
269.489461
  0
ARC
  8
0
 10
-0.797364
 20
176.758502
 30
0.0
 40
189.402925
 50
266.667168
 51
270.238148
  0
ARC
  8
0
 10
0.706119
 20
89.758603
 30
0.0
 40
107.751591
 50
269.588395
 51
282.682809
  0
ARC
  8
0
 10
-11.597981
 20
24.286041
 30
0.0
 40
43.80916
 50
252.812941
 51
264.411378
  0
ARC
  8
0
 10
-1.498148
 20
90.897143
 30
0.0
 40
111.903318
 50
259.693216
 51
270.743825
  0
ARC
  8
0
 10
-15.779138
 20
-5.565095
 30
0.0
 40
9.655358
 50
192.271366
 51
263.905559
  0
ARC
  8
0
 10
-26.55638
 20
-10.921191
 30
0.0
 40
4.602142
 50
211.553697
 51
236.766569
  0
ARC
  8
0
 10
-23.3945
 20
-8.227072
 30
0.0
 40
9.493523
 50
187.285461
 51
229.409186
  0
ARC
  8
0
 10
-22.094724
 20
-7.726193
 30
0.0
 40
7.980569
 50
188.698531
 51
253.144237
  0
ARC
  8
0
 10
-22.697457
 20
-11.597363
 30
0.0
 40
7.09183
 50
234.185424
 51
251.6142
  0
ARC
  8
0
 10
-22.902684
 20
-12.262776
 30
0.0
 40
5.551973
 50
231.784004
 51
252.812941
  0
ARC
  8
0
 10
-26.369113
 20
-16.943412
 30
0.0
 40
1.66575
 50
70.884762
 51
102.758916
  0
LINE
  8
0
 10
-26.736992
 20
-15.318793
 30
0.0
 11
-27.857416
 21
-17.256458
 31
0.0
  0
ARC
  8
0
 10
-26.179092
 20
-13.5005
 30
0.0
 40
4.113878
 50
224.214223
 51
245.92284
  0
ARC
  8
0
 10
-27.429901
 20
-18.155541
 30
0.0
 40
0.99555
 50
54.185424
 51
115.431186
  0
LINE
  8
0
 10
-27.739154
 20
-14.646812
 30
0.0
 11
-29.127662
 21
-16.369285
 31
0.0
  0
ARC
  8
0
 10
-29.645649
 20
-15.636082
 30
0.0
 40
1.034681
 50
353.763091
 51
56.766569
  0
ARC
  8
0
 10
-30.243913
 20
-16.328156
 30
0.0
 40
1.117008
 50
357.889883
 51
52.98737
  0
ARC
  8
0
 10
-25.852837
 20
-12.916923
 30
0.0
 40
2.559435
 50
222.523076
 51
249.790778
  0
ARC
  8
0
 10
-25.787194
 20
-12.805857
 30
0.0
 40
4.082574
 50
226.118799
 51
245.901804
  0
ARC
  8
0
 10
-26.965406
 20
-17.422609
 30
0.0
 40
1.015339
 50
51.784004
 51
118.772069
  0
ARC
  8
0
 10
-28.751957
 20
-14.519057
 30
0.0
 40
1.020828
 50
352.810702
 51
47.041416
  0
ARC
  8
0
 10
-17.043901
 20
5.411927
 30
0.0
 40
25.016078
 50
251.6142
 51
259.693216
  0
ARC
  8
0
 10
-19.868446
 20
-6.814192
 30
0.0
 40
12.450448
 50
191.429256
 51
211.553697
  0
ARC
  8
0
 10
5.976552
 20
-1.250799
 30
0.0
 40
38.886788
 50
178.156756
 51
191.917964
  0
ARC
  8
0
 10
50.118046
 20
1.623837
 30
0.0
 40
83.663005
 50
181.112139
 51
187.592983
  0
ARC
  8
0
 10
19.348625
 20
-0.587256
 30
0.0
 40
50.033111
 50
179.327484
 51
189.602234
  0
ARC
  8
0
 10
-11.960296
 20
-14.930554
 30
0.0
 40
2.610891
 50
86.667168
 51
153.97082
  0
ARC
  8
0
 10
-11.352184
 20
-15.784738
 30
0.0
 40
2.488561
 50
86.67294
 51
166.589398
  0
ARC
  8
0
 10
1.916417
 20
162.398928
 30
0.0
 40
182.581666
 50
264.411378
 51
269.390903
  0
ARC
  8
0
 10
-16.540283
 20
-12.693857
 30
0.0
 40
2.486078
 50
263.905559
 51
333.97082
  0
ARC
  8
0
 10
-15.990775
 20
-14.678763
 30
0.0
 40
2.280055
 50
276.269053
 51
346.589398
  0
ARC
  8
0
 10
-0.006666
 20
-7.496316
 30
0.0
 40
1.122671
 50
90.819284
 51
269.180716
  0
ARC
  8
0
 10
1.45271
 20
90.897143
 30
0.0
 40
111.903318
 50
269.256175
 51
280.306784
  0
ARC
  8
0
 10
15.733699
 20
-5.565095
 30
0.0
 40
9.655358
 50
276.094441
 51
347.728634
  0
ARC
  8
0
 10
11.552543
 20
24.286041
 30
0.0
 40
43.80916
 50
275.588622
 51
287.187059
  0
ARC
  8
0
 10
11.306746
 20
-15.784738
 30
0.0
 40
2.488561
 50
13.410602
 51
93.32706
  0
ARC
  8
0
 10
11.914858
 20
-14.930554
 30
0.0
 40
2.610891
 50
26.02918
 51
93.332832
  0
ARC
  8
0
 10
-1.961855
 20
162.398928
 30
0.0
 40
182.581666
 50
270.609097
 51
275.588622
  0
ARC
  8
0
 10
16.494845
 20
-12.693857
 30
0.0
 40
2.486078
 50
206.02918
 51
276.094441
  0
ARC
  8
0
 10
15.945336
 20
-14.678763
 30
0.0
 40
2.280055
 50
193.410602
 51
263.730947
  0
ARC
  8
0
 10
26.510942
 20
-10.921191
 30
0.0
 40
4.602142
 50
303.233431
 51
328.446303
  0
ARC
  8
0
 10
22.049285
 20
-7.726193
 30
0.0
 40
7.980569
 50
286.855763
 51
351.301469
  0
ARC
  8
0
 10
23.349061
 20
-8.227072
 30
0.0
 40
9.493523
 50
310.590814
 51
352.714539
  0
ARC
  8
0
 10
26.323675
 20
-16.943412
 30
0.0
 40
1.66575
 50
77.241084
 51
109.115238
  0
ARC
  8
0
 10
22.857246
 20
-12.262776
 30
0.0
 40
5.551973
 50
287.187059
 51
308.215996
  0
ARC
  8
0
 10
22.652019
 20
-11.597363
 30
0.0
 40
7.09183
 50
288.3858
 51
305.814576
  0
ARC
  8
0
 10
16.998463
 20
5.411927
 30
0.0
 40
25.016078
 50
280.306784
 51
288.3858
  0
ARC
  8
0
 10
26.133653
 20
-13.5005
 30
0.0
 40
4.113878
 50
294.07716
 51
315.785777
  0
LINE
  8
0
 10
26.691554
 20
-15.318793
 30
0.0
 11
27.811978
 21
-17.256458
 31
0.0
  0
ARC
  8
0
 10
27.384462
 20
-18.155541
 30
0.0
 40
0.99555
 50
64.568814
 51
125.814576
  0
ARC
  8
0
 10
29.600211
 20
-15.636082
 30
0.0
 40
1.034681
 50
123.233431
 51
186.236909
  0
LINE
  8
0
 10
27.693716
 20
-14.646812
 30
0.0
 11
29.082224
 21
-16.369285
 31
0.0
  0
ARC
  8
0
 10
25.807399
 20
-12.916923
 30
0.0
 40
2.559435
 50
290.209222
 51
317.476924
  0
ARC
  8
0
 10
25.741755
 20
-12.805857
 30
0.0
 40
4.082574
 50
294.098196
 51
313.881201
  0
ARC
  8
0
 10
26.919968
 20
-17.422609
 30
0.0
 40
1.015339
 50
61.227931
 51
128.215996
  0
ARC
  8
0
 10
28.706519
 20
-14.519057
 30
0.0
 40
1.020828
 50
132.958584
 51
187.189298
  0
ARC
  8
0
 10
30.198474
 20
-16.328156
 30
0.0
 40
1.117008
 50
127.01263
 51
182.110117
  0
ARC
  8
0
 10
19.823007
 20
-6.814192
 30
0.0
 40
12.450448
 50
328.446303
 51
348.570744
  0
ARC
  8
0
 10
-19.394063
 20
-0.587256
 30
0.0
 40
50.033111
 50
350.397766
 51
0.672516
  0
ARC
  8
0
 10
-6.02199
 20
-1.250799
 30
0.0
 40
38.886788
 50
348.082036
 51
1.843244
  0
ARC
  8
0
 10
-50.163485
 20
1.623837
 30
0.0
 40
83.663005
 50
352.407017
 51
358.887861
  0
ATTDEF
  8
0
 10
0.0
 20
0.0
 30
0.0
 40
0.001
  1
K-1454
  3

  2
MODELNUMBER
 70
     8
  0
ATTDEF
  8
0
 10
0.0
 20
-0.001667
 30
0.0
 40
0.001
  1
PORTRAIT
  3

  2
TRADENAME
 70
     8
  0
ATTDEF
  8
0
 10
0.0
 20
-0.003333
 30
0.0
 40
0.001
  1
BATH
  3

  2
PRODUCT
 70
     8
  0
ATTDEF
  8
0
 10
0.0
 20
-0.005
 30
0.0
 40
0.001
  1
ACRYLIC
  3

  2
MATERIAL
 70
     8
  0
ENDSEC
  0
EOF
