  0
SECTION
  2
HEADER
  9
$ACADVER
  1
AC1009
  9
$INSBASE
 10
3472.3046411894802077
 20
194.2559183005097054
 30
0.0
  9
$EXTMIN
 10
3459.3518852839788451
 20
191.3045573810096869
 30
0.0
  9
$EXTMAX
 10
3485.2573970949788418
 20
194.2608632061717913
 30
0.0
  9
$LIMMIN
 10
0.0
 20
0.0
  9
$LIMMAX
 10
11.6929133858000007
 20
8.2677165353999982
  9
$ORTHOMODE
 70
     0
  9
$REGENMODE
 70
     1
  9
$FILLMODE
 70
     1
  9
$QTEXTMODE
 70
     0
  9
$MIRRTEXT
 70
     0
  9
$DRAGMODE
 70
     2
  9
$LTSCALE
 40
0.6431102362
  9
$OSMODE
 70
  3839
  9
$ATTMODE
 70
     1
  9
$TEXTSIZE
 40
0.2
  9
$TRACEWID
 40
0.05
  9
$TEXTSTYLE
  7
STANDARD
  9
$CLAYER
  8
0
  9
$CELTYPE
  6
BYLAYER
  9
$CECOLOR
 62
   256
  9
$DIMSCALE
 40
1.0
  9
$DIMASZ
 40
0.1875
  9
$DIMEXO
 40
0.0625
  9
$DIMDLI
 40
0.4443307087
  9
$DIMRND
 40
0.0
  9
$DIMDLE
 40
0.0
  9
$DIMEXE
 40
0.125
  9
$DIMTP
 40
0.01
  9
$DIMTM
 40
0.01
  9
$DIMTXT
 40
2.0
  9
$DIMCEN
 40
0.1052362205
  9
$DIMTSZ
 40
0.0
  9
$DIMTOL
 70
     1
  9
$DIMLIM
 70
     0
  9
$DIMTIH
 70
     1
  9
$DIMTOH
 70
     1
  9
$DIMSE1
 70
     0
  9
$DIMSE2
 70
     0
  9
$DIMTAD
 70
     0
  9
$DIMZIN
 70
     0
  9
$DIMBLK
  1

  9
$DIMASO
 70
     1
  9
$DIMSHO
 70
     1
  9
$DIMPOST
  1
\X
  9
$DIMAPOST
  1

  9
$DIMALT
 70
     1
  9
$DIMALTD
 70
     2
  9
$DIMALTF
 40
25.3999999999999986
  9
$DIMLFAC
 40
1.0
  9
$DIMTOFL
 70
     0
  9
$DIMTVP
 40
0.0
  9
$DIMTIX
 70
     0
  9
$DIMSOXD
 70
     0
  9
$DIMSAH
 70
     0
  9
$DIMBLK1
  1

  9
$DIMBLK2
  1

  9
$DIMSTYLE
  2
STANDARD
  9
$DIMCLRD
 70
     0
  9
$DIMCLRE
 70
     0
  9
$DIMCLRT
 70
     0
  9
$DIMTFAC
 40
1.0
  9
$DIMGAP
 40
0.09
  9
$LUNITS
 70
     2
  9
$LUPREC
 70
     4
  9
$SKETCHINC
 40
0.1
  9
$FILLETRAD
 40
0.0
  9
$AUNITS
 70
     0
  9
$AUPREC
 70
     0
  9
$MENU
  1
.
  9
$ELEVATION
 40
0.0
  9
$PELEVATION
 40
0.0
  9
$THICKNESS
 40
0.0
  9
$LIMCHECK
 70
     0
  9
$BLIPMODE
 70
     0
  9
$CHAMFERA
 40
0.0
  9
$CHAMFERB
 40
0.0
  9
$SKPOLY
 70
     0
  9
$TDCREATE
 40
2458060.468368056230247
  9
$TDUPDATE
 40
2459016.7596064819954336
  9
$TDINDWG
 40
0.6852038194
  9
$TDUSRTIMER
 40
0.6852038194
  9
$USRTIMER
 70
     1
  9
$ANGBASE
 50
0.0
  9
$ANGDIR
 70
     0
  9
$PDMODE
 70
     0
  9
$PDSIZE
 40
0.3125
  9
$PLINEWID
 40
0.0
  9
$COORDS
 70
     1
  9
$SPLFRAME
 70
     0
  9
$SPLINETYPE
 70
     6
  9
$SPLINESEGS
 70
     8
  9
$ATTDIA
 70
     1
  9
$ATTREQ
 70
     1
  9
$HANDLING
 70
     1
  9
$HANDSEED
  5
9384
  9
$SURFTAB1
 70
     6
  9
$SURFTAB2
 70
     6
  9
$SURFTYPE
 70
     6
  9
$SURFU
 70
     6
  9
$SURFV
 70
     6
  9
$UCSNAME
  2

  9
$UCSORG
 10
0.0
 20
0.0
 30
0.0
  9
$UCSXDIR
 10
1.0
 20
0.0
 30
0.0
  9
$UCSYDIR
 10
0.0
 20
1.0
 30
0.0
  9
$PUCSNAME
  2

  9
$PUCSORG
 10
0.0
 20
0.0
 30
0.0
  9
$PUCSXDIR
 10
1.0
 20
0.0
 30
0.0
  9
$PUCSYDIR
 10
0.0
 20
1.0
 30
0.0
  9
$USERI1
 70
     0
  9
$USERI2
 70
     0
  9
$USERI3
 70
     0
  9
$USERI4
 70
     0
  9
$USERI5
 70
     0
  9
$USERR1
 40
0.0
  9
$USERR2
 40
0.0
  9
$USERR3
 40
0.0
  9
$USERR4
 40
0.0
  9
$USERR5
 40
0.0
  9
$WORLDVIEW
 70
     1
  9
$SHADEDGE
 70
     3
  9
$SHADEDIF
 70
    70
  9
$TILEMODE
 70
     1
  9
$MAXACTVP
 70
    64
  9
$PLIMCHECK
 70
     0
  9
$PEXTMIN
 10
1.0000000000000000E+20
 20
1.0000000000000000E+20
 30
1.0000000000000000E+20
  9
$PEXTMAX
 10
-1.0000000000000000E+20
 20
-1.0000000000000000E+20
 30
-1.0000000000000000E+20
  9
$PLIMMIN
 10
0.0
 20
0.0
  9
$PLIMMAX
 10
12.0
 20
9.0
  9
$UNITMODE
 70
     0
  9
$VISRETAIN
 70
     1
  9
$PLINEGEN
 70
     0
  9
$PSLTSCALE
 70
     1
  0
ENDSEC
  0
SECTION
  2
TABLES
  0
TABLE
  2
VPORT
 70
     1
  0
VPORT
  2
*ACTIVE
 70
     0
 10
0.0
 20
0.0
 11
1.0
 21
1.0
 12
202.3710769361588859
 22
0.9002385135943669
 13
0.0
 23
0.0
 14
1.0
 24
1.0
 15
0.0
 25
0.0
 16
0.0
 26
0.0
 36
116.782910842256598
 17
3270.0277271544828182
 27
193.0425872802734091
 37
0.0
 40
17.9000320344453883
 41
2.3528591352859132
 42
50.0
 43
0.0
 44
0.0
 50
0.0
 51
0.0
 71
     0
 72
   100
 73
     1
 74
     1
 75
     0
 76
     0
 77
     0
 78
     0
  0
ENDTAB
  0
TABLE
  2
LTYPE
 70
     2
  0
LTYPE
  2
CONTINUOUS
 70
     0
  3
Solid line
 72
    65
 73
     0
 40
0.0
  0
LTYPE
  2
PHANTOM2
 70
     0
  3
___ _ _ ___ _ _ ___ _ _ ___ _ _
 72
    65
 73
     6
 40
1.25
 49
0.625
 49
-0.125
 49
0.125
 49
-0.125
 49
0.125
 49
-0.125
  0
ENDTAB
  0
TABLE
  2
LAYER
 70
     2
  0
LAYER
  2
0
 70
     0
 62
   255
  6
CONTINUOUS
  0
LAYER
  2
DEFPOINTS
 70
     0
 62
     7
  6
CONTINUOUS
  0
ENDTAB
  0
TABLE
  2
STYLE
 70
     1
  0
STYLE
  2
STANDARD
 70
     0
 40
0.0
 41
0.8
 50
0.0
 71
     0
 42
0.2
  3
txt
  4

  0
ENDTAB
  0
TABLE
  2
VIEW
 70
     0
  0
ENDTAB
  0
TABLE
  2
UCS
 70
     0
  0
ENDTAB
  0
TABLE
  2
APPID
 70
     9
  0
APPID
  2
ACAD
 70
     0
  0
APPID
  2
ACAD_MLEADERVER
 70
     0
  0
APPID
  2
ACAD_EXEMPT_FROM_CAD_STANDARDS
 70
     0
  0
APPID
  2
ACAD_NAV_VCDISPLAY
 70
     0
  0
APPID
  2
ACAECLAYERSTANDARD
 70
     0
  0
APPID
  2
ACCMTRANSPARENCY
 70
     0
  0
APPID
  2
ACAD_DSTYLE_DIMJAG
 70
     0
  0
APPID
  2
ACAD_DSTYLE_DIMTALN
 70
     0
  0
APPID
  2
ACDBATTR
 70
     0
  0
ENDTAB
  0
TABLE
  2
DIMSTYLE
 70
     1
  0
DIMSTYLE
  2
STANDARD
 70
     0
  3

  4

  5

  6

  7

 40
1.0
 41
0.1875
 42
0.0625
 43
0.38
 44
0.125
 45
0.0
 46
0.0
 47
0.01
 48
0.01
140
0.15625
141
0.09
142
0.0
143
25.3999999999999986
144
1.0
145
0.0
146
1.0
147
0.09
 71
     1
 72
     0
 73
     1
 74
     1
 75
     0
 76
     0
 77
     0
 78
     4
170
     0
171
     2
172
     0
173
     0
174
     0
175
     0
176
     0
177
     0
178
     0
  0
ENDTAB
  0
ENDSEC
  0
SECTION
  2
BLOCKS
  0
BLOCK
  8
0
  2
$MODEL_SPACE
 70
     0
 10
0.0
 20
0.0
 30
0.0
  3
$MODEL_SPACE
  1

  0
ENDBLK
  5
21
  8
0
  0
BLOCK
 67
     1
  8
0
  2
$PAPER_SPACE
 70
     0
 10
0.0
 20
0.0
 30
0.0
  3
$PAPER_SPACE
  1

  0
ENDBLK
  5
1D
 67
     1
  8
0
  0
BLOCK
  8
0
  2
_FILLED
 70
     0
 10
0.0
 20
0.0
 30
0.0
  3
_FILLED
  1

  0
SOLID
  5
6F59
  8
0
  6
BYBLOCK
 62
     0
 10
0.0
 20
0.0
 30
0.0
 11
-1.0
 21
0.1666666667
 31
0.0
 12
-1.0
 22
-0.1666666667
 32
0.0
 13
-1.0
 23
-0.1666666667
 33
0.0
  0
ENDBLK
  5
6F5A
  8
0
  6
BYBLOCK
 62
     0
  0
ENDSEC
  0
SECTION
  2
ENTITIES
  0
ATTDEF
  5
3930
  8
DEFPOINTS
 10
3472.2963441982919903
 20
194.2598632061717012
 30
0.0
 40
0.001
  1
K-14451T
  3

  2
MODELNUMBER
 70
     0
1001
ACDBATTR
1070
     0
1070
     1
  0
ATTDEF
  5
3931
  8
DEFPOINTS
 10
3472.2963441982919903
 20
194.2581965395050076
 30
0.0
 40
0.001
  1
STILLNESS
  3

  2
TRADENAME
 70
     0
1001
ACDBATTR
1070
     0
1070
     1
  0
ATTDEF
  5
3932
  8
DEFPOINTS
 10
3472.2963441982919903
 20
194.2565298728383141
 30
0.0
 40
0.001
  1
TOWEL BAR
  3

  2
PRODUCT
 70
     0
1001
ACDBATTR
1070
     0
1070
     1
  0
LINE
  5
929B
  8
0
 10
3461.2416485418798402
 20
194.2559183005097054
 30
0.0
 11
3459.3518852839788451
 21
194.2559183005097054
 31
0.0
  0
LINE
  5
929C
  8
0
 10
3459.3518852839788451
 20
194.2559183005097054
 30
0.0
 11
3459.3518852839788451
 21
194.0000127886096948
 31
0.0
  0
ARC
  5
929D
  8
0
 10
3459.3715702830781993
 20
194.0000127483083077
 30
0.0
 40
0.0196849990986405
 50
179.9998826974793076
 51
270.0001170114655906
  0
LINE
  5
929E
  8
0
 10
3459.3715703232801388
 20
193.9803277492096925
 30
0.0
 11
3461.2219640240759873
 21
193.9803315215021087
 31
0.0
  0
ARC
  5
929F
  8
0
 10
3461.2219639839449883
 20
194.0000166014060028
 30
0.0
 40
0.0196850799039493
 50
270.0001168056563188
 51
359.9889024003417148
  0
LINE
  5
92A0
  8
0
 10
3461.2416490634800539
 20
194.0000127886096948
 30
0.0
 11
3461.2416485418798402
 21
194.2559183005097054
 31
0.0
  0
LINE
  5
92A1
  8
0
 10
3459.9424364650790267
 20
193.9803277493097085
 30
0.0
 11
3459.9424364650790267
 21
192.0919589558097016
 31
0.0
  0
LINE
  5
92A2
  8
0
 10
3459.9424364650790267
 20
192.0919589558097016
 30
0.0
 11
3459.4699955201799639
 21
192.0919589558097016
 31
0.0
  0
LINE
  5
92A3
  8
0
 10
3459.4699955201799639
 20
192.0919589558097016
 30
0.0
 11
3459.4699955201799639
 21
191.3045573810096869
 31
0.0
  0
LINE
  5
92A4
  8
0
 10
3459.4699955201799639
 20
191.3045573810096869
 30
0.0
 11
3485.1392868587799967
 21
191.3045573810096869
 31
0.0
  0
LINE
  5
92A5
  8
0
 10
3459.5093655988798673
 20
191.3045573810096869
 30
0.0
 11
3459.5093655988798673
 21
192.0919589558097016
 31
0.0
  0
LINE
  5
92A6
  8
0
 10
3460.6510978823789628
 20
193.9803277493097085
 30
0.0
 11
3460.6510978823789628
 21
192.0919589558097016
 31
0.0
  0
ARC
  5
92A7
  8
0
 10
3461.1819410245329891
 20
193.4120498347016053
 30
0.0
 40
1.810804098029354
 50
226.8033050148515031
 51
235.2521080686881874
  0
ARC
  5
92A8
  8
0
 10
3460.31406979511803
 20
192.1425998817549896
 30
0.0
 40
0.27327982367125
 50
233.0622977717202104
 51
266.3699086010876158
  0
ARC
  5
92A9
  8
0
 10
3460.2743230816709001
 20
192.1563062012897092
 30
0.0
 40
0.287315806151731
 50
274.4803076460869988
 51
305.9690820445648001
  0
ARC
  5
92AA
  8
0
 10
3459.333410082672799
 20
193.5089873984385918
 30
0.0
 40
1.9350118203037849
 50
304.9924221915471207
 51
312.9196020752356162
  0
LINE
  5
92AB
  8
0
 10
3483.3676338370801204
 20
194.2559183005097054
 30
0.0
 11
3485.2573970949788418
 21
194.2559183005097054
 31
0.0
  0
LINE
  5
92AC
  8
0
 10
3485.2573970949788418
 20
194.2559183005097054
 30
0.0
 11
3485.2573970949788418
 21
194.0000127886096948
 31
0.0
  0
ARC
  5
92AD
  8
0
 10
3485.2377120958808518
 20
194.0000127483083077
 30
0.0
 40
0.0196849990986405
 50
269.9998829885344094
 51
0.0001173025206515
  0
LINE
  5
92AE
  8
0
 10
3485.2377120556798218
 20
193.9803277492096925
 30
0.0
 11
3483.3873183548830639
 21
193.9803315215021087
 31
0.0
  0
ARC
  5
92AF
  8
0
 10
3483.3873183950140628
 20
194.0000166014060028
 30
0.0
 40
0.0196850799039493
 50
180.0110975996583136
 51
269.9998831943436812
  0
LINE
  5
92B0
  8
0
 10
3483.3676333154799067
 20
194.0000127886096948
 30
0.0
 11
3483.3676338370801204
 21
194.2559183005097054
 31
0.0
  0
LINE
  5
92B1
  8
0
 10
3484.666845913879115
 20
193.9803277493097085
 30
0.0
 11
3484.666845913879115
 21
192.0919589558097016
 31
0.0
  0
LINE
  5
92B2
  8
0
 10
3484.666845913879115
 20
192.0919589558097016
 30
0.0
 11
3485.1392868587799967
 21
192.0919589558097016
 31
0.0
  0
LINE
  5
92B3
  8
0
 10
3485.1392868587799967
 20
192.0919589558097016
 30
0.0
 11
3485.1392868587799967
 21
191.3045573810096869
 31
0.0
  0
LINE
  5
92B4
  8
0
 10
3485.0999167800791838
 20
191.3045573810096869
 30
0.0
 11
3485.0999167800791838
 21
192.0919589558097016
 31
0.0
  0
LINE
  5
92B5
  8
0
 10
3483.9581844965791788
 20
193.9803277493097085
 30
0.0
 11
3483.9581846414798747
 21
192.0919588083096983
 31
0.0
  0
ARC
  5
92B6
  8
0
 10
3483.4273413544419782
 20
193.4120498346813974
 30
0.0
 40
1.8108040980035469
 50
304.7478919312493986
 51
313.1966949852154016
  0
ARC
  5
92B7
  8
0
 10
3484.2952125838410211
 20
192.1425998817549896
 30
0.0
 40
0.27327982367125
 50
273.6300913989123842
 51
306.937702228279818
  0
ARC
  5
92B8
  8
0
 10
3484.3349592972890605
 20
192.1563062012897092
 30
0.0
 40
0.287315806151731
 50
234.0309179554350862
 51
265.5196923539130012
  0
ARC
  5
92B9
  8
0
 10
3484.3822073120090863
 20
192.4036689412249927
 30
0.0
 40
0.5262684030842024
 50
216.3205770850495924
 51
245.7674087569502035
  0
LINE
  5
92BA
  8
0
 10
3460.6510978823789628
 20
192.0919589558097016
 30
0.0
 11
3483.9581846414798747
 21
192.0919588083096983
 31
0.0
  0
ENDSEC
  0
EOF
