  0
SECTION
  2
HEADER
  9
$ACADVER
  1
AC1021
  9
$ACADMAINTVER
 70
    50
  9
$DWGCODEPAGE
  3
ANSI_936
  9
$LASTSAVEDBY
  1
ko69185
  9
$CUSTOMPROPERTYTAG
  1
AmdtFileType
  9
$CUSTOMPROPERTY
  1
84
  9
$INSBASE
 10
0.0
 20
0.0
 30
0.0
  9
$EXTMIN
 10
54.66348883646006
 20
43.27589774806023
 30
0.0
  9
$EXTMAX
 10
116.6394903909408
 20
175.4478451918016
 30
0.0
  9
$LIMMIN
 10
0.0
 20
0.0
  9
$LIMMAX
 10
17.0
 20
11.0
  9
$ORTHOMODE
 70
     0
  9
$REGENMODE
 70
     1
  9
$FILLMODE
 70
     1
  9
$QTEXTMODE
 70
     0
  9
$MIRRTEXT
 70
     1
  9
$LTSCALE
 40
1.0
  9
$ATTMODE
 70
     1
  9
$TEXTSIZE
 40
0.2
  9
$TRACEWID
 40
0.05
  9
$TEXTSTYLE
  7
STANDARD
  9
$CLAYER
  8
0
  9
$CELTYPE
  6
ByLayer
  9
$CECOLOR
 62
   256
  9
$CELTSCALE
 40
1.0
  9
$DISPSILH
 70
     0
  9
$DIMSCALE
 40
1.0
  9
$DIMASZ
 40
0.12
  9
$DIMEXO
 40
0.05
  9
$DIMDLI
 40
0.5
  9
$DIMRND
 40
0.0
  9
$DIMDLE
 40
0.0
  9
$DIMEXE
 40
0.1
  9
$DIMTP
 40
0.1
  9
$DIMTM
 40
0.1
  9
$DIMTXT
 40
0.12
  9
$DIMCEN
 40
0.0
  9
$DIMTSZ
 40
0.0
  9
$DIMTOL
 70
     0
  9
$DIMLIM
 70
     0
  9
$DIMTIH
 70
     1
  9
$DIMTOH
 70
     1
  9
$DIMSE1
 70
     0
  9
$DIMSE2
 70
     0
  9
$DIMTAD
 70
     0
  9
$DIMZIN
 70
     7
  9
$DIMBLK
  1

  9
$DIMASO
 70
     1
  9
$DIMSHO
 70
     1
  9
$DIMPOST
  1

  9
$DIMAPOST
  1
mm
  9
$DIMALT
 70
     0
  9
$DIMALTD
 70
     2
  9
$DIMALTF
 40
25.4
  9
$DIMLFAC
 40
1.0
  9
$DIMTOFL
 70
     0
  9
$DIMTVP
 40
0.0
  9
$DIMTIX
 70
     0
  9
$DIMSOXD
 70
     0
  9
$DIMSAH
 70
     0
  9
$DIMBLK1
  1

  9
$DIMBLK2
  1

  9
$DIMSTYLE
  2
AM_ANSI
  9
$DIMCLRD
 70
   256
  9
$DIMCLRE
 70
   256
  9
$DIMCLRT
 70
   140
  9
$DIMTFAC
 40
0.71
  9
$DIMGAP
 40
0.06
  9
$DIMJUST
 70
     0
  9
$DIMSD1
 70
     0
  9
$DIMSD2
 70
     0
  9
$DIMTOLJ
 70
     1
  9
$DIMTZIN
 70
     7
  9
$DIMALTZ
 70
     0
  9
$DIMALTTZ
 70
     0
  9
$DIMUPT
 70
     0
  9
$DIMDEC
 70
     4
  9
$DIMTDEC
 70
     4
  9
$DIMALTU
 70
     2
  9
$DIMALTTD
 70
     4
  9
$DIMTXSTY
  7
STANDARD
  9
$DIMAUNIT
 70
     0
  9
$DIMADEC
 70
     0
  9
$DIMALTRND
 40
0.0
  9
$DIMAZIN
 70
     2
  9
$DIMDSEP
 70
    46
  9
$DIMATFIT
 70
     3
  9
$DIMFRAC
 70
     0
  9
$DIMLDRBLK
  1

  9
$DIMLUNIT
 70
     2
  9
$DIMLWD
 70
    -1
  9
$DIMLWE
 70
    -1
  9
$DIMTMOVE
 70
     0
  9
$DIMFXL
 40
1.0
  9
$DIMFXLON
 70
     0
  9
$DIMJOGANG
 40
0.7853981633974483
  9
$DIMTFILL
 70
     0
  9
$DIMTFILLCLR
 70
     0
  9
$DIMARCSYM
 70
     1
  9
$DIMLTYPE
  6
ByBlock
  9
$DIMLTEX1
  6
ByBlock
  9
$DIMLTEX2
  6
ByBlock
  9
$LUNITS
 70
     2
  9
$LUPREC
 70
     4
  9
$SKETCHINC
 40
0.1
  9
$FILLETRAD
 40
0.125
  9
$AUNITS
 70
     0
  9
$AUPREC
 70
     0
  9
$MENU
  1
.
  9
$ELEVATION
 40
0.0
  9
$PELEVATION
 40
0.0
  9
$THICKNESS
 40
0.0
  9
$LIMCHECK
 70
     0
  9
$CHAMFERA
 40
0.125
  9
$CHAMFERB
 40
0.125
  9
$CHAMFERC
 40
1.0
  9
$CHAMFERD
 40
0.0
  9
$SKPOLY
 70
     0
  9
$TDCREATE
 40
2455344.698366748
  9
$TDUCREATE
 40
2455344.365033414
  9
$TDUPDATE
 40
2455344.698607778
  9
$TDUUPDATE
 40
2455344.365274444
  9
$TDINDWG
 40
0.0002413889
  9
$TDUSRTIMER
 40
0.0002413889
  9
$USRTIMER
 70
     1
  9
$ANGBASE
 50
0.0
  9
$ANGDIR
 70
     0
  9
$PDMODE
 70
     0
  9
$PDSIZE
 40
0.0
  9
$PLINEWID
 40
0.0
  9
$SPLFRAME
 70
     0
  9
$SPLINETYPE
 70
     6
  9
$SPLINESEGS
 70
     8
  9
$HANDSEED
  5
883
  9
$SURFTAB1
 70
     6
  9
$SURFTAB2
 70
     6
  9
$SURFTYPE
 70
     6
  9
$SURFU
 70
     6
  9
$SURFV
 70
     6
  9
$UCSBASE
  2

  9
$UCSNAME
  2

  9
$UCSORG
 10
0.0
 20
0.0
 30
0.0
  9
$UCSXDIR
 10
1.0
 20
0.0
 30
0.0
  9
$UCSYDIR
 10
0.0
 20
1.0
 30
0.0
  9
$UCSORTHOREF
  2

  9
$UCSORTHOVIEW
 70
     0
  9
$UCSORGTOP
 10
0.0
 20
0.0
 30
0.0
  9
$UCSORGBOTTOM
 10
0.0
 20
0.0
 30
0.0
  9
$UCSORGLEFT
 10
0.0
 20
0.0
 30
0.0
  9
$UCSORGRIGHT
 10
0.0
 20
0.0
 30
0.0
  9
$UCSORGFRONT
 10
0.0
 20
0.0
 30
0.0
  9
$UCSORGBACK
 10
0.0
 20
0.0
 30
0.0
  9
$PUCSBASE
  2

  9
$PUCSNAME
  2

  9
$PUCSORG
 10
0.0
 20
0.0
 30
0.0
  9
$PUCSXDIR
 10
1.0
 20
0.0
 30
0.0
  9
$PUCSYDIR
 10
0.0
 20
1.0
 30
0.0
  9
$PUCSORTHOREF
  2

  9
$PUCSORTHOVIEW
 70
     0
  9
$PUCSORGTOP
 10
0.0
 20
0.0
 30
0.0
  9
$PUCSORGBOTTOM
 10
0.0
 20
0.0
 30
0.0
  9
$PUCSORGLEFT
 10
0.0
 20
0.0
 30
0.0
  9
$PUCSORGRIGHT
 10
0.0
 20
0.0
 30
0.0
  9
$PUCSORGFRONT
 10
0.0
 20
0.0
 30
0.0
  9
$PUCSORGBACK
 10
0.0
 20
0.0
 30
0.0
  9
$USERI1
 70
     0
  9
$USERI2
 70
     0
  9
$USERI3
 70
     0
  9
$USERI4
 70
     0
  9
$USERI5
 70
     0
  9
$USERR1
 40
0.0
  9
$USERR2
 40
0.0
  9
$USERR3
 40
0.0
  9
$USERR4
 40
0.0
  9
$USERR5
 40
0.0
  9
$WORLDVIEW
 70
     1
  9
$SHADEDGE
 70
     3
  9
$SHADEDIF
 70
    70
  9
$TILEMODE
 70
     1
  9
$MAXACTVP
 70
    64
  9
$PINSBASE
 10
0.0
 20
0.0
 30
0.0
  9
$PLIMCHECK
 70
     0
  9
$PEXTMIN
 10
1.000000000000000E+20
 20
1.000000000000000E+20
 30
1.000000000000000E+20
  9
$PEXTMAX
 10
-1.000000000000000E+20
 20
-1.000000000000000E+20
 30
-1.000000000000000E+20
  9
$PLIMMIN
 10
0.0
 20
0.0
  9
$PLIMMAX
 10
12.0
 20
9.0
  9
$UNITMODE
 70
     0
  9
$VISRETAIN
 70
     1
  9
$PLINEGEN
 70
     0
  9
$PSLTSCALE
 70
     1
  9
$TREEDEPTH
 70
  3020
  9
$CMLSTYLE
  2
Standard
  9
$CMLJUST
 70
     0
  9
$CMLSCALE
 40
1.0
  9
$PROXYGRAPHICS
 70
     1
  9
$MEASUREMENT
 70
     0
  9
$CELWEIGHT
370
    -1
  9
$ENDCAPS
280
     0
  9
$JOINSTYLE
280
     0
  9
$LWDISPLAY
290
     0
  9
$INSUNITS
 70
     1
  9
$HYPERLINKBASE
  1

  9
$STYLESHEET
  1

  9
$XEDIT
290
     1
  9
$CEPSNTYPE
380
     0
  9
$PSTYLEMODE
290
     1
  9
$FINGERPRINTGUID
  2
{24C08907-4047-4B6A-9082-BCBCBA013426}
  9
$VERSIONGUID
  2
{D3898EFA-22CF-4668-9642-C60441842F66}
  9
$EXTNAMES
290
     1
  9
$PSVPSCALE
 40
0.0
  9
$OLESTARTUP
290
     0
  9
$SORTENTS
280
   127
  9
$INDEXCTL
280
     0
  9
$HIDETEXT
280
     0
  9
$XCLIPFRAME
290
     0
  9
$HALOGAP
280
     0
  9
$OBSCOLOR
 70
   257
  9
$OBSLTYPE
280
     0
  9
$INTERSECTIONDISPLAY
280
     0
  9
$INTERSECTIONCOLOR
 70
   257
  9
$DIMASSOC
280
     2
  9
$PROJECTNAME
  1

  9
$CAMERADISPLAY
290
     0
  9
$LENSLENGTH
 40
50.0
  9
$CAMERAHEIGHT
 40
0.0
  9
$STEPSPERSEC
 40
2.0
  9
$STEPSIZE
 40
6.0
  9
$3DDWFPREC
 40
2.0
  9
$PSOLWIDTH
 40
0.25
  9
$PSOLHEIGHT
 40
4.0
  9
$LOFTANG1
 40
1.570796326794896
  9
$LOFTANG2
 40
1.570796326794896
  9
$LOFTMAG1
 40
0.0
  9
$LOFTMAG2
 40
0.0
  9
$LOFTPARAM
 70
     7
  9
$LOFTNORMALS
280
     1
  9
$LATITUDE
 40
37.795
  9
$LONGITUDE
 40
-122.394
  9
$NORTHDIRECTION
 40
0.0
  9
$TIMEZONE
 70
 -8000
  9
$LIGHTGLYPHDISPLAY
280
     1
  9
$TILEMODELIGHTSYNCH
280
     1
  9
$CMATERIAL
347
293
  9
$SOLIDHIST
280
     1
  9
$SHOWHIST
280
     1
  9
$DWFFRAME
280
     2
  9
$DGNFRAME
280
     0
  9
$REALWORLDSCALE
290
     1
  9
$INTERFERECOLOR
 62
     1
  9
$INTERFEREOBJVS
345
2A0
  9
$INTERFEREVPVS
346
29D
  9
$CSHADOW
280
     0
  9
$SHADOWPLANELOCATION
 40
0.0
  0
ENDSEC
  0
SECTION
  2
CLASSES
  0
CLASS
  1
ACDBDICTIONARYWDFLT
  2
AcDbDictionaryWithDefault
  3
ObjectDBX Classes
 90
        0
 91
        1
280
     0
281
     0
  0
CLASS
  1
ACME_DOCUMENT
  2
AcMeDbDoc
  3
AcMeServices
 90
     1024
 91
        2
280
     0
281
     0
  0
CLASS
  1
AMGSETTINGSOBJ
  2
AmgSettingsObj
  3
"AcadM|Product Description: AutoCAD Mechanical|Company: Autodesk, Inc."
 90
     1024
 91
        4
280
     0
281
     0
  0
CLASS
  1
ACMESCOPE
  2
AcMeScope
  3
AcMeServices
 90
     1024
 91
        1
280
     0
281
     0
  0
CLASS
  1
ACMECOMMANDHISTORY
  2
AcMeCommandHistory
  3
AcMeServices
 90
     1024
 91
        1
280
     0
281
     0
  0
CLASS
  1
ACIMSYSVARMAN
  2
AcImSysVarManager
  3
AcMeServices
 90
     1024
 91
        5
280
     0
281
     0
  0
CLASS
  1
ACIMREALSYSVAR
  2
AcImRealSysVar
  3
AcMeServices
 90
     1024
 91
        3
280
     0
281
     0
  0
CLASS
  1
ACIMINTSYSVAR
  2
AcImIntSysVar
  3
AcMeServices
 90
     1024
 91
       27
280
     0
281
     0
  0
CLASS
  1
ACMEDRAWINGMAN
  2
AcMeDrawingMan
  3
AcMeServices
 90
     1024
 91
        1
280
     0
281
     0
  0
CLASS
  1
ACMEVIEW
  2
AcMeView
  3
AcMeServices
 90
     1024
 91
        1
280
     0
281
     0
  0
CLASS
  1
ACDBENTITYCACHE
  2
AcMeEntityCache
  3
AcMeServices
 90
     1024
 91
        1
280
     0
281
     0
  0
CLASS
  1
GSMANAGER
  2
AcMeGSManager
  3
AcMeServices
 90
     1024
 91
        1
280
     0
281
     0
  0
CLASS
  1
AMDTINTERNALREACTOR
  2
AmdtInternalReactor
  3
AcMeServices
 90
     1024
 91
        2
280
     0
281
     0
  0
CLASS
  1
ACMESTATEMGR
  2
AcMeStateMgr
  3
AcMeServices
 90
     1024
 91
        1
280
     0
281
     0
  0
CLASS
  1
ACGREFMASTER
  2
AcGrefMaster
  3
AcAttribServices
 90
     1024
 91
        1
280
     0
281
     0
  0
CLASS
  1
ACME_DATABASE
  2
AcMeDbDatabase
  3
AcMeServices
 90
     1024
 91
        2
280
     0
281
     0
  0
CLASS
  1
ACRFINSADJUSTERMGR
  2
AcRfInsAdjusterMgr
  3
AcMeServices
 90
     1024
 91
        1
280
     0
281
     0
  0
CLASS
  1
ACGREFACADMASTER
  2
AcGrefacadMaster
  3
AcGrefServices
 90
     1024
 91
        1
280
     0
281
     0
  0
CLASS
  1
AMIMASTER
  2
AmiMaster
  3
AmiServices
 90
     1024
 91
        1
280
     0
281
     0
  0
CLASS
  1
ACMDATADICTIONARY
  2
AcmDataDictionary
  3
"AcmSymBB|Product Description: AutoCAD Mechanical|Company: Autodesk, Inc."
 90
     1024
 91
        1
280
     0
281
     0
  0
CLASS
  1
ACMDATAENTRYBLOCK
  2
AcmDataEntryBlock
  3
AcmSymBB|Product Description: AutoCAD Mechanical|Company: Autodesk, Inc.
 90
     1024
 91
        2
280
     0
281
     0
  0
CLASS
  1
ACIMSTRSYSVAR
  2
AcImStrSysVar
  3
AcMeServices
 90
     1024
 91
        5
280
     0
281
     0
  0
CLASS
  1
ACMSTANDARDANSI
  2
AcmStandardANSI
  3
"Amdt_StdImp|Product Description: AutoCAD Mechanical|Company: Autodesk, Inc."
 90
     1024
 91
        1
280
     0
281
     0
  0
CLASS
  1
AMGOBJPROPCFG
  2
AmgObjPropCfg
  3
"AmgLay|Product Description: AutoCAD Mechanical|Company: Autodesk, Inc."
 90
     1025
 91
        1
280
     0
281
     0
  0
CLASS
  1
ACMSURFSTANDARDANSI
  2
AcmSurfTextStdANSI
  3
"Amdt_StdImp|Product Description: AutoCAD Mechanical|Company: Autodesk, Inc."
 90
     1024
 91
        1
280
     0
281
     0
  0
CLASS
  1
ACMFCFSTANDARDANSI
  2
AcmFCFStdANSI
  3
"Amdt_StdImp|Product Description: AutoCAD Mechanical|Company: Autodesk, Inc."
 90
     1024
 91
        1
280
     0
281
     0
  0
CLASS
  1
ACMWELDSTANDARDANSI
  2
AcmWeldingStdANSI
  3
"Amdt_StdImp|Product Description: AutoCAD Mechanical|Company: Autodesk, Inc."
 90
     1024
 91
        1
280
     0
281
     0
  0
CLASS
  1
ACMIDSTANDARDANSI
  2
AcmIdStdANSI
  3
"Amdt_StdImp|Product Description: AutoCAD Mechanical|Company: Autodesk, Inc."
 90
     1024
 91
        1
280
     0
281
     0
  0
CLASS
  1
ACMDATUMSTANDARDANSI
  2
AcmDatumStdANSI
  3
"Amdt_StdImp|Product Description: AutoCAD Mechanical|Company: Autodesk, Inc."
 90
     1024
 91
        1
280
     0
281
     0
  0
CLASS
  1
ACMBOMSTANDARDANSI
  2
AcmBOMStdANSI
  3
"Amdt_StdImp|Product Description: AutoCAD Mechanical|Company: Autodesk, Inc."
 90
     1024
 91
        1
280
     0
281
     0
  0
CLASS
  1
ACMDETAILSTANDARDANSI
  2
AmdtDetailSymStdANSI
  3
"Amdt_StdImp|Product Description: AutoCAD Mechanical|Company: Autodesk, Inc."
 90
     1024
 91
        1
280
     0
281
     0
  0
CLASS
  1
ACMSECTIONSTANDARDANSI
  2
AmdtSectionSymStdANSI
  3
"Amdt_StdImp|Product Description: AutoCAD Mechanical|Company: Autodesk, Inc."
 90
     1024
 91
        1
280
     0
281
     0
  0
CLASS
  1
ACMCENTERLINESTANDARDANSI
  2
AmdtCenterLineStdANSI
  3
"Amdt_StdImp|Product Description: AutoCAD Mechanical|Company: Autodesk, Inc."
 90
     1024
 91
        1
280
     0
281
     0
  0
CLASS
  1
ACMNOTESTANDARDANSI
  2
AmdtNoteStdANSI
  3
"Amdt_StdImp|Product Description: AutoCAD Mechanical|Company: Autodesk, Inc."
 90
     1024
 91
        1
280
     0
281
     0
  0
CLASS
  1
ACAMGLAYSTD
  2
AcAmgLayStd
  3
"AmgLay|Product Description: AutoCAD Mechanical|Company: Autodesk, Inc."
 90
     1024
 91
        1
280
     0
281
     0
  0
CLASS
  1
ACAMGDIMSTD
  2
AcAmgDimStd
  3
"AmgDim|Product Description: AutoCAD Mechanical|Company: Autodesk, Inc."
 90
     1024
 91
        1
280
     0
281
     0
  0
CLASS
  1
ACAMGHOLECHARTSTDANSI
  2
AcAmgHoleChartStdANSI
  3
AmgDim|Product Description: AutoCAD Mechanical|Company: Autodesk, Inc.
 90
     1024
 91
        1
280
     0
281
     0
  0
CLASS
  1
ACAMGTITLESTD
  2
AcAmgTitleStd
  3
"AmgTitle|Product Description: AutoCAD Mechanical|Company: Autodesk, Inc."
 90
     4095
 91
        1
280
     0
281
     0
  0
CLASS
  1
LAYER_INDEX
  2
AcDbLayerIndex
  3
ObjectDBX Classes
 90
        0
 91
        0
280
     0
281
     0
  0
CLASS
  1
IDBUFFER
  2
AcDbIdBuffer
  3
ObjectDBX Classes
 90
        0
 91
        0
280
     0
281
     0
  0
CLASS
  1
DICTIONARYVAR
  2
AcDbDictionaryVar
  3
ObjectDBX Classes
 90
        0
 91
        9
280
     0
281
     0
  0
CLASS
  1
AM_DRAWING_MGR
  2
AcDmDwgMgr
  3
AcMechDwgViewMgmt
 90
     1024
 91
        1
280
     0
281
     0
  0
CLASS
  1
AM_DWG_DOCUMENT
  2
AcDmDwgDocument
  3
AcMechDwgViewMgmt
 90
     1024
 91
        1
280
     0
281
     0
  0
CLASS
  1
AM_DWG_SHEET
  2
AcDmSheet
  3
AcMechDwgViewMgmt
 90
     1024
 91
        2
280
     0
281
     0
  0
CLASS
  1
AM_VIEWDIMPARMAP
  2
AcDmViewDimParMap
  3
AcMechDwgViewMgmt
 90
     1024
 91
        2
280
     0
281
     0
  0
CLASS
  1
AM_DWGMGR_NAME
  2
AcDmDwgMgrName
  3
AcMechDwgViewMgmt
 90
     1024
 91
        1
280
     0
281
     0
  0
CLASS
  1
AMDTMENUSTATEMGR
  2
AmdtMenuStateMgr
  3
McadcomServices
 90
     1024
 91
        1
280
     0
281
     0
  0
CLASS
  1
AMDTMCOMMENUSTATE
  2
AmdtMcomMenuState
  3
McadcomServices
 90
     1024
 91
        1
280
     0
281
     0
  0
CLASS
  1
MAPIAMMOUDLE
  2
MApiAmModule
  3
MApiAmServices
 90
     1024
 91
        1
280
     0
281
     0
  0
CLASS
  1
AMDTADMENUSTATE
  2
AmdtAdMenuState
  3
DesignerServices
 90
     1024
 91
        1
280
     0
281
     0
  0
CLASS
  1
ADAPPL
  2
AcAdAppl
  3
DesignerServices
 90
     1024
 91
        1
280
     0
281
     0
  0
CLASS
  1
DEPMGR
  2
AcAdDepMgr
  3
DesignerServices
 90
     1024
 91
        1
280
     0
281
     0
  0
CLASS
  1
PARAMMGR
  2
AcAdParamMgr
  3
DesignerServices
 90
     1024
 91
        1
280
     0
281
     0
  0
CLASS
  1
PARAMSCOPE
  2
AcAdParamScope
  3
DesignerServices
 90
     1024
 91
        1
280
     0
281
     0
  0
CLASS
  1
NAMEDAPPL
  2
AcAdNamedAppl
  3
DesignerServices
 90
     1024
 91
        1
280
     0
281
     0
  0
CLASS
  1
AMDTDMMENUSTATE
  2
AmdtDmMenuState
  3
AcMechDwgViewMgmt
 90
     1024
 91
        1
280
     0
281
     0
  0
CLASS
  1
AMDTAMMENUSTATE
  2
AmdtAmMenuState
  3
DesignerAssemblies
 90
     1024
 91
        1
280
     0
281
     0
  0
CLASS
  1
ACAMPROJECT
  2
AcAmProject
  3
DesignerAssemblies
 90
     1024
 91
        1
280
     0
281
     0
  0
CLASS
  1
ACAMGRCOMPDEF
  2
AcAmGrCompDef
  3
DesignerAssemblies
 90
     1024
 91
        1
280
     0
281
     0
  0
CLASS
  1
ACCMCONTEXT
  2
AcCmContext
  3
DesignerAssemblies
 90
     1024
 91
        1
280
     0
281
     0
  0
CLASS
  1
ACAMCOMPDEF
  2
AcAmCompDef
  3
DesignerAssemblies
 90
     1024
 91
        1
280
     0
281
     0
  0
CLASS
  1
ACAMCOMPDEFMGR
  2
AcAmCompDefMgr
  3
DesignerAssemblies
 90
     1024
 91
        1
280
     0
281
     0
  0
CLASS
  1
AMCONTEXTMGR
  2
AcAmContextMgr
  3
DesignerAssemblies
 90
     1024
 91
        1
280
     0
281
     0
  0
CLASS
  1
ACAMCONTEXTMODELER
  2
AcAmContextModeler
  3
DesignerAssemblies
 90
     1024
 91
        1
280
     0
281
     0
  0
CLASS
  1
ACMTHREADLINESTANDARDANSI
  2
AmdtThreadLineStdANSI
  3
"Amdt_StdImp|Product Description: AutoCAD Mechanical|Company: Autodesk, Inc."
 90
     1024
 91
        1
280
     0
281
     0
  0
CLASS
  1
CATALOGSTATE
  2
AcAmCatalogState
  3
DesignerAssemblies
 90
     1024
 91
        1
280
     0
281
     0
  0
CLASS
  1
ACAMGRCOMPDEFSET
  2
AcAmGrCompDefSet
  3
DesignerAssemblies
 90
     1024
 91
        1
280
     0
281
     0
  0
CLASS
  1
AMDTBROWSERDBTAB
  2
AmdtBrowserDbTab
  3
McadcomServices
 90
     1024
 91
        1
280
     0
281
     0
  0
CLASS
  1
CBROWSERAPPOBJECT
  2
CBrowserAppObject
  3
McadcomServices
 90
     1024
 91
        3
280
     0
281
     0
  0
CLASS
  1
DM_PLACEHOLDER
  2
AcDmSelsetPlaceholder
  3
AcMechDwgViewMgmt
 90
     1024
 91
        1
280
     0
281
     0
  0
CLASS
  1
TABLESTYLE
  2
AcDbTableStyle
  3
ObjectDBX Classes
 90
     4095
 91
        1
280
     0
281
     0
  0
CLASS
  1
AMDTNOTETEMPLATEDB
  2
AmdtNoteTemplateDB
  3
AcmSymBB|Product Description: AutoCAD Mechanical|Company: Autodesk, Inc.
 90
     1024
 91
        6
280
     0
281
     0
  0
CLASS
  1
MATERIAL
  2
AcDbMaterial
  3
ObjectDBX Classes
 90
     1153
 91
        3
280
     0
281
     0
  0
CLASS
  1
VISUALSTYLE
  2
AcDbVisualStyle
  3
ObjectDBX Classes
 90
     4095
 91
       16
280
     0
281
     0
  0
CLASS
  1
ACRFATTGENMGR
  2
AcRfAttGeneralMgr
  3
AcAttribServices
 90
     1024
 91
        1
280
     0
281
     0
  0
CLASS
  1
ACRFOBJATTMGR
  2
AcRfObjAttGroupMgr
  3
AcAttribServices
 90
     1024
 91
        1
280
     0
281
     0
  0
CLASS
  1
ACRFMCADAPIATTHOLDER
  2
AcRfMCADAPIAttHolder
  3
AcAttribServices
 90
     1024
 91
        1
280
     0
281
     0
  0
CLASS
  1
AMDTSYSATTR
  2
AmdtSystemAttribute
  3
AcAttribServices
 90
     1024
 91
        1
280
     0
281
     0
  0
CLASS
  1
ACMTAPERSTANDARDANSI
  2
AcmTaperStdANSI
  3
"Amdt_StdImp|Product Description: AutoCAD Mechanical|Company: Autodesk, Inc."
 90
     1024
 91
        1
280
     0
281
     0
  0
CLASS
  1
CAMSSTRUCTBTNSTATE
  2
StructBtnState
  3
DesignerAssemblies
 90
     1024
 91
        1
280
     0
281
     0
  0
CLASS
  1
SCALE
  2
AcDbScale
  3
ObjectDBX Classes
 90
     1153
 91
       33
280
     0
281
     0
  0
CLASS
  1
MLEADERSTYLE
  2
AcDbMLeaderStyle
  3
ACDB_MLEADERSTYLE_CLASS
 90
     4095
 91
        1
280
     0
281
     0
  0
CLASS
  1
ACMANOOTATIONVIEWSTANDARDANSI
  2
AmdtAnViewStdANSI
  3
"Amdt_StdImp|Product Description: AutoCAD Mechanical|Company: Autodesk, Inc."
 90
     1024
 91
        1
280
     0
281
     0
  0
CLASS
  1
CELLSTYLEMAP
  2
AcDbCellStyleMap
  3
ObjectDBX Classes
 90
     1152
 91
        2
280
     0
281
     0
  0
CLASS
  1
EXACXREFPANELOBJECT
  2
ExAcXREFPanelObject
  3
EXAC_ESW
 90
     1025
 91
        1
280
     0
281
     0
  0
CLASS
  1
NPOCOLLECTION
  2
AcDbImpNonPersistentObjectsCollection
  3
ObjectDBX Classes
 90
     1153
 91
        1
280
     0
281
     0
  0
CLASS
  1
ACAMGFILTERDAT
  2
AcAmgFilterDat
  3
"AcadM|Product Description: AutoCAD Mechanical|Company: Autodesk, Inc."
 90
     1024
 91
        6
280
     0
281
     0
  0
ENDSEC
  0
SECTION
  2
TABLES
  0
TABLE
  2
VPORT
  5
8
330
0
100
AcDbSymbolTable
 70
     1
  0
VPORT
  5
291
330
8
100
AcDbSymbolTableRecord
100
AcDbViewportTableRecord
  2
*Active
 70
     0
 10
0.0
 20
0.0
 11
1.0
 21
1.0
 12
112.1456607852103
 22
94.83910558898207
 13
0.0
 23
0.0
 14
0.125
 24
0.125
 15
1.0
 25
1.0
 16
0.0
 26
0.0
 36
1.0
 17
0.0
 27
0.0
 37
0.0
 40
213.032235521583
 41
1.442643391521196
 42
50.0
 43
0.0
 44
0.0
 50
0.0
 51
0.0
 71
     0
 72
   100
 73
     1
 74
     3
 75
     0
 76
     0
 77
     0
 78
     0
281
     0
 65
     1
110
0.0
120
0.0
130
0.0
111
1.0
121
0.0
131
0.0
112
0.0
122
1.0
132
0.0
 79
     0
146
0.0
348
29C
 60
     3
 61
     5
292
     1
282
     0
141
0.0
142
0.0
 63
   250
421
  3355443
  0
ENDTAB
  0
TABLE
  2
LTYPE
  5
5
330
0
100
AcDbSymbolTable
 70
    16
  0
LTYPE
  5
14
330
5
100
AcDbSymbolTableRecord
100
AcDbLinetypeTableRecord
  2
ByBlock
 70
     0
  3

 72
    65
 73
     0
 40
0.0
  0
LTYPE
  5
15
330
5
100
AcDbSymbolTableRecord
100
AcDbLinetypeTableRecord
  2
ByLayer
 70
     0
  3

 72
    65
 73
     0
 40
0.0
  0
LTYPE
  5
16
330
5
100
AcDbSymbolTableRecord
100
AcDbLinetypeTableRecord
  2
Continuous
 70
     0
  3
Solid line
 72
    65
 73
     0
 40
0.0
  0
LTYPE
  5
6C
330
5
100
AcDbSymbolTableRecord
100
AcDbLinetypeTableRecord
  2
AM_ISO02W050
 70
     0
  3
__ __ __ __ __ __ __ __ __ __ __ __ __ __ __
 72
    65
 73
     2
 40
7.5
 49
6.0
 74
     0
 49
-1.5
 74
     0
  0
LTYPE
  5
6D
330
5
100
AcDbSymbolTableRecord
100
AcDbLinetypeTableRecord
  2
AM_ISO08W050
 70
     0
  3
____ . ____ . ____ . ____ . ____ . ____ . ____
 72
    65
 73
     4
 40
18.0
 49
12.0
 74
     0
 49
-1.5
 74
     0
 49
3.0
 74
     0
 49
-1.5
 74
     0
  0
LTYPE
  5
6E
330
5
100
AcDbSymbolTableRecord
100
AcDbLinetypeTableRecord
  2
AM_ISO09W050
 70
     0
  3
_____ . . _____ . . _____ . . ____ .. ____
 72
    65
 73
     6
 40
22.5
 49
12.0
 74
     0
 49
-1.5
 74
     0
 49
3.0
 74
     0
 49
-1.5
 74
     0
 49
3.0
 74
     0
 49
-1.5
 74
     0
  0
LTYPE
  5
6F
330
5
100
AcDbSymbolTableRecord
100
AcDbLinetypeTableRecord
  2
Amconstr
 70
     0
  3
_______________________
 72
    65
 73
     2
 40
9999.0
 49
9999.0
 74
     0
 49
0.0
 74
     0
  0
LTYPE
  5
70
330
5
100
AcDbSymbolTableRecord
100
AcDbLinetypeTableRecord
  2
AM_ISO08W050x2
 70
     0
  3
__ . __ . __ . __ . __ . __
 72
    65
 73
     4
 40
9.0
 49
6.0
 74
     0
 49
-0.75
 74
     0
 49
1.5
 74
     0
 49
-0.75
 74
     0
  0
LTYPE
  5
71
330
5
100
AcDbSymbolTableRecord
100
AcDbLinetypeTableRecord
  2
AM_ISO02W050x2
 70
     0
  3
 _ _ _ _ _ _ _ _ _ _ _ _
 72
    65
 73
     2
 40
3.75
 49
3.0
 74
     0
 49
-0.75
 74
     0
  0
LTYPE
  5
74
330
5
100
AcDbSymbolTableRecord
100
AcDbLinetypeTableRecord
  2
Amzigzag
 70
     0
  3
/\/-/\/-/\/-/\/-/\/-/\/
 72
    65
 73
     2
 40
11.0001
 49
0.0001
 74
     4
 75
   136
340
254
 46
0.04
 50
0.0
 44
0.0
 45
0.0
 49
-11.0
 74
     0
  0
LTYPE
  5
75
330
5
100
AcDbSymbolTableRecord
100
AcDbLinetypeTableRecord
  2
HIDDEN
 70
     0
  3
Hidden __ __ __ __ __ __ __ __ __ __ __ __ __ _
 72
    65
 73
     2
 40
0.375
 49
0.25
 74
     0
 49
-0.125
 74
     0
  0
LTYPE
  5
76
330
5
100
AcDbSymbolTableRecord
100
AcDbLinetypeTableRecord
  2
CENTER
 70
     0
  3
Center ____ _ ____ _ ____ _ ____ _ ____ _ ____
 72
    65
 73
     4
 40
2.0
 49
1.25
 74
     0
 49
-0.25
 74
     0
 49
0.25
 74
     0
 49
-0.25
 74
     0
  0
LTYPE
  5
77
330
5
100
AcDbSymbolTableRecord
100
AcDbLinetypeTableRecord
  2
PHANTOM2
 70
     0
  3
Phantom (.5x) ___ _ _ ___ _ _ ___ _ _ ___ _ _
 72
    65
 73
     6
 40
1.25
 49
0.625
 74
     0
 49
-0.125
 74
     0
 49
0.125
 74
     0
 49
-0.125
 74
     0
 49
0.125
 74
     0
 49
-0.125
 74
     0
  0
LTYPE
  5
78
330
5
100
AcDbSymbolTableRecord
100
AcDbLinetypeTableRecord
  2
CENTER2
 70
     0
  3
Center (.5x) ___ _ ___ _ ___ _ ___ _ ___ _ ___
 72
    65
 73
     4
 40
1.125
 49
0.75
 74
     0
 49
-0.125
 74
     0
 49
0.125
 74
     0
 49
-0.125
 74
     0
  0
LTYPE
  5
79
330
5
100
AcDbSymbolTableRecord
100
AcDbLinetypeTableRecord
  2
HIDDEN2
 70
     0
  3
Hidden (.5x) _ _ _ _ _ _ _ _ _ _ _ _ _ _ _ _ _
 72
    65
 73
     2
 40
0.1875
 49
0.125
 74
     0
 49
-0.0625
 74
     0
  0
LTYPE
  5
7A
330
5
100
AcDbSymbolTableRecord
100
AcDbLinetypeTableRecord
  2
Amzigzag2
 70
     0
  3
/\/-/\/-/\/-/\/-/\/-/\/
 72
    65
 73
     2
 40
0.4401
 49
0.0001
 74
     4
 75
   136
340
254
 46
0.0016
 50
0.0
 44
0.0
 45
0.0
 49
-0.4400000000000001
 74
     0
  0
LTYPE
  5
87
330
5
100
AcDbSymbolTableRecord
100
AcDbLinetypeTableRecord
  2
ACANSTGB
 70
     0
  3
__ . . __ . .
 72
    65
 73
     6
 40
0.35433070866
 49
0.15748031496
 74
     0
 49
-0.03937007874
 74
     0
 49
0.03937007874
 74
     0
 49
-0.03937007874
 74
     0
 49
0.03937007874
 74
     0
 49
-0.03937007874
 74
     0
  0
LTYPE
  5
88
330
5
100
AcDbSymbolTableRecord
100
AcDbLinetypeTableRecord
  2
ACANSTGL
 70
     0
  3
_ _ _ _ _
 72
    65
 73
     2
 40
0.11811023622
 49
0.07874015748
 74
     0
 49
-0.03937007874
 74
     0
  0
ENDTAB
  0
TABLE
  2
LAYER
  5
2
102
{ACAD_XDICTIONARY
360
38E
102
}
330
0
100
AcDbSymbolTable
 70
     2
  0
LAYER
  5
10
102
{ACAD_XDICTIONARY
360
87F
102
}
330
2
100
AcDbSymbolTableRecord
100
AcDbLayerTableRecord
  2
0
 70
     0
 62
     7
  6
Continuous
370
    -3
390
F
347
295
  0
LAYER
  5
38C
102
{ACAD_XDICTIONARY
360
38D
102
}
330
2
100
AcDbSymbolTableRecord
100
AcDbLayerTableRecord
  2
_SURFACE
 70
     0
 62
     7
  6
Continuous
370
    -3
390
F
347
295
  0
ENDTAB
  0
TABLE
  2
STYLE
  5
3
330
0
100
AcDbSymbolTable
 70
     8
  0
STYLE
  5
11
330
3
100
AcDbSymbolTableRecord
100
AcDbTextStyleTableRecord
  2
STANDARD
 70
     0
 40
0.0
 41
1.0
 50
0.0
 71
     0
 42
0.2
  3
ROMANS.SHX
  4

  0
STYLE
  5
73
330
3
100
AcDbSymbolTableRecord
100
AcDbTextStyleTableRecord
  2

 70
     1
 40
0.0
 41
1.0
 50
0.0
 71
     0
 42
0.2
  3
ltypeshp.shx
  4

  0
STYLE
  5
7B
330
3
100
AcDbSymbolTableRecord
100
AcDbTextStyleTableRecord
  2
ACANSTS
 70
     0
 40
1.0
 41
1.0
 50
0.0
 71
     0
 42
0.2
  3
romans.shx
  4

  0
STYLE
  5
86
330
3
100
AcDbSymbolTableRecord
100
AcDbTextStyleTableRecord
  2
ACANSGDT
 70
     0
 40
0.0
 41
1.0
 50
0.0
 71
     0
 42
0.2
  3
amgdt.shx
  4

  0
STYLE
  5
13F
330
3
100
AcDbSymbolTableRecord
100
AcDbTextStyleTableRecord
  2
USER1
 70
     0
 40
0.0
 41
1.0
 50
0.0
 71
     0
 42
0.2
  3
TXT.SHX
  4

  0
STYLE
  5
140
330
3
100
AcDbSymbolTableRecord
100
AcDbTextStyleTableRecord
  2
USER2
 70
     0
 40
0.0
 41
1.0
 50
0.0
 71
     0
 42
0.2
  3
SIMPLEX.SHX
  4

  0
STYLE
  5
141
330
3
100
AcDbSymbolTableRecord
100
AcDbTextStyleTableRecord
  2
USER3
 70
     0
 40
0.0
 41
1.0
 50
0.0
 71
     0
 42
0.2
  3
ITALIC.SHX
  4

  0
STYLE
  5
254
330
3
100
AcDbSymbolTableRecord
100
AcDbTextStyleTableRecord
  2

 70
     1
 40
0.0
 41
1.0
 50
0.0
 71
     0
 42
0.2
  3
genltshp.shx
  4

  0
ENDTAB
  0
TABLE
  2
VIEW
  5
6
330
0
100
AcDbSymbolTable
 70
     0
  0
ENDTAB
  0
TABLE
  2
UCS
  5
7
330
0
100
AcDbSymbolTable
 70
     0
  0
ENDTAB
  0
TABLE
  2
APPID
  5
9
330
0
100
AcDbSymbolTable
 70
    11
  0
APPID
  5
12
330
9
100
AcDbSymbolTableRecord
100
AcDbRegAppTableRecord
  2
ACAD
 70
     0
  0
APPID
  5
4E
330
9
100
AcDbSymbolTableRecord
100
AcDbRegAppTableRecord
  2
MCAD_NO_VIS
 70
     0
  0
APPID
  5
4F
330
9
100
AcDbSymbolTableRecord
100
AcDbRegAppTableRecord
  2
ACAD_TEMP_GRAPHIC
 70
     0
  0
APPID
  5
60
330
9
100
AcDbSymbolTableRecord
100
AcDbRegAppTableRecord
  2
ACATTRIBSERVICES
 70
     0
  0
APPID
  5
F7
330
9
100
AcDbSymbolTableRecord
100
AcDbRegAppTableRecord
  2
AD_DRAW
 70
     0
  0
APPID
  5
115
330
9
100
AcDbSymbolTableRecord
100
AcDbRegAppTableRecord
  2
DESIGNERASSEMBLIES
 70
     0
  0
APPID
  5
11A
330
9
100
AcDbSymbolTableRecord
100
AcDbRegAppTableRecord
  2
ACADM_DIM_EDIT
 70
     0
  0
APPID
  5
11B
330
9
100
AcDbSymbolTableRecord
100
AcDbRegAppTableRecord
  2
AMDT_DM_ADJ
 70
     0
  0
APPID
  5
1D3
330
9
100
AcDbSymbolTableRecord
100
AcDbRegAppTableRecord
  2
ACAD_DSTYLE_DIMARC_LENGTH_SYMBOL
 70
     0
  0
APPID
  5
1D4
330
9
100
AcDbSymbolTableRecord
100
AcDbRegAppTableRecord
  2
ACAD_DSTYLE_DIMJOGGED_JOGANGLE_SYMBOL
 70
     0
  0
APPID
  5
2EE
330
9
100
AcDbSymbolTableRecord
100
AcDbRegAppTableRecord
  2
ACAD_MLEADERVER
 70
     0
  0
ENDTAB
  0
TABLE
  2
DIMSTYLE
  5
A
330
0
100
AcDbSymbolTable
 70
     7
100
AcDbDimStyleTable
 71
     1
340
8C
  0
DIMSTYLE
105
27
330
A
100
AcDbSymbolTableRecord
100
AcDbDimStyleTableRecord
  2
Standard
 70
     0
340
11
  0
DIMSTYLE
105
8C
102
{ACAD_REACTORS
330
6A
102
}
330
A
100
AcDbSymbolTableRecord
100
AcDbDimStyleTableRecord
  2
AM_ANSI
 70
     0
  4
mm
 41
0.12
 42
0.05
 43
0.5
 44
0.1
 47
0.1
 48
0.1
 78
     7
 79
     2
 90
     1
140
0.12
141
0.0
146
0.71
147
0.06
176
   256
177
   256
178
   140
274
     4
284
     7
340
11
345
14
346
14
347
14
371
    -1
372
    -1
1001
ACAD_DSTYLE_DIMJOGGED_JOGANGLE_SYMBOL
1070
   384
1040
0.7853981633974483
  0
DIMSTYLE
105
8D
330
A
100
AcDbSymbolTableRecord
100
AcDbDimStyleTableRecord
  2
AM_ANSI$3
 70
     0
  4
mm
 41
0.12
 42
0.05
 43
0.5
 44
0.1
 47
0.1
 48
0.1
 78
     7
 79
     2
 90
     1
140
0.12
141
0.0
146
0.71
147
0.06
176
   256
177
   256
178
   140
274
     4
284
     7
288
     1
289
     0
340
11
345
14
346
14
347
14
371
    -1
372
    -1
1001
ACAD_DSTYLE_DIMJOGGED_JOGANGLE_SYMBOL
1070
   384
1040
0.7853981633974483
  0
DIMSTYLE
105
8E
330
A
100
AcDbSymbolTableRecord
100
AcDbDimStyleTableRecord
  2
AM_ANSI$4
 70
     0
  4
mm
 41
0.12
 42
0.05
 43
0.5
 44
0.1
 47
0.1
 48
0.1
 78
     7
 79
     2
 90
     1
140
0.12
141
0.0
146
0.71
147
0.06
176
   256
177
   256
178
   140
274
     4
284
     7
340
11
345
14
346
14
347
14
371
    -1
372
    -1
1001
ACAD_DSTYLE_DIMJOGGED_JOGANGLE_SYMBOL
1070
   384
1040
0.7853981633974483
  0
DIMSTYLE
105
8F
330
A
100
AcDbSymbolTableRecord
100
AcDbDimStyleTableRecord
  2
AM_ANSI$7
 70
     0
  4
mm
 41
0.12
 42
0.05
 43
0.5
 44
0.1
 47
0.1
 48
0.1
 78
     7
 79
     2
 90
     1
140
0.12
141
0.0
146
0.71
147
0.06
176
   256
177
   256
178
   140
274
     4
284
     7
340
11
345
14
346
14
347
14
371
    -1
372
    -1
1001
ACAD_DSTYLE_DIMJOGGED_JOGANGLE_SYMBOL
1070
   384
1040
0.7853981633974483
  0
DIMSTYLE
105
90
330
A
100
AcDbSymbolTableRecord
100
AcDbDimStyleTableRecord
  2
AM_ANSI$SF
 70
     0
  4
mm
 41
0.12
 42
0.05
 43
0.5
 44
0.1
 47
0.1
 48
0.1
 75
     1
 76
     1
 78
     7
 79
     2
 90
     1
140
0.12
141
0.0
146
0.71
147
0.06
176
   256
177
   256
178
   140
274
     4
284
     7
340
11
345
14
346
14
347
14
371
    -1
372
    -1
1001
ACAD_DSTYLE_DIMJOGGED_JOGANGLE_SYMBOL
1070
   384
1040
0.7853981633974483
  0
DIMSTYLE
105
95
330
A
100
AcDbSymbolTableRecord
100
AcDbDimStyleTableRecord
  2
AM_ANSI$SH
 70
     0
  4
mm
 41
0.12
 42
0.05
 43
0.5
 44
0.1
 47
0.1
 48
0.1
 75
     1
 76
     1
 78
     7
 79
     2
 90
     1
140
0.12
141
0.0
146
0.71
147
0.06
173
     1
176
   256
177
   256
178
   140
274
     4
284
     7
340
11
343
91
345
14
346
14
347
14
371
    -1
372
    -1
1001
ACAD_DSTYLE_DIMJOGGED_JOGANGLE_SYMBOL
1070
   384
1040
0.7853981633974483
  0
ENDTAB
  0
TABLE
  2
BLOCK_RECORD
  5
1
330
0
100
AcDbSymbolTable
 70
     4
  0
BLOCK_RECORD
  5
1F
102
{ACAD_XDICTIONARY
360
99
102
}
330
1
100
AcDbSymbolTableRecord
100
AcDbBlockTableRecord
  2
*Model_Space
340
22
 70
     0
280
     1
281
     0
  0
BLOCK_RECORD
  5
1B
330
1
100
AcDbSymbolTableRecord
100
AcDbBlockTableRecord
  2
*Paper_Space
340
1E
 70
     0
280
     1
281
     0
  0
BLOCK_RECORD
  5
23
330
1
100
AcDbSymbolTableRecord
100
AcDbBlockTableRecord
  2
*Paper_Space0
340
26
 70
     0
280
     1
281
     0
  0
BLOCK_RECORD
  5
91
330
1
100
AcDbSymbolTableRecord
100
AcDbBlockTableRecord
  2
GENAXEH
340
0
 70
     0
280
     1
281
     0
  0
ENDTAB
  0
ENDSEC
  0
SECTION
  2
BLOCKS
  0
BLOCK
  5
20
330
1F
100
AcDbEntity
  8
0
100
AcDbBlockBegin
  2
*Model_Space
 70
     0
 10
0.0
 20
0.0
 30
0.0
  3
*Model_Space
  1

  0
ENDBLK
  5
21
330
1F
100
AcDbEntity
  8
0
100
AcDbBlockEnd
  0
BLOCK
  5
1C
330
1B
100
AcDbEntity
 67
     1
  8
0
100
AcDbBlockBegin
  2
*Paper_Space
 70
     0
 10
0.0
 20
0.0
 30
0.0
  3
*Paper_Space
  1

  0
ENDBLK
  5
1D
330
1B
100
AcDbEntity
 67
     1
  8
0
100
AcDbBlockEnd
  0
BLOCK
  5
24
330
23
100
AcDbEntity
 67
     1
  8
0
100
AcDbBlockBegin
  2
*Paper_Space0
 70
     0
 10
0.0
 20
0.0
 30
0.0
  3
*Paper_Space0
  1

  0
ENDBLK
  5
25
330
23
100
AcDbEntity
 67
     1
  8
0
100
AcDbBlockEnd
  0
BLOCK
  5
93
330
91
100
AcDbEntity
  8
0
100
AcDbBlockBegin
  2
GENAXEH
 70
     0
 10
0.0
 20
0.0
 30
0.0
  3
GENAXEH
  1

  0
LINE
  5
92
330
91
100
AcDbEntity
  8
0
100
AcDbLine
 10
-1.0
 20
0.0
 30
0.0
 11
1.0
 21
0.0
 31
0.0
  0
ENDBLK
  5
94
330
91
100
AcDbEntity
  8
0
100
AcDbBlockEnd
  0
ENDSEC
  0
SECTION
  2
ENTITIES
  0
LWPOLYLINE
  5
60E
330
1F
100
AcDbEntity
  8
_SURFACE
  6
Continuous
 62
     7
100
AcDbPolyline
 90
        6
 70
     0
 43
0.0
 10
54.66349036046122
 20
169.4051514428115
 10
54.66563784918108
 20
169.4062320629577
 10
54.67207249722051
 20
169.4072992388805
 10
54.68277070290006
 20
169.4083529680333
 10
54.69769291588128
 20
169.4093961180965
 10
54.71678768592065
 20
169.4104258213969
  0
LWPOLYLINE
  5
60F
330
1F
100
AcDbEntity
  8
_SURFACE
  6
Continuous
 62
     7
100
AcDbPolyline
 90
       13
 70
     0
 43
0.0
 10
72.94878109486072
 20
151.4153696398766
 10
72.87832415170069
 20
151.3858650913148
 10
72.80819186118097
 20
151.3607717150348
 10
72.73870743576063
 20
151.3402051648567
 10
72.67019109578123
 20
151.324260225961
 10
72.60295860896022
 20
151.3130103906928
 10
72.53731981720139
 20
151.3065075106401
 10
72.47357722434063
 20
151.3047815552322
 10
72.4120245940816
 20
151.3078404874008
 10
72.35294559616105
 20
151.315670207577
 10
72.2966125033403
 20
151.3282346376194
 10
72.24328493410158
 20
151.3454758731363
 10
72.19320864868078
 20
151.3673144578547
  0
LWPOLYLINE
  5
610
330
1F
100
AcDbEntity
  8
_SURFACE
  6
Continuous
 62
     7
100
AcDbPolyline
 90
        8
 70
     0
 43
0.0
 10
116.3006815943412
 20
168.5079976516548
 10
116.3017990597204
 20
168.5083824311782
 10
116.3028935838205
 20
168.5086902893358
 10
116.3039651666408
 20
168.5089377462986
 10
116.30501395296
 20
168.5091405576726
 10
116.3060397980002
 20
168.5093102957157
 10
116.3070422699606
 20
168.5094540368567
 10
116.3080211072205
 20
168.5095806609365
  0
LWPOLYLINE
  5
611
330
1F
100
AcDbEntity
  8
_SURFACE
  6
Continuous
 62
     7
100
AcDbPolyline
 90
        7
 70
     0
 43
0.0
 10
98.71625252400045
 20
151.1425360402549
 10
98.79353672300149
 20
151.1690936528807
 10
98.86868547796112
 20
151.2005364957562
 10
98.94132786506034
 20
151.2366460907919
 10
99.01122201534091
 20
151.2772328777986
 10
99.07807175972122
 20
151.3220533875987
 10
99.14147934182111
 20
151.3707385480351
  0
LWPOLYLINE
  5
612
330
1F
100
AcDbEntity
  8
_SURFACE
  6
Continuous
 62
     7
100
AcDbPolyline
 90
       20
 70
     0
 43
0.0
 10
98.74296229532085
 20
151.151531094661
 10
98.76104573896137
 20
151.1576900942795
 10
98.77892808064135
 20
151.1640863197366
 10
98.7966070953211
 20
151.1707135708979
 10
98.81407073832034
 20
151.1775616852223
 10
98.83131728244135
 20
151.1846240891731
 10
98.84834475918106
 20
151.1918940873415
 10
98.86514135754115
 20
151.1993604706781
 10
98.88170637394106
 20
151.2070165132804
 10
98.89803817770044
 20
151.2148550421747
 10
98.91412424408137
 20
151.222863314198
 10
98.92996392538172
 20
151.2310339582595
 10
98.94555700316088
 20
151.2393598217144
 10
98.96089232682008
 20
151.2478276178348
 10
98.97596995986114
 20
151.2564297520125
 10
98.99079042806116
 20
151.2651589014326
 10
99.00534401846144
 20
151.2740014567729
 10
99.01963182072123
 20
151.2829499148769
 10
99.03365473400064
 20
151.2919966887615
 10
99.04369431768046
 20
151.298664064297
  0
LWPOLYLINE
  5
613
330
1F
100
AcDbEntity
  8
_SURFACE
  6
Continuous
 62
     7
100
AcDbPolyline
 90
        3
 70
     0
 43
0.0
 10
99.10977929854054
 20
151.3673166498751
 10
99.15637291122076
 20
151.3936515070358
 10
99.19926953866017
 20
151.4243616640573
  0
LWPOLYLINE
  5
614
330
1F
100
AcDbEntity
  8
_SURFACE
  6
Continuous
 62
     7
100
AcDbPolyline
 90
        8
 70
     0
 43
0.0
 10
116.3317444024218
 20
168.5210991164326
 10
116.3343887303812
 20
168.5232867930366
 10
116.3371104750007
 20
168.5237108409541
 10
116.3397429183009
 20
168.5222632974959
 10
116.3422887374412
 20
168.5190370860195
 10
116.3447452552613
 20
168.5141237455731
 10
116.3471044301199
 20
168.5076150362123
 10
116.3493631479799
 20
168.4996140184352
  0
LINE
  5
615
330
1F
100
AcDbEntity
  8
_SURFACE
  6
Continuous
 62
     7
100
AcDbLine
 10
98.35419642312118
 20
151.4153691369551
 30
0.0
 11
115.3894903611011
 21
168.4578214019979
 31
0.0
  0
LINE
  5
616
330
1F
100
AcDbEntity
  8
_SURFACE
  6
Continuous
 62
     7
100
AcDbLine
 10
99.23311570160187
 20
151.4541476446151
 30
0.0
 11
116.2735595911812
 21
168.501752022797
 31
0.0
  0
LINE
  5
617
330
1F
100
AcDbEntity
  8
_SURFACE
  6
Continuous
 62
     7
100
AcDbLine
 10
99.20390913568045
 20
151.4268182733189
 30
0.0
 11
99.23327832510167
 21
151.4543281674973
 31
0.0
  0
LINE
  5
618
330
1F
100
AcDbEntity
  8
_SURFACE
  6
Continuous
 62
     7
100
AcDbLine
 10
99.19926953866017
 20
151.4243616640573
 30
0.0
 11
99.23827137836125
 21
151.4593054829215
 31
0.0
  0
LWPOLYLINE
  5
619
330
1F
100
AcDbEntity
  8
_SURFACE
  6
Continuous
 62
     7
100
AcDbPolyline
 90
        3
 70
     0
 43
0.0
 10
99.14147934182111
 20
151.3707385480351
 10
99.20119936462052
 20
151.4229606711792
 10
99.23300312117991
 20
151.4536726417549
  0
LINE
  5
61A
330
1F
100
AcDbEntity
  8
_SURFACE
  6
Continuous
 62
     7
100
AcDbLine
 10
116.3312106214211
 20
168.520465571853
 30
0.0
 11
116.3315776869807
 21
168.5209045625938
 31
0.0
  0
LINE
  5
61B
330
1F
100
AcDbEntity
  8
_SURFACE
  6
Continuous
 62
     7
100
AcDbLine
 10
116.3308193344213
 20
168.5200109194751
 30
0.0
 11
116.3312106214211
 21
168.520465571853
 31
0.0
  0
LINE
  5
61C
330
1F
100
AcDbEntity
  8
_SURFACE
  6
Continuous
 62
     7
100
AcDbLine
 10
116.3099427975607
 20
168.496092443061
 30
0.0
 11
116.3315776869807
 21
168.5209045625938
 31
0.0
  0
LINE
  5
61D
330
1F
100
AcDbEntity
  8
_SURFACE
  6
Continuous
 62
     7
100
AcDbLine
 10
116.3115712347411
 20
168.4979600263154
 30
0.0
 11
116.3110324270814
 21
168.4973420697183
 31
0.0
  0
LINE
  5
61E
330
1F
100
AcDbEntity
  8
_SURFACE
  6
Continuous
 62
     7
100
AcDbLine
 10
116.3304456674008
 20
168.5195893531394
 30
0.0
 11
116.3308193344213
 21
168.5200109194751
 31
0.0
  0
LINE
  5
61F
330
1F
100
AcDbEntity
  8
_SURFACE
  6
Continuous
 62
     7
100
AcDbLine
 10
116.3300477941806
 20
168.5191537812401
 30
0.0
 11
116.3304456674008
 21
168.5195893531394
 31
0.0
  0
LINE
  5
620
330
1F
100
AcDbEntity
  8
_SURFACE
  6
Continuous
 62
     7
100
AcDbLine
 10
54.90213363984131
 20
165.5340166933578
 30
0.0
 11
54.90191940862079
 21
165.7706581072975
 31
0.0
  0
LINE
  5
621
330
1F
100
AcDbEntity
  8
_SURFACE
  6
Continuous
 62
     7
100
AcDbLine
 10
54.66349024108004
 20
169.3425147430948
 30
0.0
 11
54.66349046460109
 21
169.3304783968391
 31
0.0
  0
LINE
  5
622
330
1F
100
AcDbEntity
  8
_SURFACE
  6
Continuous
 62
     7
100
AcDbLine
 10
54.6634904341212
 20
169.3469158442798
 30
0.0
 11
54.66349024108004
 21
169.3425147430948
 31
0.0
  0
LINE
  5
623
330
1F
100
AcDbEntity
  8
_SURFACE
  6
Continuous
 62
     7
100
AcDbLine
 10
54.66349046460109
 20
169.3304783968391
 30
0.0
 11
54.66349037316141
 21
169.3109606786942
 31
0.0
  0
LINE
  5
624
330
1F
100
AcDbEntity
  8
_SURFACE
  6
Continuous
 62
     7
100
AcDbLine
 10
54.66349036046122
 20
43.27589774806023
 30
0.0
 11
54.66349036046122
 21
169.3809579986968
 31
0.0
  0
LINE
  5
625
330
1F
100
AcDbEntity
  8
_SURFACE
  6
Continuous
 62
     7
100
AcDbLine
 10
54.66349036046122
 20
169.3854582792532
 30
0.0
 11
54.66349036046122
 21
174.1978451898953
 31
0.0
  0
LINE
  5
626
330
1F
100
AcDbEntity
  8
_SURFACE
  6
Continuous
 62
     7
100
AcDbLine
 10
54.66349030458096
 20
169.3788976776972
 30
0.0
 11
54.66349036046122
 21
169.3746081917392
 31
0.0
  0
LINE
  5
627
330
1F
100
AcDbEntity
  8
_SURFACE
  6
Continuous
 62
     7
100
AcDbLine
 10
54.66349084052072
 20
169.3466152098748
 30
0.0
 11
54.66349089132055
 21
169.3448058103944
 31
0.0
  0
LINE
  5
628
330
1F
100
AcDbEntity
  8
_SURFACE
  6
Continuous
 62
     7
100
AcDbLine
 10
54.6634903579201
 20
169.3468362635371
 30
0.0
 11
54.66349037316141
 21
169.3464812578945
 31
0.0
  0
LINE
  5
629
330
1F
100
AcDbEntity
  8
_SURFACE
  6
Continuous
 62
     7
100
AcDbLine
 10
55.02960690026103
 20
43.27589774806023
 30
0.0
 11
55.02971485280105
 21
146.1680122605953
 31
0.0
  0
LINE
  5
62A
330
1F
100
AcDbEntity
  8
_SURFACE
  6
Continuous
 62
     7
100
AcDbLine
 10
54.90191940862079
 20
165.7706581072975
 30
0.0
 11
54.9018945826605
 21
165.9846260537501
 31
0.0
  0
LWPOLYLINE
  5
62B
330
1F
100
AcDbEntity
  8
_SURFACE
  6
Continuous
 62
     7
100
AcDbPolyline
 90
        4
 70
     0
 43
0.0
 10
55.02961157132123
 20
146.7017998493588
 10
55.02963587658124
 20
146.7955405457955
 10
55.029659122661
 20
146.890870220513
 10
55.0298208165199
 20
148.7790698985167
  0
LWPOLYLINE
  5
62C
330
1F
100
AcDbEntity
  8
_SURFACE
  6
Continuous
 62
     7
100
AcDbPolyline
 90
        3
 70
     0
 43
0.0
 10
55.02933656044061
 20
146.1680416712601
 10
55.02941480260088
 20
146.2540666706531
 10
55.02961157132123
 20
146.7017998493588
  0
LINE
  5
62D
330
1F
100
AcDbEntity
  8
_SURFACE
  6
Continuous
 62
     7
100
AcDbLine
 10
54.9018945826605
 20
165.9846260537501
 30
0.0
 11
54.90202778280073
 21
166.1766765459592
 31
0.0
  0
LINE
  5
62E
330
1F
100
AcDbEntity
  8
_SURFACE
  6
Continuous
 62
     7
100
AcDbLine
 10
55.03368327260105
 20
154.7395710026371
 30
0.0
 11
55.03387188030083
 21
154.9260152246183
 31
0.0
  0
LINE
  5
62F
330
1F
100
AcDbEntity
  8
_SURFACE
  6
Continuous
 62
     7
100
AcDbLine
 10
54.90202778280073
 20
166.1766765459592
 30
0.0
 11
54.90239644602062
 21
166.4000391370768
 31
0.0
  0
LINE
  5
630
330
1F
100
AcDbEntity
  8
_SURFACE
  6
Continuous
 62
     7
100
AcDbLine
 10
54.90239644602062
 20
166.4000391370768
 30
0.0
 11
54.90291665072018
 21
166.58784268324
 31
0.0
  0
LINE
  5
631
330
1F
100
AcDbEntity
  8
_SURFACE
  6
Continuous
 62
     7
100
AcDbLine
 10
55.03317393656144
 20
154.5657234864752
 30
0.0
 11
55.03368327260105
 21
154.7395710026371
 31
0.0
  0
LINE
  5
632
330
1F
100
AcDbEntity
  8
_SURFACE
  6
Continuous
 62
     7
100
AcDbLine
 10
54.90291665072018
 20
166.58784268324
 30
0.0
 11
54.90366803606085
 21
166.7755562549768
 31
0.0
  0
LINE
  5
633
330
1F
100
AcDbEntity
  8
_SURFACE
  6
Continuous
 62
     7
100
AcDbLine
 10
55.03209920668033
 20
154.3521773959195
 30
0.0
 11
55.03317393656144
 21
154.5657234864752
 31
0.0
  0
LWPOLYLINE
  5
634
330
1F
100
AcDbEntity
  8
_SURFACE
  6
Continuous
 62
     7
100
AcDbPolyline
 90
       14
 70
     0
 43
0.0
 10
54.90366803606085
 20
166.7755562549768
 10
54.9045144047017
 20
166.9081161625776
 10
54.90540963024105
 20
167.0310280300377
 10
54.90635371522003
 20
167.1449978681389
 10
54.90734507976085
 20
167.2506766966593
 10
54.90838530628153
 20
167.3486825839549
 10
54.9094791369611
 20
167.4395994328565
 10
54.91063503762089
 20
167.5239716745759
 10
54.9118445424414
 20
167.6022586757366
 10
54.91308699360107
 20
167.6748637934119
 10
54.914363132781
 20
167.7421455638591
 10
54.91567221830101
 20
167.8045553856913
 10
54.91699138762069
 20
167.8625812767545
 10
54.91832176088101
 20
167.9164886670382
  0
LINE
  5
635
330
1F
100
AcDbEntity
  8
_SURFACE
  6
Continuous
 62
     7
100
AcDbLine
 10
55.03028248692081
 20
154.1119783868539
 30
0.0
 11
55.03209920668033
 21
154.3521773959195
 31
0.0
  0
LWPOLYLINE
  5
636
330
1F
100
AcDbEntity
  8
_SURFACE
  6
Continuous
 62
     7
100
AcDbPolyline
 90
        3
 70
     0
 43
0.0
 10
55.02764863138091
 20
153.8579677747306
 10
55.02811471376062
 20
153.8978777076167
 10
55.03028248692081
 20
154.1119783868539
  0
LINE
  5
637
330
1F
100
AcDbEntity
  8
_SURFACE
  6
Continuous
 62
     7
100
AcDbLine
 10
54.91832176088101
 20
167.9164886670382
 30
0.0
 11
54.92098652822133
 21
168.0134778558399
 31
0.0
  0
LINE
  5
638
330
1F
100
AcDbEntity
  8
_SURFACE
  6
Continuous
 62
     7
100
AcDbLine
 10
54.92098652822133
 20
168.0134778558399
 30
0.0
 11
54.92356921292176
 21
168.0984408304334
 31
0.0
  0
LWPOLYLINE
  5
639
330
1F
100
AcDbEntity
  8
_SURFACE
  6
Continuous
 62
     7
100
AcDbPolyline
 90
       28
 70
     0
 43
0.0
 10
55.91349035982185
 20
168.4775232244187
 10
55.91352462442173
 20
168.4785756632604
 10
55.91362534304099
 20
168.4796183840566
 10
55.91379251314029
 20
168.480651389354
 10
55.91402711770152
 20
168.4816783113542
 10
55.91432817374098
 20
168.4826955178554
 10
55.91469273994099
 20
168.4836920995562
 10
55.91512139796069
 20
168.4846675865532
 10
55.91561356360163
 20
168.485622448757
 10
55.91616456834109
 20
168.4865471789357
 10
55.91677508274043
 20
168.4874415942153
 10
55.91744443370081
 20
168.4883058749378
 10
55.91816593340118
 20
168.4891310523575
 10
55.91894036924023
 20
168.4899168343813
 10
55.91976695636041
 20
168.490663513095
 10
55.92063665236074
 20
168.4913629935376
 10
55.92154958678148
 20
168.4920144959155
 10
55.92250563008057
 20
168.4926188025542
 10
55.92349534870064
 20
168.4931701425789
 10
55.92451913634014
 20
168.4936680638543
 10
55.92557659930154
 20
168.4941130210549
 10
55.92665711022201
 20
168.4945006047323
 10
55.927761296481
 20
168.494830263718
 10
55.9288885307009
 20
168.4951025491731
 10
55.93002630592164
 20
168.4953147153769
 10
55.93117044892133
 20
168.4954658428373
 10
55.93232513546118
 20
168.495556851039
 10
55.93349036045984
 20
168.4955877399747
  0
LINE
  5
63A
330
1F
100
AcDbEntity
  8
_SURFACE
  6
Continuous
 62
     7
100
AcDbLine
 10
54.92356921292176
 20
168.0984408304334
 30
0.0
 11
54.9253771950811
 21
168.1516746863757
 31
0.0
  0
LINE
  5
63B
330
1F
100
AcDbEntity
  8
_SURFACE
  6
Continuous
 62
     7
100
AcDbLine
 10
54.9253771950811
 20
168.1516746863757
 30
0.0
 11
54.92714346790072
 21
168.1960887377549
 31
0.0
  0
LINE
  5
63C
330
1F
100
AcDbEntity
  8
_SURFACE
  6
Continuous
 62
     7
100
AcDbLine
 10
54.92714346790072
 20
168.1960887377549
 30
0.0
 11
54.92913748728134
 21
168.2402010599957
 31
0.0
  0
LINE
  5
63D
330
1F
100
AcDbEntity
  8
_SURFACE
  6
Continuous
 62
     7
100
AcDbLine
 10
54.92913748728134
 20
168.2402010599957
 30
0.0
 11
54.93061697378053
 21
168.269543955333
 31
0.0
  0
LINE
  5
63E
330
1F
100
AcDbEntity
  8
_SURFACE
  6
Continuous
 62
     7
100
AcDbLine
 10
54.93061697378053
 20
168.269543955333
 30
0.0
 11
54.9322405113011
 21
168.2987623805142
 31
0.0
  0
LINE
  5
63F
330
1F
100
AcDbEntity
  8
_SURFACE
  6
Continuous
 62
     7
100
AcDbLine
 10
54.9322405113011
 20
168.2987623805142
 30
0.0
 11
54.93403007084125
 21
168.3277846465766
 31
0.0
  0
LWPOLYLINE
  5
640
330
1F
100
AcDbEntity
  8
_SURFACE
  6
Continuous
 62
     7
100
AcDbPolyline
 90
       38
 70
     0
 43
0.0
 10
54.93403007084125
 20
168.3277846465766
 10
54.93599905598094
 20
168.3563519275171
 10
54.93706235078062
 20
168.3704334487606
 10
54.93817506636097
 20
168.3842649450939
 10
54.93932941000131
 20
168.3976713394126
 10
54.94053184092118
 20
168.4106718595116
 10
54.94177589736082
 20
168.4231690862338
 10
54.94303440132117
 20
168.4348812472139
 10
54.94430667970064
 20
168.4458046645354
 10
54.94559340306151
 20
168.455972508052
 10
54.94686940000102
 20
168.4652441811535
 10
54.94813138376176
 20
168.473643178831
 10
54.94938264110115
 20
168.4812453404205
 10
54.95060785328078
 20
168.4880393095568
 10
54.95180529055997
 20
168.4940749769352
 10
54.95297668268122
 20
168.4994178313768
 10
54.95411190520136
 20
168.5040998921153
 10
54.95520766374139
 20
168.5081676767126
 10
54.95626725268121
 20
168.5116876696751
 10
54.95729042818076
 20
168.5147218495307
 10
54.95827559766112
 20
168.5173122736136
 10
54.9592243537003
 20
168.5195047000138
 10
54.96014123528076
 20
168.5213540054369
 10
54.96102607476169
 20
168.5228927145776
 10
54.96187903978117
 20
168.52415053528
 10
54.96270515700181
 20
168.5251648995158
 10
54.96350420036051
 20
168.5259585606158
 10
54.9642763959213
 20
168.5265529536386
 10
54.96502745868148
 20
168.5269727927711
 10
54.96575731752128
 20
168.5272337600012
 10
54.96646604102116
 20
168.52735027488
 10
54.96715955754044
 20
168.527336274395
 10
54.96783717620056
 20
168.5272020633396
 10
54.96849958788098
 20
168.526957456253
 10
54.96915479358122
 20
168.5266072232747
 10
54.9698054577606
 20
168.5261543488936
 10
54.97044891850001
 20
168.5256047843408
 10
54.97108517072084
 20
168.5249632920944
  0
LWPOLYLINE
  5
641
330
1F
100
AcDbEntity
  8
_SURFACE
  6
Continuous
 62
     7
100
AcDbPolyline
 90
        3
 70
     0
 43
0.0
 10
116.4007497965407
 20
168.6289483825798
 10
116.3526175255214
 20
168.5668995125138
 10
116.300683989561
 20
168.507995403755
  0
LINE
  5
642
330
1F
100
AcDbEntity
  8
_SURFACE
  6
Continuous
 62
     7
100
AcDbLine
 10
54.66671173832165
 20
169.2954938643137
 30
0.0
 11
54.66740610320122
 21
169.2863133010154
 31
0.0
  0
LINE
  5
643
330
1F
100
AcDbEntity
  8
_SURFACE
  6
Continuous
 62
     7
100
AcDbLine
 10
54.66609431258112
 20
169.3045352406965
 30
0.0
 11
54.66671173832165
 21
169.2954938643137
 31
0.0
  0
LINE
  5
644
330
1F
100
AcDbEntity
  8
_SURFACE
  6
Continuous
 62
     7
100
AcDbLine
 10
54.66555239088157
 20
169.3134078670968
 30
0.0
 11
54.66609431258112
 21
169.3045352406965
 31
0.0
  0
LINE
  5
645
330
1F
100
AcDbEntity
  8
_SURFACE
  6
Continuous
 62
     7
100
AcDbLine
 10
54.66468470656164
 20
169.3305472816405
 30
0.0
 11
54.66555239088157
 21
169.3134078670968
 31
0.0
  0
LINE
  5
646
330
1F
100
AcDbEntity
  8
_SURFACE
  6
Continuous
 62
     7
100
AcDbLine
 10
54.66349036046122
 20
169.4051515266377
 30
0.0
 11
54.66698559858051
 21
169.3358298872749
 31
0.0
  0
LWPOLYLINE
  5
647
330
1F
100
AcDbEntity
  8
_SURFACE
  6
Continuous
 62
     7
100
AcDbPolyline
 90
       10
 70
     0
 43
0.0
 10
54.6634898778606
 20
165.0010987802793
 10
54.66657318386061
 20
164.9371187355186
 10
54.67580703128115
 20
164.8734543289369
 10
54.69114587284039
 20
164.8104195654936
 10
54.7125140521006
 20
164.7483253538934
 10
54.7398061616008
 20
164.6874779495533
 10
54.77288758388059
 20
164.6281774712528
 10
54.81159514426
 20
164.5707163974561
 10
54.85573790840081
 20
164.51537813628
 10
54.90509814242106
 20
164.4624356259568
  0
LWPOLYLINE
  5
648
330
1F
100
AcDbEntity
  8
_SURFACE
  6
Continuous
 62
     7
100
AcDbPolyline
 90
       25
 70
     0
 43
0.0
 10
54.66349036046122
 20
169.3854582792532
 10
54.66614619208067
 20
169.3250212119141
 10
54.67411286398183
 20
169.2647817515002
 10
54.68737211356202
 20
169.2049975225795
 10
54.70588877198079
 20
169.1459091977717
 10
54.72959604486042
 20
169.087788844115
 10
54.75838141782097
 20
169.0309356177144
 10
54.7921157090008
 20
168.9756060077756
 10
54.83066239594191
 20
168.9220250709963
 10
54.87385093542108
 20
168.8704316334164
 10
54.92149273244141
 20
168.8210499668761
 10
54.97338609576164
 20
168.7740882116754
 10
55.02931037812178
 20
168.7297461261163
 10
55.08902755358068
 20
168.6882130265562
 10
55.1522805792205
 20
168.6496682166811
 10
55.21879599610056
 20
168.6142783890513
 10
55.28828782054043
 20
168.5821954026736
 10
55.36045864648205
 20
168.5535562778363
 10
55.43499838310109
 20
168.5284838057536
 10
55.5115892001999
 20
168.5070847451765
 10
55.58990091810065
 20
168.4894511964934
 10
55.66959140388044
 20
168.4756594155964
 10
55.75031664248072
 20
168.4657675252942
 10
55.83173259344167
 20
168.4598162875167
 10
55.91349035982185
 20
168.4578299770341
  0
LINE
  5
649
330
1F
100
AcDbEntity
  8
_SURFACE
  6
Continuous
 62
     7
100
AcDbLine
 10
54.66349324082185
 20
169.343384195255
 30
0.0
 11
54.667452186421
 21
169.2467170048016
 31
0.0
  0
LWPOLYLINE
  5
64A
330
1F
100
AcDbEntity
  8
_SURFACE
  6
Continuous
 62
     7
100
AcDbPolyline
 90
       10
 70
     0
 43
0.0
 10
54.66348883646006
 20
167.4253757478122
 10
54.66655455042055
 20
167.3482254753957
 10
54.6757332620613
 20
167.2714535588361
 10
54.69097996766177
 20
167.1954363423187
 10
54.71221992772044
 20
167.1205464616191
 10
54.73934901240082
 20
167.0471510330948
 10
54.77223422222087
 20
166.9756098401389
 10
54.81071434338119
 20
166.9062735805323
 10
54.85460072754122
 20
166.83948214186
 10
54.90367822654062
 20
166.7755629300931
  0
LWPOLYLINE
  5
64B
330
1F
100
AcDbEntity
  8
_SURFACE
  6
Continuous
 62
     7
100
AcDbPolyline
 90
       10
 70
     0
 43
0.0
 10
54.6634912697813
 20
168.8792878844373
 10
54.66683472766127
 20
168.7905943965938
 10
54.67684863955984
 20
168.7023753731313
 10
54.69347942672121
 20
168.6151029009974
 10
54.71663810024111
 20
168.5292440023526
 10
54.74620074876148
 20
168.4452581352793
 10
54.78200918870098
 20
168.3635947324414
 10
54.82387182278163
 20
168.2846908109981
 10
54.87156465856097
 20
168.2089686129379
 10
54.92483250224032
 20
168.136833359696
  0
LINE
  5
64C
330
1F
100
AcDbEntity
  8
_SURFACE
  6
Continuous
 62
     7
100
AcDbLine
 10
54.66349036046122
 20
169.3815589271375
 30
0.0
 11
54.66611931126172
 21
169.300533323379
 31
0.0
  0
LWPOLYLINE
  5
64D
330
1F
100
AcDbEntity
  8
_SURFACE
  6
Continuous
 62
     7
100
AcDbPolyline
 90
        3
 70
     0
 43
0.0
 10
54.99768902658016
 20
157.7324958397343
 10
54.99095759986122
 20
157.9814210289527
 10
54.98773852070136
 20
158.1059719152303
  0
LINE
  5
64E
330
1F
100
AcDbEntity
  8
_SURFACE
  6
Continuous
 62
     7
100
AcDbLine
 10
54.98773852070136
 20
158.1059719152303
 30
0.0
 11
54.98159531734055
 21
158.3554164658757
 31
0.0
  0
LINE
  5
64F
330
1F
100
AcDbEntity
  8
_SURFACE
  6
Continuous
 62
     7
100
AcDbLine
 10
54.98159531734055
 20
158.3554164658757
 30
0.0
 11
54.97583579622133
 21
158.6037518823336
 31
0.0
  0
LINE
  5
650
330
1F
100
AcDbEntity
  8
_SURFACE
  6
Continuous
 62
     7
100
AcDbLine
 10
54.97583579622133
 20
158.6037518823336
 30
0.0
 11
54.9704545623803
 21
158.8501691974792
 31
0.0
  0
LWPOLYLINE
  5
651
330
1F
100
AcDbEntity
  8
_SURFACE
  6
Continuous
 62
     7
100
AcDbPolyline
 90
        5
 70
     0
 43
0.0
 10
55.00906379682092
 20
157.2209609674587
 10
55.00651533354122
 20
157.3428586586355
 10
55.00376456434096
 20
157.4689419827968
 10
55.00082246202183
 20
157.5988504021783
 10
54.99768902658016
 20
157.7324958422736
  0
LINE
  5
652
330
1F
100
AcDbEntity
  8
_SURFACE
  6
Continuous
 62
     7
100
AcDbLine
 10
54.9704545623803
 20
158.8501691974792
 30
0.0
 11
54.96544403138106
 21
159.0936205165175
 31
0.0
  0
LINE
  5
653
330
1F
100
AcDbEntity
  8
_SURFACE
  6
Continuous
 62
     7
100
AcDbLine
 10
54.96544403138106
 20
159.0936205165175
 30
0.0
 11
54.96078873462048
 21
159.3330285670358
 31
0.0
  0
LINE
  5
654
330
1F
100
AcDbEntity
  8
_SURFACE
  6
Continuous
 62
     7
100
AcDbLine
 10
55.01361963480068
 20
156.9883170410734
 30
0.0
 11
55.00906379682092
 21
157.2209609674587
 31
0.0
  0
LINE
  5
655
330
1F
100
AcDbEntity
  8
_SURFACE
  6
Continuous
 62
     7
100
AcDbLine
 10
54.96078873462048
 20
159.3330285670358
 30
0.0
 11
54.95647868990037
 21
159.5676785346126
 31
0.0
  0
LINE
  5
656
330
1F
100
AcDbEntity
  8
_SURFACE
  6
Continuous
 62
     7
100
AcDbLine
 10
55.01754541562096
 20
156.7685921338174
 30
0.0
 11
55.01361963480068
 21
156.9883170410734
 31
0.0
  0
LINE
  5
657
330
1F
100
AcDbEntity
  8
_SURFACE
  6
Continuous
 62
     7
100
AcDbLine
 10
54.95647868990037
 20
159.5676785346126
 30
0.0
 11
54.95249841846035
 21
159.7965566061952
 31
0.0
  0
LINE
  5
658
330
1F
100
AcDbEntity
  8
_SURFACE
  6
Continuous
 62
     7
100
AcDbLine
 10
54.95249841846035
 20
159.7965566061952
 30
0.0
 11
54.94883208086085
 21
160.0186244627961
 31
0.0
  0
LINE
  5
659
330
1F
100
AcDbEntity
  8
_SURFACE
  6
Continuous
 62
     7
100
AcDbLine
 10
55.02092222116099
 20
156.5598409714343
 30
0.0
 11
55.01754541562096
 21
156.7685921338174
 31
0.0
  0
LINE
  5
65A
330
1F
100
AcDbEntity
  8
_SURFACE
  6
Continuous
 62
     7
100
AcDbLine
 10
54.94883208086085
 20
160.0186244627961
 30
0.0
 11
54.945464614901
 21
160.2335500298917
 31
0.0
  0
LINE
  5
65B
330
1F
100
AcDbEntity
  8
_SURFACE
  6
Continuous
 62
     7
100
AcDbLine
 10
54.945464614901
 20
160.2335500298917
 30
0.0
 11
54.94237356698196
 21
160.4407200371983
 31
0.0
  0
LINE
  5
65C
330
1F
100
AcDbEntity
  8
_SURFACE
  6
Continuous
 62
     7
100
AcDbLine
 10
54.94237356698196
 20
160.4407200371983
 30
0.0
 11
54.93948915822184
 21
160.6435429665775
 31
0.0
  0
LINE
  5
65D
330
1F
100
AcDbEntity
  8
_SURFACE
  6
Continuous
 62
     7
100
AcDbLine
 10
55.02379759260057
 20
156.3610513309153
 30
0.0
 11
55.02092222116099
 21
156.5598409714343
 31
0.0
  0
LINE
  5
65E
330
1F
100
AcDbEntity
  8
_SURFACE
  6
Continuous
 62
     7
100
AcDbLine
 10
54.93948915822184
 20
160.6435429665775
 30
0.0
 11
54.93546826964067
 21
160.9438588708921
 31
0.0
  0
LINE
  5
65F
330
1F
100
AcDbEntity
  8
_SURFACE
  6
Continuous
 62
     7
100
AcDbLine
 10
55.02623381074172
 20
156.1707230679362
 30
0.0
 11
55.02379759260057
 21
156.3610513309153
 31
0.0
  0
LWPOLYLINE
  5
660
330
1F
100
AcDbEntity
  8
_SURFACE
  6
Continuous
 62
     7
100
AcDbPolyline
 90
        3
 70
     0
 43
0.0
 10
54.93546826964067
 20
160.9438588708921
 10
54.93172570410061
 20
161.2426332288937
 10
54.93053476160131
 20
161.3412822264194
  0
LINE
  5
661
330
1F
100
AcDbEntity
  8
_SURFACE
  6
Continuous
 62
     7
100
AcDbLine
 10
54.93053476160131
 20
161.3412822264194
 30
0.0
 11
54.92579235554095
 21
161.7319911782955
 31
0.0
  0
LINE
  5
662
330
1F
100
AcDbEntity
  8
_SURFACE
  6
Continuous
 62
     7
100
AcDbLine
 10
54.92579235554095
 20
161.7319911782955
 30
0.0
 11
54.92358067340084
 21
161.9314579548785
 31
0.0
  0
LINE
  5
663
330
1F
100
AcDbEntity
  8
_SURFACE
  6
Continuous
 62
     7
100
AcDbLine
 10
55.02826747698183
 20
155.9887701755555
 30
0.0
 11
55.02623381074172
 21
156.1707230679362
 31
0.0
  0
LINE
  5
664
330
1F
100
AcDbEntity
  8
_SURFACE
  6
Continuous
 62
     7
100
AcDbLine
 10
54.92358067340084
 20
161.9314579548785
 30
0.0
 11
54.92143610060103
 21
162.1401102147333
 31
0.0
  0
LINE
  5
665
330
1F
100
AcDbEntity
  8
_SURFACE
  6
Continuous
 62
     7
100
AcDbLine
 10
54.92143610060103
 20
162.1401102147333
 30
0.0
 11
54.91933375276076
 21
162.3607223744742
 31
0.0
  0
LINE
  5
666
330
1F
100
AcDbEntity
  8
_SURFACE
  6
Continuous
 62
     7
100
AcDbLine
 10
55.02992505812144
 20
155.8150235558182
 30
0.0
 11
55.02826747698183
 21
155.9887701755555
 31
0.0
  0
LINE
  5
667
330
1F
100
AcDbEntity
  8
_SURFACE
  6
Continuous
 62
     7
100
AcDbLine
 10
54.91933375276076
 20
162.3607223744742
 30
0.0
 11
54.91724082832153
 21
162.5981869846341
 31
0.0
  0
LINE
  5
668
330
1F
100
AcDbEntity
  8
_SURFACE
  6
Continuous
 62
     7
100
AcDbLine
 10
54.91724082832153
 20
162.5981869846341
 30
0.0
 11
54.91518235644107
 21
162.851822123795
 31
0.0
  0
LINE
  5
669
330
1F
100
AcDbEntity
  8
_SURFACE
  6
Continuous
 62
     7
100
AcDbLine
 10
55.03124545172013
 20
155.6491855207181
 30
0.0
 11
55.02992505812144
 21
155.8150235558182
 31
0.0
  0
LINE
  5
66A
330
1F
100
AcDbEntity
  8
_SURFACE
  6
Continuous
 62
     7
100
AcDbLine
 10
54.91518235644107
 20
162.851822123795
 30
0.0
 11
54.91317352632123
 21
163.1200862532545
 31
0.0
  0
LINE
  5
66B
330
1F
100
AcDbEntity
  8
_SURFACE
  6
Continuous
 62
     7
100
AcDbLine
 10
54.91317352632123
 20
163.1200862532545
 30
0.0
 11
54.91125174454137
 21
163.3988370190904
 31
0.0
  0
LINE
  5
66C
330
1F
100
AcDbEntity
  8
_SURFACE
  6
Continuous
 62
     7
100
AcDbLine
 10
54.91125174454137
 20
163.3988370190904
 30
0.0
 11
54.90940517470008
 21
163.6886959847156
 31
0.0
  0
LINE
  5
66D
330
1F
100
AcDbEntity
  8
_SURFACE
  6
Continuous
 62
     7
100
AcDbLine
 10
55.03226510424011
 20
155.4908565993805
 30
0.0
 11
55.03124545172013
 21
155.6491855207181
 31
0.0
  0
LINE
  5
66E
330
1F
100
AcDbEntity
  8
_SURFACE
  6
Continuous
 62
     7
100
AcDbLine
 10
54.90940517470008
 20
163.6886959847156
 30
0.0
 11
54.90763093390106
 21
163.9893270674706
 31
0.0
  0
LINE
  5
66F
330
1F
100
AcDbEntity
  8
_SURFACE
  6
Continuous
 62
     7
100
AcDbLine
 10
54.90763093390106
 20
163.9893270674706
 30
0.0
 11
54.9050956887817
 21
164.4624340638597
 31
0.0
  0
LINE
  5
670
330
1F
100
AcDbEntity
  8
_SURFACE
  6
Continuous
 62
     7
100
AcDbLine
 10
54.66349270488027
 20
169.3433841927157
 30
0.0
 11
54.66353961105998
 21
169.3349769679748
 31
0.0
  0
LINE
  5
671
330
1F
100
AcDbEntity
  8
_SURFACE
  6
Continuous
 62
     7
100
AcDbLine
 10
55.03300718048049
 20
155.3397826038321
 30
0.0
 11
55.03226510424011
 21
155.4908565993805
 31
0.0
  0
LINE
  5
672
330
1F
100
AcDbEntity
  8
_SURFACE
  6
Continuous
 62
     7
100
AcDbLine
 10
54.9050956887817
 20
164.4624340638597
 30
0.0
 11
54.90388696120081
 21
164.7872404678323
 31
0.0
  0
LINE
  5
673
330
1F
100
AcDbEntity
  8
_SURFACE
  6
Continuous
 62
     7
100
AcDbLine
 10
55.03350513732167
 20
155.1955169055777
 30
0.0
 11
55.03300718048049
 21
155.3397826038321
 31
0.0
  0
LINE
  5
674
330
1F
100
AcDbEntity
  8
_SURFACE
  6
Continuous
 62
     7
100
AcDbLine
 10
54.90388696120081
 20
164.7872404678323
 30
0.0
 11
54.90300046564098
 21
165.0874112213109
 31
0.0
  0
LINE
  5
675
330
1F
100
AcDbEntity
  8
_SURFACE
  6
Continuous
 62
     7
100
AcDbLine
 10
54.90300046564098
 20
165.0874112213109
 30
0.0
 11
54.90239725374195
 21
165.3633138902345
 31
0.0
  0
LINE
  5
676
330
1F
100
AcDbEntity
  8
_SURFACE
  6
Continuous
 62
     7
100
AcDbLine
 10
54.90239725374195
 20
165.3633138902345
 30
0.0
 11
54.90213363984131
 21
165.5340166933578
 31
0.0
  0
LINE
  5
677
330
1F
100
AcDbEntity
  8
_SURFACE
  6
Continuous
 62
     7
100
AcDbLine
 10
55.0277894515215
 20
153.6784402699317
 30
0.0
 11
55.02764889808114
 21
153.8579674369152
 31
0.0
  0
LINE
  5
678
330
1F
100
AcDbEntity
  8
_SURFACE
  6
Continuous
 62
     7
100
AcDbLine
 10
55.0284249442806
 20
152.7883591519543
 30
0.0
 11
55.0277894515215
 21
153.6784402699317
 31
0.0
  0
LWPOLYLINE
  5
679
330
1F
100
AcDbEntity
  8
_SURFACE
  6
Continuous
 62
     7
100
AcDbPolyline
 90
        3
 70
     0
 43
0.0
 10
55.03387188030083
 20
154.9260152246183
 10
55.03385120216027
 20
154.9910997858364
 10
55.03350513732167
 20
155.1955169055777
  0
LINE
  5
67A
330
1F
100
AcDbEntity
  8
_SURFACE
  6
Continuous
 62
     7
100
AcDbLine
 10
55.02910907550123
 20
151.539867605255
 30
0.0
 11
55.0284249442806
 21
152.7883591519543
 31
0.0
  0
LWPOLYLINE
  5
67B
330
1F
100
AcDbEntity
  8
_SURFACE
  6
Continuous
 62
     7
100
AcDbPolyline
 90
        4
 70
     0
 43
0.0
 10
55.0298208165199
 20
148.7790698985167
 10
55.02981039744136
 20
148.9277575996142
 10
55.02979656714015
 20
149.0807160490926
 10
55.02910907550123
 20
151.539867605255
  0
LINE
  5
67C
330
1F
100
AcDbEntity
  8
_SURFACE
  6
Continuous
 62
     7
100
AcDbLine
 10
55.91349035982185
 20
168.4578299770341
 30
0.0
 11
55.91349035982185
 21
168.4775232244187
 31
0.0
  0
LINE
  5
67D
330
1F
100
AcDbEntity
  8
_SURFACE
  6
Continuous
 62
     7
100
AcDbLine
 10
55.93349036045984
 20
168.4955877399747
 30
0.0
 11
55.93349036045984
 21
175.4478451918016
 31
0.0
  0
LINE
  5
67E
330
1F
100
AcDbEntity
  8
_SURFACE
  6
Continuous
 62
     7
100
AcDbLine
 10
98.34925625774159
 20
151.0873292418595
 30
0.0
 11
98.34951849242081
 21
151.0878348517193
 31
0.0
  0
LWPOLYLINE
  5
67F
330
1F
100
AcDbEntity
  8
_SURFACE
  6
Continuous
 62
     7
100
AcDbPolyline
 90
       13
 70
     0
 43
0.0
 10
54.66349205210045
 20
157.9798746794963
 10
54.66592283464106
 20
157.9572148365745
 10
54.67320723714093
 20
157.9346430884738
 10
54.68531692336037
 20
157.9122472836365
 10
54.70220477884087
 20
157.8901145897738
 10
54.72380510140047
 20
157.8683311433755
 10
54.75003385768051
 20
157.8469817296404
 10
54.78078900318124
 20
157.8261494395751
 10
54.81595088612031
 20
157.8059153576154
 10
54.85538271480018
 20
157.7863582364566
 10
54.898931075761
 20
157.7675542024348
 10
54.94642654592045
 20
157.7495764456593
 10
54.99768434790112
 20
157.7324949405715
  0
LINE
  5
680
330
1F
100
AcDbEntity
  8
_SURFACE
  6
Continuous
 62
     7
100
AcDbLine
 10
54.6699707920001
 20
169.2580584654765
 30
0.0
 11
54.67099520702086
 21
169.2484077049934
 31
0.0
  0
LINE
  5
681
330
1F
100
AcDbEntity
  8
_SURFACE
  6
Continuous
 62
     7
100
AcDbLine
 10
54.66611931126172
 20
169.300533323379
 30
0.0
 11
54.67399488098036
 21
169.2198485342791
 31
0.0
  0
LINE
  5
682
330
1F
100
AcDbEntity
  8
_SURFACE
  6
Continuous
 62
     7
100
AcDbLine
 10
54.66903320688053
 20
169.2675911972377
 30
0.0
 11
54.6699707920001
 21
169.2580584654765
 31
0.0
  0
LINE
  5
683
330
1F
100
AcDbEntity
  8
_SURFACE
  6
Continuous
 62
     7
100
AcDbLine
 10
54.66817941128138
 20
169.2770074217309
 30
0.0
 11
54.66903320688053
 21
169.2675911972377
 31
0.0
  0
LINE
  5
684
330
1F
100
AcDbEntity
  8
_SURFACE
  6
Continuous
 62
     7
100
AcDbLine
 10
54.66740610320122
 20
169.2863133010154
 30
0.0
 11
54.66817941128138
 21
169.2770074217309
 31
0.0
  0
LWPOLYLINE
  5
685
330
1F
100
AcDbEntity
  8
_SURFACE
  6
Continuous
 62
     7
100
AcDbPolyline
 90
        5
 70
     0
 43
0.0
 10
72.06897729948051
 20
151.4362907715162
 10
72.06895801326064
 20
151.4356109278137
 10
72.06883860786129
 20
151.4304856650173
 10
72.06873985774056
 20
151.4249524934543
 10
72.0686091264819
 20
151.4127597949531
  0
LINE
  5
686
330
1F
100
AcDbEntity
  8
_SURFACE
  6
Continuous
 62
     7
100
AcDbLine
 10
72.06943509892099
 20
151.454286280355
 30
0.0
 11
72.06933649358089
 21
151.4523781104339
 31
0.0
  0
LWPOLYLINE
  5
687
330
1F
100
AcDbEntity
  8
_SURFACE
  6
Continuous
 62
     7
100
AcDbPolyline
 90
       13
 70
     0
 43
0.0
 10
72.95506283236083
 20
151.0717560725947
 10
72.95504363504133
 20
151.0714290577575
 10
72.95502247684126
 20
151.0711214459783
 10
72.95499935776061
 20
151.0708344107383
 10
72.95497421938162
 20
151.070569417619
 10
72.95494711758093
 20
151.0703272032164
 10
72.9549182327004
 20
151.0701081282145
 10
72.95488779080042
 20
151.069913538818
 10
72.95485556074019
 20
151.0697447888355
 10
72.95482102944006
 20
151.0696027850548
 10
72.95478408260206
 20
151.0694890514764
 10
72.95474483452145
 20
151.0694050485958
 10
72.95470311248156
 20
151.0693520819745
  0
LINE
  5
688
330
1F
100
AcDbEntity
  8
_SURFACE
  6
Continuous
 62
     7
100
AcDbLine
 10
72.06931791856132
 20
151.4389180789416
 30
0.0
 11
72.06912924990084
 21
151.436141828451
 31
0.0
  0
LINE
  5
689
330
1F
100
AcDbEntity
  8
_SURFACE
  6
Continuous
 62
     7
100
AcDbLine
 10
72.06936529718078
 20
151.4394261373576
 30
0.0
 11
72.06931791856132
 21
151.4389180789416
 31
0.0
  0
LINE
  5
68A
330
1F
100
AcDbEntity
  8
_SURFACE
  6
Continuous
 62
     7
100
AcDbLine
 10
54.66349036046122
 20
43.27589774806023
 30
0.0
 11
116.6394903604618
 21
43.27589774806023
 31
0.0
  0
LWPOLYLINE
  5
68B
330
1F
100
AcDbEntity
  8
_SURFACE
  6
Continuous
 62
     7
100
AcDbPolyline
 90
       13
 70
     0
 43
0.0
 10
54.66349039602156
 20
146.3615042383584
 10
54.66618561288069
 20
146.3436040252394
 10
54.67422054474027
 20
146.3257808731773
 10
54.68756030978184
 20
146.3081109770987
 10
54.70614731350034
 20
146.2906697775374
 10
54.72990153066112
 20
146.2735318971585
 10
54.75872087612007
 20
146.2567708257751
 10
54.79248156552094
 20
146.2404581710774
 10
54.83103870964114
 20
146.224663602717
 10
54.87422703068151
 20
146.2094548243962
 10
54.92186142106075
 20
146.1948968601186
 10
54.97373767494028
 20
146.1810517722383
 10
55.02963350676182
 20
146.1679786538565
  0
LWPOLYLINE
  5
68C
330
1F
100
AcDbEntity
  8
_SURFACE
  6
Continuous
 62
     7
100
AcDbPolyline
 90
       13
 70
     0
 43
0.0
 10
54.66349036046122
 20
154.0547823645951
 10
54.66615170134028
 20
154.0365930944003
 10
54.67412421778082
 20
154.0184810681362
 10
54.68737396522138
 20
154.0005232655944
 10
54.70584452518088
 20
153.9827960163215
 10
54.72945724910132
 20
153.9653746592352
 10
54.75811159362129
 20
153.9483332353533
 10
54.79168554984008
 20
153.9317441702346
 10
54.83003615894123
 20
153.9156779615782
 10
54.8730001217813
 20
153.9002028794979
 10
54.92039449994118
 20
153.8853846820543
 10
54.97201748788066
 20
153.8712863231534
 10
55.02764927400076
 20
153.8579676985368
  0
LINE
  5
68D
330
1F
100
AcDbEntity
  8
_SURFACE
  6
Continuous
 62
     7
100
AcDbLine
 10
54.67602867930091
 20
169.2085738298751
 30
0.0
 11
54.67753889218093
 21
169.1982971803713
 31
0.0
  0
LINE
  5
68E
330
1F
100
AcDbEntity
  8
_SURFACE
  6
Continuous
 62
     7
100
AcDbLine
 10
54.67462290360109
 20
169.218721294977
 30
0.0
 11
54.67602867930091
 21
169.2085738298751
 31
0.0
  0
LINE
  5
68F
330
1F
100
AcDbEntity
  8
_SURFACE
  6
Continuous
 62
     7
100
AcDbLine
 10
54.67331783382125
 20
169.2287411555566
 30
0.0
 11
54.67462290360109
 21
169.218721294977
 31
0.0
  0
LWPOLYLINE
  5
690
330
1F
100
AcDbEntity
  8
_SURFACE
  6
Continuous
 62
     7
100
AcDbPolyline
 90
        4
 70
     0
 43
0.0
 10
54.667452186421
 20
169.2467170048016
 10
54.6793135546217
 20
169.1478996433774
 10
54.69899906770061
 20
169.0503391755532
 10
54.72638392276113
 20
168.9546540964124
  0
LINE
  5
691
330
1F
100
AcDbEntity
  8
_SURFACE
  6
Continuous
 62
     7
100
AcDbLine
 10
54.67210974124046
 20
169.238636159896
 30
0.0
 11
54.67331783382125
 21
169.2287411555566
 31
0.0
  0
LINE
  5
692
330
1F
100
AcDbEntity
  8
_SURFACE
  6
Continuous
 62
     7
100
AcDbLine
 10
54.67099520702086
 20
169.2484077049934
 30
0.0
 11
54.67210974124046
 21
169.238636159896
 31
0.0
  0
LINE
  5
693
330
1F
100
AcDbEntity
  8
_SURFACE
  6
Continuous
 62
     7
100
AcDbLine
 10
72.9566208404216
 20
151.0554553711312
 30
0.0
 11
72.9613332744806
 21
150.9634566270155
 31
0.0
  0
LINE
  5
694
330
1F
100
AcDbEntity
  8
_SURFACE
  6
Continuous
 62
     7
100
AcDbLine
 10
72.9613332744806
 20
150.9634566270155
 30
0.0
 11
72.96260578908132
 21
150.9365132036377
 31
0.0
  0
LINE
  5
695
330
1F
100
AcDbEntity
  8
_SURFACE
  6
Continuous
 62
     7
100
AcDbLine
 10
72.95598577438105
 20
151.069332592558
 30
0.0
 11
72.9566208404216
 21
151.0554553711312
 31
0.0
  0
LINE
  5
696
330
1F
100
AcDbEntity
  8
_SURFACE
  6
Continuous
 62
     7
100
AcDbLine
 10
72.96260578908132
 20
150.9365132036377
 30
0.0
 11
72.96377101916132
 21
150.9088620016386
 31
0.0
  0
LINE
  5
697
330
1F
100
AcDbEntity
  8
_SURFACE
  6
Continuous
 62
     7
100
AcDbLine
 10
72.96377101916132
 20
150.9088620016386
 30
0.0
 11
72.96446547294127
 21
150.8901634385815
 31
0.0
  0
LINE
  5
698
330
1F
100
AcDbEntity
  8
_SURFACE
  6
Continuous
 62
     7
100
AcDbLine
 10
72.96446547294127
 20
150.8901634385815
 30
0.0
 11
72.96507728782163
 21
150.8712618406184
 31
0.0
  0
LINE
  5
699
330
1F
100
AcDbEntity
  8
_SURFACE
  6
Continuous
 62
     7
100
AcDbLine
 10
72.95350064854066
 20
151.0878610721387
 30
0.0
 11
72.95355604848047
 21
151.0860181192597
 31
0.0
  0
LINE
  5
69A
330
1F
100
AcDbEntity
  8
_SURFACE
  6
Continuous
 62
     7
100
AcDbLine
 10
72.95386521474066
 20
151.0902228225581
 30
0.0
 11
72.95393676654057
 21
151.0878467897104
 31
0.0
  0
LINE
  5
69B
330
1F
100
AcDbEntity
  8
_SURFACE
  6
Continuous
 62
     7
100
AcDbLine
 10
72.96507728782163
 20
150.8712618406184
 30
0.0
 11
72.96560205182086
 21
150.8522371974372
 31
0.0
  0
LINE
  5
69C
330
1F
100
AcDbEntity
  8
_SURFACE
  6
Continuous
 62
     7
100
AcDbLine
 10
72.96560205182086
 20
150.8522371974372
 30
0.0
 11
72.9670341419218
 21
150.7896099338154
 31
0.0
  0
LINE
  5
69D
330
1F
100
AcDbEntity
  8
_SURFACE
  6
Continuous
 62
     7
100
AcDbLine
 10
72.9670341419218
 20
150.7896099338154
 30
0.0
 11
72.96856475608129
 21
150.7131953114344
 31
0.0
  0
LINE
  5
69E
330
1F
100
AcDbEntity
  8
_SURFACE
  6
Continuous
 62
     7
100
AcDbLine
 10
72.96856475608129
 20
150.7131953114344
 30
0.0
 11
72.97073626558122
 21
150.5916581783362
 31
0.0
  0
LINE
  5
69F
330
1F
100
AcDbEntity
  8
_SURFACE
  6
Continuous
 62
     7
100
AcDbLine
 10
72.97073626558122
 20
150.5916581783362
 30
0.0
 11
72.97398250242114
 21
150.3933765530577
 31
0.0
  0
LINE
  5
6A0
330
1F
100
AcDbEntity
  8
_SURFACE
  6
Continuous
 62
     7
100
AcDbLine
 10
72.94878117868066
 20
151.4153706025367
 30
0.0
 11
72.95218652874101
 21
151.2026620871306
 31
0.0
  0
LINE
  5
6A1
330
1F
100
AcDbEntity
  8
_SURFACE
  6
Continuous
 62
     7
100
AcDbLine
 10
72.97398250242114
 20
150.3933765530577
 30
0.0
 11
72.97912749594107
 21
150.0614515425381
 31
0.0
  0
LINE
  5
6A2
330
1F
100
AcDbEntity
  8
_SURFACE
  6
Continuous
 62
     7
100
AcDbLine
 10
72.97912749594107
 20
150.0614515425381
 30
0.0
 11
72.98287360732084
 21
149.8075519919197
 31
0.0
  0
LINE
  5
6A3
330
1F
100
AcDbEntity
  8
_SURFACE
  6
Continuous
 62
     7
100
AcDbLine
 10
72.95218652874101
 20
151.2026620871306
 30
0.0
 11
72.95386521474066
 21
151.0902228225581
 31
0.0
  0
LINE
  5
6A4
330
1F
100
AcDbEntity
  8
_SURFACE
  6
Continuous
 62
     7
100
AcDbLine
 10
72.95505516156154
 20
151.0723173287746
 30
0.0
 11
72.95506283236083
 21
151.0717560725947
 31
0.0
  0
LINE
  5
6A5
330
1F
100
AcDbEntity
  8
_SURFACE
  6
Continuous
 62
     7
100
AcDbLine
 10
72.98287360732084
 20
149.8075519919197
 30
0.0
 11
72.98608603168159
 21
149.5749019187328
 31
0.0
  0
LINE
  5
6A6
330
1F
100
AcDbEntity
  8
_SURFACE
  6
Continuous
 62
     7
100
AcDbLine
 10
72.98608603168159
 20
149.5749019187328
 30
0.0
 11
72.9883772463003
 21
149.3950617627974
 31
0.0
  0
LINE
  5
6A7
330
1F
100
AcDbEntity
  8
_SURFACE
  6
Continuous
 62
     7
100
AcDbLine
 10
72.07137343134164
 20
141.7081573245936
 30
0.0
 11
72.07236729270099
 21
141.6293289783183
 31
0.0
  0
LWPOLYLINE
  5
6A8
330
1F
100
AcDbEntity
  8
_SURFACE
  6
Continuous
 62
     7
100
AcDbPolyline
 90
        7
 70
     0
 43
0.0
 10
72.9883772463003
 20
149.3950617627974
 10
72.99067038370177
 20
149.1923467681749
 10
72.99180563416157
 20
149.0816898190509
 10
72.99285092036043
 20
148.964170623059
 10
72.99378037240095
 20
148.8393934761165
 10
72.99462017768147
 20
148.7071752518581
 10
72.99537051654024
 20
148.5672215998397
  0
LINE
  5
6A9
330
1F
100
AcDbEntity
  8
_SURFACE
  6
Continuous
 62
     7
100
AcDbLine
 10
72.07236729270099
 20
141.6293289783183
 30
0.0
 11
72.07316666626084
 21
141.5511131708167
 31
0.0
  0
LINE
  5
6AA
330
1F
100
AcDbEntity
  8
_SURFACE
  6
Continuous
 62
     7
100
AcDbLine
 10
72.94214707460142
 20
138.3067531622122
 30
0.0
 11
72.94713022694068
 21
137.7649875579131
 31
0.0
  0
LINE
  5
6AB
330
1F
100
AcDbEntity
  8
_SURFACE
  6
Continuous
 62
     7
100
AcDbLine
 10
72.94713022694068
 20
137.7649875579131
 30
0.0
 11
72.95051643302068
 21
137.3699018355159
 31
0.0
  0
LINE
  5
6AC
330
1F
100
AcDbEntity
  8
_SURFACE
  6
Continuous
 62
     7
100
AcDbLine
 10
72.95051643302068
 20
137.3699018355159
 30
0.0
 11
72.95306025318168
 21
137.0455893218363
 31
0.0
  0
LINE
  5
6AD
330
1F
100
AcDbEntity
  8
_SURFACE
  6
Continuous
 62
     7
100
AcDbLine
 10
72.95306025318168
 20
137.0455893218363
 30
0.0
 11
72.95470391766085
 21
136.8160598723384
 31
0.0
  0
LINE
  5
6AE
330
1F
100
AcDbEntity
  8
_SURFACE
  6
Continuous
 62
     7
100
AcDbLine
 10
72.07316666626084
 20
141.5511131708167
 30
0.0
 11
72.07404200614056
 21
141.4348022248718
 31
0.0
  0
LINE
  5
6AF
330
1F
100
AcDbEntity
  8
_SURFACE
  6
Continuous
 62
     7
100
AcDbLine
 10
72.95470391766085
 20
136.8160598723384
 30
0.0
 11
72.95625439462165
 21
136.5758903044165
 31
0.0
  0
LINE
  5
6B0
330
1F
100
AcDbEntity
  8
_SURFACE
  6
Continuous
 62
     7
100
AcDbLine
 10
72.06556515492085
 20
143.9433729100323
 30
0.0
 11
72.06823525118071
 21
143.5422610477957
 31
0.0
  0
LINE
  5
6B1
330
1F
100
AcDbEntity
  8
_SURFACE
  6
Continuous
 62
     7
100
AcDbLine
 10
72.06823525118071
 20
143.5422610477957
 30
0.0
 11
72.06941393818161
 21
143.3585265714768
 31
0.0
  0
LINE
  5
6B2
330
1F
100
AcDbEntity
  8
_SURFACE
  6
Continuous
 62
     7
100
AcDbLine
 10
72.07635197612072
 20
141.0149595974557
 30
0.0
 11
72.07672603176106
 21
140.9525638573809
 31
0.0
  0
LINE
  5
6B3
330
1F
100
AcDbEntity
  8
_SURFACE
  6
Continuous
 62
     7
100
AcDbLine
 10
72.95625439462165
 20
136.5758903044165
 30
0.0
 11
72.9576784456207
 21
136.3250920582335
 31
0.0
  0
LINE
  5
6B4
330
1F
100
AcDbEntity
  8
_SURFACE
  6
Continuous
 62
     7
100
AcDbLine
 10
72.07672603176106
 20
140.9525638573809
 30
0.0
 11
72.07864119938077
 21
140.6136714490544
 31
0.0
  0
LINE
  5
6B5
330
1F
100
AcDbEntity
  8
_SURFACE
  6
Continuous
 62
     7
100
AcDbLine
 10
72.06941393818161
 20
143.3585265714768
 30
0.0
 11
72.07036178744093
 21
143.1854964146163
 31
0.0
  0
LINE
  5
6B6
330
1F
100
AcDbEntity
  8
_SURFACE
  6
Continuous
 62
     7
100
AcDbLine
 10
72.07445204088199
 20
141.3577901868752
 30
0.0
 11
72.07635197612072
 21
141.0149595974557
 31
0.0
  0
LINE
  5
6B7
330
1F
100
AcDbEntity
  8
_SURFACE
  6
Continuous
 62
     7
100
AcDbLine
 10
72.07404200614056
 20
141.4348022248718
 30
0.0
 11
72.07445204088199
 21
141.3577901868752
 31
0.0
  0
LINE
  5
6B8
330
1F
100
AcDbEntity
  8
_SURFACE
  6
Continuous
 62
     7
100
AcDbLine
 10
72.9576784456207
 20
136.3250920582335
 30
0.0
 11
72.95892280940134
 21
136.063681547273
 31
0.0
  0
LWPOLYLINE
  5
6B9
330
1F
100
AcDbEntity
  8
_SURFACE
  6
Continuous
 62
     7
100
AcDbPolyline
 90
       10
 70
     0
 43
0.0
 10
72.99537051654024
 20
148.5672215998397
 10
72.99611145232066
 20
148.4068304829756
 10
72.99711828546097
 20
148.2344549222156
 10
72.9983912369411
 20
148.049551769041
 10
73.00006598848122
 20
147.852252752918
 10
73.00200708188132
 20
147.6416176395118
 10
73.0038080155413
 20
147.4154676092197
 10
73.00533338206097
 20
147.1726933297154
 10
73.00671878188078
 20
146.9134340158757
 10
73.0079642277009
 20
146.6373001713922
  0
LINE
  5
6BA
330
1F
100
AcDbEntity
  8
_SURFACE
  6
Continuous
 62
     7
100
AcDbLine
 10
72.06858363250049
 20
151.3844927242366
 30
0.0
 11
72.06928916576126
 21
151.2810101422778
 31
0.0
  0
LINE
  5
6BB
330
1F
100
AcDbEntity
  8
_SURFACE
  6
Continuous
 62
     7
100
AcDbLine
 10
72.07864119938077
 20
140.6136714490544
 30
0.0
 11
72.07965423774059
 21
140.3858958060568
 31
0.0
  0
LINE
  5
6BC
330
1F
100
AcDbEntity
  8
_SURFACE
  6
Continuous
 62
     7
100
AcDbLine
 10
72.07036178744093
 20
143.1854964146163
 30
0.0
 11
72.07108349034061
 21
143.022603941315
 31
0.0
  0
LINE
  5
6BD
330
1F
100
AcDbEntity
  8
_SURFACE
  6
Continuous
 62
     7
100
AcDbLine
 10
72.06366970278068
 20
147.4874492254798
 30
0.0
 11
72.06587387160144
 21
146.9399939018016
 31
0.0
  0
LWPOLYLINE
  5
6BE
330
1F
100
AcDbEntity
  8
_SURFACE
  6
Continuous
 62
     7
100
AcDbPolyline
 90
        3
 70
     0
 43
0.0
 10
72.06415147728094
 20
144.2746730907142
 10
72.06455404188128
 20
144.1613759614533
 10
72.06556515492085
 20
143.9433729100323
  0
LINE
  5
6BF
330
1F
100
AcDbEntity
  8
_SURFACE
  6
Continuous
 62
     7
100
AcDbLine
 10
72.95892280940134
 20
136.063681547273
 30
0.0
 11
72.95990756994107
 21
135.7916966149982
 31
0.0
  0
LINE
  5
6C0
330
1F
100
AcDbEntity
  8
_SURFACE
  6
Continuous
 62
     7
100
AcDbLine
 10
72.07965423774059
 20
140.3858958060568
 30
0.0
 11
72.08018257806125
 21
140.2225854646507
 31
0.0
  0
LINE
  5
6C1
330
1F
100
AcDbEntity
  8
_SURFACE
  6
Continuous
 62
     7
100
AcDbLine
 10
72.07108349034061
 20
143.022603941315
 30
0.0
 11
72.07158523178023
 21
142.8695253193559
 31
0.0
  0
LINE
  5
6C2
330
1F
100
AcDbEntity
  8
_SURFACE
  6
Continuous
 62
     7
100
AcDbLine
 10
72.95990756994107
 20
135.7916966149982
 30
0.0
 11
72.96060959292154
 21
135.509143268498
 31
0.0
  0
LINE
  5
6C3
330
1F
100
AcDbEntity
  8
_SURFACE
  6
Continuous
 62
     7
100
AcDbLine
 10
72.07158523178023
 20
142.8695253193559
 30
0.0
 11
72.07189625478022
 21
142.725646153221
 31
0.0
  0
LINE
  5
6C4
330
1F
100
AcDbEntity
  8
_SURFACE
  6
Continuous
 62
     7
100
AcDbLine
 10
72.08018257806125
 20
140.2225854646507
 30
0.0
 11
72.08052897818143
 21
140.049241922597
 31
0.0
  0
LINE
  5
6C5
330
1F
100
AcDbEntity
  8
_SURFACE
  6
Continuous
 62
     7
100
AcDbLine
 10
72.0749384356408
 20
137.0045364524534
 30
0.0
 11
72.07617384084134
 21
136.2711265146549
 31
0.0
  0
LINE
  5
6C6
330
1F
100
AcDbEntity
  8
_SURFACE
  6
Continuous
 62
     7
100
AcDbLine
 10
72.07617384084134
 20
136.2711265146549
 30
0.0
 11
72.07730832168127
 21
135.5875444832977
 31
0.0
  0
LWPOLYLINE
  5
6C7
330
1F
100
AcDbEntity
  8
_SURFACE
  6
Continuous
 62
     7
100
AcDbPolyline
 90
        6
 70
     0
 43
0.0
 10
72.96060959292154
 20
135.509143268498
 10
72.96100582784075
 20
135.1633930455986
 10
72.96126754182151
 20
134.8188531784157
 10
72.96139400080065
 20
134.4755018280388
 10
72.96133590084119
 20
134.1332489844766
 10
72.96058470854077
 20
132.4410405832727
  0
LINE
  5
6C8
330
1F
100
AcDbEntity
  8
_SURFACE
  6
Continuous
 62
     7
100
AcDbLine
 10
72.0685591900814
 20
151.3992091794402
 30
0.0
 11
72.06858363250049
 21
151.3844927242366
 31
0.0
  0
LINE
  5
6C9
330
1F
100
AcDbEntity
  8
_SURFACE
  6
Continuous
 62
     7
100
AcDbLine
 10
72.08052897818143
 20
140.049241922597
 30
0.0
 11
72.08065874932017
 21
139.8654966741355
 31
0.0
  0
LINE
  5
6CA
330
1F
100
AcDbEntity
  8
_SURFACE
  6
Continuous
 62
     7
100
AcDbLine
 10
72.07189625478022
 20
142.725646153221
 30
0.0
 11
72.0720878292008
 21
142.5258575256206
 31
0.0
  0
LINE
  5
6CB
330
1F
100
AcDbEntity
  8
_SURFACE
  6
Continuous
 62
     7
100
AcDbLine
 10
72.07433324254035
 20
137.6426869897163
 30
0.0
 11
72.0749384356408
 21
137.0045364524534
 31
0.0
  0
LINE
  5
6CC
330
1F
100
AcDbEntity
  8
_SURFACE
  6
Continuous
 62
     7
100
AcDbLine
 10
72.96058470854077
 20
132.4410405832727
 30
0.0
 11
72.96065700710042
 21
132.085457415856
 31
0.0
  0
LWPOLYLINE
  5
6CD
330
1F
100
AcDbEntity
  8
_SURFACE
  6
Continuous
 62
     7
100
AcDbPolyline
 90
        5
 70
     0
 43
0.0
 10
72.07738946452028
 20
126.9515413260791
 10
72.07726295982175
 20
120.9752012061412
 10
72.07725915998199
 20
120.3161848254143
 10
72.07726239848071
 20
119.6504299796337
 10
72.07738199184078
 20
43.27589774806023
  0
LINE
  5
6CE
330
1F
100
AcDbEntity
  8
_SURFACE
  6
Continuous
 62
     7
100
AcDbLine
 10
72.07681937422004
 20
132.5210217263351
 30
0.0
 11
72.07698867792115
 21
131.4841282146566
 31
0.0
  0
LWPOLYLINE
  5
6CF
330
1F
100
AcDbEntity
  8
_SURFACE
  6
Continuous
 62
     7
100
AcDbPolyline
 90
        6
 70
     0
 43
0.0
 10
72.07698867792115
 20
131.4841282146566
 10
72.07727203524192
 20
129.4909592012604
 10
72.07732411794077
 20
128.8433318960573
 10
72.07736050090026
 20
128.2041960877154
 10
72.07738283258041
 20
127.5735968155181
 10
72.07738946452028
 20
126.9515413260791
  0
LINE
  5
6D0
330
1F
100
AcDbEntity
  8
_SURFACE
  6
Continuous
 62
     7
100
AcDbLine
 10
72.96122039688035
 20
124.1673424291561
 30
0.0
 11
72.96116513918187
 21
122.2060844695347
 31
0.0
  0
LWPOLYLINE
  5
6D1
330
1F
100
AcDbEntity
  8
_SURFACE
  6
Continuous
 62
     7
100
AcDbPolyline
 90
        5
 70
     0
 43
0.0
 10
72.96116513918187
 20
122.2060844695347
 10
72.9611443213411
 20
120.8973757356775
 10
72.96114031068137
 20
120.2389067909948
 10
72.96114334344148
 20
119.5738430563555
 10
72.96126542600124
 20
43.27589774806023
  0
LWPOLYLINE
  5
6D2
330
1F
100
AcDbEntity
  8
_SURFACE
  6
Continuous
 62
     7
100
AcDbPolyline
 90
        7
 70
     0
 43
0.0
 10
72.96065700710042
 20
132.085457415856
 10
72.96116534238118
 20
129.4109475502604
 10
72.96120524578092
 20
128.7633520687135
 10
72.96123214946092
 20
128.1241708045322
 10
72.96125263456125
 20
127.4934396733128
 10
72.96125987356155
 20
126.8713449383408
 10
72.96122039688035
 20
124.1673424291561
  0
LINE
  5
6D3
330
1F
100
AcDbEntity
  8
_SURFACE
  6
Continuous
 62
     7
100
AcDbLine
 10
75.310758311461
 20
151.0879177725559
 30
0.0
 11
75.310758311461
 21
150.5878465654363
 31
0.0
  0
LINE
  5
6D4
330
1F
100
AcDbEntity
  8
_SURFACE
  6
Continuous
 62
     7
100
AcDbLine
 10
76.7184568448005
 20
151.0878993524797
 30
0.0
 11
76.7184568448005
 21
150.5878465654363
 31
0.0
  0
LWPOLYLINE
  5
6D5
330
1F
100
AcDbEntity
  8
_SURFACE
  6
Continuous
 62
     7
100
AcDbPolyline
 90
       10
 70
     0
 43
0.0
 10
72.06587387160144
 20
146.9399939018016
 10
72.06583400630134
 20
146.6526009180356
 10
72.06568238608034
 20
146.3663889453796
 10
72.06541784762103
 20
146.0831741600172
 10
72.06494526030147
 20
145.8055342682541
 10
72.06435790561991
 20
145.5339297111399
 10
72.06393751784109
 20
145.2665533167578
 10
72.06377770104101
 20
145.0033257380541
 10
72.06378386054021
 20
144.7460710861973
 10
72.06415147728094
 20
144.2746730907142
  0
LINE
  5
6D6
330
1F
100
AcDbEntity
  8
_SURFACE
  6
Continuous
 62
     7
100
AcDbLine
 10
72.07730832168127
 20
135.5875444832977
 30
0.0
 11
72.07731631506195
 21
134.2137554350969
 31
0.0
  0
LWPOLYLINE
  5
6D7
330
1F
100
AcDbEntity
  8
_SURFACE
  6
Continuous
 62
     7
100
AcDbPolyline
 90
        5
 70
     0
 43
0.0
 10
72.07731631506195
 20
134.2137554350969
 10
72.077163744881
 20
133.5330788081386
 10
72.07706632064073
 20
133.1943110757178
 10
72.07695260230176
 20
132.8568998328314
 10
72.07682267114106
 20
132.5210175759761
  0
LINE
  5
6D8
330
1F
100
AcDbEntity
  8
_SURFACE
  6
Continuous
 62
     7
100
AcDbLine
 10
72.0720878292008
 20
142.5258575256206
 30
0.0
 11
72.07205051660131
 21
142.3436751721723
 31
0.0
  0
LINE
  5
6D9
330
1F
100
AcDbEntity
  8
_SURFACE
  6
Continuous
 62
     7
100
AcDbLine
 10
72.06493302003983
 20
150.0218004305765
 30
0.0
 11
72.06485856248074
 21
149.9385375465548
 31
0.0
  0
LINE
  5
6DA
330
1F
100
AcDbEntity
  8
_SURFACE
  6
Continuous
 62
     7
100
AcDbLine
 10
72.06928916576126
 20
151.2810101422778
 30
0.0
 11
72.06933979304031
 21
151.243646676235
 31
0.0
  0
LINE
  5
6DB
330
1F
100
AcDbEntity
  8
_SURFACE
  6
Continuous
 62
     7
100
AcDbLine
 10
72.07444559944033
 20
138.1015408319776
 30
0.0
 11
72.07433324254035
 21
137.6426869897163
 31
0.0
  0
LINE
  5
6DC
330
1F
100
AcDbEntity
  8
_SURFACE
  6
Continuous
 62
     7
100
AcDbLine
 10
72.08065874932017
 20
139.8654966741355
 30
0.0
 11
72.08051846258186
 21
139.6705642064966
 31
0.0
  0
LINE
  5
6DD
330
1F
100
AcDbEntity
  8
_SURFACE
  6
Continuous
 62
     7
100
AcDbLine
 10
72.06485856248074
 20
149.9385375465548
 30
0.0
 11
72.06445947514058
 21
149.5505962472575
 31
0.0
  0
LWPOLYLINE
  5
6DE
330
1F
100
AcDbEntity
  8
_SURFACE
  6
Continuous
 62
     7
100
AcDbPolyline
 90
        5
 70
     0
 43
0.0
 10
72.07205051660131
 20
142.3436751721723
 10
72.07175420020158
 20
142.0737170532133
 10
72.07168480232067
 20
142.0241749526516
 10
72.0716193693801
 20
141.9758208913749
 10
72.07137343134164
 20
141.7081573245936
  0
LINE
  5
6DF
330
1F
100
AcDbEntity
  8
_SURFACE
  6
Continuous
 62
     7
100
AcDbLine
 10
72.07463577686159
 20
138.2665107814368
 30
0.0
 11
72.07444559944033
 21
138.1015408319776
 31
0.0
  0
LINE
  5
6E0
330
1F
100
AcDbEntity
  8
_SURFACE
  6
Continuous
 62
     7
100
AcDbLine
 10
72.06445947514058
 20
149.5505962472575
 30
0.0
 11
72.06402085524079
 21
149.3188980949539
 31
0.0
  0
LINE
  5
6E1
330
1F
100
AcDbEntity
  8
_SURFACE
  6
Continuous
 62
     7
100
AcDbLine
 10
72.08051846258186
 20
139.6705642064966
 30
0.0
 11
72.08009318276109
 21
139.4664321865179
 31
0.0
  0
LWPOLYLINE
  5
6E2
330
1F
100
AcDbEntity
  8
_SURFACE
  6
Continuous
 62
     7
100
AcDbPolyline
 90
        5
 70
     0
 43
0.0
 10
73.0079642277009
 20
146.6373001713922
 10
73.0072817373215
 20
146.3553242862739
 10
73.00625674572112
 20
146.0763682935189
 10
73.00488876014188
 20
145.8013924147212
 10
73.00306004396171
 20
145.5318124636518
  0
LINE
  5
6E3
330
1F
100
AcDbEntity
  8
_SURFACE
  6
Continuous
 62
     7
100
AcDbLine
 10
72.06574995008068
 20
150.5392115166591
 30
0.0
 11
72.06493302003983
 21
150.0218004305765
 31
0.0
  0
LWPOLYLINE
  5
6E4
330
1F
100
AcDbEntity
  8
_SURFACE
  6
Continuous
 62
     7
100
AcDbPolyline
 90
       10
 70
     0
 43
0.0
 10
72.94028462976112
 20
139.2772712491109
 10
72.93997582163993
 20
139.1724709329332
 10
72.93977028484133
 20
139.0662815186928
 10
72.9396670948012
 20
138.9587419064968
 10
72.93970065582053
 20
138.8506002025364
 10
72.93986977664136
 20
138.7419260739384
 10
72.94017465792094
 20
138.6327395816165
 10
72.94065196710144
 20
138.5237156289708
 10
72.94131370314099
 20
138.4151083887386
 10
72.94214707460142
 20
138.3067531622122
  0
LWPOLYLINE
  5
6E5
330
1F
100
AcDbEntity
  8
_SURFACE
  6
Continuous
 62
     7
100
AcDbPolyline
 90
        3
 70
     0
 43
0.0
 10
72.06402085524079
 20
149.3188980949539
 10
72.06314935838091
 20
149.057700377581
 10
72.06256754344067
 20
148.9153917518537
  0
LINE
  5
6E6
330
1F
100
AcDbEntity
  8
_SURFACE
  6
Continuous
 62
     7
100
AcDbLine
 10
72.08009318276109
 20
139.4664321865179
 30
0.0
 11
72.07938850548035
 21
139.2544579647996
 31
0.0
  0
LINE
  5
6E7
330
1F
100
AcDbEntity
  8
_SURFACE
  6
Continuous
 62
     7
100
AcDbLine
 10
72.98949796288107
 20
143.7314303621146
 30
0.0
 11
72.98849779216053
 21
143.4360523371774
 31
0.0
  0
LINE
  5
6E8
330
1F
100
AcDbEntity
  8
_SURFACE
  6
Continuous
 62
     7
100
AcDbLine
 10
72.98849779216053
 20
143.4360523371774
 30
0.0
 11
72.98773614776056
 21
143.2519767388561
 31
0.0
  0
LINE
  5
6E9
330
1F
100
AcDbEntity
  8
_SURFACE
  6
Continuous
 62
     7
100
AcDbLine
 10
72.07938850548035
 20
139.2544579647996
 30
0.0
 11
72.07845267296071
 21
139.0371432609949
 31
0.0
  0
LWPOLYLINE
  5
6EA
330
1F
100
AcDbEntity
  8
_SURFACE
  6
Continuous
 62
     7
100
AcDbPolyline
 90
        3
 70
     0
 43
0.0
 10
72.07595694516149
 20
138.5952061641778
 10
72.07544375594025
 20
138.4852732852354
 10
72.07463577686159
 20
138.2665107814368
  0
LINE
  5
6EB
330
1F
100
AcDbEntity
  8
_SURFACE
  6
Continuous
 62
     7
100
AcDbLine
 10
72.94117696477989
 20
139.4818609694752
 30
0.0
 11
72.94028462976112
 21
139.2772712491109
 31
0.0
  0
LWPOLYLINE
  5
6EC
330
1F
100
AcDbEntity
  8
_SURFACE
  6
Continuous
 62
     7
100
AcDbPolyline
 90
        7
 70
     0
 43
0.0
 10
72.06256754344067
 20
148.9153917518537
 10
72.06170668156065
 20
148.7515161004389
 10
72.06120519158085
 20
148.5750333215741
 10
72.06106309636144
 20
148.3855666723224
 10
72.06134983442135
 20
148.1834601626373
 10
72.06199577420048
 20
147.9677878583947
 10
72.06366970278068
 20
147.4874492254798
  0
LINE
  5
6ED
330
1F
100
AcDbEntity
  8
_SURFACE
  6
Continuous
 62
     7
100
AcDbLine
 10
72.0686091264819
 20
151.4127597949531
 30
0.0
 11
72.0685591900814
 21
151.3992091794402
 31
0.0
  0
LWPOLYLINE
  5
6EE
330
1F
100
AcDbEntity
  8
_SURFACE
  6
Continuous
 62
     7
100
AcDbPolyline
 90
        3
 70
     0
 43
0.0
 10
72.99103918916117
 20
144.0491954873191
 10
72.99046496628162
 20
143.9412427441179
 10
72.98949796288107
 20
143.7314303621146
  0
LWPOLYLINE
  5
6EF
330
1F
100
AcDbEntity
  8
_SURFACE
  6
Continuous
 62
     7
100
AcDbPolyline
 90
        3
 70
     0
 43
0.0
 10
72.07845267296071
 20
139.0371432609949
 10
72.07726842844059
 20
138.8168055025357
 10
72.07595694516149
 20
138.5952061641778
  0
LINE
  5
6F0
330
1F
100
AcDbEntity
  8
_SURFACE
  6
Continuous
 62
     7
100
AcDbLine
 10
72.98773614776056
 20
143.2519767388561
 30
0.0
 11
72.98680858294156
 21
143.0779411560119
 31
0.0
  0
LINE
  5
6F1
330
1F
100
AcDbEntity
  8
_SURFACE
  6
Continuous
 62
     7
100
AcDbLine
 10
72.0694484059808
 20
151.4522535615373
 30
0.0
 11
72.06937286638131
 21
151.4397944348142
 31
0.0
  0
LINE
  5
6F2
330
1F
100
AcDbEntity
  8
_SURFACE
  6
Continuous
 62
     7
100
AcDbLine
 10
72.06933979304031
 20
151.243646676235
 30
0.0
 11
72.06890914112083
 21
151.162355584061
 31
0.0
  0
LINE
  5
6F3
330
1F
100
AcDbEntity
  8
_SURFACE
  6
Continuous
 62
     7
100
AcDbLine
 10
72.94233890556134
 20
139.6775710301785
 30
0.0
 11
72.94117696477989
 21
139.4818609694752
 31
0.0
  0
LWPOLYLINE
  5
6F4
330
1F
100
AcDbEntity
  8
_SURFACE
  6
Continuous
 62
     7
100
AcDbPolyline
 90
        5
 70
     0
 43
0.0
 10
72.06853803950199
 20
151.1066594521157
 10
72.06840069662067
 20
151.0860738976602
 10
72.06825656178025
 20
151.0643230089749
 10
72.0681050228408
 20
151.0413610432128
 10
72.06574995008068
 20
150.5392115166591
  0
LINE
  5
6F5
330
1F
100
AcDbEntity
  8
_SURFACE
  6
Continuous
 62
     7
100
AcDbLine
 10
72.06890914112083
 20
151.162355584061
 30
0.0
 11
72.06853803950199
 21
151.1066594521157
 31
0.0
  0
LINE
  5
6F6
330
1F
100
AcDbEntity
  8
_SURFACE
  6
Continuous
 62
     7
100
AcDbLine
 10
72.98680858294156
 20
143.0779411560119
 30
0.0
 11
72.98569423160043
 21
142.9139752558598
 31
0.0
  0
LINE
  5
6F7
330
1F
100
AcDbEntity
  8
_SURFACE
  6
Continuous
 62
     7
100
AcDbLine
 10
72.99262527184183
 20
144.2622237988811
 30
0.0
 11
72.99103918916117
 21
144.0491954873191
 31
0.0
  0
LINE
  5
6F8
330
1F
100
AcDbEntity
  8
_SURFACE
  6
Continuous
 62
     7
100
AcDbLine
 10
72.94368422926201
 20
139.8627061742567
 30
0.0
 11
72.94233890556134
 21
139.6775710301785
 31
0.0
  0
LINE
  5
6F9
330
1F
100
AcDbEntity
  8
_SURFACE
  6
Continuous
 62
     7
100
AcDbLine
 10
73.00306004396171
 20
145.5318124636518
 30
0.0
 11
72.99465058910064
 21
144.5049958812791
 31
0.0
  0
LINE
  5
6FA
330
1F
100
AcDbEntity
  8
_SURFACE
  6
Continuous
 62
     7
100
AcDbLine
 10
72.99465058910064
 20
144.5049958812791
 30
0.0
 11
72.99262527184183
 21
144.2622237988811
 31
0.0
  0
LINE
  5
6FB
330
1F
100
AcDbEntity
  8
_SURFACE
  6
Continuous
 62
     7
100
AcDbLine
 10
72.98569423160043
 20
142.9139752558598
 30
0.0
 11
72.98440199644156
 21
142.7595795676947
 31
0.0
  0
LINE
  5
6FC
330
1F
100
AcDbEntity
  8
_SURFACE
  6
Continuous
 62
     7
100
AcDbLine
 10
72.94594549474132
 20
140.1199818903382
 30
0.0
 11
72.94368422926201
 21
139.8627061742567
 31
0.0
  0
LINE
  5
6FD
330
1F
100
AcDbEntity
  8
_SURFACE
  6
Continuous
 62
     7
100
AcDbLine
 10
72.98440199644156
 20
142.7595795676947
 30
0.0
 11
72.98297538512125
 21
142.614286327674
 31
0.0
  0
LINE
  5
6FE
330
1F
100
AcDbEntity
  8
_SURFACE
  6
Continuous
 62
     7
100
AcDbLine
 10
72.94839674206142
 20
140.3544905602588
 30
0.0
 11
72.94594549474132
 21
140.1199818903382
 31
0.0
  0
LINE
  5
6FF
330
1F
100
AcDbEntity
  8
_SURFACE
  6
Continuous
 62
     7
100
AcDbLine
 10
72.98297538512125
 20
142.614286327674
 30
0.0
 11
72.98144158072083
 21
142.4778403140566
 31
0.0
  0
LINE
  5
700
330
1F
100
AcDbEntity
  8
_SURFACE
  6
Continuous
 62
     7
100
AcDbLine
 10
72.95099316562065
 20
140.5684090681583
 30
0.0
 11
72.94839674206142
 21
140.3544905602588
 31
0.0
  0
LINE
  5
701
330
1F
100
AcDbEntity
  8
_SURFACE
  6
Continuous
 62
     7
100
AcDbLine
 10
72.98144158072083
 20
142.4778403140566
 30
0.0
 11
72.97903887280099
 21
142.2884431998367
 31
0.0
  0
LINE
  5
702
330
1F
100
AcDbEntity
  8
_SURFACE
  6
Continuous
 62
     7
100
AcDbLine
 10
72.97903887280099
 20
142.2884431998367
 30
0.0
 11
72.97661487968017
 21
142.1158512717133
 31
0.0
  0
LINE
  5
703
330
1F
100
AcDbEntity
  8
_SURFACE
  6
Continuous
 62
     7
100
AcDbLine
 10
72.95372746546073
 20
140.7638548367735
 30
0.0
 11
72.95099316562065
 21
140.5684090681583
 31
0.0
  0
LINE
  5
704
330
1F
100
AcDbEntity
  8
_SURFACE
  6
Continuous
 62
     7
100
AcDbLine
 10
72.97661487968017
 20
142.1158512717133
 30
0.0
 11
72.96693568898027
 21
141.4764637468374
 31
0.0
  0
LINE
  5
705
330
1F
100
AcDbEntity
  8
_SURFACE
  6
Continuous
 62
     7
100
AcDbLine
 10
72.95660874240039
 20
140.9429046793352
 30
0.0
 11
72.95372746546073
 21
140.7638548367735
 31
0.0
  0
LINE
  5
706
330
1F
100
AcDbEntity
  8
_SURFACE
  6
Continuous
 62
     7
100
AcDbLine
 10
72.96693568898027
 20
141.4764637468374
 30
0.0
 11
72.96560031446134
 21
141.3996703596544
 31
0.0
  0
LINE
  5
707
330
1F
100
AcDbEntity
  8
_SURFACE
  6
Continuous
 62
     7
100
AcDbLine
 10
72.95966279776113
 20
141.1078631606992
 30
0.0
 11
72.95660874240039
 21
140.9429046793352
 31
0.0
  0
LINE
  5
708
330
1F
100
AcDbEntity
  8
_SURFACE
  6
Continuous
 62
     7
100
AcDbLine
 10
72.96560031446134
 20
141.3996703596544
 30
0.0
 11
72.96338804558073
 21
141.2858010115719
 31
0.0
  0
LINE
  5
709
330
1F
100
AcDbEntity
  8
_SURFACE
  6
Continuous
 62
     7
100
AcDbLine
 10
72.06937286638131
 20
151.4397944348142
 30
0.0
 11
72.06936529718078
 21
151.4394261373576
 31
0.0
  0
LINE
  5
70A
330
1F
100
AcDbEntity
  8
_SURFACE
  6
Continuous
 62
     7
100
AcDbLine
 10
72.96338804558073
 20
141.2858010115719
 30
0.0
 11
72.95966279776113
 21
141.1078631606992
 31
0.0
  0
LWPOLYLINE
  5
70B
330
1F
100
AcDbEntity
  8
_SURFACE
  6
Continuous
 62
     7
100
AcDbPolyline
 90
      107
 70
     0
 43
0.0
 10
54.68369722886146
 20
169.1613266193212
 10
54.68469343972029
 20
169.1559211005346
 10
54.68572003406134
 20
169.1504853430501
 10
54.68677745638197
 20
169.1450195424599
 10
54.68786610292173
 20
169.1395241178301
 10
54.68898641564047
 20
169.1339992698535
 10
54.69013883396147
 20
169.128445206797
 10
54.69132375666177
 20
169.1228623579131
 10
54.69254162824054
 20
169.1172509391157
 10
54.69379288812106
 20
169.1116111713758
 10
54.69507793254106
 20
169.1059434991961
 10
54.69639720346131
 20
169.1002481511727
 10
54.69775114792028
 20
169.0945253609947
 10
54.69914015708074
 20
169.0887755884009
 10
54.70056467544091
 20
169.0829990772158
 10
54.70202514242138
 20
169.0771960738397
 10
54.70352195426077
 20
169.0713670506933
 10
54.70505555546006
 20
169.0655122440197
 10
54.70662638543982
 20
169.0596319382725
 10
54.70823481250082
 20
169.0537266846563
 10
54.7098812938406
 20
169.0477966965167
 10
54.71156625618042
 20
169.0418423116766
 10
54.71329001194172
 20
169.035864259114
 10
54.71505300308073
 20
169.0298628156938
 10
54.71685565886073
 20
169.0238382836809
 10
54.71869827392075
 20
169.0177914301361
 10
54.72058128260087
 20
169.0117225598782
 10
54.72250510908125
 20
169.0056319726186
 10
54.72447003784091
 20
168.9995204532146
 10
54.72647648798048
 20
168.9933883166354
 10
54.72852488368099
 20
168.9872358803745
 10
54.73061549164177
 20
168.9810639369147
 10
54.73274872842049
 20
168.9748728164536
 10
54.73492500550074
 20
168.9686628491958
 10
54.73714457434053
 20
168.9624348428601
 10
54.7394078413412
 20
168.9561891378011
 10
54.74171521544159
 20
168.9499260819988
 10
54.74406692778067
 20
168.9436464882505
 10
54.74646337714094
 20
168.9373507121758
 10
54.74890495976106
 20
168.9310391195153
 10
54.75139189408074
 20
168.9247125281594
 10
54.75392454586054
 20
168.9183713597353
 10
54.75650332658043
 20
168.9120159368371
 10
54.75912849532088
 20
168.905646937635
 10
54.76180040514046
 20
168.8992648193356
 10
54.76451946244051
 20
168.8928698943541
 10
54.76728602536187
 20
168.8864626173576
 10
54.77010045966054
 20
168.8800433972769
 10
54.77296314634114
 20
168.8736126303533
 10
54.77587444100064
 20
168.8671707712541
 10
54.77883470940051
 20
168.8607182365353
 10
54.78184432492108
 20
168.8542554452919
 10
54.78490363300025
 20
168.8477828674344
 10
54.78801299940042
 20
168.8413009373011
 10
54.79117278734102
 20
168.8348100942944
 10
54.79438333718135
 20
168.8283108210357
 10
54.7976450045202
 20
168.8218035670992
 10
54.80095815258156
 20
168.8152887896771
 10
54.80432310648066
 20
168.808766991698
 10
54.80774022436108
 20
168.802238637972
 10
54.81120985166072
 20
168.7957041984168
 10
54.81473231096098
 20
168.7891641962609
 10
54.81830795023999
 20
168.7826191115577
 10
54.82193710986067
 20
168.7760694345392
 10
54.82562010224083
 20
168.769515701138
 10
54.82935726520136
 20
168.7629584117362
 10
54.83314892894068
 20
168.7563980743338
 10
54.8369954008007
 20
168.7498352375746
 10
54.84089700590121
 20
168.7432704246943
 10
54.84485406428158
 20
168.7367041538577
 10
54.84886687566032
 20
168.7301369965548
 10
54.85293575246069
 20
168.7235694887398
 10
54.8570610071005
 20
168.7170021714168
 10
54.86124292152126
 20
168.7104356287941
 10
54.86548180560058
 20
168.7038704145938
 10
54.86977795398107
 20
168.6973070876169
 10
54.87413164352111
 20
168.6907462498397
 10
54.87854316378016
 20
168.684188470213
 10
54.88301280686065
 20
168.6776343278811
 10
54.88754082676078
 20
168.6710844400344
 10
54.89212750796051
 20
168.6645393934354
 10
54.89677312478071
 20
168.6579997824351
 10
54.90147792360168
 20
168.6514662445747
 10
54.90624216858069
 20
168.6449393792986
 10
54.9110661238814
 20
168.6384198038189
 10
54.91595002064096
 20
168.6319081658416
 10
54.92089411032103
 20
168.6254050901966
 10
54.92589864184029
 20
168.6189112017359
 10
54.93096382856075
 20
168.612427171019
 10
54.93608990924113
 20
168.6059536381194
 10
54.94127711502134
 20
168.5994912456567
 10
54.94652564656044
 20
168.5930406819729
 10
54.95183572484112
 20
168.5866025998597
 10
54.95720756830124
 20
168.5801776622369
 10
54.96264135220044
 20
168.5737665701576
 10
54.96813728736052
 20
168.5673699967132
 10
54.97369556936192
 20
168.5609886200959
 10
54.97931636076137
 20
168.5546231591119
 10
54.98499985206163
 20
168.5482743021106
 10
54.99074622360095
 20
168.5419427425126
 10
54.99655562016087
 20
168.5356292143746
 10
55.00242820430085
 20
168.5293344238211
 10
55.0083641462019
 20
168.523059079494
 10
55.01436356524064
 20
168.5168039332542
 10
55.0204266112818
 20
168.5105697039157
 10
55.02655342656035
 20
168.5043571179171
 10
72.06912599616081
 20
151.4361418513194
  0
LINE
  5
70C
330
1F
100
AcDbEntity
  8
_SURFACE
  6
Continuous
 62
     7
100
AcDbLine
 10
54.68179425578128
 20
169.1720459730399
 30
0.0
 11
54.68369722886146
 21
169.1613266193212
 31
0.0
  0
LINE
  5
70D
330
1F
100
AcDbEntity
  8
_SURFACE
  6
Continuous
 62
     7
100
AcDbLine
 10
54.68000773154145
 20
169.1826412807763
 30
0.0
 11
54.68179425578128
 21
169.1720459730399
 31
0.0
  0
LWPOLYLINE
  5
70E
330
1F
100
AcDbEntity
  8
_SURFACE
  6
Continuous
 62
     7
100
AcDbPolyline
 90
        9
 70
     0
 43
0.0
 10
54.67399488098036
 20
169.2198485342791
 10
54.68708394547994
 20
169.1398439292365
 10
54.70533144518086
 20
169.0608560176164
 10
54.72866063652182
 20
168.9832170364947
 10
54.75697338660066
 20
168.9072535460558
 10
54.79015061006103
 20
168.8332850554338
 10
54.82805276184118
 20
168.7616226917793
 10
54.87052041630104
 20
168.6925678743332
 10
54.91737494794088
 20
168.6264110571987
  0
LINE
  5
70F
330
1F
100
AcDbEntity
  8
_SURFACE
  6
Continuous
 62
     7
100
AcDbLine
 10
54.67753889218093
 20
169.1982971803713
 30
0.0
 11
54.67915708046112
 21
169.1878917579574
 31
0.0
  0
LINE
  5
710
330
1F
100
AcDbEntity
  8
_SURFACE
  6
Continuous
 62
     7
100
AcDbLine
 10
54.66698559858051
 20
169.3358298872749
 30
0.0
 11
54.67745176764165
 21
169.2668959128763
 31
0.0
  0
LINE
  5
711
330
1F
100
AcDbEntity
  8
_SURFACE
  6
Continuous
 62
     7
100
AcDbLine
 10
72.95379869976151
 20
151.085946173754
 30
0.0
 11
72.95502526576129
 21
151.0727095301749
 31
0.0
  0
LINE
  5
712
330
1F
100
AcDbEntity
  8
_SURFACE
  6
Continuous
 62
     7
100
AcDbLine
 10
72.95502526576129
 20
151.0727095301749
 30
0.0
 11
72.95505516156154
 21
151.0723173287746
 31
0.0
  0
LINE
  5
713
330
1F
100
AcDbEntity
  8
_SURFACE
  6
Continuous
 62
     7
100
AcDbLine
 10
78.26085112094133
 20
151.0878859946146
 30
0.0
 11
78.26085112094133
 21
150.5878465654363
 31
0.0
  0
LINE
  5
714
330
1F
100
AcDbEntity
  8
_SURFACE
  6
Continuous
 62
     7
100
AcDbLine
 10
79.96052036828078
 20
151.0878761419566
 30
0.0
 11
79.96052036828078
 21
150.5878465654363
 31
0.0
  0
LINE
  5
715
330
1F
100
AcDbEntity
  8
_SURFACE
  6
Continuous
 62
     7
100
AcDbLine
 10
83.35900525786057
 20
151.0878651336001
 30
0.0
 11
83.35900525786057
 21
150.5878465654363
 31
0.0
  0
LINE
  5
716
330
1F
100
AcDbEntity
  8
_SURFACE
  6
Continuous
 62
     7
100
AcDbLine
 10
83.75483002374076
 20
151.0878643436567
 30
0.0
 11
83.75483002374076
 21
150.5878465654363
 31
0.0
  0
LWPOLYLINE
  5
717
330
1F
100
AcDbEntity
  8
_SURFACE
  6
Continuous
 62
     7
100
AcDbPolyline
 90
       70
 70
     0
 43
0.0
 10
79.70148950204148
 20
84.74402377023711
 10
79.70722080630131
 20
85.00367930375563
 10
79.72509963770099
 20
85.26295983167569
 10
79.755125991161
 20
85.52186504157493
 10
79.79732289178028
 20
85.78113383215299
 10
79.85166731700011
 20
86.04002650207752
 10
79.91809021438112
 20
86.29632481853827
 10
79.99677733920126
 20
86.5500128252583
 10
80.08754293618077
 20
86.80110549807926
 10
80.18976067433996
 20
87.0474310988988
 10
80.30356746222096
 20
87.28887233305199
 10
80.42882639382098
 20
87.52554551477572
 10
80.56450041254121
 20
87.75562952501553
 10
80.7105668285607
 20
87.97889826821977
 10
80.86704833170044
 20
88.19557708047563
 10
81.0329759602204
 20
88.40452221503568
 10
81.20834082158072
 20
88.60567347643286
 10
81.39315180832127
 20
88.79909063342115
 10
81.58646661346066
 20
88.98381015221588
 10
81.78839709352123
 20
89.15987028523289
 10
81.99883139198155
 20
89.32723281055718
 10
82.21649165770068
 20
89.48481980297714
 10
82.44147255394128
 20
89.63258870733756
 10
82.67367941744069
 20
89.77058272649941
 10
82.91155039966126
 20
89.89785293423977
 10
83.15508752752013
 20
90.01430031881813
 10
83.40428877156083
 20
90.12002517721469
 10
83.657586197401
 20
90.21437788919632
 10
83.91498415352126
 20
90.29728467283479
 10
84.17647828890167
 20
90.36882108297636
 10
84.44048761356171
 20
90.4285617254913
 10
84.70703856636047
 20
90.47644183039432
 10
84.97610470844065
 20
90.51252820475696
 10
85.24602574086149
 20
90.53659294961603
 10
85.51682399276106
 20
90.54856075143964
 10
85.78847713500037
 20
90.54850894813483
 10
86.05925786090066
 20
90.53643860651703
 10
86.32914132418173
 20
90.51227486769262
 10
86.59815236858177
 20
90.47609429743664
 10
86.86463824150123
 20
90.42812493439617
 10
87.12857245328123
 20
90.36830237941234
 10
87.38998148850024
 20
90.29669214163499
 10
87.64729205592121
 20
90.21371689737629
 10
87.90050221244056
 20
90.11930131277535
 10
88.14961389862075
 20
90.01352104681922
 10
88.39305966776137
 20
89.89702496789453
 10
88.63083692144156
 20
89.76971283491497
 10
88.86294825554015
 20
89.63168435049505
 10
89.08783401862038
 20
89.48388801921595
 10
89.30539644354068
 20
89.32628374717518
 10
89.51573329236035
 20
89.15891028207756
 10
89.71757819474115
 20
88.98283417246188
 10
89.91082320576007
 20
88.79809161331417
 10
90.09557626780079
 20
88.60464445893507
 10
90.27089483766067
 20
88.40344761977524
 10
90.43679409692087
 20
88.19442943735834
 10
90.59325886146089
 20
87.97765926637424
 10
90.73930106620119
 20
87.75430356627243
 10
90.87493993386161
 20
87.52412966797185
 10
91.00015623918116
 20
87.28736785803397
 10
91.113904231141
 20
87.04587920207762
 10
91.21603869794071
 20
86.79955664925859
 10
91.30670485392185
 20
86.54850521842076
 10
91.38529257584142
 20
86.29490450133511
 10
91.45161560296164
 20
86.03874282163946
 10
91.50586019602124
 20
85.78003052981278
 10
91.54797501654176
 20
85.52098081423668
 10
91.57794295254044
 20
85.26233136963623
 10
91.59578111346073
 20
85.0033441126556
 10
91.60148950184103
 20
84.74401889597851
  0
LWPOLYLINE
  5
718
330
1F
100
AcDbEntity
  8
_SURFACE
  6
Continuous
 62
     7
100
AcDbPolyline
 90
       70
 70
     0
 43
0.0
 10
79.70148998210098
 20
67.76493276023888
 10
79.70722072248136
 20
68.02458162625902
 10
79.72509855820081
 20
68.28385472467693
 10
79.75512349687997
 20
68.54275255079613
 10
79.79731854330058
 20
68.80201603531663
 10
79.85166069014067
 20
69.060905260992
 10
79.91808091798103
 20
69.3171994220151
 10
79.99676511418184
 20
69.57088337489898
 10
80.08752739138017
 20
69.82197318260062
 10
80.18974106554143
 20
70.0682947524378
 10
80.30354316204139
 20
70.309731312996
 10
80.42879665803994
 20
70.54640033165691
 10
80.56446376542082
 20
70.77647887581173
 10
80.7105218121409
 20
70.99974091849202
 10
80.86699347278173
 20
71.21641287529695
 10
81.03290899820004
 20
71.42535032889776
 10
81.20825945776088
 20
71.62649283491686
 10
81.39305378210101
 20
71.81990095457644
 10
81.58634902670057
 20
72.00461158591264
 10
81.78825665184049
 20
72.18066222187684
 10
81.99866519724073
 20
72.34801524505513
 10
82.21629733246155
 20
72.50559472415393
 10
82.44124742612113
 20
72.65335719469788
 10
82.67342110706104
 20
72.79134574015682
 10
82.91125795676126
 20
72.91861408607423
 10
83.15475952970009
 20
73.03506202183547
 10
83.40392426886083
 20
73.140789143375
 10
83.65718706434146
 20
73.23514874891174
 10
83.91455195982089
 20
73.31806592115521
 10
84.17601491162114
 20
73.38961479253834
 10
84.43999867372022
 20
73.44937213048019
 10
84.70653004311989
 20
73.49727211087651
 10
84.97558222028093
 20
73.53337964343285
 10
85.2454975681816
 20
73.55746754039632
 10
85.51629896714112
 20
73.56945933506125
 10
85.7879635343019
 20
73.56943048827583
 10
86.05876498660055
 20
73.55738165537826
 10
86.32867983412181
 20
73.5332366109555
 10
86.59773156424071
 20
73.49707052631623
 10
86.86426434842124
 20
73.44911115563212
 10
87.12825289334105
 20
73.3892923954167
 10
87.38972249232066
 20
73.31767931029521
 10
87.6470931739208
 20
73.2346964714356
 10
87.90036238544089
 20
73.14026756707375
 10
88.14953267958154
 20
73.03446795647818
 10
88.39303176586183
 20
72.91794981765765
 10
88.63085609844111
 20
72.79061299333756
 10
88.86300922316186
 20
72.65255686355288
 10
89.08792947690054
 20
72.50473308503337
 10
89.30551827972104
 20
72.34710256971215
 10
89.51587421156128
 20
72.17970391289913
 10
89.71773134912146
 20
72.00360550715908
 10
89.91098091182029
 20
71.81884564045816
 10
90.09573168023999
 20
71.62538589021773
 10
90.27104405758146
 20
71.42417977751524
 10
90.43693327622023
 20
71.21515759205562
 10
90.59338410632008
 20
70.99838929305173
 10
90.73941124124067
 20
70.7750381116179
 10
90.87503407642126
 20
70.54487349193135
 10
91.00023321642167
 20
70.30812666291371
 10
91.1139651835214
 20
70.06665378036036
 10
91.21608515454173
 20
69.82034956633055
 10
91.30673795266048
 20
69.56932040875603
 10
91.3853145570005
 20
69.31574015391873
 10
91.45162921482043
 20
69.05959838019538
 10
91.50586767632049
 20
68.80090690621495
 10
91.5479781636017
 20
68.54187299959943
 10
91.57794341228091
 20
68.28323289457824
 10
91.59578068420106
 20
68.02425179963524
 10
91.60148998190052
 20
67.76493042597343
  0
LWPOLYLINE
  5
719
330
1F
100
AcDbEntity
  8
_SURFACE
  6
Continuous
 62
     7
100
AcDbPolyline
 90
       20
 70
     0
 43
0.0
 10
54.67745176764165
 20
169.2668959128763
 10
54.69483034604073
 20
169.1987351043185
 10
54.7190241432203
 20
169.1317286444804
 10
54.74989786862025
 20
169.0662512646353
 10
54.78727886320067
 20
169.0026691337384
 10
54.83095808750059
 20
168.9413378340008
 10
54.88069127226154
 20
168.8826003517728
 10
54.93620029256035
 20
168.8267851751129
 10
54.99717472738066
 20
168.7742044446181
 10
55.06327358426043
 20
168.7251522160781
 10
55.1341272144613
 20
168.679902814581
 10
55.20933938052113
 20
168.6387092927011
 10
55.28848946860072
 20
168.6018020258975
 10
55.37113483798058
 20
168.5693874171169
 10
55.45681330518019
 20
168.5416467486988
 10
55.54504572206079
 20
168.5187351587569
 10
55.63533865298123
 20
168.5007807801352
 10
55.72718714340172
 20
168.487884029198
 10
55.82007754182123
 20
168.4801170317782
 10
55.91349035982185
 20
168.4775232244187
  0
LINE
  5
71A
330
1F
100
AcDbEntity
  8
_SURFACE
  6
Continuous
 62
     7
100
AcDbLine
 10
87.54815069718043
 20
151.0878459489735
 30
0.0
 11
87.54815069718043
 21
150.5878465654363
 31
0.0
  0
LINE
  5
71B
330
1F
100
AcDbEntity
  8
_SURFACE
  6
Continuous
 62
     7
100
AcDbLine
 10
87.94397546306063
 20
151.0878459261197
 30
0.0
 11
87.94397546306063
 21
150.5878465654363
 31
0.0
  0
LINE
  5
71C
330
1F
100
AcDbEntity
  8
_SURFACE
  6
Continuous
 62
     7
100
AcDbLine
 10
91.34246035264041
 20
151.0878457305347
 30
0.0
 11
91.34246035264041
 21
150.5878465654363
 31
0.0
  0
LWPOLYLINE
  5
71D
330
1F
100
AcDbEntity
  8
_SURFACE
  6
Continuous
 62
     7
100
AcDbPolyline
 90
       70
 70
     0
 43
0.0
 10
91.60148950184103
 20
84.74401889597851
 10
91.59575600302142
 20
84.48436192989669
 10
91.5778782485817
 20
84.22508926073119
 10
91.54785624106025
 20
83.96620099263731
 10
91.5056662568608
 20
83.70695959341304
 10
91.45133202212074
 20
83.44810288227511
 10
91.38492469494067
 20
83.19184430665831
 10
91.30625921854099
 20
82.93820004889624
 10
91.21552065478082
 20
82.68715496805583
 10
91.1133353244808
 20
82.44087600671395
 10
90.9995668855212
 20
82.19948072115716
 10
90.87435168256106
 20
81.96285307402053
 10
90.73872508564036
 20
81.73280997301247
 10
90.59271012748141
 20
81.50957774739566
 10
90.43628377282075
 20
81.29293174685647
 10
90.27041229608077
 20
81.08401256347628
 10
90.09510481585985
 20
80.88288068989408
 10
89.91035221356142
 20
80.68947716509631
 10
89.71709339002101
 20
80.50476340955851
 10
89.51521602390076
 20
80.32870121659419
 10
89.30483243654126
 20
80.16133004257921
 10
89.08721849788108
 20
80.00372778221702
 10
88.86227892744082
 20
79.85593762314005
 10
88.63010900062036
 20
79.71791727179283
 10
88.39227042626081
 20
79.59061632497236
 10
88.14876119522015
 20
79.47413502123294
 10
87.89958331410018
 20
79.3683736096986
 10
87.64630448868084
 20
79.27398158360069
 10
87.38892048732159
 20
79.19103378657514
 10
87.12743554166118
 20
79.11945547405543
 10
86.86343005240123
 20
79.05967166169779
 10
86.59687770006204
 20
79.01174789927376
 10
86.32780480412057
 20
78.97561840333714
 10
86.05787072626062
 20
78.95151108299382
 10
85.78705310178012
 20
78.93950169883959
 10
85.5153742928409
 20
78.93951401529688
 10
85.24456076792048
 20
78.95154789013526
 10
84.97463627348171
 20
78.9756786140328
 10
84.7055770605206
 20
79.01183028671716
 10
84.43903834544144
 20
79.05977596679935
 10
84.17504566032167
 20
79.11958075955539
 10
83.91357346800068
 20
79.19117892471462
 10
83.65620039118075
 20
79.2741472728789
 10
83.40292891652044
 20
79.36856128267158
 10
83.15375655482185
 20
79.47434491159715
 10
82.91025445102096
 20
79.59084773676062
 10
82.67242597062105
 20
79.71816942267963
 10
82.44026774812065
 20
79.85620988319482
 10
82.21534084466147
 20
80.00401918371556
 10
81.99774369794104
 20
80.16163624719542
 10
81.78737787280116
 20
80.32902192461682
 10
81.58550911474085
 20
80.50510927881754
 10
81.39224609766134
 20
80.68986010057182
 10
81.2074801476605
 20
80.88331256355507
 10
81.03215100632079
 20
81.08451440652192
 10
80.86624316440103
 20
81.29353587823919
 10
80.70977213114147
 20
81.51030682137701
 10
80.56372415298065
 20
81.73366444425978
 10
80.42807948396093
 20
81.96384075809822
 10
80.30285787004087
 20
82.20060390915518
 10
80.18910481078128
 20
82.44209535911563
 10
80.08696539606209
 20
82.68842153905774
 10
79.99629453346043
 20
82.93947615760174
 10
79.91770243766078
 20
83.1930816397193
 10
79.85137528812121
 20
83.44924929350003
 10
79.7971269053809
 20
83.70796782863676
 10
79.75500896828126
 20
83.96702577381569
 10
79.72503870056008
 20
84.22568592705415
 10
79.70719887848137
 20
84.48468531253951
 10
79.70148950204148
 20
84.74402377023711
  0
LWPOLYLINE
  5
71E
330
1F
100
AcDbEntity
  8
_SURFACE
  6
Continuous
 62
     7
100
AcDbPolyline
 90
       70
 70
     0
 43
0.0
 10
91.60148998190052
 20
67.76493042597343
 10
91.59575814678047
 20
67.50525370123563
 10
91.57787609720017
 20
67.24594986881624
 10
91.54784384078121
 20
66.98701960689271
 10
91.50563842100146
 20
66.72772383643809
 10
91.45128279438123
 20
66.46880296998046
 10
91.38484581016147
 20
66.21247679733409
 10
91.3061415251008
 20
65.95876121891837
 10
91.21535588498081
 20
65.70764131983509
 10
91.11311559162132
 20
65.4612903926731
 10
90.99928365774067
 20
65.21982549841545
 10
90.87399707062051
 20
64.9831300535929
 10
90.73829348884137
 20
64.75302657171909
 10
90.59219562508079
 20
64.5297407978191
 10
90.43568076920147
 20
64.31304692335601
 10
90.26971843920128
 20
64.10408985841553
 10
90.0943174615808
 20
63.90292938697297
 10
89.90946900984127
 20
63.70950527293229
 10
89.71611613010045
 20
63.52478216765797
 10
89.51414701156172
 20
63.34872172221861
 10
89.30367346248059
 20
63.18136155656015
 10
89.085973971541
 20
63.02378009625448
 10
88.86095399486057
 20
62.87602006665605
 10
88.62870807124128
 20
62.73803781023656
 10
88.39079829814128
 20
62.61078202461561
 10
88.14722272738018
 20
62.49435208729614
 10
87.8979833046009
 20
62.38864760477503
 10
87.64464798196096
 20
62.29431752420118
 10
87.3872123551013
 20
62.21143616849935
 10
87.12568082838098
 20
62.13992824445217
 10
86.8616345695813
 20
62.08021823687653
 10
86.59504677154055
 20
62.03237162441422
 10
86.32594424396158
 20
61.99632207751477
 10
86.05598857864007
 20
61.97229634451417
 10
85.78515717466089
 20
61.96037061525334
 10
85.51347263548032
 20
61.9604679963208
 10
85.24266435566042
 20
61.97258563273265
 10
84.97275688684149
 20
61.99679923937714
 10
84.70372567738051
 20
62.03303253495454
 10
84.4372264796206
 20
62.08105472237861
 10
84.17328559780017
 20
62.14093097296194
 10
83.9118767226004
 20
62.21259566833527
 10
83.65457669364095
 20
62.29562186245806
 10
83.40138861988036
 20
62.3900847672607
 10
83.15230938728147
 20
62.49590881773241
 10
82.90890649842131
 20
62.61244096719514
 10
82.67118398682161
 20
62.73978005211887
 10
82.4391378164204
 20
62.87782696677954
 10
82.21432338162086
 20
63.02563182230136
 10
81.9968390236003
 20
63.18323265771818
 10
81.78658639610004
 20
63.35059127143671
 10
81.5848258750606
 20
63.52664350505569
 10
81.39166555780176
 20
63.71135050165816
 10
81.2069973444608
 20
63.90475108259619
 10
81.03175731648063
 20
64.10589771865256
 10
80.86592906546085
 20
64.31486064337281
 10
80.7095289972598
 20
64.53156973751669
 10
80.56354242614125
 20
64.7548670379378
 10
80.42794875016207
 20
64.98498522896028
 10
80.30276857126082
 20
65.22169194629299
 10
80.18904900444104
 20
65.46313177075848
 10
80.08693476620047
 20
65.70941166173492
 10
79.99628114004136
 20
65.96042523642012
 10
79.91770109400059
 20
66.21399718800006
 10
79.85138051290178
 20
66.4701394976559
 10
79.79713351192131
 20
66.72884097923582
 10
79.75501542496059
 20
66.98789163207897
 10
79.72504469496053
 20
67.24655510255747
 10
79.70720288152043
 20
67.50556865361926
 10
79.70148998210098
 20
67.76493276023888
  0
LINE
  5
71F
330
1F
100
AcDbEntity
  8
_SURFACE
  6
Continuous
 62
     7
100
AcDbLine
 10
98.34575582786094
 20
151.0619323914556
 30
0.0
 11
98.34613637574094
 21
151.0674529925576
 31
0.0
  0
LINE
  5
720
330
1F
100
AcDbEntity
  8
_SURFACE
  6
Continuous
 62
     7
100
AcDbLine
 10
98.34613637574094
 20
151.0674529925576
 30
0.0
 11
98.34648814288122
 21
151.0721083375733
 31
0.0
  0
LINE
  5
721
330
1F
100
AcDbEntity
  8
_SURFACE
  6
Continuous
 62
     7
100
AcDbLine
 10
98.34648814288122
 20
151.0721083375733
 30
0.0
 11
98.34681317652158
 21
151.0760376388402
 31
0.0
  0
LWPOLYLINE
  5
722
330
1F
100
AcDbEntity
  8
_SURFACE
  6
Continuous
 62
     7
100
AcDbPolyline
 90
        9
 70
     0
 43
0.0
 10
98.34681317652158
 20
151.0760376388402
 10
98.34711462372197
 20
151.0793722016364
 10
98.34725759778159
 20
151.0808514214344
 10
98.34739587792174
 20
151.0822195009945
 10
98.34752936254099
 20
151.0834812358347
 10
98.34765879840089
 20
151.0846506924767
 10
98.34778454871994
 20
151.0857349956108
 10
98.34790626298165
 20
151.0867345948331
 10
98.34798225724027
 20
151.0873288100605
  0
LWPOLYLINE
  5
723
330
1F
100
AcDbEntity
  8
_SURFACE
  6
Continuous
 62
     7
100
AcDbPolyline
 90
       20
 70
     0
 43
0.0
 10
116.6255288923215
 20
169.2668957020555
 10
116.6081502504206
 20
169.1987348096786
 10
116.5839563668809
 20
169.1317282837967
 10
116.5530825449599
 20
169.0662508531581
 10
116.5157014437012
 20
169.0026686892356
 10
116.4720221152614
 20
168.9413373742549
 10
116.4222888289008
 20
168.8825998971128
 10
116.3667797120801
 20
168.8267847407746
 10
116.3058051985212
 20
168.7742040432908
 10
116.2397062832209
 20
168.7251518630123
 10
116.1688526123811
 20
168.6799025148552
 10
116.0936404336202
 20
168.6387090539333
 10
116.014490360781
 20
168.6018018506415
 10
115.9318450345803
 20
168.5693873053582
 10
115.8461666410407
 20
168.5416466902801
 10
115.7579343283009
 20
168.5187351460603
 10
115.6676415269216
 20
168.5007808029963
 10
115.5757931914417
 20
168.4878840647556
 10
115.4829029759006
 20
168.4801170597179
 10
115.3894903611011
 20
168.4775232244187
  0
LWPOLYLINE
  5
724
330
1F
100
AcDbEntity
  8
_SURFACE
  6
Continuous
 62
     7
100
AcDbPolyline
 90
        5
 70
     0
 43
0.0
 10
54.72638392276113
 20
168.9546540964124
 10
54.76129451334092
 20
168.8614510036763
 10
54.80350952416157
 20
168.7713207648316
 10
54.85276132812069
 20
168.6848347655954
 10
54.90873768810016
 20
168.6025412903595
  0
LINE
  5
725
330
1F
100
AcDbEntity
  8
_SURFACE
  6
Continuous
 62
     7
100
AcDbLine
 10
98.34562632850103
 20
140.8652702244994
 30
0.0
 11
98.33594159044006
 21
141.3368233022169
 31
0.0
  0
LINE
  5
726
330
1F
100
AcDbEntity
  8
_SURFACE
  6
Continuous
 62
     7
100
AcDbLine
 10
98.33594159044006
 20
141.3368233022169
 30
0.0
 11
98.33439448152095
 21
141.4255267519378
 31
0.0
  0
LINE
  5
727
330
1F
100
AcDbEntity
  8
_SURFACE
  6
Continuous
 62
     7
100
AcDbLine
 10
98.34940473090084
 20
140.6473318744951
 30
0.0
 11
98.34562632850103
 21
140.8652702244994
 31
0.0
  0
LINE
  5
728
330
1F
100
AcDbEntity
  8
_SURFACE
  6
Continuous
 62
     7
100
AcDbLine
 10
98.35246877862065
 20
140.4444007969918
 30
0.0
 11
98.34940473090084
 21
140.6473318744951
 31
0.0
  0
LINE
  5
729
330
1F
100
AcDbEntity
  8
_SURFACE
  6
Continuous
 62
     7
100
AcDbLine
 10
98.33439448152095
 20
141.4255267519378
 30
0.0
 11
98.33308038458055
 21
141.5151118661355
 31
0.0
  0
LINE
  5
72A
330
1F
100
AcDbEntity
  8
_SURFACE
  6
Continuous
 62
     7
100
AcDbLine
 10
98.35473966562169
 20
140.2720973290538
 30
0.0
 11
98.35246877862065
 21
140.4444007969918
 31
0.0
  0
LINE
  5
72B
330
1F
100
AcDbEntity
  8
_SURFACE
  6
Continuous
 62
     7
100
AcDbLine
 10
98.33308038458055
 20
141.5151118661355
 30
0.0
 11
98.32331285522142
 21
142.3814459145191
 31
0.0
  0
LINE
  5
72C
330
1F
100
AcDbEntity
  8
_SURFACE
  6
Continuous
 62
     7
100
AcDbLine
 10
98.35692153832079
 20
140.0800347032759
 30
0.0
 11
98.35473966562169
 21
140.2720973290538
 31
0.0
  0
LINE
  5
72D
330
1F
100
AcDbEntity
  8
_SURFACE
  6
Continuous
 62
     7
100
AcDbLine
 10
98.32331285522142
 20
142.3814459145191
 30
0.0
 11
98.31967197096165
 21
142.7293164659181
 31
0.0
  0
LINE
  5
72E
330
1F
100
AcDbEntity
  8
_SURFACE
  6
Continuous
 62
     7
100
AcDbLine
 10
98.31967197096165
 20
142.7293164659181
 30
0.0
 11
98.31659211428124
 21
143.0447557588317
 31
0.0
  0
LINE
  5
72F
330
1F
100
AcDbEntity
  8
_SURFACE
  6
Continuous
 62
     7
100
AcDbLine
 10
98.35828389780036
 20
139.9401940558577
 30
0.0
 11
98.35692153832079
 21
140.0800347032759
 31
0.0
  0
LWPOLYLINE
  5
730
330
1F
100
AcDbEntity
  8
_SURFACE
  6
Continuous
 62
     7
100
AcDbPolyline
 90
        3
 70
     0
 43
0.0
 10
98.31659211428124
 20
143.0447557588317
 10
98.31236126930107
 20
143.5070219056774
 10
98.31086374118095
 20
143.6724776656969
  0
LINE
  5
731
330
1F
100
AcDbEntity
  8
_SURFACE
  6
Continuous
 62
     7
100
AcDbLine
 10
98.31086374118095
 20
143.6724776656969
 30
0.0
 11
98.30601579050053
 21
144.1823571894978
 31
0.0
  0
LINE
  5
732
330
1F
100
AcDbEntity
  8
_SURFACE
  6
Continuous
 62
     7
100
AcDbLine
 10
98.35953004466174
 20
139.7908303134367
 30
0.0
 11
98.35828389780036
 21
139.9401940558577
 31
0.0
  0
LINE
  5
733
330
1F
100
AcDbEntity
  8
_SURFACE
  6
Continuous
 62
     7
100
AcDbLine
 10
98.30601579050053
 20
144.1823571894978
 30
0.0
 11
98.30478500302106
 21
144.3350328963401
 31
0.0
  0
LINE
  5
734
330
1F
100
AcDbEntity
  8
_SURFACE
  6
Continuous
 62
     7
100
AcDbLine
 10
99.23611189322073
 20
150.9365859924195
 30
0.0
 11
99.23417892274066
 21
151.1250835859513
 31
0.0
  0
LINE
  5
735
330
1F
100
AcDbEntity
  8
_SURFACE
  6
Continuous
 62
     7
100
AcDbLine
 10
99.22635636028136
 20
138.5414075011335
 30
0.0
 11
99.22521910576088
 21
138.6782183324152
 31
0.0
  0
LINE
  5
736
330
1F
100
AcDbEntity
  8
_SURFACE
  6
Continuous
 62
     7
100
AcDbLine
 10
98.30478500302106
 20
144.3350328963401
 30
0.0
 11
98.3023952668813
 21
144.6778855126371
 31
0.0
  0
LINE
  5
737
330
1F
100
AcDbEntity
  8
_SURFACE
  6
Continuous
 62
     7
100
AcDbLine
 10
98.36061258504052
 20
139.6322546285568
 30
0.0
 11
98.35953004466174
 21
139.7908303134367
 31
0.0
  0
LINE
  5
738
330
1F
100
AcDbEntity
  8
_SURFACE
  6
Continuous
 62
     7
100
AcDbLine
 10
98.3023952668813
 20
144.6778855126371
 30
0.0
 11
98.30129383144086
 21
144.860539579638
 31
0.0
  0
LINE
  5
739
330
1F
100
AcDbEntity
  8
_SURFACE
  6
Continuous
 62
     7
100
AcDbLine
 10
98.30129383144086
 20
144.860539579638
 30
0.0
 11
98.30033315772144
 21
145.0472817537715
 31
0.0
  0
LINE
  5
73A
330
1F
100
AcDbEntity
  8
_SURFACE
  6
Continuous
 62
     7
100
AcDbLine
 10
98.36150129802119
 20
139.4646240671913
 30
0.0
 11
98.36061258504052
 21
139.6322546285568
 31
0.0
  0
LINE
  5
73B
330
1F
100
AcDbEntity
  8
_SURFACE
  6
Continuous
 62
     7
100
AcDbLine
 10
99.22714769220002
 20
138.3998241139974
 30
0.0
 11
99.22635636028136
 21
138.5414075011335
 31
0.0
  0
LINE
  5
73C
330
1F
100
AcDbEntity
  8
_SURFACE
  6
Continuous
 62
     7
100
AcDbLine
 10
99.23740781138114
 20
150.0125694736757
 30
0.0
 11
99.2352749302012
 21
150.3543049852791
 31
0.0
  0
LINE
  5
73D
330
1F
100
AcDbEntity
  8
_SURFACE
  6
Continuous
 62
     7
100
AcDbLine
 10
99.23417892274066
 20
151.1250835859513
 30
0.0
 11
99.23390134900039
 21
151.1664614483356
 31
0.0
  0
LINE
  5
73E
330
1F
100
AcDbEntity
  8
_SURFACE
  6
Continuous
 62
     7
100
AcDbLine
 10
98.30033315772144
 20
145.0472817537715
 30
0.0
 11
98.29956184100176
 21
145.2349442207173
 31
0.0
  0
LINE
  5
73F
330
1F
100
AcDbEntity
  8
_SURFACE
  6
Continuous
 62
     7
100
AcDbLine
 10
99.23447379134032
 20
151.3137248038014
 30
0.0
 11
99.23337169042079
 21
151.4512746023587
 31
0.0
  0
LINE
  5
740
330
1F
100
AcDbEntity
  8
_SURFACE
  6
Continuous
 62
     7
100
AcDbLine
 10
99.22521910576088
 20
138.6782183324152
 30
0.0
 11
99.22440235098058
 21
138.886101170397
 31
0.0
  0
LINE
  5
741
330
1F
100
AcDbEntity
  8
_SURFACE
  6
Continuous
 62
     7
100
AcDbLine
 10
99.23337169042079
 20
151.4512746023587
 30
0.0
 11
99.23336105798027
 21
151.4540307385736
 31
0.0
  0
LINE
  5
742
330
1F
100
AcDbEntity
  8
_SURFACE
  6
Continuous
 62
     7
100
AcDbLine
 10
99.23647554756136
 20
150.8609504413738
 30
0.0
 11
99.23611189322073
 21
150.9365859924195
 31
0.0
  0
LINE
  5
743
330
1F
100
AcDbEntity
  8
_SURFACE
  6
Continuous
 62
     7
100
AcDbLine
 10
98.36215005466094
 20
139.2881912196584
 30
0.0
 11
98.36150129802119
 21
139.4646240671913
 31
0.0
  0
LINE
  5
744
330
1F
100
AcDbEntity
  8
_SURFACE
  6
Continuous
 62
     7
100
AcDbLine
 10
99.22440235098058
 20
138.886101170397
 30
0.0
 11
99.22375536980091
 21
139.0863258245567
 31
0.0
  0
LINE
  5
745
330
1F
100
AcDbEntity
  8
_SURFACE
  6
Continuous
 62
     7
100
AcDbLine
 10
98.29956184100176
 20
145.2349442207173
 30
0.0
 11
98.29899288862126
 21
145.4204369104385
 31
0.0
  0
LINE
  5
746
330
1F
100
AcDbEntity
  8
_SURFACE
  6
Continuous
 62
     7
100
AcDbLine
 10
99.22765102114082
 20
138.2535926792529
 30
0.0
 11
99.22714769220002
 21
138.3998241139974
 31
0.0
  0
LINE
  5
747
330
1F
100
AcDbEntity
  8
_SURFACE
  6
Continuous
 62
     7
100
AcDbLine
 10
99.23787243326152
 20
149.8759679612535
 30
0.0
 11
99.23740781138114
 21
150.0125694736757
 31
0.0
  0
LINE
  5
748
330
1F
100
AcDbEntity
  8
_SURFACE
  6
Continuous
 62
     7
100
AcDbLine
 10
99.22375536980091
 20
139.0863258245567
 30
0.0
 11
99.22308743362046
 21
139.3719243415011
 31
0.0
  0
LINE
  5
749
330
1F
100
AcDbEntity
  8
_SURFACE
  6
Continuous
 62
     7
100
AcDbLine
 10
98.29899288862126
 20
145.4204369104385
 30
0.0
 11
98.29862350150179
 21
145.6015013870177
 31
0.0
  0
LINE
  5
74A
330
1F
100
AcDbEntity
  8
_SURFACE
  6
Continuous
 62
     7
100
AcDbLine
 10
99.22824903620076
 20
137.9340128231173
 30
0.0
 11
99.22765102114082
 21
138.2535926792529
 31
0.0
  0
LINE
  5
74B
330
1F
100
AcDbEntity
  8
_SURFACE
  6
Continuous
 62
     7
100
AcDbLine
 10
99.23924256006049
 20
147.3050812716951
 30
0.0
 11
99.23800639540097
 21
147.9582508619764
 31
0.0
  0
LINE
  5
74C
330
1F
100
AcDbEntity
  8
_SURFACE
  6
Continuous
 62
     7
100
AcDbLine
 10
98.36250837246135
 20
139.1031907108167
 30
0.0
 11
98.36215005466094
 21
139.2881912196584
 31
0.0
  0
LINE
  5
74D
330
1F
100
AcDbEntity
  8
_SURFACE
  6
Continuous
 62
     7
100
AcDbLine
 10
99.22308743362046
 20
139.3719243415011
 30
0.0
 11
99.22275250160183
 21
139.6387297921368
 31
0.0
  0
LINE
  5
74E
330
1F
100
AcDbEntity
  8
_SURFACE
  6
Continuous
 62
     7
100
AcDbLine
 10
99.23800639540097
 20
147.9582508619764
 30
0.0
 11
99.23751280482102
 21
148.3590668421579
 31
0.0
  0
LWPOLYLINE
  5
74F
330
1F
100
AcDbEntity
  8
_SURFACE
  6
Continuous
 62
     7
100
AcDbPolyline
 90
        3
 70
     0
 43
0.0
 10
99.23751280482102
 20
148.3590668421579
 10
99.23734939646003
 20
148.5537672960394
 10
99.23688915608128
 20
148.9157453960555
  0
LINE
  5
750
330
1F
100
AcDbEntity
  8
_SURFACE
  6
Continuous
 62
     7
100
AcDbLine
 10
98.29862350150179
 20
145.6015013870177
 30
0.0
 11
98.29838287206113
 21
145.8566566831554
 31
0.0
  0
LINE
  5
751
330
1F
100
AcDbEntity
  8
_SURFACE
  6
Continuous
 62
     7
100
AcDbLine
 10
99.23807178770076
 20
149.716352387671
 30
0.0
 11
99.23787243326152
 21
149.8759679612535
 31
0.0
  0
LINE
  5
752
330
1F
100
AcDbEntity
  8
_SURFACE
  6
Continuous
 62
     7
100
AcDbLine
 10
98.34211279222055
 20
133.2317849199948
 30
0.0
 11
98.34164993564119
 21
134.1340343346941
 31
0.0
  0
LINE
  5
753
330
1F
100
AcDbEntity
  8
_SURFACE
  6
Continuous
 62
     7
100
AcDbLine
 10
99.2284796529606
 20
137.6088160185949
 30
0.0
 11
99.22824903620076
 21
137.9340128231173
 31
0.0
  0
LINE
  5
754
330
1F
100
AcDbEntity
  8
_SURFACE
  6
Continuous
 62
     7
100
AcDbLine
 10
93.04212959998167
 20
151.0878456314799
 30
0.0
 11
93.04212959998167
 21
150.5878465654363
 31
0.0
  0
LINE
  5
755
330
1F
100
AcDbEntity
  8
_SURFACE
  6
Continuous
 62
     7
100
AcDbLine
 10
94.58452387612069
 20
151.0878455425749
 30
0.0
 11
94.58452387612069
 21
150.5878465654363
 31
0.0
  0
LINE
  5
756
330
1F
100
AcDbEntity
  8
_SURFACE
  6
Continuous
 62
     7
100
AcDbLine
 10
95.99222240692089
 20
151.0878454612952
 30
0.0
 11
95.99222240692089
 21
150.5878465654363
 31
0.0
  0
LINE
  5
757
330
1F
100
AcDbEntity
  8
_SURFACE
  6
Continuous
 62
     7
100
AcDbLine
 10
98.29750549510155
 20
147.282595837872
 30
0.0
 11
98.29742425574151
 21
147.4770276664398
 31
0.0
  0
LINE
  5
758
330
1F
100
AcDbEntity
  8
_SURFACE
  6
Continuous
 62
     7
100
AcDbLine
 10
98.3415158896809
 20
43.27589774806023
 30
0.0
 11
98.34137454884004
 21
120.5049535207776
 31
0.0
  0
LINE
  5
759
330
1F
100
AcDbEntity
  8
_SURFACE
  6
Continuous
 62
     7
100
AcDbLine
 10
98.34137454884004
 20
120.5049535207776
 30
0.0
 11
98.3413549121
 21
121.4045343759184
 31
0.0
  0
LINE
  5
75A
330
1F
100
AcDbEntity
  8
_SURFACE
  6
Continuous
 62
     7
100
AcDbLine
 10
98.3423264392417
 20
132.4582477954949
 30
0.0
 11
98.34211279222055
 21
133.2317849199948
 31
0.0
  0
LINE
  5
75B
330
1F
100
AcDbEntity
  8
_SURFACE
  6
Continuous
 62
     7
100
AcDbLine
 10
99.22538254968131
 20
43.27589774806023
 30
0.0
 11
99.22524328656018
 21
120.5823534624919
 31
0.0
  0
LWPOLYLINE
  5
75C
330
1F
100
AcDbEntity
  8
_SURFACE
  6
Continuous
 62
     7
100
AcDbPolyline
 90
        7
 70
     0
 43
0.0
 10
99.22524328656018
 20
120.5823534624919
 10
99.22522759190124
 20
121.4824250126161
 10
99.22520437884159
 20
122.4081137378138
 10
99.22519260594018
 20
123.3595961325313
 10
99.22519859272179
 20
124.3369310231768
 10
99.22521601712052
 20
125.3400595807956
 10
99.22524488168201
 20
126.3689818028555
  0
LWPOLYLINE
  5
75D
330
1F
100
AcDbEntity
  8
_SURFACE
  6
Continuous
 62
     7
100
AcDbPolyline
 90
        4
 70
     0
 43
0.0
 10
99.22608477332179
 20
132.5382473637195
 10
99.22562904906081
 20
134.389032288001
 10
99.22561246286059
 20
134.5618318153987
 10
99.22560063916117
 20
134.7337455736755
  0
LINE
  5
75E
330
1F
100
AcDbEntity
  8
_SURFACE
  6
Continuous
 62
     7
100
AcDbLine
 10
99.23978254628075
 20
146.839127118515
 30
0.0
 11
99.23924256006049
 21
147.3050812716951
 31
0.0
  0
LWPOLYLINE
  5
75F
330
1F
100
AcDbEntity
  8
_SURFACE
  6
Continuous
 62
     7
100
AcDbPolyline
 90
        5
 70
     0
 43
0.0
 10
98.34148399998085
 20
126.2888931060346
 10
98.34157888930114
 20
126.9435200848142
 10
98.34166245530051
 20
127.5953950472516
 10
98.34173464718098
 20
128.2445182041751
 10
98.34178294274117
 20
128.8908833706786
  0
LINE
  5
760
330
1F
100
AcDbEntity
  8
_SURFACE
  6
Continuous
 62
     7
100
AcDbLine
 10
98.34164993564119
 20
134.1340343346941
 30
0.0
 11
98.34159268150088
 21
134.6537175218958
 31
0.0
  0
LWPOLYLINE
  5
761
330
1F
100
AcDbEntity
  8
_SURFACE
  6
Continuous
 62
     7
100
AcDbPolyline
 90
        3
 70
     0
 43
0.0
 10
98.3413549121
 20
121.4045343759184
 10
98.34140781268017
 20
125.2604696612374
 10
98.34148399998085
 20
126.2888931060346
  0
LINE
  5
762
330
1F
100
AcDbEntity
  8
_SURFACE
  6
Continuous
 62
     7
100
AcDbLine
 10
99.22275250160183
 20
139.6387297921368
 30
0.0
 11
99.22270607294141
 21
139.8858419395159
 31
0.0
  0
LINE
  5
763
330
1F
100
AcDbEntity
  8
_SURFACE
  6
Continuous
 62
     7
100
AcDbLine
 10
99.22560063916117
 20
134.7337455736755
 30
0.0
 11
99.22559330110054
 21
135.2448320394373
 31
0.0
  0
LWPOLYLINE
  5
764
330
1F
100
AcDbEntity
  8
_SURFACE
  6
Continuous
 62
     7
100
AcDbPolyline
 90
        5
 70
     0
 43
0.0
 10
99.22571409334105
 20
129.614474011379
 10
99.22577884810053
 20
130.2553082161152
 10
99.2258606767413
 20
130.8933894215419
 10
99.22595570830109
 20
131.5287471170353
 10
99.22606391484023
 20
132.1613986025599
  0
LINE
  5
765
330
1F
100
AcDbEntity
  8
_SURFACE
  6
Continuous
 62
     7
100
AcDbLine
 10
99.22546323024144
 20
126.3689373350766
 30
0.0
 11
99.22571409334105
 21
129.614474011379
 31
0.0
  0
LINE
  5
766
330
1F
100
AcDbEntity
  8
_SURFACE
  6
Continuous
 62
     7
100
AcDbLine
 10
99.22606391484023
 20
132.1613986025599
 30
0.0
 11
99.22608477332179
 21
132.5382473637195
 31
0.0
  0
LINE
  5
767
330
1F
100
AcDbEntity
  8
_SURFACE
  6
Continuous
 62
     7
100
AcDbLine
 10
98.29845773602066
 20
146.3272224527149
 30
0.0
 11
98.29750549510155
 21
147.282595837872
 31
0.0
  0
LINE
  5
768
330
1F
100
AcDbEntity
  8
_SURFACE
  6
Continuous
 62
     7
100
AcDbLine
 10
98.34178294274117
 20
128.8908833706786
 30
0.0
 11
98.3423264392417
 21
132.4582477954949
 31
0.0
  0
LINE
  5
769
330
1F
100
AcDbEntity
  8
_SURFACE
  6
Continuous
 62
     7
100
AcDbLine
 10
98.36254900992063
 20
138.9098434470119
 30
0.0
 11
98.36250837246135
 21
139.1031907108167
 31
0.0
  0
LWPOLYLINE
  5
76A
330
1F
100
AcDbEntity
  8
_SURFACE
  6
Continuous
 62
     7
100
AcDbPolyline
 90
        3
 70
     0
 43
0.0
 10
99.22559330110054
 20
135.2448320394373
 10
99.22568956710021
 20
135.584609599658
 10
99.22582965318126
 20
135.7546061786319
  0
LINE
  5
76B
330
1F
100
AcDbEntity
  8
_SURFACE
  6
Continuous
 62
     7
100
AcDbLine
 10
99.2352749302012
 20
150.3543049852791
 30
0.0
 11
99.23524888250032
 21
150.4571069615316
 31
0.0
  0
LINE
  5
76C
330
1F
100
AcDbEntity
  8
_SURFACE
  6
Continuous
 62
     7
100
AcDbLine
 10
99.23451587406034
 20
151.2803774257385
 30
0.0
 11
99.23447379134032
 21
151.3137248038014
 31
0.0
  0
LINE
  5
76D
330
1F
100
AcDbEntity
  8
_SURFACE
  6
Continuous
 62
     7
100
AcDbLine
 10
98.29838287206113
 20
145.8566566831554
 30
0.0
 11
98.29845773602066
 21
146.3272224527149
 31
0.0
  0
LINE
  5
76E
330
1F
100
AcDbEntity
  8
_SURFACE
  6
Continuous
 62
     7
100
AcDbLine
 10
98.34159268150088
 20
134.6537175218958
 30
0.0
 11
98.34173118008076
 21
134.9953374787414
 31
0.0
  0
LINE
  5
76F
330
1F
100
AcDbEntity
  8
_SURFACE
  6
Continuous
 62
     7
100
AcDbLine
 10
99.22836776596106
 20
137.2781494536152
 30
0.0
 11
99.2284796529606
 21
137.6088160185949
 31
0.0
  0
LINE
  5
770
330
1F
100
AcDbEntity
  8
_SURFACE
  6
Continuous
 62
     7
100
AcDbLine
 10
99.23688915608128
 20
148.9157453960555
 30
0.0
 11
99.23700583352129
 21
149.083166544578
 31
0.0
  0
LINE
  5
771
330
1F
100
AcDbEntity
  8
_SURFACE
  6
Continuous
 62
     7
100
AcDbLine
 10
99.22270607294141
 20
139.8858419395159
 30
0.0
 11
99.22288491180044
 21
140.1123228937189
 31
0.0
  0
LINE
  5
772
330
1F
100
AcDbEntity
  8
_SURFACE
  6
Continuous
 62
     7
100
AcDbLine
 10
99.23651003060095
 20
150.7730955573983
 30
0.0
 11
99.23647554756136
 21
150.8609504413738
 31
0.0
  0
LINE
  5
773
330
1F
100
AcDbEntity
  8
_SURFACE
  6
Continuous
 62
     7
100
AcDbLine
 10
98.29742425574151
 20
147.4770276664398
 30
0.0
 11
98.2975316621809
 21
147.6286829892391
 31
0.0
  0
LWPOLYLINE
  5
774
330
1F
100
AcDbEntity
  8
_SURFACE
  6
Continuous
 62
     7
100
AcDbPolyline
 90
        8
 70
     0
 43
0.0
 10
98.34173118008076
 20
134.9953374787414
 10
98.34206751164074
 20
135.3360261826723
 10
98.3423154867609
 20
135.5063561518959
 10
98.34268309334076
 20
135.6769111803564
 10
98.34319260464091
 20
135.8479691084989
 10
98.3438215975406
 20
136.0192799012561
 10
98.3445648498013
 20
136.1903347280581
 10
98.34543207692187
 20
136.3611289127561
  0
LINE
  5
775
330
1F
100
AcDbEntity
  8
_SURFACE
  6
Continuous
 62
     7
100
AcDbLine
 10
99.23525169428049
 20
144.9239261254601
 30
0.0
 11
99.23551800312035
 21
145.2076488625511
 31
0.0
  0
LINE
  5
776
330
1F
100
AcDbEntity
  8
_SURFACE
  6
Continuous
 62
     7
100
AcDbLine
 10
99.23491251030137
 20
144.0487516197731
 30
0.0
 11
99.23508361994064
 21
144.2738907884972
 31
0.0
  0
LINE
  5
777
330
1F
100
AcDbEntity
  8
_SURFACE
  6
Continuous
 62
     7
100
AcDbLine
 10
99.23508361994064
 20
144.2738907884972
 30
0.0
 11
99.23525169428049
 21
144.9239261254601
 31
0.0
  0
LINE
  5
778
330
1F
100
AcDbEntity
  8
_SURFACE
  6
Continuous
 62
     7
100
AcDbLine
 10
99.23792425180037
 20
149.5301760417182
 30
0.0
 11
99.23807178770076
 21
149.716352387671
 31
0.0
  0
LINE
  5
779
330
1F
100
AcDbEntity
  8
_SURFACE
  6
Continuous
 62
     7
100
AcDbLine
 10
99.2277279806016
 20
136.7749041405745
 30
0.0
 11
99.22836776596106
 21
137.2781494536152
 31
0.0
  0
LINE
  5
77A
330
1F
100
AcDbEntity
  8
_SURFACE
  6
Continuous
 62
     7
100
AcDbLine
 10
99.23390134900039
 20
151.1664614483356
 30
0.0
 11
99.23389991898094
 21
151.1907878639953
 31
0.0
  0
LINE
  5
77B
330
1F
100
AcDbEntity
  8
_SURFACE
  6
Continuous
 62
     7
100
AcDbLine
 10
99.23955130468076
 20
146.6209745906357
 30
0.0
 11
99.23978254628075
 21
146.839127118515
 31
0.0
  0
LINE
  5
77C
330
1F
100
AcDbEntity
  8
_SURFACE
  6
Continuous
 62
     7
100
AcDbLine
 10
99.22986859862195
 20
141.7274629400394
 30
0.0
 11
99.23124746048088
 21
142.5568724978779
 31
0.0
  0
LINE
  5
77D
330
1F
100
AcDbEntity
  8
_SURFACE
  6
Continuous
 62
     7
100
AcDbLine
 10
98.36222779644087
 20
138.7085912764937
 30
0.0
 11
98.36254900992063
 21
138.9098434470119
 31
0.0
  0
LINE
  5
77E
330
1F
100
AcDbEntity
  8
_SURFACE
  6
Continuous
 62
     7
100
AcDbLine
 10
99.22288491180044
 20
140.1123228937189
 30
0.0
 11
99.22335653138034
 21
140.3811804205156
 31
0.0
  0
LWPOLYLINE
  5
77F
330
1F
100
AcDbEntity
  8
_SURFACE
  6
Continuous
 62
     7
100
AcDbPolyline
 90
        3
 70
     0
 43
0.0
 10
99.23700583352129
 20
149.083166544578
 10
99.23727522338086
 20
149.2418248556545
 10
99.23792425180037
 20
149.5301760417182
  0
LWPOLYLINE
  5
780
330
1F
100
AcDbEntity
  8
_SURFACE
  6
Continuous
 62
     7
100
AcDbPolyline
 90
        3
 70
     0
 43
0.0
 10
99.22582965318126
 20
135.7546061786319
 10
99.22643595626087
 20
136.0955295480939
 10
99.2277279806016
 20
136.7749041405745
  0
LINE
  5
781
330
1F
100
AcDbEntity
  8
_SURFACE
  6
Continuous
 62
     7
100
AcDbLine
 10
99.23551800312035
 20
145.2076488625511
 30
0.0
 11
99.23607910436059
 21
145.4967725692963
 31
0.0
  0
LINE
  5
782
330
1F
100
AcDbEntity
  8
_SURFACE
  6
Continuous
 62
     7
100
AcDbLine
 10
99.23124746048088
 20
142.5568724978779
 30
0.0
 11
99.23203303422035
 21
142.9147503978142
 31
0.0
  0
LINE
  5
783
330
1F
100
AcDbEntity
  8
_SURFACE
  6
Continuous
 62
     7
100
AcDbLine
 10
98.2975316621809
 20
147.6286829892391
 30
0.0
 11
98.29785255308108
 21
147.7890475707149
 31
0.0
  0
LINE
  5
784
330
1F
100
AcDbEntity
  8
_SURFACE
  6
Continuous
 62
     7
100
AcDbLine
 10
99.23372547178079
 20
143.5347183933312
 30
0.0
 11
99.23491251030137
 21
144.0487516197731
 31
0.0
  0
LINE
  5
785
330
1F
100
AcDbEntity
  8
_SURFACE
  6
Continuous
 62
     7
100
AcDbLine
 10
99.23203303422035
 20
142.9147503978142
 30
0.0
 11
99.23372547178079
 21
143.5347183933312
 31
0.0
  0
LINE
  5
786
330
1F
100
AcDbEntity
  8
_SURFACE
  6
Continuous
 62
     7
100
AcDbLine
 10
99.23607910436059
 20
145.4967725692963
 30
0.0
 11
99.23688732728116
 21
145.7817408334935
 31
0.0
  0
LINE
  5
787
330
1F
100
AcDbEntity
  8
_SURFACE
  6
Continuous
 62
     7
100
AcDbLine
 10
99.22335653138034
 20
140.3811804205156
 30
0.0
 11
99.22428157144205
 21
140.7199729992184
 31
0.0
  0
LINE
  5
788
330
1F
100
AcDbEntity
  8
_SURFACE
  6
Continuous
 62
     7
100
AcDbLine
 10
99.23838419754012
 20
146.2169098742501
 30
0.0
 11
99.23955130468076
 21
146.6209745906357
 31
0.0
  0
LINE
  5
789
330
1F
100
AcDbEntity
  8
_SURFACE
  6
Continuous
 62
     7
100
AcDbLine
 10
99.23688732728116
 20
145.7817408334935
 30
0.0
 11
99.23838419754012
 21
146.2169098742501
 31
0.0
  0
LINE
  5
78A
330
1F
100
AcDbEntity
  8
_SURFACE
  6
Continuous
 62
     7
100
AcDbLine
 10
99.22428157144205
 20
140.7199729992184
 30
0.0
 11
99.22603774522068
 21
141.2298470696382
 31
0.0
  0
LWPOLYLINE
  5
78B
330
1F
100
AcDbEntity
  8
_SURFACE
  6
Continuous
 62
     7
100
AcDbPolyline
 90
        3
 70
     0
 43
0.0
 10
99.23524888250032
 20
150.4571069615316
 10
99.23550910042141
 20
150.549531993854
 10
99.23597173094041
 20
150.6321966646914
  0
LINE
  5
78C
330
1F
100
AcDbEntity
  8
_SURFACE
  6
Continuous
 62
     7
100
AcDbLine
 10
98.29785255308108
 20
147.7890475707149
 30
0.0
 11
98.29847177714183
 21
147.961044806097
 31
0.0
  0
LINE
  5
78D
330
1F
100
AcDbEntity
  8
_SURFACE
  6
Continuous
 62
     7
100
AcDbLine
 10
98.36156027174039
 20
138.515799383696
 30
0.0
 11
98.36222779644087
 21
138.7085912764937
 31
0.0
  0
LINE
  5
78E
330
1F
100
AcDbEntity
  8
_SURFACE
  6
Continuous
 62
     7
100
AcDbLine
 10
99.22603774522068
 20
141.2298470696382
 30
0.0
 11
99.22674104582203
 21
141.4277628079193
 31
0.0
  0
LINE
  5
78F
330
1F
100
AcDbEntity
  8
_SURFACE
  6
Continuous
 62
     7
100
AcDbLine
 10
99.23597173094041
 20
150.6321966646914
 30
0.0
 11
99.23651003060095
 21
150.7730955573983
 31
0.0
  0
LINE
  5
790
330
1F
100
AcDbEntity
  8
_SURFACE
  6
Continuous
 62
     7
100
AcDbLine
 10
98.29847177714183
 20
147.961044806097
 30
0.0
 11
98.29910095291999
 21
148.0833897963506
 31
0.0
  0
LINE
  5
791
330
1F
100
AcDbEntity
  8
_SURFACE
  6
Continuous
 62
     7
100
AcDbLine
 10
99.23438887914054
 20
151.2458064153738
 30
0.0
 11
99.23451587406034
 21
151.2803774257385
 31
0.0
  0
LINE
  5
792
330
1F
100
AcDbEntity
  8
_SURFACE
  6
Continuous
 62
     7
100
AcDbLine
 10
98.34543207692187
 20
136.3611289127561
 30
0.0
 11
98.34747435122009
 21
136.7015655089976
 31
0.0
  0
LINE
  5
793
330
1F
100
AcDbEntity
  8
_SURFACE
  6
Continuous
 62
     7
100
AcDbLine
 10
98.29910095291999
 20
148.0833897963506
 30
0.0
 11
98.29994938404016
 21
148.2127696036381
 31
0.0
  0
LINE
  5
794
330
1F
100
AcDbEntity
  8
_SURFACE
  6
Continuous
 62
     7
100
AcDbLine
 10
98.36039026138079
 20
138.3303863941014
 30
0.0
 11
98.36156027174039
 21
138.515799383696
 31
0.0
  0
LINE
  5
795
330
1F
100
AcDbEntity
  8
_SURFACE
  6
Continuous
 62
     7
100
AcDbLine
 10
98.34747435122009
 20
136.7015655089976
 30
0.0
 11
98.34983598226191
 21
137.039238290597
 31
0.0
  0
LINE
  5
796
330
1F
100
AcDbEntity
  8
_SURFACE
  6
Continuous
 62
     7
100
AcDbLine
 10
99.22674104582203
 20
141.4277628079193
 30
0.0
 11
99.22733225622089
 21
141.5165915380543
 31
0.0
  0
LINE
  5
797
330
1F
100
AcDbEntity
  8
_SURFACE
  6
Continuous
 62
     7
100
AcDbLine
 10
98.34983598226191
 20
137.039238290597
 30
0.0
 11
98.35240463854043
 21
137.3730502213997
 31
0.0
  0
LINE
  5
798
330
1F
100
AcDbEntity
  8
_SURFACE
  6
Continuous
 62
     7
100
AcDbLine
 10
98.29994938404016
 20
148.2127696036381
 30
0.0
 11
98.30103617892056
 21
148.3494582075777
 31
0.0
  0
LWPOLYLINE
  5
799
330
1F
100
AcDbEntity
  8
_SURFACE
  6
Continuous
 62
     7
100
AcDbPolyline
 90
        3
 70
     0
 43
0.0
 10
98.35240463854043
 20
137.3730502213997
 10
98.35783711942022
 20
138.0255264602578
 10
98.36039026138079
 20
138.3303863941014
  0
LINE
  5
79A
330
1F
100
AcDbEntity
  8
_SURFACE
  6
Continuous
 62
     7
100
AcDbLine
 10
98.30103617892056
 20
148.3494582075777
 30
0.0
 11
98.30238375560057
 21
148.4941538059115
 31
0.0
  0
LINE
  5
79B
330
1F
100
AcDbEntity
  8
_SURFACE
  6
Continuous
 62
     7
100
AcDbLine
 10
99.23389991898094
 20
151.1907878639953
 30
0.0
 11
99.23406317748087
 21
151.2127225927956
 31
0.0
  0
LINE
  5
79C
330
1F
100
AcDbEntity
  8
_SURFACE
  6
Continuous
 62
     7
100
AcDbLine
 10
99.22733225622089
 20
141.5165915380543
 30
0.0
 11
99.22820646834171
 21
141.6062712190009
 31
0.0
  0
LINE
  5
79D
330
1F
100
AcDbEntity
  8
_SURFACE
  6
Continuous
 62
     7
100
AcDbLine
 10
98.30238375560057
 20
148.4941538059115
 30
0.0
 11
98.3040849129815
 21
148.6527046394307
 31
0.0
  0
LINE
  5
79E
330
1F
100
AcDbEntity
  8
_SURFACE
  6
Continuous
 62
     7
100
AcDbLine
 10
98.31657630786086
 20
149.5612853114775
 30
0.0
 11
98.32094219701994
 21
149.9865696755345
 31
0.0
  0
LWPOLYLINE
  5
79F
330
1F
100
AcDbEntity
  8
_SURFACE
  6
Continuous
 62
     7
100
AcDbPolyline
 90
        3
 70
     0
 43
0.0
 10
99.23406317748087
 20
151.2127225927956
 10
99.23419385286017
 20
151.2235319615769
 10
99.23438887914054
 20
151.2458064153738
  0
LINE
  5
7A0
330
1F
100
AcDbEntity
  8
_SURFACE
  6
Continuous
 62
     7
100
AcDbLine
 10
98.3040849129815
 20
148.6527046394307
 30
0.0
 11
98.30605784782111
 21
148.8131788422374
 31
0.0
  0
LINE
  5
7A1
330
1F
100
AcDbEntity
  8
_SURFACE
  6
Continuous
 62
     7
100
AcDbLine
 10
99.22820646834171
 20
141.6062712190009
 30
0.0
 11
99.22896385316144
 21
141.6666291094565
 31
0.0
  0
LINE
  5
7A2
330
1F
100
AcDbEntity
  8
_SURFACE
  6
Continuous
 62
     7
100
AcDbLine
 10
98.31395508628194
 20
149.3570378840572
 30
0.0
 11
98.31657630786086
 21
149.5612853114775
 31
0.0
  0
LINE
  5
7A3
330
1F
100
AcDbEntity
  8
_SURFACE
  6
Continuous
 62
     7
100
AcDbLine
 10
98.30605784782111
 20
148.8131788422374
 30
0.0
 11
98.30929271816096
 21
149.0373760087799
 31
0.0
  0
LINE
  5
7A4
330
1F
100
AcDbEntity
  8
_SURFACE
  6
Continuous
 62
     7
100
AcDbLine
 10
98.30929271816096
 20
149.0373760087799
 30
0.0
 11
98.31395508628194
 21
149.3570378840572
 31
0.0
  0
LINE
  5
7A5
330
1F
100
AcDbEntity
  8
_SURFACE
  6
Continuous
 62
     7
100
AcDbLine
 10
98.33188297269991
 20
150.5404798326321
 30
0.0
 11
98.33419739276033
 21
150.7212838042737
 31
0.0
  0
LINE
  5
7A6
330
1F
100
AcDbEntity
  8
_SURFACE
  6
Continuous
 62
     7
100
AcDbLine
 10
99.22896385316144
 20
141.6666291094565
 30
0.0
 11
99.22986859862195
 21
141.7274629400394
 31
0.0
  0
LWPOLYLINE
  5
7A7
330
1F
100
AcDbEntity
  8
_SURFACE
  6
Continuous
 62
     7
100
AcDbPolyline
 90
        3
 70
     0
 43
0.0
 10
98.32094219701994
 20
149.9865696755345
 10
98.32251744406168
 20
150.0890736513733
 10
98.32337267222138
 20
150.1362432217551
  0
LINE
  5
7A8
330
1F
100
AcDbEntity
  8
_SURFACE
  6
Continuous
 62
     7
100
AcDbLine
 10
98.33419739276033
 20
150.7212838042737
 30
0.0
 11
98.33490729228143
 21
150.7670805757784
 31
0.0
  0
LINE
  5
7A9
330
1F
100
AcDbEntity
  8
_SURFACE
  6
Continuous
 62
     7
100
AcDbLine
 10
98.33053698606036
 20
150.4617030204148
 30
0.0
 11
98.33188297269991
 21
150.5404798326321
 31
0.0
  0
LINE
  5
7AA
330
1F
100
AcDbEntity
  8
_SURFACE
  6
Continuous
 62
     7
100
AcDbLine
 10
98.33490729228143
 20
150.7670805757784
 30
0.0
 11
98.33547002420111
 21
150.7942005799536
 31
0.0
  0
LWPOLYLINE
  5
7AB
330
1F
100
AcDbEntity
  8
_SURFACE
  6
Continuous
 62
     7
100
AcDbPolyline
 90
        3
 70
     0
 43
0.0
 10
98.32707628178141
 20
150.3004687530969
 10
98.32790045844049
 20
150.3361809676766
 10
98.33053698606036
 20
150.4617030204148
  0
LINE
  5
7AC
330
1F
100
AcDbEntity
  8
_SURFACE
  6
Continuous
 62
     7
100
AcDbLine
 10
98.32337267222138
 20
150.1362432217551
 30
0.0
 11
98.32707628178141
 21
150.3004687530969
 31
0.0
  0
LWPOLYLINE
  5
7AD
330
1F
100
AcDbEntity
  8
_SURFACE
  6
Continuous
 62
     7
100
AcDbPolyline
 90
        3
 70
     0
 43
0.0
 10
98.33547002420111
 20
150.7942005799536
 10
98.33614702056131
 20
150.8187784683154
 10
98.33653298626124
 20
150.8301667742175
  0
LWPOLYLINE
  5
7AE
330
1F
100
AcDbEntity
  8
_SURFACE
  6
Continuous
 62
     7
100
AcDbPolyline
 90
        3
 70
     0
 43
0.0
 10
98.34904640040022
 20
151.0878453266754
 10
98.34911797252098
 20
151.0902215881191
 10
98.35420216860022
 20
151.4153691369551
  0
LINE
  5
7AF
330
1F
100
AcDbEntity
  8
_SURFACE
  6
Continuous
 62
     7
100
AcDbLine
 10
98.33785720764026
 20
150.8627446592776
 30
0.0
 11
98.34305080660071
 21
151.0067582472961
 31
0.0
  0
LINE
  5
7B0
330
1F
100
AcDbEntity
  8
_SURFACE
  6
Continuous
 62
     7
100
AcDbLine
 10
98.33653298626124
 20
150.8301667742175
 30
0.0
 11
98.33785720764026
 21
150.8627446592776
 31
0.0
  0
LINE
  5
7B1
330
1F
100
AcDbEntity
  8
_SURFACE
  6
Continuous
 62
     7
100
AcDbLine
 10
98.34305080660071
 20
151.0067582472961
 30
0.0
 11
98.34389366496125
 21
151.0270129845352
 31
0.0
  0
LINE
  5
7B2
330
1F
100
AcDbEntity
  8
_SURFACE
  6
Continuous
 62
     7
100
AcDbLine
 10
98.34389366496125
 20
151.0270129845352
 30
0.0
 11
98.34441318640111
 21
151.0381321215513
 31
0.0
  0
LINE
  5
7B3
330
1F
100
AcDbEntity
  8
_SURFACE
  6
Continuous
 62
     7
100
AcDbLine
 10
98.34441318640111
 20
151.0381321215513
 30
0.0
 11
98.34489645696194
 21
151.0475005457969
 31
0.0
  0
LINE
  5
7B4
330
1F
100
AcDbEntity
  8
_SURFACE
  6
Continuous
 62
     7
100
AcDbLine
 10
98.34489645696194
 20
151.0475005457969
 30
0.0
 11
98.34534363666117
 21
151.0553601592377
 31
0.0
  0
LINE
  5
7B5
330
1F
100
AcDbEntity
  8
_SURFACE
  6
Continuous
 62
     7
100
AcDbLine
 10
98.34534363666117
 20
151.0553601592377
 30
0.0
 11
98.34575582786094
 21
151.0619323914556
 31
0.0
  0
LWPOLYLINE
  5
7B6
330
1F
100
AcDbEntity
  8
_SURFACE
  6
Continuous
 62
     7
100
AcDbPolyline
 90
       10
 70
     0
 43
0.0
 10
116.6370238985404
 20
169.2852029527179
 10
116.6296336974214
 20
169.2070229617579
 10
116.6173489086799
 20
169.1294612931573
 10
116.6002180158415
 20
169.0528240702528
 10
116.5783086337009
 20
168.9774137613398
 10
116.5517072289407
 20
168.9035279959766
 10
116.5205187950008
 20
168.8314583864971
 10
116.4848664253608
 20
168.7614893747936
 10
116.4448908334811
 20
168.693897117298
 10
116.4007497965407
 20
168.6289483825798
  0
LWPOLYLINE
  5
7B7
330
1F
100
AcDbEntity
  8
_SURFACE
  6
Continuous
 62
     7
100
AcDbPolyline
 90
       13
 70
     0
 43
0.0
 10
116.6394903604618
 20
154.0678326001193
 10
116.6368289129008
 20
154.0496492658907
 10
116.6288555455607
 20
154.0315431705361
 10
116.6156042131619
 20
154.0135912785821
 10
116.5971313519616
 20
153.9958698966924
 10
116.5735156257609
 20
153.9784543485925
 10
116.544857605861
 20
153.9614186625744
 10
116.511279336721
 20
153.9448352413359
 10
116.4729238152607
 20
153.9287745647938
 10
116.4299543812607
 20
153.9133048878406
 10
116.3825540214006
 20
153.8984919507324
 10
116.3309245996401
 20
153.8843986896149
 10
116.2752859860014
 20
153.8710849849789
  0
LWPOLYLINE
  5
7B8
330
1F
100
AcDbEntity
  8
_SURFACE
  6
Continuous
 62
     7
100
AcDbPolyline
 90
       13
 70
     0
 43
0.0
 10
116.6394903401409
 20
146.382746339635
 10
116.6368004217214
 20
146.3648605816537
 10
116.6287704327009
 20
146.3470515672356
 10
116.6154347545202
 20
146.3293955090752
 10
116.5968504762208
 20
146.3119679696369
 10
116.5730971633005
 20
146.2948435233169
 10
116.544276512282
 20
146.2780954567401
 10
116.5105119112808
 20
146.2617954410793
 10
116.4719479142399
 20
146.246013227273
 10
116.4287496211613
 20
146.2308163590109
 10
116.3811019770604
 20
146.2162698628357
 10
116.3292089718801
 20
146.2024359890615
 10
116.2732927743403
 20
146.189373929837
  0
LINE
  5
7B9
330
1F
100
AcDbEntity
  8
_SURFACE
  6
Continuous
 62
     7
100
AcDbLine
 10
116.6359951071012
 20
169.3358297780554
 30
0.0
 11
116.6255288923215
 21
169.2668957020555
 31
0.0
  0
LINE
  5
7BA
330
1F
100
AcDbEntity
  8
_SURFACE
  6
Continuous
 62
     7
100
AcDbLine
 10
115.3694903604613
 20
168.4955877399747
 30
0.0
 11
115.3694903604613
 21
175.4478451918016
 31
0.0
  0
LINE
  5
7BB
330
1F
100
AcDbEntity
  8
_SURFACE
  6
Continuous
 62
     7
100
AcDbLine
 10
115.3894903611011
 20
168.4775232244187
 30
0.0
 11
115.3894903611011
 21
168.4578214019979
 31
0.0
  0
LINE
  5
7BC
330
1F
100
AcDbEntity
  8
_SURFACE
  6
Continuous
 62
     7
100
AcDbLine
 10
116.3892655827807
 20
163.0757677795313
 30
0.0
 11
116.3867514323605
 21
162.7619833321782
 31
0.0
  0
LINE
  5
7BD
330
1F
100
AcDbEntity
  8
_SURFACE
  6
Continuous
 62
     7
100
AcDbLine
 10
116.3867514323605
 20
162.7619833321782
 30
0.0
 11
116.3840482094205
 21
162.4533252093364
 31
0.0
  0
LINE
  5
7BE
330
1F
100
AcDbEntity
  8
_SURFACE
  6
Continuous
 62
     7
100
AcDbLine
 10
116.3840482094205
 20
162.4533252093364
 30
0.0
 11
116.3811633866411
 21
162.1505518753378
 31
0.0
  0
LINE
  5
7BF
330
1F
100
AcDbEntity
  8
_SURFACE
  6
Continuous
 62
     7
100
AcDbLine
 10
116.3811633866411
 20
162.1505518753378
 30
0.0
 11
116.3781070935414
 21
161.8543778829748
 31
0.0
  0
LINE
  5
7C0
330
1F
100
AcDbEntity
  8
_SURFACE
  6
Continuous
 62
     7
100
AcDbLine
 10
116.3781070935414
 20
161.8543778829748
 30
0.0
 11
116.37489128082
 21
161.56546358908
 31
0.0
  0
LWPOLYLINE
  5
7C1
330
1F
100
AcDbEntity
  8
_SURFACE
  6
Continuous
 62
     7
100
AcDbPolyline
 90
       16
 70
     0
 43
0.0
 10
116.276231229221
 20
156.1343423837729
 10
116.274982552521
 20
156.027906597153
 10
116.2738106041401
 20
155.9176778361556
 10
116.2727167074203
 20
155.8041018656999
 10
116.2717521017816
 20
155.6891415164986
 10
116.2709267948206
 20
155.5726330195152
 10
116.2702307789417
 20
155.4546893082346
 10
116.2696852860012
 20
155.3377075965522
 10
116.2693028077214
 20
155.2219962125359
 10
116.2690708498416
 20
155.1072235490114
 10
116.2689731893801
 20
154.9948522065728
 10
116.269014997781
 20
154.8852340996795
 10
116.269191101061
 20
154.7780234073193
 10
116.2694697466799
 20
154.6736527321313
 10
116.2698520344605
 20
154.5722292646727
 10
116.2708891977403
 20
154.3781198738774
  0
LINE
  5
7C2
330
1F
100
AcDbEntity
  8
_SURFACE
  6
Continuous
 62
     7
100
AcDbLine
 10
116.37489128082
 20
161.56546358908
 30
0.0
 11
116.3692089884001
 21
161.0701081535784
 31
0.0
  0
LINE
  5
7C3
330
1F
100
AcDbEntity
  8
_SURFACE
  6
Continuous
 62
     7
100
AcDbLine
 10
116.3692089884001
 20
161.0701081535784
 30
0.0
 11
116.3656089930613
 21
160.780855099872
 31
0.0
  0
LINE
  5
7C4
330
1F
100
AcDbEntity
  8
_SURFACE
  6
Continuous
 62
     7
100
AcDbLine
 10
116.2789154605802
 20
156.3367895912719
 30
0.0
 11
116.276231229221
 21
156.1343423837729
 31
0.0
  0
LINE
  5
7C5
330
1F
100
AcDbEntity
  8
_SURFACE
  6
Continuous
 62
     7
100
AcDbLine
 10
116.3656089930613
 20
160.780855099872
 30
0.0
 11
116.3618750889203
 21
160.5091356610987
 31
0.0
  0
LINE
  5
7C6
330
1F
100
AcDbEntity
  8
_SURFACE
  6
Continuous
 62
     7
100
AcDbLine
 10
116.3618750889203
 20
160.5091356610987
 30
0.0
 11
116.3580627038603
 21
160.2532238538965
 31
0.0
  0
LINE
  5
7C7
330
1F
100
AcDbEntity
  8
_SURFACE
  6
Continuous
 62
     7
100
AcDbLine
 10
116.2817055235804
 20
156.5231174253762
 30
0.0
 11
116.2789154605802
 21
156.3367895912719
 31
0.0
  0
LINE
  5
7C8
330
1F
100
AcDbEntity
  8
_SURFACE
  6
Continuous
 62
     7
100
AcDbLine
 10
116.3580627038603
 20
160.2532238538965
 30
0.0
 11
116.3542006160809
 21
160.0114615789766
 31
0.0
  0
LINE
  5
7C9
330
1F
100
AcDbEntity
  8
_SURFACE
  6
Continuous
 62
     7
100
AcDbLine
 10
116.2845473517813
 20
156.6962843078995
 30
0.0
 11
116.2817055235804
 21
156.5231174253762
 31
0.0
  0
LINE
  5
7CA
330
1F
100
AcDbEntity
  8
_SURFACE
  6
Continuous
 62
     7
100
AcDbLine
 10
116.3542006160809
 20
160.0114615789766
 30
0.0
 11
116.3503074031399
 21
159.7829668822937
 31
0.0
  0
LINE
  5
7CB
330
1F
100
AcDbEntity
  8
_SURFACE
  6
Continuous
 62
     7
100
AcDbLine
 10
116.3503074031399
 20
159.7829668822937
 30
0.0
 11
116.3464035298215
 21
159.5662119233797
 31
0.0
  0
LINE
  5
7CC
330
1F
100
AcDbEntity
  8
_SURFACE
  6
Continuous
 62
     7
100
AcDbLine
 10
116.2888664160413
 20
156.9365057527734
 30
0.0
 11
116.2845473517813
 21
156.6962843078995
 31
0.0
  0
LINE
  5
7CD
330
1F
100
AcDbEntity
  8
_SURFACE
  6
Continuous
 62
     7
100
AcDbLine
 10
116.3464035298215
 20
159.5662119233797
 30
0.0
 11
116.3425302482614
 21
159.3613648248187
 31
0.0
  0
LINE
  5
7CE
330
1F
100
AcDbEntity
  8
_SURFACE
  6
Continuous
 62
     7
100
AcDbLine
 10
116.3425302482614
 20
159.3613648248187
 30
0.0
 11
116.3387123387005
 21
159.1684697546783
 31
0.0
  0
LINE
  5
7CF
330
1F
100
AcDbEntity
  8
_SURFACE
  6
Continuous
 62
     7
100
AcDbLine
 10
116.2948042807214
 20
157.2380270445768
 30
0.0
 11
116.2888664160413
 21
156.9365057527734
 31
0.0
  0
LINE
  5
7D0
330
1F
100
AcDbEntity
  8
_SURFACE
  6
Continuous
 62
     7
100
AcDbLine
 10
116.3387123387005
 20
159.1684697546783
 30
0.0
 11
116.3349929151012
 21
158.9878077461739
 31
0.0
  0
LINE
  5
7D1
330
1F
100
AcDbEntity
  8
_SURFACE
  6
Continuous
 62
     7
100
AcDbLine
 10
116.3028156210615
 20
157.6131965152139
 30
0.0
 11
116.2948042807214
 21
157.2380270445768
 31
0.0
  0
LINE
  5
7D2
330
1F
100
AcDbEntity
  8
_SURFACE
  6
Continuous
 62
     7
100
AcDbLine
 10
116.3349929151012
 20
158.9878077461739
 30
0.0
 11
116.3296040612616
 21
158.7370919255385
 31
0.0
  0
LINE
  5
7D3
330
1F
100
AcDbEntity
  8
_SURFACE
  6
Continuous
 62
     7
100
AcDbLine
 10
116.3296040612616
 20
158.7370919255385
 30
0.0
 11
116.3243740615611
 21
158.5046531549573
 31
0.0
  0
LINE
  5
7D4
330
1F
100
AcDbEntity
  8
_SURFACE
  6
Continuous
 62
     7
100
AcDbLine
 10
116.3062526550806
 20
157.7638578445744
 30
0.0
 11
116.3028156210615
 21
157.6131965152139
 31
0.0
  0
LINE
  5
7D5
330
1F
100
AcDbEntity
  8
_SURFACE
  6
Continuous
 62
     7
100
AcDbLine
 10
116.3243740615611
 20
158.5046531549573
 30
0.0
 11
116.3191615396012
 21
158.282188270959
 31
0.0
  0
LINE
  5
7D6
330
1F
100
AcDbEntity
  8
_SURFACE
  6
Continuous
 62
     7
100
AcDbLine
 10
116.3191615396012
 20
158.282188270959
 30
0.0
 11
116.3137956397408
 21
158.061450485356
 31
0.0
  0
LINE
  5
7D7
330
1F
100
AcDbEntity
  8
_SURFACE
  6
Continuous
 62
     7
100
AcDbLine
 10
116.3137956397408
 20
158.061450485356
 30
0.0
 11
116.3062526550806
 21
157.7638578445744
 31
0.0
  0
LINE
  5
7D8
330
1F
100
AcDbEntity
  8
_SURFACE
  6
Continuous
 62
     7
100
AcDbLine
 10
116.6394903401409
 20
169.3636927068341
 30
0.0
 11
116.6370238985404
 21
169.2852029527179
 31
0.0
  0
LWPOLYLINE
  5
7D9
330
1F
100
AcDbEntity
  8
_SURFACE
  6
Continuous
 62
     7
100
AcDbPolyline
 90
       25
 70
     0
 43
0.0
 10
116.6394903604618
 20
169.385449704217
 10
116.6368345364612
 20
169.3250127181577
 10
116.6288678848808
 20
169.2647733364769
 10
116.6156086708601
 20
169.2049891862966
 10
116.5970920632402
 20
169.1459009402364
 10
116.5733848513204
 20
169.0877806576949
 10
116.5445995469403
 20
169.0309274846344
 10
116.5108653243409
 20
168.9755979051746
 10
116.47231870344
 20
168.9220169836384
 10
116.4291302147607
 20
168.870423535894
 10
116.3814884456809
 20
168.8210418337962
 10
116.3295950849009
 20
168.7740800252553
 10
116.2736708000006
 20
168.7297378914349
 10
116.213953627081
 20
168.6882047486992
 10
116.1507005989018
 20
168.6496599032593
 10
116.0841851921808
 20
168.6142700451577
 10
116.0146934007602
 20
168.5821870409976
 10
115.9425226180014
 20
168.5535479009172
 10
115.8679829042406
 20
168.5284754059734
 10
115.7913920795212
 20
168.507076312378
 10
115.7130803286003
 20
168.489442725598
 10
115.6333897691605
 20
168.4756509091361
 10
115.5526644188016
 20
168.4657589832763
 10
115.4712483154411
 20
168.4598077200984
 10
115.3894903611011
 20
168.4578214019979
  0
LWPOLYLINE
  5
7DA
330
1F
100
AcDbEntity
  8
_SURFACE
  6
Continuous
 62
     7
100
AcDbPolyline
 90
       10
 70
     0
 43
0.0
 10
116.6394901597999
 20
165.0129952792171
 10
116.6364065032807
 20
164.9489599412022
 10
116.6271703774813
 20
164.8852405664779
 10
116.6118273550804
 20
164.8221515435556
 10
116.5904531382415
 20
164.7600041570526
 10
116.5631531928406
 20
164.6991050383125
 10
116.5300622201606
 20
164.6397546642596
 10
116.4913434964805
 20
164.5822458664019
 10
116.4471880653613
 20
164.5268623957576
 10
116.3978137953012
 20
164.4738775080745
  0
LINE
  5
7DB
330
1F
100
AcDbEntity
  8
_SURFACE
  6
Continuous
 62
     7
100
AcDbLine
 10
116.6394903604618
 20
169.4051515266377
 30
0.0
 11
116.6359951071012
 21
169.3358297780554
 31
0.0
  0
LWPOLYLINE
  5
7DC
330
1F
100
AcDbEntity
  8
_SURFACE
  6
Continuous
 62
     7
100
AcDbPolyline
 90
       10
 70
     0
 43
0.0
 10
116.6394903604618
 20
161.7841518689942
 10
116.6360727930017
 20
161.7354584789549
 10
116.6258399077009
 20
161.6870312986988
 10
116.6088476506014
 20
161.6391351155957
 10
116.5851889171212
 20
161.5920318214316
 10
116.5549930593001
 20
161.545978969681
 10
116.5184251619015
 20
161.5012283708324
 10
116.4756851483211
 20
161.4580247208991
 10
116.4270066858602
 20
161.4166042525516
 10
116.3726559131804
 20
161.3771934525334
  0
LINE
  5
7DD
330
1F
100
AcDbEntity
  8
_SURFACE
  6
Continuous
 62
     7
100
AcDbLine
 10
116.3710362872601
 20
168.2953620190141
 30
0.0
 11
116.3736375774609
 21
168.2468125834761
 31
0.0
  0
LINE
  5
7DE
330
1F
100
AcDbEntity
  8
_SURFACE
  6
Continuous
 62
     7
100
AcDbLine
 10
116.3736375774609
 20
168.2468125834761
 30
0.0
 11
116.3761096985003
 21
168.1930480808927
 31
0.0
  0
LINE
  5
7DF
330
1F
100
AcDbEntity
  8
_SURFACE
  6
Continuous
 62
     7
100
AcDbLine
 10
116.3761096985003
 20
168.1930480808927
 30
0.0
 11
116.3784200190006
 21
168.1349532593135
 31
0.0
  0
LINE
  5
7E0
330
1F
100
AcDbEntity
  8
_SURFACE
  6
Continuous
 62
     7
100
AcDbLine
 10
116.3784200190006
 20
168.1349532593135
 30
0.0
 11
116.380599245021
 21
168.0725061578973
 31
0.0
  0
LINE
  5
7E1
330
1F
100
AcDbEntity
  8
_SURFACE
  6
Continuous
 62
     7
100
AcDbLine
 10
116.380599245021
 20
168.0725061578973
 30
0.0
 11
116.38265688632
 21
168.0057646098989
 31
0.0
  0
LINE
  5
7E2
330
1F
100
AcDbEntity
  8
_SURFACE
  6
Continuous
 62
     7
100
AcDbLine
 10
116.38265688632
 20
168.0057646098989
 30
0.0
 11
116.3846024831413
 21
167.9342947121963
 31
0.0
  0
LINE
  5
7E3
330
1F
100
AcDbEntity
  8
_SURFACE
  6
Continuous
 62
     7
100
AcDbLine
 10
116.3846024831413
 20
167.9342947121963
 30
0.0
 11
116.3864316006405
 21
167.8581981740112
 31
0.0
  0
LINE
  5
7E4
330
1F
100
AcDbEntity
  8
_SURFACE
  6
Continuous
 62
     7
100
AcDbLine
 10
116.3864316006405
 20
167.8581981740112
 30
0.0
 11
116.3881434488807
 21
167.7774743349559
 31
0.0
  0
LINE
  5
7E5
330
1F
100
AcDbEntity
  8
_SURFACE
  6
Continuous
 62
     7
100
AcDbLine
 10
116.3881434488807
 20
167.7774743349559
 30
0.0
 11
116.3897371083816
 21
167.6921953995965
 31
0.0
  0
LINE
  5
7E6
330
1F
100
AcDbEntity
  8
_SURFACE
  6
Continuous
 62
     7
100
AcDbLine
 10
116.3897371083816
 20
167.6921953995965
 30
0.0
 11
116.3912156119008
 21
167.6023443245334
 31
0.0
  0
LINE
  5
7E7
330
1F
100
AcDbEntity
  8
_SURFACE
  6
Continuous
 62
     7
100
AcDbLine
 10
116.3912156119008
 20
167.6023443245334
 30
0.0
 11
116.392580968581
 21
167.507910688158
 31
0.0
  0
LINE
  5
7E8
330
1F
100
AcDbEntity
  8
_SURFACE
  6
Continuous
 62
     7
100
AcDbLine
 10
116.392580968581
 20
167.507910688158
 30
0.0
 11
116.3938366328206
 21
167.4089051686145
 31
0.0
  0
LINE
  5
7E9
330
1F
100
AcDbEntity
  8
_SURFACE
  6
Continuous
 62
     7
100
AcDbLine
 10
116.3938366328206
 20
167.4089051686145
 30
0.0
 11
116.3949871817007
 21
167.3053544638582
 31
0.0
  0
LINE
  5
7EA
330
1F
100
AcDbEntity
  8
_SURFACE
  6
Continuous
 62
     7
100
AcDbLine
 10
116.2736676808812
 20
154.0269633651164
 30
0.0
 11
116.2752845331219
 21
153.8710849392568
 31
0.0
  0
LINE
  5
7EB
330
1F
100
AcDbEntity
  8
_SURFACE
  6
Continuous
 62
     7
100
AcDbLine
 10
116.3949871817007
 20
167.3053544638582
 30
0.0
 11
116.3960358080016
 21
167.1972847155534
 31
0.0
  0
LINE
  5
7EC
330
1F
100
AcDbEntity
  8
_SURFACE
  6
Continuous
 62
     7
100
AcDbLine
 10
116.2721927130409
 20
154.1960931386178
 30
0.0
 11
116.2736676808812
 21
154.0269633651164
 31
0.0
  0
LINE
  5
7ED
330
1F
100
AcDbEntity
  8
_SURFACE
  6
Continuous
 62
     7
100
AcDbLine
 10
116.3960358080016
 20
167.1972847155534
 30
0.0
 11
116.3974291097614
 21
167.026888853657
 31
0.0
  0
LINE
  5
7EE
330
1F
100
AcDbEntity
  8
_SURFACE
  6
Continuous
 62
     7
100
AcDbLine
 10
116.2708891977403
 20
154.3781198738774
 30
0.0
 11
116.2721927130409
 21
154.1960931386178
 31
0.0
  0
LINE
  5
7EF
330
1F
100
AcDbEntity
  8
_SURFACE
  6
Continuous
 62
     7
100
AcDbLine
 10
116.3974291097614
 20
167.026888853657
 30
0.0
 11
116.3986227649815
 21
166.8468091426961
 31
0.0
  0
LINE
  5
7F0
330
1F
100
AcDbEntity
  8
_SURFACE
  6
Continuous
 62
     7
100
AcDbLine
 10
116.3986227649815
 20
166.8468091426961
 30
0.0
 11
116.3996022448604
 21
166.6572151302147
 31
0.0
  0
LINE
  5
7F1
330
1F
100
AcDbEntity
  8
_SURFACE
  6
Continuous
 62
     7
100
AcDbLine
 10
116.3996022448604
 20
166.6572151302147
 30
0.0
 11
116.4003400843807
 21
166.4582083146137
 31
0.0
  0
LINE
  5
7F2
330
1F
100
AcDbEntity
  8
_SURFACE
  6
Continuous
 62
     7
100
AcDbLine
 10
116.4003400843807
 20
166.4582083146137
 30
0.0
 11
116.4008432101212
 21
166.2502942117766
 31
0.0
  0
LINE
  5
7F3
330
1F
100
AcDbEntity
  8
_SURFACE
  6
Continuous
 62
     7
100
AcDbLine
 10
116.4008432101212
 20
166.2502942117766
 30
0.0
 11
116.4011150815608
 21
166.0325891683946
 31
0.0
  0
LINE
  5
7F4
330
1F
100
AcDbEntity
  8
_SURFACE
  6
Continuous
 62
     7
100
AcDbLine
 10
116.2732843059815
 20
147.0771219739958
 30
0.0
 11
116.2735966599406
 21
146.1892985959761
 31
0.0
  0
LINE
  5
7F5
330
1F
100
AcDbEntity
  8
_SURFACE
  6
Continuous
 62
     7
100
AcDbLine
 10
116.2732927768815
 20
146.1892436862594
 30
0.0
 11
116.2733568179004
 21
43.27589774806023
 31
0.0
  0
LINE
  5
7F6
330
1F
100
AcDbEntity
  8
_SURFACE
  6
Continuous
 62
     7
100
AcDbLine
 10
116.6394903604618
 20
43.27589774806023
 30
0.0
 11
116.6394903604618
 21
174.1978451898953
 31
0.0
  0
LINE
  5
7F7
330
1F
100
AcDbEntity
  8
_SURFACE
  6
Continuous
 62
     7
100
AcDbLine
 10
116.639490383321
 20
169.3432554502773
 30
0.0
 11
116.6394903604618
 21
169.3484155593373
 31
0.0
  0
LINE
  5
7F8
330
1F
100
AcDbEntity
  8
_SURFACE
  6
Continuous
 62
     7
100
AcDbLine
 10
116.6394903909408
 20
169.3635044953748
 30
0.0
 11
116.6394903706217
 21
169.3658201701959
 31
0.0
  0
LINE
  5
7F9
330
1F
100
AcDbEntity
  8
_SURFACE
  6
Continuous
 62
     7
100
AcDbLine
 10
116.2731534934404
 20
148.8809017776561
 30
0.0
 11
116.2732843059815
 21
147.0771219739958
 31
0.0
  0
LINE
  5
7FA
330
1F
100
AcDbEntity
  8
_SURFACE
  6
Continuous
 62
     7
100
AcDbLine
 10
116.4011150815608
 20
166.0325891683946
 30
0.0
 11
116.4011536133606
 21
165.7980110878974
 31
0.0
  0
LINE
  5
7FB
330
1F
100
AcDbEntity
  8
_SURFACE
  6
Continuous
 62
     7
100
AcDbLine
 10
116.2736775640209
 20
151.0354846897148
 30
0.0
 11
116.2731534934404
 21
148.8809017776561
 31
0.0
  0
LWPOLYLINE
  5
7FC
330
1F
100
AcDbEntity
  8
_SURFACE
  6
Continuous
 62
     7
100
AcDbPolyline
 90
        8
 70
     0
 43
0.0
 10
116.2752845280405
 20
153.8710849341782
 10
116.2752534359009
 20
153.8240125162605
 10
116.2752219500602
 20
153.7768054148377
 10
116.2751900654406
 20
153.7294636375422
 10
116.2751575940814
 20
153.6820735976993
 10
116.2751247264808
 20
153.6345486457553
 10
116.2750920417615
 20
153.586630082716
 10
116.2750599082204
 20
153.5383051145958
  0
LINE
  5
7FD
330
1F
100
AcDbEntity
  8
_SURFACE
  6
Continuous
 62
     7
100
AcDbLine
 10
116.2750599082204
 20
153.5383051145958
 30
0.0
 11
116.2749298195807
 21
153.3398019174978
 31
0.0
  0
LWPOLYLINE
  5
7FE
330
1F
100
AcDbEntity
  8
_SURFACE
  6
Continuous
 62
     7
100
AcDbPolyline
 90
       17
 70
     0
 43
0.0
 10
116.2749298195807
 20
153.3398019174978
 10
116.2748964033402
 20
153.2884389544392
 10
116.2748627051609
 20
153.2362484949385
 10
116.2748286818609
 20
153.1832326497364
 10
116.2747942140608
 20
153.1291680639382
 10
116.2747592789013
 20
153.0740587532759
 10
116.2747238967016
 20
153.0179063535156
 10
116.2746880014205
 20
152.9604854421972
 10
116.2746515930616
 20
152.9018003144569
 10
116.274614669081
 20
152.841853571253
 10
116.2745771837611
 20
152.780418791915
 10
116.2745391218608
 20
152.7175008684766
 10
116.274500496081
 20
152.6531029302181
 10
116.274461286101
 20
152.5869974109204
 10
116.2744214817607
 20
152.5191895302755
 10
116.2743810906808
 20
152.4496829890753
 10
116.2736775640209
 20
151.0354846897148
  0
LINE
  5
7FF
330
1F
100
AcDbEntity
  8
_SURFACE
  6
Continuous
 62
     7
100
AcDbLine
 10
116.4011536133606
 20
165.7980110878974
 30
0.0
 11
116.4009275635202
 21
165.536874200979
 31
0.0
  0
LINE
  5
800
330
1F
100
AcDbEntity
  8
_SURFACE
  6
Continuous
 62
     7
100
AcDbLine
 10
116.4009275635202
 20
165.536874200979
 30
0.0
 11
116.4003706812203
 21
165.2380096932951
 31
0.0
  0
LINE
  5
801
330
1F
100
AcDbEntity
  8
_SURFACE
  6
Continuous
 62
     7
100
AcDbLine
 10
116.4003706812203
 20
165.2380096932951
 30
0.0
 11
116.3997689577603
 21
165.0117209535942
 31
0.0
  0
LINE
  5
802
330
1F
100
AcDbEntity
  8
_SURFACE
  6
Continuous
 62
     7
100
AcDbLine
 10
116.3997689577603
 20
165.0117209535942
 30
0.0
 11
116.3989215832802
 21
164.7580307243747
 31
0.0
  0
LINE
  5
803
330
1F
100
AcDbEntity
  8
_SURFACE
  6
Continuous
 62
     7
100
AcDbLine
 10
116.3989215832802
 20
164.7580307243747
 30
0.0
 11
116.3978127208806
 21
164.4738778204968
 31
0.0
  0
LINE
  5
804
330
1F
100
AcDbEntity
  8
_SURFACE
  6
Continuous
 62
     7
100
AcDbLine
 10
116.3978127208806
 20
164.4738778204968
 30
0.0
 11
116.3961953123802
 21
164.1479605424369
 31
0.0
  0
LINE
  5
805
330
1F
100
AcDbEntity
  8
_SURFACE
  6
Continuous
 62
     7
100
AcDbLine
 10
116.3961953123802
 20
164.1479605424369
 30
0.0
 11
116.3943585926612
 21
163.8232346183553
 31
0.0
  0
LINE
  5
806
330
1F
100
AcDbEntity
  8
_SURFACE
  6
Continuous
 62
     7
100
AcDbLine
 10
116.3943585926612
 20
163.8232346183553
 30
0.0
 11
116.3923116981008
 21
163.5007218902587
 31
0.0
  0
LWPOLYLINE
  5
807
330
1F
100
AcDbEntity
  8
_SURFACE
  6
Continuous
 62
     7
100
AcDbPolyline
 90
        3
 70
     0
 43
0.0
 10
116.3923116981008
 20
163.5007218902587
 10
116.3900603183014
 20
163.1813658462101
 10
116.3892655827807
 20
163.0757677795313
  0
LWPOLYLINE
  5
808
330
1F
100
AcDbEntity
  8
_SURFACE
  6
Continuous
 62
     7
100
AcDbPolyline
 90
        8
 70
     0
 43
0.0
 10
116.360901191961
 20
168.4259228247005
 10
116.3625041758018
 20
168.4102754112368
 10
116.3640447874008
 20
168.3936956602969
 10
116.3655194199613
 20
168.3763011662572
 10
116.3669316802819
 20
168.3580842379937
 10
116.3683174560214
 20
168.3386109723992
 10
116.3696901152019
 20
168.317656902041
 10
116.3710362872601
 20
168.2953620190141
  0
LWPOLYLINE
  5
809
330
1F
100
AcDbEntity
  8
_SURFACE
  6
Continuous
 62
     7
100
AcDbPolyline
 90
        3
 70
     0
 43
0.0
 10
54.91737494794088
 20
168.6264110571987
 10
54.9684192857816
 20
168.5634305075195
 10
55.02343872362089
 20
168.503891126978
  0
LINE
  5
80A
330
1F
100
AcDbEntity
  8
_SURFACE
  6
Continuous
 62
     7
100
AcDbLine
 10
54.90873768810016
 20
168.6025412903595
 30
0.0
 11
54.97108374324071
 21
168.5249620424123
 31
0.0
  0
LINE
  5
80B
330
1F
100
AcDbEntity
  8
_SURFACE
  6
Continuous
 62
     7
100
AcDbLine
 10
55.02917538982129
 20
168.5017120609749
 30
0.0
 11
55.02901242342014
 21
168.5019209835931
 31
0.0
  0
LINE
  5
80C
330
1F
100
AcDbEntity
  8
_SURFACE
  6
Continuous
 62
     7
100
AcDbLine
 10
72.06934491114171
 20
151.4523231854741
 30
0.0
 11
72.10510625186035
 21
151.4179347172952
 31
0.0
  0
LINE
  5
80D
330
1F
100
AcDbEntity
  8
_SURFACE
  6
Continuous
 62
     7
100
AcDbLine
 10
72.06949832460068
 20
151.4542227320975
 30
0.0
 11
72.10315285216021
 21
151.4217895127344
 31
0.0
  0
LINE
  5
80E
330
1F
100
AcDbEntity
  8
_SURFACE
  6
Continuous
 62
     7
100
AcDbLine
 10
55.02941358086118
 20
168.5017634705777
 30
0.0
 11
72.06949849478078
 21
151.4542228590921
 31
0.0
  0
LINE
  5
80F
330
1F
100
AcDbEntity
  8
_SURFACE
  6
Continuous
 62
     7
100
AcDbLine
 10
55.02942117038074
 20
168.5017605546576
 30
0.0
 11
72.06986986056055
 21
151.4541468521396
 31
0.0
  0
LINE
  5
810
330
1F
100
AcDbEntity
  8
_SURFACE
  6
Continuous
 62
     7
100
AcDbLine
 10
55.91349035982185
 20
168.4578299770341
 30
0.0
 11
72.94878692416151
 21
151.4153706025367
 31
0.0
  0
LINE
  5
811
330
1F
100
AcDbEntity
  8
_SURFACE
  6
Continuous
 62
     7
100
AcDbLine
 10
55.0293609241211
 20
168.5017837296158
 30
0.0
 11
72.06934343032063
 21
151.4523214023915
 31
0.0
  0
LINE
  5
812
330
1F
100
AcDbEntity
  8
_SURFACE
  6
Continuous
 62
     7
100
AcDbLine
 10
55.02901242342014
 20
168.5019209835931
 30
0.0
 11
72.06931791856132
 21
151.4389180789416
 31
0.0
  0
LINE
  5
813
330
1F
100
AcDbEntity
  8
_SURFACE
  6
Continuous
 62
     7
100
AcDbLine
 10
55.02343785494068
 20
168.5038902735372
 30
0.0
 11
72.06928130700126
 21
151.2247204707577
 31
0.0
  0
LWPOLYLINE
  5
814
330
1F
100
AcDbEntity
  8
_SURFACE
  6
Continuous
 62
     7
100
AcDbPolyline
 90
       70
 70
     0
 43
0.0
 10
54.97108517326015
 20
168.5249632895551
 10
54.97139369944162
 20
168.5246418576329
 10
54.9717041179214
 20
168.5243217998554
 10
54.97201642616201
 20
168.5240031695552
 10
54.97233023554
 20
168.5236864188532
 10
54.97264593468063
 20
168.5233711870727
 10
54.97296469452104
 20
168.5230563337513
 10
54.97328639568095
 20
168.5227420341593
 10
54.97361116008088
 20
168.5224282654212
 10
54.97394051426127
 20
168.5221136940358
 10
54.97427449124043
 20
168.5217984317764
 10
54.97461306054029
 20
168.5214826310306
 10
54.97495766488047
 20
168.5211651081749
 10
54.97530831442091
 20
168.5208460282933
 10
54.97566500154099
 20
168.5205255869782
 10
54.97602914102154
 20
168.520202755511
 10
54.97640074810115
 20
168.5198777421951
 10
54.97677980500012
 20
168.5195507984803
 10
54.97716766554131
 20
168.5192210632935
 10
54.97756435258034
 20
168.5188887957387
 10
54.97796984326161
 20
168.5185543056772
 10
54.97838542790069
 20
168.5182169073136
 10
54.97881113444001
 20
168.5178769105382
 10
54.97924693240057
 20
168.5175346861774
 10
54.97969403844073
 20
168.5171897440136
 10
54.98015247796175
 20
168.5168424421985
 10
54.98062222556055
 20
168.5164932099773
 10
54.98110439376105
 20
168.5161417679532
 10
54.9815990206611
 20
168.5157885225393
 10
54.98210607070032
 20
168.515433951235
 10
54.98262654210012
 20
168.5150780108719
 10
54.98316048058168
 20
168.514721138335
 10
54.98370784550153
 20
168.5143638619387
 10
54.98426950046033
 20
168.5140063772609
 10
54.98484548863999
 20
168.5136491541975
 10
54.98543577194087
 20
168.5132927439385
 10
54.98604108442069
 20
168.5129375858936
 10
54.98666171818095
 20
168.5125840128143
 10
54.98729738112107
 20
168.5122327358962
 10
54.98794794369988
 20
168.5118848168544
 10
54.98861437112046
 20
168.5115402201313
 10
54.98929569564044
 20
168.511199943959
 10
54.98998886418158
 20
168.5108664673584
 10
54.99069425520102
 20
168.5105399097132
 10
54.9914114877005
 20
168.5102206850619
 10
54.99213638338042
 20
168.5099114095769
 10
54.99286762398006
 20
168.5096126242983
 10
54.99360653030035
 20
168.5093237450177
 10
54.99435285850123
 20
168.5090455184958
 10
54.99510594564108
 20
168.5087780133157
 10
54.99586645720083
 20
168.5085209145158
 10
54.99663615340105
 20
168.5082744278383
 10
54.99741523744106
 20
168.5080382129139
 10
54.99820350612154
 20
168.5078122240351
 10
54.99900212276171
 20
168.507597174937
 10
54.99981127532047
 20
168.5073925423762
 10
55.00063077838004
 20
168.507198107914
 10
55.00146122122024
 20
168.5070150247169
 10
55.00230283244073
 20
168.5068424469549
 10
55.00315538344094
 20
168.5066798793318
 10
55.00401878278117
 20
168.5065288763339
 10
55.0048933047814
 20
168.5063881044602
 10
55.00577867258144
 20
168.5062566442188
 10
55.0066739616208
 20
168.506136382833
 10
55.00757950718107
 20
168.5060252883172
 10
55.00849497398068
 20
168.505921803638
 10
55.0094184265412
 20
168.5058280573116
 10
55.01035027126127
 20
168.5057410419953
 10
55.01129010682181
 20
168.5056582887968
 10
55.01509460010075
 20
168.5053570473368
  0
LWPOLYLINE
  5
815
330
1F
100
AcDbEntity
  8
_SURFACE
  6
Continuous
 62
     7
100
AcDbPolyline
 90
        7
 70
     0
 43
0.0
 10
116.3493631479799
 20
168.4996140184352
 10
116.3515245203402
 20
168.4902250074933
 10
116.3535898400618
 20
168.4795425904571
 10
116.3555566662011
 20
168.4676744201401
 10
116.3574274371607
 20
168.4547217282356
 10
116.3592107737017
 20
168.4407564348561
 10
116.360901191961
 20
168.4259228247005
  0
LWPOLYLINE
  5
816
330
1F
100
AcDbEntity
  8
_SURFACE
  6
Continuous
 62
     7
100
AcDbPolyline
 90
        3
 70
     0
 43
0.0
 10
72.19242362612058
 20
151.3307341779559
 10
72.12909521836028
 20
151.382805988976
 10
72.06931684667998
 20
151.4389170095941
  0
LWPOLYLINE
  5
817
330
1F
100
AcDbEntity
  8
_SURFACE
  6
Continuous
 62
     7
100
AcDbPolyline
 90
        3
 70
     0
 43
0.0
 10
72.1924662168407
 20
151.3312583018755
 10
72.12914086724087
 20
151.3833226808541
 10
72.0693649593608
 20
151.4394258020742
  0
LINE
  5
818
330
1F
100
AcDbEntity
  8
_SURFACE
  6
Continuous
 62
     7
100
AcDbLine
 10
72.11282684602102
 20
151.3944406621789
 30
0.0
 11
72.16944298628132
 21
151.3459726234773
 31
0.0
  0
LWPOLYLINE
  5
819
330
1F
100
AcDbEntity
  8
_SURFACE
  6
Continuous
 62
     7
100
AcDbPolyline
 90
       11
 70
     0
 43
0.0
 10
72.10510625186035
 20
151.4179347172952
 10
72.16648365006077
 20
151.3648037313591
 10
72.23121211598154
 20
151.3157461840578
 10
72.29901886886037
 20
151.2709777620306
 10
72.36960825270071
 20
151.2306999507977
 10
72.44268117488118
 20
151.1950875074157
 10
72.51793271602074
 20
151.164292994455
 10
72.59504019706074
 20
151.1384519717152
 10
72.67367726356079
 20
151.1176765395552
 10
72.75351247854124
 20
151.1020569340157
 10
72.83420487748063
 20
151.0916622507188
  0
LWPOLYLINE
  5
81A
330
1F
100
AcDbEntity
  8
_SURFACE
  6
Continuous
 62
     7
100
AcDbPolyline
 90
       13
 70
     0
 43
0.0
 10
72.10315285216021
 20
151.4217895127344
 10
72.16363551250143
 20
151.3691531155977
 10
72.22761377418047
 20
151.3203274042584
 10
72.29483264660067
 20
151.2755765666565
 10
72.3649627400213
 20
151.2351728526968
 10
72.43770967352194
 20
151.1993247354161
 10
72.51279992974142
 20
151.1682046376349
 10
72.58990221394052
 20
151.1419855511389
 10
72.6686926075412
 20
151.1208088853358
 10
72.7488494525609
 20
151.1047917977388
 10
72.83002691784023
 20
151.0940334372403
 10
72.91187737390138
 20
151.0886084544376
 10
72.95357255340187
 20
151.0879127763814
  0
LINE
  5
81B
330
1F
100
AcDbEntity
  8
_SURFACE
  6
Continuous
 62
     7
100
AcDbLine
 10
72.10371702680132
 20
151.4243603711997
 30
0.0
 11
72.06471412030115
 21
151.4593047971115
 31
0.0
  0
LWPOLYLINE
  5
81C
330
1F
100
AcDbEntity
  8
_SURFACE
  6
Continuous
 62
     7
100
AcDbPolyline
 90
       16
 70
     0
 43
0.0
 10
55.02942117038074
 20
168.5017605546576
 10
55.06847769120068
 20
168.4667496797969
 10
55.11140032062067
 20
168.435983896777
 10
55.15799231278052
 20
168.4096150899763
 10
55.20802547662097
 20
168.3877936375551
 10
55.26128667566118
 20
168.3706113376515
 10
55.31757776704163
 20
168.3580914185781
 10
55.37666446116091
 20
168.3502613504146
 10
55.43825104614043
 20
168.347186035256
 10
55.50202583096179
 20
168.348903573094
 10
55.5676878688013
 20
168.3554147589579
 10
55.63494121156001
 20
168.366680385397
 10
55.70346742706025
 20
168.3826422534016
 10
55.77294716872021
 20
168.4032220166531
 10
55.84306255554148
 20
168.4283239705159
 10
55.91349035982185
 20
168.4578299770341
  0
LINE
  5
81D
330
1F
100
AcDbEntity
  8
_SURFACE
  6
Continuous
 62
     7
100
AcDbLine
 10
72.06912598854015
 20
151.4361418894163
 30
0.0
 11
72.11282684602102
 21
151.3944406621789
 31
0.0
  0
LWPOLYLINE
  5
81E
330
1F
100
AcDbEntity
  8
_SURFACE
  6
Continuous
 62
     7
100
AcDbPolyline
 90
       11
 70
     0
 43
0.0
 10
72.16944298628132
 20
151.3459726234773
 10
72.22888167614056
 20
151.300939640137
 10
72.29094054364068
 20
151.2595053160961
 10
72.35539882214053
 20
151.2218269078343
 10
72.42201648926166
 20
151.1880520808021
 10
72.49055507456015
 20
151.1583069967795
 10
72.56077453534127
 20
151.1327009469
 10
72.63241974384019
 20
151.111331688136
 10
72.70523449788052
 20
151.0942796038775
 10
72.77896012640067
 20
151.0816091770952
 10
72.85333050090085
 20
151.0733698488961
  0
LINE
  5
81F
330
1F
100
AcDbEntity
  8
_SURFACE
  6
Continuous
 62
     7
100
AcDbLine
 10
99.23299960074055
 20
151.4536693143577
 30
0.0
 11
99.23282235700064
 21
151.4538781226705
 31
0.0
  0
LWPOLYLINE
  5
820
330
1F
100
AcDbEntity
  8
_SURFACE
  6
Continuous
 62
     7
100
AcDbPolyline
 90
        3
 70
     0
 43
0.0
 10
72.19320864868078
 20
151.3673144578547
 10
72.14661443655987
 20
151.3936497468143
 10
72.10371702680132
 20
151.4243603711997
  0
LWPOLYLINE
  5
821
330
1F
100
AcDbEntity
  8
_SURFACE
  6
Continuous
 62
     7
100
AcDbPolyline
 90
        5
 70
     0
 43
0.0
 10
98.39240574218131
 20
151.0880878077782
 10
98.47486979112128
 20
151.0936963436738
 10
98.55657546718104
 20
151.1047072004998
 10
98.63716120898098
 20
151.1210285013562
 10
98.71625252400045
 20
151.1425360402549
  0
LWPOLYLINE
  5
822
330
1F
100
AcDbEntity
  8
_SURFACE
  6
Continuous
 62
     7
100
AcDbPolyline
 90
       13
 70
     0
 43
0.0
 10
98.33694938624049
 20
150.8409783832807
 10
98.42026254702197
 20
150.8435853071982
 10
98.50320637402129
 20
150.8516464086764
 10
98.58541198050117
 20
150.8651258051372
 10
98.66651376140126
 20
150.8839635144808
 10
98.7461510214811
 20
150.9080757293972
 10
98.82396958314112
 20
150.9373551755393
 10
98.89962335106103
 20
150.9716716067755
 10
98.97277586160127
 20
151.0108723741991
 10
99.04310177632069
 20
151.0547830991758
 10
99.11028832216054
 20
151.103208468417
 10
99.17403669098113
 20
151.1559330772119
 10
99.23406337052202
 20
151.2127224073751
  0
LINE
  5
823
330
1F
100
AcDbEntity
  8
_SURFACE
  6
Continuous
 62
     7
100
AcDbLine
 10
98.34925473882087
 20
151.0873292164592
 30
0.0
 11
98.39240574218131
 21
151.0880878077782
 31
0.0
  0
LWPOLYLINE
  5
824
330
1F
100
AcDbEntity
  8
_SURFACE
  6
Continuous
 62
     7
100
AcDbPolyline
 90
       21
 70
     0
 43
0.0
 10
98.34893269730166
 20
151.087829822512
 10
98.3705570533406
 20
151.0880154761957
 10
98.39106985458094
 20
151.0885375020711
 10
98.41152675804043
 20
151.0893939418215
 10
98.4319223662209
 20
151.0905823747939
 10
98.45225136290119
 20
151.0921003041998
 10
98.47249740826047
 20
151.0939440444758
 10
98.49265539944136
 20
151.0961103977801
 10
98.51272032248054
 20
151.0985961001983
 10
98.53267623888079
 20
151.1013961784169
 10
98.55251841154078
 20
151.1045067005156
 10
98.57224222020105
 20
151.1079236761556
 10
98.59183222419998
 20
151.1116409001165
 10
98.61128413856059
 20
151.1156537572146
 10
98.63059380276119
 20
151.1199575916302
 10
98.6497463730415
 20
151.1245450297551
 10
98.66873807750145
 20
151.1294108290144
 10
98.68756528648138
 20
151.1345497341585
 10
98.70621382932169
 20
151.1399532768168
 10
98.72468051832075
 20
151.1456156607214
 10
98.74296229532085
 20
151.151531094661
  0
LINE
  5
825
330
1F
100
AcDbEntity
  8
_SURFACE
  6
Continuous
 62
     7
100
AcDbLine
 10
95.99222240692089
 20
151.086320127802
 30
0.0
 11
97.06061451448059
 21
151.0871199382358
 31
0.0
  0
LINE
  5
826
330
1F
100
AcDbEntity
  8
_SURFACE
  6
Continuous
 62
     7
100
AcDbLine
 10
91.34246035264041
 20
151.0828667844375
 30
0.0
 11
93.04212959998167
 21
151.0841048947381
 31
0.0
  0
LINE
  5
827
330
1F
100
AcDbEntity
  8
_SURFACE
  6
Continuous
 62
     7
100
AcDbLine
 10
83.75483002374076
 20
151.077291398074
 30
0.0
 11
87.54815069718043
 21
151.0800828606202
 31
0.0
  0
LINE
  5
828
330
1F
100
AcDbEntity
  8
_SURFACE
  6
Continuous
 62
     7
100
AcDbLine
 10
78.26085112094133
 20
151.0732432121125
 30
0.0
 11
79.96052036828078
 21
151.0744957724796
 31
0.0
  0
LINE
  5
829
330
1F
100
AcDbEntity
  8
_SURFACE
  6
Continuous
 62
     7
100
AcDbLine
 10
72.95465466706028
 20
151.0693316095762
 30
0.0
 11
75.310758311461
 21
151.0710686393772
 31
0.0
  0
LINE
  5
82A
330
1F
100
AcDbEntity
  8
_SURFACE
  6
Continuous
 62
     7
100
AcDbLine
 10
72.95505516156154
 20
151.0723173287746
 30
0.0
 11
75.310758311461
 21
151.0737889285787
 31
0.0
  0
LINE
  5
82B
330
1F
100
AcDbEntity
  8
_SURFACE
  6
Continuous
 62
     7
100
AcDbLine
 10
78.26085112094133
 20
151.0756318459002
 30
0.0
 11
79.96052036828078
 21
151.0766936243139
 31
0.0
  0
LINE
  5
82C
330
1F
100
AcDbEntity
  8
_SURFACE
  6
Continuous
 62
     7
100
AcDbLine
 10
83.75483002374076
 20
151.0790639192905
 30
0.0
 11
87.54815069718043
 21
151.0814335970548
 31
0.0
  0
LINE
  5
82D
330
1F
100
AcDbEntity
  8
_SURFACE
  6
Continuous
 62
     7
100
AcDbLine
 10
91.34246035264041
 20
151.0838038920387
 30
0.0
 11
93.04212959998167
 21
151.0848656704524
 31
0.0
  0
LINE
  5
82E
330
1F
100
AcDbEntity
  8
_SURFACE
  6
Continuous
 62
     7
100
AcDbLine
 10
95.99222240692089
 20
151.0867085877739
 30
0.0
 11
97.81193574996033
 21
151.0878453571617
 31
0.0
  0
LINE
  5
82F
330
1F
100
AcDbEntity
  8
_SURFACE
  6
Continuous
 62
     7
100
AcDbLine
 10
95.99222240692089
 20
151.0861704151152
 30
0.0
 11
97.79943097690049
 21
151.0871301160127
 31
0.0
  0
LINE
  5
830
330
1F
100
AcDbEntity
  8
_SURFACE
  6
Continuous
 62
     7
100
AcDbLine
 10
97.79943097690049
 20
151.0871301160127
 30
0.0
 11
98.00509878502126
 21
151.0872124094725
 31
0.0
  0
LINE
  5
831
330
1F
100
AcDbEntity
  8
_SURFACE
  6
Continuous
 62
     7
100
AcDbLine
 10
98.00509878502126
 20
151.0872124094725
 30
0.0
 11
98.34925619932111
 21
151.0873292418595
 31
0.0
  0
LINE
  5
832
330
1F
100
AcDbEntity
  8
_SURFACE
  6
Continuous
 62
     7
100
AcDbLine
 10
75.310758311461
 20
150.5878465654363
 30
0.0
 11
78.26085112094133
 21
150.5878465654363
 31
0.0
  0
LINE
  5
833
330
1F
100
AcDbEntity
  8
_SURFACE
  6
Continuous
 62
     7
100
AcDbLine
 10
79.96052036828078
 20
150.5878465654363
 30
0.0
 11
83.75483002374076
 21
150.5878465654363
 31
0.0
  0
LINE
  5
834
330
1F
100
AcDbEntity
  8
_SURFACE
  6
Continuous
 62
     7
100
AcDbLine
 10
87.54815069718043
 20
150.5878465654363
 30
0.0
 11
91.34246035264041
 21
150.5878465654363
 31
0.0
  0
LINE
  5
835
330
1F
100
AcDbEntity
  8
_SURFACE
  6
Continuous
 62
     7
100
AcDbLine
 10
93.04212959998167
 20
150.5878465654363
 30
0.0
 11
95.99222240692089
 21
150.5878465654363
 31
0.0
  0
LINE
  5
836
330
1F
100
AcDbEntity
  8
_SURFACE
  6
Continuous
 62
     7
100
AcDbLine
 10
72.95357459048083
 20
151.0859461559716
 30
0.0
 11
75.310758311461
 21
151.0861279285358
 31
0.0
  0
LINE
  5
837
330
1F
100
AcDbEntity
  8
_SURFACE
  6
Continuous
 62
     7
100
AcDbLine
 10
78.26085112094133
 20
151.0863554236397
 30
0.0
 11
79.96052036828078
 21
151.0864864927184
 31
0.0
  0
LINE
  5
838
330
1F
100
AcDbEntity
  8
_SURFACE
  6
Continuous
 62
     7
100
AcDbLine
 10
83.75483002374076
 20
151.0867790880124
 30
0.0
 11
87.54815069718043
 21
151.0870716096591
 31
0.0
  0
LINE
  5
839
330
1F
100
AcDbEntity
  8
_SURFACE
  6
Continuous
 62
     7
100
AcDbLine
 10
91.34246035264041
 20
151.0873642049604
 30
0.0
 11
93.04212959998167
 21
151.0874952740318
 31
0.0
  0
LINE
  5
83A
330
1F
100
AcDbEntity
  8
_SURFACE
  6
Continuous
 62
     7
100
AcDbLine
 10
95.99222240692089
 20
151.087722771675
 30
0.0
 11
97.58204815284116
 21
151.0878453698582
 31
0.0
  0
LINE
  5
83B
330
1F
100
AcDbEntity
  8
_SURFACE
  6
Continuous
 62
     7
100
AcDbLine
 10
98.34904640040022
 20
151.0878453266754
 30
0.0
 11
72.95393676654057
 21
151.0878467897104
 31
0.0
  0
LINE
  5
83C
330
1F
100
AcDbEntity
  8
_SURFACE
  6
Continuous
 62
     7
100
AcDbLine
 10
98.35419642312118
 20
151.4153691369551
 30
0.0
 11
72.94878692416151
 21
151.4153706025367
 31
0.0
  0
LINE
  5
83D
330
1F
100
AcDbEntity
  8
_SURFACE
  6
Continuous
 62
     7
100
AcDbLine
 10
72.96560205182086
 20
150.8522371974372
 30
0.0
 11
75.310758311461
 21
150.8511970318699
 31
0.0
  0
LINE
  5
83E
330
1F
100
AcDbEntity
  8
_SURFACE
  6
Continuous
 62
     7
100
AcDbLine
 10
78.26085112094133
 20
150.8498885534113
 30
0.0
 11
79.96052036828078
 21
150.8491346839559
 31
0.0
  0
LINE
  5
83F
330
1F
100
AcDbEntity
  8
_SURFACE
  6
Continuous
 62
     7
100
AcDbLine
 10
83.75483002374076
 20
150.8474517612389
 30
0.0
 11
87.54815069718043
 21
150.8457692779388
 31
0.0
  0
LINE
  5
840
330
1F
100
AcDbEntity
  8
_SURFACE
  6
Continuous
 62
     7
100
AcDbLine
 10
91.34246035264041
 20
150.8440863577538
 30
0.0
 11
93.04212959998167
 21
150.8433324882984
 31
0.0
  0
LINE
  5
841
330
1F
100
AcDbEntity
  8
_SURFACE
  6
Continuous
 62
     7
100
AcDbLine
 10
95.99222240692089
 20
150.8420240098398
 30
0.0
 11
98.33694938878071
 21
150.8409840322324
 31
0.0
  0
LINE
  5
842
330
1F
100
AcDbEntity
  8
_SURFACE
  6
Continuous
 62
     7
100
AcDbLine
 10
72.95506283236083
 20
151.0717570886021
 30
0.0
 11
72.87311592234019
 21
151.0743941191371
 31
0.0
  0
LINE
  5
843
330
1F
100
AcDbEntity
  8
_SURFACE
  6
Continuous
 62
     7
100
AcDbLine
 10
72.95505516156154
 20
151.0723190229595
 30
0.0
 11
72.87311389034167
 21
151.0749557614012
 31
0.0
  0
LWPOLYLINE
  5
844
330
1F
100
AcDbEntity
  8
_SURFACE
  6
Continuous
 62
     7
100
AcDbPolyline
 90
       13
 70
     0
 43
0.0
 10
72.96560205436017
 20
150.8522443018132
 10
72.8823666252014
 20
150.8549684619769
 10
72.79950188110106
 20
150.8631364263323
 10
72.71737565216009
 20
150.8767121726172
 10
72.63635248680149
 20
150.8956356730027
 10
72.55679203632045
 20
150.9198231582754
 10
72.4790474623218
 20
150.9491674988798
 10
72.40346386444108
 20
150.9835386645767
 10
72.33037674620064
 20
151.0227843163351
 10
72.26011053672156
 20
151.066730474316
 10
72.19297713530105
 20
151.1151822976584
 10
72.12927454236106
 20
151.1679249353742
 10
72.06928552340142
 20
151.2247244941222
  0
LWPOLYLINE
  5
845
330
1F
100
AcDbEntity
  8
_SURFACE
  6
Continuous
 62
     7
100
AcDbPolyline
 90
        3
 70
     0
 43
0.0
 10
72.85333050090085
 20
151.0733698488961
 10
72.92807861404018
 20
151.0695945351376
 10
72.95465452990121
 20
151.0693316044975
  0
LWPOLYLINE
  5
846
330
1F
100
AcDbEntity
  8
_SURFACE
  6
Continuous
 62
     7
100
AcDbPolyline
 90
        3
 70
     0
 43
0.0
 10
72.83420487748063
 20
151.0916622507188
 10
72.91541175596049
 20
151.0865385550982
 10
72.95357492322128
 20
151.0859588000944
  0
LWPOLYLINE
  5
847
330
1F
100
AcDbEntity
  8
_SURFACE
  6
Continuous
 62
     7
100
AcDbPolyline
 90
       10
 70
     0
 43
0.0
 10
72.87311592234019
 20
151.0743941191371
 10
72.79151809214036
 20
151.0823972146367
 10
72.71062039008157
 20
151.0957319479398
 10
72.63077086220111
 20
151.1143409455157
 10
72.55231304096142
 20
151.1381441491152
 10
72.47558446696112
 20
151.1670391510174
 10
72.40091524876098
 20
151.2009016410788
 10
72.32862663032157
 20
151.2395859325165
 10
72.25902961432112
 20
151.2829255969167
 10
72.19242362612058
 20
151.3307341779559
  0
LWPOLYLINE
  5
848
330
1F
100
AcDbEntity
  8
_SURFACE
  6
Continuous
 62
     7
100
AcDbPolyline
 90
       10
 70
     0
 43
0.0
 10
72.87311389034167
 20
151.0749557614012
 10
72.79152174974061
 20
151.0829577367598
 10
72.71062972204109
 20
151.0962905320388
 10
72.63078577200068
 20
151.1148967864187
 10
72.5523333660407
 20
151.1386964644966
 10
72.47560997618021
 20
151.1675871864913
 10
72.40094563986204
 20
151.2014446727602
 10
72.32866153500109
 20
151.2401232796741
 10
72.25906860840169
 20
151.283456624556
 10
72.1924662168407
 20
151.3312583018755
  0
LWPOLYLINE
  5
849
330
1F
100
AcDbEntity
  8
_SURFACE
  6
Continuous
 62
     7
100
AcDbPolyline
 90
        5
 70
     0
 43
0.0
 10
55.02343785494068
 20
168.5038902735372
 10
55.02579717966037
 20
168.503124941058
 10
55.02761584252076
 20
168.5024513686198
 10
55.02889381050081
 20
168.5019098761817
 10
55.02902343178121
 20
168.5018638691594
  0
LINE
  5
84A
330
1F
100
AcDbEntity
  8
_SURFACE
  6
Continuous
 62
     7
100
AcDbLine
 10
55.02936240240106
 20
168.5017830311166
 30
0.0
 11
55.02942122880122
 21
168.5017604936924
 31
0.0
  0
LINE
  5
84B
330
1F
100
AcDbEntity
  8
_SURFACE
  6
Continuous
 62
     7
100
AcDbLine
 10
55.02901242342014
 20
168.5019209835931
 30
0.0
 11
55.0293597328604
 21
168.5017853399817
 31
0.0
  0
LWPOLYLINE
  5
84C
330
1F
100
AcDbEntity
  8
_SURFACE
  6
Continuous
 62
     7
100
AcDbPolyline
 90
       13
 70
     0
 43
0.0
 10
98.35420225242016
 20
151.4153749687952
 10
98.42466019126133
 20
151.3858702576739
 10
98.49479340888084
 20
151.3607767061307
 10
98.56427868012126
 20
151.3402099705394
 10
98.63279576432105
 20
151.3242648309801
 10
98.70002889121989
 20
151.3130147798196
 10
98.76566819606015
 20
151.3065116609918
 10
98.82941116738166
 20
151.3047854465161
 10
98.89096403386103
 20
151.3078440941949
 10
98.95004311052018
 20
151.3156735044953
 10
99.00637611952099
 20
151.328237596715
 10
99.05970343984009
 20
151.3454784639374
 10
99.10977929854054
 20
151.3673166498751
  0
LINE
  5
84D
330
1F
100
AcDbEntity
  8
_SURFACE
  6
Continuous
 62
     7
100
AcDbLine
 10
116.2736012040008
 20
168.5017942985554
 30
0.0
 11
116.2736157455014
 21
168.5017978088412
 31
0.0
  0
LWPOLYLINE
  5
84E
330
1F
100
AcDbEntity
  8
_SURFACE
  6
Continuous
 62
     7
100
AcDbPolyline
 90
        5
 70
     0
 43
0.0
 10
116.2794997215418
 20
168.5030307248357
 10
116.2798964695415
 20
168.5031198585179
 10
116.2803117214402
 20
168.5032111816812
 10
116.2807437983014
 20
168.5033032033365
 10
116.2811919508207
 20
168.5033953672368
  0
LINE
  5
84F
330
1F
100
AcDbEntity
  8
_SURFACE
  6
Continuous
 62
     7
100
AcDbLine
 10
116.2783963023606
 20
168.5027910783732
 30
0.0
 11
116.2794997215418
 21
168.5030307248357
 31
0.0
  0
LWPOLYLINE
  5
850
330
1F
100
AcDbEntity
  8
_SURFACE
  6
Continuous
 62
     7
100
AcDbPolyline
 90
        3
 70
     0
 43
0.0
 10
116.2736157455014
 20
168.5017978088412
 10
116.2738502510004
 20
168.5018474125003
 10
116.2739957752213
 20
168.5018788830979
  0
LINE
  5
851
330
1F
100
AcDbEntity
  8
_SURFACE
  6
Continuous
 62
     7
100
AcDbLine
 10
116.2767988099998
 20
168.5024531440771
 30
0.0
 11
116.2783963023606
 21
168.5027910783732
 31
0.0
  0
LWPOLYLINE
  5
852
330
1F
100
AcDbEntity
  8
_SURFACE
  6
Continuous
 62
     7
100
AcDbPolyline
 90
       14
 70
     0
 43
0.0
 10
116.2890153032216
 20
168.5049095907793
 10
116.2897007044416
 20
168.505053042359
 10
116.2904116021813
 20
168.5052053509184
 10
116.2911483037809
 20
168.5053674359346
 10
116.291918632441
 20
168.5055424012948
 10
116.2927225830812
 20
168.5057309556554
 10
116.2935601607809
 20
168.5059340438942
 10
116.2944391938203
 20
168.5061552347155
 10
116.2953592580219
 20
168.5063954704578
 10
116.2963207801016
 20
168.5066567272346
 10
116.2973328608808
 20
168.506944567654
 10
116.2983985407412
 20
168.5072626188316
 10
116.2995147843807
 20
168.5076125317768
 10
116.3006815943412
 20
168.5079976516548
  0
LINE
  5
853
330
1F
100
AcDbEntity
  8
_SURFACE
  6
Continuous
 62
     7
100
AcDbLine
 10
116.275521870721
 20
168.5021890196344
 30
0.0
 11
116.2767988099998
 21
168.5024531440771
 31
0.0
  0
LWPOLYLINE
  5
854
330
1F
100
AcDbEntity
  8
_SURFACE
  6
Continuous
 62
     7
100
AcDbPolyline
 90
        3
 70
     0
 43
0.0
 10
116.2739957752213
 20
168.5018788830979
 10
116.2743223176216
 20
168.5019445903576
 10
116.2745033434215
 20
168.501982436353
  0
LINE
  5
855
330
1F
100
AcDbEntity
  8
_SURFACE
  6
Continuous
 62
     7
100
AcDbLine
 10
116.2877150188009
 20
168.5046466321923
 30
0.0
 11
116.2890153032216
 21
168.5049095907793
 31
0.0
  0
LINE
  5
856
330
1F
100
AcDbEntity
  8
_SURFACE
  6
Continuous
 62
     7
100
AcDbLine
 10
116.2745033434215
 20
168.501982436353
 30
0.0
 11
116.275521870721
 21
168.5021890196344
 31
0.0
  0
LINE
  5
857
330
1F
100
AcDbEntity
  8
_SURFACE
  6
Continuous
 62
     7
100
AcDbLine
 10
116.2811919508207
 20
168.5033953672368
 30
0.0
 11
116.2821367342998
 21
168.5035825703138
 31
0.0
  0
LINE
  5
858
330
1F
100
AcDbEntity
  8
_SURFACE
  6
Continuous
 62
     7
100
AcDbLine
 10
116.28648930624
 20
168.5044070263733
 30
0.0
 11
116.2877150188009
 21
168.5046466321923
 31
0.0
  0
LINE
  5
859
330
1F
100
AcDbEntity
  8
_SURFACE
  6
Continuous
 62
     7
100
AcDbLine
 10
116.2821367342998
 20
168.5035825703138
 30
0.0
 11
116.2836681282419
 21
168.5038741673974
 31
0.0
  0
LINE
  5
85A
330
1F
100
AcDbEntity
  8
_SURFACE
  6
Continuous
 62
     7
100
AcDbLine
 10
116.2836681282419
 20
168.5038741673974
 30
0.0
 11
116.28648930624
 21
168.5044070263733
 31
0.0
  0
LWPOLYLINE
  5
85B
330
1F
100
AcDbEntity
  8
_SURFACE
  6
Continuous
 62
     7
100
AcDbPolyline
 90
       32
 70
     0
 43
0.0
 10
116.3108180129806
 20
168.5099217295987
 10
116.3117039954608
 20
168.5100376145541
 10
116.3125685784402
 20
168.5101596513972
 10
116.3134115942806
 20
168.5102906645965
 10
116.3142332106203
 20
168.5104333516405
 10
116.3150355534411
 20
168.5105884719718
 10
116.3158190139005
 20
168.5107575394553
 10
116.3165832033814
 20
168.5109417758189
 10
116.317329094701
 20
168.5111411454976
 10
116.318056769141
 20
168.5113561539596
 10
116.3187661454207
 20
168.5115871415596
 10
116.3194579601408
 20
168.511833635855
 10
116.3201321675819
 20
168.5120954488934
 10
116.3207888109204
 20
168.512372324139
 10
116.3214287563009
 20
168.5126636418185
 10
116.3220519605405
 20
168.5129687897983
 10
116.3226584668213
 20
168.5132871152941
 10
116.3232492682804
 20
168.5136180290332
 10
116.3238243369809
 20
168.5139606724964
 10
116.3243837008616
 20
168.5143141693747
 10
116.32492844958
 20
168.5146780523186
 10
116.3254585247208
 20
168.5150513180173
 10
116.3259739847011
 20
168.5154330216005
 10
116.3264761020613
 20
168.5158229852581
 10
116.3269649276002
 20
168.5162202996775
 10
116.3274404105217
 20
168.5166239107543
 10
116.3279036633406
 20
168.5170336991117
 10
116.3283544295204
 20
168.517448458258
 10
116.3287929656011
 20
168.5178674871399
 10
116.3292211689608
 20
168.518291707774
 10
116.3296396492018
 20
168.5187209627015
 10
116.3300477941806
 20
168.5191537812401
  0
LINE
  5
85C
330
1F
100
AcDbEntity
  8
_SURFACE
  6
Continuous
 62
     7
100
AcDbLine
 10
116.3080211072205
 20
168.5095806609365
 30
0.0
 11
116.3108180129806
 21
168.5099217295987
 31
0.0
  0
LWPOLYLINE
  5
85D
330
1F
100
AcDbEntity
  8
_SURFACE
  6
Continuous
 62
     7
100
AcDbPolyline
 90
       10
 70
     0
 43
0.0
 10
55.01509460010075
 20
168.5053570473368
 10
55.01605050370054
 20
168.5052761915189
 10
55.01700663844022
 20
168.5051842511361
 10
55.01795650700151
 20
168.5050830448358
 10
55.01890066056095
 20
168.5049642134813
 10
55.01983855048038
 20
168.5048198601993
 10
55.02076203098059
 20
168.5046505818949
 10
55.02166838172107
 20
168.5044489008191
 10
55.0225603230414
 20
168.5041997242783
 10
55.02343785494068
 20
168.5038902735372
  0
LWPOLYLINE
  5
85E
330
1F
100
AcDbEntity
  8
_SURFACE
  6
Continuous
 62
     7
100
AcDbPolyline
 90
        4
 70
     0
 43
0.0
 10
54.71678768592065
 20
169.4104258213969
 10
54.73999566846069
 20
169.4114334876553
 10
54.76724084892194
 20
169.4124227592378
 10
54.79843212766119
 20
169.4133899912389
  0
LWPOLYLINE
  5
85F
330
1F
100
AcDbEntity
  8
_SURFACE
  6
Continuous
 62
     7
100
AcDbPolyline
 90
        5
 70
     0
 43
0.0
 10
54.79843212766119
 20
169.4133899912389
 10
54.83347267226091
 20
169.4143156764525
 10
54.87225215274103
 20
169.4151945291573
 10
54.91463909108043
 20
169.4160318350745
 10
54.96048643652139
 20
169.4168239188343
  0
LINE
  5
860
330
1F
100
AcDbEntity
  8
_SURFACE
  6
Continuous
 62
     7
100
AcDbLine
 10
54.96048643652139
 20
169.4168239188343
 30
0.0
 11
55.06195269536092
 21
169.4182618052122
 31
0.0
  0
LINE
  5
861
330
1F
100
AcDbEntity
  8
_SURFACE
  6
Continuous
 62
     7
100
AcDbLine
 10
55.06195269536092
 20
169.4182618052122
 30
0.0
 11
55.17515167140155
 21
169.4195619296128
 31
0.0
  0
LINE
  5
862
330
1F
100
AcDbEntity
  8
_SURFACE
  6
Continuous
 62
     7
100
AcDbLine
 10
55.17515167140155
 20
169.4195619296128
 30
0.0
 11
55.2985159738204
 21
169.4207298419327
 31
0.0
  0
LINE
  5
863
330
1F
100
AcDbEntity
  8
_SURFACE
  6
Continuous
 62
     7
100
AcDbLine
 10
55.2985159738204
 20
169.4207298419327
 30
0.0
 11
55.43047700276057
 21
169.4217566318597
 31
0.0
  0
LINE
  5
864
330
1F
100
AcDbEntity
  8
_SURFACE
  6
Continuous
 62
     7
100
AcDbLine
 10
55.43047700276057
 20
169.4217566318597
 30
0.0
 11
55.56924969194134
 21
169.4225105419513
 31
0.0
  0
LINE
  5
865
330
1F
100
AcDbEntity
  8
_SURFACE
  6
Continuous
 62
     7
100
AcDbLine
 10
55.56924969194134
 20
169.4225105419513
 30
0.0
 11
55.71295921910078
 21
169.4229704267395
 31
0.0
  0
LINE
  5
866
330
1F
100
AcDbEntity
  8
_SURFACE
  6
Continuous
 62
     7
100
AcDbLine
 10
55.71295921910078
 20
169.4229704267395
 30
0.0
 11
55.85964744744015
 21
169.4231949881336
 31
0.0
  0
LINE
  5
867
330
1F
100
AcDbEntity
  8
_SURFACE
  6
Continuous
 62
     7
100
AcDbLine
 10
55.93349036045984
 20
168.4955877399747
 30
0.0
 11
115.3694903604613
 21
168.4955877399747
 31
0.0
  0
LINE
  5
868
330
1F
100
AcDbEntity
  8
_SURFACE
  6
Continuous
 62
     7
100
AcDbLine
 10
55.85964744744015
 20
169.4231949881336
 30
0.0
 11
115.3694903604613
 21
169.4232160421938
 31
0.0
  0
LINE
  5
869
330
1F
100
AcDbEntity
  8
_SURFACE
  6
Continuous
 62
     7
100
AcDbLine
 10
116.6394903604618
 20
174.1978451898953
 30
0.0
 11
54.66349036046122
 21
174.1978451898953
 31
0.0
  0
LINE
  5
86A
330
1F
100
AcDbEntity
  8
_SURFACE
  6
Continuous
 62
     7
100
AcDbLine
 10
115.3894903611011
 20
175.4478451918016
 30
0.0
 11
55.91356667412165
 21
175.4478451918016
 31
0.0
  0
LINE
  5
86B
330
1F
100
AcDbEntity
  8
_SURFACE
  6
Continuous
 62
     7
100
AcDbLine
 10
115.3694903604613
 20
169.4232160421938
 30
0.0
 11
115.5169266569013
 21
169.4231131163155
 31
0.0
  0
LINE
  5
86C
330
1F
100
AcDbEntity
  8
_SURFACE
  6
Continuous
 62
     7
100
AcDbLine
 10
115.5169266569013
 20
169.4231131163155
 30
0.0
 11
115.6623716314419
 21
169.4227708919547
 31
0.0
  0
LINE
  5
86D
330
1F
100
AcDbEntity
  8
_SURFACE
  6
Continuous
 62
     7
100
AcDbLine
 10
115.6623716314419
 20
169.4227708919547
 30
0.0
 11
115.8038548409808
 21
169.4221774514348
 31
0.0
  0
LINE
  5
86E
330
1F
100
AcDbEntity
  8
_SURFACE
  6
Continuous
 62
     7
100
AcDbLine
 10
115.8038548409808
 20
169.4221774514348
 30
0.0
 11
115.9394479886399
 21
169.421263071757
 31
0.0
  0
LINE
  5
86F
330
1F
100
AcDbEntity
  8
_SURFACE
  6
Continuous
 62
     7
100
AcDbLine
 10
115.9394479886399
 20
169.421263071757
 30
0.0
 11
116.0673267168808
 21
169.4201657206335
 31
0.0
  0
LINE
  5
870
330
1F
100
AcDbEntity
  8
_SURFACE
  6
Continuous
 62
     7
100
AcDbLine
 10
116.0673267168808
 20
169.4201657206335
 30
0.0
 11
116.1857900232611
 21
169.4189251820984
 31
0.0
  0
LWPOLYLINE
  5
871
330
1F
100
AcDbEntity
  8
_SURFACE
  6
Continuous
 62
     7
100
AcDbPolyline
 90
        7
 70
     0
 43
0.0
 10
116.1857900232611
 20
169.4189251820984
 10
116.2933325513817
 20
169.4175654718396
 10
116.3424942818605
 20
169.4168239188343
 10
116.3883416273005
 20
169.4160318350745
 10
116.4307285681811
 20
169.4151945316966
 10
116.4695080461209
 20
169.4143156764525
 10
116.5045485907207
 20
169.4133899912389
  0
LWPOLYLINE
  5
872
330
1F
100
AcDbEntity
  8
_SURFACE
  6
Continuous
 62
     7
100
AcDbPolyline
 90
       28
 70
     0
 43
0.0
 10
115.3694903604613
 20
168.4955877399747
 10
115.3706555854609
 20
168.495556851039
 10
115.3718102694605
 20
168.4954658428373
 10
115.3729544150013
 20
168.4953147153769
 10
115.3740921902203
 20
168.4951025491731
 10
115.3752194244402
 20
168.494830263718
 10
115.376323610701
 20
168.4945006047323
 10
115.3774041190803
 20
168.4941130210549
 10
115.3784615820408
 20
168.4936680638543
 10
115.3794853722205
 20
168.4931701425789
 10
115.3804750883013
 20
168.4926188025542
 10
115.3814311341406
 20
168.4920144959155
 10
115.3823440685613
 20
168.4913629935376
 10
115.3832137645608
 20
168.490663513095
 10
115.3840403516809
 20
168.4899168343813
 10
115.3848147875209
 20
168.4891310523575
 10
115.3855362872204
 20
168.4883058749378
 10
115.3862056381807
 20
168.4874415942153
 10
115.3868161500399
 20
168.4865471789357
 10
115.3873671547811
 20
168.485622448757
 10
115.3878593229614
 20
168.4846675865532
 10
115.3882879784409
 20
168.4836920995562
 10
115.388652547182
 20
168.4826955178554
 10
115.3889536032215
 20
168.4816783113542
 10
115.3891882077809
 20
168.480651389354
 10
115.3893553778802
 20
168.4796183840566
 10
115.3894560939619
 20
168.4785756632604
 10
115.3894903611011
 20
168.4775232244187
  0
LWPOLYLINE
  5
873
330
1F
100
AcDbEntity
  8
_SURFACE
  6
Continuous
 62
     7
100
AcDbPolyline
 90
        9
 70
     0
 43
0.0
 10
116.5045485907207
 20
169.4133899912389
 10
116.535739872001
 20
169.4124227566985
 10
116.5629850524605
 20
169.4114334876553
 10
116.5861930324612
 20
169.4104258213969
 10
116.6052878050417
 20
169.4093961180965
 10
116.6202100154809
 20
169.4083529705726
 10
116.6309082237007
 20
169.4072992414125
 10
116.637342871741
 20
169.406232065497
 10
116.6394903604618
 20
169.4051514428115
  0
LWPOLYLINE
  5
874
330
1F
100
AcDbEntity
  8
_SURFACE
  6
Continuous
 62
     7
100
AcDbPolyline
 90
       16
 70
     0
 43
0.0
 10
115.3894903611011
 20
168.4578214019979
 10
115.4599387724005
 20
168.4283071557124
 10
115.5300622973813
 20
168.4032039039134
 10
115.5995377108806
 20
168.3826272978744
 10
115.6680436470209
 20
168.3666709975563
 10
115.7352654556811
 20
168.3554096129132
 10
115.8008966604606
 20
168.348898386413
 10
115.8646433300213
 20
168.3471758778009
 10
115.9262031103802
 20
168.350241452053
 10
115.9852699671004
 20
168.3580586170187
 10
116.0415426409403
 20
168.3705622775573
 10
116.0947904719609
 20
168.3877235665763
 10
116.1448322718019
 20
168.4095276936545
 10
116.1914587978002
 20
168.4358955403344
 10
116.234433796942
 20
168.466684168115
 10
116.2735594845011
 20
168.5017519135776
  0
ARC
  5
875
330
1F
100
AcDbEntity
  8
_SURFACE
  6
Continuous
 62
     7
100
AcDbCircle
 10
72.95393683766125
 20
152.3378467890774
 30
0.0
 40
1.249999999359999
100
AcDbArc
 50
224.9881037317078
 51
269.9999966814917
  0
ARC
  5
876
330
1F
100
AcDbEntity
  8
_SURFACE
  6
Continuous
 62
     7
100
AcDbCircle
 10
55.91349035982185
 20
169.3854219166146
 30
0.0
 40
1.249999999359999
100
AcDbArc
 50
179.9999979816023
 51
224.9841485058049
  0
ARC
  5
877
330
1F
100
AcDbEntity
  8
_SURFACE
  6
Continuous
 62
     7
100
AcDbCircle
 10
55.91349035982185
 20
169.3852089985789
 30
0.0
 40
1.249999999359999
100
AcDbArc
 50
179.9999730459038
 51
224.6032428862954
  0
ARC
  5
878
330
1F
100
AcDbEntity
  8
_SURFACE
  6
Continuous
 62
     7
100
AcDbCircle
 10
55.91349035982185
 20
174.1978451898953
 30
0.0
 40
1.249999999359999
100
AcDbArc
 50
90.0
 51
180.0
  0
ARC
  5
879
330
1F
100
AcDbEntity
  8
_SURFACE
  6
Continuous
 62
     7
100
AcDbCircle
 10
72.95346450434081
 20
152.3359973845994
 30
0.0
 40
1.249999994279999
100
AcDbArc
 50
224.9843069200048
 51
270.0043741914076
  0
ARC
  5
87A
330
1F
100
AcDbEntity
  8
_SURFACE
  6
Continuous
 62
     7
100
AcDbCircle
 10
98.34936743354084
 20
152.338184144251
 30
0.0
 40
1.250000009519999
100
AcDbArc
 50
313.156940074694
 51
315.0118573113027
  0
ARC
  5
87B
330
1F
100
AcDbEntity
  8
_SURFACE
  6
Continuous
 62
     7
100
AcDbCircle
 10
98.34904660868089
 20
152.3378454631942
 30
0.0
 40
1.249999999359999
100
AcDbArc
 50
269.9999905468956
 51
315.0120334896893
  0
ARC
  5
87C
330
1F
100
AcDbEntity
  8
_SURFACE
  6
Continuous
 62
     7
100
AcDbCircle
 10
115.3894903611011
 20
169.385449704217
 30
0.0
 40
1.249999999359999
100
AcDbArc
 50
315.012042405499
 51
0.0
  0
ARC
  5
87D
330
1F
100
AcDbEntity
  8
_SURFACE
  6
Continuous
 62
     7
100
AcDbCircle
 10
115.3894903611011
 20
174.1978451898953
 30
0.0
 40
1.249999999359999
100
AcDbArc
 50
0.0
 51
90.0
  0
ARC
  5
87E
330
1F
100
AcDbEntity
  8
_SURFACE
  6
Continuous
 62
     7
100
AcDbCircle
 10
115.3894903611011
 20
169.3424708391953
 30
0.0
 40
1.249999996819999
100
AcDbArc
 50
318.9092869383976
 51
0.0000035190935324
  0
ENDSEC
  0
SECTION
  2
OBJECTS
  0
DICTIONARY
  5
C
330
0
100
AcDbDictionary
281
     1
  3
ACAD_COLOR
350
C9
  3
ACAD_GROUP
350
D
  3
ACAD_LAYOUT
350
1A
  3
ACAD_MATERIAL
350
C8
  3
ACAD_MLEADERSTYLE
350
2EC
  3
ACAD_MLINESTYLE
350
17
  3
ACAD_PLOTSETTINGS
350
19
  3
ACAD_PLOTSTYLENAME
350
E
  3
ACAD_SCALELIST
350
2CA
  3
ACAD_TABLESTYLE
350
123
  3
ACAD_VISUALSTYLE
350
296
  3
ACDB_RECOMPOSE_DATA
350
30D
  3
AcDbVariableDictionary
350
9E
  3
AcmDictionary
350
63
  3
AMG
350
49
  3
AMGSNAPSETTINGS
350
606
  0
DICTIONARY
  5
38E
330
2
100
AcDbDictionary
280
     1
281
     1
  3
ACAD_LAYERSTATES
360
38F
  0
DICTIONARY
  5
87F
330
10
100
AcDbDictionary
280
     1
281
     1
  3
ADSK_XREC_LAYER_RECONCILED
360
880
  0
DICTIONARY
  5
38D
330
38C
100
AcDbDictionary
280
     1
281
     1
  3
ADSK_XREC_LAYER_RECONCILED
360
881
  0
DICTIONARY
  5
99
330
1F
100
AcDbDictionary
280
     1
281
     1
  0
DICTIONARY
  5
C9
102
{ACAD_REACTORS
330
C
102
}
330
C
100
AcDbDictionary
281
     1
  0
DICTIONARY
  5
D
102
{ACAD_REACTORS
330
C
102
}
330
C
100
AcDbDictionary
281
     1
  0
DICTIONARY
  5
1A
102
{ACAD_REACTORS
330
C
102
}
330
C
100
AcDbDictionary
281
     1
  3
Layout1
350
1E
  3
Layout2
350
26
  3
Model
350
22
  0
DICTIONARY
  5
C8
102
{ACAD_REACTORS
330
C
102
}
330
C
100
AcDbDictionary
281
     1
  3
ByBlock
350
294
  3
ByLayer
350
293
  3
Global
350
295
  0
DICTIONARY
  5
2EC
102
{ACAD_REACTORS
330
C
102
}
330
C
100
AcDbDictionary
281
     1
  3
Standard
350
2ED
  0
DICTIONARY
  5
17
102
{ACAD_REACTORS
330
C
102
}
330
C
100
AcDbDictionary
281
     1
  3
Standard
350
18
  0
DICTIONARY
  5
19
102
{ACAD_REACTORS
330
C
102
}
330
C
100
AcDbDictionary
281
     1
  0
ACDBDICTIONARYWDFLT
  5
E
102
{ACAD_REACTORS
330
C
102
}
330
C
100
AcDbDictionary
281
     1
  3
Normal
350
F
100
AcDbDictionaryWithDefault
340
F
  0
DICTIONARY
  5
2CA
102
{ACAD_REACTORS
330
C
102
}
330
C
100
AcDbDictionary
281
     1
  3
A0
350
2CB
  3
A1
350
2CC
  3
A2
350
2CD
  3
A3
350
2CE
  3
A4
350
2CF
  3
A5
350
2D0
  3
A6
350
2D1
  3
A7
350
2D2
  3
A8
350
2D3
  3
A9
350
2D4
  3
B0
350
2D5
  3
B1
350
2D6
  3
B2
350
2D7
  3
B3
350
2D8
  3
B4
350
2D9
  3
B5
350
2DA
  3
B6
350
2DB
  3
B7
350
2DC
  3
B8
350
2DD
  3
B9
350
2DE
  3
C0
350
2DF
  3
C1
350
2E0
  3
C2
350
2E1
  3
C3
350
2E2
  3
C4
350
2E3
  3
C5
350
2E4
  3
C6
350
2E5
  3
C7
350
2E6
  3
C8
350
2E7
  3
C9
350
2E8
  3
D0
350
2E9
  3
D1
350
2EA
  3
D2
350
2EB
  0
DICTIONARY
  5
123
102
{ACAD_REACTORS
330
C
102
}
330
C
100
AcDbDictionary
281
     1
  3
Standard
350
124
  0
DICTIONARY
  5
296
102
{ACAD_REACTORS
330
C
102
}
330
C
100
AcDbDictionary
281
     1
  3
2dWireframe
350
29C
  3
3D Hidden
350
29E
  3
3dWireframe
350
29D
  3
Basic
350
29B
  3
Brighten
350
2A2
  3
ColorChange
350
2A6
  3
Conceptual
350
29F
  3
Dim
350
2A1
  3
Facepattern
350
2A5
  3
Flat
350
297
  3
FlatWithEdges
350
298
  3
Gouraud
350
299
  3
GouraudWithEdges
350
29A
  3
Linepattern
350
2A4
  3
Realistic
350
2A0
  3
Thicken
350
2A3
  0
XRECORD
  5
30D
102
{ACAD_REACTORS
330
C
102
}
330
C
100
AcDbXrecord
280
     1
 90
        1
330
124
  0
DICTIONARY
  5
9E
102
{ACAD_REACTORS
330
C
102
}
330
C
100
AcDbDictionary
281
     1
  3
CANNOSCALE
350
310
  3
CMLEADERSTYLE
350
30E
  3
CTABLESTYLE
350
144
  3
DIMASSOC
350
A0
  3
INDEXCTL
350
9F
  3
LAYEREVAL
350
36B
  3
LAYERNOTIFY
350
36C
  3
LIGHTINGUNITS
350
311
  3
MSLTSCALE
350
30F
  0
DICTIONARY
  5
63
102
{ACAD_REACTORS
330
C
102
}
330
C
100
AcDbDictionary
281
     1
  3
AcmStdDictionary
350
69
  3
AMDTSECTSYM_ARROWCOLOR
350
12C
  0
DICTIONARY
  5
49
102
{ACAD_REACTORS
330
C
102
}
330
C
100
AcDbDictionary
281
     1
  0
DICTIONARY
  5
606
102
{ACAD_REACTORS
330
C
102
}
330
C
100
AcDbDictionary
281
     1
  0
DICTIONARY
  5
38F
102
{ACAD_REACTORS
330
38E
102
}
330
38E
100
AcDbDictionary
281
     1
  0
XRECORD
  5
880
102
{ACAD_REACTORS
330
87F
102
}
330
87F
100
AcDbXrecord
280
     1
290
     1
  0
XRECORD
  5
881
102
{ACAD_REACTORS
330
38D
102
}
330
38D
100
AcDbXrecord
280
     1
290
     1
  0
LAYOUT
  5
1E
102
{ACAD_REACTORS
330
1A
102
}
330
1A
100
AcDbPlotSettings
  1

  2

  4

  6

 40
0.0
 41
0.0
 42
0.0
 43
0.0
 44
0.0
 45
0.0
 46
0.0
 47
0.0
 48
0.0
 49
0.0
140
0.0
141
0.0
142
1.0
143
1.0
 70
   688
 72
     0
 73
     0
 74
     5
  7

 75
    16
147
1.0
 76
     0
 77
     2
 78
   300
148
0.0
149
0.0
100
AcDbLayout
  1
Layout1
 70
     1
 71
     1
 10
0.0
 20
0.0
 11
12.0
 21
9.0
 12
0.0
 22
0.0
 32
0.0
 14
1.000000000000000E+20
 24
1.000000000000000E+20
 34
1.000000000000000E+20
 15
-1.000000000000000E+20
 25
-1.000000000000000E+20
 35
-1.000000000000000E+20
146
0.0
 13
0.0
 23
0.0
 33
0.0
 16
1.0
 26
0.0
 36
0.0
 17
0.0
 27
1.0
 37
0.0
 76
     0
330
1B
  0
LAYOUT
  5
26
102
{ACAD_REACTORS
330
1A
102
}
330
1A
100
AcDbPlotSettings
  1

  2

  4

  6

 40
0.0
 41
0.0
 42
0.0
 43
0.0
 44
0.0
 45
0.0
 46
0.0
 47
0.0
 48
0.0
 49
0.0
140
0.0
141
0.0
142
1.0
143
1.0
 70
   688
 72
     0
 73
     0
 74
     5
  7

 75
    16
147
1.0
 76
     0
 77
     2
 78
   300
148
0.0
149
0.0
100
AcDbLayout
  1
Layout2
 70
     1
 71
     2
 10
0.0
 20
0.0
 11
12.0
 21
9.0
 12
0.0
 22
0.0
 32
0.0
 14
0.0
 24
0.0
 34
0.0
 15
0.0
 25
0.0
 35
0.0
146
0.0
 13
0.0
 23
0.0
 33
0.0
 16
1.0
 26
0.0
 36
0.0
 17
0.0
 27
1.0
 37
0.0
 76
     0
330
23
  0
LAYOUT
  5
22
102
{ACAD_REACTORS
330
1A
102
}
330
1A
100
AcDbPlotSettings
  1

  2

  4

  6

 40
0.0
 41
0.0
 42
0.0
 43
0.0
 44
0.0
 45
0.0
 46
0.0
 47
0.0
 48
0.0
 49
0.0
140
0.0
141
0.0
142
1.0
143
1.0
 70
  1712
 72
     0
 73
     0
 74
     0
  7

 75
     0
147
1.0
 76
     0
 77
     2
 78
   300
148
0.0
149
0.0
100
AcDbLayout
  1
Model
 70
     1
 71
     0
 10
0.0
 20
0.0
 11
12.0
 21
9.0
 12
0.0
 22
0.0
 32
0.0
 14
0.0
 24
0.0
 34
0.0
 15
0.0
 25
0.0
 35
0.0
146
0.0
 13
0.0
 23
0.0
 33
0.0
 16
1.0
 26
0.0
 36
0.0
 17
0.0
 27
1.0
 37
0.0
 76
     0
330
1F
331
291
  0
MATERIAL
  5
294
102
{ACAD_REACTORS
330
C8
102
}
330
C8
100
AcDbMaterial
  1
ByBlock
 73
     1
 78
     1
172
     1
176
     1
270
     1
274
     1
 94
       63
  0
MATERIAL
  5
293
102
{ACAD_REACTORS
330
C8
102
}
330
C8
100
AcDbMaterial
  1
ByLayer
 73
     1
 78
     1
172
     1
176
     1
270
     1
274
     1
 94
       63
  0
MATERIAL
  5
295
102
{ACAD_REACTORS
330
C8
102
}
330
C8
100
AcDbMaterial
  1
Global
 73
     1
 78
     1
172
     1
176
     1
270
     1
274
     1
 94
       63
  0
MLEADERSTYLE
  5
2ED
102
{ACAD_REACTORS
330
2EC
102
}
330
2EC
100
AcDbMLeaderStyle
170
     2
171
     1
172
     0
 90
        2
 40
0.0
 41
0.0
173
     1
 91
-1056964608
340
14
 92
       -2
290
     1
 42
0.09
291
     1
 43
0.36
  3
Standard
 44
0.18
300

342
11
174
     1
178
     6
175
     1
176
     0
 93
-1056964608
 45
0.18
292
     0
297
     0
 46
0.18
 94
-1056964608
 47
1.0
 49
1.0
140
1.0
293
     1
141
0.0
294
     1
177
     0
142
1.0
295
     0
296
     0
143
0.125
1001
ACAD_MLEADERVER
1070
     2
  0
MLINESTYLE
  5
18
102
{ACAD_REACTORS
330
17
102
}
330
17
100
AcDbMlineStyle
  2
STANDARD
 70
     0
  3

 62
   256
 51
90.0
 52
90.0
 71
     2
 49
0.5
 62
   256
  6
BYLAYER
 49
-0.5
 62
   256
  6
BYLAYER
  0
ACDBPLACEHOLDER
  5
F
102
{ACAD_REACTORS
330
E
102
}
330
E
  0
SCALE
  5
2CB
102
{ACAD_REACTORS
330
2CA
102
}
330
2CA
100
AcDbScale
 70
     0
300
1:1
140
1.0
141
1.0
290
     1
  0
SCALE
  5
2CC
102
{ACAD_REACTORS
330
2CA
102
}
330
2CA
100
AcDbScale
 70
     0
300
1:2
140
1.0
141
2.0
290
     0
  0
SCALE
  5
2CD
102
{ACAD_REACTORS
330
2CA
102
}
330
2CA
100
AcDbScale
 70
     0
300
1:4
140
1.0
141
4.0
290
     0
  0
SCALE
  5
2CE
102
{ACAD_REACTORS
330
2CA
102
}
330
2CA
100
AcDbScale
 70
     0
300
1:5
140
1.0
141
5.0
290
     0
  0
SCALE
  5
2CF
102
{ACAD_REACTORS
330
2CA
102
}
330
2CA
100
AcDbScale
 70
     0
300
1:8
140
1.0
141
8.0
290
     0
  0
SCALE
  5
2D0
102
{ACAD_REACTORS
330
2CA
102
}
330
2CA
100
AcDbScale
 70
     0
300
1:10
140
1.0
141
10.0
290
     0
  0
SCALE
  5
2D1
102
{ACAD_REACTORS
330
2CA
102
}
330
2CA
100
AcDbScale
 70
     0
300
1:16
140
1.0
141
16.0
290
     0
  0
SCALE
  5
2D2
102
{ACAD_REACTORS
330
2CA
102
}
330
2CA
100
AcDbScale
 70
     0
300
1:20
140
1.0
141
20.0
290
     0
  0
SCALE
  5
2D3
102
{ACAD_REACTORS
330
2CA
102
}
330
2CA
100
AcDbScale
 70
     0
300
1:30
140
1.0
141
30.0
290
     0
  0
SCALE
  5
2D4
102
{ACAD_REACTORS
330
2CA
102
}
330
2CA
100
AcDbScale
 70
     0
300
1:40
140
1.0
141
40.0
290
     0
  0
SCALE
  5
2D5
102
{ACAD_REACTORS
330
2CA
102
}
330
2CA
100
AcDbScale
 70
     0
300
1:50
140
1.0
141
50.0
290
     0
  0
SCALE
  5
2D6
102
{ACAD_REACTORS
330
2CA
102
}
330
2CA
100
AcDbScale
 70
     0
300
1:100
140
1.0
141
100.0
290
     0
  0
SCALE
  5
2D7
102
{ACAD_REACTORS
330
2CA
102
}
330
2CA
100
AcDbScale
 70
     0
300
2:1
140
2.0
141
1.0
290
     0
  0
SCALE
  5
2D8
102
{ACAD_REACTORS
330
2CA
102
}
330
2CA
100
AcDbScale
 70
     0
300
4:1
140
4.0
141
1.0
290
     0
  0
SCALE
  5
2D9
102
{ACAD_REACTORS
330
2CA
102
}
330
2CA
100
AcDbScale
 70
     0
300
8:1
140
8.0
141
1.0
290
     0
  0
SCALE
  5
2DA
102
{ACAD_REACTORS
330
2CA
102
}
330
2CA
100
AcDbScale
 70
     0
300
10:1
140
10.0
141
1.0
290
     0
  0
SCALE
  5
2DB
102
{ACAD_REACTORS
330
2CA
102
}
330
2CA
100
AcDbScale
 70
     0
300
100:1
140
100.0
141
1.0
290
     0
  0
SCALE
  5
2DC
102
{ACAD_REACTORS
330
2CA
102
}
330
2CA
100
AcDbScale
 70
     0
300
1/128" = 1'-0"
140
0.0078125
141
12.0
290
     0
  0
SCALE
  5
2DD
102
{ACAD_REACTORS
330
2CA
102
}
330
2CA
100
AcDbScale
 70
     0
300
1/64" = 1'-0"
140
0.015625
141
12.0
290
     0
  0
SCALE
  5
2DE
102
{ACAD_REACTORS
330
2CA
102
}
330
2CA
100
AcDbScale
 70
     0
300
1/32" = 1'-0"
140
0.03125
141
12.0
290
     0
  0
SCALE
  5
2DF
102
{ACAD_REACTORS
330
2CA
102
}
330
2CA
100
AcDbScale
 70
     0
300
1/16" = 1'-0"
140
0.0625
141
12.0
290
     0
  0
SCALE
  5
2E0
102
{ACAD_REACTORS
330
2CA
102
}
330
2CA
100
AcDbScale
 70
     0
300
3/32" = 1'-0"
140
0.09375
141
12.0
290
     0
  0
SCALE
  5
2E1
102
{ACAD_REACTORS
330
2CA
102
}
330
2CA
100
AcDbScale
 70
     0
300
1/8" = 1'-0"
140
0.125
141
12.0
290
     0
  0
SCALE
  5
2E2
102
{ACAD_REACTORS
330
2CA
102
}
330
2CA
100
AcDbScale
 70
     0
300
3/16" = 1'-0"
140
0.1875
141
12.0
290
     0
  0
SCALE
  5
2E3
102
{ACAD_REACTORS
330
2CA
102
}
330
2CA
100
AcDbScale
 70
     0
300
1/4" = 1'-0"
140
0.25
141
12.0
290
     0
  0
SCALE
  5
2E4
102
{ACAD_REACTORS
330
2CA
102
}
330
2CA
100
AcDbScale
 70
     0
300
3/8" = 1'-0"
140
0.375
141
12.0
290
     0
  0
SCALE
  5
2E5
102
{ACAD_REACTORS
330
2CA
102
}
330
2CA
100
AcDbScale
 70
     0
300
1/2" = 1'-0"
140
0.5
141
12.0
290
     0
  0
SCALE
  5
2E6
102
{ACAD_REACTORS
330
2CA
102
}
330
2CA
100
AcDbScale
 70
     0
300
3/4" = 1'-0"
140
0.75
141
12.0
290
     0
  0
SCALE
  5
2E7
102
{ACAD_REACTORS
330
2CA
102
}
330
2CA
100
AcDbScale
 70
     0
300
1" = 1'-0"
140
1.0
141
12.0
290
     0
  0
SCALE
  5
2E8
102
{ACAD_REACTORS
330
2CA
102
}
330
2CA
100
AcDbScale
 70
     0
300
1-1/2" = 1'-0"
140
1.5
141
12.0
290
     0
  0
SCALE
  5
2E9
102
{ACAD_REACTORS
330
2CA
102
}
330
2CA
100
AcDbScale
 70
     0
300
3" = 1'-0"
140
3.0
141
12.0
290
     0
  0
SCALE
  5
2EA
102
{ACAD_REACTORS
330
2CA
102
}
330
2CA
100
AcDbScale
 70
     0
300
6" = 1'-0"
140
6.0
141
12.0
290
     0
  0
SCALE
  5
2EB
102
{ACAD_REACTORS
330
2CA
102
}
330
2CA
100
AcDbScale
 70
     0
300
1'-0" = 1'-0"
140
12.0
141
12.0
290
     0
  0
TABLESTYLE
  5
124
102
{ACAD_XDICTIONARY
360
30B
102
}
102
{ACAD_REACTORS
330
123
102
}
330
123
100
AcDbTableStyle
  3
Standard
 70
     0
 71
     0
 40
0.06
 41
0.06
280
     0
281
     0
  7
STANDARD
140
0.18
170
     2
 62
     0
 63
     7
283
     0
 90
      512
 91
        0
  1

274
    -2
284
     1
 64
     0
275
    -2
285
     1
 65
     0
276
    -2
286
     1
 66
     0
277
    -2
287
     1
 67
     0
278
    -2
288
     1
 68
     0
279
    -2
289
     1
 69
     0
  7
STANDARD
140
0.25
170
     5
 62
     0
 63
     7
283
     0
 90
      512
 91
        0
  1

274
    -2
284
     1
 64
     0
275
    -2
285
     1
 65
     0
276
    -2
286
     1
 66
     0
277
    -2
287
     1
 67
     0
278
    -2
288
     1
 68
     0
279
    -2
289
     1
 69
     0
  7
STANDARD
140
0.18
170
     5
 62
     0
 63
     7
283
     0
 90
      512
 91
        0
  1

274
    -2
284
     1
 64
     0
275
    -2
285
     1
 65
     0
276
    -2
286
     1
 66
     0
277
    -2
287
     1
 67
     0
278
    -2
288
     1
 68
     0
279
    -2
289
     1
 69
     0
  0
VISUALSTYLE
  5
29C
102
{ACAD_REACTORS
330
296
102
}
330
296
100
AcDbVisualStyle
  2
2dWireframe
 70
     4
 71
     0
 72
     2
 73
     0
 90
        0
 40
-0.6
 41
-30.0
 62
     5
 63
     7
421
 16777215
 74
     1
 91
        4
 64
     7
 65
   257
 75
     1
175
     1
 42
1.0
 92
        0
 66
   257
 43
1.0
 76
     1
 77
     6
 78
     2
 67
     7
 79
     5
170
     0
171
     0
290
     0
174
     0
 93
        1
 44
0.0
173
     0
291
     0
 45
0.0
  0
VISUALSTYLE
  5
29E
102
{ACAD_REACTORS
330
296
102
}
330
296
100
AcDbVisualStyle
  2
3D Hidden
 70
     6
 71
     1
 72
     2
 73
     2
 90
        0
 40
-0.6
 41
-30.0
 62
     5
 63
     7
421
 16777215
 74
     2
 91
        2
 64
     7
 65
   257
 75
     2
175
     1
 42
40.0
 92
        0
 66
   257
 43
1.0
 76
     1
 77
     6
 78
     2
 67
     7
 79
     3
170
     0
171
     0
290
     0
174
     0
 93
        1
 44
0.0
173
     0
291
     0
 45
0.0
  0
VISUALSTYLE
  5
29D
102
{ACAD_REACTORS
330
296
102
}
330
296
100
AcDbVisualStyle
  2
3dWireframe
 70
     5
 71
     0
 72
     2
 73
     0
 90
        0
 40
-0.6
 41
-30.0
 62
     5
 63
     7
421
 16777215
 74
     1
 91
        4
 64
     7
 65
   257
 75
     1
175
     1
 42
1.0
 92
        0
 66
   257
 43
1.0
 76
     1
 77
     6
 78
     2
 67
     7
 79
     5
170
     0
171
     0
290
     0
174
     0
 93
        1
 44
0.0
173
     0
291
     0
 45
0.0
  0
VISUALSTYLE
  5
29B
102
{ACAD_REACTORS
330
296
102
}
330
296
100
AcDbVisualStyle
  2
Basic
 70
     7
 71
     1
 72
     0
 73
     1
 90
        0
 40
-0.6
 41
-30.0
 62
     5
 63
     7
421
 16777215
 74
     0
 91
        4
 64
     7
 65
   257
 75
     1
175
     1
 42
1.0
 92
        8
 66
     7
 43
1.0
 76
     1
 77
     6
 78
     2
 67
     7
 79
     5
170
     0
171
     0
290
     0
174
     0
 93
        1
 44
0.0
173
     0
291
     1
 45
0.0
  0
VISUALSTYLE
  5
2A2
102
{ACAD_REACTORS
330
296
102
}
330
296
100
AcDbVisualStyle
  2
Brighten
 70
    12
 71
     2
 72
     2
 73
     0
 90
        0
 40
-0.6
 41
-30.0
 62
     5
 63
     7
421
 16777215
 74
     1
 91
        4
 64
     7
 65
   257
 75
     1
175
     1
 42
1.0
 92
        8
 66
     7
 43
1.0
 76
     1
 77
     6
 78
     2
 67
     7
 79
     5
170
     0
171
     0
290
     0
174
     0
 93
        1
 44
50.0
173
     0
291
     1
 45
0.0
  0
VISUALSTYLE
  5
2A6
102
{ACAD_REACTORS
330
296
102
}
330
296
100
AcDbVisualStyle
  2
ColorChange
 70
    16
 71
     2
 72
     2
 73
     3
 90
        0
 40
-0.6
 41
-30.0
 62
     5
 63
     8
421
  8421504
 74
     1
 91
        4
 64
     7
 65
   257
 75
     1
175
     1
 42
1.0
 92
        8
 66
     8
424
  8421504
 43
1.0
 76
     1
 77
     6
 78
     2
 67
     7
 79
     5
170
     0
171
     0
290
     0
174
     0
 93
        1
 44
0.0
173
     0
291
     1
 45
0.0
  0
VISUALSTYLE
  5
29F
102
{ACAD_REACTORS
330
296
102
}
330
296
100
AcDbVisualStyle
  2
Conceptual
 70
     9
 71
     3
 72
     2
 73
     0
 90
        0
 40
-0.6
 41
-30.0
 62
     5
 63
     7
421
 16777215
 74
     2
 91
        2
 64
     7
 65
   257
 75
     1
175
     1
 42
40.0
 92
        8
 66
     7
 43
1.0
 76
     1
 77
     6
 78
     2
 67
     7
 79
     3
170
     0
171
     0
290
     0
174
     0
 93
        1
 44
0.0
173
     0
291
     0
 45
0.0
  0
VISUALSTYLE
  5
2A1
102
{ACAD_REACTORS
330
296
102
}
330
296
100
AcDbVisualStyle
  2
Dim
 70
    11
 71
     2
 72
     2
 73
     0
 90
        0
 40
-0.6
 41
-30.0
 62
     5
 63
     7
421
 16777215
 74
     1
 91
        4
 64
     7
 65
   257
 75
     1
175
     1
 42
1.0
 92
        8
 66
     7
 43
1.0
 76
     1
 77
     6
 78
     2
 67
     7
 79
     5
170
     0
171
     0
290
     0
174
     0
 93
        1
 44
-50.0
173
     0
291
     1
 45
0.0
  0
VISUALSTYLE
  5
2A5
102
{ACAD_REACTORS
330
296
102
}
330
296
100
AcDbVisualStyle
  2
Facepattern
 70
    15
 71
     2
 72
     2
 73
     0
 90
        0
 40
-0.6
 41
-30.0
 62
     5
 63
     7
421
 16777215
 74
     1
 91
        4
 64
     7
 65
   257
 75
     1
175
     1
 42
1.0
 92
        8
 66
     7
 43
1.0
 76
     1
 77
     6
 78
     2
 67
     7
 79
     5
170
     0
171
     0
290
     0
174
     0
 93
        1
 44
0.0
173
     0
291
     1
 45
0.0
  0
VISUALSTYLE
  5
297
102
{ACAD_REACTORS
330
296
102
}
330
296
100
AcDbVisualStyle
  2
Flat
 70
     0
 71
     2
 72
     1
 73
     1
 90
        2
 40
-0.6
 41
30.0
 62
     5
 63
     7
421
 16777215
 74
     0
 91
        4
 64
     7
 65
   257
 75
     1
175
     1
 42
1.0
 92
        8
 66
     7
 43
1.0
 76
     1
 77
     6
 78
     2
 67
     7
 79
     5
170
     0
171
     0
290
     0
174
     0
 93
       13
 44
0.0
173
     0
291
     1
 45
0.0
  0
VISUALSTYLE
  5
298
102
{ACAD_REACTORS
330
296
102
}
330
296
100
AcDbVisualStyle
  2
FlatWithEdges
 70
     1
 71
     2
 72
     1
 73
     1
 90
        2
 40
-0.6
 41
30.0
 62
     5
 63
     7
421
 16777215
 74
     1
 91
        4
 64
     7
 65
   257
 75
     1
175
     1
 42
1.0
 92
        0
 66
   257
 43
1.0
 76
     1
 77
     6
 78
     2
 67
     7
 79
     5
170
     0
171
     0
290
     0
174
     0
 93
       13
 44
0.0
173
     0
291
     1
 45
0.0
  0
VISUALSTYLE
  5
299
102
{ACAD_REACTORS
330
296
102
}
330
296
100
AcDbVisualStyle
  2
Gouraud
 70
     2
 71
     2
 72
     2
 73
     1
 90
        2
 40
-0.6
 41
30.0
 62
     5
 63
     7
421
 16777215
 74
     0
 91
        4
 64
     7
 65
   257
 75
     1
175
     1
 42
1.0
 92
        0
 66
     7
 43
1.0
 76
     1
 77
     6
 78
     2
 67
     7
 79
     5
170
     0
171
     0
290
     0
174
     0
 93
       13
 44
0.0
173
     0
291
     1
 45
0.0
  0
VISUALSTYLE
  5
29A
102
{ACAD_REACTORS
330
296
102
}
330
296
100
AcDbVisualStyle
  2
GouraudWithEdges
 70
     3
 71
     2
 72
     2
 73
     1
 90
        2
 40
-0.6
 41
30.0
 62
     5
 63
     7
421
 16777215
 74
     1
 91
        4
 64
     7
 65
   257
 75
     1
175
     1
 42
1.0
 92
        0
 66
   257
 43
1.0
 76
     1
 77
     6
 78
     2
 67
     7
 79
     5
170
     0
171
     0
290
     0
174
     0
 93
       13
 44
0.0
173
     0
291
     1
 45
0.0
  0
VISUALSTYLE
  5
2A4
102
{ACAD_REACTORS
330
296
102
}
330
296
100
AcDbVisualStyle
  2
Linepattern
 70
    14
 71
     2
 72
     2
 73
     0
 90
        0
 40
-0.6
 41
-30.0
 62
     5
 63
     7
421
 16777215
 74
     1
 91
        4
 64
     7
 65
   257
 75
     7
175
     7
 42
1.0
 92
        8
 66
     7
 43
1.0
 76
     1
 77
     6
 78
     2
 67
     7
 79
     5
170
     0
171
     0
290
     0
174
     0
 93
        1
 44
0.0
173
     0
291
     1
 45
0.0
  0
VISUALSTYLE
  5
2A0
102
{ACAD_REACTORS
330
296
102
}
330
296
100
AcDbVisualStyle
  2
Realistic
 70
     8
 71
     2
 72
     2
 73
     0
 90
        0
 40
-0.6
 41
-30.0
 62
     5
 63
     7
421
 16777215
 74
     1
 91
        0
 64
     7
 65
   257
 75
     1
175
     1
 42
1.0
 92
        8
 66
     8
424
  7895160
 43
1.0
 76
     1
 77
     6
 78
     2
 67
     7
 79
     5
170
     0
171
     0
290
     0
174
     0
 93
       13
 44
0.0
173
     0
291
     0
 45
0.0
  0
VISUALSTYLE
  5
2A3
102
{ACAD_REACTORS
330
296
102
}
330
296
100
AcDbVisualStyle
  2
Thicken
 70
    13
 71
     2
 72
     2
 73
     0
 90
        0
 40
-0.6
 41
-30.0
 62
     5
 63
     7
421
 16777215
 74
     1
 91
        4
 64
     7
 65
   257
 75
     1
175
     1
 42
1.0
 92
       12
 66
     7
 43
1.0
 76
     1
 77
     6
 78
     2
 67
     7
 79
     5
170
     0
171
     0
290
     0
174
     0
 93
        1
 44
0.0
173
     0
291
     1
 45
0.0
  0
DICTIONARYVAR
  5
310
102
{ACAD_REACTORS
330
9E
102
}
330
9E
100
DictionaryVariables
280
     0
  1
1:1
  0
DICTIONARYVAR
  5
30E
102
{ACAD_REACTORS
330
9E
102
}
330
9E
100
DictionaryVariables
280
     0
  1
STANDARD
  0
DICTIONARYVAR
  5
144
102
{ACAD_REACTORS
330
9E
102
}
330
9E
100
DictionaryVariables
280
     0
  1
STANDARD
  0
DICTIONARYVAR
  5
A0
102
{ACAD_REACTORS
330
9E
102
}
330
9E
100
DictionaryVariables
280
     0
  1
2
  0
DICTIONARYVAR
  5
9F
102
{ACAD_REACTORS
330
9E
102
}
330
9E
100
DictionaryVariables
280
     0
  1
1
  0
DICTIONARYVAR
  5
36B
102
{ACAD_REACTORS
330
9E
102
}
330
9E
100
DictionaryVariables
280
     0
  1
1
  0
DICTIONARYVAR
  5
36C
102
{ACAD_REACTORS
330
9E
102
}
330
9E
100
DictionaryVariables
280
     0
  1
15
  0
DICTIONARYVAR
  5
311
102
{ACAD_REACTORS
330
9E
102
}
330
9E
100
DictionaryVariables
280
     0
  1
0
  0
DICTIONARYVAR
  5
30F
102
{ACAD_REACTORS
330
9E
102
}
330
9E
100
DictionaryVariables
280
     0
  1
0
  0
DICTIONARY
  5
69
102
{ACAD_REACTORS
330
63
102
}
330
63
100
AcDbDictionary
281
     1
  0
XRECORD
  5
12C
102
{ACAD_REACTORS
330
63
102
}
330
63
100
AcDbXrecord
280
     1
 90
-1023410169
  0
DICTIONARY
  5
30B
330
124
100
AcDbDictionary
280
     1
281
     1
  3
ACAD_ROUNDTRIP_2008_TABLESTYLE_CELLSTYLEMAP
360
882
  0
CELLSTYLEMAP
  5
882
102
{ACAD_REACTORS
330
30B
102
}
330
30B
100
AcDbCellStyleMap
 90
        3
300
CELLSTYLE
  1
TABLEFORMAT_BEGIN
 90
        5
170
     1
 91
        0
 92
    32768
 62
   257
 93
        1
300
CONTENTFORMAT
  1
CONTENTFORMAT_BEGIN
 90
        0
 91
        0
 92
      512
 93
        0
300

 40
0.0
140
1.0
 94
        5
 62
     0
340
11
144
0.25
309
CONTENTFORMAT_END
171
     0
 94
        6
 95
        1
302
GRIDFORMAT
  1
GRIDFORMAT_BEGIN
 90
        0
 91
        1
 62
     0
 92
       -2
340
0
 93
        0
 40
0.045
309
GRIDFORMAT_END
 95
        2
302
GRIDFORMAT
  1
GRIDFORMAT_BEGIN
 90
        0
 91
        1
 62
     0
 92
       -2
340
0
 93
        0
 40
0.045
309
GRIDFORMAT_END
 95
        4
302
GRIDFORMAT
  1
GRIDFORMAT_BEGIN
 90
        0
 91
        1
 62
     0
 92
       -2
340
0
 93
        0
 40
0.045
309
GRIDFORMAT_END
 95
        8
302
GRIDFORMAT
  1
GRIDFORMAT_BEGIN
 90
        0
 91
        1
 62
     0
 92
       -2
340
0
 93
        0
 40
0.045
309
GRIDFORMAT_END
 95
       16
302
GRIDFORMAT
  1
GRIDFORMAT_BEGIN
 90
        0
 91
        1
 62
     0
 92
       -2
340
0
 93
        0
 40
0.045
309
GRIDFORMAT_END
 95
       32
302
GRIDFORMAT
  1
GRIDFORMAT_BEGIN
 90
        0
 91
        1
 62
     0
 92
       -2
340
0
 93
        0
 40
0.045
309
GRIDFORMAT_END
309
TABLEFORMAT_END
  1
CELLSTYLE_BEGIN
 90
        1
 91
        1
300
_TITLE
309
CELLSTYLE_END
300
CELLSTYLE
  1
TABLEFORMAT_BEGIN
 90
        5
170
     1
 91
        0
 92
        0
 62
   257
 93
        1
300
CONTENTFORMAT
  1
CONTENTFORMAT_BEGIN
 90
        0
 91
        0
 92
      512
 93
        0
300

 40
0.0
140
1.0
 94
        5
 62
     0
340
11
144
0.18
309
CONTENTFORMAT_END
171
     0
 94
        6
 95
        1
302
GRIDFORMAT
  1
GRIDFORMAT_BEGIN
 90
        0
 91
        1
 62
     0
 92
       -2
340
0
 93
        0
 40
0.045
309
GRIDFORMAT_END
 95
        2
302
GRIDFORMAT
  1
GRIDFORMAT_BEGIN
 90
        0
 91
        1
 62
     0
 92
       -2
340
0
 93
        0
 40
0.045
309
GRIDFORMAT_END
 95
        4
302
GRIDFORMAT
  1
GRIDFORMAT_BEGIN
 90
        0
 91
        1
 62
     0
 92
       -2
340
0
 93
        0
 40
0.045
309
GRIDFORMAT_END
 95
        8
302
GRIDFORMAT
  1
GRIDFORMAT_BEGIN
 90
        0
 91
        1
 62
     0
 92
       -2
340
0
 93
        0
 40
0.045
309
GRIDFORMAT_END
 95
       16
302
GRIDFORMAT
  1
GRIDFORMAT_BEGIN
 90
        0
 91
        1
 62
     0
 92
       -2
340
0
 93
        0
 40
0.045
309
GRIDFORMAT_END
 95
       32
302
GRIDFORMAT
  1
GRIDFORMAT_BEGIN
 90
        0
 91
        1
 62
     0
 92
       -2
340
0
 93
        0
 40
0.045
309
GRIDFORMAT_END
309
TABLEFORMAT_END
  1
CELLSTYLE_BEGIN
 90
        2
 91
        1
300
_HEADER
309
CELLSTYLE_END
300
CELLSTYLE
  1
TABLEFORMAT_BEGIN
 90
        5
170
     1
 91
        0
 92
        0
 62
   257
 93
        1
300
CONTENTFORMAT
  1
CONTENTFORMAT_BEGIN
 90
        0
 91
        0
 92
      512
 93
        0
300

 40
0.0
140
1.0
 94
        2
 62
     0
340
11
144
0.18
309
CONTENTFORMAT_END
171
     0
 94
        6
 95
        1
302
GRIDFORMAT
  1
GRIDFORMAT_BEGIN
 90
        0
 91
        1
 62
     0
 92
       -2
340
0
 93
        0
 40
0.045
309
GRIDFORMAT_END
 95
        2
302
GRIDFORMAT
  1
GRIDFORMAT_BEGIN
 90
        0
 91
        1
 62
     0
 92
       -2
340
0
 93
        0
 40
0.045
309
GRIDFORMAT_END
 95
        4
302
GRIDFORMAT
  1
GRIDFORMAT_BEGIN
 90
        0
 91
        1
 62
     0
 92
       -2
340
0
 93
        0
 40
0.045
309
GRIDFORMAT_END
 95
        8
302
GRIDFORMAT
  1
GRIDFORMAT_BEGIN
 90
        0
 91
        1
 62
     0
 92
       -2
340
0
 93
        0
 40
0.045
309
GRIDFORMAT_END
 95
       16
302
GRIDFORMAT
  1
GRIDFORMAT_BEGIN
 90
        0
 91
        1
 62
     0
 92
       -2
340
0
 93
        0
 40
0.045
309
GRIDFORMAT_END
 95
       32
302
GRIDFORMAT
  1
GRIDFORMAT_BEGIN
 90
        0
 91
        1
 62
     0
 92
       -2
340
0
 93
        0
 40
0.045
309
GRIDFORMAT_END
309
TABLEFORMAT_END
  1
CELLSTYLE_BEGIN
 90
        3
 91
        2
300
_DATA
309
CELLSTYLE_END
  0
ENDSEC
  0
EOF
