  0
SECTION
  2
HEADER
  9
$ACADVER
  1
AC1021
  9
$ACADMAINTVER
 70
    50
  9
$DWGCODEPAGE
  3
ANSI_936
  9
$LASTSAVEDBY
  1
ko69185
  9
$CUSTOMPROPERTYTAG
  1
AmdtFileType
  9
$CUSTOMPROPERTY
  1
84
  9
$INSBASE
 10
0.0
 20
0.0
 30
0.0
  9
$EXTMIN
 10
57.90289689757679
 20
37.65153793860229
 30
0.0
  9
$EXTMAX
 10
134.449135151487
 20
186.0216195165023
 30
0.0
  9
$LIMMIN
 10
0.0
 20
0.0
  9
$LIMMAX
 10
17.0
 20
11.0
  9
$ORTHOMODE
 70
     0
  9
$REGENMODE
 70
     1
  9
$FILLMODE
 70
     1
  9
$QTEXTMODE
 70
     0
  9
$MIRRTEXT
 70
     1
  9
$LTSCALE
 40
1.0
  9
$ATTMODE
 70
     1
  9
$TEXTSIZE
 40
0.2
  9
$TRACEWID
 40
0.05
  9
$TEXTSTYLE
  7
STANDARD
  9
$CLAYER
  8
0
  9
$CELTYPE
  6
ByLayer
  9
$CECOLOR
 62
   256
  9
$CELTSCALE
 40
1.0
  9
$DISPSILH
 70
     0
  9
$DIMSCALE
 40
1.0
  9
$DIMASZ
 40
0.12
  9
$DIMEXO
 40
0.05
  9
$DIMDLI
 40
0.5
  9
$DIMRND
 40
0.0
  9
$DIMDLE
 40
0.0
  9
$DIMEXE
 40
0.1
  9
$DIMTP
 40
0.1
  9
$DIMTM
 40
0.1
  9
$DIMTXT
 40
0.12
  9
$DIMCEN
 40
0.0
  9
$DIMTSZ
 40
0.0
  9
$DIMTOL
 70
     0
  9
$DIMLIM
 70
     0
  9
$DIMTIH
 70
     1
  9
$DIMTOH
 70
     1
  9
$DIMSE1
 70
     0
  9
$DIMSE2
 70
     0
  9
$DIMTAD
 70
     0
  9
$DIMZIN
 70
     7
  9
$DIMBLK
  1

  9
$DIMASO
 70
     1
  9
$DIMSHO
 70
     1
  9
$DIMPOST
  1

  9
$DIMAPOST
  1
mm
  9
$DIMALT
 70
     0
  9
$DIMALTD
 70
     2
  9
$DIMALTF
 40
25.4
  9
$DIMLFAC
 40
1.0
  9
$DIMTOFL
 70
     0
  9
$DIMTVP
 40
0.0
  9
$DIMTIX
 70
     0
  9
$DIMSOXD
 70
     0
  9
$DIMSAH
 70
     0
  9
$DIMBLK1
  1

  9
$DIMBLK2
  1

  9
$DIMSTYLE
  2
AM_ANSI
  9
$DIMCLRD
 70
   256
  9
$DIMCLRE
 70
   256
  9
$DIMCLRT
 70
   140
  9
$DIMTFAC
 40
0.71
  9
$DIMGAP
 40
0.06
  9
$DIMJUST
 70
     0
  9
$DIMSD1
 70
     0
  9
$DIMSD2
 70
     0
  9
$DIMTOLJ
 70
     1
  9
$DIMTZIN
 70
     7
  9
$DIMALTZ
 70
     0
  9
$DIMALTTZ
 70
     0
  9
$DIMUPT
 70
     0
  9
$DIMDEC
 70
     4
  9
$DIMTDEC
 70
     4
  9
$DIMALTU
 70
     2
  9
$DIMALTTD
 70
     4
  9
$DIMTXSTY
  7
STANDARD
  9
$DIMAUNIT
 70
     0
  9
$DIMADEC
 70
     0
  9
$DIMALTRND
 40
0.0
  9
$DIMAZIN
 70
     2
  9
$DIMDSEP
 70
    46
  9
$DIMATFIT
 70
     3
  9
$DIMFRAC
 70
     0
  9
$DIMLDRBLK
  1

  9
$DIMLUNIT
 70
     2
  9
$DIMLWD
 70
    -1
  9
$DIMLWE
 70
    -1
  9
$DIMTMOVE
 70
     0
  9
$DIMFXL
 40
1.0
  9
$DIMFXLON
 70
     0
  9
$DIMJOGANG
 40
0.7853981633974483
  9
$DIMTFILL
 70
     0
  9
$DIMTFILLCLR
 70
     0
  9
$DIMARCSYM
 70
     1
  9
$DIMLTYPE
  6
ByBlock
  9
$DIMLTEX1
  6
ByBlock
  9
$DIMLTEX2
  6
ByBlock
  9
$LUNITS
 70
     2
  9
$LUPREC
 70
     4
  9
$SKETCHINC
 40
0.1
  9
$FILLETRAD
 40
0.125
  9
$AUNITS
 70
     0
  9
$AUPREC
 70
     0
  9
$MENU
  1
.
  9
$ELEVATION
 40
0.0
  9
$PELEVATION
 40
0.0
  9
$THICKNESS
 40
0.0
  9
$LIMCHECK
 70
     0
  9
$CHAMFERA
 40
0.125
  9
$CHAMFERB
 40
0.125
  9
$CHAMFERC
 40
1.0
  9
$CHAMFERD
 40
0.0
  9
$SKPOLY
 70
     0
  9
$TDCREATE
 40
2455344.694878519
  9
$TDUCREATE
 40
2455344.361545185
  9
$TDUPDATE
 40
2455344.695132199
  9
$TDUUPDATE
 40
2455344.361798866
  9
$TDINDWG
 40
0.0002542245
  9
$TDUSRTIMER
 40
0.0002542245
  9
$USRTIMER
 70
     1
  9
$ANGBASE
 50
0.0
  9
$ANGDIR
 70
     0
  9
$PDMODE
 70
     0
  9
$PDSIZE
 40
0.0
  9
$PLINEWID
 40
0.0
  9
$SPLFRAME
 70
     0
  9
$SPLINETYPE
 70
     6
  9
$SPLINESEGS
 70
     8
  9
$HANDSEED
  5
7C5
  9
$SURFTAB1
 70
     6
  9
$SURFTAB2
 70
     6
  9
$SURFTYPE
 70
     6
  9
$SURFU
 70
     6
  9
$SURFV
 70
     6
  9
$UCSBASE
  2

  9
$UCSNAME
  2

  9
$UCSORG
 10
0.0
 20
0.0
 30
0.0
  9
$UCSXDIR
 10
1.0
 20
0.0
 30
0.0
  9
$UCSYDIR
 10
0.0
 20
1.0
 30
0.0
  9
$UCSORTHOREF
  2

  9
$UCSORTHOVIEW
 70
     0
  9
$UCSORGTOP
 10
0.0
 20
0.0
 30
0.0
  9
$UCSORGBOTTOM
 10
0.0
 20
0.0
 30
0.0
  9
$UCSORGLEFT
 10
0.0
 20
0.0
 30
0.0
  9
$UCSORGRIGHT
 10
0.0
 20
0.0
 30
0.0
  9
$UCSORGFRONT
 10
0.0
 20
0.0
 30
0.0
  9
$UCSORGBACK
 10
0.0
 20
0.0
 30
0.0
  9
$PUCSBASE
  2

  9
$PUCSNAME
  2

  9
$PUCSORG
 10
0.0
 20
0.0
 30
0.0
  9
$PUCSXDIR
 10
1.0
 20
0.0
 30
0.0
  9
$PUCSYDIR
 10
0.0
 20
1.0
 30
0.0
  9
$PUCSORTHOREF
  2

  9
$PUCSORTHOVIEW
 70
     0
  9
$PUCSORGTOP
 10
0.0
 20
0.0
 30
0.0
  9
$PUCSORGBOTTOM
 10
0.0
 20
0.0
 30
0.0
  9
$PUCSORGLEFT
 10
0.0
 20
0.0
 30
0.0
  9
$PUCSORGRIGHT
 10
0.0
 20
0.0
 30
0.0
  9
$PUCSORGFRONT
 10
0.0
 20
0.0
 30
0.0
  9
$PUCSORGBACK
 10
0.0
 20
0.0
 30
0.0
  9
$USERI1
 70
     0
  9
$USERI2
 70
     0
  9
$USERI3
 70
     0
  9
$USERI4
 70
     0
  9
$USERI5
 70
     0
  9
$USERR1
 40
0.0
  9
$USERR2
 40
0.0
  9
$USERR3
 40
0.0
  9
$USERR4
 40
0.0
  9
$USERR5
 40
0.0
  9
$WORLDVIEW
 70
     1
  9
$SHADEDGE
 70
     3
  9
$SHADEDIF
 70
    70
  9
$TILEMODE
 70
     1
  9
$MAXACTVP
 70
    64
  9
$PINSBASE
 10
0.0
 20
0.0
 30
0.0
  9
$PLIMCHECK
 70
     0
  9
$PEXTMIN
 10
1.000000000000000E+20
 20
1.000000000000000E+20
 30
1.000000000000000E+20
  9
$PEXTMAX
 10
-1.000000000000000E+20
 20
-1.000000000000000E+20
 30
-1.000000000000000E+20
  9
$PLIMMIN
 10
0.0
 20
0.0
  9
$PLIMMAX
 10
12.0
 20
9.0
  9
$UNITMODE
 70
     0
  9
$VISRETAIN
 70
     1
  9
$PLINEGEN
 70
     0
  9
$PSLTSCALE
 70
     1
  9
$TREEDEPTH
 70
  3020
  9
$CMLSTYLE
  2
Standard
  9
$CMLJUST
 70
     0
  9
$CMLSCALE
 40
1.0
  9
$PROXYGRAPHICS
 70
     1
  9
$MEASUREMENT
 70
     0
  9
$CELWEIGHT
370
    -1
  9
$ENDCAPS
280
     0
  9
$JOINSTYLE
280
     0
  9
$LWDISPLAY
290
     0
  9
$INSUNITS
 70
     1
  9
$HYPERLINKBASE
  1

  9
$STYLESHEET
  1

  9
$XEDIT
290
     1
  9
$CEPSNTYPE
380
     0
  9
$PSTYLEMODE
290
     1
  9
$FINGERPRINTGUID
  2
{2B939D61-04E6-4FE4-92B3-486E759F639B}
  9
$VERSIONGUID
  2
{ADF1E6C4-1C82-4534-87FC-053E0B44DD7D}
  9
$EXTNAMES
290
     1
  9
$PSVPSCALE
 40
0.0
  9
$OLESTARTUP
290
     0
  9
$SORTENTS
280
   127
  9
$INDEXCTL
280
     0
  9
$HIDETEXT
280
     0
  9
$XCLIPFRAME
290
     0
  9
$HALOGAP
280
     0
  9
$OBSCOLOR
 70
   257
  9
$OBSLTYPE
280
     0
  9
$INTERSECTIONDISPLAY
280
     0
  9
$INTERSECTIONCOLOR
 70
   257
  9
$DIMASSOC
280
     2
  9
$PROJECTNAME
  1

  9
$CAMERADISPLAY
290
     0
  9
$LENSLENGTH
 40
50.0
  9
$CAMERAHEIGHT
 40
0.0
  9
$STEPSPERSEC
 40
2.0
  9
$STEPSIZE
 40
6.0
  9
$3DDWFPREC
 40
2.0
  9
$PSOLWIDTH
 40
0.25
  9
$PSOLHEIGHT
 40
4.0
  9
$LOFTANG1
 40
1.570796326794896
  9
$LOFTANG2
 40
1.570796326794896
  9
$LOFTMAG1
 40
0.0
  9
$LOFTMAG2
 40
0.0
  9
$LOFTPARAM
 70
     7
  9
$LOFTNORMALS
280
     1
  9
$LATITUDE
 40
37.795
  9
$LONGITUDE
 40
-122.394
  9
$NORTHDIRECTION
 40
0.0
  9
$TIMEZONE
 70
 -8000
  9
$LIGHTGLYPHDISPLAY
280
     1
  9
$TILEMODELIGHTSYNCH
280
     1
  9
$CMATERIAL
347
293
  9
$SOLIDHIST
280
     1
  9
$SHOWHIST
280
     1
  9
$DWFFRAME
280
     2
  9
$DGNFRAME
280
     0
  9
$REALWORLDSCALE
290
     1
  9
$INTERFERECOLOR
 62
     1
  9
$INTERFEREOBJVS
345
2A0
  9
$INTERFEREVPVS
346
29D
  9
$CSHADOW
280
     0
  9
$SHADOWPLANELOCATION
 40
0.0
  0
ENDSEC
  0
SECTION
  2
CLASSES
  0
CLASS
  1
ACDBDICTIONARYWDFLT
  2
AcDbDictionaryWithDefault
  3
ObjectDBX Classes
 90
        0
 91
        1
280
     0
281
     0
  0
CLASS
  1
ACME_DOCUMENT
  2
AcMeDbDoc
  3
AcMeServices
 90
     1024
 91
        2
280
     0
281
     0
  0
CLASS
  1
AMGSETTINGSOBJ
  2
AmgSettingsObj
  3
"AcadM|Product Description: AutoCAD Mechanical|Company: Autodesk, Inc."
 90
     1024
 91
        4
280
     0
281
     0
  0
CLASS
  1
ACMESCOPE
  2
AcMeScope
  3
AcMeServices
 90
     1024
 91
        1
280
     0
281
     0
  0
CLASS
  1
ACMECOMMANDHISTORY
  2
AcMeCommandHistory
  3
AcMeServices
 90
     1024
 91
        1
280
     0
281
     0
  0
CLASS
  1
ACIMSYSVARMAN
  2
AcImSysVarManager
  3
AcMeServices
 90
     1024
 91
        5
280
     0
281
     0
  0
CLASS
  1
ACIMREALSYSVAR
  2
AcImRealSysVar
  3
AcMeServices
 90
     1024
 91
        3
280
     0
281
     0
  0
CLASS
  1
ACIMINTSYSVAR
  2
AcImIntSysVar
  3
AcMeServices
 90
     1024
 91
       27
280
     0
281
     0
  0
CLASS
  1
ACMEDRAWINGMAN
  2
AcMeDrawingMan
  3
AcMeServices
 90
     1024
 91
        1
280
     0
281
     0
  0
CLASS
  1
ACMEVIEW
  2
AcMeView
  3
AcMeServices
 90
     1024
 91
        1
280
     0
281
     0
  0
CLASS
  1
ACDBENTITYCACHE
  2
AcMeEntityCache
  3
AcMeServices
 90
     1024
 91
        1
280
     0
281
     0
  0
CLASS
  1
GSMANAGER
  2
AcMeGSManager
  3
AcMeServices
 90
     1024
 91
        1
280
     0
281
     0
  0
CLASS
  1
AMDTINTERNALREACTOR
  2
AmdtInternalReactor
  3
AcMeServices
 90
     1024
 91
        2
280
     0
281
     0
  0
CLASS
  1
ACMESTATEMGR
  2
AcMeStateMgr
  3
AcMeServices
 90
     1024
 91
        1
280
     0
281
     0
  0
CLASS
  1
ACGREFMASTER
  2
AcGrefMaster
  3
AcAttribServices
 90
     1024
 91
        1
280
     0
281
     0
  0
CLASS
  1
ACME_DATABASE
  2
AcMeDbDatabase
  3
AcMeServices
 90
     1024
 91
        2
280
     0
281
     0
  0
CLASS
  1
ACRFINSADJUSTERMGR
  2
AcRfInsAdjusterMgr
  3
AcMeServices
 90
     1024
 91
        1
280
     0
281
     0
  0
CLASS
  1
ACGREFACADMASTER
  2
AcGrefacadMaster
  3
AcGrefServices
 90
     1024
 91
        1
280
     0
281
     0
  0
CLASS
  1
AMIMASTER
  2
AmiMaster
  3
AmiServices
 90
     1024
 91
        1
280
     0
281
     0
  0
CLASS
  1
ACMDATADICTIONARY
  2
AcmDataDictionary
  3
"AcmSymBB|Product Description: AutoCAD Mechanical|Company: Autodesk, Inc."
 90
     1024
 91
        1
280
     0
281
     0
  0
CLASS
  1
ACMDATAENTRYBLOCK
  2
AcmDataEntryBlock
  3
AcmSymBB|Product Description: AutoCAD Mechanical|Company: Autodesk, Inc.
 90
     1024
 91
        2
280
     0
281
     0
  0
CLASS
  1
ACIMSTRSYSVAR
  2
AcImStrSysVar
  3
AcMeServices
 90
     1024
 91
        5
280
     0
281
     0
  0
CLASS
  1
ACMSTANDARDANSI
  2
AcmStandardANSI
  3
"Amdt_StdImp|Product Description: AutoCAD Mechanical|Company: Autodesk, Inc."
 90
     1024
 91
        1
280
     0
281
     0
  0
CLASS
  1
AMGOBJPROPCFG
  2
AmgObjPropCfg
  3
"AmgLay|Product Description: AutoCAD Mechanical|Company: Autodesk, Inc."
 90
     1025
 91
        1
280
     0
281
     0
  0
CLASS
  1
ACMSURFSTANDARDANSI
  2
AcmSurfTextStdANSI
  3
"Amdt_StdImp|Product Description: AutoCAD Mechanical|Company: Autodesk, Inc."
 90
     1024
 91
        1
280
     0
281
     0
  0
CLASS
  1
ACMFCFSTANDARDANSI
  2
AcmFCFStdANSI
  3
"Amdt_StdImp|Product Description: AutoCAD Mechanical|Company: Autodesk, Inc."
 90
     1024
 91
        1
280
     0
281
     0
  0
CLASS
  1
ACMWELDSTANDARDANSI
  2
AcmWeldingStdANSI
  3
"Amdt_StdImp|Product Description: AutoCAD Mechanical|Company: Autodesk, Inc."
 90
     1024
 91
        1
280
     0
281
     0
  0
CLASS
  1
ACMIDSTANDARDANSI
  2
AcmIdStdANSI
  3
"Amdt_StdImp|Product Description: AutoCAD Mechanical|Company: Autodesk, Inc."
 90
     1024
 91
        1
280
     0
281
     0
  0
CLASS
  1
ACMDATUMSTANDARDANSI
  2
AcmDatumStdANSI
  3
"Amdt_StdImp|Product Description: AutoCAD Mechanical|Company: Autodesk, Inc."
 90
     1024
 91
        1
280
     0
281
     0
  0
CLASS
  1
ACMBOMSTANDARDANSI
  2
AcmBOMStdANSI
  3
"Amdt_StdImp|Product Description: AutoCAD Mechanical|Company: Autodesk, Inc."
 90
     1024
 91
        1
280
     0
281
     0
  0
CLASS
  1
ACMDETAILSTANDARDANSI
  2
AmdtDetailSymStdANSI
  3
"Amdt_StdImp|Product Description: AutoCAD Mechanical|Company: Autodesk, Inc."
 90
     1024
 91
        1
280
     0
281
     0
  0
CLASS
  1
ACMSECTIONSTANDARDANSI
  2
AmdtSectionSymStdANSI
  3
"Amdt_StdImp|Product Description: AutoCAD Mechanical|Company: Autodesk, Inc."
 90
     1024
 91
        1
280
     0
281
     0
  0
CLASS
  1
ACMCENTERLINESTANDARDANSI
  2
AmdtCenterLineStdANSI
  3
"Amdt_StdImp|Product Description: AutoCAD Mechanical|Company: Autodesk, Inc."
 90
     1024
 91
        1
280
     0
281
     0
  0
CLASS
  1
ACMNOTESTANDARDANSI
  2
AmdtNoteStdANSI
  3
"Amdt_StdImp|Product Description: AutoCAD Mechanical|Company: Autodesk, Inc."
 90
     1024
 91
        1
280
     0
281
     0
  0
CLASS
  1
ACAMGLAYSTD
  2
AcAmgLayStd
  3
"AmgLay|Product Description: AutoCAD Mechanical|Company: Autodesk, Inc."
 90
     1024
 91
        1
280
     0
281
     0
  0
CLASS
  1
ACAMGDIMSTD
  2
AcAmgDimStd
  3
"AmgDim|Product Description: AutoCAD Mechanical|Company: Autodesk, Inc."
 90
     1024
 91
        1
280
     0
281
     0
  0
CLASS
  1
ACAMGHOLECHARTSTDANSI
  2
AcAmgHoleChartStdANSI
  3
AmgDim|Product Description: AutoCAD Mechanical|Company: Autodesk, Inc.
 90
     1024
 91
        1
280
     0
281
     0
  0
CLASS
  1
ACAMGTITLESTD
  2
AcAmgTitleStd
  3
"AmgTitle|Product Description: AutoCAD Mechanical|Company: Autodesk, Inc."
 90
     4095
 91
        1
280
     0
281
     0
  0
CLASS
  1
LAYER_INDEX
  2
AcDbLayerIndex
  3
ObjectDBX Classes
 90
        0
 91
        0
280
     0
281
     0
  0
CLASS
  1
IDBUFFER
  2
AcDbIdBuffer
  3
ObjectDBX Classes
 90
        0
 91
        0
280
     0
281
     0
  0
CLASS
  1
DICTIONARYVAR
  2
AcDbDictionaryVar
  3
ObjectDBX Classes
 90
        0
 91
        9
280
     0
281
     0
  0
CLASS
  1
AM_DRAWING_MGR
  2
AcDmDwgMgr
  3
AcMechDwgViewMgmt
 90
     1024
 91
        1
280
     0
281
     0
  0
CLASS
  1
AM_DWG_DOCUMENT
  2
AcDmDwgDocument
  3
AcMechDwgViewMgmt
 90
     1024
 91
        1
280
     0
281
     0
  0
CLASS
  1
AM_DWG_SHEET
  2
AcDmSheet
  3
AcMechDwgViewMgmt
 90
     1024
 91
        2
280
     0
281
     0
  0
CLASS
  1
AM_VIEWDIMPARMAP
  2
AcDmViewDimParMap
  3
AcMechDwgViewMgmt
 90
     1024
 91
        2
280
     0
281
     0
  0
CLASS
  1
AM_DWGMGR_NAME
  2
AcDmDwgMgrName
  3
AcMechDwgViewMgmt
 90
     1024
 91
        1
280
     0
281
     0
  0
CLASS
  1
AMDTMENUSTATEMGR
  2
AmdtMenuStateMgr
  3
McadcomServices
 90
     1024
 91
        1
280
     0
281
     0
  0
CLASS
  1
AMDTMCOMMENUSTATE
  2
AmdtMcomMenuState
  3
McadcomServices
 90
     1024
 91
        1
280
     0
281
     0
  0
CLASS
  1
MAPIAMMOUDLE
  2
MApiAmModule
  3
MApiAmServices
 90
     1024
 91
        1
280
     0
281
     0
  0
CLASS
  1
AMDTADMENUSTATE
  2
AmdtAdMenuState
  3
DesignerServices
 90
     1024
 91
        1
280
     0
281
     0
  0
CLASS
  1
ADAPPL
  2
AcAdAppl
  3
DesignerServices
 90
     1024
 91
        1
280
     0
281
     0
  0
CLASS
  1
DEPMGR
  2
AcAdDepMgr
  3
DesignerServices
 90
     1024
 91
        1
280
     0
281
     0
  0
CLASS
  1
PARAMMGR
  2
AcAdParamMgr
  3
DesignerServices
 90
     1024
 91
        1
280
     0
281
     0
  0
CLASS
  1
PARAMSCOPE
  2
AcAdParamScope
  3
DesignerServices
 90
     1024
 91
        1
280
     0
281
     0
  0
CLASS
  1
NAMEDAPPL
  2
AcAdNamedAppl
  3
DesignerServices
 90
     1024
 91
        1
280
     0
281
     0
  0
CLASS
  1
AMDTDMMENUSTATE
  2
AmdtDmMenuState
  3
AcMechDwgViewMgmt
 90
     1024
 91
        1
280
     0
281
     0
  0
CLASS
  1
AMDTAMMENUSTATE
  2
AmdtAmMenuState
  3
DesignerAssemblies
 90
     1024
 91
        1
280
     0
281
     0
  0
CLASS
  1
ACAMPROJECT
  2
AcAmProject
  3
DesignerAssemblies
 90
     1024
 91
        1
280
     0
281
     0
  0
CLASS
  1
ACAMGRCOMPDEF
  2
AcAmGrCompDef
  3
DesignerAssemblies
 90
     1024
 91
        1
280
     0
281
     0
  0
CLASS
  1
ACCMCONTEXT
  2
AcCmContext
  3
DesignerAssemblies
 90
     1024
 91
        1
280
     0
281
     0
  0
CLASS
  1
ACAMCOMPDEF
  2
AcAmCompDef
  3
DesignerAssemblies
 90
     1024
 91
        1
280
     0
281
     0
  0
CLASS
  1
ACAMCOMPDEFMGR
  2
AcAmCompDefMgr
  3
DesignerAssemblies
 90
     1024
 91
        1
280
     0
281
     0
  0
CLASS
  1
AMCONTEXTMGR
  2
AcAmContextMgr
  3
DesignerAssemblies
 90
     1024
 91
        1
280
     0
281
     0
  0
CLASS
  1
ACAMCONTEXTMODELER
  2
AcAmContextModeler
  3
DesignerAssemblies
 90
     1024
 91
        1
280
     0
281
     0
  0
CLASS
  1
ACMTHREADLINESTANDARDANSI
  2
AmdtThreadLineStdANSI
  3
"Amdt_StdImp|Product Description: AutoCAD Mechanical|Company: Autodesk, Inc."
 90
     1024
 91
        1
280
     0
281
     0
  0
CLASS
  1
CATALOGSTATE
  2
AcAmCatalogState
  3
DesignerAssemblies
 90
     1024
 91
        1
280
     0
281
     0
  0
CLASS
  1
ACAMGRCOMPDEFSET
  2
AcAmGrCompDefSet
  3
DesignerAssemblies
 90
     1024
 91
        1
280
     0
281
     0
  0
CLASS
  1
AMDTBROWSERDBTAB
  2
AmdtBrowserDbTab
  3
McadcomServices
 90
     1024
 91
        1
280
     0
281
     0
  0
CLASS
  1
CBROWSERAPPOBJECT
  2
CBrowserAppObject
  3
McadcomServices
 90
     1024
 91
        3
280
     0
281
     0
  0
CLASS
  1
DM_PLACEHOLDER
  2
AcDmSelsetPlaceholder
  3
AcMechDwgViewMgmt
 90
     1024
 91
        1
280
     0
281
     0
  0
CLASS
  1
TABLESTYLE
  2
AcDbTableStyle
  3
ObjectDBX Classes
 90
     4095
 91
        1
280
     0
281
     0
  0
CLASS
  1
AMDTNOTETEMPLATEDB
  2
AmdtNoteTemplateDB
  3
AcmSymBB|Product Description: AutoCAD Mechanical|Company: Autodesk, Inc.
 90
     1024
 91
        6
280
     0
281
     0
  0
CLASS
  1
MATERIAL
  2
AcDbMaterial
  3
ObjectDBX Classes
 90
     1153
 91
        3
280
     0
281
     0
  0
CLASS
  1
VISUALSTYLE
  2
AcDbVisualStyle
  3
ObjectDBX Classes
 90
     4095
 91
       16
280
     0
281
     0
  0
CLASS
  1
ACRFATTGENMGR
  2
AcRfAttGeneralMgr
  3
AcAttribServices
 90
     1024
 91
        1
280
     0
281
     0
  0
CLASS
  1
ACRFOBJATTMGR
  2
AcRfObjAttGroupMgr
  3
AcAttribServices
 90
     1024
 91
        1
280
     0
281
     0
  0
CLASS
  1
ACRFMCADAPIATTHOLDER
  2
AcRfMCADAPIAttHolder
  3
AcAttribServices
 90
     1024
 91
        1
280
     0
281
     0
  0
CLASS
  1
AMDTSYSATTR
  2
AmdtSystemAttribute
  3
AcAttribServices
 90
     1024
 91
        1
280
     0
281
     0
  0
CLASS
  1
ACMTAPERSTANDARDANSI
  2
AcmTaperStdANSI
  3
"Amdt_StdImp|Product Description: AutoCAD Mechanical|Company: Autodesk, Inc."
 90
     1024
 91
        1
280
     0
281
     0
  0
CLASS
  1
CAMSSTRUCTBTNSTATE
  2
StructBtnState
  3
DesignerAssemblies
 90
     1024
 91
        1
280
     0
281
     0
  0
CLASS
  1
SCALE
  2
AcDbScale
  3
ObjectDBX Classes
 90
     1153
 91
       33
280
     0
281
     0
  0
CLASS
  1
MLEADERSTYLE
  2
AcDbMLeaderStyle
  3
ACDB_MLEADERSTYLE_CLASS
 90
     4095
 91
        1
280
     0
281
     0
  0
CLASS
  1
ACMANOOTATIONVIEWSTANDARDANSI
  2
AmdtAnViewStdANSI
  3
"Amdt_StdImp|Product Description: AutoCAD Mechanical|Company: Autodesk, Inc."
 90
     1024
 91
        1
280
     0
281
     0
  0
CLASS
  1
CELLSTYLEMAP
  2
AcDbCellStyleMap
  3
ObjectDBX Classes
 90
     1152
 91
        2
280
     0
281
     0
  0
CLASS
  1
EXACXREFPANELOBJECT
  2
ExAcXREFPanelObject
  3
EXAC_ESW
 90
     1025
 91
        1
280
     0
281
     0
  0
CLASS
  1
NPOCOLLECTION
  2
AcDbImpNonPersistentObjectsCollection
  3
ObjectDBX Classes
 90
     1153
 91
        1
280
     0
281
     0
  0
CLASS
  1
ACAMGFILTERDAT
  2
AcAmgFilterDat
  3
"AcadM|Product Description: AutoCAD Mechanical|Company: Autodesk, Inc."
 90
     1024
 91
        6
280
     0
281
     0
  0
ENDSEC
  0
SECTION
  2
TABLES
  0
TABLE
  2
VPORT
  5
8
330
0
100
AcDbSymbolTable
 70
     1
  0
VPORT
  5
291
330
8
100
AcDbSymbolTableRecord
100
AcDbViewportTableRecord
  2
*Active
 70
     0
 10
0.0
 20
0.0
 11
1.0
 21
1.0
 12
91.33290642762904
 22
111.8365787275523
 13
0.0
 23
0.0
 14
0.125
 24
0.125
 15
1.0
 25
1.0
 16
0.0
 26
0.0
 36
1.0
 17
0.0
 27
0.0
 37
0.0
 40
204.4047067666665
 41
1.442643391521196
 42
50.0
 43
0.0
 44
0.0
 50
0.0
 51
0.0
 71
     0
 72
   100
 73
     1
 74
     3
 75
     0
 76
     0
 77
     0
 78
     0
281
     0
 65
     1
110
0.0
120
0.0
130
0.0
111
1.0
121
0.0
131
0.0
112
0.0
122
1.0
132
0.0
 79
     0
146
0.0
348
29C
 60
     3
 61
     5
292
     1
282
     0
141
0.0
142
0.0
 63
   250
421
  3355443
  0
ENDTAB
  0
TABLE
  2
LTYPE
  5
5
330
0
100
AcDbSymbolTable
 70
    16
  0
LTYPE
  5
14
330
5
100
AcDbSymbolTableRecord
100
AcDbLinetypeTableRecord
  2
ByBlock
 70
     0
  3

 72
    65
 73
     0
 40
0.0
  0
LTYPE
  5
15
330
5
100
AcDbSymbolTableRecord
100
AcDbLinetypeTableRecord
  2
ByLayer
 70
     0
  3

 72
    65
 73
     0
 40
0.0
  0
LTYPE
  5
16
330
5
100
AcDbSymbolTableRecord
100
AcDbLinetypeTableRecord
  2
Continuous
 70
     0
  3
Solid line
 72
    65
 73
     0
 40
0.0
  0
LTYPE
  5
6C
330
5
100
AcDbSymbolTableRecord
100
AcDbLinetypeTableRecord
  2
AM_ISO02W050
 70
     0
  3
__ __ __ __ __ __ __ __ __ __ __ __ __ __ __
 72
    65
 73
     2
 40
7.5
 49
6.0
 74
     0
 49
-1.5
 74
     0
  0
LTYPE
  5
6D
330
5
100
AcDbSymbolTableRecord
100
AcDbLinetypeTableRecord
  2
AM_ISO08W050
 70
     0
  3
____ . ____ . ____ . ____ . ____ . ____ . ____
 72
    65
 73
     4
 40
18.0
 49
12.0
 74
     0
 49
-1.5
 74
     0
 49
3.0
 74
     0
 49
-1.5
 74
     0
  0
LTYPE
  5
6E
330
5
100
AcDbSymbolTableRecord
100
AcDbLinetypeTableRecord
  2
AM_ISO09W050
 70
     0
  3
_____ . . _____ . . _____ . . ____ .. ____
 72
    65
 73
     6
 40
22.5
 49
12.0
 74
     0
 49
-1.5
 74
     0
 49
3.0
 74
     0
 49
-1.5
 74
     0
 49
3.0
 74
     0
 49
-1.5
 74
     0
  0
LTYPE
  5
6F
330
5
100
AcDbSymbolTableRecord
100
AcDbLinetypeTableRecord
  2
Amconstr
 70
     0
  3
_______________________
 72
    65
 73
     2
 40
9999.0
 49
9999.0
 74
     0
 49
0.0
 74
     0
  0
LTYPE
  5
70
330
5
100
AcDbSymbolTableRecord
100
AcDbLinetypeTableRecord
  2
AM_ISO08W050x2
 70
     0
  3
__ . __ . __ . __ . __ . __
 72
    65
 73
     4
 40
9.0
 49
6.0
 74
     0
 49
-0.75
 74
     0
 49
1.5
 74
     0
 49
-0.75
 74
     0
  0
LTYPE
  5
71
330
5
100
AcDbSymbolTableRecord
100
AcDbLinetypeTableRecord
  2
AM_ISO02W050x2
 70
     0
  3
 _ _ _ _ _ _ _ _ _ _ _ _
 72
    65
 73
     2
 40
3.75
 49
3.0
 74
     0
 49
-0.75
 74
     0
  0
LTYPE
  5
74
330
5
100
AcDbSymbolTableRecord
100
AcDbLinetypeTableRecord
  2
Amzigzag
 70
     0
  3
/\/-/\/-/\/-/\/-/\/-/\/
 72
    65
 73
     2
 40
11.0001
 49
0.0001
 74
     4
 75
   136
340
254
 46
0.04
 50
0.0
 44
0.0
 45
0.0
 49
-11.0
 74
     0
  0
LTYPE
  5
75
330
5
100
AcDbSymbolTableRecord
100
AcDbLinetypeTableRecord
  2
HIDDEN
 70
     0
  3
Hidden __ __ __ __ __ __ __ __ __ __ __ __ __ _
 72
    65
 73
     2
 40
0.375
 49
0.25
 74
     0
 49
-0.125
 74
     0
  0
LTYPE
  5
76
330
5
100
AcDbSymbolTableRecord
100
AcDbLinetypeTableRecord
  2
CENTER
 70
     0
  3
Center ____ _ ____ _ ____ _ ____ _ ____ _ ____
 72
    65
 73
     4
 40
2.0
 49
1.25
 74
     0
 49
-0.25
 74
     0
 49
0.25
 74
     0
 49
-0.25
 74
     0
  0
LTYPE
  5
77
330
5
100
AcDbSymbolTableRecord
100
AcDbLinetypeTableRecord
  2
PHANTOM2
 70
     0
  3
Phantom (.5x) ___ _ _ ___ _ _ ___ _ _ ___ _ _
 72
    65
 73
     6
 40
1.25
 49
0.625
 74
     0
 49
-0.125
 74
     0
 49
0.125
 74
     0
 49
-0.125
 74
     0
 49
0.125
 74
     0
 49
-0.125
 74
     0
  0
LTYPE
  5
78
330
5
100
AcDbSymbolTableRecord
100
AcDbLinetypeTableRecord
  2
CENTER2
 70
     0
  3
Center (.5x) ___ _ ___ _ ___ _ ___ _ ___ _ ___
 72
    65
 73
     4
 40
1.125
 49
0.75
 74
     0
 49
-0.125
 74
     0
 49
0.125
 74
     0
 49
-0.125
 74
     0
  0
LTYPE
  5
79
330
5
100
AcDbSymbolTableRecord
100
AcDbLinetypeTableRecord
  2
HIDDEN2
 70
     0
  3
Hidden (.5x) _ _ _ _ _ _ _ _ _ _ _ _ _ _ _ _ _
 72
    65
 73
     2
 40
0.1875
 49
0.125
 74
     0
 49
-0.0625
 74
     0
  0
LTYPE
  5
7A
330
5
100
AcDbSymbolTableRecord
100
AcDbLinetypeTableRecord
  2
Amzigzag2
 70
     0
  3
/\/-/\/-/\/-/\/-/\/-/\/
 72
    65
 73
     2
 40
0.4401
 49
0.0001
 74
     4
 75
   136
340
254
 46
0.0016
 50
0.0
 44
0.0
 45
0.0
 49
-0.4400000000000001
 74
     0
  0
LTYPE
  5
87
330
5
100
AcDbSymbolTableRecord
100
AcDbLinetypeTableRecord
  2
ACANSTGB
 70
     0
  3
__ . . __ . .
 72
    65
 73
     6
 40
0.35433070866
 49
0.15748031496
 74
     0
 49
-0.03937007874
 74
     0
 49
0.03937007874
 74
     0
 49
-0.03937007874
 74
     0
 49
0.03937007874
 74
     0
 49
-0.03937007874
 74
     0
  0
LTYPE
  5
88
330
5
100
AcDbSymbolTableRecord
100
AcDbLinetypeTableRecord
  2
ACANSTGL
 70
     0
  3
_ _ _ _ _
 72
    65
 73
     2
 40
0.11811023622
 49
0.07874015748
 74
     0
 49
-0.03937007874
 74
     0
  0
ENDTAB
  0
TABLE
  2
LAYER
  5
2
102
{ACAD_XDICTIONARY
360
38E
102
}
330
0
100
AcDbSymbolTable
 70
     2
  0
LAYER
  5
10
102
{ACAD_XDICTIONARY
360
7C1
102
}
330
2
100
AcDbSymbolTableRecord
100
AcDbLayerTableRecord
  2
0
 70
     0
 62
     7
  6
Continuous
370
    -3
390
F
347
295
  0
LAYER
  5
38C
102
{ACAD_XDICTIONARY
360
38D
102
}
330
2
100
AcDbSymbolTableRecord
100
AcDbLayerTableRecord
  2
_SURFACE
 70
     0
 62
     7
  6
Continuous
370
    -3
390
F
347
295
  0
ENDTAB
  0
TABLE
  2
STYLE
  5
3
330
0
100
AcDbSymbolTable
 70
     8
  0
STYLE
  5
11
330
3
100
AcDbSymbolTableRecord
100
AcDbTextStyleTableRecord
  2
STANDARD
 70
     0
 40
0.0
 41
1.0
 50
0.0
 71
     0
 42
0.2
  3
ROMANS.SHX
  4

  0
STYLE
  5
73
330
3
100
AcDbSymbolTableRecord
100
AcDbTextStyleTableRecord
  2

 70
     1
 40
0.0
 41
1.0
 50
0.0
 71
     0
 42
0.2
  3
ltypeshp.shx
  4

  0
STYLE
  5
7B
330
3
100
AcDbSymbolTableRecord
100
AcDbTextStyleTableRecord
  2
ACANSTS
 70
     0
 40
1.0
 41
1.0
 50
0.0
 71
     0
 42
0.2
  3
romans.shx
  4

  0
STYLE
  5
86
330
3
100
AcDbSymbolTableRecord
100
AcDbTextStyleTableRecord
  2
ACANSGDT
 70
     0
 40
0.0
 41
1.0
 50
0.0
 71
     0
 42
0.2
  3
amgdt.shx
  4

  0
STYLE
  5
13F
330
3
100
AcDbSymbolTableRecord
100
AcDbTextStyleTableRecord
  2
USER1
 70
     0
 40
0.0
 41
1.0
 50
0.0
 71
     0
 42
0.2
  3
TXT.SHX
  4

  0
STYLE
  5
140
330
3
100
AcDbSymbolTableRecord
100
AcDbTextStyleTableRecord
  2
USER2
 70
     0
 40
0.0
 41
1.0
 50
0.0
 71
     0
 42
0.2
  3
SIMPLEX.SHX
  4

  0
STYLE
  5
141
330
3
100
AcDbSymbolTableRecord
100
AcDbTextStyleTableRecord
  2
USER3
 70
     0
 40
0.0
 41
1.0
 50
0.0
 71
     0
 42
0.2
  3
ITALIC.SHX
  4

  0
STYLE
  5
254
330
3
100
AcDbSymbolTableRecord
100
AcDbTextStyleTableRecord
  2

 70
     1
 40
0.0
 41
1.0
 50
0.0
 71
     0
 42
0.2
  3
genltshp.shx
  4

  0
ENDTAB
  0
TABLE
  2
VIEW
  5
6
330
0
100
AcDbSymbolTable
 70
     0
  0
ENDTAB
  0
TABLE
  2
UCS
  5
7
330
0
100
AcDbSymbolTable
 70
     0
  0
ENDTAB
  0
TABLE
  2
APPID
  5
9
330
0
100
AcDbSymbolTable
 70
    11
  0
APPID
  5
12
330
9
100
AcDbSymbolTableRecord
100
AcDbRegAppTableRecord
  2
ACAD
 70
     0
  0
APPID
  5
4E
330
9
100
AcDbSymbolTableRecord
100
AcDbRegAppTableRecord
  2
MCAD_NO_VIS
 70
     0
  0
APPID
  5
4F
330
9
100
AcDbSymbolTableRecord
100
AcDbRegAppTableRecord
  2
ACAD_TEMP_GRAPHIC
 70
     0
  0
APPID
  5
60
330
9
100
AcDbSymbolTableRecord
100
AcDbRegAppTableRecord
  2
ACATTRIBSERVICES
 70
     0
  0
APPID
  5
F7
330
9
100
AcDbSymbolTableRecord
100
AcDbRegAppTableRecord
  2
AD_DRAW
 70
     0
  0
APPID
  5
115
330
9
100
AcDbSymbolTableRecord
100
AcDbRegAppTableRecord
  2
DESIGNERASSEMBLIES
 70
     0
  0
APPID
  5
11A
330
9
100
AcDbSymbolTableRecord
100
AcDbRegAppTableRecord
  2
ACADM_DIM_EDIT
 70
     0
  0
APPID
  5
11B
330
9
100
AcDbSymbolTableRecord
100
AcDbRegAppTableRecord
  2
AMDT_DM_ADJ
 70
     0
  0
APPID
  5
1D3
330
9
100
AcDbSymbolTableRecord
100
AcDbRegAppTableRecord
  2
ACAD_DSTYLE_DIMARC_LENGTH_SYMBOL
 70
     0
  0
APPID
  5
1D4
330
9
100
AcDbSymbolTableRecord
100
AcDbRegAppTableRecord
  2
ACAD_DSTYLE_DIMJOGGED_JOGANGLE_SYMBOL
 70
     0
  0
APPID
  5
2EE
330
9
100
AcDbSymbolTableRecord
100
AcDbRegAppTableRecord
  2
ACAD_MLEADERVER
 70
     0
  0
ENDTAB
  0
TABLE
  2
DIMSTYLE
  5
A
330
0
100
AcDbSymbolTable
 70
     7
100
AcDbDimStyleTable
 71
     1
340
8C
  0
DIMSTYLE
105
27
330
A
100
AcDbSymbolTableRecord
100
AcDbDimStyleTableRecord
  2
Standard
 70
     0
340
11
  0
DIMSTYLE
105
8C
102
{ACAD_REACTORS
330
6A
102
}
330
A
100
AcDbSymbolTableRecord
100
AcDbDimStyleTableRecord
  2
AM_ANSI
 70
     0
  4
mm
 41
0.12
 42
0.05
 43
0.5
 44
0.1
 47
0.1
 48
0.1
 78
     7
 79
     2
 90
     1
140
0.12
141
0.0
146
0.71
147
0.06
176
   256
177
   256
178
   140
274
     4
284
     7
340
11
345
14
346
14
347
14
371
    -1
372
    -1
1001
ACAD_DSTYLE_DIMJOGGED_JOGANGLE_SYMBOL
1070
   384
1040
0.7853981633974483
  0
DIMSTYLE
105
8D
330
A
100
AcDbSymbolTableRecord
100
AcDbDimStyleTableRecord
  2
AM_ANSI$3
 70
     0
  4
mm
 41
0.12
 42
0.05
 43
0.5
 44
0.1
 47
0.1
 48
0.1
 78
     7
 79
     2
 90
     1
140
0.12
141
0.0
146
0.71
147
0.06
176
   256
177
   256
178
   140
274
     4
284
     7
288
     1
289
     0
340
11
345
14
346
14
347
14
371
    -1
372
    -1
1001
ACAD_DSTYLE_DIMJOGGED_JOGANGLE_SYMBOL
1070
   384
1040
0.7853981633974483
  0
DIMSTYLE
105
8E
330
A
100
AcDbSymbolTableRecord
100
AcDbDimStyleTableRecord
  2
AM_ANSI$4
 70
     0
  4
mm
 41
0.12
 42
0.05
 43
0.5
 44
0.1
 47
0.1
 48
0.1
 78
     7
 79
     2
 90
     1
140
0.12
141
0.0
146
0.71
147
0.06
176
   256
177
   256
178
   140
274
     4
284
     7
340
11
345
14
346
14
347
14
371
    -1
372
    -1
1001
ACAD_DSTYLE_DIMJOGGED_JOGANGLE_SYMBOL
1070
   384
1040
0.7853981633974483
  0
DIMSTYLE
105
8F
330
A
100
AcDbSymbolTableRecord
100
AcDbDimStyleTableRecord
  2
AM_ANSI$7
 70
     0
  4
mm
 41
0.12
 42
0.05
 43
0.5
 44
0.1
 47
0.1
 48
0.1
 78
     7
 79
     2
 90
     1
140
0.12
141
0.0
146
0.71
147
0.06
176
   256
177
   256
178
   140
274
     4
284
     7
340
11
345
14
346
14
347
14
371
    -1
372
    -1
1001
ACAD_DSTYLE_DIMJOGGED_JOGANGLE_SYMBOL
1070
   384
1040
0.7853981633974483
  0
DIMSTYLE
105
90
330
A
100
AcDbSymbolTableRecord
100
AcDbDimStyleTableRecord
  2
AM_ANSI$SF
 70
     0
  4
mm
 41
0.12
 42
0.05
 43
0.5
 44
0.1
 47
0.1
 48
0.1
 75
     1
 76
     1
 78
     7
 79
     2
 90
     1
140
0.12
141
0.0
146
0.71
147
0.06
176
   256
177
   256
178
   140
274
     4
284
     7
340
11
345
14
346
14
347
14
371
    -1
372
    -1
1001
ACAD_DSTYLE_DIMJOGGED_JOGANGLE_SYMBOL
1070
   384
1040
0.7853981633974483
  0
DIMSTYLE
105
95
330
A
100
AcDbSymbolTableRecord
100
AcDbDimStyleTableRecord
  2
AM_ANSI$SH
 70
     0
  4
mm
 41
0.12
 42
0.05
 43
0.5
 44
0.1
 47
0.1
 48
0.1
 75
     1
 76
     1
 78
     7
 79
     2
 90
     1
140
0.12
141
0.0
146
0.71
147
0.06
173
     1
176
   256
177
   256
178
   140
274
     4
284
     7
340
11
343
91
345
14
346
14
347
14
371
    -1
372
    -1
1001
ACAD_DSTYLE_DIMJOGGED_JOGANGLE_SYMBOL
1070
   384
1040
0.7853981633974483
  0
ENDTAB
  0
TABLE
  2
BLOCK_RECORD
  5
1
330
0
100
AcDbSymbolTable
 70
     4
  0
BLOCK_RECORD
  5
1F
102
{ACAD_XDICTIONARY
360
99
102
}
330
1
100
AcDbSymbolTableRecord
100
AcDbBlockTableRecord
  2
*Model_Space
340
22
 70
     0
280
     1
281
     0
  0
BLOCK_RECORD
  5
1B
330
1
100
AcDbSymbolTableRecord
100
AcDbBlockTableRecord
  2
*Paper_Space
340
1E
 70
     0
280
     1
281
     0
  0
BLOCK_RECORD
  5
23
330
1
100
AcDbSymbolTableRecord
100
AcDbBlockTableRecord
  2
*Paper_Space0
340
26
 70
     0
280
     1
281
     0
  0
BLOCK_RECORD
  5
91
330
1
100
AcDbSymbolTableRecord
100
AcDbBlockTableRecord
  2
GENAXEH
340
0
 70
     0
280
     1
281
     0
  0
ENDTAB
  0
ENDSEC
  0
SECTION
  2
BLOCKS
  0
BLOCK
  5
20
330
1F
100
AcDbEntity
  8
0
100
AcDbBlockBegin
  2
*Model_Space
 70
     0
 10
0.0
 20
0.0
 30
0.0
  3
*Model_Space
  1

  0
ENDBLK
  5
21
330
1F
100
AcDbEntity
  8
0
100
AcDbBlockEnd
  0
BLOCK
  5
1C
330
1B
100
AcDbEntity
 67
     1
  8
0
100
AcDbBlockBegin
  2
*Paper_Space
 70
     0
 10
0.0
 20
0.0
 30
0.0
  3
*Paper_Space
  1

  0
ENDBLK
  5
1D
330
1B
100
AcDbEntity
 67
     1
  8
0
100
AcDbBlockEnd
  0
BLOCK
  5
24
330
23
100
AcDbEntity
 67
     1
  8
0
100
AcDbBlockBegin
  2
*Paper_Space0
 70
     0
 10
0.0
 20
0.0
 30
0.0
  3
*Paper_Space0
  1

  0
ENDBLK
  5
25
330
23
100
AcDbEntity
 67
     1
  8
0
100
AcDbBlockEnd
  0
BLOCK
  5
93
330
91
100
AcDbEntity
  8
0
100
AcDbBlockBegin
  2
GENAXEH
 70
     0
 10
0.0
 20
0.0
 30
0.0
  3
GENAXEH
  1

  0
LINE
  5
92
330
91
100
AcDbEntity
  8
0
100
AcDbLine
 10
-1.0
 20
0.0
 30
0.0
 11
1.0
 21
0.0
 31
0.0
  0
ENDBLK
  5
94
330
91
100
AcDbEntity
  8
0
100
AcDbBlockEnd
  0
ENDSEC
  0
SECTION
  2
ENTITIES
  0
LWPOLYLINE
  5
5AF
330
1F
100
AcDbEntity
  8
_SURFACE
  6
Continuous
 62
     7
100
AcDbPolyline
 90
       23
 70
     0
 43
0.0
 10
73.27415377797689
 20
186.0216185171022
 10
73.21263005907673
 20
186.0201815683023
 10
73.12511852587687
 20
186.0131605413022
 10
73.03956576767683
 20
186.0005635742023
 10
72.95629608097676
 20
185.9827065433023
 10
72.87493870757685
 20
185.9597110347023
 10
72.79581528787691
 20
185.9318066485023
 10
72.71955675607689
 20
185.8994020134023
 10
72.64617435677684
 20
185.8627116555023
 10
72.57583336687691
 20
185.8220086462022
 10
72.50897769147702
 20
185.7777805795023
 10
72.44592800917695
 20
185.7305465713023
 10
72.38667077097677
 20
185.6806400779023
 10
72.33136472267694
 20
185.6285709932023
 10
72.28038327457676
 20
185.5751796038022
 10
72.23359310717689
 20
185.5209109551023
 10
72.19073362517685
 20
185.4660603110023
 10
72.15178066407685
 20
185.4112399629022
 10
72.11648672877692
 20
185.3568055475022
 10
72.08441767277697
 20
185.3027765529023
 10
72.0552087016768
 20
185.2491818167023
 10
72.02853238837684
 20
185.1960303727023
 10
72.00374421757675
 20
185.1425305281023
  0
LINE
  5
5B0
330
1F
100
AcDbEntity
  8
_SURFACE
  6
Continuous
 62
     7
100
AcDbLine
 10
108.6244339223768
 20
186.0216194503022
 30
0.0
 11
73.27382839727675
 21
186.0216195165023
 31
0.0
  0
LINE
  5
5B1
330
1F
100
AcDbEntity
  8
_SURFACE
  6
Continuous
 62
     7
100
AcDbLine
 10
57.90289689757679
 20
37.65153793860229
 30
0.0
 11
123.9953514113768
 21
37.65153793860229
 31
0.0
  0
LWPOLYLINE
  5
5B2
330
1F
100
AcDbEntity
  8
_SURFACE
  6
Continuous
 62
     7
100
AcDbPolyline
 90
        3
 70
     0
 43
0.0
 10
118.5307007833767
 20
166.5077312825023
 10
118.5198041950769
 20
166.5298740670022
 10
118.4289857217769
 20
166.7115062661022
  0
LINE
  5
5B3
330
1F
100
AcDbEntity
  8
_SURFACE
  6
Continuous
 62
     7
100
AcDbLine
 10
118.4109427758768
 20
166.7481226135023
 30
0.0
 11
118.4289857217769
 21
166.7115062661022
 31
0.0
  0
LINE
  5
5B4
330
1F
100
AcDbEntity
  8
_SURFACE
  6
Continuous
 62
     7
100
AcDbLine
 10
118.552731640677
 20
166.4623907151023
 30
0.0
 11
118.5307007833767
 21
166.5077312825023
 31
0.0
  0
LINE
  5
5B5
330
1F
100
AcDbEntity
  8
_SURFACE
  6
Continuous
 62
     7
100
AcDbLine
 10
118.4109385719769
 20
166.7481205197023
 30
0.0
 11
118.3919126633769
 21
166.7872602081024
 31
0.0
  0
LINE
  5
5B6
330
1F
100
AcDbEntity
  8
_SURFACE
  6
Continuous
 62
     7
100
AcDbLine
 10
117.9724546308769
 20
167.6678050233024
 30
0.0
 11
117.7731564905769
 21
168.0823175637023
 31
0.0
  0
LINE
  5
5B7
330
1F
100
AcDbEntity
  8
_SURFACE
  6
Continuous
 62
     7
100
AcDbLine
 10
117.7421249756767
 20
167.9600056009023
 30
0.0
 11
117.7952438844768
 21
167.8493860429022
 31
0.0
  0
LINE
  5
5B8
330
1F
100
AcDbEntity
  8
_SURFACE
  6
Continuous
 62
     7
100
AcDbLine
 10
118.0673362071769
 20
167.4701844411024
 30
0.0
 11
117.9724546308769
 21
167.6678050233024
 31
0.0
  0
LINE
  5
5B9
330
1F
100
AcDbEntity
  8
_SURFACE
  6
Continuous
 62
     7
100
AcDbLine
 10
117.7731564905769
 20
168.0823175637023
 30
0.0
 11
117.6796557955768
 21
168.2773263201024
 31
0.0
  0
LINE
  5
5BA
330
1F
100
AcDbEntity
  8
_SURFACE
  6
Continuous
 62
     7
100
AcDbLine
 10
118.3919126633769
 20
166.7872602081024
 30
0.0
 11
118.3771365952769
 21
166.8180243473022
 31
0.0
  0
LINE
  5
5BB
330
1F
100
AcDbEntity
  8
_SURFACE
  6
Continuous
 62
     7
100
AcDbLine
 10
117.6266930133768
 20
168.3881011216023
 30
0.0
 11
117.679862144677
 21
168.2768900699023
 31
0.0
  0
LWPOLYLINE
  5
5BC
330
1F
100
AcDbEntity
  8
_SURFACE
  6
Continuous
 62
     7
100
AcDbPolyline
 90
        9
 70
     0
 43
0.0
 10
117.6268357228769
 20
168.3875255050023
 10
116.7539682600768
 20
170.2220619774023
 10
115.876702564277
 20
172.0794110285023
 10
115.0047229659768
 20
173.9396582348024
 10
114.1380486914768
 20
175.8029499110022
 10
113.276730774177
 20
177.6692596150023
 10
112.4207383892767
 20
179.5386403836023
 10
111.5700438710769
 20
181.4110648382023
 10
110.7246466379768
 20
183.2864564471023
  0
LWPOLYLINE
  5
5BD
330
1F
100
AcDbEntity
  8
_SURFACE
  6
Continuous
 62
     7
100
AcDbPolyline
 90
        7
 70
     0
 43
0.0
 10
118.3771365952769
 20
166.8180243473022
 10
118.3309269913769
 20
166.9161285496023
 10
118.289400668577
 20
167.0041474213023
 10
118.2468861973769
 20
167.0939237746024
 10
118.2033647207768
 20
167.1855118060023
 10
118.1588752623768
 20
167.2788520614023
 10
118.0673362071769
 20
167.4701844411024
  0
LWPOLYLINE
  5
5BE
330
1F
100
AcDbEntity
  8
_SURFACE
  6
Continuous
 62
     7
100
AcDbPolyline
 90
       23
 70
     0
 43
0.0
 10
109.8945124158768
 20
185.1425469732023
 10
109.8677974215769
 20
185.2000313478022
 10
109.8410110839768
 20
185.2530817485023
 10
109.8116788836769
 20
185.3065789047023
 10
109.7794767279768
 20
185.3605057709023
 10
109.7440507185768
 20
185.4148162813023
 10
109.7049719857769
 20
185.4694864703023
 10
109.6619974003768
 20
185.5241609631022
 10
109.6151166160769
 20
185.5782196220023
 10
109.5640815158768
 20
185.6313634396022
 10
109.508761487477
 20
185.6831565575023
 10
109.4495286097768
 20
185.7327723747023
 10
109.3865461157768
 20
185.7797066541023
 10
109.3198037575769
 20
185.8236318242023
 10
109.2496146171768
 20
185.8640416483023
 10
109.1764211788768
 20
185.9004554313023
 10
109.1003880572769
 20
185.9326050423023
 10
109.0215168220769
 20
185.9602833347023
 10
108.9404312943768
 20
185.9830869457022
 10
108.8574513284769
 20
186.0007882577022
 10
108.7722032868769
 20
186.0132672737023
 10
108.6850062307767
 20
186.0202106383023
 10
108.6241091447769
 20
186.0216184523023
  0
LINE
  5
5BF
330
1F
100
AcDbEntity
  8
_SURFACE
  6
Continuous
 62
     7
100
AcDbLine
 10
110.7246466379768
 20
183.2864564471023
 30
0.0
 11
109.894428360577
 21
185.1427383989023
 31
0.0
  0
LWPOLYLINE
  5
5C0
330
1F
100
AcDbEntity
  8
_SURFACE
  6
Continuous
 62
     7
100
AcDbPolyline
 90
       13
 70
     0
 43
0.0
 10
118.682838469777
 20
166.1665349247022
 10
118.672582036777
 20
166.1924205550023
 10
118.6621478874768
 20
166.2181656696022
 10
118.6515741370768
 20
166.2436989198024
 10
118.6408732743769
 20
166.2690156345024
 10
118.6300521576768
 20
166.2941252234023
 10
118.6191434651769
 20
166.3189787416024
 10
118.6081579225768
 20
166.3435802261023
 10
118.5971063959769
 20
166.3679335975022
 10
118.5860239106769
 20
166.3919911123022
 10
118.5749221574768
 20
166.4157579598023
 10
118.5638126208769
 20
166.4392397624023
 10
118.552731640677
 20
166.4623907151023
  0
LWPOLYLINE
  5
5C1
330
1F
100
AcDbEntity
  8
_SURFACE
  6
Continuous
 62
     7
100
AcDbPolyline
 90
       11
 70
     0
 43
0.0
 10
118.7723249971769
 20
165.9058614338023
 10
118.7654433340768
 20
165.9289528718023
 10
118.7575709834769
 20
165.9545399544024
 10
118.7489385861768
 20
165.9817110360024
 10
118.7400464461769
 20
166.0088155232023
 10
118.731081510377
 20
166.0353190206023
 10
118.7218734404769
 20
166.0617607228022
 10
118.7124397944768
 20
166.0881027439023
 10
118.7027817243768
 20
166.1143562400023
 10
118.6929063330768
 20
166.1405164903023
 10
118.682838469777
 20
166.1665349247022
  0
LINE
  5
5C2
330
1F
100
AcDbEntity
  8
_SURFACE
  6
Continuous
 62
     7
100
AcDbLine
 10
118.7801762310769
 20
165.8787224424024
 30
0.0
 11
118.7723249971769
 21
165.9058614338023
 31
0.0
  0
LINE
  5
5C3
330
1F
100
AcDbEntity
  8
_SURFACE
  6
Continuous
 62
     7
100
AcDbLine
 10
118.8108077751768
 20
165.7710529938023
 30
0.0
 11
118.7801762310769
 21
165.8787224424024
 31
0.0
  0
LINE
  5
5C4
330
1F
100
AcDbEntity
  8
_SURFACE
  6
Continuous
 62
     7
100
AcDbLine
 10
118.8214077733769
 20
165.7332438807023
 30
0.0
 11
118.8108077751768
 21
165.7710529938023
 31
0.0
  0
LWPOLYLINE
  5
5C5
330
1F
100
AcDbEntity
  8
_SURFACE
  6
Continuous
 62
     7
100
AcDbPolyline
 90
        3
 70
     0
 43
0.0
 10
118.8628917469769
 20
165.5835379529023
 10
118.8377380652769
 20
165.6745743065022
 10
118.8214077733769
 20
165.7332438807023
  0
LINE
  5
5C6
330
1F
100
AcDbEntity
  8
_SURFACE
  6
Continuous
 62
     7
100
AcDbLine
 10
118.889462310277
 20
165.4862131566023
 30
0.0
 11
118.8628917469769
 21
165.5835379529023
 31
0.0
  0
LINE
  5
5C7
330
1F
100
AcDbEntity
  8
_SURFACE
  6
Continuous
 62
     7
100
AcDbLine
 10
118.9173334652769
 20
165.3824824676023
 30
0.0
 11
118.889462310277
 21
165.4862131566023
 31
0.0
  0
LWPOLYLINE
  5
5C8
330
1F
100
AcDbEntity
  8
_SURFACE
  6
Continuous
 62
     7
100
AcDbPolyline
 90
        6
 70
     0
 43
0.0
 10
119.0639277178769
 20
164.7906444625022
 10
119.0394127946768
 20
164.8969664588023
 10
119.0076094371768
 20
165.0297628875023
 10
118.9765308943768
 20
165.1546933070023
 10
118.9463917516769
 20
165.2721055674023
 10
118.9173334652769
 20
165.3824824676023
  0
LINE
  5
5C9
330
1F
100
AcDbEntity
  8
_SURFACE
  6
Continuous
 62
     7
100
AcDbLine
 10
119.1290152469769
 20
164.4924895401023
 30
0.0
 11
119.063877176277
 21
164.7908906113022
 31
0.0
  0
LWPOLYLINE
  5
5CA
330
1F
100
AcDbEntity
  8
_SURFACE
  6
Continuous
 62
     7
100
AcDbPolyline
 90
        9
 70
     0
 43
0.0
 10
119.6047227389768
 20
161.6501449765023
 10
119.5602205881769
 20
161.9699174133023
 10
119.5065806492769
 20
162.3390340761023
 10
119.4503692714768
 20
162.7077155641023
 10
119.3916237827769
 20
163.0741836406022
 10
119.330287074477
 20
163.4370617837023
 10
119.2661630525768
 20
163.7955124765023
 10
119.1990993390769
 20
164.1480505973023
 10
119.1290152469769
 20
164.4924895401023
  0
LINE
  5
5CB
330
1F
100
AcDbEntity
  8
_SURFACE
  6
Continuous
 62
     7
100
AcDbLine
 10
119.6552363835768
 20
161.2721052662022
 30
0.0
 11
119.604713886477
 21
161.6502154009023
 31
0.0
  0
LINE
  5
5CC
330
1F
100
AcDbEntity
  8
_SURFACE
  6
Continuous
 62
     7
100
AcDbLine
 10
119.604713886477
 20
161.6502154009023
 30
0.0
 11
119.6118084139769
 21
161.5808763002023
 31
0.0
  0
LWPOLYLINE
  5
5CD
330
1F
100
AcDbEntity
  8
_SURFACE
  6
Continuous
 62
     7
100
AcDbPolyline
 90
        8
 70
     0
 43
0.0
 10
120.0349559704769
 20
157.8794409581023
 10
119.9833391625769
 20
158.4034358594023
 10
119.9308144221769
 20
158.9146961154023
 10
119.8774098418769
 20
159.4129397877023
 10
119.8231427719768
 20
159.8979620352024
 10
119.768020627377
 20
160.3696274127023
 10
119.7120531663768
 20
160.8277454961023
 10
119.6552363835768
 20
161.2721052662022
  0
LINE
  5
5CE
330
1F
100
AcDbEntity
  8
_SURFACE
  6
Continuous
 62
     7
100
AcDbLine
 10
120.081875889277
 20
157.3832244807024
 30
0.0
 11
120.0349559704769
 21
157.8794409581023
 31
0.0
  0
LWPOLYLINE
  5
5CF
330
1F
100
AcDbEntity
  8
_SURFACE
  6
Continuous
 62
     7
100
AcDbPolyline
 90
        5
 70
     0
 43
0.0
 10
120.268005599377
 20
155.2231129567023
 10
120.2200961984768
 20
155.8100005969023
 10
120.1716995471768
 20
156.3806467739022
 10
120.1228402125769
 20
156.9350197509023
 10
120.081875889277
 20
157.3832244807024
  0
LINE
  5
5D0
330
1F
100
AcDbEntity
  8
_SURFACE
  6
Continuous
 62
     7
100
AcDbLine
 10
120.0798675764768
 20
157.4052001494023
 30
0.0
 11
120.0816292338768
 21
157.3832021354023
 31
0.0
  0
LINE
  5
5D1
330
1F
100
AcDbEntity
  8
_SURFACE
  6
Continuous
 62
     7
100
AcDbLine
 10
120.3387015167769
 20
154.3119258371022
 30
0.0
 11
120.317636268077
 21
154.5904161812023
 31
0.0
  0
LINE
  5
5D2
330
1F
100
AcDbEntity
  8
_SURFACE
  6
Continuous
 62
     7
100
AcDbLine
 10
120.317636268077
 20
154.5904161812023
 30
0.0
 11
120.268005599377
 21
155.2231129567023
 31
0.0
  0
LINE
  5
5D3
330
1F
100
AcDbEntity
  8
_SURFACE
  6
Continuous
 62
     7
100
AcDbLine
 10
120.3631230358769
 20
153.9886075525023
 30
0.0
 11
120.3387015167769
 21
154.3119258371022
 31
0.0
  0
LINE
  5
5D4
330
1F
100
AcDbEntity
  8
_SURFACE
  6
Continuous
 62
     7
100
AcDbLine
 10
120.408105508277
 20
153.3707390770022
 30
0.0
 11
120.3631230358769
 21
153.9886075525023
 31
0.0
  0
LINE
  5
5D5
330
1F
100
AcDbEntity
  8
_SURFACE
  6
Continuous
 62
     7
100
AcDbLine
 10
120.4530573586769
 20
152.7292843247023
 30
0.0
 11
120.408105508277
 21
153.3707390770022
 31
0.0
  0
LWPOLYLINE
  5
5D6
330
1F
100
AcDbEntity
  8
_SURFACE
  6
Continuous
 62
     7
100
AcDbPolyline
 90
        4
 70
     0
 43
0.0
 10
121.5555941850769
 20
136.5177765130024
 10
121.440280279177
 20
138.2022556109023
 10
121.322291291277
 20
139.9278761788022
 10
121.206780431477
 20
141.6194915393022
  0
LINE
  5
5D7
330
1F
100
AcDbEntity
  8
_SURFACE
  6
Continuous
 62
     7
100
AcDbLine
 10
121.206780431477
 20
141.6194915393022
 30
0.0
 11
121.0612961639768
 21
143.7538678392023
 31
0.0
  0
LWPOLYLINE
  5
5D8
330
1F
100
AcDbEntity
  8
_SURFACE
  6
Continuous
 62
     7
100
AcDbPolyline
 90
        6
 70
     0
 43
0.0
 10
121.0612961639768
 20
143.7538678392023
 10
120.983371311977
 20
144.8984796928022
 10
120.875315611077
 20
146.4883855777023
 10
120.769629516477
 20
148.0463368552022
 10
120.6663913104767
 20
149.5713335149023
 10
120.6042288206768
 20
150.4912348969023
  0
LINE
  5
5D9
330
1F
100
AcDbEntity
  8
_SURFACE
  6
Continuous
 62
     7
100
AcDbLine
 10
121.4373158755768
 20
138.1538958640023
 30
0.0
 11
120.5942269886769
 21
150.6393538605022
 31
0.0
  0
LINE
  5
5DA
330
1F
100
AcDbEntity
  8
_SURFACE
  6
Continuous
 62
     7
100
AcDbLine
 10
120.5942269886769
 20
150.6393538605022
 30
0.0
 11
120.4892956597769
 21
152.1952498063023
 31
0.0
  0
LINE
  5
5DB
330
1F
100
AcDbEntity
  8
_SURFACE
  6
Continuous
 62
     7
100
AcDbLine
 10
120.4892956597769
 20
152.1952498063023
 30
0.0
 11
120.4530573586769
 21
152.7292843247023
 31
0.0
  0
LINE
  5
5DC
330
1F
100
AcDbEntity
  8
_SURFACE
  6
Continuous
 62
     7
100
AcDbLine
 10
120.4852821906768
 20
152.2544708174022
 30
0.0
 11
120.477801443677
 21
152.3659331968023
 31
0.0
  0
LWPOLYLINE
  5
5DD
330
1F
100
AcDbEntity
  8
_SURFACE
  6
Continuous
 62
     7
100
AcDbPolyline
 90
        8
 70
     0
 43
0.0
 10
121.8484252544768
 20
131.5454746558022
 10
121.8111441613769
 20
132.2677566557024
 10
121.767773614577
 20
133.0710151964023
 10
121.7240130927769
 20
133.8443569337022
 10
121.6799612866769
 20
134.5878834450023
 10
121.635724331977
 20
135.3015570747023
 10
121.591428151877
 20
135.9853805844023
 10
121.555586018877
 20
136.5177133528023
  0
LINE
  5
5DE
330
1F
100
AcDbEntity
  8
_SURFACE
  6
Continuous
 62
     7
100
AcDbLine
 10
121.8993789059769
 20
130.4943082725023
 30
0.0
 11
121.848420679577
 21
131.5455177784023
 31
0.0
  0
LINE
  5
5DF
330
1F
100
AcDbEntity
  8
_SURFACE
  6
Continuous
 62
     7
100
AcDbLine
 10
122.8888136480769
 20
89.26312833060233
 30
0.0
 11
122.7701466674769
 21
94.73304269070233
 31
0.0
  0
LINE
  5
5E0
330
1F
100
AcDbEntity
  8
_SURFACE
  6
Continuous
 62
     7
100
AcDbLine
 10
122.7700560975768
 20
94.73279298790229
 30
0.0
 11
122.6134021889768
 21
102.2012711336023
 31
0.0
  0
LWPOLYLINE
  5
5E1
330
1F
100
AcDbEntity
  8
_SURFACE
  6
Continuous
 62
     7
100
AcDbPolyline
 90
       21
 70
     0
 43
0.0
 10
122.6134862543768
 20
102.2012766233023
 10
122.582834613077
 20
103.7020839385024
 10
122.550340875577
 20
105.3036876426023
 10
122.518348773177
 20
106.8858769739023
 10
122.486745422777
 20
108.4485005039022
 10
122.4554246895769
 20
109.9913547390023
 10
122.4242872649768
 20
111.5141788920023
 10
122.393237441077
 20
113.0168597692023
 10
122.3622002954769
 20
114.4992139978023
 10
122.3311169349768
 20
115.9608801690023
 10
122.2998980032769
 20
117.4017063243023
 10
122.268379705577
 20
118.8214265309023
 10
122.2360969346769
 20
120.2190761125022
 10
122.2025312028768
 20
121.5936727966023
 10
122.1672261595768
 20
122.9444792065023
 10
122.1297735924768
 20
124.2707777007023
 10
122.0898206991769
 20
125.5713975216023
 10
122.0470565876767
 20
126.8451913473023
 10
122.0012036204769
 20
128.0911504246023
 10
121.9520275348769
 20
129.3080572053023
 10
121.8993789059769
 20
130.4943082725023
  0
LWPOLYLINE
  5
5E2
330
1F
100
AcDbEntity
  8
_SURFACE
  6
Continuous
 62
     7
100
AcDbPolyline
 90
        9
 70
     0
 43
0.0
 10
123.9953615471768
 20
37.65153793860229
 10
123.8546613735769
 20
44.67685027610234
 10
123.7123606640769
 20
51.64107713630226
 10
123.5709947644769
 20
58.40727061420231
 10
123.4295828814768
 20
64.97427387200234
 10
123.2888216947768
 20
71.34259598960231
 10
123.1506549839769
 20
77.51329061570236
 10
123.0168437544767
 20
83.48671572450227
 10
122.8888136480769
 20
89.26312833060233
  0
LINE
  5
5E3
330
1F
100
AcDbEntity
  8
_SURFACE
  6
Continuous
 62
     7
100
AcDbLine
 10
104.7032351533767
 20
164.6704720796023
 30
0.0
 11
104.7032351533767
 21
157.4327898632022
 31
0.0
  0
LINE
  5
5E4
330
1F
100
AcDbEntity
  8
_SURFACE
  6
Continuous
 62
     7
100
AcDbLine
 10
77.19503515337698
 20
164.6704720796023
 30
0.0
 11
77.19503515337698
 21
157.4327898632022
 31
0.0
  0
LINE
  5
5E5
330
1F
100
AcDbEntity
  8
_SURFACE
  6
Continuous
 62
     7
100
AcDbLine
 10
59.32161347917696
 20
104.0062102041023
 30
0.0
 11
59.28409881847693
 21
102.1719394777023
 31
0.0
  0
LINE
  5
5E6
330
1F
100
AcDbEntity
  8
_SURFACE
  6
Continuous
 62
     7
100
AcDbLine
 10
59.28409881847693
 20
102.1719394777023
 30
0.0
 11
59.1288610964769
 21
94.75899555760229
 31
0.0
  0
LWPOLYLINE
  5
5E7
330
1F
100
AcDbEntity
  8
_SURFACE
  6
Continuous
 62
     7
100
AcDbPolyline
 90
        9
 70
     0
 43
0.0
 10
59.59172617717701
 20
117.0984310276023
 10
59.56270103797675
 20
115.7540247124023
 10
59.53050832117702
 20
114.2363410222023
 10
59.49771304877692
 20
112.6649056953023
 10
59.46424942387699
 20
111.0397995148022
 10
59.43002848777684
 20
109.3611539190023
 10
59.39494113897677
 20
107.6291963752023
 10
59.35885557017678
 20
105.8441447853023
 10
59.32161347917696
 20
104.0062102041023
  0
LWPOLYLINE
  5
5E8
330
1F
100
AcDbEntity
  8
_SURFACE
  6
Continuous
 62
     7
100
AcDbPolyline
 90
       10
 70
     0
 43
0.0
 10
59.12868770147685
 20
94.75927289320241
 10
59.01018856087699
 20
89.29673139110233
 10
58.88211136347678
 20
83.51768417760233
 10
58.74824170807693
 20
77.54153416050228
 10
58.61001005807685
 20
71.36802240860236
 10
58.46916902947675
 20
64.9968152076023
 10
58.32766039427685
 20
58.42687590290227
 10
58.18623710947696
 20
51.6575574425023
 10
58.04387683277679
 20
44.69015358780227
 10
57.90290169407677
 20
37.65153793860229
  0
LWPOLYLINE
  5
5E9
330
1F
100
AcDbEntity
  8
_SURFACE
  6
Continuous
 62
     7
100
AcDbPolyline
 90
       13
 70
     0
 43
0.0
 10
60.05116611557702
 20
131.5724153116022
 10
60.00670059307691
 20
130.6623114772023
 10
59.95875145557699
 20
129.6009947180022
 10
59.91308443187683
 20
128.5009608408024
 10
59.86975476917684
 20
127.3635478309024
 10
59.82870314147686
 20
126.1892967469022
 10
59.78980692667693
 20
124.9784772198023
 10
59.75290938677682
 20
123.7317167161023
 10
59.7178142596768
 20
122.4499114653023
 10
59.68426643987692
 20
121.1339549765022
 10
59.65194631347691
 20
119.7847048975023
 10
59.62045892567681
 20
118.4027881891023
 10
59.59172630037693
 20
117.0984368191022
  0
LWPOLYLINE
  5
5EA
330
1F
100
AcDbEntity
  8
_SURFACE
  6
Continuous
 62
     7
100
AcDbPolyline
 90
        7
 70
     0
 43
0.0
 10
60.30693972827686
 20
135.9869899425022
 10
60.26295859837688
 20
135.3082192259023
 10
60.21903128287687
 20
134.5998639803023
 10
60.17527583667703
 20
133.8619246663024
 10
60.13179535227692
 20
133.0944889327024
 10
60.08867976507696
 20
132.2974338829023
 10
60.05116141847685
 20
131.5723722818023
  0
LINE
  5
5EB
330
1F
100
AcDbEntity
  8
_SURFACE
  6
Continuous
 62
     7
100
AcDbLine
 10
61.4219796809769
 20
152.3895749147023
 30
0.0
 11
61.42110597797688
 21
152.3765871826023
 31
0.0
  0
LINE
  5
5EC
330
1F
100
AcDbEntity
  8
_SURFACE
  6
Continuous
 62
     7
100
AcDbLine
 10
61.4219796809769
 20
152.3895749147023
 30
0.0
 11
61.40983585337682
 21
152.2091538753023
 31
0.0
  0
LINE
  5
5ED
330
1F
100
AcDbEntity
  8
_SURFACE
  6
Continuous
 62
     7
100
AcDbLine
 10
61.40983585337682
 20
152.2091538753023
 30
0.0
 11
61.29729582237684
 21
150.5398195226022
 31
0.0
  0
LINE
  5
5EE
330
1F
100
AcDbEntity
  8
_SURFACE
  6
Continuous
 62
     7
100
AcDbLine
 10
60.46215472807677
 20
138.1689932242023
 30
0.0
 11
61.29730729587691
 21
150.5399894862023
 31
0.0
  0
LWPOLYLINE
  5
5EF
330
1F
100
AcDbEntity
  8
_SURFACE
  6
Continuous
 62
     7
100
AcDbPolyline
 90
        4
 70
     0
 43
0.0
 10
61.23565828997681
 20
149.6274372679024
 10
61.13186886097679
 20
148.0939633668024
 10
61.02564771937688
 20
146.5278905856022
 10
60.91708097117686
 20
144.9303164344023
  0
LWPOLYLINE
  5
5F0
330
1F
100
AcDbEntity
  8
_SURFACE
  6
Continuous
 62
     7
100
AcDbPolyline
 90
        4
 70
     0
 43
0.0
 10
60.91708097117686
 20
144.9303164344023
 10
60.80614554487699
 20
143.3007467615023
 10
60.69270259677688
 20
141.6370101804023
 10
60.57671735977698
 20
139.9384844046023
  0
LINE
  5
5F1
330
1F
100
AcDbEntity
  8
_SURFACE
  6
Continuous
 62
     7
100
AcDbLine
 10
60.34250705767687
 20
136.5151623850024
 30
0.0
 11
60.30693972827686
 21
135.9869899425022
 31
0.0
  0
LINE
  5
5F2
330
1F
100
AcDbEntity
  8
_SURFACE
  6
Continuous
 62
     7
100
AcDbLine
 10
60.57671735977698
 20
139.9384844046023
 30
0.0
 11
60.44019269907682
 21
137.9421892050023
 31
0.0
  0
LINE
  5
5F3
330
1F
100
AcDbEntity
  8
_SURFACE
  6
Continuous
 62
     7
100
AcDbLine
 10
60.44019269907682
 20
137.9421892050023
 30
0.0
 11
60.34250256577689
 21
136.5152489421022
 31
0.0
  0
LINE
  5
5F4
330
1F
100
AcDbEntity
  8
_SURFACE
  6
Continuous
 62
     7
100
AcDbLine
 10
61.82061992837685
 20
157.4292421174023
 30
0.0
 11
61.81885070247682
 21
157.4072047598023
 31
0.0
  0
LWPOLYLINE
  5
5F5
330
1F
100
AcDbEntity
  8
_SURFACE
  6
Continuous
 62
     7
100
AcDbPolyline
 90
        4
 70
     0
 43
0.0
 10
61.82063647347701
 20
157.4294188224023
 10
61.77630746357687
 20
156.9452934460023
 10
61.72682424907685
 20
156.3839951292023
 10
61.7229365664769
 20
156.3381340187023
  0
LINE
  5
5F6
330
1F
100
AcDbEntity
  8
_SURFACE
  6
Continuous
 62
     7
100
AcDbLine
 10
62.29654914537701
 20
161.6711302506023
 30
0.0
 11
62.28940479187696
 21
161.6010959084023
 31
0.0
  0
LWPOLYLINE
  5
5F7
330
1F
100
AcDbEntity
  8
_SURFACE
  6
Continuous
 62
     7
100
AcDbPolyline
 90
       10
 70
     0
 43
0.0
 10
62.29660971957679
 20
161.6715745422023
 10
62.245567664877
 20
161.2907437247024
 10
62.18875666197693
 20
160.8476813711024
 10
62.13276007937685
 20
160.3905045900023
 10
62.07758869207697
 20
159.9194433244023
 10
62.02324808727695
 20
159.4346672564023
 10
61.96974014057701
 20
158.9362972937023
 10
61.91707331817685
 20
158.4245013643023
 10
61.86526145847693
 20
157.8994931014023
 10
61.82063526177677
 20
157.4294067451023
  0
LWPOLYLINE
  5
5F8
330
1F
100
AcDbEntity
  8
_SURFACE
  6
Continuous
 62
     7
100
AcDbPolyline
 90
        9
 70
     0
 43
0.0
 10
62.77057830787686
 20
164.4974486462023
 10
62.70062892297693
 20
164.1545725209022
 10
62.63361727107696
 20
163.8035079765023
 10
62.56953941017679
 20
163.4463756302023
 10
62.50829761997699
 20
163.0847439114023
 10
62.44973045837679
 20
162.7196724079023
 10
62.3937567222768
 20
162.3525880935023
 10
62.34035087207672
 20
161.9852386015023
 10
62.29660136417675
 20
161.6715123655023
  0
LINE
  5
5F9
330
1F
100
AcDbEntity
  8
_SURFACE
  6
Continuous
 62
     7
100
AcDbLine
 10
62.83606865157691
 20
164.7972407957023
 30
0.0
 11
62.77057830787686
 21
164.4974486462023
 31
0.0
  0
LWPOLYLINE
  5
5FA
330
1F
100
AcDbEntity
  8
_SURFACE
  6
Continuous
 62
     7
100
AcDbPolyline
 90
        6
 70
     0
 43
0.0
 10
62.98287728277689
 20
165.3898961247023
 10
62.95381320117695
 20
165.2797291787023
 10
62.9235465250768
 20
165.1619045153023
 10
62.89225927477679
 20
165.0360191273023
 10
62.86021656867688
 20
164.9020363657022
 10
62.83602581667679
 20
164.7970281969023
  0
LINE
  5
5FB
330
1F
100
AcDbEntity
  8
_SURFACE
  6
Continuous
 62
     7
100
AcDbLine
 10
63.01060616717683
 20
165.4928490789023
 30
0.0
 11
62.98287728277689
 21
165.3898961247023
 31
0.0
  0
LINE
  5
5FC
330
1F
100
AcDbEntity
  8
_SURFACE
  6
Continuous
 62
     7
100
AcDbLine
 10
63.03688321417695
 20
165.5888800007023
 30
0.0
 11
63.01060616717683
 21
165.4928490789023
 31
0.0
  0
LINE
  5
5FD
330
1F
100
AcDbEntity
  8
_SURFACE
  6
Continuous
 62
     7
100
AcDbLine
 10
63.06160429977677
 20
165.6781533316022
 30
0.0
 11
63.03688321417695
 21
165.5888800007023
 31
0.0
  0
LINE
  5
5FE
330
1F
100
AcDbEntity
  8
_SURFACE
  6
Continuous
 62
     7
100
AcDbLine
 10
63.077929587877
 20
165.7366736133023
 30
0.0
 11
63.06160429977677
 21
165.6781533316022
 31
0.0
  0
LINE
  5
5FF
330
1F
100
AcDbEntity
  8
_SURFACE
  6
Continuous
 62
     7
100
AcDbLine
 10
63.09966830207674
 20
165.8137752352024
 30
0.0
 11
63.077929587877
 21
165.7366736133023
 31
0.0
  0
LINE
  5
600
330
1F
100
AcDbEntity
  8
_SURFACE
  6
Continuous
 62
     7
100
AcDbLine
 10
63.1214327450769
 20
165.8899704713023
 30
0.0
 11
63.09966830207674
 21
165.8137752352024
 31
0.0
  0
LINE
  5
601
330
1F
100
AcDbEntity
  8
_SURFACE
  6
Continuous
 62
     7
100
AcDbLine
 10
63.12615044877685
 20
165.9061783095023
 30
0.0
 11
63.12143299137694
 21
165.8899706851023
 31
0.0
  0
LWPOLYLINE
  5
602
330
1F
100
AcDbEntity
  8
_SURFACE
  6
Continuous
 62
     7
100
AcDbPolyline
 90
       11
 70
     0
 43
0.0
 10
63.22323072747673
 20
166.1864884095022
 10
63.21220176547701
 20
166.1584077983023
 10
63.20139595347683
 20
166.1301674271023
 10
63.19085815197701
 20
166.1018664150023
 10
63.18060288017687
 20
166.0735321973023
 10
63.17062319537678
 20
166.0451354230023
 10
63.16093195617696
 20
166.0167021165023
 10
63.15135184417687
 20
165.9876763447022
 10
63.14206662627686
 20
165.9585850288023
 10
63.13359617497695
 20
165.9311413738023
 10
63.12615044877685
 20
165.9061783095023
  0
LWPOLYLINE
  5
603
330
1F
100
AcDbEntity
  8
_SURFACE
  6
Continuous
 62
     7
100
AcDbPolyline
 90
       10
 70
     0
 43
0.0
 10
72.0038373169769
 20
185.1427395653023
 10
71.16938021387688
 20
183.2769746282023
 10
70.32141665997693
 20
181.3959946659023
 10
69.46900654757683
 20
179.5200842159024
 10
68.61222916977687
 20
177.6492334277023
 10
67.75107531087684
 20
175.7834841729023
 10
66.88552758547695
 20
173.9228115555024
 10
66.01564378537688
 20
172.0672606398023
 10
65.14149051477676
 20
170.2166394685023
 10
64.27365134687676
 20
168.3927321096022
  0
LWPOLYLINE
  5
604
330
1F
100
AcDbEntity
  8
_SURFACE
  6
Continuous
 62
     7
100
AcDbPolyline
 90
        7
 70
     0
 43
0.0
 10
63.29309546857695
 20
166.3506273669023
 10
63.28114000447687
 20
166.3239400873023
 10
63.26926662417696
 20
166.2969319228022
 10
63.2575235470768
 20
166.2696777675023
 10
63.24592102927687
 20
166.2421691363024
 10
63.23447346997688
 20
166.2144083526023
 10
63.22323072747673
 20
166.1864884095022
  0
LINE
  5
605
330
1F
100
AcDbEntity
  8
_SURFACE
  6
Continuous
 62
     7
100
AcDbLine
 10
63.59431715927695
 20
166.9731346181024
 30
0.0
 11
63.52415441297677
 21
166.8240857330024
 31
0.0
  0
LINE
  5
606
330
1F
100
AcDbEntity
  8
_SURFACE
  6
Continuous
 62
     7
100
AcDbLine
 10
63.66522724827683
 20
167.1229699917023
 30
0.0
 11
63.59431715927695
 21
166.9731346181024
 31
0.0
  0
LINE
  5
607
330
1F
100
AcDbEntity
  8
_SURFACE
  6
Continuous
 62
     7
100
AcDbLine
 10
63.73898545477692
 20
167.2779476410023
 30
0.0
 11
63.66522724827683
 21
167.1229699917023
 31
0.0
  0
LWPOLYLINE
  5
608
330
1F
100
AcDbEntity
  8
_SURFACE
  6
Continuous
 62
     7
100
AcDbPolyline
 90
        5
 70
     0
 43
0.0
 10
63.34133763527694
 20
166.4540447362023
 10
63.32927363847699
 20
166.4287405383024
 10
63.31719527207685
 20
166.4030607944023
 10
63.30511868247691
 20
166.3769990163022
 10
63.29309546857695
 20
166.3506273669023
  0
LINE
  5
609
330
1F
100
AcDbEntity
  8
_SURFACE
  6
Continuous
 62
     7
100
AcDbLine
 10
64.21930103077698
 20
168.2786986378023
 30
0.0
 11
64.27429540197687
 21
168.3936705846023
 31
0.0
  0
LINE
  5
60A
330
1F
100
AcDbEntity
  8
_SURFACE
  6
Continuous
 62
     7
100
AcDbLine
 10
63.81495767557686
 20
167.4368601033024
 30
0.0
 11
63.73898545477692
 21
167.2779476410023
 31
0.0
  0
LINE
  5
60B
330
1F
100
AcDbEntity
  8
_SURFACE
  6
Continuous
 62
     7
100
AcDbLine
 10
64.10382122057677
 20
167.8510198305022
 30
0.0
 11
64.15866654307689
 21
167.9651713551023
 31
0.0
  0
LINE
  5
60C
330
1F
100
AcDbEntity
  8
_SURFACE
  6
Continuous
 62
     7
100
AcDbLine
 10
63.93348952927687
 20
167.6838316223023
 30
0.0
 11
63.81495767557686
 21
167.4368601033024
 31
0.0
  0
LINE
  5
60D
330
1F
100
AcDbEntity
  8
_SURFACE
  6
Continuous
 62
     7
100
AcDbLine
 10
64.21950435137688
 20
168.2791284138023
 30
0.0
 11
64.0571241110768
 21
167.9409024916023
 31
0.0
  0
LINE
  5
60E
330
1F
100
AcDbEntity
  8
_SURFACE
  6
Continuous
 62
     7
100
AcDbLine
 10
64.0571241110768
 20
167.9409024916023
 30
0.0
 11
63.93348952927687
 21
167.6838316223023
 31
0.0
  0
LINE
  5
60F
330
1F
100
AcDbEntity
  8
_SURFACE
  6
Continuous
 62
     7
100
AcDbLine
 10
63.52415441297677
 20
166.8240857330024
 30
0.0
 11
63.50985987977679
 21
166.7942609180023
 31
0.0
  0
LINE
  5
610
330
1F
100
AcDbEntity
  8
_SURFACE
  6
Continuous
 62
     7
100
AcDbLine
 10
63.35337221317701
 20
166.4789823572022
 30
0.0
 11
63.34133763527694
 21
166.4540447362023
 31
0.0
  0
LINE
  5
611
330
1F
100
AcDbEntity
  8
_SURFACE
  6
Continuous
 62
     7
100
AcDbLine
 10
63.50985987977679
 20
166.7942609180023
 30
0.0
 11
63.49402884387683
 21
166.7616569956023
 31
0.0
  0
LINE
  5
612
330
1F
100
AcDbEntity
  8
_SURFACE
  6
Continuous
 62
     7
100
AcDbLine
 10
63.37718053757686
 20
166.5275671900023
 30
0.0
 11
63.35337221317701
 21
166.4789823572022
 31
0.0
  0
LINE
  5
613
330
1F
100
AcDbEntity
  8
_SURFACE
  6
Continuous
 62
     7
100
AcDbLine
 10
63.49402884387683
 20
166.7616569956023
 30
0.0
 11
63.4751089046768
 21
166.7231544626024
 31
0.0
  0
LINE
  5
614
330
1F
100
AcDbEntity
  8
_SURFACE
  6
Continuous
 62
     7
100
AcDbLine
 10
63.40049852417684
 20
166.5744199973023
 30
0.0
 11
63.37718053757686
 21
166.5275671900023
 31
0.0
  0
LINE
  5
615
330
1F
100
AcDbEntity
  8
_SURFACE
  6
Continuous
 62
     7
100
AcDbLine
 10
63.4751089046768
 20
166.7231544626024
 30
0.0
 11
63.45500552167692
 21
166.6828252931023
 31
0.0
  0
LINE
  5
616
330
1F
100
AcDbEntity
  8
_SURFACE
  6
Continuous
 62
     7
100
AcDbLine
 10
63.45500552167692
 20
166.6828252931023
 30
0.0
 11
63.40049852417684
 21
166.5744199973023
 31
0.0
  0
ARC
  5
617
330
1F
100
AcDbEntity
  8
_SURFACE
  6
Continuous
 62
     7
100
AcDbCircle
 10
765.019168770777
 20
478.2798080207022
 30
0.0
 40
717.8203813430999
100
AcDbArc
 50
204.1453198885015
 51
205.5793941422968
  0
ARC
  5
618
330
1F
100
AcDbEntity
  8
_SURFACE
  6
Continuous
 62
     7
100
AcDbCircle
 10
275.8750319473768
 20
121.7586248591023
 30
0.0
 40
216.0370916147
100
AcDbArc
 50
175.7038607929018
 51
176.0833292145973
  0
ARC
  5
619
330
1F
100
AcDbEntity
  8
_SURFACE
  6
Continuous
 62
     7
100
AcDbCircle
 10
241.2150141425769
 20
123.8649823601022
 30
0.0
 40
181.2539329650999
100
AcDbArc
 50
175.5470757871989
 51
175.9992815111029
  0
ARC
  5
61A
330
1F
100
AcDbEntity
  8
_SURFACE
  6
Continuous
 62
     7
100
AcDbCircle
 10
219.8885723966769
 20
142.6827831972022
 30
0.0
 40
158.7540460616
100
AcDbArc
 50
174.678099045601
 51
175.0655611056033
  0
ARC
  5
61B
330
1F
100
AcDbEntity
  8
_SURFACE
  6
Continuous
 62
     7
100
AcDbCircle
 10
183.005399474177
 20
197.2614349646023
 30
0.0
 40
71.5168293171
100
AcDbArc
 50
205.2853700517989
 51
205.5352707504961
  0
ARC
  5
61C
330
1F
100
AcDbEntity
  8
_SURFACE
  6
Continuous
 62
     7
100
AcDbCircle
 10
103.931776052677
 20
161.2370528525022
 30
0.0
 40
15.5258375886
100
AcDbArc
 50
15.9056984915979
 51
16.45065803869872
  0
ARC
  5
61D
330
1F
100
AcDbEntity
  8
_SURFACE
  6
Continuous
 62
     7
100
AcDbCircle
 10
105.7421112989769
 20
161.5893247058023
 30
0.0
 40
13.6864801893
100
AcDbArc
 50
13.22037056279715
 51
14.09556130989641
  0
ARC
  5
61E
330
1F
100
AcDbEntity
  8
_SURFACE
  6
Continuous
 62
     7
100
AcDbCircle
 10
106.8849349296768
 20
161.8592983283023
 30
0.0
 40
12.5122019934
100
AcDbArc
 50
12.72414799450004
 51
13.21369246249774
  0
ARC
  5
61F
330
1F
100
AcDbEntity
  8
_SURFACE
  6
Continuous
 62
     7
100
AcDbCircle
 10
99.17627927847689
 20
158.1118366254023
 30
0.0
 40
9.178381917599999
100
AcDbArc
 50
72.96663753370001
 51
73.76205115830649
  0
ARC
  5
620
330
1F
100
AcDbEntity
  8
_SURFACE
  6
Continuous
 62
     7
100
AcDbCircle
 10
99.38913768287699
 20
158.8063550171022
 30
0.0
 40
8.4519767344
100
AcDbArc
 50
72.04711920679719
 51
72.96715953909821
  0
ARC
  5
621
330
1F
100
AcDbEntity
  8
_SURFACE
  6
Continuous
 62
     7
100
AcDbCircle
 10
100.3026877676769
 20
161.2373003419023
 30
0.0
 40
5.8526964507
100
AcDbArc
 50
62.22964074119095
 51
63.85088153500017
  0
ARC
  5
622
330
1F
100
AcDbEntity
  8
_SURFACE
  6
Continuous
 62
     7
100
AcDbCircle
 10
100.3342014667769
 20
161.2976617469023
 30
0.0
 40
5.784604203599999
100
AcDbArc
 50
61.68551038790557
 51
62.22726249979651
  0
ARC
  5
623
330
1F
100
AcDbEntity
  8
_SURFACE
  6
Continuous
 62
     7
100
AcDbCircle
 10
91.50303470177693
 20
79.25402212140231
 30
0.0
 40
5.500738587499999
100
AcDbArc
 50
32.65350019140507
 51
33.44223851659965
  0
ARC
  5
624
330
1F
100
AcDbEntity
  8
_SURFACE
  6
Continuous
 62
     7
100
AcDbCircle
 10
116.3348586333769
 20
164.9055883180023
 30
0.0
 40
2.5934749728
100
AcDbArc
 50
21.11257566799768
 51
21.96324001640215
  0
ARC
  5
625
330
1F
100
AcDbEntity
  8
_SURFACE
  6
Continuous
 62
     7
100
AcDbCircle
 10
116.690857258177
 20
165.0415929309023
 30
0.0
 40
2.2123842749
100
AcDbArc
 50
19.21034291809998
 51
21.14769376709691
  0
ARC
  5
626
330
1F
100
AcDbEntity
  8
_SURFACE
  6
Continuous
 62
     7
100
AcDbCircle
 10
116.5192233057769
 20
167.8602669852022
 30
0.0
 40
1.226962218499999
100
AcDbArc
 50
4.662665268000809
 51
17.07248061179614
  0
ARC
  5
627
330
1F
100
AcDbEntity
  8
_SURFACE
  6
Continuous
 62
     7
100
AcDbCircle
 10
108.7779904118768
 20
184.6453358112023
 30
0.0
 40
1.222219781399999
100
AcDbArc
 50
0.3991380259984152
 51
24.00443405000123
  0
ARC
  5
628
330
1F
100
AcDbEntity
  8
_SURFACE
  6
Continuous
 62
     7
100
AcDbCircle
 10
116.5775914838769
 20
167.7500659414024
 30
0.0
 40
1.221696300699999
100
AcDbArc
 50
4.663114511102524
 51
25.55631304299946
  0
ARC
  5
629
330
1F
100
AcDbEntity
  8
_SURFACE
  6
Continuous
 62
     7
100
AcDbCircle
 10
117.2576867654768
 20
166.3289174520022
 30
0.0
 40
1.221087834199999
100
AcDbArc
 50
4.874556523402422
 51
25.20939688100047
  0
ARC
  5
62A
330
1F
100
AcDbEntity
  8
_SURFACE
  6
Continuous
 62
     7
100
AcDbCircle
 10
117.314891151877
 20
166.2114248863024
 30
0.0
 40
1.2203983434
100
AcDbArc
 50
5.030865526200484
 51
26.08008214779849
  0
ARC
  5
62B
330
1F
100
AcDbEntity
  8
_SURFACE
  6
Continuous
 62
     7
100
AcDbCircle
 10
116.5263755871768
 20
167.8620440304023
 30
0.0
 40
1.2196034675
100
AcDbArc
 50
17.09132095149772
 51
25.52772879379624
  0
ARC
  5
62C
330
1F
100
AcDbEntity
  8
_SURFACE
  6
Continuous
 62
     7
100
AcDbCircle
 10
117.6055583074767
 20
165.5516921439022
 30
0.0
 40
1.219255720999999
100
AcDbArc
 50
3.861683972900658
 51
16.09876604169774
  0
ARC
  5
62D
330
1F
100
AcDbEntity
  8
_SURFACE
  6
Continuous
 62
     7
100
AcDbCircle
 10
117.6569086008767
 20
165.4081424321022
 30
0.0
 40
1.209025034
100
AcDbArc
 50
3.975763246999605
 51
15.57207348279823
  0
ARC
  5
62E
330
1F
100
AcDbEntity
  8
_SURFACE
  6
Continuous
 62
     7
100
AcDbCircle
 10
117.9229629113768
 20
164.5322707514023
 30
0.0
 40
1.1698424251
100
AcDbArc
 50
4.084209914296741
 51
12.76367977720133
  0
ARC
  5
62F
330
1F
100
AcDbEntity
  8
_SURFACE
  6
Continuous
 62
     7
100
AcDbCircle
 10
-582.9704090136233
 20
478.2211610776023
 30
0.0
 40
717.6590438836
100
AcDbArc
 50
334.4201826918969
 51
335.8540522765992
  0
ARC
  5
630
330
1F
100
AcDbEntity
  8
_SURFACE
  6
Continuous
 62
     7
100
AcDbCircle
 10
-122.1735236586231
 20
136.0445863526024
 30
0.0
 40
243.1996017286
100
AcDbArc
 50
3.933864747799046
 51
4.051333368502167
  0
ARC
  5
631
330
1F
100
AcDbEntity
  8
_SURFACE
  6
Continuous
 62
     7
100
AcDbCircle
 10
-107.5893089199229
 20
137.0832372218023
 30
0.0
 40
228.5784467747
100
AcDbArc
 50
4.086109891298199
 51
4.241395578697185
  0
ARC
  5
632
330
1F
100
AcDbEntity
  8
_SURFACE
  6
Continuous
 62
     7
100
AcDbCircle
 10
-94.95631361042311
 20
121.6949279879023
 30
0.0
 40
217.0187041836
100
AcDbArc
 50
3.916458613902468
 51
4.289602313300768
  0
ARC
  5
633
330
1F
100
AcDbEntity
  8
_SURFACE
  6
Continuous
 62
     7
100
AcDbCircle
 10
-82.23467843042309
 20
138.9967825791023
 30
0.0
 40
203.1516882017
100
AcDbArc
 50
4.402272795202482
 51
4.531673995401707
  0
ARC
  5
634
330
1F
100
AcDbEntity
  8
_SURFACE
  6
Continuous
 62
     7
100
AcDbCircle
 10
-58.73362179262304
 20
123.9084768010023
 30
0.0
 40
180.6692447072
100
AcDbArc
 50
4.000673483097677
 51
4.448807675298889
  0
ARC
  5
635
330
1F
100
AcDbEntity
  8
_SURFACE
  6
Continuous
 62
     7
100
AcDbCircle
 10
-55.31735200332324
 20
141.1656910595023
 30
0.0
 40
176.1471266387
100
AcDbArc
 50
4.561049709501329
 51
5.282587910499284
  0
ARC
  5
636
330
1F
100
AcDbEntity
  8
_SURFACE
  6
Continuous
 62
     7
100
AcDbCircle
 10
77.95108402987676
 20
161.2423651605023
 30
0.0
 40
15.5094395186
100
AcDbArc
 50
163.5540437427045
 51
164.0865697415975
  0
ARC
  5
637
330
1F
100
AcDbEntity
  8
_SURFACE
  6
Continuous
 62
     7
100
AcDbCircle
 10
76.21032809707691
 20
161.5877815064023
 30
0.0
 40
13.7393704603
100
AcDbArc
 50
165.9977891285975
 51
166.5059656535967
  0
ARC
  5
638
330
1F
100
AcDbEntity
  8
_SURFACE
  6
Continuous
 62
     7
100
AcDbCircle
 10
76.00091492257689
 20
161.6381516600024
 30
0.0
 40
13.5239847208
100
AcDbArc
 50
166.5064499553018
 51
166.8363373843032
  0
ARC
  5
639
330
1F
100
AcDbEntity
  8
_SURFACE
  6
Continuous
 62
     7
100
AcDbCircle
 10
75.81949414537695
 20
161.6805318601023
 30
0.0
 40
13.3376796556
100
AcDbArc
 50
166.8361270297996
 51
167.2614748663984
  0
ARC
  5
63A
330
1F
100
AcDbEntity
  8
_SURFACE
  6
Continuous
 62
     7
100
AcDbCircle
 10
72.53350909397688
 20
147.6231625276023
 30
0.0
 40
10.7942430436
100
AcDbArc
 50
156.4331606038006
 51
161.6620545174972
  0
ARC
  5
63B
330
1F
100
AcDbEntity
  8
_SURFACE
  6
Continuous
 62
     7
100
AcDbCircle
 10
82.72199102847691
 20
158.1118366245022
 30
0.0
 40
9.178381918499999
100
AcDbArc
 50
106.2379488416935
 51
107.0333624663
  0
ARC
  5
63C
330
1F
100
AcDbEntity
  8
_SURFACE
  6
Continuous
 62
     7
100
AcDbCircle
 10
82.50913262387696
 20
158.8063550174024
 30
0.0
 40
8.4519767341
100
AcDbArc
 50
107.0328404609018
 51
107.9528807932028
  0
ARC
  5
63D
330
1F
100
AcDbEntity
  8
_SURFACE
  6
Continuous
 62
     7
100
AcDbCircle
 10
81.59558253897699
 20
161.2373003420022
 30
0.0
 40
5.852696450499999
100
AcDbArc
 50
116.1491184649998
 51
117.7703592588086
  0
ARC
  5
63E
330
1F
100
AcDbEntity
  8
_SURFACE
  6
Continuous
 62
     7
100
AcDbCircle
 10
81.56407373087683
 20
161.2976525305022
 30
0.0
 40
5.7846146372
100
AcDbArc
 50
117.7727378268929
 51
118.3140749971989
  0
ARC
  5
63F
330
1F
100
AcDbEntity
  8
_SURFACE
  6
Continuous
 62
     7
100
AcDbCircle
 10
90.39599876177687
 20
79.25322742870223
 30
0.0
 40
5.501448405399999
100
AcDbArc
 50
146.5553631327012
 51
147.3425609932012
  0
ARC
  5
640
330
1F
100
AcDbEntity
  8
_SURFACE
  6
Continuous
 62
     7
100
AcDbCircle
 10
66.30548227277683
 20
164.5908184465024
 30
0.0
 40
3.3997303938
100
AcDbArc
 50
155.0554881864992
 51
156.4500073430987
  0
ARC
  5
641
330
1F
100
AcDbEntity
  8
_SURFACE
  6
Continuous
 62
     7
100
AcDbCircle
 10
65.76765913177684
 20
164.8259991292023
 30
0.0
 40
2.8127354348
100
AcDbArc
 50
156.4643919831023
 51
158.0803365656966
  0
ARC
  5
642
330
1F
100
AcDbEntity
  8
_SURFACE
  6
Continuous
 62
     7
100
AcDbCircle
 10
65.38168567647682
 20
167.8653861188024
 30
0.0
 40
1.227083083599999
100
AcDbArc
 50
162.600472372301
 51
175.3356109398975
  0
ARC
  5
643
330
1F
100
AcDbEntity
  8
_SURFACE
  6
Continuous
 62
     7
100
AcDbCircle
 10
73.12205621927688
 20
184.6449377709023
 30
0.0
 40
1.224019279399999
100
AcDbArc
 50
156.0133344958991
 51
179.5819909405993
  0
ARC
  5
644
330
1F
100
AcDbEntity
  8
_SURFACE
  6
Continuous
 62
     7
100
AcDbCircle
 10
65.32152566037694
 20
167.7516489106023
 30
0.0
 40
1.221752299899999
100
AcDbArc
 50
154.4428478499024
 51
175.3347085798026
  0
ARC
  5
645
330
1F
100
AcDbEntity
  8
_SURFACE
  6
Continuous
 62
     7
100
AcDbCircle
 10
64.64106495547691
 20
166.3295133395024
 30
0.0
 40
1.2211481444
100
AcDbArc
 50
154.8102511770032
 51
175.1270665387003
  0
ARC
  5
646
330
1F
100
AcDbEntity
  8
_SURFACE
  6
Continuous
 62
     7
100
AcDbCircle
 10
64.58158654157688
 20
166.2075318097024
 30
0.0
 40
1.220426594699999
100
AcDbArc
 50
153.8469535452989
 51
174.9574413869977
  0
ARC
  5
647
330
1F
100
AcDbEntity
  8
_SURFACE
  6
Continuous
 62
     7
100
AcDbCircle
 10
65.37418402967688
 20
167.8672942920023
 30
0.0
 40
1.2193541578
100
AcDbArc
 50
154.4760675633042
 51
162.580625368199
  0
ARC
  5
648
330
1F
100
AcDbEntity
  8
_SURFACE
  6
Continuous
 62
     7
100
AcDbCircle
 10
64.29242421627674
 20
165.5512053839023
 30
0.0
 40
1.219007939
100
AcDbArc
 50
163.8649546988959
 51
176.1395920440995
  0
ARC
  5
649
330
1F
100
AcDbEntity
  8
_SURFACE
  6
Continuous
 62
     7
100
AcDbCircle
 10
64.2427166865769
 20
165.4109837562022
 30
0.0
 40
1.2094607573
100
AcDbArc
 50
164.392304733403
 51
176.0254432113999
  0
ARC
  5
64A
330
1F
100
AcDbEntity
  8
_SURFACE
  6
Continuous
 62
     7
100
AcDbCircle
 10
63.97730939177683
 20
164.5386929840023
 30
0.0
 40
1.170139594
100
AcDbArc
 50
167.2457445451972
 51
175.9408746370982
  0
SPLINE
  5
64B
330
1F
100
AcDbEntity
  8
_SURFACE
  6
Continuous
 62
     7
100
AcDbSpline
210
0.0
220
0.0
230
1.0
 70
     8
 71
     3
 72
    11
 73
     7
 74
     5
 42
0.0000000001
 43
0.0000000001
 44
0.0000000001
 12
1.0
 22
-0.0000000000000001
 32
0.0
 13
-0.0000000000000001
 23
-1.0
 33
0.0
 40
0.0
 40
0.0
 40
0.0
 40
0.0
 40
4.139947369282933
 40
7.524008351591623
 40
9.612052234696491
 40
10.17165096325336
 40
10.17165096325336
 40
10.17165096325336
 40
10.17165096325336
 10
90.94913515337685
 20
159.8980412678023
 30
0.0
 10
92.32911760980451
 20
159.8980412678023
 30
0.0
 10
94.91827606467097
 20
159.7972925380413
 30
0.0
 10
97.81871833880352
 20
159.1062477476421
 30
0.0
 10
100.1756994962133
 20
158.5480300652454
 30
0.0
 10
100.3458750556768
 20
157.6193227727211
 30
0.0
 10
100.3458750556768
 20
157.4327898632022
 30
0.0
 11
90.94913515337685
 21
159.8980412678023
 31
0.0
 11
95.08187776847677
 21
159.6539046303023
 31
0.0
 11
98.396080023877
 21
158.9698489730023
 31
0.0
 11
100.2353235168769
 21
157.9813599082023
 31
0.0
 11
100.3458750556768
 21
157.4327898632022
 31
0.0
  0
SPLINE
  5
64C
330
1F
100
AcDbEntity
  8
_SURFACE
  6
Continuous
 62
     7
100
AcDbSpline
210
0.0
220
0.0
230
1.0
 70
     8
 71
     3
 72
    11
 73
     7
 74
     5
 42
0.0000000001
 43
0.0000000001
 44
0.0000000001
 12
-1.0
 22
0.0000000000000001
 32
0.0
 13
-0.0000000000000001
 23
-1.0
 33
0.0
 40
0.0
 40
0.0
 40
0.0
 40
0.0
 40
4.139947369282933
 40
7.524008351591399
 40
9.612052234696268
 40
10.17165096325318
 40
10.17165096325318
 40
10.17165096325318
 40
10.17165096325318
 10
90.94913515337685
 20
159.8980412678023
 30
0.0
 10
89.56915269694922
 20
159.8980412678023
 30
0.0
 10
86.9799942420829
 20
159.7972925380413
 30
0.0
 10
84.07955196795009
 20
159.1062477476421
 30
0.0
 10
81.72257081054098
 20
158.5480300652453
 30
0.0
 10
81.55239525107692
 20
157.6193227727212
 30
0.0
 10
81.55239525107692
 20
157.4327898632022
 30
0.0
 11
90.94913515337685
 21
159.8980412678023
 31
0.0
 11
86.81639253827695
 21
159.6539046303023
 31
0.0
 11
83.50219028287694
 21
158.9698489730023
 31
0.0
 11
81.66294678987702
 21
157.9813599082023
 31
0.0
 11
81.55239525107692
 21
157.4327898632022
 31
0.0
  0
SPLINE
  5
64D
330
1F
100
AcDbEntity
  8
_SURFACE
  6
Continuous
 62
     7
100
AcDbSpline
210
0.0
220
0.0
230
1.0
 70
     8
 71
     3
 72
     9
 73
     5
 74
     3
 42
0.0000000001
 43
0.0000000001
 44
0.0000000001
 12
1.0
 22
-0.0000000000000001
 32
0.0
 13
0.9766272662462645
 23
-0.2149399516710376
 33
0.0
 40
0.0
 40
0.0
 40
0.0
 40
0.0
 40
5.270436800842873
 40
9.798821923820204
 40
9.798821923820204
 40
9.798821923820204
 40
9.798821923820204
 10
90.94913515337685
 20
168.2302951078023
 30
0.0
 10
92.70594742032448
 20
168.2302951078023
 30
0.0
 10
95.98026919032196
 20
168.1031655028434
 30
0.0
 10
99.20057107142227
 20
167.5120907091958
 30
0.0
 10
100.6747525324768
 20
167.1876470827023
 30
0.0
 11
90.94913515337685
 21
168.2302951078023
 31
0.0
 11
96.21260135047675
 21
167.9593197147023
 31
0.0
 11
100.6747525324768
 21
167.1876470827023
 31
0.0
  0
LINE
  5
64E
330
1F
100
AcDbEntity
  8
_SURFACE
  6
Continuous
 62
     7
100
AcDbLine
 10
100.6747525324768
 20
167.1876470827023
 30
0.0
 11
100.7240236727769
 21
167.1767804076023
 31
0.0
  0
SPLINE
  5
64F
330
1F
100
AcDbEntity
  8
_SURFACE
  6
Continuous
 62
     7
100
AcDbSpline
210
0.0
220
0.0
230
1.0
 70
     8
 71
     3
 72
     8
 73
     4
 74
     2
 42
0.0000000001
 43
0.0000000001
 44
0.0000000001
 12
0.9764290293997001
 22
-0.2158387141954833
 32
0.0
 13
0.9600809981666303
 23
-0.2797221424188061
 33
0.0
 40
0.0
 40
0.0
 40
0.0
 40
0.0
 40
1.049651935106028
 40
1.049651935106028
 40
1.049651935106028
 40
1.049651935106028
 10
100.7240236727769
 20
167.1767804076023
 30
0.0
 10
101.0656605461779
 20
167.1012618995936
 30
0.0
 10
101.4068864380822
 20
167.0219511630296
 30
0.0
 10
101.742803397277
 20
166.9240808670023
 30
0.0
 11
100.7240236727769
 21
167.1767804076023
 31
0.0
 11
101.742803397277
 21
166.9240808670023
 31
0.0
  0
SPLINE
  5
650
330
1F
100
AcDbEntity
  8
_SURFACE
  6
Continuous
 62
     7
100
AcDbSpline
210
0.0
220
0.0
230
1.0
 70
     8
 71
     3
 72
     8
 73
     4
 74
     2
 42
0.0000000001
 43
0.0000000001
 44
0.0000000001
 12
0.9512776803063566
 22
-0.3083354909039134
 32
0.0
 13
0.8976280657101407
 23
-0.4407537358315543
 33
0.0
 40
0.0
 40
0.0
 40
0.0
 40
0.0
 40
0.9563552887871978
 40
0.9563552887871978
 40
0.9563552887871978
 40
0.9563552887871978
 10
101.9943306613768
 20
166.8468077570023
 30
0.0
 10
102.2975838082656
 20
166.7485149978533
 30
0.0
 10
102.5958725472416
 20
166.6314795903074
 30
0.0
 10
102.8820229965768
 20
166.4909738682024
 30
0.0
 11
101.9943306613768
 21
166.8468077570023
 31
0.0
 11
102.8820229965768
 21
166.4909738682024
 31
0.0
  0
SPLINE
  5
651
330
1F
100
AcDbEntity
  8
_SURFACE
  6
Continuous
 62
     7
100
AcDbSpline
210
0.0
220
0.0
230
1.0
 70
     8
 71
     3
 72
     9
 73
     5
 74
     3
 42
0.0000000001
 43
0.0000000001
 44
0.0000000001
 12
0.880355679267704
 22
-0.4743141132004184
 32
0.0
 13
-0.0000000000000001
 23
-1.0
 33
0.0
 40
0.0
 40
0.0
 40
0.0
 40
0.0
 40
0.6798950412185301
 40
2.39802318277905
 40
2.39802318277905
 40
2.39802318277905
 40
2.39802318277905
 10
103.0779020559769
 20
166.3901810516024
 30
0.0
 10
103.2774185429245
 20
166.2826864470873
 30
0.0
 10
103.9277980978201
 20
165.8731907445001
 30
0.0
 10
104.7032351533767
 20
165.2431814601225
 30
0.0
 10
104.7032351533767
 20
164.6704720796023
 30
0.0
 11
103.0779020559769
 21
166.3901810516024
 31
0.0
 11
103.656266631477
 21
166.0327573746023
 31
0.0
 11
104.7032351533767
 21
164.6704720796023
 31
0.0
  0
SPLINE
  5
652
330
1F
100
AcDbEntity
  8
_SURFACE
  6
Continuous
 62
     7
100
AcDbSpline
210
0.0
220
0.0
230
1.0
 70
     8
 71
     3
 72
     9
 73
     5
 74
     3
 42
0.0000000001
 43
0.0000000001
 44
0.0000000001
 12
-1.0
 22
0.0000000000000001
 32
0.0
 13
-0.9766272662462645
 23
-0.2149399516710374
 33
0.0
 40
0.0
 40
0.0
 40
0.0
 40
0.0
 40
5.270436800842873
 40
9.798821923820204
 40
9.798821923820204
 40
9.798821923820204
 40
9.798821923820204
 10
90.94913515337685
 20
168.2302951078023
 30
0.0
 10
89.19232288642923
 20
168.2302951078023
 30
0.0
 10
85.91800111643175
 20
168.1031655028434
 30
0.0
 10
82.69769923533145
 20
167.5120907091958
 30
0.0
 10
81.2235177742769
 20
167.1876470827023
 30
0.0
 11
90.94913515337685
 21
168.2302951078023
 31
0.0
 11
85.68566895627697
 21
167.9593197147023
 31
0.0
 11
81.2235177742769
 21
167.1876470827023
 31
0.0
  0
LINE
  5
653
330
1F
100
AcDbEntity
  8
_SURFACE
  6
Continuous
 62
     7
100
AcDbLine
 10
81.2235177742769
 20
167.1876470827023
 30
0.0
 11
81.17424663397702
 21
167.1767804076023
 31
0.0
  0
SPLINE
  5
654
330
1F
100
AcDbEntity
  8
_SURFACE
  6
Continuous
 62
     7
100
AcDbSpline
210
0.0
220
0.0
230
1.0
 70
     8
 71
     3
 72
     8
 73
     4
 74
     2
 42
0.0000000001
 43
0.0000000001
 44
0.0000000001
 12
-0.9764290293997001
 22
-0.215838714195483
 32
0.0
 13
-0.9600809981666303
 23
-0.2797221424188058
 33
0.0
 40
0.0
 40
0.0
 40
0.0
 40
0.0
 40
1.049651935106028
 40
1.049651935106028
 40
1.049651935106028
 40
1.049651935106028
 10
81.17424663397702
 20
167.1767804076023
 30
0.0
 10
80.832609760576
 20
167.1012618995936
 30
0.0
 10
80.49138386867166
 20
167.0219511630296
 30
0.0
 10
80.15546690947696
 20
166.9240808670023
 30
0.0
 11
81.17424663397702
 21
167.1767804076023
 31
0.0
 11
80.15546690947696
 21
166.9240808670023
 31
0.0
  0
SPLINE
  5
655
330
1F
100
AcDbEntity
  8
_SURFACE
  6
Continuous
 62
     7
100
AcDbSpline
210
0.0
220
0.0
230
1.0
 70
     8
 71
     3
 72
     8
 73
     4
 74
     2
 42
0.0000000001
 43
0.0000000001
 44
0.0000000001
 12
-0.9512776803063566
 22
-0.3083354909039131
 32
0.0
 13
-0.8976280657101408
 23
-0.4407537358315541
 33
0.0
 40
0.0
 40
0.0
 40
0.0
 40
0.0
 40
0.9563552887871978
 40
0.9563552887871978
 40
0.9563552887871978
 40
0.9563552887871978
 10
79.90393964537685
 20
166.8468077570023
 30
0.0
 10
79.60068649848811
 20
166.7485149978533
 30
0.0
 10
79.30239775951211
 20
166.6314795903074
 30
0.0
 10
79.01624731017688
 20
166.4909738682024
 30
0.0
 11
79.90393964537685
 21
166.8468077570023
 31
0.0
 11
79.01624731017688
 21
166.4909738682024
 31
0.0
  0
SPLINE
  5
656
330
1F
100
AcDbEntity
  8
_SURFACE
  6
Continuous
 62
     7
100
AcDbSpline
210
0.0
220
0.0
230
1.0
 70
     8
 71
     3
 72
     9
 73
     5
 74
     3
 42
0.0000000001
 43
0.0000000001
 44
0.0000000001
 12
-0.8803591140833788
 22
-0.4743077379195161
 32
0.0
 13
-0.0000000000000001
 23
-1.0
 33
0.0
 40
0.0
 40
0.0
 40
0.0
 40
0.0
 40
0.6799367616702888
 40
2.398064903230947
 40
2.398064903230947
 40
2.398064903230947
 40
2.398064903230947
 10
78.82040504447701
 20
166.3902008750023
 30
0.0
 10
78.62087553609808
 20
166.2827011192169
 30
0.0
 10
77.97048425715224
 20
165.8732011702317
 30
0.0
 10
77.19503515337698
 20
165.2431814601226
 30
0.0
 10
77.19503515337698
 20
164.6704720796023
 30
0.0
 11
78.82040504447701
 21
166.3902008750023
 31
0.0
 11
78.24200367527698
 21
166.0327573746023
 31
0.0
 11
77.19503515337698
 21
164.6704720796023
 31
0.0
  0
SPLINE
  5
657
330
1F
100
AcDbEntity
  8
_SURFACE
  6
Continuous
 62
     7
100
AcDbSpline
210
0.0
220
0.0
230
1.0
 70
     8
 71
     3
 72
    11
 73
     7
 74
     5
 42
0.0000000001
 43
0.0000000001
 44
0.0000000001
 12
-0.0000000000000001
 22
-1.0
 32
0.0
 13
-1.0
 23
0.0000000000000001
 33
0.0
 40
0.0
 40
0.0
 40
0.0
 40
0.0
 40
1.718128141639754
 40
4.915501526182307
 40
9.443886649176686
 40
14.71432345001955
 40
14.71432345001955
 40
14.71432345001955
 40
14.71432345001955
 10
104.7032351533767
 20
157.4327898632022
 30
0.0
 10
104.7032351533767
 20
156.8600804826556
 30
0.0
 10
103.209313392702
 20
155.5817886637903
 30
0.0
 10
100.2979254968392
 20
154.7618656489671
 30
0.0
 10
95.96239726834388
 20
154.0086072603795
 30
0.0
 10
92.70594742032448
 20
153.8729668349023
 30
0.0
 10
90.94913515337685
 20
153.8729668349023
 30
0.0
 11
104.7032351533767
 21
157.4327898632022
 31
0.0
 11
103.656266631477
 21
156.0705045681023
 31
0.0
 11
100.6747525324768
 21
154.9156148601023
 31
0.0
 11
96.21260135047675
 21
154.1439422280022
 31
0.0
 11
90.94913515337685
 21
153.8729668349023
 31
0.0
  0
SPLINE
  5
658
330
1F
100
AcDbEntity
  8
_SURFACE
  6
Continuous
 62
     7
100
AcDbSpline
210
0.0
220
0.0
230
1.0
 70
     8
 71
     3
 72
    11
 73
     7
 74
     5
 42
0.0000000001
 43
0.0000000001
 44
0.0000000001
 12
-0.0000000000000001
 22
-1.0
 32
0.0
 13
1.0
 23
-0.0000000000000001
 33
0.0
 40
0.0
 40
0.0
 40
0.0
 40
0.0
 40
1.718128141639892
 40
4.915501526182234
 40
9.443886649176613
 40
14.71432345001948
 40
14.71432345001948
 40
14.71432345001948
 40
14.71432345001948
 10
77.19503515337698
 20
157.4327898632022
 30
0.0
 10
77.19503515337698
 20
156.8600804826556
 30
0.0
 10
78.68895691405191
 20
155.5817886637905
 30
0.0
 10
81.60034480991441
 20
154.761865648967
 30
0.0
 10
85.93587303840987
 20
154.0086072603796
 30
0.0
 10
89.19232288642923
 20
153.8729668349023
 30
0.0
 10
90.94913515337685
 20
153.8729668349023
 30
0.0
 11
77.19503515337698
 21
157.4327898632022
 31
0.0
 11
78.24200367527698
 21
156.0705045681023
 31
0.0
 11
81.2235177742769
 21
154.9156148601023
 31
0.0
 11
85.68566895627697
 21
154.1439422280022
 31
0.0
 11
90.94913515337685
 21
153.8729668349023
 31
0.0
  0
SPLINE
  5
659
330
1F
100
AcDbEntity
  8
_SURFACE
  6
Continuous
 62
     7
100
AcDbSpline
210
0.0
220
0.0
230
1.0
 70
     8
 71
     3
 72
    11
 73
     7
 74
     5
 42
0.0000000001
 43
0.0000000001
 44
0.0000000001
 12
-0.0000000000000001
 22
-1.0
 32
0.0
 13
-1.0
 23
0.0000000000000001
 33
0.0
 40
0.0
 40
0.0
 40
0.0
 40
0.0
 40
0.5595987285566512
 40
2.647642611661519
 40
6.031703593970208
 40
10.17165096325315
 40
10.17165096325315
 40
10.17165096325315
 40
10.17165096325315
 10
100.3458750556768
 20
157.4327898632022
 30
0.0
 10
100.3458750556768
 20
157.2462569536833
 30
0.0
 10
100.1756994962132
 20
156.3175496611592
 30
0.0
 10
97.81871833880353
 20
155.7593319787625
 30
0.0
 10
94.91827606467095
 20
155.0682871883634
 30
0.0
 10
92.32911760980451
 20
154.9675384586023
 30
0.0
 10
90.94913515337685
 20
154.9675384586023
 30
0.0
 11
100.3458750556768
 21
157.4327898632022
 31
0.0
 11
100.2353235168769
 21
156.8842198182023
 31
0.0
 11
98.396080023877
 21
155.8957307534023
 31
0.0
 11
95.08187776847677
 21
155.2116750961024
 31
0.0
 11
90.94913515337685
 21
154.9675384586023
 31
0.0
  0
SPLINE
  5
65A
330
1F
100
AcDbEntity
  8
_SURFACE
  6
Continuous
 62
     7
100
AcDbSpline
210
0.0
220
0.0
230
1.0
 70
     8
 71
     3
 72
    11
 73
     7
 74
     5
 42
0.0000000001
 43
0.0000000001
 44
0.0000000001
 12
-0.0000000000000001
 22
-1.0
 32
0.0
 13
1.0
 23
-0.0000000000000001
 33
0.0
 40
0.0
 40
0.0
 40
0.0
 40
0.0
 40
0.5595987285566961
 40
2.647642611661563
 40
6.03170359397003
 40
10.17165096325297
 40
10.17165096325297
 40
10.17165096325297
 40
10.17165096325297
 10
81.55239525107692
 20
157.4327898632022
 30
0.0
 10
81.55239525107692
 20
157.2462569536833
 30
0.0
 10
81.72257081054112
 20
156.3175496611594
 30
0.0
 10
84.07955196795006
 20
155.7593319787624
 30
0.0
 10
86.97999424208294
 20
155.0682871883634
 30
0.0
 10
89.56915269694921
 20
154.9675384586023
 30
0.0
 10
90.94913515337685
 20
154.9675384586023
 30
0.0
 11
81.55239525107692
 21
157.4327898632022
 31
0.0
 11
81.66294678987702
 21
156.8842198182023
 31
0.0
 11
83.50219028287694
 21
155.8957307534023
 31
0.0
 11
86.81639253827695
 21
155.2116750961024
 31
0.0
 11
90.94913515337685
 21
154.9675384586023
 31
0.0
  0
SPLINE
  5
65B
330
1F
100
AcDbEntity
  8
_SURFACE
  6
Continuous
 62
     7
100
AcDbSpline
210
0.0
220
0.0
230
1.0
 70
     8
 71
     3
 72
    11
 73
     7
 74
     5
 42
0.0000000001
 43
0.0000000001
 44
0.0000000001
 12
-1.0
 22
0.0000000000000001
 32
0.0
 13
-0.0000000000000001
 23
-1.0
 33
0.0
 40
0.0
 40
0.0
 40
0.0
 40
0.0
 40
5.270436800842866
 40
9.798821923820216
 40
12.99619530839865
 40
14.7143234499594
 40
14.7143234499594
 40
14.7143234499594
 40
14.7143234499594
 10
90.94913515337685
 20
160.9926128914023
 30
0.0
 10
89.19232288642923
 20
160.9926128914023
 30
0.0
 10
85.93587303843888
 20
160.8569724658543
 30
0.0
 10
81.60034480985288
 20
160.1037140775227
 30
0.0
 10
78.68895691413666
 20
159.2837910624807
 30
0.0
 10
77.19503515337698
 20
158.0054992437224
 30
0.0
 10
77.19503515337698
 20
157.4327898632022
 30
0.0
 11
90.94913515337685
 21
160.9926128914023
 31
0.0
 11
85.68566895627697
 21
160.7216374983024
 31
0.0
 11
81.2235177742769
 21
159.9499648663023
 31
0.0
 11
78.24200367527698
 21
158.7950751582023
 31
0.0
 11
77.19503515337698
 21
157.4327898632022
 31
0.0
  0
SPLINE
  5
65C
330
1F
100
AcDbEntity
  8
_SURFACE
  6
Continuous
 62
     7
100
AcDbSpline
210
0.0
220
0.0
230
1.0
 70
     8
 71
     3
 72
    11
 73
     7
 74
     5
 42
0.0000000001
 43
0.0000000001
 44
0.0000000001
 12
1.0
 22
-0.0000000000000001
 32
0.0
 13
-0.0000000000000001
 23
-1.0
 33
0.0
 40
0.0
 40
0.0
 40
0.0
 40
0.0
 40
5.270436800842866
 40
9.798821923820216
 40
12.99619530839886
 40
14.71432344995947
 40
14.71432344995947
 40
14.71432344995947
 40
14.71432344995947
 10
90.94913515337685
 20
160.9926128914023
 30
0.0
 10
92.70594742032448
 20
160.9926128914023
 30
0.0
 10
95.96239726831489
 20
160.8569724658543
 30
0.0
 10
100.2979254969008
 20
160.1037140775226
 30
0.0
 10
103.2093133926173
 20
159.2837910624809
 30
0.0
 10
104.7032351533767
 20
158.0054992437224
 30
0.0
 10
104.7032351533767
 20
157.4327898632022
 30
0.0
 11
90.94913515337685
 21
160.9926128914023
 31
0.0
 11
96.21260135047675
 21
160.7216374983024
 31
0.0
 11
100.6747525324768
 21
159.9499648663023
 31
0.0
 11
103.656266631477
 21
158.7950751582023
 31
0.0
 11
104.7032351533767
 21
157.4327898632022
 31
0.0
  0
SPLINE
  5
65D
330
1F
100
AcDbEntity
  8
_SURFACE
  6
Continuous
 62
     7
100
AcDbSpline
210
0.0
220
0.0
230
1.0
 70
     8
 71
     3
 72
    10
 73
     6
 74
     4
 42
0.0000000001
 43
0.0000000001
 44
0.0000000001
 12
-0.0504554410056725
 22
0.9987263130972985
 32
0.0
 13
-0.0682519562813751
 23
0.9976681163913005
 33
0.0
 40
0.0
 40
0.0
 40
0.0
 40
0.0
 40
1.911643209512689
 40
3.681300207381266
 40
4.957332844122182
 40
4.957332844122182
 40
4.957332844122182
 40
4.957332844122182
 10
121.848040171577
 20
131.5515226841023
 30
0.0
 10
121.8158892378498
 20
132.1879254756336
 30
0.0
 10
121.7505216735224
 20
133.4132918510059
 30
0.0
 10
121.6522786231096
 20
135.0628243742791
 30
0.0
 10
121.5858137780558
 20
136.0758818240519
 30
0.0
 10
121.556783203477
 20
136.5002341831023
 30
0.0
 11
121.848040171577
 21
131.5515226841023
 31
0.0
 11
121.7459544740769
 21
133.4604381539023
 31
0.0
 11
121.640434634177
 21
135.2269464198022
 31
0.0
 11
121.556783203477
 21
136.5002341831023
 31
0.0
  0
SPLINE
  5
65E
330
1F
100
AcDbEntity
  8
_SURFACE
  6
Continuous
 62
     7
100
AcDbSpline
210
0.0
220
0.0
230
1.0
 70
     8
 71
     3
 72
    10
 73
     6
 74
     4
 42
0.0000000001
 43
0.0000000001
 44
0.0000000001
 12
-0.0860868097355377
 22
-0.9962876397855978
 32
0.0
 13
-0.0671424943044949
 23
-0.9977433965998326
 33
0.0
 40
0.0
 40
0.0
 40
0.0
 40
0.0
 40
0.5826620469072191
 40
2.349416141346661
 40
3.960062171701393
 40
3.960062171701393
 40
3.960062171701393
 40
3.960062171701393
 10
61.72290463187692
 20
156.3381367781023
 30
0.0
 10
61.70618479295285
 20
156.1446371129336
 30
0.0
 10
61.6401081068103
 20
155.3642896456216
 30
0.0
 10
61.53718253455652
 20
154.0482681957612
 30
0.0
 10
61.45802683398347
 20
152.925245424951
 30
0.0
 10
61.42197923667692
 20
152.3895749446023
 30
0.0
 11
61.72290463187692
 21
156.3381367781023
 31
0.0
 11
61.673718713877
 21
155.7575544787022
 31
0.0
 11
61.53548559527695
 21
153.9962164546022
 31
0.0
 11
61.42197923667692
 21
152.3895749446023
 31
0.0
  0
LINE
  5
65F
330
1F
100
AcDbEntity
  8
_SURFACE
  6
Continuous
 62
     7
100
AcDbLine
 10
60.46215439237681
 20
138.1689939915024
 30
0.0
 11
60.44496489697696
 21
137.9422945300022
 31
0.0
  0
SPLINE
  5
660
330
1F
100
AcDbEntity
  8
_SURFACE
  6
Continuous
 62
     7
100
AcDbSpline
210
0.0
220
0.0
230
1.0
 70
     8
 71
     3
 72
    10
 73
     6
 74
     4
 42
0.0000000001
 43
0.0000000001
 44
0.0000000001
 12
-0.0682570336999656
 22
-0.9976677690245795
 32
0.0
 13
-0.0505964064685887
 23
-0.998719181578318
 33
0.0
 40
0.0
 40
0.0
 40
0.0
 40
0.0
 40
1.248840320284668
 40
3.011737537949643
 40
4.927908634534382
 40
4.927908634534382
 40
4.927908634534382
 40
4.927908634534382
 10
60.34131158817678
 20
136.4977079534023
 30
0.0
 10
60.31289754290092
 20
136.0823987080002
 30
0.0
 10
60.24712122063849
 20
135.0806380401265
 30
0.0
 10
60.14931316775363
 20
133.4409050967196
 30
0.0
 10
60.08386138756554
 20
132.216288359084
 30
0.0
 10
60.05154426367681
 20
131.5783827493023
 30
0.0
 11
60.34131158817678
 21
136.4977079534023
 31
0.0
 11
60.25937986767695
 21
135.2515581475023
 31
0.0
 11
60.15409331147686
 21
133.4918077842023
 31
0.0
 11
60.05154426367681
 21
131.5783827493023
 31
0.0
  0
LINE
  5
661
330
1F
100
AcDbEntity
  8
_SURFACE
  6
Continuous
 62
     7
100
AcDbLine
 10
120.477801825577
 20
152.3659332225023
 30
0.0
 11
120.4608750010769
 21
152.6155138246023
 31
0.0
  0
LINE
  5
662
330
1F
100
AcDbEntity
  8
_SURFACE
  6
Continuous
 62
     7
100
AcDbLine
 10
120.4608750010769
 20
152.6155138246023
 30
0.0
 11
120.4530764714769
 21
152.7292856391023
 31
0.0
  0
LINE
  5
663
330
1F
100
AcDbEntity
  8
_SURFACE
  6
Continuous
 62
     7
100
AcDbLine
 10
120.4183593624769
 20
153.2266867255022
 30
0.0
 11
120.4081112406768
 21
153.3707394865022
 31
0.0
  0
LINE
  5
664
330
1F
100
AcDbEntity
  8
_SURFACE
  6
Continuous
 62
     7
100
AcDbLine
 10
120.3631307785768
 20
153.9886081268022
 30
0.0
 11
120.3389082020767
 21
154.3119414761024
 31
0.0
  0
LINE
  5
665
330
1F
100
AcDbEntity
  8
_SURFACE
  6
Continuous
 62
     7
100
AcDbLine
 10
120.3389082020767
 20
154.3119414761024
 30
0.0
 11
120.317653005377
 21
154.5904174699023
 31
0.0
  0
LINE
  5
666
330
1F
100
AcDbEntity
  8
_SURFACE
  6
Continuous
 62
     7
100
AcDbLine
 10
120.281918588677
 20
155.0478370932023
 30
0.0
 11
120.271946316977
 21
155.1731368816023
 31
0.0
  0
LINE
  5
667
330
1F
100
AcDbEntity
  8
_SURFACE
  6
Continuous
 62
     7
100
AcDbLine
 10
121.4544612388768
 20
137.9274414922023
 30
0.0
 11
121.4373161882768
 21
138.1538969374023
 31
0.0
  0
SPLINE
  5
668
330
1F
100
AcDbEntity
  8
_SURFACE
  6
Continuous
 62
     7
100
AcDbSpline
210
0.0
220
0.0
230
1.0
 70
     8
 71
     3
 72
    10
 73
     6
 74
     4
 42
0.0000000001
 43
0.0000000001
 44
0.0000000001
 12
0.0670764191345241
 22
-0.9977478408877114
 32
0.0
 13
-0.423978467110096
 23
-0.9056722693264784
 33
0.0
 40
0.0
 40
0.0
 40
0.0
 40
0.0
 40
0.0771417008878968
 40
0.1559842770613315
 40
0.2380217923189209
 40
0.2380217923189209
 40
0.2380217923189209
 40
0.2380217923189209
 10
121.4373161882768
 20
138.1538969374023
 30
0.0
 10
121.4390409846306
 20
138.1282409489012
 30
0.0
 10
121.437837803495
 20
138.0759306694211
 30
0.0
 10
121.4220736430846
 20
137.9978109431055
 30
0.0
 10
121.4028676436317
 20
137.94745705494
 30
0.0
 10
121.3912735969769
 20
137.9226906874023
 30
0.0
 11
121.4373161882768
 21
138.1538969374023
 31
0.0
 11
121.4356185057768
 21
138.0767739195023
 31
0.0
 11
121.4202315758769
 21
137.9994473768024
 31
0.0
 11
121.3912735969769
 21
137.9226906874023
 31
0.0
  0
SPLINE
  5
669
330
1F
100
AcDbEntity
  8
_SURFACE
  6
Continuous
 62
     7
100
AcDbSpline
210
0.0
220
0.0
230
1.0
 70
     8
 71
     3
 72
    10
 73
     6
 74
     4
 42
0.0000000001
 43
0.0000000001
 44
0.0000000001
 12
0.6098373898366311
 22
0.7925265660892669
 32
0.0
 13
-0.0204743542204394
 23
0.9997903784390286
 33
0.0
 40
0.0
 40
0.0
 40
0.0
 40
0.0
 40
0.0214628440887062
 40
0.0405845004214131
 40
0.0504145425890805
 40
0.0504145425890805
 40
0.0504145425890805
 40
0.0504145425890805
 10
122.7526656282769
 20
94.68638789760227
 30
0.0
 10
122.7570285765494
 20
94.69205785564366
 30
0.0
 10
122.764357554625
 20
94.70357818918447
 30
0.0
 10
122.7695160216502
 20
94.7198335223406
 30
0.0
 10
122.7701144158988
 20
94.72951603444265
 30
0.0
 10
122.770047327977
 20
94.73279202830228
 30
0.0
 11
122.7526656282769
 21
94.68638789760227
 31
0.0
 11
122.7638919981769
 21
94.70468058180237
 31
0.0
 11
122.7694355430767
 21
94.7229810422023
 31
0.0
 11
122.770047327977
 21
94.73279202830228
 31
0.0
  0
SPLINE
  5
66A
330
1F
100
AcDbEntity
  8
_SURFACE
  6
Continuous
 62
     7
100
AcDbSpline
210
0.0
220
0.0
230
1.0
 70
     8
 71
     3
 72
    10
 73
     6
 74
     4
 42
0.0000000001
 43
0.0000000001
 44
0.0000000001
 12
0.0679686524915822
 22
-0.9976874572121666
 32
0.0
 13
-0.4147506489358161
 23
-0.9099351071407891
 33
0.0
 40
0.0
 40
0.0
 40
0.0
 40
0.0
 40
0.1207163406361808
 40
0.2434182371876912
 40
0.3694825890518732
 40
0.3694825890518732
 40
0.3694825890518732
 40
0.3694825890518732
 10
120.9115575591768
 20
143.7436743723023
 30
0.0
 10
120.9142925348458
 20
143.7035286459912
 30
0.0
 10
120.9127305925074
 20
143.621922754486
 30
0.0
 10
120.8894039421301
 20
143.5004598854635
 30
0.0
 10
120.8606251523913
 20
143.4222542249757
 30
0.0
 10
120.8431967284769
 20
143.3840174318023
 30
0.0
 11
120.9115575591768
 21
143.7436743723023
 31
0.0
 11
120.909347947777
 21
143.6229782559023
 31
0.0
 11
120.8864356413769
 21
143.5024345641023
 31
0.0
 11
120.8431967284769
 21
143.3840174318023
 31
0.0
  0
SPLINE
  5
66B
330
1F
100
AcDbEntity
  8
_SURFACE
  6
Continuous
 62
     7
100
AcDbSpline
210
0.0
220
0.0
230
1.0
 70
     8
 71
     3
 72
    12
 73
     8
 74
     6
 42
0.0000000001
 43
0.0000000001
 44
0.0000000001
 12
0.111732774477913
 22
-0.993738289041671
 32
0.0
 13
0.0760525039937951
 23
-0.9971038143725426
 33
0.0
 40
0.0
 40
0.0
 40
0.0
 40
0.0
 40
1.144685918665131
 40
2.332695313260926
 40
3.45579545308397
 40
4.529636518836454
 40
5.614748211765551
 40
5.614748211765551
 40
5.614748211765551
 40
5.614748211765551
 10
120.9115557551768
 20
143.7436742132024
 30
0.0
 10
120.9541887330429
 20
143.3645014711009
 30
0.0
 10
121.0383814150236
 20
142.5914998020506
 30
0.0
 10
121.1542595756962
 20
141.4453991911277
 30
0.0
 10
121.2590793667463
 20
140.3219510141127
 30
0.0
 10
121.352875045804
 20
139.2319534047992
 30
0.0
 10
121.4098073884568
 20
138.5145522000156
 30
0.0
 10
121.4373158755768
 20
138.1538958640023
 30
0.0
 11
120.9115557551768
 21
143.7436742132024
 31
0.0
 11
121.0353792721769
 21
142.6057051499023
 31
0.0
 11
121.1548695908769
 21
141.4237202154024
 31
0.0
 11
121.2592336607768
 21
140.3054796040023
 31
0.0
 11
121.3513736151768
 21
139.2355988334023
 31
0.0
 11
121.4373158755768
 21
138.1538958640023
 31
0.0
  0
SPLINE
  5
66C
330
1F
100
AcDbEntity
  8
_SURFACE
  6
Continuous
 62
     7
100
AcDbSpline
210
0.0
220
0.0
230
1.0
 70
     8
 71
     3
 72
    10
 73
     6
 74
     4
 42
0.0000000001
 43
0.0000000001
 44
0.0000000001
 12
0.0220143959992444
 22
-0.9997576538185585
 32
0.0
 13
0.0218575057132976
 23
-0.9997610961844801
 33
0.0
 40
0.0
 40
0.0
 40
0.0
 40
0.0
 40
2.509296163322031
 40
4.996743671844068
 40
7.416329791946431
 40
7.416329791946431
 40
7.416329791946431
 40
7.416329791946431
 10
122.588974402577
 20
102.1469358807023
 30
0.0
 10
122.6073879490499
 20
101.310706532376
 30
0.0
 10
122.6440107055705
 20
99.64552798628421
 30
0.0
 10
122.6982373340553
 20
97.17401286654755
 30
0.0
 10
122.7340311991622
 20
95.53872667851768
 30
0.0
 10
122.7516599049768
 20
94.73239065460226
 30
0.0
 11
122.588974402577
 21
102.1469358807023
 31
0.0
 11
122.6441487424768
 21
99.63824637670239
 31
0.0
 11
122.6987115973768
 21
97.15139736590224
 31
0.0
 11
122.7516599049768
 21
94.73239065460226
 31
0.0
  0
LINE
  5
66D
330
1F
100
AcDbEntity
  8
_SURFACE
  6
Continuous
 62
     7
100
AcDbLine
 10
122.7516599049768
 20
94.73239065460226
 30
0.0
 11
122.7526656282769
 21
94.68638789760227
 31
0.0
  0
SPLINE
  5
66E
330
1F
100
AcDbEntity
  8
_SURFACE
  6
Continuous
 62
     7
100
AcDbSpline
210
0.0
220
0.0
230
1.0
 70
     8
 71
     3
 72
    15
 73
    11
 74
     9
 42
0.0000000001
 43
0.0000000001
 44
0.0000000001
 12
0.0221144320659162
 22
-0.9997554460438824
 32
0.0
 13
0.0189332082653792
 23
-0.9998207507472427
 33
0.0
 40
0.0
 40
0.0
 40
0.0
 40
0.0
 40
4.748559035021528
 40
9.998101495865528
 40
16.13111147491974
 40
23.34744290664356
 40
30.7358140251897
 40
38.1917005486828
 40
46.90601223009771
 40
57.04781435670352
 40
57.04781435670352
 40
57.04781435670352
 40
57.04781435670352
 10
122.7525808723767
 20
94.68638917510229
 30
0.0
 10
122.7875847677737
 20
93.1039232563944
 30
0.0
 10
122.861627512792
 20
89.77204531449059
 30
0.0
 10
122.982722677106
 20
84.39637186425438
 30
0.0
 10
123.1228814842559
 20
78.19832845180591
 30
0.0
 10
123.2781661342837
 20
71.28750192265568
 30
0.0
 10
123.4396236484979
 20
63.93574428763287
 30
0.0
 10
123.6049012468174
 20
56.08462611834284
 30
0.0
 10
123.7812205268064
 20
47.31573077672847
 30
0.0
 10
123.9026952099937
 20
41.03153270631987
 30
0.0
 10
123.9667008272768
 20
37.65153796760221
 30
0.0
 11
122.7525808723767
 21
94.68638917510229
 31
0.0
 11
122.8581457441769
 21
89.9390036876022
 31
0.0
 11
122.9761606099769
 21
84.69078793940223
 31
0.0
 11
123.1145829154769
 21
78.55934025810227
 31
0.0
 11
123.2762745490768
 21
71.34482051330228
 31
0.0
 11
123.4380144689767
 21
63.95821994310238
 31
0.0
 11
123.5949914162768
 21
56.50398610660231
 31
0.0
 11
123.7706120791768
 21
47.79144425800227
 31
0.0
 11
123.9667008272768
 21
37.65153796760221
 31
0.0
  0
LINE
  5
66F
330
1F
100
AcDbEntity
  8
_SURFACE
  6
Continuous
 62
     7
100
AcDbLine
 10
120.0816213947769
 20
157.3833157692024
 30
0.0
 11
120.0795735200768
 21
157.4052887617023
 31
0.0
  0
SPLINE
  5
670
330
1F
100
AcDbEntity
  8
_SURFACE
  6
Continuous
 62
     7
100
AcDbSpline
210
0.0
220
0.0
230
1.0
 70
     8
 71
     3
 72
    10
 73
     6
 74
     4
 42
0.0000000001
 43
0.0000000001
 44
0.0000000001
 12
-0.0928729327097814
 22
0.9956779692098669
 32
0.0
 13
-0.1352880660081344
 23
0.99080630760799
 33
0.0
 40
0.0
 40
0.0
 40
0.0
 40
0.0
 40
1.50559411121429
 40
2.914943685895643
 40
4.201971984261497
 40
4.201971984261497
 40
4.201971984261497
 40
4.201971984261497
 10
120.0795735200768
 20
157.4052887617023
 30
0.0
 10
120.0329638732172
 20
157.9049843907384
 30
0.0
 10
119.9377141416743
 20
158.8719788169673
 30
0.0
 10
119.7827960165675
 20
160.2640813480469
 30
0.0
 10
119.669848595238
 20
161.155801204072
 30
0.0
 10
119.6118087387768
 20
161.5808664561023
 30
0.0
 11
120.0795735200768
 21
157.4052887617023
 31
0.0
 11
119.9313096094768
 21
158.9035649180022
 31
0.0
 11
119.7745878828769
 21
160.3041735443023
 31
0.0
 11
119.6118087387768
 21
161.5808664561023
 31
0.0
  0
SPLINE
  5
671
330
1F
100
AcDbEntity
  8
_SURFACE
  6
Continuous
 62
     7
100
AcDbSpline
210
0.0
220
0.0
230
1.0
 70
     8
 71
     3
 72
    12
 73
     8
 74
     6
 42
0.0000000001
 43
0.0000000001
 44
0.0000000001
 12
-0.1119381859703048
 22
0.9937151717276321
 32
0.0
 13
-0.1753985339928584
 23
0.984497513594197
 33
0.0
 40
0.0
 40
0.0
 40
0.0
 40
0.0
 40
0.8664806895062135
 40
1.749048729483166
 40
2.634621314417401
 40
3.516695105935675
 40
4.391063378720344
 40
4.391063378720344
 40
4.391063378720344
 40
4.391063378720344
 10
120.9115529115768
 20
143.7436739623023
 30
0.0
 10
120.8792221527229
 20
144.0306856313594
 30
0.0
 10
120.8112541458319
 20
144.6097382603751
 30
0.0
 10
120.6991519455406
 20
145.4807814235865
 30
0.0
 10
120.5753448190855
 20
146.3554945130905
 30
0.0
 10
120.4400018181492
 20
147.2257304472965
 30
0.0
 10
120.341898893749
 20
147.8029596723617
 30
0.0
 10
120.2907779226769
 20
148.0898974692024
 30
0.0
 11
120.9115529115768
 21
143.7436739623023
 31
0.0
 11
120.810295493277
 21
144.6042178139022
 31
0.0
 11
120.697444414177
 21
145.4795411708023
 31
0.0
 11
120.5731798719769
 21
146.3563519410024
 31
0.0
 11
120.4375578931768
 21
147.2279371936023
 31
0.0
 11
120.2907779226769
 21
148.0898974692024
 31
0.0
  0
SPLINE
  5
672
330
1F
100
AcDbEntity
  8
_SURFACE
  6
Continuous
 62
     7
100
AcDbSpline
210
0.0
220
0.0
230
1.0
 70
     8
 71
     3
 72
    10
 73
     6
 74
     4
 42
0.0000000001
 43
0.0000000001
 44
0.0000000001
 12
0.5643357235126242
 22
-0.825545390131568
 32
0.0
 13
0.5615197406196257
 23
-0.8274633411181843
 33
0.0
 40
0.0
 40
0.0
 40
0.0
 40
0.0
 40
0.283109214459319
 40
0.5596132450153686
 40
0.8668690138614071
 40
0.8668690138614071
 40
0.8668690138614071
 40
0.8668690138614071
 10
118.2973424016768
 20
151.5587864636023
 30
0.0
 10
118.3505986161352
 20
151.480879961302
 30
0.0
 10
118.4564574175012
 20
151.327286079352
 30
0.0
 10
118.6217328003529
 20
151.0902655345795
 30
0.0
 10
118.7325876199015
 20
150.930336358658
 30
0.0
 10
118.7900976797769
 20
150.8455887303022
 30
0.0
 11
118.2973424016768
 21
151.5587864636023
 31
0.0
 11
118.4579208081768
 21
151.3256225670023
 31
0.0
 11
118.6157702233768
 21
151.0986026537022
 31
0.0
 11
118.7900976797769
 21
150.8455887303022
 31
0.0
  0
SPLINE
  5
673
330
1F
100
AcDbEntity
  8
_SURFACE
  6
Continuous
 62
     7
100
AcDbSpline
210
0.0
220
0.0
230
1.0
 70
     8
 71
     3
 72
    10
 73
     6
 74
     4
 42
0.0000000001
 43
0.0000000001
 44
0.0000000001
 12
-0.3134087024408367
 22
0.9496183366144268
 32
0.0
 13
-0.39815710721024
 23
0.9173172395512761
 33
0.0
 40
0.0
 40
0.0
 40
0.0
 40
0.0
 40
0.3891089340637764
 40
0.7104342485804973
 40
0.9919793597163739
 40
0.9919793597163739
 40
0.9919793597163739
 40
0.9919793597163739
 10
119.6151446563768
 20
151.0063062499022
 30
0.0
 10
119.5744946143324
 20
151.1294745761447
 30
0.0
 10
119.496218460379
 20
151.353042084124
 30
0.0
 10
119.3766856348325
 20
151.6613878121455
 30
0.0
 10
119.2988197167431
 20
151.8466726443502
 30
0.0
 10
119.2614533210768
 20
151.9327613724023
 30
0.0
 11
119.6151446563768
 21
151.0063062499022
 31
0.0
 11
119.4865509432769
 21
151.3735519708023
 31
0.0
 11
119.3704091182767
 21
151.6731534298023
 31
0.0
 11
119.2614533210768
 21
151.9327613724023
 31
0.0
  0
LINE
  5
674
330
1F
100
AcDbEntity
  8
_SURFACE
  6
Continuous
 62
     7
100
AcDbLine
 10
119.611851942877
 20
161.5802347401024
 30
0.0
 11
119.6022806250769
 21
161.6502161278023
 31
0.0
  0
SPLINE
  5
675
330
1F
100
AcDbEntity
  8
_SURFACE
  6
Continuous
 62
     7
100
AcDbSpline
210
0.0
220
0.0
230
1.0
 70
     8
 71
     3
 72
    10
 73
     6
 74
     4
 42
0.0000000001
 43
0.0000000001
 44
0.0000000001
 12
-0.1361006694101623
 22
0.9906950124968359
 32
0.0
 13
-0.2214963737804604
 23
0.9751611950862825
 33
0.0
 40
0.0
 40
0.0
 40
0.0
 40
0.0
 40
1.100472646388297
 40
2.127231658933576
 40
3.010078643060515
 40
3.010078643060515
 40
3.010078643060515
 40
3.010078643060515
 10
119.6022806250769
 20
161.6502161278023
 30
0.0
 10
119.5523556037966
 20
162.0136270485244
 30
0.0
 10
119.4492585530772
 20
162.7152372562184
 30
0.0
 10
119.2805081061871
 20
163.704382958104
 30
0.0
 10
119.155014802206
 20
164.3286169486957
 30
0.0
 10
119.0898323336769
 20
164.6155896554023
 30
0.0
 11
119.6022806250769
 21
161.6502161278023
 31
0.0
 11
119.4413613135769
 21
162.7388597888022
 31
0.0
 11
119.2671098849769
 21
163.7507246560023
 31
0.0
 11
119.0898323336769
 21
164.6155896554023
 31
0.0
  0
SPLINE
  5
676
330
1F
100
AcDbEntity
  8
_SURFACE
  6
Continuous
 62
     7
100
AcDbSpline
210
0.0
220
0.0
230
1.0
 70
     8
 71
     3
 72
    12
 73
     8
 74
     6
 42
0.0000000001
 43
0.0000000001
 44
0.0000000001
 12
0.3146727174254503
 22
-0.9492002322524383
 32
0.0
 13
0.1751503109539654
 23
-0.9845417048417651
 33
0.0
 40
0.0
 40
0.0
 40
0.0
 40
0.0
 40
0.4359970583185994
 40
1.00013196547428
 40
1.558264681945286
 40
2.208017271322002
 40
2.995864029896664
 40
2.995864029896664
 40
2.995864029896664
 40
2.995864029896664
 10
119.6151435207769
 20
151.0063061258024
 30
0.0
 10
119.6608756471538
 20
150.8683566227965
 30
0.0
 10
119.757813538837
 20
150.5492641337571
 30
0.0
 10
119.8896062953572
 20
150.0467308757436
 30
0.0
 10
120.0221219729947
 20
149.4710530582082
 30
0.0
 10
120.1569238835103
 20
148.8195653273933
 30
0.0
 10
120.2447801907941
 20
148.3484534249493
 30
0.0
 10
120.2907773923769
 20
148.0898974280023
 30
0.0
 11
119.6151435207769
 21
151.0063061258024
 31
0.0
 11
119.7430467090769
 21
150.5894917675022
 31
0.0
 11
119.8873364954768
 21
150.0441215712023
 31
0.0
 11
120.0134039754769
 21
149.5004128995023
 31
0.0
 11
120.1457074537769
 21
148.8642728072023
 31
0.0
 11
120.2907773923769
 21
148.0898974280023
 31
0.0
  0
SPLINE
  5
677
330
1F
100
AcDbEntity
  8
_SURFACE
  6
Continuous
 62
     7
100
AcDbSpline
210
0.0
220
0.0
230
1.0
 70
     8
 71
     3
 72
     9
 73
     5
 74
     3
 42
0.0000000001
 43
0.0000000001
 44
0.0000000001
 12
-0.2433868506993158
 22
0.9699292968596571
 32
0.0
 13
-0.2725632474213167
 23
0.962137867540378
 33
0.0
 40
0.0
 40
0.0
 40
0.0
 40
0.0
 40
0.3003066122682735
 40
0.5897498471355457
 40
0.5897498471355457
 40
0.5897498471355457
 40
0.5897498471355457
 10
119.0165036846768
 20
164.9225283845023
 30
0.0
 10
118.9921401244754
 20
165.0196204449288
 30
0.0
 10
118.9423310890339
 20
165.2098034331057
 30
0.0
 10
118.88948320969
 20
165.3991543543793
 30
0.0
 10
118.8631860136768
 20
165.4919824533023
 30
0.0
 11
119.0165036846768
 21
164.9225283845023
 31
0.0
 11
118.9406256339769
 21
165.2130909127024
 31
0.0
 11
118.8631860136768
 21
165.4919824533023
 31
0.0
  0
SPLINE
  5
678
330
1F
100
AcDbEntity
  8
_SURFACE
  6
Continuous
 62
     7
100
AcDbSpline
210
0.0
220
0.0
230
1.0
 70
     8
 71
     3
 72
    10
 73
     6
 74
     4
 42
0.0000000001
 43
0.0000000001
 44
0.0000000001
 12
0.4447018988321205
 22
-0.89567863722158
 32
0.0
 13
0.4213692401035337
 23
-0.9068891682529738
 33
0.0
 40
0.0
 40
0.0
 40
0.0
 40
0.0
 40
0.1485297098176201
 40
0.2846290300077053
 40
0.3276796285693051
 40
0.3276796285693051
 40
0.3276796285693051
 40
0.3276796285693051
 10
118.5305880354768
 20
166.3184445280023
 30
0.0
 10
118.5526051834731
 20
166.2740995653101
 30
0.0
 10
118.5953843126809
 20
166.1894160199524
 30
0.0
 10
118.6437644705488
 20
166.0914801264664
 30
0.0
 10
118.6692164652095
 20
166.0374576249098
 30
0.0
 10
118.6752631978768
 20
166.0244435844024
 30
0.0
 11
118.5305880354768
 21
166.3184445280023
 31
0.0
 11
118.5970469325769
 21
166.1856127182023
 31
0.0
 11
118.6569263263769
 21
166.0633937215023
 31
0.0
 11
118.6752631978768
 21
166.0244435844024
 31
0.0
  0
SPLINE
  5
679
330
1F
100
AcDbEntity
  8
_SURFACE
  6
Continuous
 62
     7
100
AcDbSpline
210
0.0
220
0.0
230
1.0
 70
     8
 71
     3
 72
     9
 73
     5
 74
     3
 42
0.0000000001
 43
0.0000000001
 44
0.0000000001
 12
0.4213692399957471
 22
-0.9068891683030548
 32
0.0
 13
0.3739435854638293
 23
-0.9274514515005385
 33
0.0
 40
0.0
 40
0.0
 40
0.0
 40
0.0
 40
0.0829911713938791
 40
0.16238979750517
 40
0.16238979750517
 40
0.16238979750517
 40
0.16238979750517
 10
118.6752631978768
 20
166.0244435844024
 30
0.0
 10
118.686919840149
 20
165.9993556529351
 30
0.0
 10
118.7092245627197
 20
165.9500286744248
 30
0.0
 10
118.7302127102005
 20
165.9001242985803
 30
0.0
 10
118.7401095791768
 20
165.8755781749023
 30
0.0
 11
118.6752631978768
 21
166.0244435844024
 31
0.0
 11
118.7093741413769
 21
165.9487866081023
 31
0.0
 11
118.7401095791768
 21
165.8755781749023
 31
0.0
  0
SPLINE
  5
67A
330
1F
100
AcDbEntity
  8
_SURFACE
  6
Continuous
 62
     7
100
AcDbSpline
210
0.0
220
0.0
230
1.0
 70
     8
 71
     3
 72
     9
 73
     5
 74
     3
 42
0.0000000001
 43
0.0000000001
 44
0.0000000001
 12
0.328387113904752
 22
-0.9445432247500944
 32
0.0
 13
0.2702856009363901
 23
-0.9627801898286309
 33
0.0
 40
0.0
 40
0.0
 40
0.0
 40
0.0
 40
0.0364517445526218
 40
0.1421062081862543
 40
0.1421062081862543
 40
0.1421062081862543
 40
0.1421062081862543
 10
118.7800493140767
 20
165.7695494772023
 30
0.0
 10
118.7840394084735
 20
165.7580727277531
 30
0.0
 10
118.7991815590407
 20
165.7131855580061
 30
0.0
 10
118.8125271132119
 20
165.6677140454201
 30
0.0
 10
118.8220460732769
 20
165.6338067039023
 30
0.0
 11
118.7800493140767
 21
165.7695494772023
 31
0.0
 11
118.7916894399769
 21
165.7350062123022
 31
0.0
 11
118.8220460732769
 21
165.6338067039023
 31
0.0
  0
SPLINE
  5
67B
330
1F
100
AcDbEntity
  8
_SURFACE
  6
Continuous
 62
     7
100
AcDbSpline
210
0.0
220
0.0
230
1.0
 70
     8
 71
     3
 72
    10
 73
     6
 74
     4
 42
0.0000000001
 43
0.0000000001
 44
0.0000000001
 12
0.6785470113981044
 22
0.7345569775876485
 32
0.0
 13
-0.0191726778573678
 23
0.9998161873183379
 33
0.0
 40
0.0
 40
0.0
 40
0.0
 40
0.0
 40
0.025549755475251
 40
0.0475739469087197
 40
0.0607390339973466
 40
0.0607390339973466
 40
0.0607390339973466
 40
0.0607390339973466
 10
122.588974402577
 20
102.1469358807023
 30
0.0
 10
122.5947533059835
 20
102.1531917977556
 30
0.0
 10
122.6045639889189
 20
102.1658382717854
 30
0.0
 10
122.6123772775205
 20
102.1848984977718
 30
0.0
 10
122.6134775542348
 20
102.1966947704761
 30
0.0
 10
122.6133934175769
 20
102.2010823262023
 30
0.0
 11
122.588974402577
 21
102.1469358807023
 31
0.0
 11
122.6042264727769
 21
102.1674337918022
 31
0.0
 11
122.612174698977
 21
102.1879737701023
 31
0.0
 11
122.6133934175769
 21
102.2010823262023
 31
0.0
  0
SPLINE
  5
67C
330
1F
100
AcDbEntity
  8
_SURFACE
  6
Continuous
 62
     7
100
AcDbSpline
210
0.0
220
0.0
230
1.0
 70
     8
 71
     3
 72
    11
 73
     7
 74
     5
 42
0.0000000001
 43
0.0000000001
 44
0.0000000001
 12
0.4178258596866435
 22
-0.9085271327688111
 32
0.0
 13
0.3971093506285594
 23
-0.9177713024732053
 33
0.0
 40
0.0
 40
0.0
 40
0.0
 40
0.0
 40
0.2110272873889329
 40
0.4422836464703149
 40
0.6729092189907933
 40
0.8839036225948756
 40
0.8839036225948756
 40
0.8839036225948756
 40
0.8839036225948756
 10
118.8942586890769
 20
152.7367629845022
 30
0.0
 10
118.9236495750004
 20
152.6728549790531
 30
0.0
 10
118.9856855639679
 20
152.5391140191322
 30
0.0
 10
119.0800240922027
 20
152.3356148987773
 30
0.0
 10
119.1737976196482
 20
152.1318641626101
 30
0.0
 10
119.233523255943
 20
151.9973093480724
 30
0.0
 10
119.2614525394768
 20
151.9327611452024
 30
0.0
 11
118.8942586890769
 21
152.7367629845022
 31
0.0
 11
118.9828413414769
 21
152.5452280537024
 31
0.0
 11
119.0800160953768
 21
152.3353791299022
 31
0.0
 11
119.1760372490769
 21
152.1256934300024
 31
0.0
 11
119.2614525394768
 21
151.9327611452024
 31
0.0
  0
SPLINE
  5
67D
330
1F
100
AcDbEntity
  8
_SURFACE
  6
Continuous
 62
     7
100
AcDbSpline
210
0.0
220
0.0
230
1.0
 70
     8
 71
     3
 72
    10
 73
     6
 74
     4
 42
0.0000000001
 43
0.0000000001
 44
0.0000000001
 12
0.4320439532587509
 22
-0.9018525502833321
 32
0.0
 13
0.4446529902320697
 23
-0.8957029185381049
 33
0.0
 40
0.0
 40
0.0
 40
0.0
 40
0.0
 40
0.0442434013777166
 40
0.0867105218797127
 40
0.1273237430489191
 40
0.1273237430489191
 40
0.1273237430489191
 40
0.1273237430489191
 10
118.4743580827769
 20
166.4326787377023
 30
0.0
 10
118.4807297807892
 20
166.4193783962471
 30
0.0
 10
118.493515387293
 20
166.3934555416835
 30
0.0
 10
118.5122807643876
 20
166.3553886305697
 30
0.0
 10
118.5245682904316
 20
166.3305703063798
 30
0.0
 10
118.5305878871768
 20
166.3184445128024
 30
0.0
 11
118.4743580827769
 21
166.4326787377023
 31
0.0
 11
118.4937757576768
 21
166.3929240843024
 31
0.0
 11
118.5125652021768
 21
166.3548397949022
 31
0.0
 11
118.5305878871768
 21
166.3184445128024
 31
0.0
  0
SPLINE
  5
67E
330
1F
100
AcDbEntity
  8
_SURFACE
  6
Continuous
 62
     7
100
AcDbSpline
210
0.0
220
0.0
230
1.0
 70
     8
 71
     3
 72
     9
 73
     5
 74
     3
 42
0.0000000001
 43
0.0000000001
 44
0.0000000001
 12
0.4340566180140902
 22
-0.9008855933791874
 32
0.0
 13
0.4297523669354269
 23
-0.9029467886389531
 33
0.0
 40
0.0
 40
0.0
 40
0.0
 40
0.0
 40
0.5619127481734113
 40
1.085683322050681
 40
1.085683322050681
 40
1.085683322050681
 40
1.085683322050681
 10
117.7952917326768
 20
167.8488312276023
 30
0.0
 10
117.8765923817072
 20
167.6800915277472
 30
0.0
 10
118.0341024529212
 20
167.3542732626108
 30
0.0
 10
118.1914251196252
 20
167.0283603812576
 30
0.0
 10
118.2664556675768
 20
166.8707147287022
 30
0.0
 11
117.7952917326768
 21
167.8488312276023
 31
0.0
 11
118.0395858882769
 21
167.3428012857022
 31
0.0
 11
118.2664556675768
 21
166.8707147287022
 31
0.0
  0
LINE
  5
67F
330
1F
100
AcDbEntity
  8
_SURFACE
  6
Continuous
 62
     7
100
AcDbLine
 10
118.2664556675768
 20
166.8707147287022
 30
0.0
 11
118.2918990138769
 21
166.8171787397023
 31
0.0
  0
LINE
  5
680
330
1F
100
AcDbEntity
  8
_SURFACE
  6
Continuous
 62
     7
100
AcDbLine
 10
118.2918990138769
 20
166.8171787397023
 30
0.0
 11
118.2926162548768
 21
166.8156675853023
 31
0.0
  0
LINE
  5
681
330
1F
100
AcDbEntity
  8
_SURFACE
  6
Continuous
 62
     7
100
AcDbLine
 10
118.2926162548768
 20
166.8156675853023
 30
0.0
 11
118.3375595575767
 21
166.7208348531023
 31
0.0
  0
LINE
  5
682
330
1F
100
AcDbEntity
  8
_SURFACE
  6
Continuous
 62
     7
100
AcDbLine
 10
118.3375595575767
 20
166.7208348531023
 30
0.0
 11
118.340480138277
 21
166.7146661855024
 31
0.0
  0
SPLINE
  5
683
330
1F
100
AcDbEntity
  8
_SURFACE
  6
Continuous
 62
     7
100
AcDbSpline
210
0.0
220
0.0
230
1.0
 70
     8
 71
     3
 72
     8
 73
     4
 74
     2
 42
0.0000000001
 43
0.0000000001
 44
0.0000000001
 12
0.7353227401608855
 22
-0.6777171001253303
 32
0.0
 13
0.5553265782603548
 23
-0.8316323655784726
 33
0.0
 40
0.0
 40
0.0
 40
0.0
 40
0.0
 40
0.2190921701960697
 40
0.2190921701960697
 40
0.2190921701960697
 40
0.2190921701960697
 10
103.0913988442767
 20
166.4175869815023
 30
0.0
 10
103.1450999959222
 20
166.3680928114204
 30
0.0
 10
103.1957553456439
 20
166.3139995280622
 30
0.0
 10
103.2363112473768
 20
166.2532648148023
 30
0.0
 11
103.0913988442767
 21
166.4175869815023
 31
0.0
 11
103.2363112473768
 21
166.2532648148023
 31
0.0
  0
SPLINE
  5
684
330
1F
100
AcDbEntity
  8
_SURFACE
  6
Continuous
 62
     7
100
AcDbSpline
210
0.0
220
0.0
230
1.0
 70
     8
 71
     3
 72
    11
 73
     7
 74
     5
 42
0.0000000001
 43
0.0000000001
 44
0.0000000001
 12
0.4389928644328946
 22
-0.8984905480732685
 32
0.0
 13
0.4178067162841267
 23
-0.9085359364537406
 33
0.0
 40
0.0
 40
0.0
 40
0.0
 40
0.0
 40
0.4189214757213727
 40
0.8189010732983959
 40
1.269486600318374
 40
1.748498011001812
 40
1.748498011001812
 40
1.748498011001812
 40
1.748498011001812
 10
118.1510691827769
 20
154.3194143495023
 30
0.0
 10
118.21237036231
 20
154.1939486873954
 30
0.0
 10
118.3310157942763
 20
153.9481087423372
 30
0.0
 10
118.5112839829535
 20
153.5652600601981
 30
0.0
 10
118.6976241212637
 20
153.1631438842827
 30
0.0
 10
118.8275464811234
 20
152.8818309335946
 30
0.0
 10
118.8942578759768
 20
152.7367645734022
 30
0.0
 11
118.1510691827769
 21
154.3194143495023
 31
0.0
 11
118.333142350977
 21
153.9421285636023
 31
0.0
 11
118.5037497654769
 21
153.5803595923022
 31
0.0
 11
118.6935555031769
 21
153.1717019127023
 31
0.0
 11
118.8942578759768
 21
152.7367645734022
 31
0.0
  0
LINE
  5
685
330
1F
100
AcDbEntity
  8
_SURFACE
  6
Continuous
 62
     7
100
AcDbLine
 10
117.7420071054769
 20
167.9600143661022
 30
0.0
 11
117.6068803602769
 21
168.2420296296023
 31
0.0
  0
LINE
  5
686
330
1F
100
AcDbEntity
  8
_SURFACE
  6
Continuous
 62
     7
100
AcDbLine
 10
117.6068803602769
 20
168.2420296296023
 30
0.0
 11
117.5539002653768
 21
168.3526871618023
 31
0.0
  0
SPLINE
  5
687
330
1F
100
AcDbEntity
  8
_SURFACE
  6
Continuous
 62
     7
100
AcDbSpline
210
0.0
220
0.0
230
1.0
 70
     8
 71
     3
 72
    29
 73
    25
 74
    23
 42
0.0000000001
 43
0.0000000001
 44
0.0000000001
 12
0.4643364041558841
 22
-0.885658909386443
 32
0.0
 13
0.4401503945111599
 23
-0.8979240670633963
 33
0.0
 40
0.0
 40
0.0
 40
0.0
 40
0.0
 40
1.286098867500797
 40
2.570925104607463
 40
3.706487397528727
 40
4.839742094042904
 40
5.840323875637144
 40
6.835884036566126
 40
7.720430585934729
 40
8.603289385384318
 40
9.390185714358077
 40
10.17761247182457
 40
10.88452774776142
 40
11.59037189060149
 40
12.22200020300225
 40
12.85533646197664
 40
13.42957187653526
 40
14.02347449656918
 40
14.6391277603554
 40
15.27342304855929
 40
15.84234891263714
 40
16.39258796700681
 40
16.86584408143541
 40
17.34267547094001
 40
17.34267547094001
 40
17.34267547094001
 40
17.34267547094001
 10
110.1221485330769
 20
169.6892251962023
 30
0.0
 10
110.3212093742516
 20
169.3095435560844
 30
0.0
 10
110.7193629094465
 20
168.5506759296071
 30
0.0
 10
111.2940445864661
 20
167.4569707365128
 30
0.0
 10
111.845601398335
 20
166.4086680853458
 30
0.0
 10
112.3537959319082
 20
165.4446129435523
 30
0.0
 10
112.8422495561039
 20
164.5229077812835
 30
0.0
 10
113.2942385056472
 20
163.6757073732582
 30
0.0
 10
113.7291521932936
 20
162.8638759593911
 30
0.0
 10
114.1319870286174
 20
162.1137666620211
 30
0.0
 10
114.5199612115837
 20
161.3924232218007
 30
0.0
 10
114.8799701925879
 20
160.7226313546999
 30
0.0
 10
115.2270567287461
 20
160.0765665172634
 30
0.0
 10
115.5501658193391
 20
159.4765731834255
 30
0.0
 10
115.8623281961345
 20
158.8985420326466
 30
0.0
 10
116.1530290630496
 20
158.3587793773911
 30
0.0
 10
116.4363402579672
 20
157.8293196754612
 30
0.0
 10
116.7093261066487
 20
157.3010390409519
 30
0.0
 10
116.9784917756173
 20
156.7484588381244
 30
0.0
 10
117.2395242198581
 20
156.2012374136642
 30
0.0
 10
117.4857035900574
 20
155.6711019863092
 30
0.0
 10
117.7190130344692
 20
155.1942909246671
 30
0.0
 10
117.9415183781842
 20
154.7464108111055
 30
0.0
 10
118.0811022691417
 20
154.4621331788915
 30
0.0
 10
118.1510614438769
 20
154.3194137187024
 30
0.0
 11
110.1221485330769
 21
169.6892251962023
 31
0.0
 11
110.7196756195768
 21
168.5503609910024
 31
0.0
 11
111.3172976102769
 21
167.4129840017023
 31
0.0
 11
111.8460908033767
 21
166.4080564023023
 31
0.0
 11
112.3748072610768
 21
165.4056966293023
 31
0.0
 11
112.8434433948769
 21
164.5216468141023
 31
0.0
 11
113.3119232104769
 21
163.6432012003024
 31
0.0
 11
113.7295507154768
 21
162.8634513269023
 31
0.0
 11
114.1472077356769
 21
162.0856324063024
 31
0.0
 11
114.5198456012768
 21
161.3925618084024
 31
0.0
 11
114.8926511752768
 21
160.6989791512023
 31
0.0
 11
115.2273295632768
 21
160.0763078222023
 31
0.0
 11
115.5620243467768
 21
159.4548616412023
 31
0.0
 11
115.8619521049768
 21
158.8989860572023
 31
0.0
 11
116.162107359377
 21
158.3412929156023
 31
0.0
 11
116.4320533723769
 21
157.8344640871023
 31
0.0
 11
116.7039396336768
 21
157.3064506564023
 31
0.0
 11
116.975022335977
 21
156.7536911158024
 31
0.0
 11
117.2478633877768
 21
156.1810758234023
 31
0.0
 11
117.4900959985769
 21
155.6662943153023
 31
0.0
 11
117.7308221458768
 21
155.1715075542024
 31
0.0
 11
117.940661008277
 21
154.7473153788023
 31
0.0
 11
118.1510614438769
 21
154.3194137187024
 31
0.0
  0
SPLINE
  5
688
330
1F
100
AcDbEntity
  8
_SURFACE
  6
Continuous
 62
     7
100
AcDbSpline
210
0.0
220
0.0
230
1.0
 70
     8
 71
     3
 72
    10
 73
     6
 74
     4
 42
0.0000000001
 43
0.0000000001
 44
0.0000000001
 12
-0.0204761280986353
 22
-0.999790342110829
 32
0.0
 13
0.6098352001245888
 23
-0.792528251035257
 33
0.0
 40
0.0
 40
0.0
 40
0.0
 40
0.0
 40
0.0098003493785784
 40
0.0289250177364641
 40
0.0504095913543419
 40
0.0504095913543419
 40
0.0504095913543419
 40
0.0504095913543419
 10
59.12886989327677
 20
94.75899606820227
 30
0.0
 10
59.12880300220701
 20
94.75572996998295
 30
0.0
 10
59.12939846396429
 20
94.74605654954292
 30
0.0
 10
59.13455014766848
 20
94.72980044239582
 30
0.0
 10
59.1418827020263
 20
94.71827205702012
 30
0.0
 10
59.14625005177692
 20
94.71259634650225
 30
0.0
 11
59.12886989327677
 21
94.75899606820227
 31
0.0
 11
59.12947749997698
 21
94.74921457230236
 31
0.0
 11
59.13501479887696
 21
94.7309090742023
 31
0.0
 11
59.14625005177692
 21
94.71259634650225
 31
0.0
  0
SPLINE
  5
689
330
1F
100
AcDbEntity
  8
_SURFACE
  6
Continuous
 62
     7
100
AcDbSpline
210
0.0
220
0.0
230
1.0
 70
     8
 71
     3
 72
    10
 73
     6
 74
     4
 42
0.0000000001
 43
0.0000000001
 44
0.0000000001
 12
-0.0191518983728632
 22
-0.9998165855739319
 32
0.0
 13
0.6795514896275331
 23
-0.7336278163653564
 33
0.0
 40
0.0
 40
0.0
 40
0.0
 40
0.0
 40
0.0132624421815881
 40
0.0353140260657602
 40
0.0609212735860539
 40
0.0609212735860539
 40
0.0609212735860539
 40
0.0609212735860539
 10
59.28523706657694
 20
102.2256804261023
 30
0.0
 10
59.28515239959533
 20
102.2212604228828
 30
0.0
 10
59.28626780281976
 20
102.2094215568067
 30
0.0
 10
59.2941364504602
 20
102.1903179895596
 30
0.0
 10
59.30398328511107
 20
102.1776636609294
 30
0.0
 10
59.30978376617696
 20
102.1714015979022
 30
0.0
 11
59.28523706657694
 21
102.2256804261023
 31
0.0
 11
59.28647620087673
 21
102.2124759981023
 31
0.0
 11
59.29446743507702
 21
102.1919233212023
 31
0.0
 11
59.30978376617696
 21
102.1714015979022
 31
0.0
  0
SPLINE
  5
68A
330
1F
100
AcDbEntity
  8
_SURFACE
  6
Continuous
 62
     7
100
AcDbSpline
210
0.0
220
0.0
230
1.0
 70
     8
 71
     3
 72
    19
 73
    15
 74
    13
 42
0.0000000001
 43
0.0000000001
 44
0.0000000001
 12
0.0011356577296289
 22
-0.9999993551405525
 32
0.0
 13
0.4610961879665835
 23
-0.8873501594312614
 33
0.0
 40
0.0
 40
0.0
 40
0.0
 40
0.0
 40
0.9786998376137812
 40
1.960863770096728
 40
2.930688955040935
 40
3.872898281363841
 40
4.769974381969865
 40
5.612014153342194
 40
6.386205426833249
 40
7.080086713195766
 40
7.679615551733012
 40
8.177351090830475
 40
8.564229755665593
 40
8.833923142702735
 40
8.833923142702735
 40
8.833923142702735
 40
8.833923142702735
 10
109.3900166525769
 20
178.4647385707023
 30
0.0
 10
109.3903871419221
 20
178.1385055018723
 30
0.0
 10
109.3949183676465
 20
177.484882924201
 30
0.0
 10
109.4129464802024
 20
176.5081317551838
 30
0.0
 10
109.4422849076438
 20
175.5438205139193
 30
0.0
 10
109.4827049615868
 20
174.6082952628815
 30
0.0
 10
109.533759470151
 20
173.7159478351406
 30
0.0
 10
109.5947777738865
 20
172.8803615103529
 30
0.0
 10
109.6649660475178
 20
172.1134855834308
 30
0.0
 10
109.7430779265655
 20
171.4286298654686
 30
0.0
 10
109.8276363403996
 20
170.8375663348432
 30
0.0
 10
109.9165967839908
 20
170.3505376159337
 30
0.0
 10
110.0079281851652
 20
169.9769344537301
 30
0.0
 10
110.0806970021827
 20
169.7689960195307
 30
0.0
 10
110.1221485330769
 20
169.6892251962023
 30
0.0
 11
109.3900166525769
 21
178.4647385707023
 31
0.0
 11
109.3967864698768
 21
177.4860621473023
 31
0.0
 11
109.414991953677
 21
176.5040669586023
 31
0.0
 11
109.4446564457769
 21
175.5346955606023
 31
0.0
 11
109.4855996687768
 21
174.5933762380022
 31
0.0
 11
109.5372308820768
 21
173.6977871871024
 31
0.0
 11
109.5991032174768
 21
172.8580236545023
 31
0.0
 11
109.6704256562769
 21
172.0871246743024
 31
0.0
 11
109.7501528301769
 21
171.3978389445023
 31
0.0
 11
109.8366124128768
 21
170.8045771399024
 31
0.0
 11
109.9286135240769
 21
170.3154182062023
 31
0.0
 11
110.0244287148769
 21
169.9405921792024
 31
0.0
 11
110.1221485330769
 21
169.6892251962023
 31
0.0
  0
SPLINE
  5
68B
330
1F
100
AcDbEntity
  8
_SURFACE
  6
Continuous
 62
     7
100
AcDbSpline
210
0.0
220
0.0
230
1.0
 70
     8
 71
     3
 72
    19
 73
    15
 74
    13
 42
0.0000000001
 43
0.0000000001
 44
0.0000000001
 12
-0.4099816756328225
 22
0.91209375924041
 32
0.0
 13
0.0008600083758621
 23
-0.9999996301927284
 33
0.0
 40
0.0
 40
0.0
 40
0.0
 40
0.0
 40
0.1403866334835939
 40
0.22028548735161
 40
0.3863122112799682
 40
0.6715030214244
 40
1.076941707405728
 40
1.596838285172738
 40
2.222969156848529
 40
2.945050700682873
 40
3.754112597414553
 40
4.634446432927767
 40
5.571090734694646
 40
6.547904250808609
 40
6.547904250808609
 40
6.547904250808609
 40
6.547904250808609
 10
110.0002402331768
 20
184.6536821039023
 30
0.0
 10
109.9810549174328
 20
184.696364027996
 30
0.0
 10
109.9508922638987
 20
184.7910634905196
 30
0.0
 10
109.8002411658981
 20
184.7489698620544
 30
0.0
 10
109.7584279053079
 20
184.5574902218935
 30
0.0
 10
109.6799303551696
 20
184.2934440051195
 30
0.0
 10
109.6238592788002
 20
183.888039061966
 30
0.0
 10
109.5639877160852
 20
183.3765259899703
 30
0.0
 10
109.5136330531238
 20
182.7549694423132
 30
0.0
 10
109.4695425777587
 20
182.037471244219
 30
0.0
 10
109.434292130747
 20
181.2342953489867
 30
0.0
 10
109.4083621448885
 20
180.3593345365752
 30
0.0
 10
109.3927216991881
 20
179.428170414089
 30
0.0
 10
109.389736629975
 20
178.7903429556627
 30
0.0
 10
109.3900166525769
 20
178.4647385707023
 30
0.0
 11
110.0002402331768
 21
184.6536821039023
 31
0.0
 11
109.9199704479768
 21
184.7688566169024
 31
0.0
 11
109.841908077377
 21
184.7518244959023
 31
0.0
 11
109.7670209601768
 21
184.6036462494023
 31
0.0
 11
109.6962853618768
 21
184.3273669101024
 31
0.0
 11
109.6305339846768
 21
183.9272953109022
 31
0.0
 11
109.5708315652769
 21
183.4108380787023
 31
0.0
 11
109.5181143905768
 21
182.7869304189023
 31
0.0
 11
109.4733022673768
 21
182.0662407287023
 31
0.0
 11
109.4371719470769
 21
181.2579859714023
 31
0.0
 11
109.4107419414768
 21
180.3780489755024
 31
0.0
 11
109.3947980765768
 21
179.4415403844022
 31
0.0
 11
109.3900166525769
 21
178.4647385707023
 31
0.0
  0
SPLINE
  5
68C
330
1F
100
AcDbEntity
  8
_SURFACE
  6
Continuous
 62
     7
100
AcDbSpline
210
0.0
220
0.0
230
1.0
 70
     8
 71
     3
 72
    19
 73
    15
 74
    13
 42
0.0000000001
 43
0.0000000001
 44
0.0000000001
 12
0.0010111750014812
 22
-0.9999994887624275
 32
0.0
 13
0.4097737316876352
 23
-0.9121872005344023
 33
0.0
 40
0.0
 40
0.0
 40
0.0
 40
0.0
 40
1.145344774002127
 40
2.297100161716413
 40
3.436837131991866
 40
4.544987701553873
 40
5.599396072150122
 40
6.586992610359169
 40
7.4916529733757
 40
8.298292485020031
 40
8.991427776336063
 40
9.562416700946942
 40
10.0021242297408
 40
10.3050860481693
 40
10.3050860481693
 40
10.3050860481693
 40
10.3050860481693
 10
108.1248635716768
 20
178.6625711825023
 30
0.0
 10
108.125249619678
 20
178.2807897863493
 30
0.0
 10
108.1299240527598
 20
177.515089101839
 30
0.0
 10
108.1481991932752
 20
176.3696042735367
 30
0.0
 10
108.1779721194797
 20
175.236759542633
 30
0.0
 10
108.2190115745532
 20
174.1367350130173
 30
0.0
 10
108.2708426736066
 20
173.0879355664764
 30
0.0
 10
108.3326931578707
 20
172.1076247805365
 30
0.0
 10
108.4036478886758
 20
171.2107599106165
 30
0.0
 10
108.482262925775
 20
170.4130526973379
 30
0.0
 10
108.567050982727
 20
169.7280236444974
 30
0.0
 10
108.6553877753785
 20
169.1665987944921
 30
0.0
 10
108.7462465687894
 20
168.7385235647734
 30
0.0
 10
108.8167980021448
 20
168.4998018582759
 30
0.0
 10
108.8581799337769
 20
168.4076825606022
 30
0.0
 11
108.1248635716768
 21
178.6625711825023
 31
0.0
 11
108.1317855598768
 21
177.5172473255023
 31
0.0
 11
108.1502546444768
 21
176.3656400287023
 31
0.0
 11
108.1803694837768
 21
175.2263009844022
 31
0.0
 11
108.2219655745769
 21
174.1189313758023
 31
0.0
 11
108.2744118699768
 21
173.0658281529024
 31
0.0
 11
108.3371659708769
 21
172.0802273995023
 31
0.0
 11
108.4092882765768
 21
171.1784465251023
 31
0.0
 11
108.4895530166769
 21
170.3758103228023
 31
0.0
 11
108.5761951491768
 21
169.6881114985023
 31
0.0
 11
108.6677808315767
 21
169.1245155308024
 31
0.0
 11
108.7624296171769
 21
168.6951155794023
 31
0.0
 11
108.8581799337769
 21
168.4076825606022
 31
0.0
  0
SPLINE
  5
68D
330
1F
100
AcDbEntity
  8
_SURFACE
  6
Continuous
 62
     7
100
AcDbSpline
210
0.0
220
0.0
230
1.0
 70
     8
 71
     3
 72
    10
 73
     6
 74
     4
 42
0.0000000001
 43
0.0000000001
 44
0.0000000001
 12
-0.0180154072721401
 22
-0.9998377093812869
 32
0.0
 13
0.7515136722982811
 23
-0.6597175155691653
 33
0.0
 40
0.0
 40
0.0
 40
0.0
 40
0.0
 40
0.0228423015452268
 40
0.0562264000907274
 40
0.0965571201400164
 40
0.0965571201400164
 40
0.0965571201400164
 40
0.0965571201400164
 10
59.59174435367692
 20
117.0984311130022
 30
0.0
 10
59.59160718255512
 20
117.0908182481843
 30
0.0
 10
59.59427780147121
 20
117.0719049763589
 30
0.0
 10
59.60991708969251
 20
117.0430511956321
 30
0.0
 10
59.6271657455
 20
117.025259652213
 30
0.0
 10
59.63726877467689
 20
117.0163906914023
 30
0.0
 11
59.59174435367692
 21
117.0984311130022
 31
0.0
 11
59.59483936787688
 21
117.0757994620023
 31
0.0
 11
59.60988086077697
 21
117.0459959131023
 31
0.0
 11
59.63726877467689
 21
117.0163906914023
 31
0.0
  0
SPLINE
  5
68E
330
1F
100
AcDbEntity
  8
_SURFACE
  6
Continuous
 62
     7
100
AcDbSpline
210
0.0
220
0.0
230
1.0
 70
     8
 71
     3
 72
    19
 73
    15
 74
    13
 42
0.0000000001
 43
0.0000000001
 44
0.0000000001
 12
-0.0010177923480097
 22
-0.9999994820492339
 32
0.0
 13
-0.4097437364344505
 23
-0.9122006744421621
 33
0.0
 40
0.0
 40
0.0
 40
0.0
 40
0.0
 40
1.144560006254413
 40
2.295998914796252
 40
3.435246634533254
 40
4.542959622018338
 40
5.597280757408606
 40
6.584934375520025
 40
7.489737176949601
 40
8.29658619853947
 40
8.989968211198757
 40
9.561198380275804
 40
10.00110976427543
 40
10.30420607947187
 40
10.30420607947187
 40
10.30420607947187
 40
10.30420607947187
 10
73.77338855097701
 20
178.6616960890023
 30
0.0
 10
73.77300024283828
 20
178.280176284526
 30
0.0
 10
73.7683199078183
 20
177.5148427406603
 30
0.0
 10
73.75005004955963
 20
176.3698880876426
 30
0.0
 10
73.72028681425442
 20
175.2374577013408
 30
0.0
 10
73.67926460908645
 20
174.1377708229958
 30
0.0
 10
73.62745175695168
 20
173.0891266042107
 30
0.0
 10
73.56561420993052
 20
172.1087775244709
 30
0.0
 10
73.49466821420506
 20
171.2117752296696
 30
0.0
 10
73.4160563548574
 20
170.4138671767505
 30
0.0
 10
73.33126399567672
 20
169.7286045000432
 30
0.0
 10
73.24291592509289
 20
169.16694770951
 30
0.0
 10
73.15203804845544
 20
168.7386796257901
 30
0.0
 10
73.08147032130634
 20
168.4998439958834
 30
0.0
 10
73.04007304907696
 20
168.4076824415023
 30
0.0
 11
73.77338855097701
 21
178.6616960890023
 31
0.0
 11
73.76646254427675
 21
177.5171570384023
 31
0.0
 11
73.7479943935769
 21
176.3658662465023
 31
0.0
 11
73.71789185437688
 21
175.2270162985023
 31
0.0
 11
73.67631739097697
 21
174.1200837682024
 31
0.0
 11
73.62388653237696
 21
173.0670671199023
 31
0.0
 11
73.56114463707678
 21
172.0814083940024
 31
0.0
 11
73.48903103367689
 21
171.1794839306023
 31
0.0
 11
73.40876875977693
 21
170.3766369271023
 31
0.0
 11
73.32212071807686
 21
169.6886901760023
 31
0.0
 11
73.23052106647679
 21
169.1248520699022
 31
0.0
 11
73.13585061067676
 21
168.6952481470022
 31
0.0
 11
73.04007304907696
 21
168.4076824415023
 31
0.0
  0
SPLINE
  5
68F
330
1F
100
AcDbEntity
  8
_SURFACE
  6
Continuous
 62
     7
100
AcDbSpline
210
0.0
220
0.0
230
1.0
 70
     8
 71
     3
 72
    10
 73
     6
 74
     4
 42
0.0000000001
 43
0.0000000001
 44
0.0000000001
 12
-0.0500805799959861
 22
-0.9987451804676034
 32
0.0
 13
0.5508633658396991
 23
-0.834595442220815
 33
0.0
 40
0.0
 40
0.0
 40
0.0
 40
0.0
 40
0.0509498334530046
 40
0.1103413328702163
 40
0.174578584837743
 40
0.174578584837743
 40
0.174578584837743
 40
0.174578584837743
 10
60.05116295007685
 20
131.5723722050023
 30
0.0
 10
60.0503124176735
 20
131.5554102381333
 30
0.0
 10
60.05256409561781
 20
131.5183523673221
 30
0.0
 10
60.06930506074607
 20
131.4621216979437
 30
0.0
 10
60.08920735019993
 20
131.4256974814066
 30
0.0
 10
60.10100266647697
 20
131.4078267755023
 30
0.0
 11
60.05116295007685
 21
131.5723722050023
 31
0.0
 11
60.05416773727694
 21
131.5215110530022
 31
0.0
 11
60.07069753967681
 21
131.4644661949023
 31
0.0
 11
60.10100266647697
 21
131.4078267755023
 31
0.0
  0
SPLINE
  5
690
330
1F
100
AcDbEntity
  8
_SURFACE
  6
Continuous
 62
     7
100
AcDbSpline
210
0.0
220
0.0
230
1.0
 70
     8
 71
     3
 72
    10
 73
     6
 74
     4
 42
0.0000000001
 43
0.0000000001
 44
0.0000000001
 12
0.5619801190504174
 22
0.8271507394617252
 32
0.0
 13
0.5640397115329875
 23
0.8257476635230551
 33
0.0
 40
0.0
 40
0.0
 40
0.0
 40
0.0
 40
0.2788700568955363
 40
0.5523676880271991
 40
0.8573703057254428
 40
0.8573703057254428
 40
0.8573703057254428
 40
0.8573703057254428
 10
63.11186510857675
 20
150.8507861975024
 30
0.0
 10
63.16410491783467
 20
150.9276753887606
 30
0.0
 10
63.26867361362701
 20
151.0792274529783
 30
0.0
 10
63.43239855132731
 20
151.3134702914246
 30
0.0
 10
63.54185209787579
 20
151.4722334195247
 30
0.0
 10
63.5991966273769
 20
151.5561851525023
 30
0.0
 11
63.11186510857675
 21
150.8507861975024
 31
0.0
 11
63.26992322767688
 21
151.0805385416024
 31
0.0
 11
63.42615479677675
 21
151.3050216168023
 31
0.0
 11
63.5991966273769
 21
151.5561851525023
 31
0.0
  0
SPLINE
  5
691
330
1F
100
AcDbEntity
  8
_SURFACE
  6
Continuous
 62
     7
100
AcDbSpline
210
0.0
220
0.0
230
1.0
 70
     8
 71
     3
 72
    10
 73
     6
 74
     4
 42
0.0000000001
 43
0.0000000001
 44
0.0000000001
 12
-0.437022622286062
 22
-0.8994505142642447
 32
0.0
 13
-0.4177559785206802
 23
-0.9085592674175025
 33
0.0
 40
0.0
 40
0.0
 40
0.0
 40
0.0
 40
0.6053080934404757
 40
1.194806028061575
 40
1.748733681608225
 40
1.748733681608225
 40
1.748733681608225
 40
1.748733681608225
 10
63.74593090597688
 20
154.3168059583024
 30
0.0
 10
63.65775312921477
 20
154.1353243996579
 30
0.0
 10
63.48501053535807
 20
153.7764536687264
 30
0.0
 10
63.23969468741983
 20
153.2476663979523
 30
0.0
 10
63.07987461592269
 20
152.9016524695386
 30
0.0
 10
63.00273908627701
 20
152.7338937685023
 30
0.0
 11
63.74593090597688
 21
154.3168059583024
 31
0.0
 11
63.48404212507699
 21
153.7710842761022
 31
0.0
 11
63.23485949757702
 21
153.2368410421023
 31
0.0
 11
63.00273908627701
 21
152.7338937685023
 31
0.0
  0
SPLINE
  5
692
330
1F
100
AcDbEntity
  8
_SURFACE
  6
Continuous
 62
     7
100
AcDbSpline
210
0.0
220
0.0
230
1.0
 70
     8
 71
     3
 72
    32
 73
    28
 74
    26
 42
0.0000000001
 43
0.0000000001
 44
0.0000000001
 12
0.5419107612190432
 22
0.8404360337794882
 32
0.0
 13
0.4615753889070706
 23
0.8871009865597526
 33
0.0
 40
0.0
 40
0.0
 40
0.0
 40
0.0
 40
0.4283530020843937
 40
0.8071926783029701
 40
1.142375531197795
 40
1.441024558119791
 40
1.727904864072356
 40
2.030829559905083
 40
2.369451623688905
 40
2.741377574474862
 40
3.143485264382166
 40
3.572483553653907
 40
4.025734669029734
 40
4.519163392343547
 40
5.068530114938859
 40
5.67730798510785
 40
6.348874630121629
 40
7.088980291993705
 40
7.893150169228715
 40
8.762794204470061
 40
9.706160926925257
 40
10.73423706510183
 40
11.86118477048627
 40
13.10196633876191
 40
14.46383368880965
 40
15.94769340668165
 40
17.5639368015225
 40
17.5639368015225
 40
17.5639368015225
 40
17.5639368015225
 10
64.58524206937688
 20
153.0224814103023
 30
0.0
 10
64.66261843652022
 20
153.1424825096787
 30
0.0
 10
64.80907787112555
 20
153.3681946179534
 30
0.0
 10
65.01415819229757
 20
153.6890457759087
 30
0.0
 10
65.19646509535738
 20
153.9731389912919
 30
0.0
 10
65.36294362806471
 20
154.23096784361
 30
0.0
 10
65.52482358388727
 20
154.4789610880187
 30
0.0
 10
65.69372770112754
 20
154.738281543722
 30
0.0
 10
65.8753407519998
 20
155.0231478129536
 30
0.0
 10
66.06996708505686
 20
155.3388796483802
 30
0.0
 10
66.27607016782693
 20
155.6828806933005
 30
0.0
 10
66.49142705633739
 20
156.0529173898725
 30
0.0
 10
66.7138543981872
 20
156.4539480511945
 30
0.0
 10
66.95062936252252
 20
156.8928364139468
 30
0.0
 10
67.21045764416363
 20
157.3781886558663
 30
0.0
 10
67.49773525574415
 20
157.9161980634665
 30
0.0
 10
67.81489440729362
 20
158.5103276636598
 30
0.0
 10
68.16318652720792
 20
159.1616674003578
 30
0.0
 10
68.54311256674447
 20
159.8709639065762
 30
0.0
 10
68.95470200301698
 20
160.6401613371833
 30
0.0
 10
69.40095259811811
 20
161.4754603985202
 30
0.0
 10
69.8866612118255
 20
162.3869190109642
 30
0.0
 10
70.41693740632027
 20
163.3869635733442
 30
0.0
 10
70.9949852575621
 20
164.4876042516405
 30
0.0
 10
71.62608157743346
 20
165.6947592766336
 30
0.0
 10
72.31410774923547
 20
167.0133766425957
 30
0.0
 10
72.79140231076292
 20
167.9299130229409
 30
0.0
 10
73.04007503527697
 20
168.4078367263022
 30
0.0
 11
64.58524206937688
 21
153.0224814103023
 31
0.0
 11
64.81762481037691
 21
153.3823210358023
 31
0.0
 11
65.02209696427695
 21
153.7012420896023
 31
0.0
 11
65.20318201987681
 21
153.9832983739023
 31
0.0
 11
65.36528318957682
 21
154.2341259084023
 31
0.0
 11
65.52186129057696
 21
154.4745081212023
 31
0.0
 11
65.68684350607696
 21
154.7285637055024
 31
0.0
 11
65.86868233757702
 21
155.0142200400022
 31
0.0
 11
66.06404416917695
 21
155.3307049016022
 31
0.0
 11
66.27075455457685
 21
155.6756127311022
 31
0.0
 11
66.48611063967684
 21
156.0466400735023
 31
0.0
 11
66.70661641987686
 21
156.4426372635022
 31
0.0
 11
66.94155547727683
 21
156.8765445627023
 31
0.0
 11
67.20102900057696
 21
157.3607731106023
 31
0.0
 11
67.4878675435769
 21
157.8977406566022
 31
0.0
 11
67.80420205517685
 21
158.4901376818023
 31
0.0
 11
68.15319014657695
 21
159.1427966301023
 31
0.0
 11
68.53275921917685
 21
159.8517511495024
 31
0.0
 11
68.94302709707682
 21
160.6185373103023
 31
0.0
 11
69.38750786327688
 21
161.4506296258022
 31
0.0
 11
69.87086505317694
 21
162.3579919420023
 31
0.0
 11
70.39853565327695
 21
163.3537704658023
 31
0.0
 11
70.9758897923769
 21
164.4520423348023
 31
0.0
 11
71.60708780297688
 21
165.6588031854023
 31
0.0
 11
72.29352616917691
 21
166.9743418704024
 31
0.0
 11
73.04007503527697
 21
168.4078367263022
 31
0.0
  0
SPLINE
  5
693
330
1F
100
AcDbEntity
  8
_SURFACE
  6
Continuous
 62
     7
100
AcDbSpline
210
0.0
220
0.0
230
1.0
 70
     8
 71
     3
 72
    18
 73
    14
 74
    12
 42
0.0000000001
 43
0.0000000001
 44
0.0000000001
 12
0.4483535779603385
 22
0.8938562910950299
 32
0.0
 13
0.4647873233564022
 23
0.8854223534828964
 33
0.0
 40
0.0
 40
0.0
 40
0.0
 40
0.0
 40
1.238457281117856
 40
2.458012286863298
 40
3.681330970704951
 40
4.886000080999339
 40
6.191747212065823
 40
7.625465898267276
 40
9.196398941285035
 40
10.92255317358308
 40
12.84064514357762
 40
14.96855372225374
 40
17.34551394900657
 40
17.34551394900657
 40
17.34551394900657
 40
17.34551394900657
 10
63.74591926907675
 20
154.3168068526024
 30
0.0
 10
63.93100818679016
 20
154.6858077965955
 30
0.0
 10
64.29509137200409
 20
155.4199041346867
 30
0.0
 10
64.81241468081751
 20
156.5326462209359
 30
0.0
 10
65.3472300876545
 20
157.6248507074748
 30
0.0
 10
65.93991907792762
 20
158.7194169521414
 30
0.0
 10
66.56389599566799
 20
159.8765702609263
 30
0.0
 10
67.24373578522679
 20
161.142370946463
 30
0.0
 10
67.99083974745279
 20
162.5310918737852
 30
0.0
 10
68.8122774977128
 20
164.063171143715
 30
0.0
 10
69.71347483255205
 20
165.7631245605677
 30
0.0
 10
70.71020567210993
 20
167.6579484577523
 30
0.0
 10
71.40785139150463
 20
168.9876708759667
 30
0.0
 10
71.77611171867699
 20
169.6892087820024
 30
0.0
 11
63.74591926907675
 21
154.3168068526024
 31
0.0
 11
64.29315210117699
 21
155.4278031013023
 31
0.0
 11
64.81559806327692
 21
156.5297852376023
 31
0.0
 11
65.35743198807683
 21
157.6265644315023
 31
0.0
 11
65.92356469777683
 21
158.6899182862022
 31
0.0
 11
66.54334987677685
 21
159.8391971480022
 31
0.0
 11
67.22223264127689
 21
161.1019985826023
 31
0.0
 11
67.9660167188768
 21
162.4856950347022
 31
0.0
 11
68.78091676077684
 21
164.0073869731023
 31
0.0
 11
69.67985633597692
 21
165.7017849327023
 31
0.0
 11
70.6712379618769
 21
167.5846437673023
 31
0.0
 11
71.77611171867699
 21
169.6892087820024
 31
0.0
  0
LINE
  5
694
330
1F
100
AcDbEntity
  8
_SURFACE
  6
Continuous
 62
     7
100
AcDbLine
 10
64.34705000577702
 20
168.3589169886024
 30
0.0
 11
64.2920127955768
 21
168.2439655358022
 31
0.0
  0
LINE
  5
695
330
1F
100
AcDbEntity
  8
_SURFACE
  6
Continuous
 62
     7
100
AcDbLine
 10
64.2920127955768
 20
168.2439655358022
 30
0.0
 11
64.15843770857697
 21
167.9651959181023
 31
0.0
  0
SPLINE
  5
696
330
1F
100
AcDbEntity
  8
_SURFACE
  6
Continuous
 62
     7
100
AcDbSpline
210
0.0
220
0.0
230
1.0
 70
     8
 71
     3
 72
    19
 73
    15
 74
    13
 42
0.0000000001
 43
0.0000000001
 44
0.0000000001
 12
0.0008619723575126
 22
0.9999996285017585
 32
0.0
 13
-0.410632171162012
 23
-0.9118010857674892
 33
0.0
 40
0.0
 40
0.0
 40
0.0
 40
0.0
 40
0.9774238156989714
 40
1.914063671977096
 40
2.793985804781946
 40
3.60245285971667
 40
4.323959789372548
 40
4.949698963502395
 40
5.469487287691189
 40
5.875123580689491
 40
6.160743366617578
 40
6.327257906287343
 40
6.407322567500779
 40
6.54776078481685
 40
6.54776078481685
 40
6.54776078481685
 40
6.54776078481685
 10
72.50826440867701
 20
178.4647462682023
 30
0.0
 10
72.50854524611391
 20
178.7905540857315
 30
0.0
 10
72.50556104783294
 20
179.4285835528267
 30
0.0
 10
72.48991342211439
 20
180.3598121986196
 30
0.0
 10
72.46398883652594
 20
181.2344363557419
 30
0.0
 10
72.42876402410499
 20
182.0370845266076
 30
0.0
 10
72.38471926803225
 20
182.7540678858975
 30
0.0
 10
72.33442725946303
 20
183.3752585487301
 30
0.0
 10
72.27461312222949
 20
183.8867072034861
 30
0.0
 10
72.21861673292767
 20
184.292222737529
 30
0.0
 10
72.14007541808197
 20
184.5567940667615
 30
0.0
 10
72.09843130805286
 20
184.7484449458552
 30
0.0
 10
71.94768007702712
 20
184.791417078145
 30
0.0
 10
71.91730365237379
 20
184.6965384698463
 30
0.0
 10
71.89808083567692
 20
184.6538545635023
 30
0.0
 11
72.50826440867701
 21
178.4647462682023
 31
0.0
 11
72.50348030917695
 21
179.4421583757022
 31
0.0
 11
72.48753097867695
 21
180.3786624276023
 31
0.0
 11
72.46110910627686
 21
181.2581877794022
 31
0.0
 11
72.42500876977698
 21
182.0658484412023
 31
0.0
 11
72.38024898397686
 21
182.7859656616023
 31
0.0
 11
72.32760012107684
 21
183.4094859991023
 31
0.0
 11
72.26796992577698
 21
183.9258426024023
 31
0.0
 11
72.20227828747699
 21
184.3261242668023
 31
0.0
 11
72.13157209747675
 21
184.6028539125023
 31
0.0
 11
72.0566651442769
 21
184.7515685395023
 31
0.0
 11
71.97851588057694
 21
184.7689766571023
 31
0.0
 11
71.89808083567692
 21
184.6538545635023
 31
0.0
  0
SPLINE
  5
697
330
1F
100
AcDbEntity
  8
_SURFACE
  6
Continuous
 62
     7
100
AcDbSpline
210
0.0
220
0.0
230
1.0
 70
     8
 71
     3
 72
    19
 73
    15
 74
    13
 42
0.0000000001
 43
0.0000000001
 44
0.0000000001
 12
0.4612981379506838
 22
0.8872451904198928
 32
0.0
 13
0.0011399411881554
 23
0.9999993502668328
 33
0.0
 40
0.0
 40
0.0
 40
0.0
 40
0.0
 40
0.269077367460469
 40
0.6552756712694637
 40
1.152522409437332
 40
1.751893308807237
 40
2.445996520659485
 40
3.220752372043655
 40
4.063582232425869
 40
4.961464496505222
 40
5.904041243303403
 40
6.873919684733733
 40
7.85580816411645
 40
8.833945737336851
 40
8.833945737336851
 40
8.833945737336851
 40
8.833945737336851
 10
71.77611171867699
 20
169.6892087820024
 30
0.0
 10
71.81748668153504
 20
169.7687879820457
 30
0.0
 10
71.89012869374517
 20
169.9763111651979
 30
0.0
 10
71.98140162031998
 20
170.3493143791175
 30
0.0
 10
72.07034270811277
 20
170.8358983146975
 30
0.0
 10
72.15493763806421
 20
171.4268132271704
 30
0.0
 10
72.23311359783491
 20
172.1118729280679
 30
0.0
 10
72.30337732934635
 20
172.8792697372251
 30
0.0
 10
72.36446318923579
 20
173.7155734557614
 30
0.0
 10
72.41556050956535
 20
174.6085741229115
 30
0.0
 10
72.45599851034004
 20
175.5445079494656
 30
0.0
 10
72.48533761509496
 20
176.5088676024153
 30
0.0
 10
72.50336097045178
 20
177.4853573121698
 30
0.0
 10
72.50789273557455
 20
178.1387006223049
 30
0.0
 10
72.50826440867701
 20
178.4647462682023
 30
0.0
 11
71.77611171867699
 21
169.6892087820024
 31
0.0
 11
71.8736464799768
 21
169.9399867715023
 31
0.0
 11
71.96936360127693
 21
170.3141356223023
 31
0.0
 11
72.06134457967692
 21
170.8028009661023
 31
0.0
 11
72.14783996107695
 21
171.3958979430023
 31
0.0
 11
72.22763673227683
 21
172.0853990264023
 31
0.0
 11
72.29904062157681
 21
172.8568574594023
 31
0.0
 11
72.360987385177
 21
173.6974077387023
 31
0.0
 11
72.41267086717681
 21
174.5938012783023
 31
0.0
 11
72.45363020827682
 21
175.5354876677024
 31
0.0
 11
72.48329519107693
 21
176.5049123321022
 31
0.0
 11
72.50149549487701
 21
177.4866321164023
 31
0.0
 11
72.50826440867701
 21
178.4647462682023
 31
0.0
  0
SPLINE
  5
698
330
1F
100
AcDbEntity
  8
_SURFACE
  6
Continuous
 62
     7
100
AcDbSpline
210
0.0
220
0.0
230
1.0
 70
     8
 71
     3
 72
     9
 73
     5
 74
     3
 42
0.0000000001
 43
0.0000000001
 44
0.0000000001
 12
0.4311649723416678
 22
0.9022731108847303
 32
0.0
 13
0.4306891803887274
 23
0.9025003212720127
 33
0.0
 40
0.0
 40
0.0
 40
0.0
 40
0.0
 40
0.2068795763417208
 40
0.3554823171722982
 40
0.3554823171722982
 40
0.3554823171722982
 40
0.3554823171722982
 10
63.42434080597701
 20
166.4332378244023
 30
0.0
 10
63.45407388158083
 20
166.4954584507104
 30
0.0
 10
63.50408876668529
 20
166.6028827959434
 30
0.0
 10
63.55497794125951
 20
166.7098932196218
 30
0.0
 10
63.57631180547679
 20
166.7545978934024
 30
0.0
 11
63.42434080597701
 21
166.4332378244023
 31
0.0
 11
63.51258418627691
 21
166.6203534703023
 31
0.0
 11
63.57631180547679
 21
166.7545978934024
 31
0.0
  0
LINE
  5
699
330
1F
100
AcDbEntity
  8
_SURFACE
  6
Continuous
 62
     7
100
AcDbLine
 10
63.57631180547679
 20
166.7545978934024
 30
0.0
 11
63.60990273477688
 21
166.8248924279023
 31
0.0
  0
LINE
  5
69A
330
1F
100
AcDbEntity
  8
_SURFACE
  6
Continuous
 62
     7
100
AcDbLine
 10
63.60990273477688
 20
166.8248924279023
 30
0.0
 11
63.68058868257691
 21
166.9725322987023
 31
0.0
  0
SPLINE
  5
69B
330
1F
100
AcDbEntity
  8
_SURFACE
  6
Continuous
 62
     7
100
AcDbSpline
210
0.0
220
0.0
230
1.0
 70
     8
 71
     3
 72
    11
 73
     7
 74
     5
 42
0.0000000001
 43
0.0000000001
 44
0.0000000001
 12
0.4322915002127005
 22
0.9017339179845974
 32
0.0
 13
0.4333297655563789
 23
0.9012354377646573
 33
0.0
 40
0.0
 40
0.0
 40
0.0
 40
0.0
 40
0.0855424061698924
 40
0.3567171485105085
 40
0.6511202970629798
 40
0.9751483083270827
 40
0.9751483083270827
 40
0.9751483083270827
 40
0.9751483083270827
 10
63.68058868257691
 20
166.9725322987023
 30
0.0
 10
63.6929151009419
 20
166.9982444617254
 30
0.0
 10
63.74435133787947
 20
167.1054493442732
 30
0.0
 10
63.83856756024405
 20
167.3009736745239
 30
0.0
 10
63.96748493484337
 20
167.5680194780292
 30
0.0
 10
64.05701735045873
 20
167.7537052794091
 30
0.0
 10
64.10382101117699
 20
167.8510471216023
 30
0.0
 11
63.68058868257691
 21
166.9725322987023
 31
0.0
 11
63.71759475687696
 21
167.0496559249023
 31
0.0
 11
63.83523459187682
 21
167.2939848223023
 31
0.0
 11
63.96317198447701
 21
167.5591361705023
 31
0.0
 11
64.10382101117699
 21
167.8510471216023
 31
0.0
  0
SPLINE
  5
69C
330
1F
100
AcDbEntity
  8
_SURFACE
  6
Continuous
 62
     7
100
AcDbSpline
210
0.0
220
0.0
230
1.0
 70
     8
 71
     3
 72
    10
 73
     6
 74
     4
 42
0.0000000001
 43
0.0000000001
 44
0.0000000001
 12
0.3997710095053928
 22
0.9166150445847151
 32
0.0
 13
0.4195560230877311
 23
0.9077294439924308
 33
0.0
 40
0.0
 40
0.0
 40
0.0
 40
0.0
 40
0.2928180865124079
 40
0.5714107823040465
 40
0.8740332890413746
 40
0.8740332890413746
 40
0.8740332890413746
 40
0.8740332890413746
 10
62.63958425397692
 20
151.9388948350024
 30
0.0
 10
62.67860431465908
 20
152.0283619894769
 30
0.0
 10
62.75634006360711
 20
152.2022596247548
 30
0.0
 10
62.87896143955602
 20
152.466544590298
 30
0.0
 10
62.96041600753583
 20
152.6423273918422
 30
0.0
 10
63.00273837267702
 20
152.7338938451022
 30
0.0
 11
62.63958425397692
 21
151.9388948350024
 31
0.0
 11
62.75891332827683
 21
152.2062952909023
 31
0.0
 11
62.87557038687697
 21
152.4592874268023
 31
0.0
 11
63.00273837267702
 21
152.7338938451022
 31
0.0
  0
SPLINE
  5
69D
330
1F
100
AcDbEntity
  8
_SURFACE
  6
Continuous
 62
     7
100
AcDbSpline
210
0.0
220
0.0
230
1.0
 70
     8
 71
     3
 72
     9
 73
     5
 74
     3
 42
0.0000000001
 43
0.0000000001
 44
0.0000000001
 12
-0.2724530618681739
 22
-0.9621690750999311
 32
0.0
 13
-0.2419454569394222
 23
-0.9702898514703605
 33
0.0
 40
0.0
 40
0.0
 40
0.0
 40
0.0
 40
0.3006163571805768
 40
0.6034168633298835
 40
0.6034168633298835
 40
0.6034168633298835
 40
0.6034168633298835
 10
63.03601165777678
 20
165.4948153572024
 30
0.0
 10
63.00871037545628
 20
165.3984007697529
 30
0.0
 10
62.95442016284174
 20
165.2047223523704
 30
0.0
 10
62.90362432745084
 20
165.0100852155146
 30
0.0
 10
62.8792039251769
 20
164.9121504628023
 30
0.0
 11
63.03601165777678
 21
165.4948153572024
 31
0.0
 11
62.95548395517681
 21
165.2051854497023
 31
0.0
 11
62.8792039251769
 21
164.9121504628023
 31
0.0
  0
SPLINE
  5
69E
330
1F
100
AcDbEntity
  8
_SURFACE
  6
Continuous
 62
     7
100
AcDbSpline
210
0.0
220
0.0
230
1.0
 70
     8
 71
     3
 72
    12
 73
     8
 74
     6
 42
0.0000000001
 43
0.0000000001
 44
0.0000000001
 12
-0.3139405568713778
 22
-0.9494426400532521
 32
0.0
 13
-0.1753906103475219
 23
-0.9844989252416297
 33
0.0
 40
0.0
 40
0.0
 40
0.0
 40
0.0
 40
0.449195808554438
 40
0.9596196467878399
 40
1.550540541840028
 40
2.230669576781816
 40
3.002629978002704
 40
3.002629978002704
 40
3.002629978002704
 40
3.002629978002704
 10
62.28743373297681
 20
151.0192583767023
 30
0.0
 10
62.24042680554951
 20
150.8770964919107
 30
0.0
 10
62.14670629875779
 20
150.5711490260912
 30
0.0
 10
62.01478418434046
 20
150.0713207807957
 30
0.0
 10
61.88059392272336
 20
149.4927855860098
 30
0.0
 10
61.74245104417582
 20
148.8258890084247
 30
0.0
 10
61.65376083698843
 20
148.3500214265127
 30
0.0
 10
61.60862930167701
 20
148.0966900314023
 30
0.0
 11
62.28743373297681
 21
151.0192583767023
 31
0.0
 11
62.15533185217697
 21
150.5899263752023
 31
0.0
 11
62.02394083737686
 21
150.0967034075024
 31
0.0
 11
61.88943116187698
 21
149.5212951599023
 31
0.0
 11
61.75074370257681
 21
148.8554563710024
 31
0.0
 11
61.60862930167701
 21
148.0966900314023
 31
0.0
  0
SPLINE
  5
69F
330
1F
100
AcDbEntity
  8
_SURFACE
  6
Continuous
 62
     7
100
AcDbSpline
210
0.0
220
0.0
230
1.0
 70
     8
 71
     3
 72
    10
 73
     6
 74
     4
 42
0.0000000001
 43
0.0000000001
 44
0.0000000001
 12
-0.220631570556569
 22
-0.975357221777612
 32
0.0
 13
-0.1370953173210458
 23
-0.9905578599802446
 33
0.0
 40
0.0
 40
0.0
 40
0.0
 40
0.0
 40
0.8817305827088318
 40
1.904130278804989
 40
2.995352403042674
 40
2.995352403042674
 40
2.995352403042674
 40
2.995352403042674
 10
62.81012848997676
 20
164.6219007768023
 30
0.0
 10
62.74528262221982
 20
164.3352333462998
 30
0.0
 10
62.61936391207447
 20
163.7129612149953
 30
0.0
 10
62.45145168670052
 20
162.7286346349291
 30
0.0
 10
62.34889037717363
 20
162.0315409923849
 30
0.0
 10
62.29902322937693
 20
161.6712347750023
 30
0.0
 11
62.81012848997676
 21
164.6219007768023
 31
0.0
 11
62.63277847617684
 21
163.7581902969022
 31
0.0
 11
62.45903549237692
 21
162.7506613821023
 31
0.0
 11
62.29902322937693
 21
161.6712347750023
 31
0.0
  0
LINE
  5
6A0
330
1F
100
AcDbEntity
  8
_SURFACE
  6
Continuous
 62
     7
100
AcDbLine
 10
62.29902322937693
 20
161.6712347750023
 30
0.0
 11
62.28945355297679
 21
161.6018123539023
 31
0.0
  0
SPLINE
  5
6A1
330
1F
100
AcDbEntity
  8
_SURFACE
  6
Continuous
 62
     7
100
AcDbSpline
210
0.0
220
0.0
230
1.0
 70
     8
 71
     3
 72
    10
 73
     6
 74
     4
 42
0.0000000001
 43
0.0000000001
 44
0.0000000001
 12
-0.1356991620836915
 22
-0.9907500882713986
 32
0.0
 13
-0.0930373805172031
 23
-0.9956626164652849
 33
0.0
 40
0.0
 40
0.0
 40
0.0
 40
0.0
 40
1.282194459788563
 40
2.690295648659626
 40
4.198934704848349
 40
4.198934704848349
 40
4.198934704848349
 40
4.198934704848349
 10
62.28945433177688
 20
161.6018238314023
 30
0.0
 10
62.23145676050299
 20
161.1783790733301
 30
0.0
 10
62.11843107703181
 20
160.288712520732
 30
0.0
 10
61.9632131062348
 20
158.8976615999369
 30
0.0
 10
61.8677085156214
 20
157.9300900927312
 30
0.0
 10
61.82092190697682
 20
157.4293915894023
 30
0.0
 11
62.28945433177688
 21
161.6018238314023
 31
0.0
 11
62.12680449647684
 21
160.3299874961023
 31
0.0
 11
61.9697999271769
 21
158.9306667597023
 31
0.0
 11
61.82092190697682
 21
157.4293915894023
 31
0.0
  0
LINE
  5
6A2
330
1F
100
AcDbEntity
  8
_SURFACE
  6
Continuous
 62
     7
100
AcDbLine
 10
61.82092190697682
 20
157.4293915894023
 30
0.0
 11
61.81885169027697
 21
157.4072182500023
 31
0.0
  0
SPLINE
  5
6A3
330
1F
100
AcDbEntity
  8
_SURFACE
  6
Continuous
 62
     7
100
AcDbSpline
210
0.0
220
0.0
230
1.0
 70
     8
 71
     3
 72
    12
 73
     8
 74
     6
 42
0.0000000001
 43
0.0000000001
 44
0.0000000001
 12
-0.1754823737337784
 22
-0.9844825729837774
 32
0.0
 13
-0.1118879980705795
 23
-0.9937208239177431
 33
0.0
 40
0.0
 40
0.0
 40
0.0
 40
0.0
 40
0.8980570395415883
 40
1.793504764077052
 40
2.657636438474435
 40
3.510462231507339
 40
4.393102180528461
 40
4.393102180528461
 40
4.393102180528461
 40
4.393102180528461
 10
61.60862744177695
 20
148.0966894885023
 30
0.0
 10
61.55609638142792
 20
147.8019823201776
 30
0.0
 10
61.45602152389786
 20
147.2125547142439
 30
0.0
 10
61.32024412407667
 20
146.3371160586695
 30
0.0
 10
61.19841309869656
 20
145.4748538049902
 30
0.0
 10
61.08772278256079
 20
144.6154016734954
 30
0.0
 10
61.0201771987479
 20
144.0408574037236
 30
0.0
 10
60.98725825977687
 20
143.7484915046023
 30
0.0
 11
61.60862744177695
 21
148.0966894885023
 31
0.0
 11
61.45799346107679
 21
147.2113557378023
 31
0.0
 11
61.32067383367695
 21
146.3264998471023
 31
0.0
 11
61.19964974807686
 21
145.4708850264023
 31
0.0
 11
61.09052573207697
 21
144.6250695723024
 31
0.0
 11
60.98725825977687
 21
143.7484915046023
 31
0.0
  0
SPLINE
  5
6A4
330
1F
100
AcDbEntity
  8
_SURFACE
  6
Continuous
 62
     7
100
AcDbSpline
210
0.0
220
0.0
230
1.0
 70
     8
 71
     3
 72
    10
 73
     6
 74
     4
 42
0.0000000001
 43
0.0000000001
 44
0.0000000001
 12
-0.067072271500677
 22
-0.9977481197154618
 32
0.0
 13
0.4236847346835662
 23
-0.9058097182058252
 33
0.0
 40
0.0
 40
0.0
 40
0.0
 40
0.0
 40
0.0772149944230584
 40
0.1561506029223023
 40
0.2382735062627082
 40
0.2382735062627082
 40
0.2382735062627082
 40
0.2382735062627082
 10
60.46215514817692
 20
138.1689940507023
 30
0.0
 10
60.46042881982029
 20
138.1433136788691
 30
0.0
 10
60.46162911639151
 20
138.0909481407933
 30
0.0
 10
60.47739325296145
 20
138.0127428154341
 30
0.0
 10
60.49660533817238
 20
137.96232755988
 30
0.0
 10
60.50820341167678
 20
137.9375316519023
 30
0.0
 11
60.46215514817692
 21
138.1689940507023
 31
0.0
 11
60.4638485132769
 21
138.0917976267023
 31
0.0
 11
60.47923767487697
 21
138.0143766735023
 31
0.0
 11
60.50820341167678
 21
137.9375316519023
 31
0.0
  0
SPLINE
  5
6A5
330
1F
100
AcDbEntity
  8
_SURFACE
  6
Continuous
 62
     7
100
AcDbSpline
210
0.0
220
0.0
230
1.0
 70
     8
 71
     3
 72
    12
 73
     8
 74
     6
 42
0.0000000001
 43
0.0000000001
 44
0.0000000001
 12
-0.1119198454111876
 22
-0.9937172375495638
 32
0.0
 13
-0.0761843555688072
 23
-0.9970937488353669
 33
0.0
 40
0.0
 40
0.0
 40
0.0
 40
0.0
 40
1.136998500791623
 40
2.322289519487312
 40
3.447217988743615
 40
4.526466811135356
 40
5.604449495080459
 40
5.604449495080459
 40
5.604449495080459
 40
5.604449495080459
 10
60.98725370447692
 20
143.7484919064023
 30
0.0
 10
60.94483613899647
 20
143.3718735699674
 30
0.0
 10
60.86114499708228
 20
142.6023063108038
 30
0.0
 10
60.74532869364619
 20
141.4590739591601
 30
0.0
 10
60.6402728642029
 20
140.3341348696943
 30
0.0
 10
60.54643235160557
 20
139.2441051655188
 30
0.0
 10
60.48953028687382
 20
138.5272773158738
 30
0.0
 10
60.46215514817692
 20
138.1689940507023
 30
0.0
 11
60.98725370447692
 21
143.7484919064023
 31
0.0
 11
60.86424431537676
 21
142.6181670500023
 31
0.0
 11
60.74488320057691
 21
141.4389012940022
 31
0.0
 11
60.64023704607695
 21
140.3188507401023
 31
0.0
 11
60.54759143397683
 21
139.2435857443024
 31
0.0
 11
60.46215514817692
 21
138.1689940507023
 31
0.0
  0
SPLINE
  5
6A6
330
1F
100
AcDbEntity
  8
_SURFACE
  6
Continuous
 62
     7
100
AcDbSpline
210
0.0
220
0.0
230
1.0
 70
     8
 71
     3
 72
    10
 73
     6
 74
     4
 42
0.0000000001
 43
0.0000000001
 44
0.0000000001
 12
0.0499453201459183
 22
-0.9987519536879624
 32
0.0
 13
-0.5515917901314392
 23
-0.8341141990516611
 33
0.0
 40
0.0
 40
0.0
 40
0.0
 40
0.0
 40
0.0508293749439113
 40
0.1101433819953165
 40
0.1743210589202426
 40
0.1743210589202426
 40
0.1743210589202426
 40
0.1743210589202426
 10
121.848421276477
 20
131.5454750453022
 30
0.0
 10
121.8492675062785
 20
131.5285530661255
 30
0.0
 10
121.847011478766
 20
131.4915616396287
 30
0.0
 10
121.8302645654556
 20
131.4354213330139
 30
0.0
 10
121.8103541240775
 20
131.3990533283973
 30
0.0
 10
121.798554164177
 20
131.3812094912022
 30
0.0
 11
121.848421276477
 21
131.5454750453022
 31
0.0
 11
121.8454122341769
 21
131.4947348145023
 31
0.0
 11
121.8288754837768
 21
131.4377726576023
 31
0.0
 11
121.798554164177
 21
131.3812094912022
 31
0.0
  0
SPLINE
  5
6A7
330
1F
100
AcDbEntity
  8
_SURFACE
  6
Continuous
 62
     7
100
AcDbSpline
210
0.0
220
0.0
230
1.0
 70
     8
 71
     3
 72
    18
 73
    14
 74
    12
 42
0.0000000001
 43
0.0000000001
 44
0.0000000001
 12
0.00081327580364
 22
0.9999996692911789
 32
0.0
 13
-0.9893892841455381
 23
0.1452888310159452
 33
0.0
 40
0.0
 40
0.0
 40
0.0
 40
0.0
 40
1.135253917145409
 40
2.224630698527911
 40
3.249909564039934
 40
4.193292100567245
 40
5.036785303734056
 40
5.768230339100101
 40
6.375089522282432
 40
6.847246141891133
 40
7.1772075602453
 40
7.364992310317715
 40
7.41845033033787
 40
7.41845033033787
 40
7.41845033033787
 40
7.41845033033787
 10
73.77338855097701
 20
178.6619466154023
 30
0.0
 10
73.77369630915762
 20
179.040364462638
 30
0.0
 10
73.77084057511034
 20
179.7819140333849
 30
0.0
 10
73.75542812787251
 20
180.8651397945459
 30
0.0
 10
73.72974688009104
 20
181.8841432511211
 30
0.0
 10
73.69474025822731
 20
182.8210368553112
 30
0.0
 10
73.65074637348056
 20
183.6589386503595
 30
0.0
 10
73.60066464459655
 20
184.3857784153811
 30
0.0
 10
73.5402873463059
 20
184.9828952421623
 30
0.0
 10
73.48561946229698
 20
185.4581076623783
 30
0.0
 10
73.40452397527619
 20
185.7611626136414
 30
0.0
 10
73.36976526263235
 20
185.9767781120402
 30
0.0
 10
73.29030646423013
 20
186.0090502358232
 30
0.0
 10
73.27267620017693
 20
186.0116391869023
 30
0.0
 11
73.77338855097701
 21
178.6619466154023
 31
0.0
 11
73.76877792497686
 21
179.7971911699023
 31
0.0
 11
73.7530726727769
 21
180.8864547362023
 31
0.0
 11
73.72689635737703
 21
181.9113993945023
 31
0.0
 11
73.6909959441769
 21
182.8540985886023
 31
0.0
 11
73.64631117197683
 21
183.6964073532023
 31
0.0
 11
73.59364934937691
 21
184.4259541798023
 31
0.0
 11
73.53393480587698
 21
185.0298682809022
 31
0.0
 11
73.46811720367696
 21
185.4974149809023
 31
0.0
 11
73.39730741627687
 21
185.8196889507023
 31
0.0
 11
73.32234079697679
 21
185.9918607206022
 31
0.0
 11
73.27267620017693
 21
186.0116391869023
 31
0.0
  0
LINE
  5
6A8
330
1F
100
AcDbEntity
  8
_SURFACE
  6
Continuous
 62
     7
100
AcDbLine
 10
59.14625005177692
 20
94.71259634650225
 30
0.0
 11
59.14725479287682
 21
94.75859361840223
 31
0.0
  0
SPLINE
  5
6A9
330
1F
100
AcDbEntity
  8
_SURFACE
  6
Continuous
 62
     7
100
AcDbSpline
210
0.0
220
0.0
230
1.0
 70
     8
 71
     3
 72
    10
 73
     6
 74
     4
 42
0.0000000001
 43
0.0000000001
 44
0.0000000001
 12
0.0218387899990507
 22
0.9997615051858005
 32
0.0
 13
0.0220012437524991
 23
0.9997579433409585
 33
0.0
 40
0.0
 40
0.0
 40
0.0
 40
0.0
 40
2.419252538561661
 40
4.906118175987863
 40
7.414589531162798
 40
7.414589531162798
 40
7.414589531162798
 40
7.414589531162798
 10
59.14725479287682
 20
94.75859361840223
 30
0.0
 10
59.1648659755916
 20
95.56481880486122
 30
0.0
 10
59.20062402810435
 20
97.19980055260359
 30
0.0
 10
59.2547983073929
 20
99.67073659413598
 30
0.0
 10
59.29138726959983
 20
101.3354468769091
 30
0.0
 10
59.30978376617696
 20
102.1714015979022
 30
0.0
 11
59.14725479287682
 21
94.75859361840223
 31
0.0
 11
59.20015268457683
 21
97.17726777140233
 31
0.0
 11
59.25466295417692
 21
99.66353592450234
 31
0.0
 11
59.30978376617696
 21
102.1714015979022
 31
0.0
  0
SPLINE
  5
6AA
330
1F
100
AcDbEntity
  8
_SURFACE
  6
Continuous
 62
     7
100
AcDbSpline
210
0.0
220
0.0
230
1.0
 70
     8
 71
     3
 72
    15
 73
    11
 74
     9
 42
0.0000000001
 43
0.0000000001
 44
0.0000000001
 12
-0.0220924391466964
 22
-0.9997559322817492
 32
0.0
 13
-0.0189386426132801
 23
-0.9998206478243819
 33
0.0
 40
0.0
 40
0.0
 40
0.0
 40
0.0
 40
4.758511732047072
 40
10.02001688770915
 40
16.1604810046222
 40
23.37747415576947
 40
30.79610960000596
 40
38.26257667800748
 40
46.9577667190716
 40
57.07403080419128
 40
57.07403080419128
 40
57.07403080419128
 40
57.07403080419128
 10
59.14627234387677
 20
94.71259667540225
 30
0.0
 10
59.11122996692041
 20
93.1268132310868
 30
0.0
 10
59.03695058507046
 20
89.78763360727565
 30
0.0
 10
58.91565913819864
 20
84.40217226502014
 30
0.0
 10
58.77532486570838
 20
78.19743824834425
 30
0.0
 10
58.61977060721914
 20
71.27382117588095
 30
0.0
 10
58.45791828181098
 20
63.90823329918656
 30
0.0
 10
58.29264832337639
 20
56.04987228095903
 30
0.0
 10
58.1164632215369
 20
47.29233629393739
 30
0.0
 10
57.99531731690685
 20
41.02302118945124
 30
0.0
 10
57.93145454687698
 20
37.65153795240228
 30
0.0
 11
59.14627234387677
 21
94.71259667540225
 31
0.0
 11
59.04047066267691
 21
89.95526129640227
 31
0.0
 11
58.92217905957688
 21
84.69508605220225
 31
0.0
 11
58.78357996857682
 21
78.55618632480234
 31
0.0
 11
58.621864816877
 21
71.34100522150236
 31
0.0
 11
58.45942998817696
 21
63.92414828740236
 31
0.0
 11
58.30230930417684
 21
56.45933457790231
 31
0.0
 11
58.12705484097688
 21
47.76591087240233
 31
0.0
 11
57.93145454687698
 21
37.65153795240228
 31
0.0
  0
SPLINE
  5
6AB
330
1F
100
AcDbEntity
  8
_SURFACE
  6
Continuous
 62
     7
100
AcDbSpline
210
0.0
220
0.0
230
1.0
 70
     8
 71
     3
 72
    12
 73
     8
 74
     6
 42
0.0000000001
 43
0.0000000001
 44
0.0000000001
 12
-0.0232711148579943
 22
-0.999729190937859
 32
0.0
 13
-0.0217124044859729
 23
-0.9997642579585637
 33
0.0
 40
0.0
 40
0.0
 40
0.0
 40
0.0
 40
2.783849773409583
 40
5.788684005919352
 40
8.722252133943069
 40
11.695772822889
 40
14.79478938602458
 40
14.79478938602458
 40
14.79478938602458
 40
14.79478938602458
 10
59.63725587147684
 20
117.0164024192024
 30
0.0
 10
59.61566144220203
 20
116.0887037919813
 30
0.0
 10
59.57185857690282
 20
114.1596394732169
 30
0.0
 10
59.50712191313299
 20
111.2529428700788
 30
0.0
 10
59.44222825072664
 20
108.2830106675765
 30
0.0
 10
59.37726673402885
 20
105.2816784852738
 30
0.0
 10
59.333542933586
 20
103.2579716835172
 30
0.0
 10
59.31111389987683
 20
102.2252096853023
 30
0.0
 11
59.63725587147684
 21
117.0164024192024
 31
0.0
 11
59.57372484517697
 21
114.2332776700023
 31
0.0
 11
59.506806361977
 21
111.2291886764023
 31
0.0
 11
59.44261913407678
 21
108.2963228490022
 31
0.0
 11
59.37819058087694
 21
105.3235002426023
 31
0.0
 11
59.31111389987683
 21
102.2252096853023
 31
0.0
  0
LINE
  5
6AC
330
1F
100
AcDbEntity
  8
_SURFACE
  6
Continuous
 62
     7
100
AcDbLine
 10
59.31111389987683
 20
102.2252096853023
 30
0.0
 11
59.30994529507694
 21
102.1714052222022
 31
0.0
  0
SPLINE
  5
6AD
330
1F
100
AcDbEntity
  8
_SURFACE
  6
Continuous
 62
     7
100
AcDbSpline
210
0.0
220
0.0
230
1.0
 70
     8
 71
     3
 72
    12
 73
     8
 74
     6
 42
0.0000000001
 43
0.0000000001
 44
0.0000000001
 12
-0.0495345297129474
 22
-0.9987724116965372
 32
0.0
 13
-0.0230158342495124
 23
-0.9997351006010537
 33
0.0
 40
0.0
 40
0.0
 40
0.0
 40
0.0
 40
2.532391240604702
 40
5.434539003261201
 40
8.257816456337778
 40
11.19014743439861
 40
14.31835618977916
 40
14.31835618977916
 40
14.31835618977916
 40
14.31835618977916
 10
60.1010019048768
 20
131.4078254125023
 30
0.0
 10
60.05918830182594
 20
130.5647312435896
 30
0.0
 10
59.97708464745119
 20
128.7550536972742
 30
0.0
 10
59.87639178227965
 20
126.0042631179288
 30
0.0
 10
59.78816079567444
 20
123.119682270055
 30
0.0
 10
59.71089255015873
 20
120.159411931855
 30
0.0
 10
59.66311725171415
 20
118.1397962047894
 30
0.0
 10
59.63911780697691
 20
117.0973361732023
 30
0.0
 11
60.1010019048768
 21
131.4078254125023
 31
0.0
 11
59.98610961597688
 21
128.8780417938023
 31
0.0
 11
59.87837611507695
 21
125.9778943615023
 31
0.0
 11
59.79134026637694
 21
123.1559587956023
 31
0.0
 11
59.71375200387689
 21
120.2246544739022
 31
0.0
 11
59.63911780697691
 21
117.0973361732023
 31
0.0
  0
LINE
  5
6AE
330
1F
100
AcDbEntity
  8
_SURFACE
  6
Continuous
 62
     7
100
AcDbLine
 10
59.63911780697691
 20
117.0973361732023
 30
0.0
 11
59.63725587147684
 21
117.0164024192024
 31
0.0
  0
LINE
  5
6AF
330
1F
100
AcDbEntity
  8
_SURFACE
  6
Continuous
 62
     7
100
AcDbLine
 10
60.40276521367701
 20
136.5108849620023
 30
0.0
 11
60.40155222217691
 21
136.4935482032023
 31
0.0
  0
SPLINE
  5
6B0
330
1F
100
AcDbEntity
  8
_SURFACE
  6
Continuous
 62
     7
100
AcDbSpline
210
0.0
220
0.0
230
1.0
 70
     8
 71
     3
 72
    11
 73
     7
 74
     5
 42
0.0000000001
 43
0.0000000001
 44
0.0000000001
 12
-0.0697519981155914
 22
-0.9975643632161698
 32
0.0
 13
-0.0504458949116121
 23
-0.9987267953182023
 33
0.0
 40
0.0
 40
0.0
 40
0.0
 40
0.0
 40
0.772229011247723
 40
2.075444723504165
 40
3.525504759739366
 40
4.926846185467176
 40
4.926846185467176
 40
4.926846185467176
 40
4.926846185467176
 10
60.40155222217691
 20
136.4935482032023
 30
0.0
 10
60.38359738333113
 20
136.2367654892482
 30
0.0
 10
60.33668820915756
 20
135.5465411200865
 30
0.0
 10
60.2625847259226
 20
134.3737045483343
 30
0.0
 10
60.18321741957602
 20
132.9911021951865
 30
0.0
 10
60.13298351577598
 20
132.0419598946902
 30
0.0
 10
60.1094195416768
 20
131.5754408176023
 30
0.0
 11
60.40155222217691
 21
136.4935482032023
 31
0.0
 11
60.3491443299768
 21
135.7230995945023
 31
0.0
 11
60.26685308947691
 21
134.4224846075023
 31
0.0
 11
60.18338262737694
 21
132.9748289887023
 31
0.0
 11
60.1094195416768
 21
131.5754408176023
 31
0.0
  0
LINE
  5
6B1
330
1F
100
AcDbEntity
  8
_SURFACE
  6
Continuous
 62
     7
100
AcDbLine
 10
60.1094195416768
 20
131.5754408176023
 30
0.0
 11
60.1010019048768
 21
131.4078254125023
 31
0.0
  0
SPLINE
  5
6B2
330
1F
100
AcDbEntity
  8
_SURFACE
  6
Continuous
 62
     7
100
AcDbSpline
210
0.0
220
0.0
230
1.0
 70
     8
 71
     3
 72
    12
 73
     8
 74
     6
 42
0.0000000001
 43
0.0000000001
 44
0.0000000001
 12
-0.1264454458827038
 22
-0.9919735627603813
 32
0.0
 13
-0.0779183233581291
 23
-0.9969597458699414
 33
0.0
 40
0.0
 40
0.0
 40
0.0
 40
0.0
 40
1.057660534925941
 40
2.198057052262074
 40
3.308886490618682
 40
4.376166371268344
 40
5.479116637686631
 40
5.479116637686631
 40
5.479116637686631
 40
5.479116637686631
 10
61.05566637757698
 20
143.3887190595023
 30
0.0
 10
61.0110875915999
 20
143.0389952964951
 30
0.0
 10
60.92341864163899
 20
142.3115529261716
 30
0.0
 10
60.80319310841098
 20
141.2151437121641
 30
0.0
 10
60.69395671881613
 20
140.1143637547476
 30
0.0
 10
60.59579521200143
 20
139.0250787797943
 30
0.0
 10
60.53684985257899
 20
138.3040654611075
 30
0.0
 10
60.50820317407676
 20
137.9375331220023
 30
0.0
 11
61.05566637757698
 21
143.3887190595023
 31
0.0
 11
60.92852553937683
 21
142.3387281003023
 31
0.0
 11
60.80409265257691
 21
141.2051405768023
 31
0.0
 11
60.69422258247692
 21
140.0997580146023
 31
0.0
 11
60.59830931467701
 21
139.0367965907023
 31
0.0
 11
60.50820317407676
 21
137.9375331220023
 31
0.0
  0
SPLINE
  5
6B3
330
1F
100
AcDbEntity
  8
_SURFACE
  6
Continuous
 62
     7
100
AcDbSpline
210
0.0
220
0.0
230
1.0
 70
     8
 71
     3
 72
    12
 73
     8
 74
     6
 42
0.0000000001
 43
0.0000000001
 44
0.0000000001
 12
-0.2288343284963576
 22
-0.9734653820766412
 32
0.0
 13
-0.1273428176384848
 23
-0.9918587635323346
 33
0.0
 40
0.0
 40
0.0
 40
0.0
 40
0.0
 40
0.6167713959596684
 40
1.366056991491519
 40
2.186571435318955
 40
3.086129403979655
 40
4.137016480914449
 40
4.137016480914449
 40
4.137016480914449
 40
4.137016480914449
 10
61.77495529007689
 20
147.4609317665023
 30
0.0
 10
61.72790913400016
 20
147.2607965656284
 30
0.0
 10
61.62885100211204
 20
146.8163182538754
 30
0.0
 10
61.48266333868352
 20
146.1022237892972
 30
0.0
 10
61.33549465039099
 20
145.2923065389327
 30
0.0
 10
61.18800353807815
 20
144.380432568956
 30
0.0
 10
61.10027401804257
 20
143.7361629117491
 30
0.0
 10
61.05566637757698
 20
143.3887190595023
 30
0.0
 11
61.77495529007689
 21
147.4609317665023
 31
0.0
 11
61.64003540117693
 21
146.8590982526023
 31
0.0
 11
61.49002164767677
 21
146.1249832906023
 31
0.0
 11
61.34269892617687
 21
145.3178030330022
 31
0.0
 11
61.1994804387769
 21
144.4297191384023
 31
0.0
 11
61.05566637757698
 21
143.3887190595023
 31
0.0
  0
SPLINE
  5
6B4
330
1F
100
AcDbEntity
  8
_SURFACE
  6
Continuous
 62
     7
100
AcDbSpline
210
0.0
220
0.0
230
1.0
 70
     8
 71
     3
 72
    11
 73
     7
 74
     5
 42
0.0000000001
 43
0.0000000001
 44
0.0000000001
 12
-0.4611053956867178
 22
-0.8873453747378164
 32
0.0
 13
-0.2289047035847422
 23
-0.9734488361885185
 33
0.0
 40
0.0
 40
0.0
 40
0.0
 40
0.0
 40
0.5121261292516635
 40
1.171329023792438
 40
1.876059096390216
 40
2.744744567377135
 40
2.744744567377135
 40
2.744744567377135
 40
2.744744567377135
 10
62.6384233000768
 20
150.0596416136023
 30
0.0
 10
62.55970859292009
 20
149.9081640295776
 30
0.0
 10
62.39589777885473
 20
149.5531630382515
 30
0.0
 10
62.1807232609602
 20
148.9653737698782
 30
0.0
 10
61.96901306022479
 20
148.2516179016075
 30
0.0
 10
61.84123735349176
 20
147.742805386751
 30
0.0
 10
61.77495529007689
 20
147.4609317665023
 30
0.0
 11
62.6384233000768
 21
150.0596416136023
 31
0.0
 11
62.42209909177683
 21
149.5954466016023
 31
0.0
 11
62.19227525067691
 21
148.9776040179023
 31
0.0
 11
61.98885840797681
 21
148.3028699493023
 31
0.0
 11
61.77495529007689
 21
147.4609317665023
 31
0.0
  0
SPLINE
  5
6B5
330
1F
100
AcDbEntity
  8
_SURFACE
  6
Continuous
 62
     7
100
AcDbSpline
210
0.0
220
0.0
230
1.0
 70
     8
 71
     3
 72
    10
 73
     6
 74
     4
 42
0.0000000001
 43
0.0000000001
 44
0.0000000001
 12
-0.55903670862996
 22
-0.8291429058999305
 32
0.0
 13
-0.4586499757514972
 23
-0.888617015222616
 33
0.0
 40
0.0
 40
0.0
 40
0.0
 40
0.0
 40
0.2833217721912583
 40
0.5912546458682169
 40
0.922479178668653
 40
0.922479178668653
 40
0.922479178668653
 40
0.922479178668653
 10
63.11186507947701
 20
150.8507861622024
 30
0.0
 10
63.05906932247401
 20
150.7724814163692
 30
0.0
 10
62.95075245032243
 20
150.607792455862
 30
0.0
 10
62.79118945758027
 20
150.3448414491148
 30
0.0
 10
62.68906200805587
 20
150.1577521988375
 30
0.0
 10
62.6384233000768
 20
150.0596416136023
 30
0.0
 11
63.11186507947701
 21
150.8507861622024
 31
0.0
 11
62.95664954617683
 21
150.6137642965023
 31
0.0
 11
62.79717468867699
 21
150.3503436737023
 31
0.0
 11
62.6384233000768
 21
150.0596416136023
 31
0.0
  0
SPLINE
  5
6B6
330
1F
100
AcDbEntity
  8
_SURFACE
  6
Continuous
 62
     7
100
AcDbSpline
210
0.0
220
0.0
230
1.0
 70
     8
 71
     3
 72
    12
 73
     8
 74
     6
 42
0.0000000001
 43
0.0000000001
 44
0.0000000001
 12
-0.5456680282444201
 22
-0.8380014337409255
 32
0.0
 13
-0.5655460271398228
 23
-0.8247167339070808
 33
0.0
 40
0.0
 40
0.0
 40
0.0
 40
0.0
 40
0.3601397075977283
 40
0.7568379104983601
 40
1.135025070552526
 40
1.46836989664027
 40
1.767043734334751
 40
1.767043734334751
 40
1.767043734334751
 40
1.767043734334751
 10
64.5852413312769
 20
153.0224803052023
 30
0.0
 10
64.51973575656444
 20
152.9218811080977
 30
0.0
 10
64.38120420289935
 20
152.7110361303455
 30
0.0
 10
64.17086964435302
 20
152.3965462458741
 30
0.0
 10
63.96406047897549
 20
152.0904508706184
 30
0.0
 10
63.77452515783859
 20
151.8121212138348
 30
0.0
 10
63.65550133374987
 20
151.6382924217779
 30
0.0
 10
63.59919673297696
 20
151.5561853178023
 30
0.0
 11
64.5852413312769
 21
153.0224803052023
 31
0.0
 11
64.38750637787695
 21
152.7214794793023
 31
0.0
 11
64.16717542047678
 21
152.3915950550023
 31
0.0
 11
63.95548965817676
 21
152.0782028629023
 31
0.0
 11
63.76789661087679
 21
151.8026531910023
 31
0.0
 11
63.59919673297696
 21
151.5561853178023
 31
0.0
  0
SPLINE
  5
6B7
330
1F
100
AcDbEntity
  8
_SURFACE
  6
Continuous
 62
     7
100
AcDbSpline
210
0.0
220
0.0
230
1.0
 70
     8
 71
     3
 72
    32
 73
    28
 74
    26
 42
0.0000000001
 43
0.0000000001
 44
0.0000000001
 12
-0.543312101257251
 22
0.8395307979028707
 32
0.0
 13
-0.4614295775796401
 23
0.8871768397194976
 33
0.0
 40
0.0
 40
0.0
 40
0.0
 40
0.0
 40
0.4076652339678042
 40
0.76882075903981
 40
1.090688494283884
 40
1.380930195626484
 40
1.670222925337556
 40
1.98661950275988
 40
2.337950681094559
 40
2.72330827863233
 40
3.139930833192085
 40
3.586897474503364
 40
4.057584320151663
 40
4.55855831864088
 40
5.101359377325088
 40
5.701331255857985
 40
6.367270791846247
 40
7.101755101699645
 40
7.902970759026616
 40
8.77083263316471
 40
9.712656826465286
 40
10.73989122160202
 40
11.86687144075243
 40
13.10821265764704
 40
14.46758192038825
 40
15.94810787084766
 40
17.56101162926595
 40
17.56101162926595
 40
17.56101162926595
 40
17.56101162926595
 10
117.311393259377
 20
153.0249252956022
 30
0.0
 10
117.2375634410848
 20
153.1390078019856
 30
0.0
 10
117.098309110244
 20
153.3541468968754
 30
0.0
 10
116.9023770235298
 20
153.6603969162544
 30
0.0
 10
116.7272464852241
 20
153.9334877704627
 30
0.0
 10
116.5644270269301
 20
154.1860170696785
 30
0.0
 10
116.4013789390808
 20
154.4362243188195
 30
0.0
 10
116.227020803975
 20
154.7033660490248
 30
0.0
 10
116.0378698209533
 20
154.9990862523726
 30
0.0
 10
115.8358700855671
 20
155.3261948063847
 30
0.0
 10
115.6218005254652
 20
155.6832657358902
 30
0.0
 10
115.3982342568573
 20
156.0677804968285
 30
0.0
 10
115.1692537533709
 20
156.4815489125267
 30
0.0
 10
114.9298593400171
 20
156.9259977782313
 30
0.0
 10
114.6712557502553
 20
157.4090465802741
 30
0.0
 10
114.38736993884
 20
157.9409321475053
 30
0.0
 10
114.0733083067331
 20
158.5291375997658
 30
0.0
 10
113.7272493744407
 20
159.176302905266
 30
0.0
 10
113.3489476435489
 20
159.8825527851173
 30
0.0
 10
112.9383346031765
 20
160.6498989080519
 30
0.0
 10
112.4927414134684
 20
161.4839746152069
 30
0.0
 10
112.0074288609792
 20
162.3947559980742
 30
0.0
 10
111.4772162696053
 20
163.3947401693931
 30
0.0
 10
110.8995417027169
 20
164.4948592954524
 30
0.0
 10
110.269262882188
 20
165.7004586045248
 30
0.0
 10
109.5826712332627
 20
167.0163761019099
 30
0.0
 10
109.1062569264513
 20
167.9308629256472
 30
0.0
 10
108.8581764264768
 20
168.4078398787023
 30
0.0
 11
117.311393259377
 21
153.0249252956022
 31
0.0
 11
117.0902062509768
 21
153.3673683570022
 31
0.0
 11
116.8952619440768
 21
153.6713914326023
 31
0.0
 11
116.7214392434769
 21
153.9422871833023
 31
0.0
 11
116.5640581848768
 21
154.1861548679023
 31
0.0
 11
116.4062836975768
 21
154.4286368149023
 31
0.0
 11
116.2337711607768
 21
154.6938654311023
 31
0.0
 11
116.0447301964769
 21
154.9900024107023
 31
0.0
 11
115.8420399932768
 21
155.3177479820023
 31
0.0
 11
115.6277740821768
 21
155.6750496365022
 31
0.0
 11
115.4035468247769
 21
156.0617036362022
 31
0.0
 11
115.1749034043769
 21
156.4731259168023
 31
0.0
 11
114.9366505542769
 21
156.9138191509023
 31
0.0
 11
114.6803458486768
 21
157.3922968277023
 31
0.0
 11
114.3977110403769
 21
157.9215262866022
 31
0.0
 11
114.0840119865768
 21
158.5089514897024
 31
0.0
 11
113.7376646817768
 21
159.1566479818023
 31
0.0
 11
113.3594847203768
 21
159.8629952380024
 31
0.0
 11
112.9500495239768
 21
160.6282057009022
 31
0.0
 11
112.5062993566769
 21
161.4589394730023
 31
0.0
 11
112.0233600308768
 21
162.3655706605023
 31
0.0
 11
111.495706703277
 21
163.3613951331023
 31
0.0
 11
110.9181494246769
 21
164.4601924787022
 31
0.0
 11
110.2881296936769
 21
165.6647504603023
 31
0.0
 11
109.6032139655768
 21
166.9773233289023
 31
0.0
 11
108.8581764264768
 21
168.4078398787023
 31
0.0
  0
SPLINE
  5
6B8
330
1F
100
AcDbEntity
  8
_SURFACE
  6
Continuous
 62
     7
100
AcDbSpline
210
0.0
220
0.0
230
1.0
 70
     8
 71
     3
 72
    12
 73
     8
 74
     6
 42
0.0000000001
 43
0.0000000001
 44
0.0000000001
 12
-0.5655767470451996
 22
0.824695667020126
 32
0.0
 13
-0.5451971058157374
 23
0.8383078884336851
 33
0.0
 40
0.0
 40
0.0
 40
0.0
 40
0.0
 40
0.3107979308235238
 40
0.6601247330273039
 40
1.046516369091846
 40
1.429337079153094
 40
1.766861485210852
 40
1.766861485210852
 40
1.766861485210852
 40
1.766861485210852
 10
118.2973423003769
 20
151.5587866250022
 30
0.0
 10
118.2387489394757
 20
151.6442245272919
 30
0.0
 10
118.1144292184631
 20
151.8257815871817
 30
0.0
 10
117.9181025429502
 20
152.1141299582618
 30
0.0
 10
117.7094740295608
 20
152.4231435921056
 30
0.0
 10
117.5045682736895
 20
152.7299197229068
 30
0.0
 10
117.3727323691519
 20
152.9306088382232
 30
0.0
 10
117.311393259377
 20
153.0249252956022
 30
0.0
 11
118.2973423003769
 21
151.5587866250022
 31
0.0
 11
118.1217917126769
 21
151.8152575687023
 31
0.0
 11
117.9252352874769
 21
152.1040391236024
 31
0.0
 11
117.7090747968769
 21
152.4243095386022
 31
0.0
 11
117.4966145359768
 21
152.7427625706023
 31
0.0
 11
117.311393259377
 21
153.0249252956022
 31
0.0
  0
SPLINE
  5
6B9
330
1F
100
AcDbEntity
  8
_SURFACE
  6
Continuous
 62
     7
100
AcDbSpline
210
0.0
220
0.0
230
1.0
 70
     8
 71
     3
 72
    10
 73
     6
 74
     4
 42
0.0000000001
 43
0.0000000001
 44
0.0000000001
 12
-0.4567433689247379
 22
0.8895985021026511
 32
0.0
 13
-0.5580902437842364
 23
0.8297802599440721
 33
0.0
 40
0.0
 40
0.0
 40
0.0
 40
0.0
 40
0.3446086157109935
 40
0.6457687913869109
 40
0.9284333356740324
 40
0.9284333356740324
 40
0.9284333356740324
 40
0.9284333356740324
 10
119.2655614546768
 20
150.0487225754023
 30
0.0
 10
119.2130955546434
 20
150.1509103448517
 30
0.0
 10
119.1099827685933
 20
150.3399876692716
 30
0.0
 10
118.9494209025476
 20
150.604643950783
 30
0.0
 10
118.8426818315204
 20
150.7674055246904
 30
0.0
 10
118.7900977233769
 20
150.8455886777023
 30
0.0
 11
119.2655614546768
 21
150.0487225754023
 31
0.0
 11
119.1006059431768
 21
150.3512862501024
 31
0.0
 11
118.9446860725768
 21
150.6089419222023
 31
0.0
 11
118.7900977233769
 21
150.8455886777023
 31
0.0
  0
SPLINE
  5
6BA
330
1F
100
AcDbEntity
  8
_SURFACE
  6
Continuous
 62
     7
100
AcDbSpline
210
0.0
220
0.0
230
1.0
 70
     8
 71
     3
 72
    11
 73
     7
 74
     5
 42
0.0000000001
 43
0.0000000001
 44
0.0000000001
 12
-0.2286016732880424
 22
0.9735200434351144
 32
0.0
 13
-0.4592677930911065
 23
0.8882978634609139
 33
0.0
 40
0.0
 40
0.0
 40
0.0
 40
0.0
 40
0.8413227024678285
 40
1.529857868909759
 40
2.190850534893619
 40
2.738869804001612
 40
2.738869804001612
 40
2.738869804001612
 40
2.738869804001612
 10
120.1247225529769
 20
147.4546437283024
 30
0.0
 10
120.0606132937905
 20
147.7276585662522
 30
0.0
 10
119.93677738865
 20
148.2224773590306
 30
0.0
 10
119.7308486457633
 20
148.9233852782209
 30
0.0
 10
119.5167375187748
 20
149.5191305177109
 30
0.0
 10
119.3494573214417
 20
149.8864544601076
 30
0.0
 10
119.2655614546768
 20
150.0487225754023
 30
0.0
 11
120.1247225529769
 21
147.4546437283024
 31
0.0
 11
119.9183724886768
 21
148.2702683605022
 31
0.0
 11
119.721641117877
 21
148.9300997353022
 31
0.0
 11
119.4947657640769
 21
149.5509369751023
 31
0.0
 11
119.2655614546768
 21
150.0487225754023
 31
0.0
  0
SPLINE
  5
6BB
330
1F
100
AcDbEntity
  8
_SURFACE
  6
Continuous
 62
     7
100
AcDbSpline
210
0.0
220
0.0
230
1.0
 70
     8
 71
     3
 72
    13
 73
     9
 74
     7
 42
0.0000000001
 43
0.0000000001
 44
0.0000000001
 12
-0.1272776744050807
 22
0.9918671249708976
 32
0.0
 13
-0.2280591588022306
 23
0.9736472770394929
 33
0.0
 40
0.0
 40
0.0
 40
0.0
 40
0.0
 40
0.8793832327907184
 40
1.65558677955804
 40
2.307887317961943
 40
2.888590755411511
 40
3.486316729262008
 40
4.13533447831776
 40
4.13533447831776
 40
4.13533447831776
 40
4.13533447831776
 10
120.8431953667769
 20
143.3840141354023
 30
0.0
 10
120.8058867491834
 20
143.6747579083542
 30
0.0
 10
120.7319696248433
 20
144.2216801971359
 30
0.0
 10
120.6142871191979
 20
144.981969023266
 30
0.0
 10
120.5001158177115
 20
145.6419305516384
 30
0.0
 10
120.3868988340208
 20
146.2416030004744
 30
0.0
 10
120.2644935350355
 20
146.8383505623745
 30
0.0
 10
120.174060700276
 20
147.2440056069296
 30
0.0
 10
120.1247225529769
 20
147.4546437283024
 30
0.0
 11
120.8431953667769
 21
143.3840141354023
 31
0.0
 11
120.7243995401769
 21
144.2553363615023
 31
0.0
 11
120.6055091425769
 21
145.0223807014023
 31
0.0
 11
120.494315555477
 21
145.6651341367023
 31
0.0
 11
120.3864809745769
 21
146.2357374888024
 31
0.0
 11
120.2663376450769
 21
146.8212645336023
 31
0.0
 11
120.1247225529769
 21
147.4546437283024
 31
0.0
  0
SPLINE
  5
6BC
330
1F
100
AcDbEntity
  8
_SURFACE
  6
Continuous
 62
     7
100
AcDbSpline
210
0.0
220
0.0
230
1.0
 70
     8
 71
     3
 72
    12
 73
     8
 74
     6
 42
0.0000000001
 43
0.0000000001
 44
0.0000000001
 12
-0.0778350604962509
 22
0.9969662498588128
 32
0.0
 13
-0.1264124877126931
 23
0.9919777633345862
 33
0.0
 40
0.0
 40
0.0
 40
0.0
 40
0.0
 40
1.117684444540508
 40
2.18767668335147
 40
3.290640116642513
 40
4.431087371178686
 40
5.489265726491296
 40
5.489265726491296
 40
5.489265726491296
 40
5.489265726491296
 10
121.391273167877
 20
137.9226909600024
 30
0.0
 10
121.3622748224248
 20
138.2941221830687
 30
0.0
 10
121.3028936350028
 20
139.0209351553649
 30
0.0
 10
121.2043790953697
 20
140.1133949466089
 30
0.0
 10
121.0953060426601
 20
141.2124811884911
 30
0.0
 10
120.9754485568982
 20
142.3064836688093
 30
0.0
 10
120.8877843528898
 20
143.0341176693649
 30
0.0
 10
120.8431953667769
 20
143.3840141354023
 30
0.0
 11
121.391273167877
 21
137.9226909600024
 31
0.0
 11
121.3000034799768
 21
139.0366426473023
 31
0.0
 11
121.2037955893771
 21
140.1023008631023
 31
0.0
 11
121.0947048063768
 21
141.1998561174023
 31
0.0
 11
120.9703504917768
 21
142.3335033045022
 31
0.0
 11
120.8431953667769
 21
143.3840141354023
 31
0.0
  0
LINE
  5
6BD
330
1F
100
AcDbEntity
  8
_SURFACE
  6
Continuous
 62
     7
100
AcDbLine
 10
121.7985584548769
 20
131.3812158764023
 30
0.0
 11
121.790179472077
 21
131.5485908554023
 31
0.0
  0
SPLINE
  5
6BE
330
1F
100
AcDbEntity
  8
_SURFACE
  6
Continuous
 62
     7
100
AcDbSpline
210
0.0
220
0.0
230
1.0
 70
     8
 71
     3
 72
    11
 73
     7
 74
     5
 42
0.0000000001
 43
0.0000000001
 44
0.0000000001
 12
-0.0502885102895278
 22
0.9987347324153997
 32
0.0
 13
-0.0697410616045935
 23
0.9975651278619679
 33
0.0
 40
0.0
 40
0.0
 40
0.0
 40
0.0
 40
1.392057372647612
 40
2.847599589420341
 40
4.161491515460273
 40
4.954791474763506
 40
4.954791474763506
 40
4.954791474763506
 40
4.954791474763506
 10
121.790179472077
 20
131.5485908554023
 30
0.0
 10
121.7668446415743
 20
132.0120228712617
 30
0.0
 10
121.7168316449236
 20
132.9599078250325
 30
0.0
 10
121.6374705633925
 20
134.3448058589322
 30
0.0
 10
121.5627118826562
 20
135.5300355808324
 30
0.0
 10
121.5151330307211
 20
136.2308213595571
 30
0.0
 10
121.4966911702768
 20
136.4946108180023
 30
0.0
 11
121.790179472077
 21
131.5485908554023
 31
0.0
 11
121.7169210215768
 21
132.9387192409023
 31
0.0
 11
121.6333056792769
 21
134.3918577819024
 31
0.0
 11
121.5504807154769
 21
135.7031365542023
 31
0.0
 11
121.4966911702768
 21
136.4946108180023
 31
0.0
  0
LINE
  5
6BF
330
1F
100
AcDbEntity
  8
_SURFACE
  6
Continuous
 62
     7
100
AcDbLine
 10
121.4966911702768
 20
136.4946108180023
 30
0.0
 11
121.4953735621769
 21
136.5134447279023
 31
0.0
  0
LINE
  5
6C0
330
1F
100
AcDbEntity
  8
_SURFACE
  6
Continuous
 62
     7
100
AcDbLine
 10
122.5888542890769
 20
102.1469385189022
 30
0.0
 11
122.5876863529768
 21
102.2007170395023
 31
0.0
  0
SPLINE
  5
6C1
330
1F
100
AcDbEntity
  8
_SURFACE
  6
Continuous
 62
     7
100
AcDbSpline
210
0.0
220
0.0
230
1.0
 70
     8
 71
     3
 72
    17
 73
    13
 74
    11
 42
0.0000000001
 43
0.0000000001
 44
0.0000000001
 12
-0.0217106352989166
 22
0.9997642963793605
 32
0.0
 13
-0.0496192269415353
 23
0.9987682075024837
 33
0.0
 40
0.0
 40
0.0
 40
0.0
 40
0.0
 40
3.1137369830627
 40
6.695629012928146
 40
10.68268573330906
 40
14.43005670280807
 40
17.74018361665986
 40
20.67029921572301
 40
23.2398231293132
 40
25.47760965030731
 40
27.43606742815047
 40
29.19196596532124
 40
29.19196596532124
 40
29.19196596532124
 40
29.19196596532124
 10
122.5876863529768
 20
102.2007170395023
 30
0.0
 10
122.5651526169581
 20
103.2383847274963
 30
0.0
 10
122.5169235124754
 20
105.4697399160301
 30
0.0
 10
122.4398783965043
 20
109.0298015516587
 30
0.0
 10
122.3570406518458
 20
112.8009986791923
 30
0.0
 10
122.2737576792545
 20
116.4815748226327
 30
0.0
 10
122.1960625367767
 20
119.8098736590419
 30
0.0
 10
122.1202760420095
 20
122.7454895166619
 30
0.0
 10
122.0434393624424
 20
125.3234957322414
 30
0.0
 10
121.9650897014045
 20
127.5774004358059
 30
0.0
 10
121.8853240328975
 20
129.5598555462206
 30
0.0
 10
121.827600564211
 20
130.7966373315602
 30
0.0
 10
121.7985584548769
 20
131.3812158764023
 30
0.0
 11
122.5876863529768
 21
102.2007170395023
 31
0.0
 11
122.5202825259769
 21
105.3137243835023
 31
0.0
 11
122.4426173456768
 21
108.8947743180023
 31
0.0
 11
122.3548330427769
 21
112.8808645337023
 31
0.0
 11
122.2699859943769
 21
116.6272748371023
 31
0.0
 11
122.1916605956767
 21
119.9364749395023
 31
0.0
 11
122.1151009203768
 21
122.8655901711023
 31
0.0
 11
122.0378791927769
 21
125.4339534529023
 31
0.0
 11
121.9596820186769
 21
127.6703732962022
 31
0.0
 11
121.8804002207769
 21
129.6272256831022
 31
0.0
 11
121.7985584548769
 21
131.3812158764023
 31
0.0
  0
SPLINE
  5
6C2
330
1F
100
AcDbEntity
  8
_SURFACE
  6
Continuous
 62
     7
100
AcDbSpline
210
0.0
220
0.0
230
1.0
 70
     8
 71
     3
 72
    30
 73
    26
 74
    24
 42
0.0000000001
 43
0.0000000001
 44
0.0000000001
 12
-0.0001244919690945
 22
-0.9999999922508747
 32
0.0
 13
-0.0001303459087279
 23
0.999999991504972
 33
0.0
 40
0.0
 40
0.0
 40
0.0
 40
0.0
 40
0.6627204903560883
 40
1.414113498014505
 40
2.22292027531571
 40
3.057640922719011
 40
3.894662002385728
 40
4.740642611060002
 40
5.592062258456485
 40
6.443402291754805
 40
7.292294480892802
 40
8.138025278893284
 40
8.98139959151709
 40
9.823938461895304
 40
10.66729854906514
 40
11.51309920055193
 40
12.36231102936551
 40
13.21401403274812
 40
14.06531921010288
 40
14.91075414307012
 40
15.74708204485269
 40
16.58158647446313
 40
17.38787552243994
 40
18.13424640507655
 40
18.78944896630395
 40
18.78944896630395
 40
18.78944896630395
 40
18.78944896630395
 10
96.99740017927689
 20
79.26754144600231
 30
0.0
 10
96.99737267815063
 20
79.04663461759546
 30
0.0
 10
96.96926653325732
 20
78.57483560455534
 30
0.0
 10
96.83315830367215
 20
77.84437119577596
 30
0.0
 10
96.58209109453416
 20
77.08386205798166
 30
0.0
 10
96.21543238472632
 20
76.33974162772786
 30
0.0
 10
95.74233623403129
 20
75.64332675939097
 30
0.0
 10
95.17402497725816
 20
75.01459644691466
 30
0.0
 10
94.52056170131863
 20
74.46738485699686
 30
0.0
 10
93.79668709853067
 20
74.01556733476778
 30
0.0
 10
93.0187661511521
 20
73.66952121738123
 30
0.0
 10
92.20278293328863
 20
73.43592675366199
 30
0.0
 10
91.36428830387329
 20
73.31874490764682
 30
0.0
 10
90.51843563804295
 20
73.31980178097271
 30
0.0
 10
89.68021795761627
 20
73.43907974144198
 30
0.0
 10
88.86470082714884
 20
73.67475020356284
 30
0.0
 10
88.08742834425727
 20
74.02287210681382
 30
0.0
 10
87.36456714730536
 20
74.47667224216828
 30
0.0
 10
86.71262358947927
 20
75.02553915876497
 30
0.0
 10
86.14625672392651
 20
75.65541019383861
 30
0.0
 10
85.67520709584689
 20
76.35261976964287
 30
0.0
 10
85.31092609889077
 20
77.09663374210143
 30
0.0
 10
85.06245599574821
 20
77.85525152092773
 30
0.0
 10
84.92854487428971
 20
78.58097929295031
 30
0.0
 10
84.90100570093458
 20
79.04858395191519
 30
0.0
 10
84.90097723327682
 20
79.26698480380235
 30
0.0
 11
96.99740017927689
 21
79.26754144600231
 31
0.0
 11
96.95818511877684
 21
78.60598220650233
 31
0.0
 11
96.82089477627693
 21
77.86723812780239
 31
0.0
 11
96.56770038747692
 21
77.09908384350232
 31
0.0
 11
96.19906228417683
 21
76.35017496520224
 31
0.0
 11
95.72889595657676
 21
75.65768098530241
 31
0.0
 11
95.16168918527688
 21
75.0300189195023
 31
0.0
 11
94.50891807687691
 21
74.48338806050235
 31
0.0
 11
93.78667321637687
 21
74.03267505450223
 31
0.0
 11
93.01101510327686
 21
73.68775123630228
 31
0.0
 11
92.19791827567684
 21
73.45508380920232
 31
0.0
 11
91.36265326717699
 21
73.33841077560229
 31
0.0
 11
90.52011505437695
 21
73.33946342460233
 31
0.0
 11
89.68515810877676
 21
73.45822004810229
 31
0.0
 11
88.87257897137676
 21
73.69294091960232
 31
0.0
 11
88.09750675517676
 21
74.03996223000233
 31
0.0
 11
87.37612896727688
 21
74.49274484130232
 31
0.0
 11
86.72488855397688
 21
75.04102071080222
 31
0.0
 11
86.15968543137688
 21
75.66975408520232
 31
0.0
 11
85.69167064547679
 21
76.36286772630232
 31
0.0
 11
85.32501542167693
 21
77.11250870030237
 31
0.0
 11
85.07440524837699
 21
77.87886147150236
 31
0.0
 11
84.93931246487688
 21
78.61290468160238
 31
0.0
 11
84.90097723327682
 21
79.26698480380235
 31
0.0
  0
SPLINE
  5
6C3
330
1F
100
AcDbEntity
  8
_SURFACE
  6
Continuous
 62
     7
100
AcDbSpline
210
0.0
220
0.0
230
1.0
 70
     8
 71
     3
 72
    11
 73
     7
 74
     5
 42
0.0000000001
 43
0.0000000001
 44
0.0000000001
 12
-0.0000480460672095
 22
0.9999999988457876
 32
0.0
 13
0.5396122575240965
 23
0.8419136603772077
 33
0.0
 40
0.0
 40
0.0
 40
0.0
 40
0.0
 40
0.7926352523547572
 40
1.563043001129192
 40
2.336497392796004
 40
3.118088715696398
 40
3.118088715696398
 40
3.118088715696398
 40
3.118088715696398
 10
84.90097723327682
 20
79.26698480380235
 30
0.0
 10
84.90096453894128
 20
79.5311965542823
 30
0.0
 10
84.93804129241778
 20
80.05301417572326
 30
0.0
 10
85.10378079537161
 20
80.81656264576102
 30
0.0
 10
85.37464995567864
 20
81.54555744205014
 30
0.0
 10
85.62367870387314
 20
82.00254777150833
 30
0.0
 10
85.76426412327696
 20
82.22189190870237
 30
0.0
 11
84.90097723327682
 21
79.26698480380235
 31
0.0
 11
84.95754644117694
 21
80.05759884870228
 31
0.0
 11
85.12107421717685
 21
80.81045126840233
 31
0.0
 11
85.39049918997676
 21
81.53546290970227
 31
0.0
 11
85.76426412327696
 21
82.22189190870237
 31
0.0
  0
SPLINE
  5
6C4
330
1F
100
AcDbEntity
  8
_SURFACE
  6
Continuous
 62
     7
100
AcDbSpline
210
0.0
220
0.0
230
1.0
 70
     8
 71
     3
 72
    22
 73
    18
 74
    16
 42
0.0000000001
 43
0.0000000001
 44
0.0000000001
 12
0.5511282197049247
 22
0.8344205686851687
 32
0.0
 13
0.5510932823612308
 23
-0.8344436434752948
 33
0.0
 40
0.0
 40
0.0
 40
0.0
 40
0.0
 40
0.7141525223439592
 40
1.513423124087325
 40
2.323424634878467
 40
3.140690503856494
 40
3.961376048163834
 40
4.785355676923537
 40
5.610967835418779
 40
6.437046235561508
 40
7.262686971411913
 40
8.0867467136417
 40
8.907679524976231
 40
9.725262223082719
 40
10.53542928041925
 40
11.33457900928672
 40
12.04841257138679
 40
12.04841257138679
 40
12.04841257138679
 40
12.04841257138679
 10
85.80548704777681
 20
82.28524602360225
 30
0.0
 10
85.93668358385588
 20
82.48388054154299
 30
0.0
 10
86.24232937008082
 20
82.88724119062058
 30
0.0
 10
86.79051940017933
 20
83.43783981083587
 30
0.0
 10
87.43717706235939
 20
83.92798074267323
 30
0.0
 10
88.15039175159519
 20
84.32942381840197
 30
0.0
 10
88.91451895459681
 20
84.63502818268747
 30
0.0
 10
89.7141862768961
 20
84.84057022640696
 30
0.0
 10
90.53510942972852
 20
84.94385418059433
 30
0.0
 10
91.36303517931285
 20
84.94391565931614
 30
0.0
 10
92.18400952836967
 20
84.84074448219635
 30
0.0
 10
92.98381840157757
 20
84.63527180101216
 30
0.0
 10
93.74817265408044
 20
84.32964958206211
 30
0.0
 10
94.46160853764572
 20
83.92809635004297
 30
0.0
 10
95.108339424429
 20
83.43784844016955
 30
0.0
 10
95.65642031300848
 20
82.88727034270326
 30
0.0
 10
95.96195140074442
 20
82.48400867390017
 30
0.0
 10
96.09308102767688
 20
82.28545738110225
 30
0.0
 11
85.80548704777681
 21
82.28524602360225
 31
0.0
 11
86.23659157647677
 21
82.85459891110228
 31
0.0
 11
86.80011634597695
 21
83.42140869310235
 31
0.0
 11
87.44526353327689
 21
83.91119186370229
 31
0.0
 11
88.15715372147684
 21
84.31260917840239
 31
0.0
 11
88.91895891187692
 21
84.61785926360226
 31
0.0
 11
89.71690136727699
 21
84.82335930370224
 31
0.0
 11
90.53602960407676
 21
84.92662773030239
 31
0.0
 11
91.36210800197687
 21
84.92668860020232
 31
0.0
 11
92.18127922057698
 21
84.82353270210232
 31
0.0
 11
92.9793245377769
 21
84.61811086670234
 31
0.0
 11
93.74138403057697
 21
84.31283065090228
 31
0.0
 11
94.45355592757692
 21
83.91126788200237
 31
0.0
 11
95.09881004127697
 21
83.4213517774023
 31
0.0
 11
95.66220423567694
 21
82.85458262610227
 31
0.0
 11
96.09308102767688
 21
82.28545738110225
 31
0.0
  0
SPLINE
  5
6C5
330
1F
100
AcDbEntity
  8
_SURFACE
  6
Continuous
 62
     7
100
AcDbSpline
210
0.0
220
0.0
230
1.0
 70
     8
 71
     3
 72
    11
 73
     7
 74
     5
 42
0.0000000001
 43
0.0000000001
 44
0.0000000001
 12
0.5395543695624867
 22
-0.8419507600127381
 32
0.0
 13
-0.0000467264461039
 23
-0.9999999989083196
 33
0.0
 40
0.0
 40
0.0
 40
0.0
 40
0.0
 40
0.7812824946872352
 40
1.554071328071779
 40
2.32359328168458
 40
3.11755359438936
 40
3.11755359438936
 40
3.11755359438936
 40
3.11755359438936
 10
96.13437578067674
 20
82.22198519710234
 30
0.0
 10
96.27489057530048
 20
82.00271806704014
 30
0.0
 10
96.52373982868567
 20
81.54600270445053
 30
0.0
 10
96.79441426687223
 20
80.81760317479913
 30
0.0
 10
96.96026075496835
 20
80.05416302738428
 30
0.0
 10
96.9974125455915
 20
79.53219488328165
 30
0.0
 10
96.99740017927689
 20
79.26754144600231
 30
0.0
 11
96.13437578067674
 21
82.22198519710234
 31
0.0
 11
96.50796003857687
 21
81.53580946250228
 31
0.0
 11
96.77717590157687
 21
80.81143014190223
 31
0.0
 11
96.9406394281769
 21
80.0594702277023
 31
0.0
 11
96.99740017927689
 21
79.26754144600231
 31
0.0
  0
SPLINE
  5
6C6
330
1F
100
AcDbEntity
  8
_SURFACE
  6
Continuous
 62
     7
100
AcDbSpline
210
0.0
220
0.0
230
1.0
 70
     8
 71
     3
 72
    12
 73
     8
 74
     6
 42
0.0000000001
 43
0.0000000001
 44
0.0000000001
 12
-0.0000848187652622
 22
0.9999999964028884
 32
0.0
 13
0.5547401512086662
 23
0.8320236562964941
 33
0.0
 40
0.0
 40
0.0
 40
0.0
 40
0.0
 40
0.7256061127470688
 40
1.484324622650134
 40
2.265004171533298
 40
3.056938561707364
 40
3.220446701895566
 40
3.220446701895566
 40
3.220446701895566
 40
3.220446701895566
 10
84.90288865167697
 20
62.28040399070225
 30
0.0
 10
84.90286813667211
 20
62.52227269408125
 30
0.0
 10
84.93505736035089
 20
63.01765936132858
 30
0.0
 10
85.08566914253837
 20
63.75990131120886
 30
0.0
 10
85.34689562265853
 20
64.49456331695927
 30
0.0
 10
85.61847245167596
 20
65.008215817937
 30
0.0
 10
85.79121544970632
 20
65.27579357712439
 30
0.0
 10
85.82145029317695
 20
65.32114112400226
 30
0.0
 11
84.90288865167697
 21
62.28040399070225
 31
0.0
 11
84.95023347837701
 21
63.00446386270225
 31
0.0
 11
85.1012440646769
 21
63.74800241590235
 31
0.0
 11
85.36283264207673
 21
64.48355117310227
 31
0.0
 11
85.73277321347683
 21
65.18376831940229
 31
0.0
 11
85.82145029317695
 21
65.32114112400226
 31
0.0
  0
SPLINE
  5
6C7
330
1F
100
AcDbEntity
  8
_SURFACE
  6
Continuous
 62
     7
100
AcDbSpline
210
0.0
220
0.0
230
1.0
 70
     8
 71
     3
 72
    22
 73
    18
 74
    16
 42
0.0000000001
 43
0.0000000001
 44
0.0000000001
 12
0.5547401511952415
 22
0.8320236563054448
 32
0.0
 13
0.5547782030867704
 23
-0.8319982844812926
 33
0.0
 40
0.0
 40
0.0
 40
0.0
 40
0.0
 40
0.6332382815037789
 40
1.441403963782012
 40
2.26197996736136
 40
3.088430415029452
 40
3.919459208024465
 40
4.754483541151467
 40
5.591216120234818
 40
6.428295011071048
 40
7.264988135252407
 40
8.099967641185582
 40
8.93119011674087
 40
9.757933432265511
 40
10.57854382744717
 40
11.38621801475142
 40
11.99517443291414
 40
11.99517443291414
 40
11.99517443291414
 40
11.99517443291414
 10
85.82145029317695
 20
65.32114112400226
 30
0.0
 10
85.93854452651829
 20
65.49676420076538
 30
0.0
 10
86.2282173776145
 20
65.88154858359285
 30
0.0
 10
86.75693787915147
 20
66.42268334538073
 30
0.0
 10
87.4075521350173
 20
66.92352454295108
 30
0.0
 10
88.12731098212584
 20
67.33397323310012
 30
0.0
 10
88.89981051933812
 20
67.64632884397911
 30
0.0
 10
89.70966629659685
 20
67.85614714312933
 30
0.0
 10
90.54164773003384
 20
67.96085967200062
 30
0.0
 10
91.38072368549499
 20
67.95940678157842
 30
0.0
 10
92.21230849041395
 20
67.85179433732264
 30
0.0
 10
93.02144927097431
 20
67.63907717027146
 30
0.0
 10
93.79292739473955
 20
67.32380013503609
 30
0.0
 10
94.51123460380348
 20
66.91044708940911
 30
0.0
 10
95.15974078931307
 20
66.40696647251394
 30
0.0
 10
95.68041559814018
 20
65.86951724951844
 30
0.0
 10
95.96423649286805
 20
65.49081048748067
 30
0.0
 10
96.07684840867689
 20
65.32192692240226
 30
0.0
 11
85.82145029317695
 21
65.32114112400226
 31
0.0
 11
86.20218122417696
 21
65.82713981900228
 31
0.0
 11
86.76656959887674
 21
66.40558388070228
 31
0.0
 11
87.41640323407688
 21
66.90664398110225
 31
0.0
 11
88.13400695277692
 21
67.31660159520235
 31
0.0
 11
88.90423142807691
 21
67.62863222260232
 31
0.0
 11
89.71246639427688
 21
67.83844613140233
 31
0.0
 11
90.5426227132769
 21
67.94314519980223
 31
0.0
 11
91.37970034187679
 21
67.94169152130227
 31
0.0
 11
92.20944605857681
 21
67.83409305630236
 31
0.0
 11
93.01688221387673
 21
67.62140165910231
 31
0.0
 11
93.78612132167683
 21
67.30643817090224
 31
0.0
 11
94.50236864227695
 21
66.89352863420224
 31
0.0
 11
95.15016227007691
 21
66.38977786600235
 31
0.0
 11
95.71175212947679
 21
65.80930011220225
 31
0.0
 11
96.07684840867689
 21
65.32192692240226
 31
0.0
  0
SPLINE
  5
6C8
330
1F
100
AcDbEntity
  8
_SURFACE
  6
Continuous
 62
     7
100
AcDbSpline
210
0.0
220
0.0
230
1.0
 70
     8
 71
     3
 72
    12
 73
     8
 74
     6
 42
0.0000000001
 43
0.0000000001
 44
0.0000000001
 12
0.554778203095725
 22
-0.8319982844753218
 32
0.0
 13
-0.0000865125702724
 23
-0.9999999962577877
 33
0.0
 40
0.0
 40
0.0
 40
0.0
 40
0.0
 40
0.1877668967559528
 40
0.9801074981550021
 40
1.758483784227083
 40
2.509855218686829
 40
3.220679792569059
 40
3.220679792569059
 40
3.220679792569059
 40
3.220679792569059
 10
96.07684840867689
 20
65.32192692240226
 30
0.0
 10
96.11157140253792
 20
65.26985301040818
 30
0.0
 10
96.28819140302216
 20
64.99497702318937
 30
0.0
 10
96.56094573053211
 20
64.4734961922081
 30
0.0
 10
96.81798354766264
 20
63.74064664626591
 30
0.0
 10
96.96446613214696
 20
63.00595173043147
 30
0.0
 10
96.99552098169718
 20
62.51797852254305
 30
0.0
 10
96.99550048327688
 20
62.28103699880232
 30
0.0
 11
96.07684840867689
 21
65.32192692240226
 31
0.0
 11
96.17834157527688
 21
65.1639536821023
 31
0.0
 11
96.54535930477692
 21
64.4617417377023
 31
0.0
 11
96.80302530467685
 21
63.72725016170232
 31
0.0
 11
96.95007482737679
 21
62.99040861130236
 31
0.0
 11
96.99550048327688
 21
62.28103699880232
 31
0.0
  0
SPLINE
  5
6C9
330
1F
100
AcDbEntity
  8
_SURFACE
  6
Continuous
 62
     7
100
AcDbSpline
210
0.0
220
0.0
230
1.0
 70
     8
 71
     3
 72
    18
 73
    14
 74
    12
 42
0.0000000001
 43
0.0000000001
 44
0.0000000001
 12
-0.9896417944264975
 22
-0.1435587640107768
 32
0.0
 13
0.0008174118654366
 23
-0.9999996659188653
 33
0.0
 40
0.0
 40
0.0
 40
0.0
 40
0.0
 40
0.0532215742293256
 40
0.2406903855736526
 40
0.5704523556234344
 40
1.042648317464871
 40
1.649814714847261
 40
2.381772156589263
 40
3.225847455815322
 40
4.16978521789984
 40
5.195290312112559
 40
6.284322137621738
 40
7.418461476827447
 40
7.418461476827447
 40
7.418461476827447
 40
7.418461476827447
 10
108.625571377977
 20
186.0116209492023
 30
0.0
 10
108.6080146132361
 20
186.0090741413972
 30
0.0
 10
108.5286432119161
 20
185.9771116381477
 30
0.0
 10
108.4938619544232
 20
185.7615896888973
 30
0.0
 10
108.4127319520182
 20
185.4588295948837
 30
0.0
 10
108.3580320158971
 20
184.983505614674
 30
0.0
 10
108.2976044288359
 20
184.3861336402929
 30
0.0
 10
108.2474895901247
 20
183.6588173658878
 30
0.0
 10
108.2034746432483
 20
182.8203694034019
 30
0.0
 10
108.1684667720606
 20
181.8830199056014
 30
0.0
 10
108.1427997031612
 20
180.8638708486581
 30
0.0
 10
108.1274092311254
 20
179.7810558874151
 30
0.0
 10
108.1245545905259
 20
179.0399928766061
 30
0.0
 10
108.1248636101769
 20
178.6619465565024
 30
0.0
 11
108.625571377977
 21
186.0116209492023
 31
0.0
 11
108.5760766004769
 21
185.9920555981022
 31
0.0
 11
108.501109123577
 21
185.8202288463023
 31
0.0
 11
108.4302659887769
 21
185.4981664189022
 31
0.0
 11
108.3643986927769
 21
185.0305869864023
 31
0.0
 11
108.3046323740769
 21
184.4263692928022
 31
0.0
 11
108.251928946977
 21
183.6963117298023
 31
0.0
 11
108.2072206676769
 21
182.8534212977023
 31
0.0
 11
108.1713142830768
 21
181.9101667031023
 31
0.0
 11
108.1451504619768
 21
180.8849954234023
 31
0.0
 11
108.129465214377
 21
179.7960765605023
 31
0.0
 11
108.1248636101769
 21
178.6619465565024
 31
0.0
  0
SPLINE
  5
6CA
330
1F
100
AcDbEntity
  8
_SURFACE
  6
Continuous
 62
     7
100
AcDbSpline
210
0.0
220
0.0
230
1.0
 70
     8
 71
     3
 72
    30
 73
    26
 74
    24
 42
0.0000000001
 43
0.0000000001
 44
0.0000000001
 12
-0.0001762424154345
 22
-0.9999999844693054
 32
0.0
 13
-0.0001742760401068
 23
0.9999999848139308
 33
0.0
 40
0.0
 40
0.0
 40
0.0
 40
0.0
 40
0.78907490430097
 40
1.578566901966598
 40
2.377729353053154
 40
3.187246504178861
 40
4.005561481108934
 40
4.831738188616056
 40
5.664129943029434
 40
6.497355839679005
 40
7.327156906301884
 40
8.154337937819674
 40
8.979262342998161
 40
9.803302667198694
 40
10.62821945794807
 40
11.45542681272667
 40
12.28542303735154
 40
13.11885589382927
 40
13.95129224255344
 40
14.77734250054424
 40
15.59556288682767
 40
16.40505970283186
 40
17.20444194826821
 40
17.99444909264753
 40
18.78298587680981
 40
18.78298587680981
 40
18.78298587680981
 40
18.78298587680981
 10
96.99550048327688
 20
62.28103699880232
 30
0.0
 10
96.99545412712119
 20
62.01801203478696
 30
0.0
 10
96.95808029780131
 20
61.491102870406
 30
0.0
 10
96.7926468273521
 20
60.71356884305166
 30
0.0
 10
96.52059823131692
 20
59.95923604536653
 30
0.0
 10
96.14462331296261
 20
59.24012994116785
 30
0.0
 10
95.67002731431951
 20
58.57082686458454
 30
0.0
 10
95.10440140148094
 20
57.96593128903669
 30
0.0
 10
94.45831199832392
 20
57.43987756302042
 30
0.0
 10
93.74572796110491
 20
57.00578518610925
 30
0.0
 10
92.98230535797987
 20
56.67337802920336
 30
0.0
 10
92.18337544324487
 20
56.44882875783058
 30
0.0
 10
91.36318028133153
 20
56.33566472859302
 30
0.0
 10
90.53597053156336
 20
56.3355713686235
 30
0.0
 10
89.71574373141271
 20
56.44855313438064
 30
0.0
 10
88.91669680281612
 20
56.67295238595397
 30
0.0
 10
88.1530814492295
 20
57.00528043796986
 30
0.0
 10
87.44031213189872
 20
57.43935966425569
 30
0.0
 10
86.79414235980845
 20
57.96538254359724
 30
0.0
 10
86.22851011124325
 20
58.57019114892487
 30
0.0
 10
85.75390809196566
 20
59.23939113616767
 30
0.0
 10
85.37786576881668
 20
59.95850193043149
 30
0.0
 10
85.10570248529262
 20
60.71304913225327
 30
0.0
 10
84.94028398833819
 20
61.49065837763857
 30
0.0
 10
84.90293445936636
 20
62.01755839997308
 30
0.0
 10
84.90288865167697
 20
62.28040399070225
 30
0.0
 11
96.99550048327688
 21
62.28103699880232
 31
0.0
 11
96.93998551347688
 21
61.49391738100227
 31
0.0
 11
96.77611001627685
 21
60.72162052370224
 31
0.0
 11
96.50530739507695
 21
59.96973850930242
 31
0.0
 11
96.13049431077691
 21
59.25221975010224
 31
0.0
 11
95.6573096446769
 21
58.58458536420236
 31
0.0
 11
95.09309384997692
 21
57.9810719103023
 31
0.0
 11
94.44760025087687
 21
57.45551121320231
 31
0.0
 11
93.7359776971769
 21
57.02208447670232
 31
0.0
 11
92.97513086977692
 21
56.69090187540227
 31
0.0
 11
92.17878208427697
 21
56.46716750000239
 31
0.0
 11
91.36159218037693
 21
56.35446907400221
 31
0.0
 11
90.53755186137692
 21
56.35437649490238
 31
0.0
 11
89.72034447937682
 21
56.46689230030226
 31
0.0
 11
88.92392308357699
 21
56.69046548320231
 31
0.0
 11
88.16283803747689
 21
57.02158975820241
 31
0.0
 11
87.45098290007678
 21
57.45503247600225
 31
0.0
 11
86.80540763127698
 21
57.98056349030234
 31
0.0
 11
86.2412313169769
 21
58.58394074800223
 31
0.0
 11
85.76804888977681
 21
59.25146077850233
 31
0.0
 11
85.39319352447689
 21
59.96893450640236
 31
0.0
 11
85.12228469437701
 21
60.72101188280242
 31
0.0
 11
84.9583306152768
 21
61.4938186815023
 31
0.0
 11
84.90288865167697
 21
62.28040399070225
 31
0.0
  0
SPLINE
  5
6CB
330
1F
100
AcDbEntity
  8
_SURFACE
  6
Continuous
 62
     7
100
AcDbSpline
210
0.0
220
0.0
230
1.0
 70
     8
 71
     3
 72
     9
 73
     5
 74
     3
 42
0.0000000001
 43
0.0000000001
 44
0.0000000001
 12
0.270053163282993
 22
0.9628454128264046
 32
0.0
 13
0.3275761942934241
 23
0.9448247651984134
 33
0.0
 40
0.0
 40
0.0
 40
0.0
 40
0.0
 40
0.1062581532074899
 40
0.1428600603358052
 40
0.1428600603358052
 40
0.1428600603358052
 40
0.1428600603358052
 10
63.0761821574768
 20
165.6332761456023
 30
0.0
 10
63.08574727427624
 20
165.6673795373994
 30
0.0
 10
63.09917601243355
 20
165.7130881929877
 30
0.0
 10
63.11436667156335
 20
165.7582239408329
 30
0.0
 10
63.118363309377
 20
165.7697514036023
 30
0.0
 11
63.0761821574768
 21
165.6332761456023
 31
0.0
 11
63.10669838827681
 21
165.7350580437022
 31
0.0
 11
63.118363309377
 21
165.7697514036023
 31
0.0
  0
SPLINE
  5
6CC
330
1F
100
AcDbEntity
  8
_SURFACE
  6
Continuous
 62
     7
100
AcDbSpline
210
0.0
220
0.0
230
1.0
 70
     8
 71
     3
 72
     9
 73
     5
 74
     3
 42
0.0000000001
 43
0.0000000001
 44
0.0000000001
 12
0.3275761942519338
 22
0.9448247652127983
 32
0.0
 13
0.373035288543757
 23
0.9278171552095143
 33
0.0
 40
0.0
 40
0.0
 40
0.0
 40
0.0
 40
0.0749760026276037
 40
0.1135099885739117
 40
0.1135099885739117
 40
0.1135099885739117
 40
0.1135099885739117
 10
63.118363309377
 20
165.7697514036023
 30
0.0
 10
63.12655009391066
 20
165.7933644649621
 30
0.0
 10
63.13961102371852
 20
165.8288852656698
 30
0.0
 10
63.15346991208813
 20
165.8640931696624
 30
0.0
 10
63.15826142427687
 20
165.8760106674023
 30
0.0
 11
63.118363309377
 21
165.7697514036023
 31
0.0
 11
63.14415233547681
 21
165.8401525904023
 31
0.0
 11
63.15826142427687
 21
165.8760106674023
 31
0.0
  0
SPLINE
  5
6CD
330
1F
100
AcDbEntity
  8
_SURFACE
  6
Continuous
 62
     7
100
AcDbSpline
210
0.0
220
0.0
230
1.0
 70
     8
 71
     3
 72
    10
 73
     6
 74
     4
 42
0.0000000001
 43
0.0000000001
 44
0.0000000001
 12
0.4212484321457282
 22
0.9069452896480393
 32
0.0
 13
0.4457957778664485
 23
0.8951346962532781
 33
0.0
 40
0.0
 40
0.0
 40
0.0
 40
0.0
 40
0.0428178722072521
 40
0.1776715329063354
 40
0.3235045083712249
 40
0.3235045083712249
 40
0.3235045083712249
 40
0.3235045083712249
 10
63.22289012847687
 20
166.0246219276023
 30
0.0
 10
63.22890244898858
 20
166.0375664167727
 30
0.0
 10
63.2541436167179
 20
166.0911435518437
 30
0.0
 10
63.30195298395333
 20
166.1878096013201
 30
0.0
 10
63.34421219746491
 20
166.2712833168034
 30
0.0
 10
63.36588277237689
 20
166.3147967022023
 30
0.0
 11
63.22289012847687
 21
166.0246219276023
 31
0.0
 11
63.24112743387678
 21
166.0633617117023
 31
0.0
 11
63.3005099139769
 21
166.1844370224023
 31
0.0
 11
63.36588277237689
 21
166.3147967022023
 31
0.0
  0
SPLINE
  5
6CE
330
1F
100
AcDbEntity
  8
_SURFACE
  6
Continuous
 62
     7
100
AcDbSpline
210
0.0
220
0.0
230
1.0
 70
     8
 71
     3
 72
    10
 73
     6
 74
     4
 42
0.0000000001
 43
0.0000000001
 44
0.0000000001
 12
0.4460058032968086
 22
0.8950300684477413
 32
0.0
 13
0.432909450598536
 23
0.9014374119052714
 33
0.0
 40
0.0
 40
0.0
 40
0.0
 40
0.0
 40
0.0448747102074152
 40
0.088914408995952
 40
0.1320794892670828
 40
0.1320794892670828
 40
0.1320794892670828
 40
0.1320794892670828
 10
63.36588338217694
 20
166.3148020351023
 30
0.0
 10
63.37255484256821
 20
166.3281901067518
 30
0.0
 10
63.38574362071355
 20
166.3547321984806
 30
0.0
 10
63.40523022950606
 20
166.3942109871055
 30
0.0
 10
63.41810175001517
 20
166.4202750766209
 30
0.0
 10
63.42433060707691
 20
166.4332452827023
 30
0.0
 11
63.36588338217694
 21
166.3148020351023
 31
0.0
 11
63.38584949207694
 21
166.3549902681023
 31
0.0
 11
63.405360693977
 21
166.3944720116023
 31
0.0
 11
63.42433060707691
 21
166.4332452827023
 31
0.0
  0
LINE
  5
6CF
330
1F
100
AcDbEntity
  8
_SURFACE
  6
Continuous
 62
     7
100
AcDbLine
 10
108.624731615364
 20
169.3695299205886
 30
0.0
 11
73.31149995439301
 21
169.6150213804172
 31
0.0
  0
LWPOLYLINE
  5
6D0
330
1F
100
AcDbEntity
  8
_SURFACE
  6
Continuous
 62
     7
100
AcDbPolyline
 90
        3
 70
     0
 43
0.0
 10
133.029955457467
 20
57.03157082946056
 10
133.0755505580494
 20
57.0376963239418
 10
133.1173358567469
 20
57.04795177968337
  0
LINE
  5
6D1
330
1F
100
AcDbEntity
  8
_SURFACE
  6
Continuous
 62
     7
100
AcDbLine
 10
124.8491351541673
 20
55.42790017092049
 30
0.0
 11
122.5681869500079
 21
55.42790017092049
 31
0.0
  0
LWPOLYLINE
  5
6D2
330
1F
100
AcDbEntity
  8
_SURFACE
  6
Continuous
 62
     7
100
AcDbPolyline
 90
       19
 70
     0
 43
0.0
 10
125.5382187340877
 20
54.05207178212224
 10
126.0342837084284
 20
54.03875268252379
 10
126.5641776575251
 20
54.01476043942095
 10
127.0622614213246
 20
53.99620534064381
 10
127.545151237868
 20
53.99536117418249
 10
128.0224948069265
 20
54.01853621037883
 10
128.4992114404888
 20
54.06770021670165
 10
128.9563911966873
 20
54.13875866488017
 10
129.3834323034901
 20
54.22655008696022
 10
129.7999545057467
 20
54.33383852364061
 10
130.2038439672072
 20
54.46122015356234
 10
130.5830516492281
 20
54.60575935902163
 10
130.9469005684698
 20
54.77262980760354
 10
131.2927213347869
 20
54.96440552768255
 10
131.6130431528657
 20
55.18004964046342
 10
131.9120708022058
 20
55.42033592138107
 10
132.1905541974886
 20
55.68275816768293
 10
132.4488895482284
 20
55.96424978148063
 10
132.6275725182643
 20
56.18312224442199
  0
LWPOLYLINE
  5
6D3
330
1F
100
AcDbEntity
  8
_SURFACE
  6
Continuous
 62
     7
100
AcDbPolyline
 90
       33
 70
     0
 43
0.0
 10
123.3041624529072
 20
53.92790019404348
 10
123.2936816509066
 20
53.92819692192135
 10
123.2474616265065
 20
53.93640776402246
 10
123.2006688397271
 20
53.95596526618321
 10
123.1534545094658
 20
53.98686307840255
 10
123.106286137969
 20
54.02899709116029
 10
123.0591611039456
 20
54.08225410428205
 10
123.0120820286868
 20
54.14651430596352
 10
122.9655242477895
 20
54.22153156766073
 10
122.9195026431082
 20
54.30706272502213
 10
122.8740023378671
 20
54.40290478124227
 10
122.8294540297068
 20
54.50879892810046
 10
122.7858681783476
 20
54.62445333738144
 10
122.7432343291478
 20
54.7495988808427
 10
122.7019518107484
 20
54.88399436516049
 10
122.6620108593891
 20
55.02741237906086
 10
122.6234212439051
 20
55.17945749026186
 10
122.5866115943866
 20
55.33959463506327
 10
122.551643594725
 20
55.50718907762204
 10
122.5184555635681
 20
55.68207684824158
 10
122.4872910869056
 20
55.86445473596397
 10
122.4581141932688
 20
56.0543278715799
 10
122.4309608515871
 20
56.25100919018443
 10
122.4061825648498
 20
56.45366392076396
 10
122.3838340421064
 20
56.66174388052461
 10
122.3638605692252
 20
56.8749255674433
 10
122.3464495245464
 20
57.09264808856317
 10
122.3316402856874
 20
57.31426163822327
 10
122.319393472488
 20
57.53949492664325
 10
122.3097783024898
 20
57.76836547474015
 10
122.3028178465068
 20
58.00059159652157
 10
122.2984890337287
 20
58.23556653932103
 10
122.2967918616053
 20
58.47283519356135
  0
LWPOLYLINE
  5
6D4
330
1F
100
AcDbEntity
  8
_SURFACE
  6
Continuous
 62
     7
100
AcDbPolyline
 90
       16
 70
     0
 43
0.0
 10
125.5502999265885
 20
62.06862577184295
 10
125.4760861456273
 20
62.06930969986062
 10
125.4030015648498
 20
62.07134276666185
 10
125.3318455298652
 20
62.07468596800246
 10
125.263431092146
 20
62.07928243074132
 10
125.1984179658905
 20
62.08506859392075
 10
125.1373324924282
 20
62.09198436622175
 10
125.080837159647
 20
62.09994510214021
 10
125.0294857764459
 20
62.10886236904336
 10
124.9836424721473
 20
62.11867297172505
 10
124.9438159528693
 20
62.12928097945989
 10
124.9104949323849
 20
62.14057117532359
 10
124.8840270630465
 20
62.15245144874136
 10
124.8647776679684
 20
62.16480692822226
 10
124.8530725402455
 20
62.17749662852149
 10
124.8491351541673
 20
62.19038175642201
  0
LINE
  5
6D5
330
1F
100
AcDbEntity
  8
_SURFACE
  6
Continuous
 62
     7
100
AcDbLine
 10
126.6052804150497
 20
62.06336055250215
 30
0.0
 11
126.3838878961872
 21
62.06747658440001
 31
0.0
  0
LWPOLYLINE
  5
6D6
330
1F
100
AcDbEntity
  8
_SURFACE
  6
Continuous
 62
     7
100
AcDbPolyline
 90
        3
 70
     0
 43
0.0
 10
126.8036730154675
 20
62.05890594114173
 10
126.7398933589287
 20
62.06042977858162
 10
126.6052804150497
 20
62.06336055250215
  0
LWPOLYLINE
  5
6D7
330
1F
100
AcDbEntity
  8
_SURFACE
  6
Continuous
 62
     7
100
AcDbPolyline
 90
        9
 70
     0
 43
0.0
 10
126.3838878961872
 20
62.06747658440001
 10
126.2221805691081
 20
62.07141292399903
 10
126.1366243622654
 20
62.07273169962211
 10
126.0478072932676
 20
62.07267978964084
 10
125.9557249577486
 20
62.07191520392227
 10
125.8599734449056
 20
62.07157274334388
 10
125.7604181169666
 20
62.07203067232187
 10
125.6571936117073
 20
62.07291072644368
 10
125.5502999265885
 20
62.07421290316272
  0
LINE
  5
6D8
330
1F
100
AcDbEntity
  8
_SURFACE
  6
Continuous
 62
     7
100
AcDbLine
 10
126.9245367717088
 20
62.05572365641858
 30
0.0
 11
126.8036730154675
 21
62.05890594114173
 31
0.0
  0
LWPOLYLINE
  5
6D9
330
1F
100
AcDbEntity
  8
_SURFACE
  6
Continuous
 62
     7
100
AcDbPolyline
 90
       19
 70
     0
 43
0.0
 10
125.5502999265885
 20
55.76070144588304
 10
126.0555040749244
 20
55.74637819030106
 10
126.5421610645283
 20
55.73771103720211
 10
127.0102708979287
 20
55.73469998658258
 10
127.4590979911266
 20
55.73467740852213
 10
127.8893779255889
 20
55.74031093548403
 10
128.3033174558443
 20
55.75960343944318
 10
128.7020526985073
 20
55.79396775730349
 10
129.0844475395063
 20
55.841991054704
 10
129.449300383589
 20
55.90743769800467
 10
129.794364534708
 20
55.98988339036298
 10
130.1218866914462
 20
56.08975242608214
 10
130.4374053542854
 20
56.21208206966041
 10
130.7416266660842
 20
56.35772373418369
 10
131.0338444865268
 20
56.52582600656244
 10
131.3174788824293
 20
56.71887192730212
 10
131.5936698743647
 20
56.9376891706401
 10
131.8612774443066
 20
57.18145006234265
 10
132.1203015871654
 20
57.45015459732387
  0
LINE
  5
6DA
330
1F
100
AcDbEntity
  8
_SURFACE
  6
Continuous
 62
     7
100
AcDbLine
 10
127.037093234427
 20
62.05244640618404
 30
0.0
 11
126.9245367717088
 21
62.05572365641858
 31
0.0
  0
LINE
  5
6DB
330
1F
100
AcDbEntity
  8
_SURFACE
  6
Continuous
 62
     7
100
AcDbLine
 10
127.1914649221256
 20
62.04746717560048
 30
0.0
 11
127.037093234427
 21
62.05244640618404
 31
0.0
  0
LINE
  5
6DC
330
1F
100
AcDbEntity
  8
_SURFACE
  6
Continuous
 62
     7
100
AcDbLine
 10
127.6025320248084
 20
62.03302551029849
 30
0.0
 11
127.5313749128657
 21
62.03536606188428
 31
0.0
  0
LWPOLYLINE
  5
6DD
330
1F
100
AcDbEntity
  8
_SURFACE
  6
Continuous
 62
     7
100
AcDbPolyline
 90
        5
 70
     0
 43
0.0
 10
127.5313749128657
 20
62.03536606188428
 10
127.4552095762486
 20
62.03807332850049
 10
127.4150401366462
 20
62.03953189556198
 10
127.3734005196459
 20
62.04104190016225
 10
127.1914649221256
 20
62.04746717560048
  0
LWPOLYLINE
  5
6DE
330
1F
100
AcDbEntity
  8
_SURFACE
  6
Continuous
 62
     7
100
AcDbPolyline
 90
       13
 70
     0
 43
0.0
 10
125.5456746145249
 20
55.28916307730326
 10
125.4555953433267
 20
55.29463485198213
 10
125.3674444706087
 20
55.30987646488068
 10
125.2826441093496
 20
55.33451814788207
 10
125.2029475910679
 20
55.36784106066118
 10
125.1291077031858
 20
55.40931073134053
 10
125.0611912375501
 20
55.45902272487949
 10
125.0002117455881
 20
55.51681369896179
 10
124.9479589544901
 20
55.58165240850432
 10
124.9057861457698
 20
55.65240393578135
 10
124.8747348083273
 20
55.72787147598358
 10
124.8556059514888
 20
55.80686827252286
 10
124.8490549130295
 20
55.88801897636078
  0
LWPOLYLINE
  5
6DF
330
1F
100
AcDbEntity
  8
_SURFACE
  6
Continuous
 62
     7
100
AcDbPolyline
 90
       15
 70
     0
 43
0.0
 10
125.5216784572879
 20
65.84009313618155
 10
125.4828004908489
 20
65.83742099522208
 10
125.4034325215692
 20
65.82512355220244
 10
125.3265962744265
 20
65.80403443258039
 10
125.2533088644889
 20
65.77467331020163
 10
125.1833350877462
 20
65.736982168923
 10
125.1179824295289
 20
65.69154061134252
 10
125.0585777731288
 20
65.63935547314251
 10
125.0050995641071
 20
65.58040976679915
 10
124.9586686460464
 20
65.51581866916096
 10
124.9200751773863
 20
65.44684069434008
 10
124.8892822290693
 20
65.3733698456039
 10
124.866897485925
 20
65.29633849598251
 10
124.8535243579902
 20
65.21784867328317
 10
124.8491351541673
 20
65.13951755486271
  0
LINE
  5
6E0
330
1F
100
AcDbEntity
  8
_SURFACE
  6
Continuous
 62
     7
100
AcDbLine
 10
124.8491351541673
 20
64.4279001693598
 30
0.0
 11
123.125917429665
 21
64.4279001693598
 31
0.0
  0
LWPOLYLINE
  5
6E1
330
1F
100
AcDbEntity
  8
_SURFACE
  6
Continuous
 62
     7
100
AcDbPolyline
 90
        8
 70
     0
 43
0.0
 10
132.6120456608262
 20
57.10087618996332
 10
132.6814966344466
 20
57.07932674106125
 10
132.7478715385262
 20
57.06156321550444
 10
132.8110717804268
 20
57.04764392660074
 10
132.8710346805676
 20
57.03762245566251
 10
132.9276196423273
 20
57.03156778146006
 10
132.9806299731902
 20
57.02953923078386
 10
133.029955457467
 20
57.03157082946056
  0
LWPOLYLINE
  5
6E2
330
1F
100
AcDbEntity
  8
_SURFACE
  6
Continuous
 62
     7
100
AcDbPolyline
 90
       13
 70
     0
 43
0.0
 10
132.6120456608262
 20
57.10087618996332
 10
132.5937961469065
 20
57.10806513418212
 10
132.5705654948654
 20
57.11992497584144
 10
132.5362747404873
 20
57.13865350073904
 10
132.4995257690282
 20
57.16074951954071
 10
132.4619492020686
 20
57.18527662568378
 10
132.4232886723296
 20
57.21178567096142
 10
132.3828833429291
 20
57.24025122744063
 10
132.3395382556266
 20
57.2718689798043
 10
132.2924946438473
 20
57.30764590088295
 10
132.2409259915878
 20
57.34855922520221
 10
132.1838154327054
 20
57.39573720298214
 10
132.1203015871654
 20
57.45015459732387
  0
LWPOLYLINE
  5
6E3
330
1F
100
AcDbEntity
  8
_SURFACE
  6
Continuous
 62
     7
100
AcDbPolyline
 90
       19
 70
     0
 43
0.0
 10
133.4980425070646
 20
79.80616253697956
 10
133.5673716699096
 20
79.80670155292175
 10
133.6350351820259
 20
79.80847876044065
 10
133.7006635623259
 20
79.8113970553408
 10
133.7639570908071
 20
79.81531722530274
 10
133.8244677775076
 20
79.82018807154092
 10
133.8815670410079
 20
79.82602563924086
 10
133.935118854148
 20
79.83277294096335
 10
133.9845191287279
 20
79.84022889760165
 10
134.0286727818459
 20
79.84816506410282
 10
134.0672232076652
 20
79.85654993176142
 10
134.1004077666478
 20
79.8653541737389
 10
134.1282533980268
 20
79.87446139708338
 10
134.1510923973076
 20
79.88375072572164
 10
134.1694031455484
 20
79.89294612262385
 10
134.1832795109879
 20
79.90188746110145
 10
134.1925214686273
 20
79.9108754593821
 10
134.1975360153668
 20
79.9197930336217
 10
134.1993842717677
 20
79.92790183630352
  0
LWPOLYLINE
  5
6E4
330
1F
100
AcDbEntity
  8
_SURFACE
  6
Continuous
 62
     7
100
AcDbPolyline
 90
       21
 70
     0
 43
0.0
 10
130.0501887220674
 20
89.59358314244166
 10
130.0163527140469
 20
89.58562205346099
 10
129.9813310721295
 20
89.57548796908161
 10
129.9455236380275
 20
89.5629916008824
 10
129.9090989458275
 20
89.54789101386124
 10
129.8722668401645
 20
89.52995298522221
 10
129.8354259537266
 20
89.5090512236224
 10
129.7992352412478
 20
89.48528895720157
 10
129.7641311001282
 20
89.45874830416363
 10
129.7302763469054
 20
89.42935040766171
 10
129.6979342195703
 20
89.39709006831838
 10
129.6674234550885
 20
89.36203870586034
 10
129.6390266284691
 20
89.32425992949941
 10
129.6129830940666
 20
89.28376466632327
 10
129.589598825369
 20
89.24066056406301
 10
129.5691971923082
 20
89.1951255649605
 10
129.5520679072872
 20
89.14730963824188
 10
129.5385159379478
 20
89.09744374864242
 10
129.5288312913292
 20
89.04579330330163
 10
129.5232831896467
 20
88.99261103730388
 10
129.5219958338278
 20
88.95168279302236
  0
LWPOLYLINE
  5
6E5
330
1F
100
AcDbEntity
  8
_SURFACE
  6
Continuous
 62
     7
100
AcDbPolyline
 90
        3
 70
     0
 43
0.0
 10
130.1171087965088
 20
89.60457629546219
 10
130.0832050416068
 20
89.5997518143835
 10
130.0501887220674
 20
89.59358314244166
  0
LINE
  5
6E6
330
1F
100
AcDbEntity
  8
_SURFACE
  6
Continuous
 62
     7
100
AcDbLine
 10
130.153273423188
 20
89.60815441632297
 30
0.0
 11
130.1171087965088
 21
89.60457629546219
 31
0.0
  0
LINE
  5
6E7
330
1F
100
AcDbEntity
  8
_SURFACE
  6
Continuous
 62
     7
100
AcDbLine
 10
130.0872017239856
 20
89.58629069830424
 30
0.0
 11
130.1720461161497
 21
89.59178228498279
 31
0.0
  0
LWPOLYLINE
  5
6E8
330
1F
100
AcDbEntity
  8
_SURFACE
  6
Continuous
 62
     7
100
AcDbPolyline
 90
       31
 70
     0
 43
0.0
 10
130.2232702123295
 20
87.79749184258109
 10
130.2221253835271
 20
87.79746748652035
 10
130.2202719607669
 20
87.79749663555996
 10
130.217709941506
 20
87.79757929223926
 10
130.2141545841262
 20
87.79771966533955
 10
130.2098906327886
 20
87.79791354607953
 10
130.2057723021901
 20
87.79814830304024
 10
130.2020364193889
 20
87.79842713154215
 10
130.1984461547875
 20
87.79874683626115
 10
130.1951452444485
 20
87.79908519220263
 10
130.1921857736054
 20
87.79944270228082
 10
130.189515654489
 20
87.79981886612443
 10
130.1871223598066
 20
87.80018997536028
 10
130.1850315029263
 20
87.80054630433953
 10
130.1832174704871
 20
87.80089757617899
 10
130.1815908849679
 20
87.8012492518814
 10
130.1801375172875
 20
87.80160595931958
 10
130.1788715939877
 20
87.80196307062071
 10
130.1777464247901
 20
87.80231215552197
 10
130.1767603332849
 20
87.80264566514089
 10
130.1759149958855
 20
87.80297114836359
 10
130.1751687642066
 20
87.80330282410288
 10
130.1745191973062
 20
87.80364163216146
 10
130.1739687386692
 20
87.80398663528323
 10
130.1734830576463
 20
87.80434923806245
 10
130.1730432109291
 20
87.80474205922148
 10
130.1726681469084
 20
87.8051524825809
 10
130.17238036999
 20
87.80555406420392
 10
130.1721873858662
 20
87.80593799282216
 10
130.1720816913878
 20
87.80631308223966
 10
130.1720632890868
 20
87.80667932992439
  0
LINE
  5
6E9
330
1F
100
AcDbEntity
  8
_SURFACE
  6
Continuous
 62
     7
100
AcDbLine
 10
133.5252114570469
 20
87.04458939106045
 30
0.0
 11
130.2232702123295
 21
87.04449634324047
 31
0.0
  0
LINE
  5
6EA
330
1F
100
AcDbEntity
  8
_SURFACE
  6
Continuous
 62
     7
100
AcDbLine
 10
133.4998781498255
 20
87.79749550526178
 30
0.0
 11
130.2232702123295
 21
87.79749184258109
 31
0.0
  0
LWPOLYLINE
  5
6EB
330
1F
100
AcDbEntity
  8
_SURFACE
  6
Continuous
 62
     7
100
AcDbPolyline
 90
       28
 70
     0
 43
0.0
 10
130.2232702123295
 20
87.04449463382337
 10
130.1683682901278
 20
87.04488366022125
 10
130.1140805805665
 20
87.04602675928475
 10
130.0607820994085
 20
87.04788866817983
 10
130.0085168191256
 20
87.05045277278115
 10
129.9579394628274
 20
87.05367539524234
 10
129.9101824260072
 20
87.05744359192106
 10
129.8655318879248
 20
87.0616712923824
 10
129.8238842877075
 20
87.06630780838024
 10
129.7855971379688
 20
87.07124955618422
 10
129.7508597398267
 20
87.07638653854012
 10
129.719342561308
 20
87.08168051576143
 10
129.6905981864877
 20
87.0871398190415
 10
129.6644793563249
 20
87.0927419871645
 10
129.6410373712063
 20
87.09842450310173
 10
129.6201528612876
 20
87.10415254092223
 10
129.6017071323661
 20
87.10988973544083
 10
129.5855826281661
 20
87.11560178650181
 10
129.5716472407478
 20
87.12126205204405
 10
129.5597760198873
 20
87.12684411098091
 10
129.5498394636855
 20
87.13232468422068
 10
129.541685248347
 20
87.13768497576387
 10
129.5351675219865
 20
87.14289911316376
 10
129.5301309737663
 20
87.147954757102
 10
129.5264213139274
 20
87.15285704854471
 10
129.5239125025876
 20
87.15760064078351
 10
129.5224910855689
 20
87.16216904668037
 10
129.5220421075503
 20
87.16655429064342
  0
LWPOLYLINE
  5
6EC
330
1F
100
AcDbEntity
  8
_SURFACE
  6
Continuous
 62
     7
100
AcDbPolyline
 90
        3
 70
     0
 43
0.0
 10
130.223991859348
 20
89.6108843473616
 10
130.1915207812856
 20
89.61030317250189
 10
130.153273423188
 20
89.60815441632297
  0
LWPOLYLINE
  5
6ED
330
1F
100
AcDbEntity
  8
_SURFACE
  6
Continuous
 62
     7
100
AcDbPolyline
 90
       37
 70
     0
 43
0.0
 10
133.4978658780058
 20
89.60101618066111
 10
133.4999619444245
 20
89.60101675216213
 10
133.502304134305
 20
89.60098354166477
 10
133.5048924527257
 20
89.6009165491618
 10
133.5078067369689
 20
89.60081617090184
 10
133.5109671446665
 20
89.60068201318284
 10
133.5141341563688
 20
89.60051287966273
 10
133.517295450529
 20
89.60030113256145
 10
133.5204633486867
 20
89.60005441474134
 10
133.5234352934679
 20
89.59979445082209
 10
133.5261689887887
 20
89.59952172594277
 10
133.5287067332686
 20
89.59923575750002
 10
133.5309728679279
 20
89.59895681978235
 10
133.5329089956288
 20
89.59869106974149
 10
133.5345735160484
 20
89.5984323504221
 10
133.5360659794062
 20
89.5981824677605
 10
133.5373917527252
 20
89.59794544258185
 10
133.5385454689861
 20
89.59771725406465
 10
133.5396105798902
 20
89.59748765330225
 10
133.540590847166
 20
89.597257981421
 10
133.5414825065493
 20
89.59702689984117
 10
133.5423577346667
 20
89.59678013884188
 10
133.543259394028
 20
89.5965075739827
 10
133.5441446195876
 20
89.59621933224337
 10
133.5449569801679
 20
89.59593151722076
 10
133.5456799022652
 20
89.59564695848023
 10
133.5463299568476
 20
89.59536282899938
 10
133.5469004256086
 20
89.59508675894033
 10
133.5473792054475
 20
89.59482930454253
 10
133.5477783969257
 20
89.59457990956291
 10
133.5481275910463
 20
89.59431453544167
 10
133.5484561425877
 20
89.59403297644387
 10
133.5487346916891
 20
89.59373544084012
 10
133.5489047548474
 20
89.59339851746191
 10
133.5489468324889
 20
89.59301440596247
 10
133.5488804216477
 20
89.59259090922426
 10
133.5487055223278
 20
89.5921280247043
  0
LINE
  5
6EE
330
1F
100
AcDbEntity
  8
_SURFACE
  6
Continuous
 62
     7
100
AcDbLine
 10
130.2223898762679
 20
89.60100949538393
 30
0.0
 11
133.4978658780058
 21
89.60101618066111
 31
0.0
  0
LINE
  5
6EF
330
1F
100
AcDbEntity
  8
_SURFACE
  6
Continuous
 62
     7
100
AcDbLine
 10
130.2239912853077
 20
89.6108914492019
 30
0.0
 11
133.4978164089664
 21
89.6108914492019
 31
0.0
  0
LINE
  5
6F0
330
1F
100
AcDbEntity
  8
_SURFACE
  6
Continuous
 62
     7
100
AcDbLine
 10
133.527741027807
 20
89.61039502652276
 30
0.0
 11
133.4978042525256
 21
89.61088920638069
 31
0.0
  0
LINE
  5
6F1
330
1F
100
AcDbEntity
  8
_SURFACE
  6
Continuous
 62
     7
100
AcDbLine
 10
133.6334957642287
 20
89.58658477188366
 30
0.0
 11
133.5487055223278
 21
89.59212778086151
 31
0.0
  0
LWPOLYLINE
  5
6F2
330
1F
100
AcDbEntity
  8
_SURFACE
  6
Continuous
 62
     7
100
AcDbPolyline
 90
        5
 70
     0
 43
0.0
 10
133.6683564946073
 20
89.59449619370428
 10
133.6356239718046
 20
89.60040492458068
 10
133.6020583417051
 20
89.60496320858004
 10
133.5658164101299
 20
89.60836692542072
 10
133.527741027807
 20
89.61039502652276
  0
LWPOLYLINE
  5
6F3
330
1F
100
AcDbEntity
  8
_SURFACE
  6
Continuous
 62
     7
100
AcDbPolyline
 90
       49
 70
     0
 43
0.0
 10
124.8491351541673
 20
55.88703503370054
 10
124.8495102207274
 20
55.88305312142113
 10
124.8506349632082
 20
55.87907562112234
 10
124.8525080963666
 20
55.87510678222172
 10
124.8551274891472
 20
55.87115090240188
 10
124.8584902789665
 20
55.86721216250082
 10
124.8625929504672
 20
55.8632946214406
 10
124.8674311831058
 20
55.859402419423
 10
124.8729997571866
 20
55.85553977537931
 10
124.8792927138677
 20
55.85171081174341
 10
124.8863025296671
 20
55.8479200370006
 10
124.8940223491302
 20
55.84417108844211
 10
124.9024467569691
 20
55.84046678038287
 10
124.9115694616051
 20
55.83681034116164
 10
124.9213796147053
 20
55.83320654344281
 10
124.9318638609477
 20
55.82966043928393
 10
124.9430097263869
 20
55.82617620444072
 10
124.9548063626865
 20
55.82275718410385
 10
124.9672411282666
 20
55.81940704602168
 10
124.9803006957484
 20
55.81612937668108
 10
124.9939710748079
 20
55.81292768889982
 10
125.0082376121902
 20
55.80980541421961
 10
125.0230849002476
 20
55.80676592322054
 10
125.0384971401875
 20
55.80381244678431
 10
125.0544582080877
 20
55.80094808116193
 10
125.0709513069271
 20
55.79817586166102
 10
125.0879585449477
 20
55.79549881088171
 10
125.1054613064882
 20
55.79291986251921
 10
125.1234406863262
 20
55.79044180549901
 10
125.1418775531859
 20
55.78806727380144
 10
125.1607521458684
 20
55.7857988099626
 10
125.1800442383467
 20
55.78363884475987
 10
125.1997331499481
 20
55.78158969467988
 10
125.219797783426
 20
55.77965355682174
 10
125.2402181007276
 20
55.77783237936312
 10
125.260970794807
 20
55.77612825526232
 10
125.282029088987
 20
55.77454334098222
 10
125.3033671616288
 20
55.77307945262003
 10
125.3249649746688
 20
55.77173785002234
 10
125.3468039454677
 20
55.77051964316199
 10
125.368862283369
 20
55.76942605886363
 10
125.3911148271257
 20
55.76845835949864
 10
125.4135377591668
 20
55.76761758140349
 10
125.4361070764865
 20
55.76690462626213
 10
125.458798626227
 20
55.76632025608198
 10
125.4815881158286
 20
55.76586509570045
 10
125.5044511511262
 20
55.76553963280314
 10
125.5273632643078
 20
55.76534421536273
 10
125.5502999265885
 20
55.76527905166442
  0
LWPOLYLINE
  5
6F4
330
1F
100
AcDbEntity
  8
_SURFACE
  6
Continuous
 62
     7
100
AcDbPolyline
 90
        5
 70
     0
 43
0.0
 10
129.5660449761056
 20
66.34822240186115
 10
129.5706756755065
 20
66.17056848488066
 10
129.5725076555866
 20
65.88360482208229
 10
129.5651414295283
 20
65.6015001716609
 10
129.5588938194672
 20
65.48555340584282
  0
LINE
  5
6F5
330
1F
100
AcDbEntity
  8
_SURFACE
  6
Continuous
 62
     7
100
AcDbLine
 10
124.8492122507853
 20
54.75497029250111
 30
0.0
 11
124.8492132794857
 21
54.75487969578027
 31
0.0
  0
LINE
  5
6F6
330
1F
100
AcDbEntity
  8
_SURFACE
  6
Continuous
 62
     7
100
AcDbLine
 10
125.5296832164861
 20
64.42066612743876
 30
0.0
 11
125.5289195985099
 21
64.50056766182244
 31
0.0
  0
LINE
  5
6F7
330
1F
100
AcDbEntity
  8
_SURFACE
  6
Continuous
 62
     7
100
AcDbLine
 10
125.5289195985099
 20
64.50056766182244
 30
0.0
 11
125.5273519054283
 21
64.66712966042035
 31
0.0
  0
LINE
  5
6F8
330
1F
100
AcDbEntity
  8
_SURFACE
  6
Continuous
 62
     7
100
AcDbLine
 10
125.5273519054283
 20
64.66712966042035
 30
0.0
 11
125.5261551209262
 21
64.79722541242374
 31
0.0
  0
LINE
  5
6F9
330
1F
100
AcDbEntity
  8
_SURFACE
  6
Continuous
 62
     7
100
AcDbLine
 10
125.5261551209262
 20
64.79722541242374
 30
0.0
 11
125.5249597791483
 21
64.93083657268146
 31
0.0
  0
LINE
  5
6FA
330
1F
100
AcDbEntity
  8
_SURFACE
  6
Continuous
 62
     7
100
AcDbLine
 10
125.5249597791483
 20
64.93083657268146
 30
0.0
 11
125.5234137929076
 21
65.1119788672426
 31
0.0
  0
LINE
  5
6FB
330
1F
100
AcDbEntity
  8
_SURFACE
  6
Continuous
 62
     7
100
AcDbLine
 10
125.5234137929076
 20
65.1119788672426
 30
0.0
 11
125.5219985074475
 21
65.29220201708305
 31
0.0
  0
LINE
  5
6FC
330
1F
100
AcDbEntity
  8
_SURFACE
  6
Continuous
 62
     7
100
AcDbLine
 10
125.5219985074475
 20
65.29220201708305
 30
0.0
 11
125.5208364218891
 21
65.46513001006172
 31
0.0
  0
LINE
  5
6FD
330
1F
100
AcDbEntity
  8
_SURFACE
  6
Continuous
 62
     7
100
AcDbLine
 10
125.5473733385882
 20
62.62930110972085
 30
0.0
 11
125.5296832164861
 21
64.42066612743876
 31
0.0
  0
LINE
  5
6FE
330
1F
100
AcDbEntity
  8
_SURFACE
  6
Continuous
 62
     7
100
AcDbLine
 10
125.5208364218891
 20
65.46513001006172
 30
0.0
 11
125.5202226232652
 21
65.58460738096112
 31
0.0
  0
LWPOLYLINE
  5
6FF
330
1F
100
AcDbEntity
  8
_SURFACE
  6
Continuous
 62
     7
100
AcDbPolyline
 90
        5
 70
     0
 43
0.0
 10
129.5318299416652
 20
71.82504817412193
 10
129.5330323751262
 20
71.45807434876262
 10
129.5338754646257
 20
71.07841883934309
 10
129.5340169045269
 20
70.67359322278064
 10
129.533779419606
 20
70.51311167176248
  0
LINE
  5
700
330
1F
100
AcDbEntity
  8
_SURFACE
  6
Continuous
 62
     7
100
AcDbLine
 10
125.550268412808
 20
62.06862577184295
 30
0.0
 11
125.5473733385882
 21
62.62930110972085
 31
0.0
  0
LWPOLYLINE
  5
701
330
1F
100
AcDbEntity
  8
_SURFACE
  6
Continuous
 62
     7
100
AcDbPolyline
 90
        8
 70
     0
 43
0.0
 10
129.5140105208668
 20
68.15357342919963
 10
129.5143885947876
 20
67.98769508176194
 10
129.5177324311265
 20
67.66096618226076
 10
129.5250138669074
 20
67.34957431330115
 10
129.5362680658875
 20
67.05132210056255
 10
129.549495545147
 20
66.75775775500226
 10
129.5620193275684
 20
66.46327221494214
 10
129.5660449761056
 20
66.34822240186115
  0
LINE
  5
702
330
1F
100
AcDbEntity
  8
_SURFACE
  6
Continuous
 62
     7
100
AcDbLine
 10
125.5202226232652
 20
65.58460738096112
 30
0.0
 11
125.5199237744894
 21
65.68966764836152
 31
0.0
  0
LINE
  5
703
330
1F
100
AcDbEntity
  8
_SURFACE
  6
Continuous
 62
     7
100
AcDbLine
 10
129.5243221817257
 20
75.33822187928528
 30
0.0
 11
129.5286981724678
 21
72.2343855520434
 31
0.0
  0
LINE
  5
704
330
1F
100
AcDbEntity
  8
_SURFACE
  6
Continuous
 62
     7
100
AcDbLine
 10
129.5286981724678
 20
72.2343855520434
 30
0.0
 11
129.5296333395056
 21
71.46866233114126
 31
0.0
  0
LINE
  5
705
330
1F
100
AcDbEntity
  8
_SURFACE
  6
Continuous
 62
     7
100
AcDbLine
 10
129.5232843529668
 20
76.36786974632416
 30
0.0
 11
129.5243221817257
 21
75.33822187928528
 31
0.0
  0
LWPOLYLINE
  5
706
330
1F
100
AcDbEntity
  8
_SURFACE
  6
Continuous
 62
     7
100
AcDbPolyline
 90
        9
 70
     0
 43
0.0
 10
129.524484114347
 20
76.27226303888021
 10
129.5252983062676
 20
75.24136037628197
 10
129.5256311707274
 20
74.75513031750089
 10
129.5260081702293
 20
74.28702817776358
 10
129.5264951517277
 20
73.83660809308132
 10
129.5271463340653
 20
73.40332367643934
 10
129.5280009069068
 20
72.98871820898277
 10
129.5291001884255
 20
72.59002173433912
 10
129.5318299416652
 20
71.82504817412193
  0
LINE
  5
707
330
1F
100
AcDbEntity
  8
_SURFACE
  6
Continuous
 62
     7
100
AcDbLine
 10
129.5296333395056
 20
71.46866233114126
 30
0.0
 11
129.5302332798895
 21
70.76330337609981
 31
0.0
  0
LWPOLYLINE
  5
708
330
1F
100
AcDbEntity
  8
_SURFACE
  6
Continuous
 62
     7
100
AcDbPolyline
 90
        3
 70
     0
 43
0.0
 10
129.5221957191282
 20
79.25163558660135
 10
129.5225078673468
 20
78.60409013544124
 10
129.524484114347
 20
76.27226303888021
  0
LINE
  5
709
330
1F
100
AcDbEntity
  8
_SURFACE
  6
Continuous
 62
     7
100
AcDbLine
 10
129.5225613318073
 20
77.49332634478053
 30
0.0
 11
129.5232843529668
 21
76.36786974632416
 31
0.0
  0
LINE
  5
70A
330
1F
100
AcDbEntity
  8
_SURFACE
  6
Continuous
 62
     7
100
AcDbLine
 10
129.5302332798895
 20
70.76330337609981
 30
0.0
 11
129.5303884434072
 21
70.43295803476432
 31
0.0
  0
LINE
  5
70B
330
1F
100
AcDbEntity
  8
_SURFACE
  6
Continuous
 62
     7
100
AcDbLine
 10
129.5221710150875
 20
78.66342775108062
 30
0.0
 11
129.5225613318073
 21
77.49332634478053
 31
0.0
  0
LINE
  5
70C
330
1F
100
AcDbEntity
  8
_SURFACE
  6
Continuous
 62
     7
100
AcDbLine
 10
124.8492122507853
 20
54.75497029250111
 30
0.0
 11
124.8491351541673
 21
65.13911205656261
 31
0.0
  0
LINE
  5
70D
330
1F
100
AcDbEntity
  8
_SURFACE
  6
Continuous
 62
     7
100
AcDbLine
 10
125.5502999265885
 20
55.76070144588304
 30
0.0
 11
125.5502999265885
 21
62.07421290316272
 31
0.0
  0
LINE
  5
70E
330
1F
100
AcDbEntity
  8
_SURFACE
  6
Continuous
 62
     7
100
AcDbLine
 10
129.5220724072063
 20
67.51902303460376
 30
0.0
 11
129.5220724072063
 21
66.34675123894196
 31
0.0
  0
LINE
  5
70F
330
1F
100
AcDbEntity
  8
_SURFACE
  6
Continuous
 62
     7
100
AcDbLine
 10
129.5220844696671
 20
79.92821730684084
 30
0.0
 11
129.5220845788865
 21
88.95165724824112
 31
0.0
  0
LINE
  5
710
330
1F
100
AcDbEntity
  8
_SURFACE
  6
Continuous
 62
     7
100
AcDbLine
 10
129.5220421354864
 20
79.92820051236269
 30
0.0
 11
129.5221710150875
 21
78.66342775108062
 31
0.0
  0
LINE
  5
711
330
1F
100
AcDbEntity
  8
_SURFACE
  6
Continuous
 62
     7
100
AcDbLine
 10
125.5199237744894
 20
65.68966764836152
 30
0.0
 11
125.5199499390258
 21
65.74841976352256
 31
0.0
  0
LINE
  5
712
330
1F
100
AcDbEntity
  8
_SURFACE
  6
Continuous
 62
     7
100
AcDbLine
 10
129.5299247486257
 20
71.16541621170329
 30
0.0
 11
129.5290652380247
 21
70.51311971594116
 31
0.0
  0
LINE
  5
713
330
1F
100
AcDbEntity
  8
_SURFACE
  6
Continuous
 62
     7
100
AcDbLine
 10
129.5290652380247
 20
70.51311971594116
 30
0.0
 11
129.5282225981066
 21
70.0715287931802
 31
0.0
  0
LWPOLYLINE
  5
714
330
1F
100
AcDbEntity
  8
_SURFACE
  6
Continuous
 62
     7
100
AcDbPolyline
 90
        3
 70
     0
 43
0.0
 10
129.5282225981066
 20
70.0715287931802
 10
129.5269037208893
 20
69.55258872108463
 10
129.5267771755464
 20
69.51120774720259
  0
LWPOLYLINE
  5
715
330
1F
100
AcDbEntity
  8
_SURFACE
  6
Continuous
 62
     7
100
AcDbPolyline
 90
        8
 70
     0
 43
0.0
 10
129.533779419606
 20
70.51311167176248
 10
129.5329739729098
 20
70.25754977750186
 10
129.5303682605666
 20
69.84880035878306
 10
129.5261294730083
 20
69.45031806456466
 10
129.5212054036095
 20
69.05922775199944
 10
129.5169240710495
 20
68.68405085186388
 10
129.5143724810262
 20
68.32804422326301
 10
129.5140105208668
 20
68.15357342919963
  0
LWPOLYLINE
  5
716
330
1F
100
AcDbEntity
  8
_SURFACE
  6
Continuous
 62
     7
100
AcDbPolyline
 90
       37
 70
     0
 43
0.0
 10
122.2967918616053
 20
58.47283519356135
 10
122.2979060224464
 20
58.71968034122112
 10
122.3017770535664
 20
58.96841123314373
 10
122.3084049498869
 20
59.21851954928063
 10
122.3178557361682
 20
59.46957749268261
 10
122.3300633901893
 20
59.72097524236089
 10
122.3448298376682
 20
59.97192325202416
 10
122.3621692645068
 20
60.22164439850387
 10
122.3820674848069
 20
60.46986563434114
 10
122.4042838843673
 20
60.71654379986141
 10
122.4288767155488
 20
60.96145716576067
 10
122.4557877285263
 20
61.2037383830015
 10
122.4846015545702
 20
61.44238162681943
 10
122.5152998116867
 20
61.67656740178284
 10
122.5479008818659
 20
61.90610039204186
 10
122.582044539766
 20
62.13091297264184
 10
122.6178024006879
 20
62.35085062522414
 10
122.6551028493271
 20
62.56499852052222
 10
122.693370811907
 20
62.77218964284331
 10
122.7325502484094
 20
62.97169434161917
 10
122.7726971988489
 20
63.16340853020157
 10
122.8134047018869
 20
63.34716238926414
 10
122.8547018430693
 20
63.52271818242154
 10
122.8965595368466
 20
63.68948333022347
 10
122.9384835728891
 20
63.84680020380113
 10
122.9804412131273
 20
63.99431870734263
 10
123.0224651956271
 20
64.13180037548447
 10
123.0641595115269
 20
64.25886735782334
 10
123.1054050881687
 20
64.3750474531211
 10
123.1463209956676
 20
64.4804726118404
 10
123.1868684634685
 20
64.57554018650118
 10
123.2272149436069
 20
64.66029531798124
 10
123.2671929815081
 20
64.73392875466235
 10
123.3062614479461
 20
64.79567441476176
 10
123.3442399597482
 20
64.84542533380083
 10
123.3813088975478
 20
64.8834132182041
 10
123.4174682613487
 20
64.90970868504375
  0
LINE
  5
717
330
1F
100
AcDbEntity
  8
_SURFACE
  6
Continuous
 62
     7
100
AcDbLine
 10
125.5433485155484
 20
54.77794163340369
 30
0.0
 11
125.5456746145249
 21
55.28916307730326
 31
0.0
  0
LINE
  5
718
330
1F
100
AcDbEntity
  8
_SURFACE
  6
Continuous
 62
     7
100
AcDbLine
 10
125.5409222770652
 20
54.34878440180039
 30
0.0
 11
125.5433485155484
 21
54.77794163340369
 31
0.0
  0
LWPOLYLINE
  5
719
330
1F
100
AcDbEntity
  8
_SURFACE
  6
Continuous
 62
     7
100
AcDbPolyline
 90
        7
 70
     0
 43
0.0
 10
125.5199499390258
 20
65.74841976352256
 10
125.5202091104695
 20
65.79528434086244
 10
125.5204316144666
 20
65.81326484591993
 10
125.5207359598065
 20
65.82706410711982
 10
125.5211211457247
 20
65.83615701756428
 10
125.5215880866274
 20
65.84000184858307
 10
125.5216784572879
 20
65.84009313618155
  0
LINE
  5
71A
330
1F
100
AcDbEntity
  8
_SURFACE
  6
Continuous
 62
     7
100
AcDbLine
 10
125.5502579835668
 20
55.76527905166442
 30
0.0
 11
125.5495773829464
 21
55.68530973230228
 31
0.0
  0
LWPOLYLINE
  5
71B
330
1F
100
AcDbEntity
  8
_SURFACE
  6
Continuous
 62
     7
100
AcDbPolyline
 90
        3
 70
     0
 43
0.0
 10
125.5495773829464
 20
55.68530973230228
 10
125.5492523747055
 20
55.64975223165895
 10
125.5490987478882
 20
55.63307650936114
  0
LWPOLYLINE
  5
71C
330
1F
100
AcDbEntity
  8
_SURFACE
  6
Continuous
 62
     7
100
AcDbPolyline
 90
        3
 70
     0
 43
0.0
 10
125.5490987478882
 20
55.63307650936114
 10
125.5488069120477
 20
55.60167077080262
 10
125.5486684515675
 20
55.58690412266007
  0
LWPOLYLINE
  5
71D
330
1F
100
AcDbEntity
  8
_SURFACE
  6
Continuous
 62
     7
100
AcDbPolyline
 90
        3
 70
     0
 43
0.0
 10
125.5486684515675
 20
55.58690412266007
 10
125.5484058485857
 20
55.55914596888253
 10
125.5482810888682
 20
55.54607706182143
  0
LINE
  5
71E
330
1F
100
AcDbEntity
  8
_SURFACE
  6
Continuous
 62
     7
100
AcDbLine
 10
125.5390324078474
 20
54.09893896550276
 30
0.0
 11
125.5409222770652
 21
54.34878440180039
 31
0.0
  0
LWPOLYLINE
  5
71F
330
1F
100
AcDbEntity
  8
_SURFACE
  6
Continuous
 62
     7
100
AcDbPolyline
 90
        5
 70
     0
 43
0.0
 10
125.5482810888682
 20
55.54607706182143
 10
125.5480444599273
 20
55.52149387248066
 10
125.5479321868482
 20
55.50991785296211
 10
125.5478239828483
 20
55.49881116956242
 10
125.5477194923263
 20
55.48813030700187
  0
LWPOLYLINE
  5
720
330
1F
100
AcDbEntity
  8
_SURFACE
  6
Continuous
 62
     7
100
AcDbPolyline
 90
        5
 70
     0
 43
0.0
 10
125.5477194923263
 20
55.48813030700187
 10
125.5475216339476
 20
55.46801802566044
 10
125.5474279612866
 20
55.45854524298412
 10
125.5473376617486
 20
55.449441595962
 10
125.547250732787
 20
55.44070277676148
  0
LWPOLYLINE
  5
721
330
1F
100
AcDbEntity
  8
_SURFACE
  6
Continuous
 62
     7
100
AcDbPolyline
 90
        7
 70
     0
 43
0.0
 10
125.547250732787
 20
55.44070277676148
 10
125.547086143328
 20
55.42422146098253
 10
125.547008411708
 20
55.41646767918284
 10
125.5469334715456
 20
55.4090117936634
 10
125.5468612796688
 20
55.40184846026242
 10
125.5467917928875
 20
55.39497224846347
 10
125.5467247749878
 20
55.38835905112357
  0
LWPOLYLINE
  5
722
330
1F
100
AcDbEntity
  8
_SURFACE
  6
Continuous
 62
     7
100
AcDbPolyline
 90
        5
 70
     0
 43
0.0
 10
125.5467247749878
 20
55.38835905112357
 10
125.5465979756484
 20
55.37589994726151
 10
125.5465379579876
 20
55.3700293189235
 10
125.5464800612283
 20
55.36438445848254
 10
125.5464242675883
 20
55.35896279291994
  0
LWPOLYLINE
  5
723
330
1F
100
AcDbEntity
  8
_SURFACE
  6
Continuous
 62
     7
100
AcDbPolyline
 90
        4
 70
     0
 43
0.0
 10
125.5464242675883
 20
55.35896279291994
 10
125.5463185705669
 20
55.34874730916128
 10
125.5462685909882
 20
55.34394438759993
 10
125.5462202903475
 20
55.33932081290406
  0
LWPOLYLINE
  5
724
330
1F
100
AcDbEntity
  8
_SURFACE
  6
Continuous
 62
     7
100
AcDbPolyline
 90
        4
 70
     0
 43
0.0
 10
125.5462202903475
 20
55.33932081290406
 10
125.5461284871274
 20
55.33058617200224
 10
125.5460849642261
 20
55.32647124500219
 10
125.5460428383269
 20
55.32250548712038
  0
LWPOLYLINE
  5
725
330
1F
100
AcDbEntity
  8
_SURFACE
  6
Continuous
 62
     7
100
AcDbPolyline
 90
        4
 70
     0
 43
0.0
 10
125.5460428383269
 20
55.32250548712038
 10
125.545963501427
 20
55.31508591598178
 10
125.5459269051064
 20
55.31168637998273
 10
125.5458921121865
 20
55.30846898738166
  0
LWPOLYLINE
  5
726
330
1F
100
AcDbEntity
  8
_SURFACE
  6
Continuous
 62
     7
100
AcDbPolyline
 90
        3
 70
     0
 43
0.0
 10
125.5458921121865
 20
55.30846898738166
 10
125.5458265319287
 20
55.3024449252611
 10
125.5457956912471
 20
55.29963134947904
  0
LINE
  5
727
330
1F
100
AcDbEntity
  8
_SURFACE
  6
Continuous
 62
     7
100
AcDbLine
 10
129.5314563000468
 20
71.92667591854335
 30
0.0
 11
129.5303618064284
 21
71.83415811018351
 31
0.0
  0
LINE
  5
728
330
1F
100
AcDbEntity
  8
_SURFACE
  6
Continuous
 62
     7
100
AcDbLine
 10
129.5293154991489
 20
71.74571338994285
 30
0.0
 11
129.5218140206273
 21
71.11161175492309
 31
0.0
  0
LINE
  5
729
330
1F
100
AcDbEntity
  8
_SURFACE
  6
Continuous
 62
     7
100
AcDbLine
 10
125.5457956912471
 20
55.29963134947904
 30
0.0
 11
125.5456746145249
 21
55.28916307730326
 31
0.0
  0
LWPOLYLINE
  5
72A
330
1F
100
AcDbEntity
  8
_SURFACE
  6
Continuous
 62
     7
100
AcDbPolyline
 90
       35
 70
     0
 43
0.0
 10
129.5220724072063
 20
67.03214976654128
 10
129.5199536966868
 20
66.99462415452437
 10
129.5143215413266
 20
66.92710903174377
 10
129.505743107886
 20
66.85650034898428
 10
129.4929145889694
 20
66.78258201573992
 10
129.4742126350068
 20
66.70561794310053
 10
129.4476487485884
 20
66.62606921218177
 10
129.4106559980867
 20
66.5441957005409
 10
129.3595503598883
 20
66.45964042134294
 10
129.2925438568675
 20
66.37429456460306
 10
129.2113927364665
 20
66.29162958388262
 10
129.1168178049668
 20
66.21251822064225
 10
129.0090320058082
 20
66.13735087796378
 10
128.8911716649457
 20
66.06826031764142
 10
128.7652063923672
 20
66.00607262896158
 10
128.6312658626887
 20
65.9509555052595
 10
128.4904435865467
 20
65.90365781982329
 10
128.3437820764669
 20
65.86481553276319
 10
128.1917848518863
 20
65.83489067516204
 10
128.0347164563466
 20
65.81431562360233
 10
127.873617522768
 20
65.80251943180194
 10
127.7092725784062
 20
65.79785770122036
 10
127.5415174325865
 20
65.79873287854063
 10
127.3713869600472
 20
65.80362109837953
 10
127.1996974126489
 20
65.81097690790049
 10
127.0257743619662
 20
65.81943218182134
 10
126.8493097898247
 20
65.82820024658069
 10
126.6708047798059
 20
65.83660455286228
 10
126.4902705942662
 20
65.84394890190235
 10
126.307614119349
 20
65.84949545672355
 10
126.1229187000684
 20
65.8524527812646
 10
125.9364596749695
 20
65.85201222080143
 10
125.7483255020855
 20
65.84810526900257
 10
125.5584179875662
 20
65.84158803540269
 10
125.5216850765285
 20
65.8401148176221
  0
LWPOLYLINE
  5
72B
330
1F
100
AcDbEntity
  8
_SURFACE
  6
Continuous
 62
     7
100
AcDbPolyline
 90
       12
 70
     0
 43
0.0
 10
129.5220845788865
 20
88.95165728634166
 10
129.5276443340884
 20
89.03519228564112
 10
129.5442287027475
 20
89.11730066854072
 10
129.5715542843648
 20
89.19657754326401
 10
129.6091538611875
 20
89.27166634406097
 10
129.6563844906271
 20
89.34128236942198
 10
129.7124385822283
 20
89.40423470478201
 10
129.776357476487
 20
89.45944616407944
 10
129.8470478202474
 20
89.50597170222174
 10
129.9233004465061
 20
89.54301488696222
 10
130.0038108976298
 20
89.56994155142313
 10
130.0872017239856
 20
89.58629069830424
  0
LWPOLYLINE
  5
72C
330
1F
100
AcDbEntity
  8
_SURFACE
  6
Continuous
 62
     7
100
AcDbPolyline
 90
       13
 70
     0
 43
0.0
 10
129.5220844696671
 20
87.16655432874032
 10
129.5276450783097
 20
87.25010565262202
 10
129.5442317685268
 20
87.33222748482369
 10
129.5715607461246
 20
87.4115147202014
 10
129.6091644275842
 20
87.486610790484
 10
129.6563994258252
 20
87.55623082904133
 10
129.7124575738092
 20
87.61918367240143
 10
129.7763797395894
 20
87.67439222340037
 10
129.8470722423483
 20
87.72091188398411
 10
129.9233255620277
 20
87.75794672482373
 10
130.0038350403268
 20
87.7848630997418
 10
130.0872231946089
 20
87.80120047626262
 10
130.1720632890868
 20
87.80667932992439
  0
LWPOLYLINE
  5
72D
330
1F
100
AcDbEntity
  8
_SURFACE
  6
Continuous
 62
     7
100
AcDbPolyline
 90
        4
 70
     0
 43
0.0
 10
125.5382811672864
 20
54.05384789743987
 10
125.538396066728
 20
54.05536855480242
 10
125.5385752103869
 20
54.06285051849993
 10
125.5390324078474
 20
54.09893896550276
  0
LWPOLYLINE
  5
72E
330
1F
100
AcDbEntity
  8
_SURFACE
  6
Continuous
 62
     7
100
AcDbPolyline
 90
        3
 70
     0
 43
0.0
 10
129.5377020838462
 20
67.01949620028101
 10
129.5335743273065
 20
66.97622453930164
 10
129.5220724072063
 20
66.89610988368297
  0
LWPOLYLINE
  5
72F
330
1F
100
AcDbEntity
  8
_SURFACE
  6
Continuous
 62
     7
100
AcDbPolyline
 90
       16
 70
     0
 43
0.0
 10
124.8491351567066
 20
62.19039625728185
 10
124.8533762404298
 20
62.23466124368354
 10
124.8656416438901
 20
62.2793039661796
 10
124.8852901390094
 20
62.32335510998239
 10
124.9115309120282
 20
62.36571004432192
 10
124.9438741671295
 20
62.40589038052205
 10
124.9825306481073
 20
62.44394017488087
 10
125.0274075941673
 20
62.47922969536232
 10
125.0782208275671
 20
62.51100182892189
 10
125.1349972494466
 20
62.53921264880266
 10
125.1966483504259
 20
62.56366954426123
 10
125.2620923114885
 20
62.58422966316214
 10
125.3311077741676
 20
62.60092339660189
 10
125.4027904806865
 20
62.61343797659939
 10
125.4754170131094
 20
62.62130994714464
 10
125.5473949260452
 20
62.62414463794122
  0
LWPOLYLINE
  5
730
330
1F
100
AcDbEntity
  8
_SURFACE
  6
Continuous
 62
     7
100
AcDbPolyline
 90
       27
 70
     0
 43
0.0
 10
130.1720461161497
 20
89.59178228498279
 10
130.1721239544461
 20
89.59245362729999
 10
130.1725272861261
 20
89.59312899044236
 10
130.1732561111897
 20
89.5938083744026
 10
130.174346832908
 20
89.59450837300249
 10
130.1757630480099
 20
89.59521239242024
 10
130.1773955568063
 20
89.5958706435835
 10
130.1792391573875
 20
89.59646489182198
 10
130.1812990491274
 20
89.59701337180232
 10
130.1834816406484
 20
89.59752100096231
 10
130.1857840287269
 20
89.59798859464211
 10
130.1882091140472
 20
89.59841533750152
 10
130.1906719971087
 20
89.59880371366164
 10
130.1931665996892
 20
89.59915308812053
 10
130.1956989974681
 20
89.59946409334081
 10
130.1982025230684
 20
89.59974112352067
 10
130.2006701102075
 20
89.59998402118293
 10
130.2031088226288
 20
89.6001929412618
 10
130.2054731867068
 20
89.6003727326228
 10
130.2077214448475
 20
89.60052120070251
 10
130.2098953521056
 20
89.60064054260003
 10
130.2120747254451
 20
89.60074218832088
 10
130.2143392802284
 20
89.60082958972128
 10
130.2166092960072
 20
89.60089929494136
 10
130.2187254385865
 20
89.60095239364312
 10
130.2206345940251
 20
89.60098924904235
 10
130.2223898762679
 20
89.60100949538393
  0
LWPOLYLINE
  5
731
330
1F
100
AcDbEntity
  8
_SURFACE
  6
Continuous
 62
     7
100
AcDbPolyline
 90
        9
 70
     0
 43
0.0
 10
123.6406643681696
 20
54.27132612898133
 10
123.6011123238279
 20
54.19002995934208
 10
123.5603263576489
 20
54.11914697436298
 10
123.5183064645501
 20
54.05898431084136
 10
123.4747864652275
 20
54.00966964187903
 10
123.4300325415282
 20
53.97171950950216
 10
123.3848432415073
 20
53.94560885305911
 10
123.3394801343677
 20
53.93122936695947
 10
123.3041624529072
 20
53.92790019404348
  0
LWPOLYLINE
  5
732
330
1F
100
AcDbEntity
  8
_SURFACE
  6
Continuous
 62
     7
100
AcDbPolyline
 90
       44
 70
     0
 43
0.0
 10
129.0183663559476
 20
62.77785481820176
 10
128.9330630543666
 20
62.71362708279996
 10
128.883382782886
 20
62.67674498232229
 10
128.83259858931
 20
62.63974195244229
 10
128.779507303567
 20
62.601993236984
 10
128.725312098268
 20
62.56412359212338
 10
128.6758973812469
 20
62.52994788704238
 10
128.6339487275293
 20
62.50130365680381
 10
128.5967805646253
 20
62.47635336634123
 10
128.5622205829461
 20
62.45339927204479
 10
128.5314039237276
 20
62.43310249272183
 10
128.5031954508052
 20
62.41480190956501
 10
128.4720174410252
 20
62.39481645042035
 10
128.4333100406659
 20
62.37055679358165
 10
128.3916331085277
 20
62.3446122633017
 10
128.3550885003899
 20
62.32106974244236
 10
128.3295572662066
 20
62.30335686955952
 10
128.3091583611061
 20
62.28804600864389
 10
128.2843504884479
 20
62.26894116496116
 10
128.2493184325252
 20
62.24104797208422
 10
128.2098774115878
 20
62.20936079644381
 10
128.1739317837094
 20
62.18266672740212
 10
128.1449090477475
 20
62.16572908030359
 10
128.1193817073875
 20
62.15378453980377
 10
128.0949716292091
 20
62.14133026448182
 10
128.0711461294889
 20
62.12600042214255
 10
128.0484378944896
 20
62.11016084498116
 10
128.0260668571866
 20
62.09540619580223
 10
128.0040090450678
 20
62.08203660608198
 10
127.9822884281059
 20
62.06975194180488
 10
127.9601968441496
 20
62.05924644846383
 10
127.9376143569282
 20
62.05087274918189
 10
127.914660905248
 20
62.04427821830034
 10
127.8909881433467
 20
62.0390992218003
 10
127.8665604959899
 20
62.03546018158014
 10
127.8414135409478
 20
62.03323667574152
 10
127.8153056708873
 20
62.0316917944023
 10
127.7882179678857
 20
62.03069540066501
 10
127.7601693498657
 20
62.0303776339628
 10
127.7309749683302
 20
62.03039200274218
 10
127.7005733247863
 20
62.03067464124107
 10
127.6690259177269
 20
62.03128941522156
 10
127.6363324067864
 20
62.03208143548038
 10
127.6025320248084
 20
62.03302551029849
  0
LINE
  5
733
330
1F
100
AcDbEntity
  8
_SURFACE
  6
Continuous
 62
     7
100
AcDbLine
 10
125.5382518683876
 20
54.05401162076161
 30
0.0
 11
125.5382811672864
 21
54.05384789743987
 31
0.0
  0
LWPOLYLINE
  5
734
330
1F
100
AcDbEntity
  8
_SURFACE
  6
Continuous
 62
     7
100
AcDbPolyline
 90
       34
 70
     0
 43
0.0
 10
130.3088933735674
 20
65.972539330522
 10
130.3204266956857
 20
65.80088904644291
 10
130.3288372884674
 20
65.63425347928061
 10
130.3344902718275
 20
65.47293982426201
 10
130.3361727779887
 20
65.31712504572208
 10
130.3335499308053
 20
65.16675047220125
 10
130.3269566064267
 20
65.0218747726198
 10
130.3161845756479
 20
64.88285094094173
 10
130.3011522511263
 20
64.74997281706094
 10
130.2819412202082
 20
64.62294655600128
 10
130.2585879953879
 20
64.50124362948047
 10
130.2311776869867
 20
64.38521811350295
 10
130.1996251872299
 20
64.27451592952131
 10
130.1637116700261
 20
64.16754630348298
 10
130.1232746541284
 20
64.06400944934141
 10
130.0784766258696
 20
63.9642051531395
 10
130.0295862029455
 20
63.86744201926051
 10
129.9764699286864
 20
63.77330331244086
 10
129.9192612648478
 20
63.68220576794048
 10
129.8586292169496
 20
63.59470820100106
 10
129.7933356848482
 20
63.51043303300177
 10
129.7246187686872
 20
63.42975784002049
 10
129.656861774409
 20
63.35437419348311
 10
129.5919772508862
 20
63.28608091884091
 10
129.528052646707
 20
63.22307918809968
 10
129.4637336262461
 20
63.16166409630243
 10
129.3974986380675
 20
63.09987783683975
 10
129.3308692336071
 20
63.03967821378176
 10
129.2670557417262
 20
62.98323373180249
 10
129.2060306897877
 20
62.93050108898244
 10
129.1478215529681
 20
62.88152358978043
 10
129.0957210907475
 20
62.8385996548008
 10
129.053989386048
 20
62.80520045566156
 10
129.0183663559476
 20
62.77785481820176
  0
LWPOLYLINE
  5
735
330
1F
100
AcDbEntity
  8
_SURFACE
  6
Continuous
 62
     7
100
AcDbPolyline
 90
       13
 70
     0
 43
0.0
 10
134.1981394609468
 20
87.16627121272033
 10
134.19259355891
 20
87.24971116014279
 10
134.1760484307054
 20
87.33173508550173
 10
134.1487834103066
 20
87.41094239978194
 10
134.1112621188261
 20
87.4859780409228
 10
134.0641217863888
 20
87.55556172445942
 10
134.008159985686
 20
87.61850829148391
 10
133.9443277435278
 20
87.67373918686137
 10
133.8737124923285
 20
87.72030575870159
 10
133.7975138817094
 20
87.75740898650331
 10
133.7170302301277
 20
87.78440805112261
 10
133.6336375444883
 20
87.8008331846417
 10
133.5487618747686
 20
87.80639592942172
  0
LWPOLYLINE
  5
736
330
1F
100
AcDbEntity
  8
_SURFACE
  6
Continuous
 62
     7
100
AcDbPolyline
 90
       12
 70
     0
 43
0.0
 10
134.1981393771278
 20
88.95200301590232
 10
134.1925846739871
 20
89.03551013870167
 10
134.1760155123086
 20
89.11759001772081
 10
134.1487150893884
 20
89.19683976524032
 10
134.1111500108457
 20
89.27190490086143
 10
134.0639623277278
 20
89.34150245788115
 10
134.0079585560673
 20
89.40444291874376
 10
133.9440958847083
 20
89.45965055026174
 10
133.8734658202268
 20
89.50618179578162
 10
133.7972755204867
 20
89.54324138892337
 10
133.7168271774465
 20
89.57019594258092
 10
133.6334957642287
 20
89.58658477188366
  0
LWPOLYLINE
  5
737
330
1F
100
AcDbEntity
  8
_SURFACE
  6
Continuous
 62
     7
100
AcDbPolyline
 90
       21
 70
     0
 43
0.0
 10
134.1992709293484
 20
88.95198467710217
 10
134.1979419124475
 20
88.99362732432058
 10
134.1922584922689
 20
89.04740280478147
 10
134.1823199396279
 20
89.09975598430394
 10
134.1683974452465
 20
89.15032401626232
 10
134.1507794388274
 20
89.19882533150159
 10
134.1297705349464
 20
89.24501544232263
 10
134.1057091352671
 20
89.2886514078804
 10
134.0789410480868
 20
89.32955029991937
 10
134.0497929428059
 20
89.36760410748176
 10
134.0185837113461
 20
89.40273972428114
 10
133.9856200587058
 20
89.4349166728811
 10
133.9512577728458
 20
89.46407336590203
 10
133.9158828372495
 20
89.49016994311971
 10
133.8797717842502
 20
89.51328262993994
 10
133.8433003052453
 20
89.5334487846798
 10
133.8069599816884
 20
89.55070083806132
 10
133.7711538429869
 20
89.56517913016289
 10
133.7360371415673
 20
89.57714074962352
 10
133.7016481857066
 20
89.58686123310183
 10
133.6683564946073
 20
89.59449619370428
  0
LINE
  5
738
330
1F
100
AcDbEntity
  8
_SURFACE
  6
Continuous
 62
     7
100
AcDbLine
 10
134.2231384406662
 20
66.17885861816323
 30
0.0
 11
134.2214284440854
 21
66.41932854108238
 31
0.0
  0
LWPOLYLINE
  5
739
330
1F
100
AcDbEntity
  8
_SURFACE
  6
Continuous
 62
     7
100
AcDbPolyline
 90
        3
 70
     0
 43
0.0
 10
134.2296509092269
 20
65.32371347552036
 10
134.2295926568661
 20
65.33290718586288
 10
134.2231384406662
 20
66.17885861816323
  0
LWPOLYLINE
  5
73A
330
1F
100
AcDbEntity
  8
_SURFACE
  6
Continuous
 62
     7
100
AcDbPolyline
 90
        3
 70
     0
 43
0.0
 10
134.2298222322281
 20
65.2961701676417
 10
134.2297657045276
 20
65.30534497022237
 10
134.2296509092269
 20
65.32371347552036
  0
LINE
  5
73B
330
1F
100
AcDbEntity
  8
_SURFACE
  6
Continuous
 62
     7
100
AcDbLine
 10
133.4978074935682
 20
89.6108914492019
 30
0.0
 11
133.4978658780058
 21
89.60101618066111
 31
0.0
  0
LINE
  5
73C
330
1F
100
AcDbEntity
  8
_SURFACE
  6
Continuous
 62
     7
100
AcDbLine
 10
134.2214284440854
 20
66.41932854108238
 30
0.0
 11
134.2197651581085
 21
66.68422650506402
 31
0.0
  0
LWPOLYLINE
  5
73D
330
1F
100
AcDbEntity
  8
_SURFACE
  6
Continuous
 62
     7
100
AcDbPolyline
 90
        3
 70
     0
 43
0.0
 10
134.2299882567861
 20
65.26868467778188
 10
134.2299335172468
 20
65.27784002396076
 10
134.2298222322281
 20
65.2961701676417
  0
LINE
  5
73E
330
1F
100
AcDbEntity
  8
_SURFACE
  6
Continuous
 62
     7
100
AcDbLine
 10
133.5237519628866
 20
64.37343213504066
 30
0.0
 11
133.5175864278465
 21
65.41338402516196
 31
0.0
  0
LWPOLYLINE
  5
73F
330
1F
100
AcDbEntity
  8
_SURFACE
  6
Continuous
 62
     7
100
AcDbPolyline
 90
        3
 70
     0
 43
0.0
 10
134.2301487746266
 20
65.24125863916053
 10
134.2300958918279
 20
65.25039398792289
 10
134.2299882567861
 20
65.26868467778188
  0
LINE
  5
740
330
1F
100
AcDbEntity
  8
_SURFACE
  6
Continuous
 62
     7
100
AcDbLine
 10
134.2302526276074
 20
65.22300849786045
 30
0.0
 11
134.2301487746266
 21
65.24125863916053
 31
0.0
  0
LWPOLYLINE
  5
741
330
1F
100
AcDbEntity
  8
_SURFACE
  6
Continuous
 62
     7
100
AcDbPolyline
 90
       20
 70
     0
 43
0.0
 10
133.5175864278465
 20
65.41338402516196
 10
133.5146297814866
 20
65.95918788148485
 10
133.5120305715466
 20
66.52337813486376
 10
133.5096484960452
 20
67.10596075684081
 10
133.5074618354486
 20
67.71047492245855
 10
133.5054611485687
 20
68.33730451716331
 10
133.5036558765862
 20
68.9860656555051
 10
133.5020526108058
 20
69.65914585111971
 10
133.5006492227078
 20
70.3566102423196
 10
133.4994478408082
 20
71.07839368826391
 10
133.4984614546668
 20
71.82668828514436
 10
133.4977001404698
 20
72.6016370603633
 10
133.4971538169487
 20
73.40309698398271
 10
133.4968052298866
 20
74.23283109286278
 10
133.4966699113868
 20
75.09151448344202
 10
133.4967323268068
 20
75.97847205420332
 10
133.4969286103881
 20
76.89344155522341
 10
133.497237476928
 20
77.83633556224451
 10
133.4976802090862
 20
78.80724149698146
 10
133.4982568094095
 20
79.80615935690223
  0
LWPOLYLINE
  5
742
330
1F
100
AcDbEntity
  8
_SURFACE
  6
Continuous
 62
     7
100
AcDbPolyline
 90
        3
 70
     0
 43
0.0
 10
134.2304035264681
 20
65.19568519970419
 10
134.2303538872477
 20
65.20478593334193
 10
134.2302526276074
 20
65.22300849786045
  0
LINE
  5
743
330
1F
100
AcDbEntity
  8
_SURFACE
  6
Continuous
 62
     7
100
AcDbLine
 10
134.2197651581085
 20
66.68422650506402
 30
0.0
 11
134.218046860806
 21
66.99467318922181
 31
0.0
  0
LINE
  5
744
330
1F
100
AcDbEntity
  8
_SURFACE
  6
Continuous
 62
     7
100
AcDbLine
 10
134.2305007881444
 20
65.17750500492041
 30
0.0
 11
134.2304035264681
 21
65.19568519970419
 31
0.0
  0
LINE
  5
745
330
1F
100
AcDbEntity
  8
_SURFACE
  6
Continuous
 62
     7
100
AcDbLine
 10
134.2016935051472
 20
68.50317773888166
 30
0.0
 11
134.2003818212072
 21
68.75608213020171
 31
0.0
  0
LWPOLYLINE
  5
746
330
1F
100
AcDbEntity
  8
_SURFACE
  6
Continuous
 62
     7
100
AcDbPolyline
 90
        3
 70
     0
 43
0.0
 10
134.2306415346286
 20
65.15028899890459
 10
134.2305953142498
 20
65.15935366454361
 10
134.2305007881444
 20
65.17750500492041
  0
LINE
  5
747
330
1F
100
AcDbEntity
  8
_SURFACE
  6
Continuous
 62
     7
100
AcDbLine
 10
134.2307318570277
 20
65.13218185198131
 30
0.0
 11
134.2306415346286
 21
65.15028899890459
 31
0.0
  0
LINE
  5
748
330
1F
100
AcDbEntity
  8
_SURFACE
  6
Continuous
 62
     7
100
AcDbLine
 10
134.218046860806
 20
66.99467318922181
 30
0.0
 11
134.215921045907
 21
67.42833354872202
 31
0.0
  0
LINE
  5
749
330
1F
100
AcDbEntity
  8
_SURFACE
  6
Continuous
 62
     7
100
AcDbLine
 10
134.2308193066895
 20
65.11410483961883
 30
0.0
 11
134.2307318570277
 21
65.13218185198131
 31
0.0
  0
LINE
  5
74A
330
1F
100
AcDbEntity
  8
_SURFACE
  6
Continuous
 62
     7
100
AcDbLine
 10
130.2235805825478
 20
87.74646601626448
 30
0.0
 11
130.2232702123295
 21
87.79749184258109
 31
0.0
  0
LWPOLYLINE
  5
74B
330
1F
100
AcDbEntity
  8
_SURFACE
  6
Continuous
 62
     7
100
AcDbPolyline
 90
        3
 70
     0
 43
0.0
 10
134.2176517307855
 20
65.23810540950073
 10
134.2146191866889
 20
65.88596399440068
 10
134.2132067739697
 20
66.20187191732331
  0
LINE
  5
74C
330
1F
100
AcDbEntity
  8
_SURFACE
  6
Continuous
 62
     7
100
AcDbLine
 10
134.230903835349
 20
65.09605831742231
 30
0.0
 11
134.2308193066895
 21
65.11410483961883
 31
0.0
  0
LINE
  5
74D
330
1F
100
AcDbEntity
  8
_SURFACE
  6
Continuous
 62
     7
100
AcDbLine
 10
134.215921045907
 20
67.42833354872202
 30
0.0
 11
134.2105683997654
 21
68.61790245228114
 31
0.0
  0
LWPOLYLINE
  5
74E
330
1F
100
AcDbEntity
  8
_SURFACE
  6
Continuous
 62
     7
100
AcDbPolyline
 90
        3
 70
     0
 43
0.0
 10
134.2310250365302
 20
65.06904692872051
 10
134.2309853896661
 20
65.07804284164233
 10
134.230903835349
 20
65.09605831742231
  0
LINE
  5
74F
330
1F
100
AcDbEntity
  8
_SURFACE
  6
Continuous
 62
     7
100
AcDbLine
 10
134.2132067739697
 20
66.20187191732331
 30
0.0
 11
134.2105492303893
 21
66.8172124748002
 31
0.0
  0
LWPOLYLINE
  5
750
330
1F
100
AcDbEntity
  8
_SURFACE
  6
Continuous
 62
     7
100
AcDbPolyline
 90
        4
 70
     0
 43
0.0
 10
134.2108473019291
 20
68.26791588784037
 10
134.2082796337093
 20
68.87494803166411
 10
134.205941815166
 20
69.49618971779857
 10
134.2038358249668
 20
70.13270283644162
  0
LINE
  5
751
330
1F
100
AcDbEntity
  8
_SURFACE
  6
Continuous
 62
     7
100
AcDbLine
 10
134.2311020391683
 20
65.05107892808375
 30
0.0
 11
134.2310250365302
 21
65.06904692872051
 31
0.0
  0
LINE
  5
752
330
1F
100
AcDbEntity
  8
_SURFACE
  6
Continuous
 62
     7
100
AcDbLine
 10
134.2311759430052
 20
65.03314324894238
 30
0.0
 11
134.2311020391683
 21
65.05107892808375
 31
0.0
  0
LWPOLYLINE
  5
753
330
1F
100
AcDbEntity
  8
_SURFACE
  6
Continuous
 62
     7
100
AcDbPolyline
 90
        5
 70
     0
 43
0.0
 10
134.2105492303893
 20
66.8172124748002
 10
134.2070727222274
 20
67.69161214332273
 10
134.2062786979079
 20
67.96898013570391
 10
134.2045976522498
 20
68.23960120736085
 10
134.2016935051472
 20
68.50317773888166
  0
LINE
  5
754
330
1F
100
AcDbEntity
  8
_SURFACE
  6
Continuous
 62
     7
100
AcDbLine
 10
134.2105683997654
 20
68.61790245228114
 30
0.0
 11
134.2084367022292
 21
69.14266439488203
 31
0.0
  0
LINE
  5
755
330
1F
100
AcDbEntity
  8
_SURFACE
  6
Continuous
 62
     7
100
AcDbLine
 10
134.231246702326
 20
65.01524025452311
 30
0.0
 11
134.2311759430052
 21
65.03314324894238
 31
0.0
  0
LINE
  5
756
330
1F
100
AcDbEntity
  8
_SURFACE
  6
Continuous
 62
     7
100
AcDbLine
 10
134.2313142714086
 20
64.9973704909193
 30
0.0
 11
134.231246702326
 21
65.01524025452311
 31
0.0
  0
LINE
  5
757
330
1F
100
AcDbEntity
  8
_SURFACE
  6
Continuous
 62
     7
100
AcDbLine
 10
134.2313786019879
 20
64.97953450932111
 30
0.0
 11
134.2313142714086
 21
64.9973704909193
 31
0.0
  0
LINE
  5
758
330
1F
100
AcDbEntity
  8
_SURFACE
  6
Continuous
 62
     7
100
AcDbLine
 10
134.2084367022292
 20
69.14266439488203
 30
0.0
 11
134.2067332182053
 21
69.61244020666201
 31
0.0
  0
LINE
  5
759
330
1F
100
AcDbEntity
  8
_SURFACE
  6
Continuous
 62
     7
100
AcDbLine
 10
134.2314396559671
 20
64.96173267294072
 30
0.0
 11
134.2313786019879
 21
64.97953450932111
 31
0.0
  0
LINE
  5
75A
330
1F
100
AcDbEntity
  8
_SURFACE
  6
Continuous
 62
     7
100
AcDbLine
 10
134.2314973825453
 20
64.94396553042172
 30
0.0
 11
134.2314396559671
 21
64.96173267294072
 31
0.0
  0
LINE
  5
75B
330
1F
100
AcDbEntity
  8
_SURFACE
  6
Continuous
 62
     7
100
AcDbLine
 10
134.2067332182053
 20
69.61244020666201
 30
0.0
 11
134.2051394545672
 21
70.10812055642093
 31
0.0
  0
LINE
  5
75C
330
1F
100
AcDbEntity
  8
_SURFACE
  6
Continuous
 62
     7
100
AcDbLine
 10
134.231551746165
 20
64.9262336304004
 30
0.0
 11
134.2314973825453
 21
64.94396553042172
 31
0.0
  0
LWPOLYLINE
  5
75D
330
1F
100
AcDbEntity
  8
_SURFACE
  6
Continuous
 62
     7
100
AcDbPolyline
 90
        3
 70
     0
 43
0.0
 10
134.2038358249668
 20
70.13270283644162
 10
134.2019665805495
 20
70.78448222630179
 10
134.2003370613277
 20
71.45153405704188
  0
LINE
  5
75E
330
1F
100
AcDbEntity
  8
_SURFACE
  6
Continuous
 62
     7
100
AcDbLine
 10
134.2051394545672
 20
70.10812055642093
 30
0.0
 11
134.203594657047
 21
70.65504138536418
 31
0.0
  0
LINE
  5
75F
330
1F
100
AcDbEntity
  8
_SURFACE
  6
Continuous
 62
     7
100
AcDbLine
 10
134.2316268920661
 20
64.89970274366207
 30
0.0
 11
134.231551746165
 21
64.9262336304004
 31
0.0
  0
LWPOLYLINE
  5
760
330
1F
100
AcDbEntity
  8
_SURFACE
  6
Continuous
 62
     7
100
AcDbPolyline
 90
       17
 70
     0
 43
0.0
 10
134.200356563448
 20
69.65791822848261
 10
134.2019895065862
 20
68.99136343256252
 10
134.2038619590278
 20
68.34016697524423
 10
134.20597081435
 20
67.70432220426157
 10
134.2083110382667
 20
67.0838346110999
 10
134.2108806038671
 20
66.47763316412095
 10
134.2136727674481
 20
65.88566935948112
 10
134.216679121608
 20
65.30799061644431
 10
134.2198960087483
 20
64.74366985024101
 10
134.2233149147872
 20
64.19235497370248
 10
134.2269248161249
 20
63.65439706562249
 10
134.230294745885
 20
63.12991083748276
 10
134.2307936552282
 20
62.618405779724
 10
134.2254488856272
 20
62.1202055035814
 10
134.21184670557
 20
61.63660423050025
 10
134.1880518230067
 20
61.16799767978448
 10
134.1486680384262
 20
60.68805432165975
  0
LINE
  5
761
330
1F
100
AcDbEntity
  8
_SURFACE
  6
Continuous
 62
     7
100
AcDbLine
 10
134.2316726628672
 20
64.88206086378197
 30
0.0
 11
134.2316268920661
 21
64.89970274366207
 31
0.0
  0
LINE
  5
762
330
1F
100
AcDbEntity
  8
_SURFACE
  6
Continuous
 62
     7
100
AcDbLine
 10
134.203594657047
 20
70.65504138536418
 30
0.0
 11
134.2025578112664
 21
71.06882265838287
 31
0.0
  0
LINE
  5
763
330
1F
100
AcDbEntity
  8
_SURFACE
  6
Continuous
 62
     7
100
AcDbLine
 10
134.231714933547
 20
64.86445586724078
 30
0.0
 11
134.2316726628672
 21
64.88206086378197
 31
0.0
  0
LINE
  5
764
330
1F
100
AcDbEntity
  8
_SURFACE
  6
Continuous
 62
     7
100
AcDbLine
 10
134.2317536609265
 20
64.84688830522138
 30
0.0
 11
134.231714933547
 21
64.86445586724078
 31
0.0
  0
LWPOLYLINE
  5
765
330
1F
100
AcDbEntity
  8
_SURFACE
  6
Continuous
 62
     7
100
AcDbPolyline
 90
        3
 70
     0
 43
0.0
 10
134.2003370613277
 20
71.45153405704188
 10
134.1989462690874
 20
72.13493730288103
 10
134.1980202130256
 20
72.69743525840242
  0
LINE
  5
766
330
1F
100
AcDbEntity
  8
_SURFACE
  6
Continuous
 62
     7
100
AcDbLine
 10
134.2025578112664
 20
71.06882265838287
 30
0.0
 11
134.2006784525659
 21
71.95914295038384
 31
0.0
  0
LINE
  5
767
330
1F
100
AcDbEntity
  8
_SURFACE
  6
Continuous
 62
     7
100
AcDbLine
 10
134.1988463099299
 20
70.4043822422813
 30
0.0
 11
134.200356563448
 21
69.65791822848261
 31
0.0
  0
LINE
  5
768
330
1F
100
AcDbEntity
  8
_SURFACE
  6
Continuous
 62
     7
100
AcDbLine
 10
134.2318050375073
 20
64.82060804282302
 30
0.0
 11
134.2317536609265
 21
64.84688830522138
 31
0.0
  0
LINE
  5
769
330
1F
100
AcDbEntity
  8
_SURFACE
  6
Continuous
 62
     7
100
AcDbLine
 10
130.2237706304261
 20
87.65529424026174
 30
0.0
 11
130.2235805825478
 21
87.74646601626448
 31
0.0
  0
LINE
  5
76A
330
1F
100
AcDbEntity
  8
_SURFACE
  6
Continuous
 62
     7
100
AcDbLine
 10
134.2318347631265
 20
64.80313598480136
 30
0.0
 11
134.2318050375073
 21
64.82060804282302
 31
0.0
  0
LWPOLYLINE
  5
76B
330
1F
100
AcDbEntity
  8
_SURFACE
  6
Continuous
 62
     7
100
AcDbPolyline
 90
       35
 70
     0
 43
0.0
 10
130.2275658222245
 20
75.60192826576024
 10
130.2281287725857
 20
75.21882668500113
 10
130.2282319600857
 20
75.01913782860213
 10
130.228219531866
 20
74.81237700006243
 10
130.2280498827279
 20
74.59873380530045
 10
130.2274831071266
 20
74.37440610816195
 10
130.225569112987
 20
74.13787654820264
 10
130.2232579923878
 20
73.89066248332021
 10
130.2231601109454
 20
73.63351387392178
 10
130.2270447615486
 20
73.36590213584206
 10
130.2331426513086
 20
73.08835585324271
 10
130.2387562773695
 20
72.80321072630106
 10
130.2430388570686
 20
72.51000634954327
 10
130.246837173065
 20
72.20920312843957
 10
130.2499940501696
 20
71.90451797200005
 10
130.2527838794888
 20
71.5962932620627
 10
130.2549322699054
 20
71.28418661678226
 10
130.2554588754067
 20
70.97088779964399
 10
130.2540108696669
 20
70.65549326152034
 10
130.2509410815476
 20
70.33890654900317
 10
130.2463276566889
 20
70.02652807038469
 10
130.2394692401251
 20
69.71840000744343
 10
130.2310671868256
 20
69.41448017586155
 10
130.2233037123881
 20
69.12004243352059
 10
130.2164092481474
 20
68.83658151200363
 10
130.2101533602293
 20
68.56260267972031
 10
130.2060269727483
 20
68.29889559474252
 10
130.2042943625459
 20
68.04628380634169
 10
130.2046912502486
 20
67.80394376778206
 10
130.2079157446863
 20
67.57019449182045
 10
130.2145033769269
 20
67.34492722836005
 10
130.2239186159061
 20
67.12825073004061
 10
130.2352529595085
 20
66.91881025484183
 10
130.248993074267
 20
66.71654405790325
 10
130.3088933735674
 20
65.972539330522
  0
LINE
  5
76C
330
1F
100
AcDbEntity
  8
_SURFACE
  6
Continuous
 62
     7
100
AcDbLine
 10
130.2248751494265
 20
77.11062422219986
 30
0.0
 11
130.2275658222245
 21
75.60192826576024
 31
0.0
  0
LINE
  5
76D
330
1F
100
AcDbEntity
  8
_SURFACE
  6
Continuous
 62
     7
100
AcDbLine
 10
134.2006784525659
 20
71.95914295038384
 30
0.0
 11
134.1991289763685
 21
72.93099570314227
 31
0.0
  0
LINE
  5
76E
330
1F
100
AcDbEntity
  8
_SURFACE
  6
Continuous
 62
     7
100
AcDbLine
 10
134.1991289763685
 20
72.93099570314227
 30
0.0
 11
134.1989610417261
 21
73.05879461442457
 31
0.0
  0
LINE
  5
76F
330
1F
100
AcDbEntity
  8
_SURFACE
  6
Continuous
 62
     7
100
AcDbLine
 10
134.2318724745058
 20
64.77700135329944
 30
0.0
 11
134.2318347631265
 21
64.80313598480136
 31
0.0
  0
LINE
  5
770
330
1F
100
AcDbEntity
  8
_SURFACE
  6
Continuous
 62
     7
100
AcDbLine
 10
134.2318929900869
 20
64.7596279793601
 30
0.0
 11
134.2318724745058
 21
64.77700135329944
 31
0.0
  0
LINE
  5
771
330
1F
100
AcDbEntity
  8
_SURFACE
  6
Continuous
 62
     7
100
AcDbLine
 10
130.2239761646854
 20
77.90546255886368
 30
0.0
 11
130.2248751494265
 21
77.11062422219986
 31
0.0
  0
LINE
  5
772
330
1F
100
AcDbEntity
  8
_SURFACE
  6
Continuous
 62
     7
100
AcDbLine
 10
134.2319167340068
 20
64.73364301481926
 30
0.0
 11
134.2318929900869
 21
64.7596279793601
 31
0.0
  0
LINE
  5
773
330
1F
100
AcDbEntity
  8
_SURFACE
  6
Continuous
 62
     7
100
AcDbLine
 10
130.2234898969257
 20
78.726389702881
 30
0.0
 11
130.2239761646854
 21
77.90546255886368
 31
0.0
  0
LINE
  5
774
330
1F
100
AcDbEntity
  8
_SURFACE
  6
Continuous
 62
     7
100
AcDbLine
 10
134.23193177081
 20
64.70774880448009
 30
0.0
 11
134.2319167340068
 21
64.73364301481926
 31
0.0
  0
LINE
  5
775
330
1F
100
AcDbEntity
  8
_SURFACE
  6
Continuous
 62
     7
100
AcDbLine
 10
130.1720632890868
 20
87.80667932992439
 30
0.0
 11
130.1720461161497
 21
89.59178228498279
 31
0.0
  0
LINE
  5
776
330
1F
100
AcDbEntity
  8
_SURFACE
  6
Continuous
 62
     7
100
AcDbLine
 10
130.2232703367847
 20
79.80615935690223
 30
0.0
 11
130.2232702123295
 21
87.04449634324047
 31
0.0
  0
LINE
  5
777
330
1F
100
AcDbEntity
  8
_SURFACE
  6
Continuous
 62
     7
100
AcDbLine
 10
130.2232703367847
 20
79.80615935690223
 30
0.0
 11
130.2234898969257
 21
78.726389702881
 31
0.0
  0
LINE
  5
778
330
1F
100
AcDbEntity
  8
_SURFACE
  6
Continuous
 62
     7
100
AcDbLine
 10
130.2239912853077
 20
89.6108914492019
 30
0.0
 11
130.2239912853077
 21
89.60101313774286
 31
0.0
  0
LINE
  5
779
330
1F
100
AcDbEntity
  8
_SURFACE
  6
Continuous
 62
     7
100
AcDbLine
 10
133.4982568094095
 20
79.80615935690223
 30
0.0
 11
133.4985323511503
 21
87.04449634324047
 31
0.0
  0
LINE
  5
77A
330
1F
100
AcDbEntity
  8
_SURFACE
  6
Continuous
 62
     7
100
AcDbLine
 10
133.4985323511503
 20
87.04449634324047
 30
0.0
 11
133.4985323511503
 21
87.79749371710424
 31
0.0
  0
LINE
  5
77B
330
1F
100
AcDbEntity
  8
_SURFACE
  6
Continuous
 62
     7
100
AcDbLine
 10
133.5487055223278
 20
89.5921280247043
 30
0.0
 11
133.5487618747686
 21
87.80639622152232
 31
0.0
  0
LINE
  5
77C
330
1F
100
AcDbEntity
  8
_SURFACE
  6
Continuous
 62
     7
100
AcDbLine
 10
134.1979987932066
 20
71.81060162694341
 30
0.0
 11
134.1980169262681
 21
79.26754941558321
 31
0.0
  0
LINE
  5
77D
330
1F
100
AcDbEntity
  8
_SURFACE
  6
Continuous
 62
     7
100
AcDbLine
 10
134.1981394609468
 20
79.9279341984424
 30
0.0
 11
134.1981393771278
 21
88.95200298542333
 31
0.0
  0
LINE
  5
77E
330
1F
100
AcDbEntity
  8
_SURFACE
  6
Continuous
 62
     7
100
AcDbLine
 10
134.2030797380869
 20
67.91166486552031
 30
0.0
 11
134.2005511731661
 21
68.72342967074148
 31
0.0
  0
LINE
  5
77F
330
1F
100
AcDbEntity
  8
_SURFACE
  6
Continuous
 62
     7
100
AcDbLine
 10
134.2005511731661
 20
68.72342967074148
 30
0.0
 11
134.2004214045667
 21
70.38333698846184
 31
0.0
  0
LINE
  5
780
330
1F
100
AcDbEntity
  8
_SURFACE
  6
Continuous
 62
     7
100
AcDbLine
 10
134.2319377271054
 20
64.68194686218196
 30
0.0
 11
134.23193177081
 21
64.70774880448009
 31
0.0
  0
LWPOLYLINE
  5
781
330
1F
100
AcDbEntity
  8
_SURFACE
  6
Continuous
 62
     7
100
AcDbPolyline
 90
        9
 70
     0
 43
0.0
 10
134.2307397056286
 20
62.53797246840115
 10
134.230852044748
 20
63.13297521286442
 10
134.2269459413076
 20
63.74600824892188
 10
134.2214815072259
 20
64.38090209978184
 10
134.2168179503899
 20
65.03712938524261
 10
134.2130756337649
 20
65.71400474218028
 10
134.2095384780298
 20
66.41619807743921
 10
134.2061034785477
 20
67.14853140322377
 10
134.2030797380869
 20
67.91166486552031
  0
LINE
  5
782
330
1F
100
AcDbEntity
  8
_SURFACE
  6
Continuous
 62
     7
100
AcDbLine
 10
130.2238206379482
 20
87.45750135669952
 30
0.0
 11
130.2237706304261
 21
87.65529424026174
 31
0.0
  0
LWPOLYLINE
  5
783
330
1F
100
AcDbEntity
  8
_SURFACE
  6
Continuous
 62
     7
100
AcDbPolyline
 90
        9
 70
     0
 43
0.0
 10
134.1958648757066
 20
76.42715148957943
 10
134.1955671089675
 20
75.60251028898203
 10
134.1954331722266
 20
74.79658287366184
 10
134.1954834642277
 20
74.00929462603965
 10
134.1957342866884
 20
73.24071906642204
 10
134.196198972066
 20
72.48970912572115
 10
134.1968875000278
 20
71.75625373462246
 10
134.1978066396698
 20
71.04036278388086
 10
134.1988463099299
 20
70.4043822422813
  0
LINE
  5
784
330
1F
100
AcDbEntity
  8
_SURFACE
  6
Continuous
 62
     7
100
AcDbLine
 10
134.2319342422273
 20
64.65623899132189
 30
0.0
 11
134.2319377271054
 21
64.68194686218196
 31
0.0
  0
LWPOLYLINE
  5
785
330
1F
100
AcDbEntity
  8
_SURFACE
  6
Continuous
 62
     7
100
AcDbPolyline
 90
        3
 70
     0
 43
0.0
 10
134.1981394609468
 20
79.9279215441624
 10
134.1968513913855
 20
78.13714015494262
 10
134.1958648757066
 20
76.42715148957943
  0
LINE
  5
786
330
1F
100
AcDbEntity
  8
_SURFACE
  6
Continuous
 62
     7
100
AcDbLine
 10
134.2319143032258
 20
64.6221112465195
 30
0.0
 11
134.2319342422273
 21
64.65623899132189
 31
0.0
  0
LINE
  5
787
330
1F
100
AcDbEntity
  8
_SURFACE
  6
Continuous
 62
     7
100
AcDbLine
 10
134.2318636988059
 20
64.57969750610065
 30
0.0
 11
134.2319143032258
 21
64.6221112465195
 31
0.0
  0
LWPOLYLINE
  5
788
330
1F
100
AcDbEntity
  8
_SURFACE
  6
Continuous
 62
     7
100
AcDbPolyline
 90
        3
 70
     0
 43
0.0
 10
130.2232702123295
 20
87.04449634324047
 10
130.223440542188
 20
87.12901397964236
 10
130.2238206379482
 20
87.45750135669952
  0
LINE
  5
789
330
1F
100
AcDbEntity
  8
_SURFACE
  6
Continuous
 62
     7
100
AcDbLine
 10
134.231720003387
 20
64.51242327184302
 30
0.0
 11
134.2318636988059
 21
64.57969750610065
 31
0.0
  0
LWPOLYLINE
  5
78A
330
1F
100
AcDbEntity
  8
_SURFACE
  6
Continuous
 62
     7
100
AcDbPolyline
 90
        9
 70
     0
 43
0.0
 10
134.22946251489
 20
62.41683285546462
 10
134.2314196331502
 20
62.79275749096125
 10
134.2310350847659
 20
63.16131633220213
 10
134.2292983775481
 20
63.52294135698177
 10
134.2267942017063
 20
63.87777119596141
 10
134.224049073848
 20
64.22627701152162
 10
134.2215331555856
 20
64.56916225666502
 10
134.2194332080474
 20
64.90655575002022
 10
134.2176517307855
 20
65.23810540950073
  0
LINE
  5
78B
330
1F
100
AcDbEntity
  8
_SURFACE
  6
Continuous
 62
     7
100
AcDbLine
 10
134.2307230127447
 20
64.30719014154094
 30
0.0
 11
134.231720003387
 21
64.51242327184302
 31
0.0
  0
LWPOLYLINE
  5
78C
330
1F
100
AcDbEntity
  8
_SURFACE
  6
Continuous
 62
     7
100
AcDbPolyline
 90
        9
 70
     0
 43
0.0
 10
134.2260968116864
 20
63.96630775497981
 10
134.2307728094495
 20
64.4012383786416
 10
134.2302699935865
 20
64.91368955592263
 10
134.2268934496681
 20
65.43927862158163
 10
134.2232811632678
 20
65.97850149792286
 10
134.219860997386
 20
66.53101134031969
 10
134.2166438562456
 20
67.09638487810154
 10
134.213638132009
 20
67.675046009323
 10
134.2108473019291
 20
68.26791588784037
  0
LINE
  5
78D
330
1F
100
AcDbEntity
  8
_SURFACE
  6
Continuous
 62
     7
100
AcDbLine
 10
134.2291881364693
 20
64.14166192802297
 30
0.0
 11
134.2307230127447
 21
64.30719014154094
 31
0.0
  0
LINE
  5
78E
330
1F
100
AcDbEntity
  8
_SURFACE
  6
Continuous
 62
     7
100
AcDbLine
 10
134.2226197599669
 20
61.95852857268111
 30
0.0
 11
134.2307397056286
 21
62.53797246840115
 31
0.0
  0
LINE
  5
78F
330
1F
100
AcDbEntity
  8
_SURFACE
  6
Continuous
 62
     7
100
AcDbLine
 10
134.2242013112885
 20
62.07138902006265
 30
0.0
 11
134.22946251489
 21
62.41683285546462
 31
0.0
  0
LINE
  5
790
330
1F
100
AcDbEntity
  8
_SURFACE
  6
Continuous
 62
     7
100
AcDbLine
 10
134.2271983639696
 20
63.99612341036338
 30
0.0
 11
134.2291881364693
 21
64.14166192802297
 31
0.0
  0
LINE
  5
791
330
1F
100
AcDbEntity
  8
_SURFACE
  6
Continuous
 62
     7
100
AcDbLine
 10
134.2262884038867
 20
63.94198416634246
 30
0.0
 11
134.2271983639696
 21
63.99612341036338
 31
0.0
  0
LINE
  5
792
330
1F
100
AcDbEntity
  8
_SURFACE
  6
Continuous
 62
     7
100
AcDbLine
 10
134.2121512693487
 20
61.64110320804176
 30
0.0
 11
134.2236135730675
 21
62.03279886864258
 31
0.0
  0
LINE
  5
793
330
1F
100
AcDbEntity
  8
_SURFACE
  6
Continuous
 62
     7
100
AcDbLine
 10
134.2020906824076
 20
61.392244813202
 30
0.0
 11
134.2226197599669
 21
61.95852857268111
 31
0.0
  0
LINE
  5
794
330
1F
100
AcDbEntity
  8
_SURFACE
  6
Continuous
 62
     7
100
AcDbLine
 10
134.1931349929257
 20
61.24170717930103
 30
0.0
 11
134.2121512693487
 21
61.64110320804176
 31
0.0
  0
LWPOLYLINE
  5
795
330
1F
100
AcDbEntity
  8
_SURFACE
  6
Continuous
 62
     7
100
AcDbPolyline
 90
        3
 70
     0
 43
0.0
 10
134.1727186761275
 20
60.92996863336013
 10
134.1753780713664
 20
60.98121862230112
 10
134.1779214724268
 20
61.03385519470468
  0
LINE
  5
796
330
1F
100
AcDbEntity
  8
_SURFACE
  6
Continuous
 62
     7
100
AcDbLine
 10
134.166734867926
 20
60.82580649218146
 30
0.0
 11
134.1693295871485
 21
60.86952616090131
 31
0.0
  0
LINE
  5
797
330
1F
100
AcDbEntity
  8
_SURFACE
  6
Continuous
 62
     7
100
AcDbLine
 10
134.1693295871485
 20
60.86952616090131
 30
0.0
 11
134.1727186761275
 21
60.92996863336013
 31
0.0
  0
LWPOLYLINE
  5
798
330
1F
100
AcDbEntity
  8
_SURFACE
  6
Continuous
 62
     7
100
AcDbPolyline
 90
        3
 70
     0
 43
0.0
 10
134.1597732333869
 20
60.71950168066398
 10
134.163383363328
 20
60.77291675798043
 10
134.166734867926
 20
60.82580649218146
  0
LINE
  5
799
330
1F
100
AcDbEntity
  8
_SURFACE
  6
Continuous
 62
     7
100
AcDbLine
 10
134.1646313034255
 20
60.84400692568163
 30
0.0
 11
134.2020906824076
 21
61.392244813202
 31
0.0
  0
LINE
  5
79A
330
1F
100
AcDbEntity
  8
_SURFACE
  6
Continuous
 62
     7
100
AcDbLine
 10
134.1497436166685
 20
60.58708321296073
 30
0.0
 11
134.1693295871485
 21
60.86952616090131
 31
0.0
  0
LINE
  5
79B
330
1F
100
AcDbEntity
  8
_SURFACE
  6
Continuous
 62
     7
100
AcDbLine
 10
134.1632578568463
 20
60.83351620752221
 30
0.0
 11
134.1931349929257
 21
61.24170717930103
 31
0.0
  0
LWPOLYLINE
  5
79C
330
1F
100
AcDbEntity
  8
_SURFACE
  6
Continuous
 62
     7
100
AcDbPolyline
 90
       27
 70
     0
 43
0.0
 10
129.5588938194672
 20
65.48555340584282
 10
129.5464909689875
 20
65.32234069188273
 10
129.5152691797669
 20
65.04880257754341
 10
129.4709950874679
 20
64.7829526444206
 10
129.4133911259671
 20
64.52685789372337
 10
129.3423652355089
 20
64.28310101268145
 10
129.2582243928666
 20
64.05459474122328
 10
129.1613838880478
 20
63.84326198888304
 10
129.0517654357102
 20
63.64946903636012
 10
128.929090095586
 20
63.47345441760118
 10
128.7945772886672
 20
63.3173228528016
 10
128.6507954807242
 20
63.18326200840094
 10
128.4988717739073
 20
63.07035414684143
 10
128.3406288417284
 20
62.97767857654109
 10
128.1823222673086
 20
62.90418469254148
 10
128.0338556351055
 20
62.84846990684529
 10
127.8913551581066
 20
62.80464195792085
 10
127.7380356146062
 20
62.76603081594514
 10
127.567200792448
 20
62.73142065910217
 10
127.3836259144848
 20
62.70213542684216
 10
127.1844066329652
 20
62.67770108150073
 10
126.9688063504293
 20
62.65808614740165
 10
126.7352823597651
 20
62.64312218189882
 10
126.4787008891874
 20
62.63247835254007
 10
126.1958404668478
 20
62.62586606198095
 10
125.8861770755068
 20
62.62250079566221
 10
125.5474287182044
 20
62.62198887135894
  0
LWPOLYLINE
  5
79D
330
1F
100
AcDbEntity
  8
_SURFACE
  6
Continuous
 62
     7
100
AcDbPolyline
 90
        4
 70
     0
 43
0.0
 10
134.1472406752657
 20
60.55620646496247
 10
134.1517172296883
 20
60.61113354586125
 10
134.1558895657656
 20
60.66556976160284
 10
134.1597732333869
 20
60.71950168066398
  0
LINE
  5
79E
330
1F
100
AcDbEntity
  8
_SURFACE
  6
Continuous
 62
     7
100
AcDbLine
 10
134.1493261981453
 20
60.68806659748081
 30
0.0
 11
134.1632578568463
 21
60.83351620752221
 31
0.0
  0
LWPOLYLINE
  5
79F
330
1F
100
AcDbEntity
  8
_SURFACE
  6
Continuous
 62
     7
100
AcDbPolyline
 90
       42
 70
     0
 43
0.0
 10
134.1993842895465
 20
87.16627118478429
 10
134.1989645113684
 20
87.1620135326397
 10
134.1976914176487
 20
87.1577312729809
 10
134.195544162609
 20
87.15343097678344
 10
134.192492068127
 20
87.14910767580152
 10
134.1885183295674
 20
87.14478033622292
 10
134.1836446563068
 20
87.14049115252276
 10
134.1778832276471
 20
87.13625005864235
 10
134.1712517600866
 20
87.13205757528196
 10
134.1638172461283
 20
87.1279403089415
 10
134.1556683520869
 20
87.12392556716297
 10
134.1467992435903
 20
87.11999181582216
 10
134.1371186990694
 20
87.11609336540133
 10
134.1266307368062
 20
87.11223442976045
 10
134.1153399364269
 20
87.10842131064275
 10
134.1030964887289
 20
87.10461654812245
 10
134.0897684305494
 20
87.10080158242128
 10
134.0754169276263
 20
87.09701618740147
 10
134.0601812354655
 20
87.0933108023841
 10
134.0440124616073
 20
87.08968370016229
 10
134.0269500446268
 20
87.08615394090378
 10
134.0093470927898
 20
87.08279255316158
 10
133.9914204357267
 20
87.07962305480252
 10
133.9730974345296
 20
87.07661573036096
 10
133.954345381608
 20
87.07375415112112
 10
133.9353579494275
 20
87.07105702418123
 10
133.9160468882294
 20
87.06850182482087
 10
133.8959019602665
 20
87.06602133448397
 10
133.8748508365063
 20
87.06361560142106
 10
133.8529730113262
 20
87.06130318796423
 10
133.8299230269479
 20
87.05906109948266
 10
133.8054879145277
 20
87.05688931820116
 10
133.7798468507465
 20
87.05482509068172
 10
133.7532399799095
 20
87.05290421314058
 10
133.7255644523287
 20
87.05113462562296
 10
133.6969449007268
 20
87.04954022698295
 10
133.668013706367
 20
87.04816304660054
 10
133.6388332186255
 20
87.04700389474094
 10
133.6094742882672
 20
87.04606365024158
 10
133.5806346507455
 20
87.04535610022359
 10
133.5525965000673
 20
87.04487098816246
 10
133.5252114570469
 20
87.04458939106045
  0
LINE
  5
7A0
330
1F
100
AcDbEntity
  8
_SURFACE
  6
Continuous
 62
     7
100
AcDbLine
 10
134.1486680384262
 20
60.68805432165975
 30
0.0
 11
134.1475517795482
 21
60.6771932333999
 31
0.0
  0
LWPOLYLINE
  5
7A1
330
1F
100
AcDbEntity
  8
_SURFACE
  6
Continuous
 62
     7
100
AcDbPolyline
 90
        6
 70
     0
 43
0.0
 10
134.1197111926088
 20
60.2744331346825
 10
134.1259530698883
 20
60.33171026930215
 10
134.1318150723858
 20
60.3885346590818
 10
134.1373072153295
 20
60.44490064490166
 10
134.1424432629686
 20
60.50079501876318
 10
134.1472406752657
 20
60.55620646496247
  0
LINE
  5
7A2
330
1F
100
AcDbEntity
  8
_SURFACE
  6
Continuous
 62
     7
100
AcDbLine
 10
134.1048986720673
 20
60.32385149406256
 30
0.0
 11
134.1646313034255
 21
60.84400692568163
 31
0.0
  0
LWPOLYLINE
  5
7A3
330
1F
100
AcDbEntity
  8
_SURFACE
  6
Continuous
 62
     7
100
AcDbPolyline
 90
        8
 70
     0
 43
0.0
 10
134.1475517795482
 20
60.6771932333999
 10
134.0980693105669
 20
60.27788264010307
 10
134.0256360238893
 20
59.86067189464158
 10
133.9319085278296
 20
59.46249330314315
 10
133.8141644021273
 20
59.07992395652256
 10
133.6725306848896
 20
58.71619996717929
 10
133.5089394626669
 20
58.37078967756172
 10
133.3817849239861
 20
58.1383765660634
  0
LWPOLYLINE
  5
7A4
330
1F
100
AcDbEntity
  8
_SURFACE
  6
Continuous
 62
     7
100
AcDbPolyline
 90
        3
 70
     0
 43
0.0
 10
134.0850991637893
 20
59.99937598858235
 10
134.1221878094478
 20
60.29656743382513
 10
134.1497436166685
 20
60.58708321296073
  0
LWPOLYLINE
  5
7A5
330
1F
100
AcDbEntity
  8
_SURFACE
  6
Continuous
 62
     7
100
AcDbPolyline
 90
        6
 70
     0
 43
0.0
 10
134.0824676602899
 20
59.98184480444108
 10
134.0907560841481
 20
60.04113659340003
 10
134.0986139932504
 20
60.10006113392084
 10
134.1060521114671
 20
60.15859692236192
 10
134.1130806470649
 20
60.21672251604325
 10
134.1197111926088
 20
60.2744331346825
  0
LINE
  5
7A6
330
1F
100
AcDbEntity
  8
_SURFACE
  6
Continuous
 62
     7
100
AcDbLine
 10
134.036677269269
 20
59.69524724708247
 30
0.0
 11
134.0850991637893
 21
59.99937598858235
 31
0.0
  0
LWPOLYLINE
  5
7A7
330
1F
100
AcDbEntity
  8
_SURFACE
  6
Continuous
 62
     7
100
AcDbPolyline
 90
        6
 70
     0
 43
0.0
 10
134.0368364586868
 20
59.69576238702067
 10
134.0447473369461
 20
59.74128315195996
 10
134.0548892038862
 20
59.80189527863915
 10
134.0645463600888
 20
59.86219998658127
 10
134.0737350310667
 20
59.92219122296084
 10
134.0824676602899
 20
59.98184480444108
  0
LINE
  5
7A8
330
1F
100
AcDbEntity
  8
_SURFACE
  6
Continuous
 62
     7
100
AcDbLine
 10
133.9879689059274
 20
59.44404497325961
 30
0.0
 11
134.036677269269
 21
59.69524724708247
 31
0.0
  0
LINE
  5
7A9
330
1F
100
AcDbEntity
  8
_SURFACE
  6
Continuous
 62
     7
100
AcDbLine
 10
133.9314870224482
 20
59.19510030223903
 30
0.0
 11
133.9879689059274
 21
59.44404497325961
 31
0.0
  0
LINE
  5
7AA
330
1F
100
AcDbEntity
  8
_SURFACE
  6
Continuous
 62
     7
100
AcDbLine
 10
133.8673174886065
 20
58.94831650066264
 30
0.0
 11
133.9314870224482
 21
59.19510030223903
 31
0.0
  0
LINE
  5
7AB
330
1F
100
AcDbEntity
  8
_SURFACE
  6
Continuous
 62
     7
100
AcDbLine
 10
133.7950241457695
 20
58.70120455393991
 30
0.0
 11
133.8673174886065
 21
58.94831650066264
 31
0.0
  0
LWPOLYLINE
  5
7AC
330
1F
100
AcDbEntity
  8
_SURFACE
  6
Continuous
 62
     7
100
AcDbPolyline
 90
       12
 70
     0
 43
0.0
 10
133.1922746527673
 20
57.18860338052256
 10
133.2869729088891
 20
57.38677262604181
 10
133.3817353889065
 20
57.59608761254132
 10
133.4756307154678
 20
57.8157500815236
 10
133.5674730286085
 20
58.04477327346323
 10
133.6560285080889
 20
58.28184300505966
 10
133.7401750504871
 20
58.52590013696174
 10
133.8187302273875
 20
58.77618420078071
 10
133.8905729970868
 20
59.0320369606001
 10
133.9547499578878
 20
59.29254097604136
 10
134.0106771637877
 20
59.55560542070308
 10
134.0368835223492
 20
59.69574239467913
  0
LWPOLYLINE
  5
7AD
330
1F
100
AcDbEntity
  8
_SURFACE
  6
Continuous
 62
     7
100
AcDbPolyline
 90
        8
 70
     0
 43
0.0
 10
133.1999981298252
 20
57.21346655152085
 10
133.2848537894281
 20
57.39087987716122
 10
133.3712822500495
 20
57.58022592976196
 10
133.4589394991674
 20
57.78264175302176
 10
133.5465353996699
 20
57.99724495856428
 10
133.6321547255068
 20
58.22118684240415
 10
133.7155621152054
 20
58.45629385758222
 10
133.7950241457695
 20
58.70120455393991
  0
LINE
  5
7AE
330
1F
100
AcDbEntity
  8
_SURFACE
  6
Continuous
 62
     7
100
AcDbLine
 10
133.141587090948
 20
57.0867700637413
 30
0.0
 11
133.1922746527673
 21
57.18860338052256
 31
0.0
  0
LINE
  5
7AF
330
1F
100
AcDbEntity
  8
_SURFACE
  6
Continuous
 62
     7
100
AcDbLine
 10
133.1173358567469
 20
57.04795177968337
 30
0.0
 11
133.1999981298252
 21
57.21346655152085
 31
0.0
  0
LINE
  5
7B0
330
1F
100
AcDbEntity
  8
_SURFACE
  6
Continuous
 62
     7
100
AcDbLine
 10
133.0954010771459
 20
56.9957873018415
 30
0.0
 11
133.1416012844677
 21
57.0868009704631
 31
0.0
  0
LINE
  5
7B1
330
1F
100
AcDbEntity
  8
_SURFACE
  6
Continuous
 62
     7
100
AcDbLine
 10
133.0539238626664
 20
56.91497612487949
 30
0.0
 11
133.0954010771459
 21
56.9957873018415
 31
0.0
  0
LWPOLYLINE
  5
7B2
330
1F
100
AcDbEntity
  8
_SURFACE
  6
Continuous
 62
     7
100
AcDbPolyline
 90
        6
 70
     0
 43
0.0
 10
133.381806145688
 20
58.13900763668282
 10
133.5828531781883
 20
58.52908577956116
 10
133.7690106900484
 20
58.96523410970115
 10
133.912283075588
 20
59.40096913104063
 10
134.0214577010268
 20
59.84600371213893
 10
134.1048986720673
 20
60.32385149406256
  0
LINE
  5
7B3
330
1F
100
AcDbEntity
  8
_SURFACE
  6
Continuous
 62
     7
100
AcDbLine
 10
134.0365732054673
 20
59.69526574082049
 30
0.0
 11
134.0368343911289
 21
59.69575114244292
 31
0.0
  0
LWPOLYLINE
  5
7B4
330
1F
100
AcDbEntity
  8
_SURFACE
  6
Continuous
 62
     7
100
AcDbPolyline
 90
        5
 70
     0
 43
0.0
 10
133.3817849239861
 20
58.1383765660634
 10
133.3206935983656
 20
58.03524185234202
 10
133.1067328604297
 20
57.70854600840396
 10
132.8700241669688
 20
57.39633926934259
 10
132.6120456608262
 20
57.10087618996332
  0
LINE
  5
7B5
330
1F
100
AcDbEntity
  8
_SURFACE
  6
Continuous
 62
     7
100
AcDbLine
 10
133.117334327668
 20
57.04795290235999
 30
0.0
 11
133.141587090948
 21
57.0867700637413
 31
0.0
  0
LWPOLYLINE
  5
7B6
330
1F
100
AcDbEntity
  8
_SURFACE
  6
Continuous
 62
     7
100
AcDbPolyline
 90
        8
 70
     0
 43
0.0
 10
132.635281263327
 20
56.19319110922008
 10
132.6825271454657
 20
56.26063469290095
 10
132.7382312606244
 20
56.34870160846041
 10
132.8014658992072
 20
56.45602285178249
 10
132.8714114133693
 20
56.58069372258108
 10
132.9476261174243
 20
56.72137208740098
 10
133.0297695904267
 20
56.87743396476292
 10
133.1173357221271
 20
57.04795183302342
  0
LWPOLYLINE
  5
7B7
330
1F
100
AcDbEntity
  8
_SURFACE
  6
Continuous
 62
     7
100
AcDbPolyline
 90
       15
 70
     0
 43
0.0
 10
132.6267019688278
 20
56.18206107052031
 10
132.6492513750893
 20
56.21185138686126
 10
132.6747089416461
 20
56.24752419588041
 10
132.7004682449663
 20
56.28558787641889
 10
132.7263490364897
 20
56.32558110860047
 10
132.753095531127
 20
56.36850332908436
 10
132.7808666719286
 20
56.41452958958182
 10
132.8096677903489
 20
56.46360211272114
 10
132.8398687510274
 20
56.51631258388299
 10
132.8715761425267
 20
56.5728391713623
 10
132.9047694467265
 20
56.63314320112333
 10
132.9395789072044
 20
56.69746600364162
 10
132.9760368353057
 20
56.76587000704095
 10
133.0141374398266
 20
56.83834430455902
 10
133.0539238626664
 20
56.91497612487949
  0
LINE
  5
7B8
330
1F
100
AcDbEntity
  8
_SURFACE
  6
Continuous
 62
     7
100
AcDbLine
 10
132.6275426580253
 20
56.18308388280131
 30
0.0
 11
132.635281263327
 21
56.19319110922008
 31
0.0
  0
LINE
  5
7B9
330
1F
100
AcDbEntity
  8
_SURFACE
  6
Continuous
 62
     7
100
AcDbLine
 10
132.6266490555465
 20
56.18193864252173
 30
0.0
 11
132.6275426580253
 21
56.18308388280131
 31
0.0
  0
LWPOLYLINE
  5
7BA
330
1F
100
AcDbEntity
  8
_SURFACE
  6
Continuous
 62
     7
100
AcDbPolyline
 90
       18
 70
     0
 43
0.0
 10
132.1203015871654
 20
57.45015459732387
 10
132.3542023919074
 20
57.72807651290206
 10
132.5658099392279
 20
58.0180211832034
 10
132.7551242291268
 20
58.31998860822061
 10
132.9222678851877
 20
58.63413886384153
 10
133.0671182838271
 20
58.96031187164265
 10
133.189307564466
 20
59.2980274090609
 10
133.2861998395677
 20
59.64625071820266
 10
133.3604309966688
 20
60.00601655696157
 10
133.419540830186
 20
60.37994897648461
 10
133.463838742606
 20
60.76909945802474
 10
133.4930153289063
 20
61.17241652032173
 10
133.5136821786075
 20
61.58936976820261
 10
133.5261338885287
 20
62.01989188658119
 10
133.5300758593042
 20
62.46405019054002
 10
133.5312358747654
 20
62.92151621236046
 10
133.5306565515678
 20
63.39165934370105
 10
133.5237519628866
 20
64.37343213504066
  0
LWPOLYLINE
  5
7BB
330
1F
100
AcDbEntity
  8
_SURFACE
  6
Continuous
 62
     7
100
AcDbPolyline
 90
       19
 70
     0
 43
0.0
 10
132.6120456608262
 20
57.10087618996332
 10
132.3330600186457
 20
56.82192585378145
 10
132.0403556104068
 20
56.56562522592359
 10
131.7360675245475
 20
56.33356106470312
 10
131.4249532496472
 20
56.12872166488016
 10
131.1065616563067
 20
55.949669000382
 10
130.7740054532444
 20
55.79246009204364
 10
130.4288645941272
 20
55.6588559269425
 10
130.0722133313068
 20
55.5482115584404
 10
129.6947218053686
 20
55.45659220142117
 10
129.2958373885051
 20
55.38380638052188
 10
128.8805074597078
 20
55.32965185332288
 10
128.4475883255475
 20
55.29243483606335
 10
127.9982672074296
 20
55.27065736628212
 10
127.5351889463857
 20
55.26249216036233
 10
127.0594917697674
 20
55.26491770542127
 10
126.5706672229065
 20
55.27360709114002
 10
126.0665362372677
 20
55.28302201770059
 10
125.5456649803057
 20
55.2878928182203
  0
LWPOLYLINE
  5
7BC
330
1F
100
AcDbEntity
  8
_SURFACE
  6
Continuous
 62
     7
100
AcDbPolyline
 90
       42
 70
     0
 43
0.0
 10
133.5487618747686
 20
87.80639622152232
 10
133.5489647775869
 20
87.80598863788183
 10
133.5490634286473
 20
87.80562004832102
 10
133.5490578304855
 20
87.8052904528435
 10
133.5489375360888
 20
87.80501478664374
 10
133.5487129924698
 20
87.80477811706298
 10
133.5484155356065
 20
87.8045356334209
 10
133.548075282288
 20
87.80428092984077
 10
133.5476621208075
 20
87.80402041728159
 10
133.5471170342683
 20
87.80372850270071
 10
133.5464056234453
 20
87.80338683206212
 10
133.5455622901066
 20
87.80301376194113
 10
133.5446312124662
 20
87.80263877412146
 10
133.5435762336276
 20
87.80225697402277
 10
133.5424335104874
 20
87.80187325876106
 10
133.541355704667
 20
87.80153180148266
 10
133.5403815537068
 20
87.80124834764357
 10
133.5394723200664
 20
87.80100715178052
 10
133.5386644451285
 20
87.80080516843957
 10
133.538042571847
 20
87.80065717280233
 10
133.5375220598074
 20
87.80054839222286
 10
133.5368854164265
 20
87.80043145570237
 10
133.5361009171068
 20
87.80029565205989
 10
133.5352002889888
 20
87.80015169248365
 10
133.5340612209077
 20
87.79998435982127
 10
133.5326148331481
 20
87.79978120300295
 10
133.5309300079682
 20
87.79955467310212
 10
133.5290910708284
 20
87.7993269011444
 10
133.5270882122461
 20
87.79910026964209
 10
133.5249312417075
 20
87.79887239862221
 10
133.5227339410488
 20
87.79865828678378
 10
133.5205147633681
 20
87.79846080686404
 10
133.5182552504851
 20
87.79827708612213
 10
133.5160138224058
 20
87.79811350250239
 10
133.5138070653268
 20
87.79797290334174
 10
133.5116183905086
 20
87.79785244129964
 10
133.509456441567
 20
87.79774995230257
 10
133.5072696946084
 20
87.79766525600136
 10
133.5051096760656
 20
87.79759853528087
 10
133.5031396088855
 20
87.79754818232179
 10
133.5014139049493
 20
87.79751365864141
 10
133.4998781498255
 20
87.79749550526178
  0
LWPOLYLINE
  5
7BD
330
1F
100
AcDbEntity
  8
_SURFACE
  6
Continuous
 62
     7
100
AcDbPolyline
 90
       16
 70
     0
 43
0.0
 10
129.5220421354864
 20
79.92820051236269
 10
129.5257378888275
 20
79.91665759666505
 10
129.5368917984454
 20
79.90386923260159
 10
129.5555863254451
 20
79.89070731328176
 10
129.5818161104292
 20
79.87836812790049
 10
129.6154085654673
 20
79.86715302460145
 10
129.6559866529681
 20
79.85638455744122
 10
129.7032835459288
 20
79.84598916548058
 10
129.756721976006
 20
79.83679733220417
 10
129.8151680592676
 20
79.82903466294231
 10
129.8776459353287
 20
79.82214270822298
 10
129.9434470686468
 20
79.81617501632211
 10
130.0115904553461
 20
79.81194406466094
 10
130.0813151342884
 20
79.80942015048497
 10
130.1520723359284
 20
79.8076875529827
 10
130.2232704333076
 20
79.80616168353883
  0
ARC
  5
7BE
330
1F
100
AcDbEntity
  8
_SURFACE
  6
Continuous
 62
     7
100
AcDbCircle
 10
133.072572651887
 20
85.74434575330307
 30
0.0
 40
1.3765624996
100
AcDbArc
 50
340.2319858886995
 51
35.14211790090566
  0
ARC
  5
7BF
330
1F
100
AcDbEntity
  8
_SURFACE
  6
Continuous
 62
     7
100
AcDbCircle
 10
133.072572651887
 20
84.81341593622202
 30
0.0
 40
1.3765624996
100
AcDbArc
 50
324.8578834327058
 51
35.14211462380064
  0
ARC
  5
7C0
330
1F
100
AcDbEntity
  8
_SURFACE
  6
Continuous
 62
     7
100
AcDbCircle
 10
125.5503775134278
 20
54.75490584762012
 30
0.0
 40
0.70116458192
100
AcDbArc
 50
180.0002383937986
 51
269.0134464906005
  0
ENDSEC
  0
SECTION
  2
OBJECTS
  0
DICTIONARY
  5
C
330
0
100
AcDbDictionary
281
     1
  3
ACAD_COLOR
350
C9
  3
ACAD_GROUP
350
D
  3
ACAD_LAYOUT
350
1A
  3
ACAD_MATERIAL
350
C8
  3
ACAD_MLEADERSTYLE
350
2EC
  3
ACAD_MLINESTYLE
350
17
  3
ACAD_PLOTSETTINGS
350
19
  3
ACAD_PLOTSTYLENAME
350
E
  3
ACAD_SCALELIST
350
2CA
  3
ACAD_TABLESTYLE
350
123
  3
ACAD_VISUALSTYLE
350
296
  3
ACDB_RECOMPOSE_DATA
350
30D
  3
AcDbVariableDictionary
350
9E
  3
AcmDictionary
350
63
  3
AMG
350
49
  3
AMGSNAPSETTINGS
350
5A7
  0
DICTIONARY
  5
38E
330
2
100
AcDbDictionary
280
     1
281
     1
  3
ACAD_LAYERSTATES
360
38F
  0
DICTIONARY
  5
7C1
330
10
100
AcDbDictionary
280
     1
281
     1
  3
ADSK_XREC_LAYER_RECONCILED
360
7C2
  0
DICTIONARY
  5
38D
330
38C
100
AcDbDictionary
280
     1
281
     1
  3
ADSK_XREC_LAYER_RECONCILED
360
7C3
  0
DICTIONARY
  5
99
330
1F
100
AcDbDictionary
280
     1
281
     1
  0
DICTIONARY
  5
C9
102
{ACAD_REACTORS
330
C
102
}
330
C
100
AcDbDictionary
281
     1
  0
DICTIONARY
  5
D
102
{ACAD_REACTORS
330
C
102
}
330
C
100
AcDbDictionary
281
     1
  0
DICTIONARY
  5
1A
102
{ACAD_REACTORS
330
C
102
}
330
C
100
AcDbDictionary
281
     1
  3
Layout1
350
1E
  3
Layout2
350
26
  3
Model
350
22
  0
DICTIONARY
  5
C8
102
{ACAD_REACTORS
330
C
102
}
330
C
100
AcDbDictionary
281
     1
  3
ByBlock
350
294
  3
ByLayer
350
293
  3
Global
350
295
  0
DICTIONARY
  5
2EC
102
{ACAD_REACTORS
330
C
102
}
330
C
100
AcDbDictionary
281
     1
  3
Standard
350
2ED
  0
DICTIONARY
  5
17
102
{ACAD_REACTORS
330
C
102
}
330
C
100
AcDbDictionary
281
     1
  3
Standard
350
18
  0
DICTIONARY
  5
19
102
{ACAD_REACTORS
330
C
102
}
330
C
100
AcDbDictionary
281
     1
  0
ACDBDICTIONARYWDFLT
  5
E
102
{ACAD_REACTORS
330
C
102
}
330
C
100
AcDbDictionary
281
     1
  3
Normal
350
F
100
AcDbDictionaryWithDefault
340
F
  0
DICTIONARY
  5
2CA
102
{ACAD_REACTORS
330
C
102
}
330
C
100
AcDbDictionary
281
     1
  3
A0
350
2CB
  3
A1
350
2CC
  3
A2
350
2CD
  3
A3
350
2CE
  3
A4
350
2CF
  3
A5
350
2D0
  3
A6
350
2D1
  3
A7
350
2D2
  3
A8
350
2D3
  3
A9
350
2D4
  3
B0
350
2D5
  3
B1
350
2D6
  3
B2
350
2D7
  3
B3
350
2D8
  3
B4
350
2D9
  3
B5
350
2DA
  3
B6
350
2DB
  3
B7
350
2DC
  3
B8
350
2DD
  3
B9
350
2DE
  3
C0
350
2DF
  3
C1
350
2E0
  3
C2
350
2E1
  3
C3
350
2E2
  3
C4
350
2E3
  3
C5
350
2E4
  3
C6
350
2E5
  3
C7
350
2E6
  3
C8
350
2E7
  3
C9
350
2E8
  3
D0
350
2E9
  3
D1
350
2EA
  3
D2
350
2EB
  0
DICTIONARY
  5
123
102
{ACAD_REACTORS
330
C
102
}
330
C
100
AcDbDictionary
281
     1
  3
Standard
350
124
  0
DICTIONARY
  5
296
102
{ACAD_REACTORS
330
C
102
}
330
C
100
AcDbDictionary
281
     1
  3
2dWireframe
350
29C
  3
3D Hidden
350
29E
  3
3dWireframe
350
29D
  3
Basic
350
29B
  3
Brighten
350
2A2
  3
ColorChange
350
2A6
  3
Conceptual
350
29F
  3
Dim
350
2A1
  3
Facepattern
350
2A5
  3
Flat
350
297
  3
FlatWithEdges
350
298
  3
Gouraud
350
299
  3
GouraudWithEdges
350
29A
  3
Linepattern
350
2A4
  3
Realistic
350
2A0
  3
Thicken
350
2A3
  0
XRECORD
  5
30D
102
{ACAD_REACTORS
330
C
102
}
330
C
100
AcDbXrecord
280
     1
 90
        1
330
124
  0
DICTIONARY
  5
9E
102
{ACAD_REACTORS
330
C
102
}
330
C
100
AcDbDictionary
281
     1
  3
CANNOSCALE
350
310
  3
CMLEADERSTYLE
350
30E
  3
CTABLESTYLE
350
144
  3
DIMASSOC
350
A0
  3
INDEXCTL
350
9F
  3
LAYEREVAL
350
36B
  3
LAYERNOTIFY
350
36C
  3
LIGHTINGUNITS
350
311
  3
MSLTSCALE
350
30F
  0
DICTIONARY
  5
63
102
{ACAD_REACTORS
330
C
102
}
330
C
100
AcDbDictionary
281
     1
  3
AcmStdDictionary
350
69
  3
AMDTSECTSYM_ARROWCOLOR
350
12C
  0
DICTIONARY
  5
49
102
{ACAD_REACTORS
330
C
102
}
330
C
100
AcDbDictionary
281
     1
  0
DICTIONARY
  5
5A7
102
{ACAD_REACTORS
330
C
102
}
330
C
100
AcDbDictionary
281
     1
  0
DICTIONARY
  5
38F
102
{ACAD_REACTORS
330
38E
102
}
330
38E
100
AcDbDictionary
281
     1
  0
XRECORD
  5
7C2
102
{ACAD_REACTORS
330
7C1
102
}
330
7C1
100
AcDbXrecord
280
     1
290
     1
  0
XRECORD
  5
7C3
102
{ACAD_REACTORS
330
38D
102
}
330
38D
100
AcDbXrecord
280
     1
290
     1
  0
LAYOUT
  5
1E
102
{ACAD_REACTORS
330
1A
102
}
330
1A
100
AcDbPlotSettings
  1

  2

  4

  6

 40
0.0
 41
0.0
 42
0.0
 43
0.0
 44
0.0
 45
0.0
 46
0.0
 47
0.0
 48
0.0
 49
0.0
140
0.0
141
0.0
142
1.0
143
1.0
 70
   688
 72
     0
 73
     0
 74
     5
  7

 75
    16
147
1.0
 76
     0
 77
     2
 78
   300
148
0.0
149
0.0
100
AcDbLayout
  1
Layout1
 70
     1
 71
     1
 10
0.0
 20
0.0
 11
12.0
 21
9.0
 12
0.0
 22
0.0
 32
0.0
 14
1.000000000000000E+20
 24
1.000000000000000E+20
 34
1.000000000000000E+20
 15
-1.000000000000000E+20
 25
-1.000000000000000E+20
 35
-1.000000000000000E+20
146
0.0
 13
0.0
 23
0.0
 33
0.0
 16
1.0
 26
0.0
 36
0.0
 17
0.0
 27
1.0
 37
0.0
 76
     0
330
1B
  0
LAYOUT
  5
26
102
{ACAD_REACTORS
330
1A
102
}
330
1A
100
AcDbPlotSettings
  1

  2

  4

  6

 40
0.0
 41
0.0
 42
0.0
 43
0.0
 44
0.0
 45
0.0
 46
0.0
 47
0.0
 48
0.0
 49
0.0
140
0.0
141
0.0
142
1.0
143
1.0
 70
   688
 72
     0
 73
     0
 74
     5
  7

 75
    16
147
1.0
 76
     0
 77
     2
 78
   300
148
0.0
149
0.0
100
AcDbLayout
  1
Layout2
 70
     1
 71
     2
 10
0.0
 20
0.0
 11
12.0
 21
9.0
 12
0.0
 22
0.0
 32
0.0
 14
0.0
 24
0.0
 34
0.0
 15
0.0
 25
0.0
 35
0.0
146
0.0
 13
0.0
 23
0.0
 33
0.0
 16
1.0
 26
0.0
 36
0.0
 17
0.0
 27
1.0
 37
0.0
 76
     0
330
23
  0
LAYOUT
  5
22
102
{ACAD_REACTORS
330
1A
102
}
330
1A
100
AcDbPlotSettings
  1

  2

  4

  6

 40
0.0
 41
0.0
 42
0.0
 43
0.0
 44
0.0
 45
0.0
 46
0.0
 47
0.0
 48
0.0
 49
0.0
140
0.0
141
0.0
142
1.0
143
1.0
 70
  1712
 72
     0
 73
     0
 74
     0
  7

 75
     0
147
1.0
 76
     0
 77
     2
 78
   300
148
0.0
149
0.0
100
AcDbLayout
  1
Model
 70
     1
 71
     0
 10
0.0
 20
0.0
 11
12.0
 21
9.0
 12
0.0
 22
0.0
 32
0.0
 14
0.0
 24
0.0
 34
0.0
 15
0.0
 25
0.0
 35
0.0
146
0.0
 13
0.0
 23
0.0
 33
0.0
 16
1.0
 26
0.0
 36
0.0
 17
0.0
 27
1.0
 37
0.0
 76
     0
330
1F
331
291
  0
MATERIAL
  5
294
102
{ACAD_REACTORS
330
C8
102
}
330
C8
100
AcDbMaterial
  1
ByBlock
 73
     1
 78
     1
172
     1
176
     1
270
     1
274
     1
 94
       63
  0
MATERIAL
  5
293
102
{ACAD_REACTORS
330
C8
102
}
330
C8
100
AcDbMaterial
  1
ByLayer
 73
     1
 78
     1
172
     1
176
     1
270
     1
274
     1
 94
       63
  0
MATERIAL
  5
295
102
{ACAD_REACTORS
330
C8
102
}
330
C8
100
AcDbMaterial
  1
Global
 73
     1
 78
     1
172
     1
176
     1
270
     1
274
     1
 94
       63
  0
MLEADERSTYLE
  5
2ED
102
{ACAD_REACTORS
330
2EC
102
}
330
2EC
100
AcDbMLeaderStyle
170
     2
171
     1
172
     0
 90
        2
 40
0.0
 41
0.0
173
     1
 91
-1056964608
340
14
 92
       -2
290
     1
 42
0.09
291
     1
 43
0.36
  3
Standard
 44
0.18
300

342
11
174
     1
178
     6
175
     1
176
     0
 93
-1056964608
 45
0.18
292
     0
297
     0
 46
0.18
 94
-1056964608
 47
1.0
 49
1.0
140
1.0
293
     1
141
0.0
294
     1
177
     0
142
1.0
295
     0
296
     0
143
0.125
1001
ACAD_MLEADERVER
1070
     2
  0
MLINESTYLE
  5
18
102
{ACAD_REACTORS
330
17
102
}
330
17
100
AcDbMlineStyle
  2
STANDARD
 70
     0
  3

 62
   256
 51
90.0
 52
90.0
 71
     2
 49
0.5
 62
   256
  6
BYLAYER
 49
-0.5
 62
   256
  6
BYLAYER
  0
ACDBPLACEHOLDER
  5
F
102
{ACAD_REACTORS
330
E
102
}
330
E
  0
SCALE
  5
2CB
102
{ACAD_REACTORS
330
2CA
102
}
330
2CA
100
AcDbScale
 70
     0
300
1:1
140
1.0
141
1.0
290
     1
  0
SCALE
  5
2CC
102
{ACAD_REACTORS
330
2CA
102
}
330
2CA
100
AcDbScale
 70
     0
300
1:2
140
1.0
141
2.0
290
     0
  0
SCALE
  5
2CD
102
{ACAD_REACTORS
330
2CA
102
}
330
2CA
100
AcDbScale
 70
     0
300
1:4
140
1.0
141
4.0
290
     0
  0
SCALE
  5
2CE
102
{ACAD_REACTORS
330
2CA
102
}
330
2CA
100
AcDbScale
 70
     0
300
1:5
140
1.0
141
5.0
290
     0
  0
SCALE
  5
2CF
102
{ACAD_REACTORS
330
2CA
102
}
330
2CA
100
AcDbScale
 70
     0
300
1:8
140
1.0
141
8.0
290
     0
  0
SCALE
  5
2D0
102
{ACAD_REACTORS
330
2CA
102
}
330
2CA
100
AcDbScale
 70
     0
300
1:10
140
1.0
141
10.0
290
     0
  0
SCALE
  5
2D1
102
{ACAD_REACTORS
330
2CA
102
}
330
2CA
100
AcDbScale
 70
     0
300
1:16
140
1.0
141
16.0
290
     0
  0
SCALE
  5
2D2
102
{ACAD_REACTORS
330
2CA
102
}
330
2CA
100
AcDbScale
 70
     0
300
1:20
140
1.0
141
20.0
290
     0
  0
SCALE
  5
2D3
102
{ACAD_REACTORS
330
2CA
102
}
330
2CA
100
AcDbScale
 70
     0
300
1:30
140
1.0
141
30.0
290
     0
  0
SCALE
  5
2D4
102
{ACAD_REACTORS
330
2CA
102
}
330
2CA
100
AcDbScale
 70
     0
300
1:40
140
1.0
141
40.0
290
     0
  0
SCALE
  5
2D5
102
{ACAD_REACTORS
330
2CA
102
}
330
2CA
100
AcDbScale
 70
     0
300
1:50
140
1.0
141
50.0
290
     0
  0
SCALE
  5
2D6
102
{ACAD_REACTORS
330
2CA
102
}
330
2CA
100
AcDbScale
 70
     0
300
1:100
140
1.0
141
100.0
290
     0
  0
SCALE
  5
2D7
102
{ACAD_REACTORS
330
2CA
102
}
330
2CA
100
AcDbScale
 70
     0
300
2:1
140
2.0
141
1.0
290
     0
  0
SCALE
  5
2D8
102
{ACAD_REACTORS
330
2CA
102
}
330
2CA
100
AcDbScale
 70
     0
300
4:1
140
4.0
141
1.0
290
     0
  0
SCALE
  5
2D9
102
{ACAD_REACTORS
330
2CA
102
}
330
2CA
100
AcDbScale
 70
     0
300
8:1
140
8.0
141
1.0
290
     0
  0
SCALE
  5
2DA
102
{ACAD_REACTORS
330
2CA
102
}
330
2CA
100
AcDbScale
 70
     0
300
10:1
140
10.0
141
1.0
290
     0
  0
SCALE
  5
2DB
102
{ACAD_REACTORS
330
2CA
102
}
330
2CA
100
AcDbScale
 70
     0
300
100:1
140
100.0
141
1.0
290
     0
  0
SCALE
  5
2DC
102
{ACAD_REACTORS
330
2CA
102
}
330
2CA
100
AcDbScale
 70
     0
300
1/128" = 1'-0"
140
0.0078125
141
12.0
290
     0
  0
SCALE
  5
2DD
102
{ACAD_REACTORS
330
2CA
102
}
330
2CA
100
AcDbScale
 70
     0
300
1/64" = 1'-0"
140
0.015625
141
12.0
290
     0
  0
SCALE
  5
2DE
102
{ACAD_REACTORS
330
2CA
102
}
330
2CA
100
AcDbScale
 70
     0
300
1/32" = 1'-0"
140
0.03125
141
12.0
290
     0
  0
SCALE
  5
2DF
102
{ACAD_REACTORS
330
2CA
102
}
330
2CA
100
AcDbScale
 70
     0
300
1/16" = 1'-0"
140
0.0625
141
12.0
290
     0
  0
SCALE
  5
2E0
102
{ACAD_REACTORS
330
2CA
102
}
330
2CA
100
AcDbScale
 70
     0
300
3/32" = 1'-0"
140
0.09375
141
12.0
290
     0
  0
SCALE
  5
2E1
102
{ACAD_REACTORS
330
2CA
102
}
330
2CA
100
AcDbScale
 70
     0
300
1/8" = 1'-0"
140
0.125
141
12.0
290
     0
  0
SCALE
  5
2E2
102
{ACAD_REACTORS
330
2CA
102
}
330
2CA
100
AcDbScale
 70
     0
300
3/16" = 1'-0"
140
0.1875
141
12.0
290
     0
  0
SCALE
  5
2E3
102
{ACAD_REACTORS
330
2CA
102
}
330
2CA
100
AcDbScale
 70
     0
300
1/4" = 1'-0"
140
0.25
141
12.0
290
     0
  0
SCALE
  5
2E4
102
{ACAD_REACTORS
330
2CA
102
}
330
2CA
100
AcDbScale
 70
     0
300
3/8" = 1'-0"
140
0.375
141
12.0
290
     0
  0
SCALE
  5
2E5
102
{ACAD_REACTORS
330
2CA
102
}
330
2CA
100
AcDbScale
 70
     0
300
1/2" = 1'-0"
140
0.5
141
12.0
290
     0
  0
SCALE
  5
2E6
102
{ACAD_REACTORS
330
2CA
102
}
330
2CA
100
AcDbScale
 70
     0
300
3/4" = 1'-0"
140
0.75
141
12.0
290
     0
  0
SCALE
  5
2E7
102
{ACAD_REACTORS
330
2CA
102
}
330
2CA
100
AcDbScale
 70
     0
300
1" = 1'-0"
140
1.0
141
12.0
290
     0
  0
SCALE
  5
2E8
102
{ACAD_REACTORS
330
2CA
102
}
330
2CA
100
AcDbScale
 70
     0
300
1-1/2" = 1'-0"
140
1.5
141
12.0
290
     0
  0
SCALE
  5
2E9
102
{ACAD_REACTORS
330
2CA
102
}
330
2CA
100
AcDbScale
 70
     0
300
3" = 1'-0"
140
3.0
141
12.0
290
     0
  0
SCALE
  5
2EA
102
{ACAD_REACTORS
330
2CA
102
}
330
2CA
100
AcDbScale
 70
     0
300
6" = 1'-0"
140
6.0
141
12.0
290
     0
  0
SCALE
  5
2EB
102
{ACAD_REACTORS
330
2CA
102
}
330
2CA
100
AcDbScale
 70
     0
300
1'-0" = 1'-0"
140
12.0
141
12.0
290
     0
  0
TABLESTYLE
  5
124
102
{ACAD_XDICTIONARY
360
30B
102
}
102
{ACAD_REACTORS
330
123
102
}
330
123
100
AcDbTableStyle
  3
Standard
 70
     0
 71
     0
 40
0.06
 41
0.06
280
     0
281
     0
  7
STANDARD
140
0.18
170
     2
 62
     0
 63
     7
283
     0
 90
      512
 91
        0
  1

274
    -2
284
     1
 64
     0
275
    -2
285
     1
 65
     0
276
    -2
286
     1
 66
     0
277
    -2
287
     1
 67
     0
278
    -2
288
     1
 68
     0
279
    -2
289
     1
 69
     0
  7
STANDARD
140
0.25
170
     5
 62
     0
 63
     7
283
     0
 90
      512
 91
        0
  1

274
    -2
284
     1
 64
     0
275
    -2
285
     1
 65
     0
276
    -2
286
     1
 66
     0
277
    -2
287
     1
 67
     0
278
    -2
288
     1
 68
     0
279
    -2
289
     1
 69
     0
  7
STANDARD
140
0.18
170
     5
 62
     0
 63
     7
283
     0
 90
      512
 91
        0
  1

274
    -2
284
     1
 64
     0
275
    -2
285
     1
 65
     0
276
    -2
286
     1
 66
     0
277
    -2
287
     1
 67
     0
278
    -2
288
     1
 68
     0
279
    -2
289
     1
 69
     0
  0
VISUALSTYLE
  5
29C
102
{ACAD_REACTORS
330
296
102
}
330
296
100
AcDbVisualStyle
  2
2dWireframe
 70
     4
 71
     0
 72
     2
 73
     0
 90
        0
 40
-0.6
 41
-30.0
 62
     5
 63
     7
421
 16777215
 74
     1
 91
        4
 64
     7
 65
   257
 75
     1
175
     1
 42
1.0
 92
        0
 66
   257
 43
1.0
 76
     1
 77
     6
 78
     2
 67
     7
 79
     5
170
     0
171
     0
290
     0
174
     0
 93
        1
 44
0.0
173
     0
291
     0
 45
0.0
  0
VISUALSTYLE
  5
29E
102
{ACAD_REACTORS
330
296
102
}
330
296
100
AcDbVisualStyle
  2
3D Hidden
 70
     6
 71
     1
 72
     2
 73
     2
 90
        0
 40
-0.6
 41
-30.0
 62
     5
 63
     7
421
 16777215
 74
     2
 91
        2
 64
     7
 65
   257
 75
     2
175
     1
 42
40.0
 92
        0
 66
   257
 43
1.0
 76
     1
 77
     6
 78
     2
 67
     7
 79
     3
170
     0
171
     0
290
     0
174
     0
 93
        1
 44
0.0
173
     0
291
     0
 45
0.0
  0
VISUALSTYLE
  5
29D
102
{ACAD_REACTORS
330
296
102
}
330
296
100
AcDbVisualStyle
  2
3dWireframe
 70
     5
 71
     0
 72
     2
 73
     0
 90
        0
 40
-0.6
 41
-30.0
 62
     5
 63
     7
421
 16777215
 74
     1
 91
        4
 64
     7
 65
   257
 75
     1
175
     1
 42
1.0
 92
        0
 66
   257
 43
1.0
 76
     1
 77
     6
 78
     2
 67
     7
 79
     5
170
     0
171
     0
290
     0
174
     0
 93
        1
 44
0.0
173
     0
291
     0
 45
0.0
  0
VISUALSTYLE
  5
29B
102
{ACAD_REACTORS
330
296
102
}
330
296
100
AcDbVisualStyle
  2
Basic
 70
     7
 71
     1
 72
     0
 73
     1
 90
        0
 40
-0.6
 41
-30.0
 62
     5
 63
     7
421
 16777215
 74
     0
 91
        4
 64
     7
 65
   257
 75
     1
175
     1
 42
1.0
 92
        8
 66
     7
 43
1.0
 76
     1
 77
     6
 78
     2
 67
     7
 79
     5
170
     0
171
     0
290
     0
174
     0
 93
        1
 44
0.0
173
     0
291
     1
 45
0.0
  0
VISUALSTYLE
  5
2A2
102
{ACAD_REACTORS
330
296
102
}
330
296
100
AcDbVisualStyle
  2
Brighten
 70
    12
 71
     2
 72
     2
 73
     0
 90
        0
 40
-0.6
 41
-30.0
 62
     5
 63
     7
421
 16777215
 74
     1
 91
        4
 64
     7
 65
   257
 75
     1
175
     1
 42
1.0
 92
        8
 66
     7
 43
1.0
 76
     1
 77
     6
 78
     2
 67
     7
 79
     5
170
     0
171
     0
290
     0
174
     0
 93
        1
 44
50.0
173
     0
291
     1
 45
0.0
  0
VISUALSTYLE
  5
2A6
102
{ACAD_REACTORS
330
296
102
}
330
296
100
AcDbVisualStyle
  2
ColorChange
 70
    16
 71
     2
 72
     2
 73
     3
 90
        0
 40
-0.6
 41
-30.0
 62
     5
 63
     8
421
  8421504
 74
     1
 91
        4
 64
     7
 65
   257
 75
     1
175
     1
 42
1.0
 92
        8
 66
     8
424
  8421504
 43
1.0
 76
     1
 77
     6
 78
     2
 67
     7
 79
     5
170
     0
171
     0
290
     0
174
     0
 93
        1
 44
0.0
173
     0
291
     1
 45
0.0
  0
VISUALSTYLE
  5
29F
102
{ACAD_REACTORS
330
296
102
}
330
296
100
AcDbVisualStyle
  2
Conceptual
 70
     9
 71
     3
 72
     2
 73
     0
 90
        0
 40
-0.6
 41
-30.0
 62
     5
 63
     7
421
 16777215
 74
     2
 91
        2
 64
     7
 65
   257
 75
     1
175
     1
 42
40.0
 92
        8
 66
     7
 43
1.0
 76
     1
 77
     6
 78
     2
 67
     7
 79
     3
170
     0
171
     0
290
     0
174
     0
 93
        1
 44
0.0
173
     0
291
     0
 45
0.0
  0
VISUALSTYLE
  5
2A1
102
{ACAD_REACTORS
330
296
102
}
330
296
100
AcDbVisualStyle
  2
Dim
 70
    11
 71
     2
 72
     2
 73
     0
 90
        0
 40
-0.6
 41
-30.0
 62
     5
 63
     7
421
 16777215
 74
     1
 91
        4
 64
     7
 65
   257
 75
     1
175
     1
 42
1.0
 92
        8
 66
     7
 43
1.0
 76
     1
 77
     6
 78
     2
 67
     7
 79
     5
170
     0
171
     0
290
     0
174
     0
 93
        1
 44
-50.0
173
     0
291
     1
 45
0.0
  0
VISUALSTYLE
  5
2A5
102
{ACAD_REACTORS
330
296
102
}
330
296
100
AcDbVisualStyle
  2
Facepattern
 70
    15
 71
     2
 72
     2
 73
     0
 90
        0
 40
-0.6
 41
-30.0
 62
     5
 63
     7
421
 16777215
 74
     1
 91
        4
 64
     7
 65
   257
 75
     1
175
     1
 42
1.0
 92
        8
 66
     7
 43
1.0
 76
     1
 77
     6
 78
     2
 67
     7
 79
     5
170
     0
171
     0
290
     0
174
     0
 93
        1
 44
0.0
173
     0
291
     1
 45
0.0
  0
VISUALSTYLE
  5
297
102
{ACAD_REACTORS
330
296
102
}
330
296
100
AcDbVisualStyle
  2
Flat
 70
     0
 71
     2
 72
     1
 73
     1
 90
        2
 40
-0.6
 41
30.0
 62
     5
 63
     7
421
 16777215
 74
     0
 91
        4
 64
     7
 65
   257
 75
     1
175
     1
 42
1.0
 92
        8
 66
     7
 43
1.0
 76
     1
 77
     6
 78
     2
 67
     7
 79
     5
170
     0
171
     0
290
     0
174
     0
 93
       13
 44
0.0
173
     0
291
     1
 45
0.0
  0
VISUALSTYLE
  5
298
102
{ACAD_REACTORS
330
296
102
}
330
296
100
AcDbVisualStyle
  2
FlatWithEdges
 70
     1
 71
     2
 72
     1
 73
     1
 90
        2
 40
-0.6
 41
30.0
 62
     5
 63
     7
421
 16777215
 74
     1
 91
        4
 64
     7
 65
   257
 75
     1
175
     1
 42
1.0
 92
        0
 66
   257
 43
1.0
 76
     1
 77
     6
 78
     2
 67
     7
 79
     5
170
     0
171
     0
290
     0
174
     0
 93
       13
 44
0.0
173
     0
291
     1
 45
0.0
  0
VISUALSTYLE
  5
299
102
{ACAD_REACTORS
330
296
102
}
330
296
100
AcDbVisualStyle
  2
Gouraud
 70
     2
 71
     2
 72
     2
 73
     1
 90
        2
 40
-0.6
 41
30.0
 62
     5
 63
     7
421
 16777215
 74
     0
 91
        4
 64
     7
 65
   257
 75
     1
175
     1
 42
1.0
 92
        0
 66
     7
 43
1.0
 76
     1
 77
     6
 78
     2
 67
     7
 79
     5
170
     0
171
     0
290
     0
174
     0
 93
       13
 44
0.0
173
     0
291
     1
 45
0.0
  0
VISUALSTYLE
  5
29A
102
{ACAD_REACTORS
330
296
102
}
330
296
100
AcDbVisualStyle
  2
GouraudWithEdges
 70
     3
 71
     2
 72
     2
 73
     1
 90
        2
 40
-0.6
 41
30.0
 62
     5
 63
     7
421
 16777215
 74
     1
 91
        4
 64
     7
 65
   257
 75
     1
175
     1
 42
1.0
 92
        0
 66
   257
 43
1.0
 76
     1
 77
     6
 78
     2
 67
     7
 79
     5
170
     0
171
     0
290
     0
174
     0
 93
       13
 44
0.0
173
     0
291
     1
 45
0.0
  0
VISUALSTYLE
  5
2A4
102
{ACAD_REACTORS
330
296
102
}
330
296
100
AcDbVisualStyle
  2
Linepattern
 70
    14
 71
     2
 72
     2
 73
     0
 90
        0
 40
-0.6
 41
-30.0
 62
     5
 63
     7
421
 16777215
 74
     1
 91
        4
 64
     7
 65
   257
 75
     7
175
     7
 42
1.0
 92
        8
 66
     7
 43
1.0
 76
     1
 77
     6
 78
     2
 67
     7
 79
     5
170
     0
171
     0
290
     0
174
     0
 93
        1
 44
0.0
173
     0
291
     1
 45
0.0
  0
VISUALSTYLE
  5
2A0
102
{ACAD_REACTORS
330
296
102
}
330
296
100
AcDbVisualStyle
  2
Realistic
 70
     8
 71
     2
 72
     2
 73
     0
 90
        0
 40
-0.6
 41
-30.0
 62
     5
 63
     7
421
 16777215
 74
     1
 91
        0
 64
     7
 65
   257
 75
     1
175
     1
 42
1.0
 92
        8
 66
     8
424
  7895160
 43
1.0
 76
     1
 77
     6
 78
     2
 67
     7
 79
     5
170
     0
171
     0
290
     0
174
     0
 93
       13
 44
0.0
173
     0
291
     0
 45
0.0
  0
VISUALSTYLE
  5
2A3
102
{ACAD_REACTORS
330
296
102
}
330
296
100
AcDbVisualStyle
  2
Thicken
 70
    13
 71
     2
 72
     2
 73
     0
 90
        0
 40
-0.6
 41
-30.0
 62
     5
 63
     7
421
 16777215
 74
     1
 91
        4
 64
     7
 65
   257
 75
     1
175
     1
 42
1.0
 92
       12
 66
     7
 43
1.0
 76
     1
 77
     6
 78
     2
 67
     7
 79
     5
170
     0
171
     0
290
     0
174
     0
 93
        1
 44
0.0
173
     0
291
     1
 45
0.0
  0
DICTIONARYVAR
  5
310
102
{ACAD_REACTORS
330
9E
102
}
330
9E
100
DictionaryVariables
280
     0
  1
1:1
  0
DICTIONARYVAR
  5
30E
102
{ACAD_REACTORS
330
9E
102
}
330
9E
100
DictionaryVariables
280
     0
  1
STANDARD
  0
DICTIONARYVAR
  5
144
102
{ACAD_REACTORS
330
9E
102
}
330
9E
100
DictionaryVariables
280
     0
  1
STANDARD
  0
DICTIONARYVAR
  5
A0
102
{ACAD_REACTORS
330
9E
102
}
330
9E
100
DictionaryVariables
280
     0
  1
2
  0
DICTIONARYVAR
  5
9F
102
{ACAD_REACTORS
330
9E
102
}
330
9E
100
DictionaryVariables
280
     0
  1
1
  0
DICTIONARYVAR
  5
36B
102
{ACAD_REACTORS
330
9E
102
}
330
9E
100
DictionaryVariables
280
     0
  1
1
  0
DICTIONARYVAR
  5
36C
102
{ACAD_REACTORS
330
9E
102
}
330
9E
100
DictionaryVariables
280
     0
  1
15
  0
DICTIONARYVAR
  5
311
102
{ACAD_REACTORS
330
9E
102
}
330
9E
100
DictionaryVariables
280
     0
  1
0
  0
DICTIONARYVAR
  5
30F
102
{ACAD_REACTORS
330
9E
102
}
330
9E
100
DictionaryVariables
280
     0
  1
0
  0
DICTIONARY
  5
69
102
{ACAD_REACTORS
330
63
102
}
330
63
100
AcDbDictionary
281
     1
  0
XRECORD
  5
12C
102
{ACAD_REACTORS
330
63
102
}
330
63
100
AcDbXrecord
280
     1
 90
-1023410169
  0
DICTIONARY
  5
30B
330
124
100
AcDbDictionary
280
     1
281
     1
  3
ACAD_ROUNDTRIP_2008_TABLESTYLE_CELLSTYLEMAP
360
7C4
  0
CELLSTYLEMAP
  5
7C4
102
{ACAD_REACTORS
330
30B
102
}
330
30B
100
AcDbCellStyleMap
 90
        3
300
CELLSTYLE
  1
TABLEFORMAT_BEGIN
 90
        5
170
     1
 91
        0
 92
    32768
 62
   257
 93
        1
300
CONTENTFORMAT
  1
CONTENTFORMAT_BEGIN
 90
        0
 91
        0
 92
      512
 93
        0
300

 40
0.0
140
1.0
 94
        5
 62
     0
340
11
144
0.25
309
CONTENTFORMAT_END
171
     0
 94
        6
 95
        1
302
GRIDFORMAT
  1
GRIDFORMAT_BEGIN
 90
        0
 91
        1
 62
     0
 92
       -2
340
0
 93
        0
 40
0.045
309
GRIDFORMAT_END
 95
        2
302
GRIDFORMAT
  1
GRIDFORMAT_BEGIN
 90
        0
 91
        1
 62
     0
 92
       -2
340
0
 93
        0
 40
0.045
309
GRIDFORMAT_END
 95
        4
302
GRIDFORMAT
  1
GRIDFORMAT_BEGIN
 90
        0
 91
        1
 62
     0
 92
       -2
340
0
 93
        0
 40
0.045
309
GRIDFORMAT_END
 95
        8
302
GRIDFORMAT
  1
GRIDFORMAT_BEGIN
 90
        0
 91
        1
 62
     0
 92
       -2
340
0
 93
        0
 40
0.045
309
GRIDFORMAT_END
 95
       16
302
GRIDFORMAT
  1
GRIDFORMAT_BEGIN
 90
        0
 91
        1
 62
     0
 92
       -2
340
0
 93
        0
 40
0.045
309
GRIDFORMAT_END
 95
       32
302
GRIDFORMAT
  1
GRIDFORMAT_BEGIN
 90
        0
 91
        1
 62
     0
 92
       -2
340
0
 93
        0
 40
0.045
309
GRIDFORMAT_END
309
TABLEFORMAT_END
  1
CELLSTYLE_BEGIN
 90
        1
 91
        1
300
_TITLE
309
CELLSTYLE_END
300
CELLSTYLE
  1
TABLEFORMAT_BEGIN
 90
        5
170
     1
 91
        0
 92
        0
 62
   257
 93
        1
300
CONTENTFORMAT
  1
CONTENTFORMAT_BEGIN
 90
        0
 91
        0
 92
      512
 93
        0
300

 40
0.0
140
1.0
 94
        5
 62
     0
340
11
144
0.18
309
CONTENTFORMAT_END
171
     0
 94
        6
 95
        1
302
GRIDFORMAT
  1
GRIDFORMAT_BEGIN
 90
        0
 91
        1
 62
     0
 92
       -2
340
0
 93
        0
 40
0.045
309
GRIDFORMAT_END
 95
        2
302
GRIDFORMAT
  1
GRIDFORMAT_BEGIN
 90
        0
 91
        1
 62
     0
 92
       -2
340
0
 93
        0
 40
0.045
309
GRIDFORMAT_END
 95
        4
302
GRIDFORMAT
  1
GRIDFORMAT_BEGIN
 90
        0
 91
        1
 62
     0
 92
       -2
340
0
 93
        0
 40
0.045
309
GRIDFORMAT_END
 95
        8
302
GRIDFORMAT
  1
GRIDFORMAT_BEGIN
 90
        0
 91
        1
 62
     0
 92
       -2
340
0
 93
        0
 40
0.045
309
GRIDFORMAT_END
 95
       16
302
GRIDFORMAT
  1
GRIDFORMAT_BEGIN
 90
        0
 91
        1
 62
     0
 92
       -2
340
0
 93
        0
 40
0.045
309
GRIDFORMAT_END
 95
       32
302
GRIDFORMAT
  1
GRIDFORMAT_BEGIN
 90
        0
 91
        1
 62
     0
 92
       -2
340
0
 93
        0
 40
0.045
309
GRIDFORMAT_END
309
TABLEFORMAT_END
  1
CELLSTYLE_BEGIN
 90
        2
 91
        1
300
_HEADER
309
CELLSTYLE_END
300
CELLSTYLE
  1
TABLEFORMAT_BEGIN
 90
        5
170
     1
 91
        0
 92
        0
 62
   257
 93
        1
300
CONTENTFORMAT
  1
CONTENTFORMAT_BEGIN
 90
        0
 91
        0
 92
      512
 93
        0
300

 40
0.0
140
1.0
 94
        2
 62
     0
340
11
144
0.18
309
CONTENTFORMAT_END
171
     0
 94
        6
 95
        1
302
GRIDFORMAT
  1
GRIDFORMAT_BEGIN
 90
        0
 91
        1
 62
     0
 92
       -2
340
0
 93
        0
 40
0.045
309
GRIDFORMAT_END
 95
        2
302
GRIDFORMAT
  1
GRIDFORMAT_BEGIN
 90
        0
 91
        1
 62
     0
 92
       -2
340
0
 93
        0
 40
0.045
309
GRIDFORMAT_END
 95
        4
302
GRIDFORMAT
  1
GRIDFORMAT_BEGIN
 90
        0
 91
        1
 62
     0
 92
       -2
340
0
 93
        0
 40
0.045
309
GRIDFORMAT_END
 95
        8
302
GRIDFORMAT
  1
GRIDFORMAT_BEGIN
 90
        0
 91
        1
 62
     0
 92
       -2
340
0
 93
        0
 40
0.045
309
GRIDFORMAT_END
 95
       16
302
GRIDFORMAT
  1
GRIDFORMAT_BEGIN
 90
        0
 91
        1
 62
     0
 92
       -2
340
0
 93
        0
 40
0.045
309
GRIDFORMAT_END
 95
       32
302
GRIDFORMAT
  1
GRIDFORMAT_BEGIN
 90
        0
 91
        1
 62
     0
 92
       -2
340
0
 93
        0
 40
0.045
309
GRIDFORMAT_END
309
TABLEFORMAT_END
  1
CELLSTYLE_BEGIN
 90
        3
 91
        2
300
_DATA
309
CELLSTYLE_END
  0
ENDSEC
  0
EOF
