  0
SECTION
  2
HEADER
  9
$ACADVER
  1
AC1021
  9
$ACADMAINTVER
 70
    50
  9
$DWGCODEPAGE
  3
ANSI_936
  9
$LASTSAVEDBY
  1
ko69185
  9
$CUSTOMPROPERTYTAG
  1
AmdtFileType
  9
$CUSTOMPROPERTY
  1
84
  9
$INSBASE
 10
0.0
 20
0.0
 30
0.0
  9
$EXTMIN
 10
8.658409529033235
 20
18.49778718913181
 30
0.0
  9
$EXTMAX
 10
53.16269963566455
 20
40.29039586483285
 30
0.0
  9
$LIMMIN
 10
0.0
 20
0.0
  9
$LIMMAX
 10
17.0
 20
11.0
  9
$ORTHOMODE
 70
     0
  9
$REGENMODE
 70
     1
  9
$FILLMODE
 70
     1
  9
$QTEXTMODE
 70
     0
  9
$MIRRTEXT
 70
     1
  9
$LTSCALE
 40
1.0
  9
$ATTMODE
 70
     1
  9
$TEXTSIZE
 40
0.2
  9
$TRACEWID
 40
0.05
  9
$TEXTSTYLE
  7
STANDARD
  9
$CLAYER
  8
0
  9
$CELTYPE
  6
ByLayer
  9
$CECOLOR
 62
   256
  9
$CELTSCALE
 40
1.0
  9
$DISPSILH
 70
     0
  9
$DIMSCALE
 40
1.0
  9
$DIMASZ
 40
0.12
  9
$DIMEXO
 40
0.05
  9
$DIMDLI
 40
0.5
  9
$DIMRND
 40
0.0
  9
$DIMDLE
 40
0.0
  9
$DIMEXE
 40
0.1
  9
$DIMTP
 40
0.1
  9
$DIMTM
 40
0.1
  9
$DIMTXT
 40
0.12
  9
$DIMCEN
 40
0.0
  9
$DIMTSZ
 40
0.0
  9
$DIMTOL
 70
     0
  9
$DIMLIM
 70
     0
  9
$DIMTIH
 70
     1
  9
$DIMTOH
 70
     1
  9
$DIMSE1
 70
     0
  9
$DIMSE2
 70
     0
  9
$DIMTAD
 70
     0
  9
$DIMZIN
 70
     7
  9
$DIMBLK
  1

  9
$DIMASO
 70
     1
  9
$DIMSHO
 70
     1
  9
$DIMPOST
  1

  9
$DIMAPOST
  1
mm
  9
$DIMALT
 70
     0
  9
$DIMALTD
 70
     2
  9
$DIMALTF
 40
25.4
  9
$DIMLFAC
 40
1.0
  9
$DIMTOFL
 70
     0
  9
$DIMTVP
 40
0.0
  9
$DIMTIX
 70
     0
  9
$DIMSOXD
 70
     0
  9
$DIMSAH
 70
     0
  9
$DIMBLK1
  1

  9
$DIMBLK2
  1

  9
$DIMSTYLE
  2
AM_ANSI
  9
$DIMCLRD
 70
   256
  9
$DIMCLRE
 70
   256
  9
$DIMCLRT
 70
   140
  9
$DIMTFAC
 40
0.71
  9
$DIMGAP
 40
0.06
  9
$DIMJUST
 70
     0
  9
$DIMSD1
 70
     0
  9
$DIMSD2
 70
     0
  9
$DIMTOLJ
 70
     1
  9
$DIMTZIN
 70
     7
  9
$DIMALTZ
 70
     0
  9
$DIMALTTZ
 70
     0
  9
$DIMUPT
 70
     0
  9
$DIMDEC
 70
     4
  9
$DIMTDEC
 70
     4
  9
$DIMALTU
 70
     2
  9
$DIMALTTD
 70
     4
  9
$DIMTXSTY
  7
STANDARD
  9
$DIMAUNIT
 70
     0
  9
$DIMADEC
 70
     0
  9
$DIMALTRND
 40
0.0
  9
$DIMAZIN
 70
     2
  9
$DIMDSEP
 70
    46
  9
$DIMATFIT
 70
     3
  9
$DIMFRAC
 70
     0
  9
$DIMLDRBLK
  1

  9
$DIMLUNIT
 70
     2
  9
$DIMLWD
 70
    -1
  9
$DIMLWE
 70
    -1
  9
$DIMTMOVE
 70
     0
  9
$DIMFXL
 40
1.0
  9
$DIMFXLON
 70
     0
  9
$DIMJOGANG
 40
0.7853981633974483
  9
$DIMTFILL
 70
     0
  9
$DIMTFILLCLR
 70
     0
  9
$DIMARCSYM
 70
     1
  9
$DIMLTYPE
  6
ByBlock
  9
$DIMLTEX1
  6
ByBlock
  9
$DIMLTEX2
  6
ByBlock
  9
$LUNITS
 70
     2
  9
$LUPREC
 70
     4
  9
$SKETCHINC
 40
0.1
  9
$FILLETRAD
 40
0.125
  9
$AUNITS
 70
     0
  9
$AUPREC
 70
     0
  9
$MENU
  1
.
  9
$ELEVATION
 40
0.0
  9
$PELEVATION
 40
0.0
  9
$THICKNESS
 40
0.0
  9
$LIMCHECK
 70
     0
  9
$CHAMFERA
 40
0.125
  9
$CHAMFERB
 40
0.125
  9
$CHAMFERC
 40
1.0
  9
$CHAMFERD
 40
0.0
  9
$SKPOLY
 70
     0
  9
$TDCREATE
 40
2455338.703729653
  9
$TDUCREATE
 40
2455338.370396320
  9
$TDUPDATE
 40
2455338.704084954
  9
$TDUUPDATE
 40
2455338.370751620
  9
$TDINDWG
 40
0.0003563889
  9
$TDUSRTIMER
 40
0.0003563889
  9
$USRTIMER
 70
     1
  9
$ANGBASE
 50
0.0
  9
$ANGDIR
 70
     0
  9
$PDMODE
 70
     0
  9
$PDSIZE
 40
0.0
  9
$PLINEWID
 40
0.0
  9
$SPLFRAME
 70
     0
  9
$SPLINETYPE
 70
     6
  9
$SPLINESEGS
 70
     8
  9
$HANDSEED
  5
797
  9
$SURFTAB1
 70
     6
  9
$SURFTAB2
 70
     6
  9
$SURFTYPE
 70
     6
  9
$SURFU
 70
     6
  9
$SURFV
 70
     6
  9
$UCSBASE
  2

  9
$UCSNAME
  2

  9
$UCSORG
 10
0.0
 20
0.0
 30
0.0
  9
$UCSXDIR
 10
1.0
 20
0.0
 30
0.0
  9
$UCSYDIR
 10
0.0
 20
1.0
 30
0.0
  9
$UCSORTHOREF
  2

  9
$UCSORTHOVIEW
 70
     0
  9
$UCSORGTOP
 10
0.0
 20
0.0
 30
0.0
  9
$UCSORGBOTTOM
 10
0.0
 20
0.0
 30
0.0
  9
$UCSORGLEFT
 10
0.0
 20
0.0
 30
0.0
  9
$UCSORGRIGHT
 10
0.0
 20
0.0
 30
0.0
  9
$UCSORGFRONT
 10
0.0
 20
0.0
 30
0.0
  9
$UCSORGBACK
 10
0.0
 20
0.0
 30
0.0
  9
$PUCSBASE
  2

  9
$PUCSNAME
  2

  9
$PUCSORG
 10
0.0
 20
0.0
 30
0.0
  9
$PUCSXDIR
 10
1.0
 20
0.0
 30
0.0
  9
$PUCSYDIR
 10
0.0
 20
1.0
 30
0.0
  9
$PUCSORTHOREF
  2

  9
$PUCSORTHOVIEW
 70
     0
  9
$PUCSORGTOP
 10
0.0
 20
0.0
 30
0.0
  9
$PUCSORGBOTTOM
 10
0.0
 20
0.0
 30
0.0
  9
$PUCSORGLEFT
 10
0.0
 20
0.0
 30
0.0
  9
$PUCSORGRIGHT
 10
0.0
 20
0.0
 30
0.0
  9
$PUCSORGFRONT
 10
0.0
 20
0.0
 30
0.0
  9
$PUCSORGBACK
 10
0.0
 20
0.0
 30
0.0
  9
$USERI1
 70
     0
  9
$USERI2
 70
     0
  9
$USERI3
 70
     0
  9
$USERI4
 70
     0
  9
$USERI5
 70
     0
  9
$USERR1
 40
0.0
  9
$USERR2
 40
0.0
  9
$USERR3
 40
0.0
  9
$USERR4
 40
0.0
  9
$USERR5
 40
0.0
  9
$WORLDVIEW
 70
     1
  9
$SHADEDGE
 70
     3
  9
$SHADEDIF
 70
    70
  9
$TILEMODE
 70
     1
  9
$MAXACTVP
 70
    64
  9
$PINSBASE
 10
0.0
 20
0.0
 30
0.0
  9
$PLIMCHECK
 70
     0
  9
$PEXTMIN
 10
1.000000000000000E+20
 20
1.000000000000000E+20
 30
1.000000000000000E+20
  9
$PEXTMAX
 10
-1.000000000000000E+20
 20
-1.000000000000000E+20
 30
-1.000000000000000E+20
  9
$PLIMMIN
 10
0.0
 20
0.0
  9
$PLIMMAX
 10
12.0
 20
9.0
  9
$UNITMODE
 70
     0
  9
$VISRETAIN
 70
     1
  9
$PLINEGEN
 70
     0
  9
$PSLTSCALE
 70
     1
  9
$TREEDEPTH
 70
  3020
  9
$CMLSTYLE
  2
Standard
  9
$CMLJUST
 70
     0
  9
$CMLSCALE
 40
1.0
  9
$PROXYGRAPHICS
 70
     1
  9
$MEASUREMENT
 70
     0
  9
$CELWEIGHT
370
    -1
  9
$ENDCAPS
280
     0
  9
$JOINSTYLE
280
     0
  9
$LWDISPLAY
290
     0
  9
$INSUNITS
 70
     1
  9
$HYPERLINKBASE
  1

  9
$STYLESHEET
  1

  9
$XEDIT
290
     1
  9
$CEPSNTYPE
380
     0
  9
$PSTYLEMODE
290
     1
  9
$FINGERPRINTGUID
  2
{5581AAB7-215C-4B75-8D62-65165FB6EF2A}
  9
$VERSIONGUID
  2
{509B7246-DB2A-402A-8BC6-6A894276935F}
  9
$EXTNAMES
290
     1
  9
$PSVPSCALE
 40
0.0
  9
$OLESTARTUP
290
     0
  9
$SORTENTS
280
   127
  9
$INDEXCTL
280
     0
  9
$HIDETEXT
280
     0
  9
$XCLIPFRAME
290
     0
  9
$HALOGAP
280
     0
  9
$OBSCOLOR
 70
   257
  9
$OBSLTYPE
280
     0
  9
$INTERSECTIONDISPLAY
280
     0
  9
$INTERSECTIONCOLOR
 70
   257
  9
$DIMASSOC
280
     2
  9
$PROJECTNAME
  1

  9
$CAMERADISPLAY
290
     0
  9
$LENSLENGTH
 40
50.0
  9
$CAMERAHEIGHT
 40
0.0
  9
$STEPSPERSEC
 40
2.0
  9
$STEPSIZE
 40
6.0
  9
$3DDWFPREC
 40
2.0
  9
$PSOLWIDTH
 40
0.25
  9
$PSOLHEIGHT
 40
4.0
  9
$LOFTANG1
 40
1.570796326794896
  9
$LOFTANG2
 40
1.570796326794896
  9
$LOFTMAG1
 40
0.0
  9
$LOFTMAG2
 40
0.0
  9
$LOFTPARAM
 70
     7
  9
$LOFTNORMALS
280
     1
  9
$LATITUDE
 40
37.795
  9
$LONGITUDE
 40
-122.394
  9
$NORTHDIRECTION
 40
0.0
  9
$TIMEZONE
 70
 -8000
  9
$LIGHTGLYPHDISPLAY
280
     1
  9
$TILEMODELIGHTSYNCH
280
     1
  9
$CMATERIAL
347
293
  9
$SOLIDHIST
280
     1
  9
$SHOWHIST
280
     1
  9
$DWFFRAME
280
     2
  9
$DGNFRAME
280
     0
  9
$REALWORLDSCALE
290
     1
  9
$INTERFERECOLOR
 62
     1
  9
$INTERFEREOBJVS
345
2A0
  9
$INTERFEREVPVS
346
29D
  9
$CSHADOW
280
     0
  9
$SHADOWPLANELOCATION
 40
0.0
  0
ENDSEC
  0
SECTION
  2
CLASSES
  0
CLASS
  1
ACDBDICTIONARYWDFLT
  2
AcDbDictionaryWithDefault
  3
ObjectDBX Classes
 90
        0
 91
        1
280
     0
281
     0
  0
CLASS
  1
ACME_DOCUMENT
  2
AcMeDbDoc
  3
AcMeServices
 90
     1024
 91
        2
280
     0
281
     0
  0
CLASS
  1
AMGSETTINGSOBJ
  2
AmgSettingsObj
  3
"AcadM|Product Description: AutoCAD Mechanical|Company: Autodesk, Inc."
 90
     1024
 91
        4
280
     0
281
     0
  0
CLASS
  1
ACMESCOPE
  2
AcMeScope
  3
AcMeServices
 90
     1024
 91
        1
280
     0
281
     0
  0
CLASS
  1
ACMECOMMANDHISTORY
  2
AcMeCommandHistory
  3
AcMeServices
 90
     1024
 91
        1
280
     0
281
     0
  0
CLASS
  1
ACIMSYSVARMAN
  2
AcImSysVarManager
  3
AcMeServices
 90
     1024
 91
        5
280
     0
281
     0
  0
CLASS
  1
ACIMREALSYSVAR
  2
AcImRealSysVar
  3
AcMeServices
 90
     1024
 91
        3
280
     0
281
     0
  0
CLASS
  1
ACIMINTSYSVAR
  2
AcImIntSysVar
  3
AcMeServices
 90
     1024
 91
       27
280
     0
281
     0
  0
CLASS
  1
ACMEDRAWINGMAN
  2
AcMeDrawingMan
  3
AcMeServices
 90
     1024
 91
        1
280
     0
281
     0
  0
CLASS
  1
ACMEVIEW
  2
AcMeView
  3
AcMeServices
 90
     1024
 91
        1
280
     0
281
     0
  0
CLASS
  1
ACDBENTITYCACHE
  2
AcMeEntityCache
  3
AcMeServices
 90
     1024
 91
        1
280
     0
281
     0
  0
CLASS
  1
GSMANAGER
  2
AcMeGSManager
  3
AcMeServices
 90
     1024
 91
        1
280
     0
281
     0
  0
CLASS
  1
AMDTINTERNALREACTOR
  2
AmdtInternalReactor
  3
AcMeServices
 90
     1024
 91
        2
280
     0
281
     0
  0
CLASS
  1
ACMESTATEMGR
  2
AcMeStateMgr
  3
AcMeServices
 90
     1024
 91
        1
280
     0
281
     0
  0
CLASS
  1
ACGREFMASTER
  2
AcGrefMaster
  3
AcAttribServices
 90
     1024
 91
        1
280
     0
281
     0
  0
CLASS
  1
ACME_DATABASE
  2
AcMeDbDatabase
  3
AcMeServices
 90
     1024
 91
        2
280
     0
281
     0
  0
CLASS
  1
ACRFINSADJUSTERMGR
  2
AcRfInsAdjusterMgr
  3
AcMeServices
 90
     1024
 91
        1
280
     0
281
     0
  0
CLASS
  1
ACGREFACADMASTER
  2
AcGrefacadMaster
  3
AcGrefServices
 90
     1024
 91
        1
280
     0
281
     0
  0
CLASS
  1
AMIMASTER
  2
AmiMaster
  3
AmiServices
 90
     1024
 91
        1
280
     0
281
     0
  0
CLASS
  1
ACMDATADICTIONARY
  2
AcmDataDictionary
  3
"AcmSymBB|Product Description: AutoCAD Mechanical|Company: Autodesk, Inc."
 90
     1024
 91
        1
280
     0
281
     0
  0
CLASS
  1
ACMDATAENTRYBLOCK
  2
AcmDataEntryBlock
  3
AcmSymBB|Product Description: AutoCAD Mechanical|Company: Autodesk, Inc.
 90
     1024
 91
        1
280
     0
281
     0
  0
CLASS
  1
ACIMSTRSYSVAR
  2
AcImStrSysVar
  3
AcMeServices
 90
     1024
 91
        5
280
     0
281
     0
  0
CLASS
  1
ACMSTANDARDANSI
  2
AcmStandardANSI
  3
"Amdt_StdImp|Product Description: AutoCAD Mechanical|Company: Autodesk, Inc."
 90
     1024
 91
        1
280
     0
281
     0
  0
CLASS
  1
AMGOBJPROPCFG
  2
AmgObjPropCfg
  3
"AmgLay|Product Description: AutoCAD Mechanical|Company: Autodesk, Inc."
 90
     1025
 91
        1
280
     0
281
     0
  0
CLASS
  1
ACMSURFSTANDARDANSI
  2
AcmSurfTextStdANSI
  3
"Amdt_StdImp|Product Description: AutoCAD Mechanical|Company: Autodesk, Inc."
 90
     1024
 91
        1
280
     0
281
     0
  0
CLASS
  1
ACMFCFSTANDARDANSI
  2
AcmFCFStdANSI
  3
"Amdt_StdImp|Product Description: AutoCAD Mechanical|Company: Autodesk, Inc."
 90
     1024
 91
        1
280
     0
281
     0
  0
CLASS
  1
ACMWELDSTANDARDANSI
  2
AcmWeldingStdANSI
  3
"Amdt_StdImp|Product Description: AutoCAD Mechanical|Company: Autodesk, Inc."
 90
     1024
 91
        1
280
     0
281
     0
  0
CLASS
  1
ACMIDSTANDARDANSI
  2
AcmIdStdANSI
  3
"Amdt_StdImp|Product Description: AutoCAD Mechanical|Company: Autodesk, Inc."
 90
     1024
 91
        1
280
     0
281
     0
  0
CLASS
  1
ACMDATUMSTANDARDANSI
  2
AcmDatumStdANSI
  3
"Amdt_StdImp|Product Description: AutoCAD Mechanical|Company: Autodesk, Inc."
 90
     1024
 91
        1
280
     0
281
     0
  0
CLASS
  1
ACMBOMSTANDARDANSI
  2
AcmBOMStdANSI
  3
"Amdt_StdImp|Product Description: AutoCAD Mechanical|Company: Autodesk, Inc."
 90
     1024
 91
        1
280
     0
281
     0
  0
CLASS
  1
ACMDETAILSTANDARDANSI
  2
AmdtDetailSymStdANSI
  3
"Amdt_StdImp|Product Description: AutoCAD Mechanical|Company: Autodesk, Inc."
 90
     1024
 91
        1
280
     0
281
     0
  0
CLASS
  1
ACMSECTIONSTANDARDANSI
  2
AmdtSectionSymStdANSI
  3
"Amdt_StdImp|Product Description: AutoCAD Mechanical|Company: Autodesk, Inc."
 90
     1024
 91
        1
280
     0
281
     0
  0
CLASS
  1
ACMCENTERLINESTANDARDANSI
  2
AmdtCenterLineStdANSI
  3
"Amdt_StdImp|Product Description: AutoCAD Mechanical|Company: Autodesk, Inc."
 90
     1024
 91
        1
280
     0
281
     0
  0
CLASS
  1
ACMNOTESTANDARDANSI
  2
AmdtNoteStdANSI
  3
"Amdt_StdImp|Product Description: AutoCAD Mechanical|Company: Autodesk, Inc."
 90
     1024
 91
        1
280
     0
281
     0
  0
CLASS
  1
ACAMGLAYSTD
  2
AcAmgLayStd
  3
"AmgLay|Product Description: AutoCAD Mechanical|Company: Autodesk, Inc."
 90
     1024
 91
        1
280
     0
281
     0
  0
CLASS
  1
ACAMGDIMSTD
  2
AcAmgDimStd
  3
"AmgDim|Product Description: AutoCAD Mechanical|Company: Autodesk, Inc."
 90
     1024
 91
        1
280
     0
281
     0
  0
CLASS
  1
ACAMGHOLECHARTSTDANSI
  2
AcAmgHoleChartStdANSI
  3
AmgDim|Product Description: AutoCAD Mechanical|Company: Autodesk, Inc.
 90
     1024
 91
        1
280
     0
281
     0
  0
CLASS
  1
ACAMGTITLESTD
  2
AcAmgTitleStd
  3
"AmgTitle|Product Description: AutoCAD Mechanical|Company: Autodesk, Inc."
 90
     4095
 91
        1
280
     0
281
     0
  0
CLASS
  1
LAYER_INDEX
  2
AcDbLayerIndex
  3
ObjectDBX Classes
 90
        0
 91
        0
280
     0
281
     0
  0
CLASS
  1
IDBUFFER
  2
AcDbIdBuffer
  3
ObjectDBX Classes
 90
        0
 91
        0
280
     0
281
     0
  0
CLASS
  1
DICTIONARYVAR
  2
AcDbDictionaryVar
  3
ObjectDBX Classes
 90
        0
 91
        9
280
     0
281
     0
  0
CLASS
  1
AM_DRAWING_MGR
  2
AcDmDwgMgr
  3
AcMechDwgViewMgmt
 90
     1024
 91
        1
280
     0
281
     0
  0
CLASS
  1
AM_DWG_DOCUMENT
  2
AcDmDwgDocument
  3
AcMechDwgViewMgmt
 90
     1024
 91
        1
280
     0
281
     0
  0
CLASS
  1
AM_DWG_SHEET
  2
AcDmSheet
  3
AcMechDwgViewMgmt
 90
     1024
 91
        2
280
     0
281
     0
  0
CLASS
  1
AM_VIEWDIMPARMAP
  2
AcDmViewDimParMap
  3
AcMechDwgViewMgmt
 90
     1024
 91
        2
280
     0
281
     0
  0
CLASS
  1
AM_DWGMGR_NAME
  2
AcDmDwgMgrName
  3
AcMechDwgViewMgmt
 90
     1024
 91
        1
280
     0
281
     0
  0
CLASS
  1
AMDTMENUSTATEMGR
  2
AmdtMenuStateMgr
  3
McadcomServices
 90
     1024
 91
        1
280
     0
281
     0
  0
CLASS
  1
AMDTMCOMMENUSTATE
  2
AmdtMcomMenuState
  3
McadcomServices
 90
     1024
 91
        1
280
     0
281
     0
  0
CLASS
  1
MAPIAMMOUDLE
  2
MApiAmModule
  3
MApiAmServices
 90
     1024
 91
        1
280
     0
281
     0
  0
CLASS
  1
AMDTADMENUSTATE
  2
AmdtAdMenuState
  3
DesignerServices
 90
     1024
 91
        1
280
     0
281
     0
  0
CLASS
  1
ADAPPL
  2
AcAdAppl
  3
DesignerServices
 90
     1024
 91
        1
280
     0
281
     0
  0
CLASS
  1
DEPMGR
  2
AcAdDepMgr
  3
DesignerServices
 90
     1024
 91
        1
280
     0
281
     0
  0
CLASS
  1
PARAMMGR
  2
AcAdParamMgr
  3
DesignerServices
 90
     1024
 91
        1
280
     0
281
     0
  0
CLASS
  1
PARAMSCOPE
  2
AcAdParamScope
  3
DesignerServices
 90
     1024
 91
        1
280
     0
281
     0
  0
CLASS
  1
NAMEDAPPL
  2
AcAdNamedAppl
  3
DesignerServices
 90
     1024
 91
        1
280
     0
281
     0
  0
CLASS
  1
AMDTDMMENUSTATE
  2
AmdtDmMenuState
  3
AcMechDwgViewMgmt
 90
     1024
 91
        1
280
     0
281
     0
  0
CLASS
  1
AMDTAMMENUSTATE
  2
AmdtAmMenuState
  3
DesignerAssemblies
 90
     1024
 91
        1
280
     0
281
     0
  0
CLASS
  1
ACAMPROJECT
  2
AcAmProject
  3
DesignerAssemblies
 90
     1024
 91
        1
280
     0
281
     0
  0
CLASS
  1
ACAMGRCOMPDEF
  2
AcAmGrCompDef
  3
DesignerAssemblies
 90
     1024
 91
        1
280
     0
281
     0
  0
CLASS
  1
ACCMCONTEXT
  2
AcCmContext
  3
DesignerAssemblies
 90
     1024
 91
        1
280
     0
281
     0
  0
CLASS
  1
ACAMCOMPDEF
  2
AcAmCompDef
  3
DesignerAssemblies
 90
     1024
 91
        1
280
     0
281
     0
  0
CLASS
  1
ACAMCOMPDEFMGR
  2
AcAmCompDefMgr
  3
DesignerAssemblies
 90
     1024
 91
        1
280
     0
281
     0
  0
CLASS
  1
AMCONTEXTMGR
  2
AcAmContextMgr
  3
DesignerAssemblies
 90
     1024
 91
        1
280
     0
281
     0
  0
CLASS
  1
ACAMCONTEXTMODELER
  2
AcAmContextModeler
  3
DesignerAssemblies
 90
     1024
 91
        1
280
     0
281
     0
  0
CLASS
  1
ACMTHREADLINESTANDARDANSI
  2
AmdtThreadLineStdANSI
  3
"Amdt_StdImp|Product Description: AutoCAD Mechanical|Company: Autodesk, Inc."
 90
     1024
 91
        1
280
     0
281
     0
  0
CLASS
  1
CATALOGSTATE
  2
AcAmCatalogState
  3
DesignerAssemblies
 90
     1024
 91
        1
280
     0
281
     0
  0
CLASS
  1
ACAMGRCOMPDEFSET
  2
AcAmGrCompDefSet
  3
DesignerAssemblies
 90
     1024
 91
        1
280
     0
281
     0
  0
CLASS
  1
AMDTBROWSERDBTAB
  2
AmdtBrowserDbTab
  3
McadcomServices
 90
     1024
 91
        1
280
     0
281
     0
  0
CLASS
  1
CBROWSERAPPOBJECT
  2
CBrowserAppObject
  3
McadcomServices
 90
     1024
 91
        3
280
     0
281
     0
  0
CLASS
  1
DM_PLACEHOLDER
  2
AcDmSelsetPlaceholder
  3
AcMechDwgViewMgmt
 90
     1024
 91
        1
280
     0
281
     0
  0
CLASS
  1
TABLESTYLE
  2
AcDbTableStyle
  3
ObjectDBX Classes
 90
     4095
 91
        1
280
     0
281
     0
  0
CLASS
  1
AMDTNOTETEMPLATEDB
  2
AmdtNoteTemplateDB
  3
AcmSymBB|Product Description: AutoCAD Mechanical|Company: Autodesk, Inc.
 90
     1024
 91
        6
280
     0
281
     0
  0
CLASS
  1
MATERIAL
  2
AcDbMaterial
  3
ObjectDBX Classes
 90
     1153
 91
        3
280
     0
281
     0
  0
CLASS
  1
VISUALSTYLE
  2
AcDbVisualStyle
  3
ObjectDBX Classes
 90
     4095
 91
       16
280
     0
281
     0
  0
CLASS
  1
ACRFATTGENMGR
  2
AcRfAttGeneralMgr
  3
AcAttribServices
 90
     1024
 91
        1
280
     0
281
     0
  0
CLASS
  1
ACRFOBJATTMGR
  2
AcRfObjAttGroupMgr
  3
AcAttribServices
 90
     1024
 91
        1
280
     0
281
     0
  0
CLASS
  1
ACRFMCADAPIATTHOLDER
  2
AcRfMCADAPIAttHolder
  3
AcAttribServices
 90
     1024
 91
        1
280
     0
281
     0
  0
CLASS
  1
AMDTSYSATTR
  2
AmdtSystemAttribute
  3
AcAttribServices
 90
     1024
 91
        1
280
     0
281
     0
  0
CLASS
  1
ACMTAPERSTANDARDANSI
  2
AcmTaperStdANSI
  3
"Amdt_StdImp|Product Description: AutoCAD Mechanical|Company: Autodesk, Inc."
 90
     1024
 91
        1
280
     0
281
     0
  0
CLASS
  1
CAMSSTRUCTBTNSTATE
  2
StructBtnState
  3
DesignerAssemblies
 90
     1024
 91
        1
280
     0
281
     0
  0
CLASS
  1
SCALE
  2
AcDbScale
  3
ObjectDBX Classes
 90
     1153
 91
       33
280
     0
281
     0
  0
CLASS
  1
MLEADERSTYLE
  2
AcDbMLeaderStyle
  3
ACDB_MLEADERSTYLE_CLASS
 90
     4095
 91
        1
280
     0
281
     0
  0
CLASS
  1
ACMANOOTATIONVIEWSTANDARDANSI
  2
AmdtAnViewStdANSI
  3
"Amdt_StdImp|Product Description: AutoCAD Mechanical|Company: Autodesk, Inc."
 90
     1024
 91
        1
280
     0
281
     0
  0
CLASS
  1
CELLSTYLEMAP
  2
AcDbCellStyleMap
  3
ObjectDBX Classes
 90
     1152
 91
        2
280
     0
281
     0
  0
CLASS
  1
EXACXREFPANELOBJECT
  2
ExAcXREFPanelObject
  3
EXAC_ESW
 90
     1025
 91
        1
280
     0
281
     0
  0
CLASS
  1
NPOCOLLECTION
  2
AcDbImpNonPersistentObjectsCollection
  3
ObjectDBX Classes
 90
     1153
 91
        1
280
     0
281
     0
  0
CLASS
  1
ACAMGFILTERDAT
  2
AcAmgFilterDat
  3
"AcadM|Product Description: AutoCAD Mechanical|Company: Autodesk, Inc."
 90
     1024
 91
        6
280
     0
281
     0
  0
ENDSEC
  0
SECTION
  2
TABLES
  0
TABLE
  2
VPORT
  5
8
330
0
100
AcDbSymbolTable
 70
     1
  0
VPORT
  5
291
330
8
100
AcDbSymbolTableRecord
100
AcDbViewportTableRecord
  2
*Active
 70
     0
 10
0.0
 20
0.0
 11
1.0
 21
1.0
 12
34.69549900746746
 22
23.69829585230701
 13
0.0
 23
0.0
 14
0.125
 24
0.125
 15
1.0
 25
1.0
 16
0.0
 26
0.0
 36
1.0
 17
0.0
 27
0.0
 37
0.0
 40
40.26679791153981
 41
1.439655172413793
 42
50.0
 43
0.0
 44
0.0
 50
0.0
 51
0.0
 71
     0
 72
   100
 73
     1
 74
     3
 75
     0
 76
     0
 77
     0
 78
     0
281
     0
 65
     1
110
0.0
120
0.0
130
0.0
111
1.0
121
0.0
131
0.0
112
0.0
122
1.0
132
0.0
 79
     0
146
0.0
348
29C
 60
     3
 61
     5
292
     1
282
     0
141
0.0
142
0.0
 63
   250
421
  3355443
  0
ENDTAB
  0
TABLE
  2
LTYPE
  5
5
330
0
100
AcDbSymbolTable
 70
    17
  0
LTYPE
  5
14
330
5
100
AcDbSymbolTableRecord
100
AcDbLinetypeTableRecord
  2
ByBlock
 70
     0
  3

 72
    65
 73
     0
 40
0.0
  0
LTYPE
  5
15
330
5
100
AcDbSymbolTableRecord
100
AcDbLinetypeTableRecord
  2
ByLayer
 70
     0
  3

 72
    65
 73
     0
 40
0.0
  0
LTYPE
  5
16
330
5
100
AcDbSymbolTableRecord
100
AcDbLinetypeTableRecord
  2
Continuous
 70
     0
  3
Solid line
 72
    65
 73
     0
 40
0.0
  0
LTYPE
  5
6C
330
5
100
AcDbSymbolTableRecord
100
AcDbLinetypeTableRecord
  2
AM_ISO02W050
 70
     0
  3
__ __ __ __ __ __ __ __ __ __ __ __ __ __ __
 72
    65
 73
     2
 40
7.5
 49
6.0
 74
     0
 49
-1.5
 74
     0
  0
LTYPE
  5
6D
330
5
100
AcDbSymbolTableRecord
100
AcDbLinetypeTableRecord
  2
AM_ISO08W050
 70
     0
  3
____ . ____ . ____ . ____ . ____ . ____ . ____
 72
    65
 73
     4
 40
18.0
 49
12.0
 74
     0
 49
-1.5
 74
     0
 49
3.0
 74
     0
 49
-1.5
 74
     0
  0
LTYPE
  5
6E
330
5
100
AcDbSymbolTableRecord
100
AcDbLinetypeTableRecord
  2
AM_ISO09W050
 70
     0
  3
_____ . . _____ . . _____ . . ____ .. ____
 72
    65
 73
     6
 40
22.5
 49
12.0
 74
     0
 49
-1.5
 74
     0
 49
3.0
 74
     0
 49
-1.5
 74
     0
 49
3.0
 74
     0
 49
-1.5
 74
     0
  0
LTYPE
  5
6F
330
5
100
AcDbSymbolTableRecord
100
AcDbLinetypeTableRecord
  2
Amconstr
 70
     0
  3
_______________________
 72
    65
 73
     2
 40
9999.0
 49
9999.0
 74
     0
 49
0.0
 74
     0
  0
LTYPE
  5
70
330
5
100
AcDbSymbolTableRecord
100
AcDbLinetypeTableRecord
  2
AM_ISO08W050x2
 70
     0
  3
__ . __ . __ . __ . __ . __
 72
    65
 73
     4
 40
9.0
 49
6.0
 74
     0
 49
-0.75
 74
     0
 49
1.5
 74
     0
 49
-0.75
 74
     0
  0
LTYPE
  5
71
330
5
100
AcDbSymbolTableRecord
100
AcDbLinetypeTableRecord
  2
AM_ISO02W050x2
 70
     0
  3
 _ _ _ _ _ _ _ _ _ _ _ _
 72
    65
 73
     2
 40
3.75
 49
3.0
 74
     0
 49
-0.75
 74
     0
  0
LTYPE
  5
74
330
5
100
AcDbSymbolTableRecord
100
AcDbLinetypeTableRecord
  2
Amzigzag
 70
     0
  3
/\/-/\/-/\/-/\/-/\/-/\/
 72
    65
 73
     2
 40
11.0001
 49
0.0001
 74
     4
 75
   136
340
254
 46
0.04
 50
0.0
 44
0.0
 45
0.0
 49
-11.0
 74
     0
  0
LTYPE
  5
75
330
5
100
AcDbSymbolTableRecord
100
AcDbLinetypeTableRecord
  2
HIDDEN
 70
     0
  3
Hidden __ __ __ __ __ __ __ __ __ __ __ __ __ _
 72
    65
 73
     2
 40
0.375
 49
0.25
 74
     0
 49
-0.125
 74
     0
  0
LTYPE
  5
76
330
5
100
AcDbSymbolTableRecord
100
AcDbLinetypeTableRecord
  2
CENTER
 70
     0
  3
Center ____ _ ____ _ ____ _ ____ _ ____ _ ____
 72
    65
 73
     4
 40
2.0
 49
1.25
 74
     0
 49
-0.25
 74
     0
 49
0.25
 74
     0
 49
-0.25
 74
     0
  0
LTYPE
  5
77
330
5
100
AcDbSymbolTableRecord
100
AcDbLinetypeTableRecord
  2
PHANTOM2
 70
     0
  3
Phantom (.5x) ___ _ _ ___ _ _ ___ _ _ ___ _ _
 72
    65
 73
     6
 40
1.25
 49
0.625
 74
     0
 49
-0.125
 74
     0
 49
0.125
 74
     0
 49
-0.125
 74
     0
 49
0.125
 74
     0
 49
-0.125
 74
     0
  0
LTYPE
  5
78
330
5
100
AcDbSymbolTableRecord
100
AcDbLinetypeTableRecord
  2
CENTER2
 70
     0
  3
Center (.5x) ___ _ ___ _ ___ _ ___ _ ___ _ ___
 72
    65
 73
     4
 40
1.125
 49
0.75
 74
     0
 49
-0.125
 74
     0
 49
0.125
 74
     0
 49
-0.125
 74
     0
  0
LTYPE
  5
79
330
5
100
AcDbSymbolTableRecord
100
AcDbLinetypeTableRecord
  2
HIDDEN2
 70
     0
  3
Hidden (.5x) _ _ _ _ _ _ _ _ _ _ _ _ _ _ _ _ _
 72
    65
 73
     2
 40
0.1875
 49
0.125
 74
     0
 49
-0.0625
 74
     0
  0
LTYPE
  5
7A
330
5
100
AcDbSymbolTableRecord
100
AcDbLinetypeTableRecord
  2
Amzigzag2
 70
     0
  3
/\/-/\/-/\/-/\/-/\/-/\/
 72
    65
 73
     2
 40
0.4401
 49
0.0001
 74
     4
 75
   136
340
254
 46
0.0016
 50
0.0
 44
0.0
 45
0.0
 49
-0.4400000000000001
 74
     0
  0
LTYPE
  5
87
330
5
100
AcDbSymbolTableRecord
100
AcDbLinetypeTableRecord
  2
ACANSTGB
 70
     0
  3
__ . . __ . .
 72
    65
 73
     6
 40
0.35433070866
 49
0.15748031496
 74
     0
 49
-0.03937007874
 74
     0
 49
0.03937007874
 74
     0
 49
-0.03937007874
 74
     0
 49
0.03937007874
 74
     0
 49
-0.03937007874
 74
     0
  0
LTYPE
  5
88
330
5
100
AcDbSymbolTableRecord
100
AcDbLinetypeTableRecord
  2
ACANSTGL
 70
     0
  3
_ _ _ _ _
 72
    65
 73
     2
 40
0.11811023622
 49
0.07874015748
 74
     0
 49
-0.03937007874
 74
     0
  0
ENDTAB
  0
TABLE
  2
LAYER
  5
2
330
0
100
AcDbSymbolTable
 70
     2
  0
LAYER
  5
10
102
{ACAD_XDICTIONARY
360
78F
102
}
330
2
100
AcDbSymbolTableRecord
100
AcDbLayerTableRecord
  2
0
 70
     0
 62
     7
  6
Continuous
370
    -3
390
F
347
295
  0
LAYER
  5
38C
102
{ACAD_XDICTIONARY
360
791
102
}
330
2
100
AcDbSymbolTableRecord
100
AcDbLayerTableRecord
  2
LAYER_1
 70
     0
 62
   160
  6
Continuous
370
    -3
390
F
347
295
  0
ENDTAB
  0
TABLE
  2
STYLE
  5
3
330
0
100
AcDbSymbolTable
 70
     8
  0
STYLE
  5
11
330
3
100
AcDbSymbolTableRecord
100
AcDbTextStyleTableRecord
  2
STANDARD
 70
     0
 40
0.0
 41
1.0
 50
0.0
 71
     0
 42
0.2
  3
ROMANS.SHX
  4

  0
STYLE
  5
73
330
3
100
AcDbSymbolTableRecord
100
AcDbTextStyleTableRecord
  2

 70
     1
 40
0.0
 41
1.0
 50
0.0
 71
     0
 42
0.2
  3
ltypeshp.shx
  4

  0
STYLE
  5
7B
330
3
100
AcDbSymbolTableRecord
100
AcDbTextStyleTableRecord
  2
ACANSTS
 70
     0
 40
1.0
 41
1.0
 50
0.0
 71
     0
 42
0.2
  3
romans.shx
  4

  0
STYLE
  5
86
330
3
100
AcDbSymbolTableRecord
100
AcDbTextStyleTableRecord
  2
ACANSGDT
 70
     0
 40
0.0
 41
1.0
 50
0.0
 71
     0
 42
0.2
  3
amgdt.shx
  4

  0
STYLE
  5
13F
330
3
100
AcDbSymbolTableRecord
100
AcDbTextStyleTableRecord
  2
USER1
 70
     0
 40
0.0
 41
1.0
 50
0.0
 71
     0
 42
0.2
  3
TXT.SHX
  4

  0
STYLE
  5
140
330
3
100
AcDbSymbolTableRecord
100
AcDbTextStyleTableRecord
  2
USER2
 70
     0
 40
0.0
 41
1.0
 50
0.0
 71
     0
 42
0.2
  3
SIMPLEX.SHX
  4

  0
STYLE
  5
141
330
3
100
AcDbSymbolTableRecord
100
AcDbTextStyleTableRecord
  2
USER3
 70
     0
 40
0.0
 41
1.0
 50
0.0
 71
     0
 42
0.2
  3
ITALIC.SHX
  4

  0
STYLE
  5
254
330
3
100
AcDbSymbolTableRecord
100
AcDbTextStyleTableRecord
  2

 70
     1
 40
0.0
 41
1.0
 50
0.0
 71
     0
 42
0.2
  3
genltshp.shx
  4

  0
ENDTAB
  0
TABLE
  2
VIEW
  5
6
330
0
100
AcDbSymbolTable
 70
     0
  0
ENDTAB
  0
TABLE
  2
UCS
  5
7
330
0
100
AcDbSymbolTable
 70
     0
  0
ENDTAB
  0
TABLE
  2
APPID
  5
9
330
0
100
AcDbSymbolTable
 70
    13
  0
APPID
  5
12
330
9
100
AcDbSymbolTableRecord
100
AcDbRegAppTableRecord
  2
ACAD
 70
     0
  0
APPID
  5
4E
330
9
100
AcDbSymbolTableRecord
100
AcDbRegAppTableRecord
  2
MCAD_NO_VIS
 70
     0
  0
APPID
  5
4F
330
9
100
AcDbSymbolTableRecord
100
AcDbRegAppTableRecord
  2
ACAD_TEMP_GRAPHIC
 70
     0
  0
APPID
  5
60
330
9
100
AcDbSymbolTableRecord
100
AcDbRegAppTableRecord
  2
ACATTRIBSERVICES
 70
     0
  0
APPID
  5
F7
330
9
100
AcDbSymbolTableRecord
100
AcDbRegAppTableRecord
  2
AD_DRAW
 70
     0
  0
APPID
  5
115
330
9
100
AcDbSymbolTableRecord
100
AcDbRegAppTableRecord
  2
DESIGNERASSEMBLIES
 70
     0
  0
APPID
  5
11A
330
9
100
AcDbSymbolTableRecord
100
AcDbRegAppTableRecord
  2
ACADM_DIM_EDIT
 70
     0
  0
APPID
  5
11B
330
9
100
AcDbSymbolTableRecord
100
AcDbRegAppTableRecord
  2
AMDT_DM_ADJ
 70
     0
  0
APPID
  5
1D3
330
9
100
AcDbSymbolTableRecord
100
AcDbRegAppTableRecord
  2
ACAD_DSTYLE_DIMARC_LENGTH_SYMBOL
 70
     0
  0
APPID
  5
1D4
330
9
100
AcDbSymbolTableRecord
100
AcDbRegAppTableRecord
  2
ACAD_DSTYLE_DIMJOGGED_JOGANGLE_SYMBOL
 70
     0
  0
APPID
  5
2EE
330
9
100
AcDbSymbolTableRecord
100
AcDbRegAppTableRecord
  2
ACAD_MLEADERVER
 70
     0
  0
APPID
  5
38D
330
9
100
AcDbSymbolTableRecord
100
AcDbRegAppTableRecord
  2
DCO15
 70
     0
  0
APPID
  5
788
330
9
100
AcDbSymbolTableRecord
100
AcDbRegAppTableRecord
  2
ACAD_EXEMPT_FROM_CAD_STANDARDS
 70
     0
  0
ENDTAB
  0
TABLE
  2
DIMSTYLE
  5
A
330
0
100
AcDbSymbolTable
 70
     8
100
AcDbDimStyleTable
 71
     1
340
8C
  0
DIMSTYLE
105
27
330
A
100
AcDbSymbolTableRecord
100
AcDbDimStyleTableRecord
  2
Standard
 70
     0
340
11
  0
DIMSTYLE
105
8C
102
{ACAD_REACTORS
330
6A
102
}
330
A
100
AcDbSymbolTableRecord
100
AcDbDimStyleTableRecord
  2
AM_ANSI
 70
     0
  4
mm
 41
0.12
 42
0.05
 43
0.5
 44
0.1
 47
0.1
 48
0.1
 78
     7
 79
     2
 90
     1
140
0.12
141
0.0
146
0.71
147
0.06
176
   256
177
   256
178
   140
274
     4
284
     7
340
11
345
14
346
14
347
14
371
    -1
372
    -1
1001
ACAD_DSTYLE_DIMJOGGED_JOGANGLE_SYMBOL
1070
   384
1040
0.7853981633974483
  0
DIMSTYLE
105
8D
330
A
100
AcDbSymbolTableRecord
100
AcDbDimStyleTableRecord
  2
AM_ANSI$3
 70
     0
  4
mm
 41
0.12
 42
0.05
 43
0.5
 44
0.1
 47
0.1
 48
0.1
 78
     7
 79
     2
 90
     1
140
0.12
141
0.0
146
0.71
147
0.06
176
   256
177
   256
178
   140
274
     4
284
     7
288
     1
289
     0
340
11
345
14
346
14
347
14
371
    -1
372
    -1
1001
ACAD_DSTYLE_DIMJOGGED_JOGANGLE_SYMBOL
1070
   384
1040
0.7853981633974483
  0
DIMSTYLE
105
8E
330
A
100
AcDbSymbolTableRecord
100
AcDbDimStyleTableRecord
  2
AM_ANSI$4
 70
     0
  4
mm
 41
0.12
 42
0.05
 43
0.5
 44
0.1
 47
0.1
 48
0.1
 78
     7
 79
     2
 90
     1
140
0.12
141
0.0
146
0.71
147
0.06
176
   256
177
   256
178
   140
274
     4
284
     7
340
11
345
14
346
14
347
14
371
    -1
372
    -1
1001
ACAD_DSTYLE_DIMJOGGED_JOGANGLE_SYMBOL
1070
   384
1040
0.7853981633974483
  0
DIMSTYLE
105
8F
330
A
100
AcDbSymbolTableRecord
100
AcDbDimStyleTableRecord
  2
AM_ANSI$7
 70
     0
  4
mm
 41
0.12
 42
0.05
 43
0.5
 44
0.1
 47
0.1
 48
0.1
 78
     7
 79
     2
 90
     1
140
0.12
141
0.0
146
0.71
147
0.06
176
   256
177
   256
178
   140
274
     4
284
     7
340
11
345
14
346
14
347
14
371
    -1
372
    -1
1001
ACAD_DSTYLE_DIMJOGGED_JOGANGLE_SYMBOL
1070
   384
1040
0.7853981633974483
  0
DIMSTYLE
105
90
330
A
100
AcDbSymbolTableRecord
100
AcDbDimStyleTableRecord
  2
AM_ANSI$SF
 70
     0
  4
mm
 41
0.12
 42
0.05
 43
0.5
 44
0.1
 47
0.1
 48
0.1
 75
     1
 76
     1
 78
     7
 79
     2
 90
     1
140
0.12
141
0.0
146
0.71
147
0.06
176
   256
177
   256
178
   140
274
     4
284
     7
340
11
345
14
346
14
347
14
371
    -1
372
    -1
1001
ACAD_DSTYLE_DIMJOGGED_JOGANGLE_SYMBOL
1070
   384
1040
0.7853981633974483
  0
DIMSTYLE
105
95
330
A
100
AcDbSymbolTableRecord
100
AcDbDimStyleTableRecord
  2
AM_ANSI$SH
 70
     0
  4
mm
 41
0.12
 42
0.05
 43
0.5
 44
0.1
 47
0.1
 48
0.1
 75
     1
 76
     1
 78
     7
 79
     2
 90
     1
140
0.12
141
0.0
146
0.71
147
0.06
173
     1
176
   256
177
   256
178
   140
274
     4
284
     7
340
11
343
91
345
14
346
14
347
14
371
    -1
372
    -1
1001
ACAD_DSTYLE_DIMJOGGED_JOGANGLE_SYMBOL
1070
   384
1040
0.7853981633974483
  0
ENDTAB
  0
TABLE
  2
BLOCK_RECORD
  5
1
330
0
100
AcDbSymbolTable
 70
     5
  0
BLOCK_RECORD
  5
1F
102
{ACAD_XDICTIONARY
360
99
102
}
330
1
100
AcDbSymbolTableRecord
100
AcDbBlockTableRecord
  2
*Model_Space
340
22
 70
     0
280
     1
281
     0
  0
BLOCK_RECORD
  5
1B
330
1
100
AcDbSymbolTableRecord
100
AcDbBlockTableRecord
  2
*Paper_Space
340
1E
 70
     0
280
     1
281
     0
  0
BLOCK_RECORD
  5
23
330
1
100
AcDbSymbolTableRecord
100
AcDbBlockTableRecord
  2
*Paper_Space0
340
26
 70
     0
280
     1
281
     0
  0
BLOCK_RECORD
  5
91
330
1
100
AcDbSymbolTableRecord
100
AcDbBlockTableRecord
  2
GENAXEH
340
0
 70
     0
280
     1
281
     0
  0
ENDTAB
  0
ENDSEC
  0
SECTION
  2
BLOCKS
  0
BLOCK
  5
20
330
1F
100
AcDbEntity
  8
0
100
AcDbBlockBegin
  2
*Model_Space
 70
     0
 10
0.0
 20
0.0
 30
0.0
  3
*Model_Space
  1

  0
ENDBLK
  5
21
330
1F
100
AcDbEntity
  8
0
100
AcDbBlockEnd
  0
BLOCK
  5
1C
330
1B
100
AcDbEntity
 67
     1
  8
0
100
AcDbBlockBegin
  2
*Paper_Space
 70
     0
 10
0.0
 20
0.0
 30
0.0
  3
*Paper_Space
  1

  0
ENDBLK
  5
1D
330
1B
100
AcDbEntity
 67
     1
  8
0
100
AcDbBlockEnd
  0
BLOCK
  5
24
330
23
100
AcDbEntity
 67
     1
  8
0
100
AcDbBlockBegin
  2
*Paper_Space0
 70
     0
 10
0.0
 20
0.0
 30
0.0
  3
*Paper_Space0
  1

  0
ENDBLK
  5
25
330
23
100
AcDbEntity
 67
     1
  8
0
100
AcDbBlockEnd
  0
BLOCK
  5
93
330
91
100
AcDbEntity
  8
0
100
AcDbBlockBegin
  2
GENAXEH
 70
     0
 10
0.0
 20
0.0
 30
0.0
  3
GENAXEH
  1

  0
LINE
  5
92
330
91
100
AcDbEntity
  8
0
100
AcDbLine
 10
-1.0
 20
0.0
 30
0.0
 11
1.0
 21
0.0
 31
0.0
  0
ENDBLK
  5
94
330
91
100
AcDbEntity
  8
0
100
AcDbBlockEnd
  0
ENDSEC
  0
SECTION
  2
ENTITIES
  0
POLYLINE
  5
590
330
1F
100
AcDbEntity
  8
0
100
AcDb2dPolyline
 66
     1
 10
0.0
 20
0.0
 30
0.0
 70
     1
  0
VERTEX
  5
591
330
590
100
AcDbEntity
  8
0
100
AcDbVertex
100
AcDb2dVertex
 10
25.35147773896316
 20
26.13349718913181
 30
0.0
  0
VERTEX
  5
592
330
590
100
AcDbEntity
  8
0
100
AcDbVertex
100
AcDb2dVertex
 10
25.22745373896317
 20
25.63774818913181
 30
0.0
  0
VERTEX
  5
593
330
590
100
AcDbEntity
  8
0
100
AcDbVertex
100
AcDb2dVertex
 10
25.47618973896317
 20
25.63774818913181
 30
0.0
  0
VERTEX
  5
594
330
590
100
AcDbEntity
  8
0
100
AcDbVertex
100
AcDb2dVertex
 10
25.60021273896317
 20
26.13349718913181
 30
0.0
  0
VERTEX
  5
595
330
590
100
AcDbEntity
  8
0
100
AcDbVertex
100
AcDb2dVertex
 10
25.35147773896316
 20
26.13349718913181
 30
0.0
  0
SEQEND
  5
596
330
590
100
AcDbEntity
  8
0
  0
POLYLINE
  5
597
330
1F
100
AcDbEntity
  8
0
100
AcDb2dPolyline
 66
     1
 10
0.0
 20
0.0
 30
0.0
  0
VERTEX
  5
598
330
597
100
AcDbEntity
  8
0
100
AcDbVertex
100
AcDb2dVertex
 10
25.35147773896316
 20
26.13349718913181
 30
0.0
  0
VERTEX
  5
599
330
597
100
AcDbEntity
  8
0
100
AcDbVertex
100
AcDb2dVertex
 10
25.22745373896317
 20
25.63774818913181
 30
0.0
  0
VERTEX
  5
59A
330
597
100
AcDbEntity
  8
0
100
AcDbVertex
100
AcDb2dVertex
 10
25.47618973896317
 20
25.63774818913181
 30
0.0
  0
VERTEX
  5
59B
330
597
100
AcDbEntity
  8
0
100
AcDbVertex
100
AcDb2dVertex
 10
25.60021273896317
 20
26.13349718913181
 30
0.0
  0
SEQEND
  5
59C
330
597
100
AcDbEntity
  8
0
  0
HATCH
  5
59D
330
1F
100
AcDbEntity
  8
0
100
AcDbHatch
 10
0.0
 20
0.0
 30
0.0
210
0.0
220
0.0
230
1.0
  2
SOLID
 70
     1
 71
     0
 91
        1
 92
        1
 93
        1
 72
     4
 94
        3
 73
     0
 74
     0
 95
       17
 96
       13
 40
0.0
 40
0.0
 40
0.0
 40
0.0
 40
1.0
 40
1.0
 40
1.0
 40
2.0
 40
2.0
 40
2.0
 40
3.0
 40
3.0
 40
3.0
 40
4.0
 40
4.0
 40
4.0
 40
4.0
 10
46.14745169729647
 20
26.63131344347208
 10
46.14745169729647
 20
26.56861270562486
 10
46.14745169729647
 20
26.56861270562486
 10
46.14745169729647
 20
26.50625647732625
 10
46.08543997854647
 20
26.50625647732625
 10
46.02273924069925
 20
26.50625647732625
 10
46.02273924069925
 20
26.56861270562486
 10
46.02273924069925
 20
26.56861270562486
 10
46.02273924069925
 20
26.63131344347208
 10
46.02273924069925
 20
26.63131344347208
 10
46.02273924069925
 20
26.69229163357625
 10
46.08543997854647
 20
26.63131344347208
 10
46.14745169729647
 20
26.63131344347208
 97
        0
 75
     0
 76
     1
 98
        1
 10
-122.3425222610368
 20
-9.114652810868193
450
        0
451
        0
460
0.0
461
0.0
452
        0
462
0.0
453
        0
470

  0
HATCH
  5
59E
330
1F
100
AcDbEntity
  8
0
100
AcDbHatch
 10
0.0
 20
0.0
 30
0.0
210
0.0
220
0.0
230
1.0
  2
SOLID
 70
     1
 71
     0
 91
        1
 92
        1
 93
        1
 72
     4
 94
        3
 73
     0
 74
     0
 95
       17
 96
       13
 40
0.0
 40
0.0
 40
0.0
 40
0.0
 40
1.0
 40
1.0
 40
1.0
 40
2.0
 40
2.0
 40
2.0
 40
3.0
 40
3.0
 40
3.0
 40
4.0
 40
4.0
 40
4.0
 40
4.0
 10
45.89974933184507
 20
26.81700409017347
 10
45.89974933184507
 20
26.81700409017347
 10
45.89974933184507
 20
26.75499237142347
 10
45.83635957490062
 20
26.75499237142347
 10
45.83635957490062
 20
26.69194712402763
 10
45.77469236569925
 20
26.69194712402763
 10
45.77469236569925
 20
26.75499237142347
 10
45.77469236569925
 20
26.81700409017347
 10
45.77469236569925
 20
26.81700409017347
 10
45.77469236569925
 20
26.8800493375693
 10
45.77469236569925
 20
26.8800493375693
 10
45.83635957490062
 20
26.8800493375693
 10
45.89974933184507
 20
26.81700409017347
 97
        0
 75
     0
 76
     1
 98
        1
 10
-122.3425222610368
 20
-9.114652810868193
450
        0
451
        0
460
0.0
461
0.0
452
        0
462
0.0
453
        0
470

  0
HATCH
  5
59F
330
1F
100
AcDbEntity
  8
0
100
AcDbHatch
 10
0.0
 20
0.0
 30
0.0
210
0.0
220
0.0
230
1.0
  2
SOLID
 70
     1
 71
     0
 91
        1
 92
        1
 93
        1
 72
     4
 94
        3
 73
     0
 74
     0
 95
       17
 96
       13
 40
0.0
 40
0.0
 40
0.0
 40
0.0
 40
1.0
 40
1.0
 40
1.0
 40
2.0
 40
2.0
 40
2.0
 40
3.0
 40
3.0
 40
3.0
 40
4.0
 40
4.0
 40
4.0
 40
4.0
 10
45.96141654104648
 20
26.44493377767347
 10
45.96141654104648
 20
26.38188853027763
 10
45.96141654104648
 20
26.31953230197903
 10
45.96141654104648
 20
26.31953230197903
 10
45.89974933184507
 20
26.31953230197903
 10
45.83635957490062
 20
26.31953230197903
 10
45.83635957490062
 20
26.31953230197903
 10
45.83635957490062
 20
26.38188853027763
 10
45.83635957490062
 20
26.44493377767347
 10
45.83635957490062
 20
26.44493377767347
 10
45.89974933184507
 20
26.44493377767347
 10
45.89974933184507
 20
26.44493377767347
 10
45.96141654104648
 20
26.44493377767347
 97
        0
 75
     0
 76
     1
 98
        1
 10
-122.3425222610368
 20
-9.114652810868193
450
        0
451
        0
460
0.0
461
0.0
452
        0
462
0.0
453
        0
470

  0
HATCH
  5
5A0
330
1F
100
AcDbEntity
  8
0
100
AcDbHatch
 10
0.0
 20
0.0
 30
0.0
210
0.0
220
0.0
230
1.0
  2
SOLID
 70
     1
 71
     0
 91
        1
 92
        1
 93
        1
 72
     4
 94
        3
 73
     0
 74
     0
 95
       17
 96
       13
 40
0.0
 40
0.0
 40
0.0
 40
0.0
 40
1.0
 40
1.0
 40
1.0
 40
2.0
 40
2.0
 40
2.0
 40
3.0
 40
3.0
 40
3.0
 40
4.0
 40
4.0
 40
4.0
 40
4.0
 10
45.71336966604647
 20
26.63131344347208
 10
45.71336966604647
 20
26.56861270562486
 10
45.71336966604647
 20
26.56861270562486
 10
45.71336966604647
 20
26.50625647732625
 10
45.65101343774787
 20
26.50625647732625
 10
45.58831269990062
 20
26.50625647732625
 10
45.58831269990062
 20
26.56861270562486
 10
45.58831269990062
 20
26.56861270562486
 10
45.58831269990062
 20
26.63131344347208
 10
45.58831269990062
 20
26.63131344347208
 10
45.65101343774787
 20
26.69229163357625
 10
45.65101343774787
 20
26.63131344347208
 10
45.71336966604647
 20
26.63131344347208
 97
        0
 75
     0
 76
     1
 98
        1
 10
-122.3425222610368
 20
-9.114652810868193
450
        0
451
        0
460
0.0
461
0.0
452
        0
462
0.0
453
        0
470

  0
HATCH
  5
5A1
330
1F
100
AcDbEntity
  8
0
100
AcDbHatch
 10
0.0
 20
0.0
 30
0.0
210
0.0
220
0.0
230
1.0
  2
SOLID
 70
     1
 71
     0
 91
        1
 92
        1
 93
        1
 72
     4
 94
        3
 73
     0
 74
     0
 95
       17
 96
       13
 40
0.0
 40
0.0
 40
0.0
 40
0.0
 40
1.0
 40
1.0
 40
1.0
 40
2.0
 40
2.0
 40
2.0
 40
3.0
 40
3.0
 40
3.0
 40
4.0
 40
4.0
 40
4.0
 40
4.0
 10
45.46497828149788
 20
26.81700409017347
 10
45.46497828149788
 20
26.81700409017347
 10
45.46497828149788
 20
26.75499237142347
 10
45.46497828149788
 20
26.75499237142347
 10
45.40262205319925
 20
26.69194712402763
 10
45.34129935354648
 20
26.69194712402763
 10
45.34129935354648
 20
26.75499237142347
 10
45.34129935354648
 20
26.81700409017347
 10
45.34129935354648
 20
26.81700409017347
 10
45.34129935354648
 20
26.8800493375693
 10
45.40262205319925
 20
26.8800493375693
 10
45.40262205319925
 20
26.8800493375693
 10
45.46497828149788
 20
26.81700409017347
 97
        0
 75
     0
 76
     1
 98
        1
 10
-122.3425222610368
 20
-9.114652810868193
450
        0
451
        0
460
0.0
461
0.0
452
        0
462
0.0
453
        0
470

  0
SPLINE
  5
5A2
330
1F
100
AcDbEntity
  8
0
100
AcDbSpline
210
0.0
220
0.0
230
1.0
 70
     8
 71
     3
 72
    17
 73
    13
 74
     0
 42
0.0000000001
 43
0.0000000001
 40
0.0
 40
0.0
 40
0.0
 40
0.0
 40
1.0
 40
1.0
 40
1.0
 40
2.0
 40
2.0
 40
2.0
 40
3.0
 40
3.0
 40
3.0
 40
4.0
 40
4.0
 40
4.0
 40
4.0
 10
41.55410588566454
 20
24.52084794868042
 30
0.0
 10
42.17387856361591
 20
24.52084794868042
 30
0.0
 10
42.17387856361591
 20
24.52084794868042
 30
0.0
 10
42.17387856361591
 20
24.52084794868042
 30
0.0
 10
42.29893552976176
 20
24.52084794868042
 30
0.0
 10
42.42226994816454
 20
24.83090654243042
 30
0.0
 10
42.42226994816454
 20
25.14165415527763
 30
0.0
 10
42.42226994816454
 20
25.51303544868042
 30
0.0
 10
42.29893552976176
 20
25.76108232368042
 30
0.0
 10
42.17387856361591
 20
25.76108232368042
 30
0.0
 10
41.92686521726176
 20
25.76108232368042
 30
0.0
 10
41.92686521726176
 20
25.76108232368042
 30
0.0
 10
41.92686521726176
 20
25.76108232368042
 30
0.0
  0
POLYLINE
  5
5A3
330
1F
100
AcDbEntity
  8
0
100
AcDb2dPolyline
 66
     1
 10
0.0
 20
0.0
 30
0.0
  0
VERTEX
  5
5A4
330
5A3
100
AcDbEntity
  8
0
100
AcDbVertex
100
AcDb2dVertex
 10
40.80858673896318
 20
25.69975918913181
 30
0.0
  0
VERTEX
  5
5A5
330
5A3
100
AcDbEntity
  8
0
100
AcDbVertex
100
AcDb2dVertex
 10
41.92686473896318
 20
25.69975918913181
 30
0.0
  0
VERTEX
  5
5A6
330
5A3
100
AcDbEntity
  8
0
100
AcDbVertex
100
AcDb2dVertex
 10
41.86450873896316
 20
26.19654218913181
 30
0.0
  0
VERTEX
  5
5A7
330
5A3
100
AcDbEntity
  8
0
100
AcDbVertex
100
AcDb2dVertex
 10
40.74657573896317
 20
26.19654218913181
 30
0.0
  0
VERTEX
  5
5A8
330
5A3
100
AcDbEntity
  8
0
100
AcDbVertex
100
AcDb2dVertex
 10
40.80858673896318
 20
25.69975918913181
 30
0.0
  0
SEQEND
  5
5A9
330
5A3
100
AcDbEntity
  8
0
  0
SPLINE
  5
5AA
330
1F
100
AcDbEntity
  8
0
100
AcDbSpline
210
0.0
220
0.0
230
1.0
 70
     8
 71
     3
 72
    17
 73
    13
 74
     0
 42
0.0000000001
 43
0.0000000001
 40
0.0
 40
0.0
 40
0.0
 40
0.0
 40
1.0
 40
1.0
 40
1.0
 40
2.0
 40
2.0
 40
2.0
 40
3.0
 40
3.0
 40
3.0
 40
4.0
 40
4.0
 40
4.0
 40
4.0
 10
41.86450898896313
 20
25.88613928982625
 30
0.0
 10
42.05054414521313
 20
25.88613928982625
 30
0.0
 10
42.05054414521313
 20
25.88613928982625
 30
0.0
 10
42.05054414521313
 20
25.88613928982625
 30
0.0
 10
42.17387856361591
 20
25.88613928982625
 30
0.0
 10
42.29893552976176
 20
26.19654239312486
 30
0.0
 10
42.29893552976176
 20
26.50625647732625
 30
0.0
 10
42.29893552976176
 20
26.8800493375693
 30
0.0
 10
42.17387856361591
 20
27.12740719347208
 30
0.0
 10
42.05054414521313
 20
27.12740719347208
 30
0.0
 10
41.30571450111591
 20
27.12740719347208
 30
0.0
 10
41.30571450111591
 20
27.12740719347208
 30
0.0
 10
41.30571450111591
 20
27.12740719347208
 30
0.0
  0
POLYLINE
  5
5AB
330
1F
100
AcDbEntity
  8
0
100
AcDb2dPolyline
 66
     1
 10
0.0
 20
0.0
 30
0.0
  0
VERTEX
  5
5AC
330
5AB
100
AcDbEntity
  8
0
100
AcDbVertex
100
AcDb2dVertex
 10
40.80858673896318
 20
25.88613918913181
 30
0.0
  0
VERTEX
  5
5AD
330
5AB
100
AcDbEntity
  8
0
100
AcDbVertex
100
AcDb2dVertex
 10
39.75300973896319
 20
25.88613918913181
 30
0.0
  0
VERTEX
  5
5AE
330
5AB
100
AcDbEntity
  8
0
100
AcDbVertex
100
AcDb2dVertex
 10
39.94007873896317
 20
25.7610821891318
 30
0.0
  0
VERTEX
  5
5AF
330
5AB
100
AcDbEntity
  8
0
100
AcDbVertex
100
AcDb2dVertex
 10
40.80858673896318
 20
25.7610821891318
 30
0.0
  0
VERTEX
  5
5B0
330
5AB
100
AcDbEntity
  8
0
100
AcDbVertex
100
AcDb2dVertex
 10
40.80858673896318
 20
25.88613918913181
 30
0.0
  0
SEQEND
  5
5B1
330
5AB
100
AcDbEntity
  8
0
  0
SPLINE
  5
5B2
330
1F
100
AcDbEntity
  8
0
100
AcDbSpline
210
0.0
220
0.0
230
1.0
 70
    11
 71
     3
 72
    20
 73
    16
 74
     0
 42
0.0000000001
 43
0.0000000001
 40
0.0
 40
0.0
 40
0.0
 40
0.0
 40
1.0
 40
1.0
 40
1.0
 40
2.0
 40
2.0
 40
2.0
 40
3.0
 40
3.0
 40
3.0
 40
4.0
 40
4.0
 40
4.0
 40
5.0
 40
5.0
 40
5.0
 40
5.0
 10
50.36941621552563
 20
26.38188853027763
 30
0.0
 10
50.80349824677563
 20
26.50625647732625
 30
0.0
 10
50.98953340302563
 20
26.69229163357625
 30
0.0
 10
50.98953340302563
 20
26.94171654677069
 30
0.0
 10
50.74148652802563
 20
26.94171654677069
 30
0.0
 10
50.74148652802563
 20
26.94171654677069
 30
0.0
 10
50.74148652802563
 20
26.94171654677069
 30
0.0
 10
50.74148652802563
 20
26.69229163357625
 30
0.0
 10
50.18338105927563
 20
26.63131344347208
 30
0.0
 10
49.74792098983119
 20
26.63131344347208
 30
0.0
 10
49.74792098983119
 20
26.50625647732625
 30
0.0
 10
49.74792098983119
 20
26.50625647732625
 30
0.0
 10
49.74792098983119
 20
26.50625647732625
 30
0.0
 10
49.87228893687981
 20
26.50625647732625
 30
0.0
 10
50.12033581187981
 20
26.44493377767347
 30
0.0
 10
50.36941621552563
 20
26.38188853027763
 30
0.0
  0
SPLINE
  5
5B3
330
1F
100
AcDbEntity
  8
0
100
AcDbSpline
210
0.0
220
0.0
230
1.0
 70
    11
 71
     3
 72
    23
 73
    19
 74
     0
 42
0.0000000001
 43
0.0000000001
 40
0.0
 40
0.0
 40
0.0
 40
0.0
 40
1.0
 40
1.0
 40
1.0
 40
2.0
 40
2.0
 40
2.0
 40
3.0
 40
3.0
 40
3.0
 40
4.0
 40
4.0
 40
4.0
 40
5.0
 40
5.0
 40
5.0
 40
6.0
 40
6.0
 40
6.0
 40
6.0
 10
50.12033581187981
 20
26.63131344347208
 30
0.0
 10
50.30637096812981
 20
26.63131344347208
 30
0.0
 10
50.43108342472706
 20
26.69229163357625
 30
0.0
 10
50.55476235267846
 20
26.69229163357625
 30
0.0
 10
50.61746309052563
 20
26.81734859972208
 30
0.0
 10
50.67878579017847
 20
27.00372826552069
 30
0.0
 10
50.67878579017847
 20
27.1901079313193
 30
0.0
 10
50.67878579017847
 20
27.56183373427069
 30
0.0
 10
50.49275063392847
 20
27.80988060927069
 30
0.0
 10
50.24470375892846
 20
27.80988060927069
 30
0.0
 10
50.24470375892846
 20
27.6862016813193
 30
0.0
 10
50.24470375892846
 20
27.6862016813193
 30
0.0
 10
50.24470375892846
 20
27.6862016813193
 30
0.0
 10
50.36941621552563
 20
27.56183373427069
 30
0.0
 10
50.43108342472706
 20
27.3761430875693
 30
0.0
 10
50.43108342472706
 20
27.1901079313193
 30
0.0
 10
50.43108342472706
 20
26.94171654677069
 30
0.0
 10
50.30637096812981
 20
26.75533688097208
 30
0.0
 10
50.12033581187981
 20
26.63131344347208
 30
0.0
  0
SPLINE
  5
5B4
330
1F
100
AcDbEntity
  8
0
100
AcDbSpline
210
0.0
220
0.0
230
1.0
 70
     8
 71
     3
 72
    20
 73
    16
 74
     0
 42
0.0000000001
 43
0.0000000001
 40
0.0
 40
0.0
 40
0.0
 40
0.0
 40
1.0
 40
1.0
 40
1.0
 40
2.0
 40
2.0
 40
2.0
 40
3.0
 40
3.0
 40
3.0
 40
4.0
 40
4.0
 40
4.0
 40
5.0
 40
5.0
 40
5.0
 40
5.0
 10
49.99665688392846
 20
26.56861270562486
 30
0.0
 10
50.24470375892846
 20
26.56861270562486
 30
0.0
 10
50.43108342472706
 20
26.8800493375693
 30
0.0
 10
50.43108342472706
 20
27.1901079313193
 30
0.0
 10
50.43108342472706
 20
27.49982201552069
 30
0.0
 10
50.30637096812981
 20
27.6862016813193
 30
0.0
 10
50.12033581187981
 20
27.80988060927069
 30
0.0
 10
49.81062172767846
 20
28.49269853461791
 30
0.0
 10
49.43751788653256
 20
29.17620547906237
 30
0.0
 10
49.06510306448399
 20
29.23821719781237
 30
0.0
 10
48.69268824243537
 20
28.12131724121514
 30
0.0
 10
48.69268824243537
 20
28.12131724121514
 30
0.0
 10
48.69268824243537
 20
28.12131724121514
 30
0.0
 10
49.25148273028256
 20
28.12131724121514
 30
0.0
 10
49.06510306448399
 20
26.56861270562486
 30
0.0
 10
49.93395614608118
 20
26.56861270562486
 30
0.0
  0
SPLINE
  5
5B5
330
1F
100
AcDbEntity
  8
0
100
AcDbSpline
210
0.0
220
0.0
230
1.0
 70
    24
 71
     3
 72
    11
 73
     7
 74
     0
 42
0.0000000001
 43
0.0000000001
 40
0.0
 40
0.0
 40
0.0
 40
0.0
 40
1.0
 40
1.0
 40
1.0
 40
2.0
 40
2.0
 40
2.0
 40
2.0
 10
43.97428546465758
 20
26.19654239312486
 30
0.0
 10
45.09187444035203
 20
26.19654239312486
 30
0.0
 10
45.09187444035203
 20
26.19654239312486
 30
0.0
 10
45.09187444035203
 20
26.19654239312486
 30
0.0
 10
45.15457517819925
 20
26.19654239312486
 30
0.0
 10
45.27825410615062
 20
26.19654239312486
 30
0.0
 10
45.46497828149788
 20
26.19654239312486
 30
0.0
  0
LINE
  5
5B6
330
1F
100
AcDbEntity
  8
0
100
AcDbLine
 10
38.07765973896318
 20
29.9200011891318
 30
0.0
 11
38.32570673896317
 21
29.98339118913181
 31
0.0
  0
LINE
  5
5B7
330
1F
100
AcDbEntity
  8
0
100
AcDbLine
 10
38.57375373896318
 20
29.98339118913181
 30
0.0
 11
38.88381273896317
 21
30.04505818913181
 31
0.0
  0
POLYLINE
  5
5B8
330
1F
100
AcDbEntity
  8
0
100
AcDb2dPolyline
 66
     1
 10
0.0
 20
0.0
 30
0.0
  0
VERTEX
  5
5B9
330
5B8
100
AcDbEntity
  8
0
100
AcDbVertex
100
AcDb2dVertex
 10
38.63542073896315
 20
29.61028718913181
 30
0.0
  0
VERTEX
  5
5BA
330
5B8
100
AcDbEntity
  8
0
100
AcDbVertex
100
AcDb2dVertex
 10
38.88381273896317
 20
29.67298818913181
 30
0.0
  0
VERTEX
  5
5BB
330
5B8
100
AcDbEntity
  8
0
100
AcDbVertex
100
AcDb2dVertex
 10
38.88381273896317
 20
30.47948518913181
 30
0.0
  0
VERTEX
  5
5BC
330
5B8
100
AcDbEntity
  8
0
100
AcDbVertex
100
AcDb2dVertex
 10
38.07765973896318
 20
30.41781818913181
 30
0.0
  0
VERTEX
  5
5BD
330
5B8
100
AcDbEntity
  8
0
100
AcDbVertex
100
AcDb2dVertex
 10
38.07765973896318
 20
29.54862018913181
 30
0.0
  0
VERTEX
  5
5BE
330
5B8
100
AcDbEntity
  8
0
100
AcDbVertex
100
AcDb2dVertex
 10
38.32570673896317
 20
29.61028718913181
 30
0.0
  0
SEQEND
  5
5BF
330
5B8
100
AcDbEntity
  8
0
  0
SPLINE
  5
5C0
330
1F
100
AcDbEntity
  8
0
100
AcDbSpline
210
0.0
220
0.0
230
1.0
 70
     8
 71
     3
 72
     8
 73
     4
 74
     0
 42
0.0000000001
 43
0.0000000001
 40
0.0
 40
0.0
 40
0.0
 40
0.0
 40
1.0
 40
1.0
 40
1.0
 40
1.0
 10
32.4277034334076
 20
26.81734859972208
 30
0.0
 10
34.04241968774787
 20
26.81734859972208
 30
0.0
 10
36.21455239174091
 20
27.0657399842707
 30
0.0
 10
38.44973034312983
 20
27.3761430875693
 30
0.0
  0
SPLINE
  5
5C1
330
1F
100
AcDbEntity
  8
0
100
AcDbSpline
210
0.0
220
0.0
230
1.0
 70
     8
 71
     3
 72
     8
 73
     4
 74
     0
 42
0.0000000001
 43
0.0000000001
 40
0.0
 40
0.0
 40
0.0
 40
0.0
 40
1.0
 40
1.0
 40
1.0
 40
1.0
 10
38.76047795597705
 20
27.43677676812486
 30
0.0
 10
39.19421547767843
 20
27.49982201552069
 30
0.0
 10
39.62933103757431
 20
27.56183373427069
 30
0.0
 10
40.12611380667149
 20
27.62453447211791
 30
0.0
  0
SPLINE
  5
5C2
330
1F
100
AcDbEntity
  8
0
100
AcDbSpline
210
0.0
220
0.0
230
1.0
 70
    11
 71
     3
 72
    11
 73
     7
 74
     0
 42
0.0000000001
 43
0.0000000001
 40
0.0
 40
0.0
 40
0.0
 40
0.0
 40
1.0
 40
1.0
 40
1.0
 40
2.0
 40
2.0
 40
2.0
 40
2.0
 10
40.12611380667149
 20
27.62453447211791
 30
0.0
 10
46.39618759139369
 20
28.24499616916653
 30
0.0
 10
46.39618759139369
 20
28.24499616916653
 30
0.0
 10
46.39618759139369
 20
28.24499616916653
 30
0.0
 10
44.59681421899787
 20
28.18263994086791
 30
0.0
 10
42.36060273896313
 20
27.9342485563193
 30
0.0
 10
40.12611380667149
 20
27.62453447211791
 30
0.0
  0
SPLINE
  5
5C3
330
1F
100
AcDbEntity
  8
0
100
AcDbSpline
210
0.0
220
0.0
230
1.0
 70
     8
 71
     3
 72
    14
 73
    10
 74
     0
 42
0.0000000001
 43
0.0000000001
 40
0.0
 40
0.0
 40
0.0
 40
0.0
 40
1.0
 40
1.0
 40
1.0
 40
2.0
 40
2.0
 40
2.0
 40
3.0
 40
3.0
 40
3.0
 40
3.0
 10
46.39618759139369
 20
28.24499616916653
 30
0.0
 10
46.58256725719232
 20
28.80310163791653
 30
0.0
 10
46.82992511309507
 20
29.17620547906237
 30
0.0
 10
47.14101723549092
 20
29.17620547906237
 30
0.0
 10
47.14101723549092
 20
29.23821719781237
 30
0.0
 10
47.07866100719232
 20
29.23821719781237
 30
0.0
 10
47.07866100719232
 20
29.23821719781237
 30
0.0
 10
44.78250486569925
 20
29.23821719781237
 30
0.0
 10
41.67812932316453
 20
28.80310163791653
 30
0.0
 10
38.69846623722705
 20
28.36867509711791
 30
0.0
  0
SPLINE
  5
5C4
330
1F
100
AcDbEntity
  8
0
100
AcDbSpline
210
0.0
220
0.0
230
1.0
 70
     8
 71
     3
 72
     8
 73
     4
 74
     0
 42
0.0000000001
 43
0.0000000001
 40
0.0
 40
0.0
 40
0.0
 40
0.0
 40
1.0
 40
1.0
 40
1.0
 40
1.0
 10
38.38806313392843
 20
28.30700788791653
 30
0.0
 10
36.71236868948398
 20
28.12131724121514
 30
0.0
 10
35.03564071639372
 20
27.87189232802069
 30
0.0
 10
33.67000486569924
 20
27.80988060927069
 30
0.0
  0
LINE
  5
5C5
330
1F
100
AcDbEntity
  8
0
100
AcDbLine
 10
24.66865973896319
 20
29.4235631891318
 30
0.0
 11
38.32570673896317
 21
29.4235631891318
 31
0.0
  0
SPLINE
  5
5C6
330
1F
100
AcDbEntity
  8
0
100
AcDbSpline
210
0.0
220
0.0
230
1.0
 70
     8
 71
     3
 72
    14
 73
    10
 74
     0
 42
0.0000000001
 43
0.0000000001
 40
0.0
 40
0.0
 40
0.0
 40
0.0
 40
1.0
 40
1.0
 40
1.0
 40
2.0
 40
2.0
 40
2.0
 40
3.0
 40
3.0
 40
3.0
 40
3.0
 10
38.63542098983121
 20
29.42356333496514
 30
0.0
 10
50.12033581187981
 20
29.42356333496514
 30
0.0
 10
50.12033581187981
 20
29.42356333496514
 30
0.0
 10
50.12033581187981
 20
29.42356333496514
 30
0.0
 10
50.24470375892846
 20
29.42356333496514
 30
0.0
 10
50.43108342472706
 20
29.48626407281237
 30
0.0
 10
50.49275063392847
 20
29.61028751031237
 30
0.0
 10
50.74148652802563
 20
30.4178178922568
 30
0.0
 10
51.54832789087288
 20
32.46627166829846
 30
0.0
 10
52.1074668882687
 20
33.2734575406943
 30
0.0
  0
LINE
  5
5C7
330
1F
100
AcDbEntity
  8
0
100
AcDbLine
 10
24.35791173896317
 20
29.67298818913181
 30
0.0
 11
38.32570673896317
 21
29.67298818913181
 31
0.0
  0
LINE
  5
5C8
330
1F
100
AcDbEntity
  8
0
100
AcDbLine
 10
38.63542073896315
 20
29.67298818913181
 30
0.0
 11
50.49275073896317
 21
29.67298818913181
 31
0.0
  0
POLYLINE
  5
5C9
330
1F
100
AcDbEntity
  8
0
100
AcDb2dPolyline
 66
     1
 10
0.0
 20
0.0
 30
0.0
  0
VERTEX
  5
5CA
330
5C9
100
AcDbEntity
  8
0
100
AcDbVertex
100
AcDb2dVertex
 10
38.26335073896317
 20
30.41781818913181
 30
0.0
  0
VERTEX
  5
5CB
330
5C9
100
AcDbEntity
  8
0
100
AcDbVertex
100
AcDb2dVertex
 10
38.32570673896317
 20
30.17011518913181
 30
0.0
  0
VERTEX
  5
5CC
330
5C9
100
AcDbEntity
  8
0
100
AcDbVertex
100
AcDb2dVertex
 10
38.57375373896318
 20
30.17011518913181
 30
0.0
  0
VERTEX
  5
5CD
330
5C9
100
AcDbEntity
  8
0
100
AcDbVertex
100
AcDb2dVertex
 10
38.63542073896315
 20
30.47948518913181
 30
0.0
  0
VERTEX
  5
5CE
330
5C9
100
AcDbEntity
  8
0
100
AcDbVertex
100
AcDb2dVertex
 10
38.26335073896317
 20
30.41781818913181
 30
0.0
  0
SEQEND
  5
5CF
330
5C9
100
AcDbEntity
  8
0
  0
SPLINE
  5
5D0
330
1F
100
AcDbEntity
  8
0
100
AcDbSpline
210
0.0
220
0.0
230
1.0
 70
    11
 71
     3
 72
    20
 73
    16
 74
     0
 42
0.0000000001
 43
0.0000000001
 40
0.0
 40
0.0
 40
0.0
 40
0.0
 40
1.0
 40
1.0
 40
1.0
 40
2.0
 40
2.0
 40
2.0
 40
3.0
 40
3.0
 40
3.0
 40
4.0
 40
4.0
 40
4.0
 40
5.0
 40
5.0
 40
5.0
 40
5.0
 10
47.20233993514369
 20
28.92746958496514
 30
0.0
 10
47.01630477889369
 20
28.92746958496514
 30
0.0
 10
46.82992511309507
 20
28.68011172906237
 30
0.0
 10
46.70590167559507
 20
28.24499616916653
 30
0.0
 10
46.82992511309507
 20
28.24499616916653
 30
0.0
 10
46.95463756969232
 20
28.24499616916653
 30
0.0
 10
47.07866100719232
 20
28.24499616916653
 30
0.0
 10
47.20233993514369
 20
28.24499616916653
 30
0.0
 10
47.32739690128954
 20
28.55539927246514
 30
0.0
 10
47.32739690128954
 20
28.74212344781237
 30
0.0
 10
47.32739690128954
 20
28.80310163791653
 30
0.0
 10
47.26504067299091
 20
28.86580237576374
 30
0.0
 10
47.26504067299091
 20
28.92746958496514
 30
0.0
 10
47.26504067299091
 20
28.92746958496514
 30
0.0
 10
47.20233993514369
 20
28.92746958496514
 30
0.0
 10
47.20233993514369
 20
28.92746958496514
 30
0.0
  0
SPLINE
  5
5D1
330
1F
100
AcDbEntity
  8
0
100
AcDbSpline
210
0.0
220
0.0
230
1.0
 70
    11
 71
     3
 72
    11
 73
     7
 74
     0
 42
0.0000000001
 43
0.0000000001
 40
0.0
 40
0.0
 40
0.0
 40
0.0
 40
1.0
 40
1.0
 40
1.0
 40
2.0
 40
2.0
 40
2.0
 40
2.0
 10
33.67000486569924
 20
27.80988060927069
 30
0.0
 10
32.4277034334076
 20
27.7482134000693
 30
0.0
 10
32.4277034334076
 20
27.7482134000693
 30
0.0
 10
32.4277034334076
 20
27.7482134000693
 30
0.0
 10
32.80046276500482
 20
27.7482134000693
 30
0.0
 10
33.23488930580342
 20
27.80988060927069
 30
0.0
 10
33.67000486569924
 20
27.80988060927069
 30
0.0
  0
SPLINE
  5
5D2
330
1F
100
AcDbEntity
  8
0
100
AcDbSpline
210
0.0
220
0.0
230
1.0
 70
    11
 71
     3
 72
    41
 73
    37
 74
     0
 42
0.0000000001
 43
0.0000000001
 40
0.0
 40
0.0
 40
0.0
 40
0.0
 40
1.0
 40
1.0
 40
1.0
 40
2.0
 40
2.0
 40
2.0
 40
3.0
 40
3.0
 40
3.0
 40
4.0
 40
4.0
 40
4.0
 40
5.0
 40
5.0
 40
5.0
 40
6.0
 40
6.0
 40
6.0
 40
7.0
 40
7.0
 40
7.0
 40
8.0
 40
8.0
 40
8.0
 40
9.0
 40
9.0
 40
9.0
 40
10.0
 40
10.0
 40
10.0
 40
11.0
 40
11.0
 40
11.0
 40
12.0
 40
12.0
 40
12.0
 40
12.0
 10
47.14101723549092
 20
29.36189612576374
 30
0.0
 10
47.01630477889369
 20
29.36189612576374
 30
0.0
 10
46.89228134139369
 20
29.29988440701374
 30
0.0
 10
46.82992511309507
 20
29.23821719781237
 30
0.0
 10
46.89228134139369
 20
29.23821719781237
 30
0.0
 10
47.01630477889369
 20
29.23821719781237
 30
0.0
 10
47.07866100719232
 20
29.23821719781237
 30
0.0
 10
47.07866100719232
 20
29.23821719781237
 30
0.0
 10
47.14101723549092
 20
29.23821719781237
 30
0.0
 10
47.14101723549092
 20
29.17586096951374
 30
0.0
 10
47.20268444469232
 20
29.17586096951374
 30
0.0
 10
47.20268444469232
 20
29.17586096951374
 30
0.0
 10
47.20268444469232
 20
29.17586096951374
 30
0.0
 10
47.26504067299091
 20
29.17586096951374
 30
0.0
 10
47.32739690128954
 20
29.11419376031237
 30
0.0
 10
47.32739690128954
 20
29.05114851291653
 30
0.0
 10
47.32739690128954
 20
28.98948130371514
 30
0.0
 10
47.32739690128954
 20
28.98948130371514
 30
0.0
 10
47.26504067299091
 20
28.92712507541653
 30
0.0
 10
47.26504067299091
 20
28.86580237576374
 30
0.0
 10
47.32739690128954
 20
28.80310163791653
 30
0.0
 10
47.32739690128954
 20
28.74177893826374
 30
0.0
 10
47.32739690128954
 20
28.55539927246514
 30
0.0
 10
47.20268444469232
 20
28.24499616916653
 30
0.0
 10
47.07866100719232
 20
28.24499616916653
 30
0.0
 10
47.01630477889369
 20
28.24499616916653
 30
0.0
 10
46.95498207924091
 20
28.24499616916653
 30
0.0
 10
46.82992511309507
 20
28.24499616916653
 30
0.0
 10
46.95498207924091
 20
28.1822954313193
 30
0.0
 10
47.01630477889369
 20
28.12097273166653
 30
0.0
 10
47.14101723549092
 20
28.12097273166653
 30
0.0
 10
47.32739690128954
 20
28.12097273166653
 30
0.0
 10
47.51377656708811
 20
28.43068681586791
 30
0.0
 10
47.51377656708811
 20
28.74177893826374
 30
0.0
 10
47.51377656708811
 20
29.11419376031237
 30
0.0
 10
47.32739690128954
 20
29.36189612576374
 30
0.0
 10
47.14101723549092
 20
29.36189612576374
 30
0.0
  0
SPLINE
  5
5D3
330
1F
100
AcDbEntity
  8
0
100
AcDbSpline
210
0.0
220
0.0
230
1.0
 70
     8
 71
     3
 72
    11
 73
     7
 74
     0
 42
0.0000000001
 43
0.0000000001
 40
0.0
 40
0.0
 40
0.0
 40
0.0
 40
1.0
 40
1.0
 40
1.0
 40
2.0
 40
2.0
 40
2.0
 40
2.0
 10
48.63067652368536
 20
28.1822954313193
 30
0.0
 10
48.63067652368536
 20
28.43068681586791
 30
0.0
 10
48.50699759573399
 20
28.68011172906237
 30
0.0
 10
48.38262964868537
 20
28.86580237576374
 30
0.0
 10
48.19659449243537
 20
28.55539927246514
 30
0.0
 10
48.07257105493537
 20
28.30700788791653
 30
0.0
 10
47.63745549503954
 20
28.12097273166653
 30
0.0
  0
SPLINE
  5
5D4
330
1F
100
AcDbEntity
  8
0
100
AcDbSpline
210
0.0
220
0.0
230
1.0
 70
    11
 71
     3
 72
    23
 73
    19
 74
     0
 42
0.0000000001
 43
0.0000000001
 40
0.0
 40
0.0
 40
0.0
 40
0.0
 40
1.0
 40
1.0
 40
1.0
 40
2.0
 40
2.0
 40
2.0
 40
3.0
 40
3.0
 40
3.0
 40
4.0
 40
4.0
 40
4.0
 40
5.0
 40
5.0
 40
5.0
 40
6.0
 40
6.0
 40
6.0
 40
6.0
 10
48.75504447073399
 20
28.12097273166653
 30
0.0
 10
49.00343585528256
 20
28.12097273166653
 30
0.0
 10
49.18947101153256
 20
28.43068681586791
 30
0.0
 10
49.18947101153256
 20
28.74177893826374
 30
0.0
 10
49.18947101153256
 20
29.11419376031237
 30
0.0
 10
49.00343585528256
 20
29.36189612576374
 30
0.0
 10
48.75504447073399
 20
29.36189612576374
 30
0.0
 10
47.14101723549092
 20
29.36189612576374
 30
0.0
 10
47.14101723549092
 20
29.36189612576374
 30
0.0
 10
47.14101723549092
 20
29.36189612576374
 30
0.0
 10
47.32739690128954
 20
29.36189612576374
 30
0.0
 10
47.51377656708811
 20
29.11419376031237
 30
0.0
 10
47.51377656708811
 20
28.74177893826374
 30
0.0
 10
47.51377656708811
 20
28.43068681586791
 30
0.0
 10
47.32739690128954
 20
28.12097273166653
 30
0.0
 10
47.14101723549092
 20
28.12097273166653
 30
0.0
 10
48.75504447073399
 20
28.12097273166653
 30
0.0
 10
48.75504447073399
 20
28.12097273166653
 30
0.0
 10
48.75504447073399
 20
28.12097273166653
 30
0.0
  0
SPLINE
  5
5D5
330
1F
100
AcDbEntity
  8
0
100
AcDbSpline
210
0.0
220
0.0
230
1.0
 70
     8
 71
     3
 72
    11
 73
     7
 74
     0
 42
0.0000000001
 43
0.0000000001
 40
0.0
 40
0.0
 40
0.0
 40
0.0
 40
1.0
 40
1.0
 40
1.0
 40
2.0
 40
2.0
 40
2.0
 40
2.0
 10
48.19659449243537
 20
22.71975202854152
 30
0.0
 10
48.19659449243537
 20
22.47239417263875
 30
0.0
 10
48.19659449243537
 20
22.47239417263875
 30
0.0
 10
48.19659449243537
 20
22.47239417263875
 30
0.0
 10
48.32061792993536
 20
22.47239417263875
 30
0.0
 10
48.50699759573399
 20
22.5950395719443
 30
0.0
 10
48.56900931448399
 20
22.65808481934014
 30
0.0
  0
SPLINE
  5
5D6
330
1F
100
AcDbEntity
  8
0
100
AcDbSpline
210
0.0
220
0.0
230
1.0
 70
     8
 71
     3
 72
    14
 73
    10
 74
     0
 42
0.0000000001
 43
0.0000000001
 40
0.0
 40
0.0
 40
0.0
 40
0.0
 40
1.0
 40
1.0
 40
1.0
 40
2.0
 40
2.0
 40
2.0
 40
3.0
 40
3.0
 40
3.0
 40
3.0
 10
49.12780380233119
 20
22.8430864469443
 30
0.0
 10
49.49987411483118
 20
23.15486758843736
 30
0.0
 10
49.68556476153256
 20
23.65027231934014
 30
0.0
 10
49.68556476153256
 20
24.20941131673597
 30
0.0
 10
49.68556476153256
 20
24.58182613878457
 30
0.0
 10
49.62355304278256
 20
24.8922292420832
 30
0.0
 10
49.43786239608119
 20
25.2022878358332
 30
0.0
 10
49.18947101153256
 20
25.76108232368042
 30
0.0
 10
49.00343585528256
 20
26.07182993652763
 30
0.0
 10
48.63067652368536
 20
26.38188853027763
 30
0.0
  0
SPLINE
  5
5D7
330
1F
100
AcDbEntity
  8
0
100
AcDbSpline
210
0.0
220
0.0
230
1.0
 70
     8
 71
     3
 72
    11
 73
     7
 74
     0
 42
0.0000000001
 43
0.0000000001
 40
0.0
 40
0.0
 40
0.0
 40
0.0
 40
1.0
 40
1.0
 40
1.0
 40
2.0
 40
2.0
 40
2.0
 40
2.0
 10
48.25826170163674
 20
22.71975202854152
 30
0.0
 10
48.19659449243537
 20
22.34664818739569
 30
0.0
 10
48.19659449243537
 20
22.34664818739569
 30
0.0
 10
48.19659449243537
 20
22.34664818739569
 30
0.0
 10
48.38262964868537
 20
22.40934892524292
 30
0.0
 10
48.56900931448399
 20
22.47239417263875
 30
0.0
 10
48.75504447073399
 20
22.5326833436457
 30
0.0
  0
SPLINE
  5
5D8
330
1F
100
AcDbEntity
  8
0
100
AcDbSpline
210
0.0
220
0.0
230
1.0
 70
     8
 71
     3
 72
    11
 73
     7
 74
     0
 42
0.0000000001
 43
0.0000000001
 40
0.0
 40
0.0
 40
0.0
 40
0.0
 40
1.0
 40
1.0
 40
1.0
 40
2.0
 40
2.0
 40
2.0
 40
2.0
 10
48.94073511743536
 20
22.96814341309014
 30
0.0
 10
49.18947101153256
 20
23.27854651638875
 30
0.0
 10
49.37550616778256
 20
23.77532928548597
 30
0.0
 10
49.37550616778256
 20
24.20941131673597
 30
0.0
 10
49.37550616778256
 20
25.0165971891318
 30
0.0
 10
48.94073511743536
 20
25.69941511447903
 30
0.0
 10
48.38262964868537
 20
25.94815100857625
 30
0.0
  0
SPLINE
  5
5D9
330
1F
100
AcDbEntity
  8
0
100
AcDbSpline
210
0.0
220
0.0
230
1.0
 70
     8
 71
     3
 72
    14
 73
    10
 74
     0
 42
0.0000000001
 43
0.0000000001
 40
0.0
 40
0.0
 40
0.0
 40
0.0
 40
1.0
 40
1.0
 40
1.0
 40
2.0
 40
2.0
 40
2.0
 40
3.0
 40
3.0
 40
3.0
 40
3.0
 10
48.19659449243537
 20
22.96814341309014
 30
0.0
 10
48.38262964868537
 20
22.96814341309014
 30
0.0
 10
48.38262964868537
 20
22.96814341309014
 30
0.0
 10
48.38262964868537
 20
22.96814341309014
 30
0.0
 10
48.63067652368536
 20
23.27854651638875
 30
0.0
 10
48.81671167993537
 20
23.77532928548597
 30
0.0
 10
48.81671167993537
 20
24.20941131673597
 30
0.0
 10
48.81671167993537
 20
25.26533308322902
 30
0.0
 10
48.07257105493537
 20
26.13315263618042
 30
0.0
 10
47.20268444469232
 20
26.13315263618042
 30
0.0
  0
SPLINE
  5
5DA
330
1F
100
AcDbEntity
  8
0
100
AcDbSpline
210
0.0
220
0.0
230
1.0
 70
     8
 71
     3
 72
    11
 73
     7
 74
     0
 42
0.0000000001
 43
0.0000000001
 40
0.0
 40
0.0
 40
0.0
 40
0.0
 40
1.0
 40
1.0
 40
1.0
 40
2.0
 40
2.0
 40
2.0
 40
2.0
 10
48.19659449243537
 20
23.09147783149292
 30
0.0
 10
48.38262964868537
 20
23.40291446343736
 30
0.0
 10
48.50699759573399
 20
23.83665198513875
 30
0.0
 10
48.50699759573399
 20
24.20941131673597
 30
0.0
 10
48.50699759573399
 20
25.26533308322902
 30
0.0
 10
47.82280163219232
 20
26.13315263618042
 30
0.0
 10
46.95498207924091
 20
26.13315263618042
 30
0.0
  0
SPLINE
  5
5DB
330
1F
100
AcDbEntity
  8
0
100
AcDbSpline
210
0.0
220
0.0
230
1.0
 70
    11
 71
     3
 72
    14
 73
    10
 74
     0
 42
0.0000000001
 43
0.0000000001
 40
0.0
 40
0.0
 40
0.0
 40
0.0
 40
1.0
 40
1.0
 40
1.0
 40
2.0
 40
2.0
 40
2.0
 40
3.0
 40
3.0
 40
3.0
 40
3.0
 10
46.95498207924091
 20
22.47239417263875
 30
0.0
 10
46.95498207924091
 20
22.34664818739569
 30
0.0
 10
46.95498207924091
 20
22.34664818739569
 30
0.0
 10
46.95498207924091
 20
22.34664818739569
 30
0.0
 10
46.95498207924091
 20
22.34664818739569
 30
0.0
 10
47.01630477889369
 20
22.34664818739569
 30
0.0
 10
47.07866100719232
 20
22.40934892524292
 30
0.0
 10
46.95498207924091
 20
22.47239417263875
 30
0.0
 10
46.95498207924091
 20
22.47239417263875
 30
0.0
 10
46.95498207924091
 20
22.47239417263875
 30
0.0
  0
SPLINE
  5
5DC
330
1F
100
AcDbEntity
  8
0
100
AcDbSpline
210
0.0
220
0.0
230
1.0
 70
    11
 71
     3
 72
    17
 73
    13
 74
     0
 42
0.0000000001
 43
0.0000000001
 40
0.0
 40
0.0
 40
0.0
 40
0.0
 40
1.0
 40
1.0
 40
1.0
 40
2.0
 40
2.0
 40
2.0
 40
3.0
 40
3.0
 40
3.0
 40
4.0
 40
4.0
 40
4.0
 40
4.0
 10
50.49275063392847
 20
23.77532928548597
 30
0.0
 10
50.43108342472706
 20
23.27854651638875
 30
0.0
 10
50.24504826847707
 20
22.8430864469443
 30
0.0
 10
49.93395614608118
 20
22.5326833436457
 30
0.0
 10
49.93395614608118
 20
22.47239417263875
 30
0.0
 10
49.93395614608118
 20
22.47239417263875
 30
0.0
 10
49.93395614608118
 20
22.47239417263875
 30
0.0
 10
50.36941621552563
 20
22.47239417263875
 30
0.0
 10
50.74148652802563
 20
22.7810747281943
 30
0.0
 10
50.74148652802563
 20
23.21687930718736
 30
0.0
 10
50.74148652802563
 20
23.46492618218736
 30
0.0
 10
50.67878579017847
 20
23.65027231934014
 30
0.0
 10
50.49275063392847
 20
23.77532928548597
 30
0.0
  0
SPLINE
  5
5DD
330
1F
100
AcDbEntity
  8
0
100
AcDbSpline
210
0.0
220
0.0
230
1.0
 70
    11
 71
     3
 72
    29
 73
    25
 74
     0
 42
0.0000000001
 43
0.0000000001
 40
0.0
 40
0.0
 40
0.0
 40
0.0
 40
1.0
 40
1.0
 40
1.0
 40
2.0
 40
2.0
 40
2.0
 40
3.0
 40
3.0
 40
3.0
 40
4.0
 40
4.0
 40
4.0
 40
5.0
 40
5.0
 40
5.0
 40
6.0
 40
6.0
 40
6.0
 40
7.0
 40
7.0
 40
7.0
 40
8.0
 40
8.0
 40
8.0
 40
8.0
 10
52.1074668882687
 20
24.02372067003457
 30
0.0
 10
50.55510686222707
 20
24.02372067003457
 30
0.0
 10
50.55510686222707
 20
24.02372067003457
 30
0.0
 10
50.55510686222707
 20
24.02372067003457
 30
0.0
 10
50.49275063392847
 20
23.77532928548597
 30
0.0
 10
50.49275063392847
 20
23.52693790093736
 30
0.0
 10
50.43108342472706
 20
23.34090274468736
 30
0.0
 10
50.43108342472706
 20
23.27854651638875
 30
0.0
 10
50.43108342472706
 20
23.27854651638875
 30
0.0
 10
50.43108342472706
 20
23.21687930718736
 30
0.0
 10
50.43108342472706
 20
22.90613169434014
 30
0.0
 10
50.18338105927563
 20
22.5950395719443
 30
0.0
 10
49.93395614608118
 20
22.47239417263875
 30
0.0
 10
49.87228893687981
 20
22.47239417263875
 30
0.0
 10
49.87228893687981
 20
22.47239417263875
 30
0.0
 10
49.87228893687981
 20
22.47239417263875
 30
0.0
 10
52.1074668882687
 20
22.47239417263875
 30
0.0
 10
52.1074668882687
 20
22.47239417263875
 30
0.0
 10
52.1074668882687
 20
22.47239417263875
 30
0.0
 10
52.5412044099701
 20
22.47239417263875
 30
0.0
 10
52.91430825111593
 20
22.7810747281943
 30
0.0
 10
52.91430825111593
 20
23.21687930718736
 30
0.0
 10
52.91430825111593
 20
23.65027231934014
 30
0.0
 10
52.5412044099701
 20
24.02372067003457
 30
0.0
 10
52.1074668882687
 20
24.02372067003457
 30
0.0
  0
POLYLINE
  5
5DE
330
1F
100
AcDbEntity
  8
0
100
AcDb2dPolyline
 66
     1
 10
0.0
 20
0.0
 30
0.0
  0
VERTEX
  5
5DF
330
5DE
100
AcDbEntity
  8
0
100
AcDbVertex
100
AcDb2dVertex
 10
48.19659473896317
 20
22.71975218913181
 30
0.0
  0
VERTEX
  5
5E0
330
5DE
100
AcDbEntity
  8
0
100
AcDbVertex
100
AcDb2dVertex
 10
48.50699773896315
 20
22.71975218913181
 30
0.0
  0
VERTEX
  5
5E1
330
5DE
100
AcDbEntity
  8
0
100
AcDbVertex
100
AcDb2dVertex
 10
48.75504473896317
 20
22.53268318913181
 30
0.0
  0
VERTEX
  5
5E2
330
5DE
100
AcDbEntity
  8
0
100
AcDbVertex
100
AcDb2dVertex
 10
49.37550573896317
 20
22.53268318913181
 30
0.0
  0
SEQEND
  5
5E3
330
5DE
100
AcDbEntity
  8
0
  0
POLYLINE
  5
5E4
330
1F
100
AcDbEntity
  8
0
100
AcDb2dPolyline
 66
     1
 10
0.0
 20
0.0
 30
0.0
  0
VERTEX
  5
5E5
330
5E4
100
AcDbEntity
  8
0
100
AcDbVertex
100
AcDb2dVertex
 10
48.19659473896317
 20
22.96814318913181
 30
0.0
  0
VERTEX
  5
5E6
330
5E4
100
AcDbEntity
  8
0
100
AcDbVertex
100
AcDb2dVertex
 10
49.00343573896316
 20
22.96814318913181
 30
0.0
  0
VERTEX
  5
5E7
330
5E4
100
AcDbEntity
  8
0
100
AcDbVertex
100
AcDb2dVertex
 10
49.18947073896316
 20
22.78107518913181
 30
0.0
  0
VERTEX
  5
5E8
330
5E4
100
AcDbEntity
  8
0
100
AcDbVertex
100
AcDb2dVertex
 10
49.56154173896314
 20
22.78107518913181
 30
0.0
  0
SEQEND
  5
5E9
330
5E4
100
AcDbEntity
  8
0
  0
LINE
  5
5EA
330
1F
100
AcDbEntity
  8
0
100
AcDbLine
 10
50.18338073896316
 20
22.65808518913181
 30
0.0
 11
50.49275073896317
 21
22.65808518913181
 31
0.0
  0
LINE
  5
5EB
330
1F
100
AcDbEntity
  8
0
100
AcDbLine
 10
50.36941573896314
 20
22.84308618913181
 30
0.0
 11
50.61746273896318
 21
22.84308618913181
 31
0.0
  0
LINE
  5
5EC
330
1F
100
AcDbEntity
  8
0
100
AcDbLine
 10
50.43108373896316
 20
23.09147818913181
 30
0.0
 11
50.67878573896317
 21
23.09147818913181
 31
0.0
  0
LINE
  5
5ED
330
1F
100
AcDbEntity
  8
0
100
AcDbLine
 10
50.49275073896317
 20
23.2785461891318
 30
0.0
 11
50.80384273896317
 21
23.2785461891318
 31
0.0
  0
LINE
  5
5EE
330
1F
100
AcDbEntity
  8
0
100
AcDbLine
 10
50.49275073896317
 20
23.4649261891318
 30
0.0
 11
50.67878573896317
 21
23.4649261891318
 31
0.0
  0
LINE
  5
5EF
330
1F
100
AcDbEntity
  8
0
100
AcDbLine
 10
50.49275073896317
 20
23.71297318913181
 30
0.0
 11
50.61746273896318
 21
23.71297318913181
 31
0.0
  0
SPLINE
  5
5F0
330
1F
100
AcDbEntity
  8
0
100
AcDbSpline
210
0.0
220
0.0
230
1.0
 70
     8
 71
     3
 72
    29
 73
    25
 74
     0
 42
0.0000000001
 43
0.0000000001
 40
0.0
 40
0.0
 40
0.0
 40
0.0
 40
1.0
 40
1.0
 40
1.0
 40
2.0
 40
2.0
 40
2.0
 40
3.0
 40
3.0
 40
3.0
 40
4.0
 40
4.0
 40
4.0
 40
5.0
 40
5.0
 40
5.0
 40
6.0
 40
6.0
 40
6.0
 40
7.0
 40
7.0
 40
7.0
 40
8.0
 40
8.0
 40
8.0
 40
8.0
 10
48.75504447073399
 20
22.09929033149292
 30
0.0
 10
49.62355304278256
 20
22.09929033149292
 30
0.0
 10
50.30671547767846
 20
22.96814341309014
 30
0.0
 10
50.30671547767846
 20
24.08573238878457
 30
0.0
 10
50.30671547767846
 20
24.45780270128457
 30
0.0
 10
50.24504826847707
 20
24.95561899902764
 30
0.0
 10
50.05832409312981
 20
25.2022878358332
 30
0.0
 10
49.81062172767846
 20
25.82412757107625
 30
0.0
 10
49.12780380233119
 20
26.63131344347208
 30
0.0
 10
48.56900931448399
 20
27.06539547472208
 30
0.0
 10
48.38262964868537
 20
27.06539547472208
 30
0.0
 10
48.38262964868537
 20
27.06539547472208
 30
0.0
 10
48.38262964868537
 20
27.06539547472208
 30
0.0
 10
48.87872339868536
 20
26.63131344347208
 30
0.0
 10
49.62355304278256
 20
25.82412757107625
 30
0.0
 10
49.87228893687981
 20
25.2022878358332
 30
0.0
 10
49.99700139347706
 20
24.95561899902764
 30
0.0
 10
50.12033581187981
 20
24.45780270128457
 30
0.0
 10
50.12033581187981
 20
24.08573238878457
 30
0.0
 10
50.12033581187981
 20
22.96814341309014
 30
0.0
 10
49.43786239608119
 20
22.09929033149292
 30
0.0
 10
48.56900931448399
 20
22.09929033149292
 30
0.0
 10
47.57544377628954
 20
22.09929033149292
 30
0.0
 10
47.57544377628954
 20
22.09929033149292
 30
0.0
 10
47.57544377628954
 20
22.09929033149292
 30
0.0
  0
SPLINE
  5
5F1
330
1F
100
AcDbEntity
  8
0
100
AcDbSpline
210
0.0
220
0.0
230
1.0
 70
    11
 71
     3
 72
    29
 73
    25
 74
     0
 42
0.0000000001
 43
0.0000000001
 40
0.0
 40
0.0
 40
0.0
 40
0.0
 40
1.0
 40
1.0
 40
1.0
 40
2.0
 40
2.0
 40
2.0
 40
3.0
 40
3.0
 40
3.0
 40
4.0
 40
4.0
 40
4.0
 40
5.0
 40
5.0
 40
5.0
 40
6.0
 40
6.0
 40
6.0
 40
7.0
 40
7.0
 40
7.0
 40
8.0
 40
8.0
 40
8.0
 40
8.0
 10
48.38262964868537
 20
22.09929033149292
 30
0.0
 10
49.25148273028256
 20
22.09929033149292
 30
0.0
 10
49.93395614608118
 20
22.96814341309014
 30
0.0
 10
49.93395614608118
 20
24.08573238878457
 30
0.0
 10
49.93395614608118
 20
24.45780270128457
 30
0.0
 10
49.87228893687981
 20
24.7682058045832
 30
0.0
 10
49.74826549937981
 20
25.0782643983332
 30
0.0
 10
49.49987411483118
 20
25.63740339572902
 30
0.0
 10
49.12780380233119
 20
26.25820960232625
 30
0.0
 10
48.69268824243537
 20
26.69194712402763
 30
0.0
 10
48.81671167993537
 20
27.06539547472208
 30
0.0
 10
48.81671167993537
 20
27.06539547472208
 30
0.0
 10
48.81671167993537
 20
27.06539547472208
 30
0.0
 10
49.31383895858118
 20
26.63131344347208
 30
0.0
 10
49.99700139347706
 20
25.82412757107625
 30
0.0
 10
50.30671547767846
 20
25.2022878358332
 30
0.0
 10
50.43108342472706
 20
24.95561899902764
 30
0.0
 10
50.55510686222707
 20
24.45780270128457
 30
0.0
 10
50.55510686222707
 20
24.08573238878457
 30
0.0
 10
50.55510686222707
 20
22.96814341309014
 30
0.0
 10
49.81062172767846
 20
22.09929033149292
 30
0.0
 10
48.94073511743536
 20
22.09929033149292
 30
0.0
 10
48.38262964868537
 20
22.09929033149292
 30
0.0
 10
48.38262964868537
 20
22.09929033149292
 30
0.0
 10
48.38262964868537
 20
22.09929033149292
 30
0.0
  0
LINE
  5
5F2
330
1F
100
AcDbEntity
  8
0
100
AcDbLine
 10
47.01630473896315
 20
26.5686131891318
 30
0.0
 11
47.01630473896315
 21
26.19619818913181
 31
0.0
  0
LINE
  5
5F3
330
1F
100
AcDbEntity
  8
0
100
AcDbLine
 10
46.70590173896317
 20
26.19619818913181
 30
0.0
 11
47.38871973896315
 21
26.19619818913181
 31
0.0
  0
LINE
  5
5F4
330
1F
100
AcDbEntity
  8
0
100
AcDbLine
 10
46.45854373896315
 20
26.5686131891318
 30
0.0
 11
47.07866073896318
 21
26.5686131891318
 31
0.0
  0
SPLINE
  5
5F5
330
1F
100
AcDbEntity
  8
0
100
AcDbSpline
210
0.0
220
0.0
230
1.0
 70
    11
 71
     3
 72
    17
 73
    13
 74
     0
 42
0.0000000001
 43
0.0000000001
 40
0.0
 40
0.0
 40
0.0
 40
0.0
 40
1.0
 40
1.0
 40
1.0
 40
2.0
 40
2.0
 40
2.0
 40
3.0
 40
3.0
 40
3.0
 40
4.0
 40
4.0
 40
4.0
 40
4.0
 10
43.72727211830346
 20
28.0582719938193
 30
0.0
 10
43.72727211830346
 20
27.93390404677069
 30
0.0
 10
43.72727211830346
 20
27.93390404677069
 30
0.0
 10
43.72727211830346
 20
27.93390404677069
 30
0.0
 10
45.15457517819925
 20
27.7482134000693
 30
0.0
 10
45.15457517819925
 20
27.7482134000693
 30
0.0
 10
45.15457517819925
 20
27.7482134000693
 30
0.0
 10
45.34129935354648
 20
28.1822954313193
 30
0.0
 10
45.34129935354648
 20
28.1822954313193
 30
0.0
 10
45.34129935354648
 20
28.1822954313193
 30
0.0
 10
44.84382756535203
 20
28.1822954313193
 30
0.0
 10
44.28503307750477
 20
28.12097273166653
 30
0.0
 10
43.72727211830346
 20
28.0582719938193
 30
0.0
  0
SPLINE
  5
5F6
330
1F
100
AcDbEntity
  8
0
100
AcDbSpline
210
0.0
220
0.0
230
1.0
 70
    11
 71
     3
 72
    17
 73
    13
 74
     0
 42
0.0000000001
 43
0.0000000001
 40
0.0
 40
0.0
 40
0.0
 40
0.0
 40
1.0
 40
1.0
 40
1.0
 40
2.0
 40
2.0
 40
2.0
 40
3.0
 40
3.0
 40
3.0
 40
4.0
 40
4.0
 40
4.0
 40
4.0
 10
45.65101343774787
 20
29.17586096951374
 30
0.0
 10
45.83670408444925
 20
29.67298824815958
 30
0.0
 10
45.83670408444925
 20
29.67298824815958
 30
0.0
 10
45.83670408444925
 20
29.67298824815958
 30
0.0
 10
44.34738930580346
 20
29.67298824815958
 30
0.0
 10
44.34738930580346
 20
29.67298824815958
 30
0.0
 10
44.34738930580346
 20
29.67298824815958
 30
0.0
 10
44.09865341170621
 20
29.05114851291653
 30
0.0
 10
44.09865341170621
 20
29.05114851291653
 30
0.0
 10
44.09865341170621
 20
29.05114851291653
 30
0.0
 10
44.65744789955346
 20
29.11419376031237
 30
0.0
 10
45.15457517819925
 20
29.17586096951374
 30
0.0
 10
45.65101343774787
 20
29.17586096951374
 30
0.0
  0
LINE
  5
5F7
330
1F
100
AcDbEntity
  8
0
100
AcDbLine
 10
43.97428573896317
 20
23.2785461891318
 30
0.0
 11
43.97428573896317
 21
22.40934918913181
 31
0.0
  0
LINE
  5
5F8
330
1F
100
AcDbEntity
  8
0
100
AcDbLine
 10
43.72727173896317
 20
23.21687918913181
 30
0.0
 11
43.72727173896317
 21
22.34664818913181
 31
0.0
  0
LINE
  5
5F9
330
1F
100
AcDbEntity
  8
0
100
AcDbLine
 10
46.27147473896314
 20
22.84308618913181
 30
0.0
 11
46.27147473896314
 21
22.53268318913181
 31
0.0
  0
SPLINE
  5
5FA
330
1F
100
AcDbEntity
  8
0
100
AcDbSpline
210
0.0
220
0.0
230
1.0
 70
     8
 71
     3
 72
    56
 73
    52
 74
     0
 42
0.0000000001
 43
0.0000000001
 40
0.0
 40
0.0
 40
0.0
 40
0.0
 40
1.0
 40
1.0
 40
1.0
 40
2.0
 40
2.0
 40
2.0
 40
3.0
 40
3.0
 40
3.0
 40
4.0
 40
4.0
 40
4.0
 40
5.0
 40
5.0
 40
5.0
 40
6.0
 40
6.0
 40
6.0
 40
7.0
 40
7.0
 40
7.0
 40
8.0
 40
8.0
 40
8.0
 40
9.0
 40
9.0
 40
9.0
 40
10.0
 40
10.0
 40
10.0
 40
11.0
 40
11.0
 40
11.0
 40
12.0
 40
12.0
 40
12.0
 40
13.0
 40
13.0
 40
13.0
 40
14.0
 40
14.0
 40
14.0
 40
15.0
 40
15.0
 40
15.0
 40
16.0
 40
16.0
 40
16.0
 40
17.0
 40
17.0
 40
17.0
 40
17.0
 10
45.71336966604647
 20
23.46492618218736
 30
0.0
 10
45.71336966604647
 20
23.65027231934014
 30
0.0
 10
45.77469236569925
 20
23.83665198513875
 30
0.0
 10
45.77469236569925
 20
24.08573238878457
 30
0.0
 10
45.71336966604647
 20
24.02372067003457
 30
0.0
 10
45.65101343774787
 20
23.96136444173597
 30
0.0
 10
45.52733450979647
 20
23.89900821343736
 30
0.0
 10
45.34129935354648
 20
23.83665198513875
 30
0.0
 10
45.09187444035203
 20
24.02372067003457
 30
0.0
 10
45.02951821205345
 20
24.08573238878457
 30
0.0
 10
44.59681421899787
 20
24.5205034391318
 30
0.0
 10
44.59681421899787
 20
24.5205034391318
 30
0.0
 10
44.59681421899787
 20
24.5205034391318
 30
0.0
 10
44.59681421899787
 20
24.8305620328818
 30
0.0
 10
44.59681421899787
 20
24.8305620328818
 30
0.0
 10
44.59681421899787
 20
24.8305620328818
 30
0.0
 10
44.59681421899787
 20
24.8922292420832
 30
0.0
 10
44.65744789955346
 20
24.95561899902764
 30
0.0
 10
44.72014863740063
 20
24.95561899902764
 30
0.0
 10
44.78250486569925
 20
24.95561899902764
 30
0.0
 10
44.84382756535203
 20
24.8922292420832
 30
0.0
 10
44.84382756535203
 20
24.8305620328818
 30
0.0
 10
44.84382756535203
 20
24.8305620328818
 30
0.0
 10
44.84382756535203
 20
24.7065385953818
 30
0.0
 10
44.84382756535203
 20
24.64383785753457
 30
0.0
 10
44.90583928410202
 20
24.58182613878457
 30
0.0
 10
45.15457517819925
 20
24.27176754503457
 30
0.0
 10
45.15457517819925
 20
24.27176754503457
 30
0.0
 10
45.27859861569925
 20
24.20941131673597
 30
0.0
 10
45.40262205319925
 20
24.14739959798597
 30
0.0
 10
45.46497828149788
 20
24.20941131673597
 30
0.0
 10
45.58831269990062
 20
24.20941131673597
 30
0.0
 10
45.65101343774787
 20
24.33343475423598
 30
0.0
 10
45.71336966604647
 20
24.45780270128457
 30
0.0
 10
45.71336966604647
 20
24.5205034391318
 30
0.0
 10
45.71336966604647
 20
24.5205034391318
 30
0.0
 10
45.71336966604647
 20
24.5205034391318
 30
0.0
 10
45.58831269990062
 20
25.51303544868042
 30
0.0
 10
44.84382756535203
 20
26.19619788357625
 30
0.0
 10
44.03698620250477
 20
26.19619788357625
 30
0.0
 10
43.04342066431035
 20
26.19619788357625
 30
0.0
 10
42.23657930146313
 20
25.26533308322902
 30
0.0
 10
42.23657930146313
 20
24.08573238878457
 30
0.0
 10
42.23657930146313
 20
22.96814341309014
 30
0.0
 10
43.04342066431035
 20
22.03590057454847
 30
0.0
 10
44.03698620250477
 20
22.03590057454847
 30
0.0
 10
44.65744789955346
 20
22.03590057454847
 30
0.0
 10
45.21589787785202
 20
22.40934892524292
 30
0.0
 10
45.52733450979647
 20
23.03118866048597
 30
0.0
 10
45.40262205319925
 20
23.27854651638875
 30
0.0
 10
45.34129935354648
 20
23.52693790093736
 30
0.0
 10
45.34129935354648
 20
23.65027231934014
 30
0.0
  0
SPLINE
  5
5FB
330
1F
100
AcDbEntity
  8
0
100
AcDbSpline
210
0.0
220
0.0
230
1.0
 70
    11
 71
     3
 72
    53
 73
    49
 74
     0
 42
0.0000000001
 43
0.0000000001
 40
0.0
 40
0.0
 40
0.0
 40
0.0
 40
1.0
 40
1.0
 40
1.0
 40
2.0
 40
2.0
 40
2.0
 40
3.0
 40
3.0
 40
3.0
 40
4.0
 40
4.0
 40
4.0
 40
5.0
 40
5.0
 40
5.0
 40
6.0
 40
6.0
 40
6.0
 40
7.0
 40
7.0
 40
7.0
 40
8.0
 40
8.0
 40
8.0
 40
9.0
 40
9.0
 40
9.0
 40
10.0
 40
10.0
 40
10.0
 40
11.0
 40
11.0
 40
11.0
 40
12.0
 40
12.0
 40
12.0
 40
13.0
 40
13.0
 40
13.0
 40
14.0
 40
14.0
 40
14.0
 40
15.0
 40
15.0
 40
15.0
 40
16.0
 40
16.0
 40
16.0
 40
16.0
 10
45.02951821205345
 20
24.08573238878457
 30
0.0
 10
44.59681421899787
 20
24.5205034391318
 30
0.0
 10
44.59681421899787
 20
24.5205034391318
 30
0.0
 10
44.59681421899787
 20
24.5205034391318
 30
0.0
 10
44.59681421899787
 20
24.8305620328818
 30
0.0
 10
44.59681421899787
 20
24.8305620328818
 30
0.0
 10
44.59681421899787
 20
24.8305620328818
 30
0.0
 10
44.59681421899787
 20
24.8922292420832
 30
0.0
 10
44.65744789955346
 20
24.95561899902764
 30
0.0
 10
44.71980412785202
 20
24.95561899902764
 30
0.0
 10
44.78250486569925
 20
24.95561899902764
 30
0.0
 10
44.84382756535203
 20
24.8922292420832
 30
0.0
 10
44.84382756535203
 20
24.8305620328818
 30
0.0
 10
44.84382756535203
 20
24.8305620328818
 30
0.0
 10
44.84382756535203
 20
24.7065385953818
 30
0.0
 10
44.84382756535203
 20
24.64383785753457
 30
0.0
 10
44.90583928410202
 20
24.58182613878457
 30
0.0
 10
45.15457517819925
 20
24.27176754503457
 30
0.0
 10
45.15457517819925
 20
24.27176754503457
 30
0.0
 10
45.21589787785202
 20
24.27176754503457
 30
0.0
 10
45.27825410615062
 20
24.20941131673597
 30
0.0
 10
45.40262205319925
 20
24.20941131673597
 30
0.0
 10
45.40262205319925
 20
24.64383785753457
 30
0.0
 10
45.27825410615062
 20
25.0782643983332
 30
0.0
 10
45.02951821205345
 20
25.39004553982625
 30
0.0
 10
45.09187444035203
 20
25.45102372993042
 30
0.0
 10
45.09187444035203
 20
25.45102372993042
 30
0.0
 10
45.09187444035203
 20
25.45102372993042
 30
0.0
 10
45.02951821205345
 20
25.63740339572902
 30
0.0
 10
45.02951821205345
 20
25.63740339572902
 30
0.0
 10
45.02951821205345
 20
25.63740339572902
 30
0.0
 10
44.84382756535203
 20
25.63740339572902
 30
0.0
 10
44.84382756535203
 20
25.63740339572902
 30
0.0
 10
44.84382756535203
 20
25.63740339572902
 30
0.0
 10
44.59681421899787
 20
25.94815100857625
 30
0.0
 10
44.22336586830346
 20
26.13349714572902
 30
0.0
 10
43.78859481795621
 20
26.13349714572902
 30
0.0
 10
42.91974173635899
 20
26.13349714572902
 30
0.0
 10
42.23623479191454
 20
25.26533308322902
 30
0.0
 10
42.23623479191454
 20
24.20941131673597
 30
0.0
 10
42.23623479191454
 20
23.21687930718736
 30
0.0
 10
42.91974173635899
 20
22.34664818739569
 30
0.0
 10
43.78859481795621
 20
22.34664818739569
 30
0.0
 10
44.59681421899787
 20
22.34664818739569
 30
0.0
 10
45.21589787785202
 20
23.03118866048597
 30
0.0
 10
45.34129935354648
 20
23.89935272298597
 30
0.0
 10
45.21589787785202
 20
23.96136444173597
 30
0.0
 10
45.09187444035203
 20
24.02372067003457
 30
0.0
 10
45.02951821205345
 20
24.08573238878457
 30
0.0
  0
SPLINE
  5
5FC
330
1F
100
AcDbEntity
  8
0
100
AcDbSpline
210
0.0
220
0.0
230
1.0
 70
    11
 71
     3
 72
    14
 73
    10
 74
     0
 42
0.0000000001
 43
0.0000000001
 40
0.0
 40
0.0
 40
0.0
 40
0.0
 40
1.0
 40
1.0
 40
1.0
 40
2.0
 40
2.0
 40
2.0
 40
3.0
 40
3.0
 40
3.0
 40
3.0
 10
46.39618759139369
 20
26.31918779243042
 30
0.0
 10
46.70590167559507
 20
26.31918779243042
 30
0.0
 10
46.70590167559507
 20
26.31918779243042
 30
0.0
 10
46.70590167559507
 20
26.31918779243042
 30
0.0
 10
46.39618759139369
 20
26.56861270562486
 30
0.0
 10
46.39618759139369
 20
26.56861270562486
 30
0.0
 10
46.39618759139369
 20
26.56861270562486
 30
0.0
 10
46.39618759139369
 20
26.50591196777764
 30
0.0
 10
46.39618759139369
 20
26.38188853027763
 30
0.0
 10
46.39618759139369
 20
26.31918779243042
 30
0.0
  0
SPLINE
  5
5FD
330
1F
100
AcDbEntity
  8
0
100
AcDbSpline
210
0.0
220
0.0
230
1.0
 70
    11
 71
     3
 72
    20
 73
    16
 74
     0
 42
0.0000000001
 43
0.0000000001
 40
0.0
 40
0.0
 40
0.0
 40
0.0
 40
1.0
 40
1.0
 40
1.0
 40
2.0
 40
2.0
 40
2.0
 40
3.0
 40
3.0
 40
3.0
 40
4.0
 40
4.0
 40
4.0
 40
5.0
 40
5.0
 40
5.0
 40
5.0
 10
46.08543997854647
 20
26.31918779243042
 30
0.0
 10
46.14710718774787
 20
26.44458926812486
 30
0.0
 10
46.14710718774787
 20
26.63131344347208
 30
0.0
 10
46.14710718774787
 20
26.81700409017347
 30
0.0
 10
45.15457517819925
 20
27.7482134000693
 30
0.0
 10
45.15457517819925
 20
27.7482134000693
 30
0.0
 10
45.15457517819925
 20
27.7482134000693
 30
0.0
 10
43.72727211830346
 20
27.93390404677069
 30
0.0
 10
43.72727211830346
 20
27.93390404677069
 30
0.0
 10
43.72727211830346
 20
27.93390404677069
 30
0.0
 10
45.46497828149788
 20
26.31918779243042
 30
0.0
 10
45.46497828149788
 20
26.31918779243042
 30
0.0
 10
45.46497828149788
 20
26.31918779243042
 30
0.0
 10
46.08543997854647
 20
26.31918779243042
 30
0.0
 10
46.08543997854647
 20
26.31918779243042
 30
0.0
 10
46.08543997854647
 20
26.31918779243042
 30
0.0
  0
SPLINE
  5
5FE
330
1F
100
AcDbEntity
  8
0
100
AcDbSpline
210
0.0
220
0.0
230
1.0
 70
    11
 71
     3
 72
    17
 73
    13
 74
     0
 42
0.0000000001
 43
0.0000000001
 40
0.0
 40
0.0
 40
0.0
 40
0.0
 40
1.0
 40
1.0
 40
1.0
 40
2.0
 40
2.0
 40
2.0
 40
3.0
 40
3.0
 40
3.0
 40
4.0
 40
4.0
 40
4.0
 40
4.0
 10
46.3341758726437
 20
26.07182993652763
 30
0.0
 10
46.70590167559507
 20
26.07182993652763
 30
0.0
 10
46.70590167559507
 20
26.07182993652763
 30
0.0
 10
46.70590167559507
 20
26.07182993652763
 30
0.0
 10
46.70590167559507
 20
26.31918779243042
 30
0.0
 10
46.70590167559507
 20
26.31918779243042
 30
0.0
 10
46.70590167559507
 20
26.31918779243042
 30
0.0
 10
46.39618759139369
 20
26.31918779243042
 30
0.0
 10
46.39618759139369
 20
26.31918779243042
 30
0.0
 10
46.39618759139369
 20
26.31918779243042
 30
0.0
 10
46.39618759139369
 20
26.19619788357625
 30
0.0
 10
46.3341758726437
 20
26.13349714572902
 30
0.0
 10
46.3341758726437
 20
26.07182993652763
 30
0.0
  0
SPLINE
  5
5FF
330
1F
100
AcDbEntity
  8
0
100
AcDbSpline
210
0.0
220
0.0
230
1.0
 70
    11
 71
     3
 72
    17
 73
    13
 74
     0
 42
0.0000000001
 43
0.0000000001
 40
0.0
 40
0.0
 40
0.0
 40
0.0
 40
1.0
 40
1.0
 40
1.0
 40
2.0
 40
2.0
 40
2.0
 40
3.0
 40
3.0
 40
3.0
 40
4.0
 40
4.0
 40
4.0
 40
4.0
 10
46.08543997854647
 20
26.31918779243042
 30
0.0
 10
45.46497828149788
 20
26.31918779243042
 30
0.0
 10
45.46497828149788
 20
26.31918779243042
 30
0.0
 10
45.46497828149788
 20
26.31918779243042
 30
0.0
 10
45.46497828149788
 20
26.07182993652763
 30
0.0
 10
45.46497828149788
 20
26.07182993652763
 30
0.0
 10
45.46497828149788
 20
26.07182993652763
 30
0.0
 10
46.08543997854647
 20
26.07182993652763
 30
0.0
 10
46.08543997854647
 20
26.07182993652763
 30
0.0
 10
46.08543997854647
 20
26.07182993652763
 30
0.0
 10
46.08543997854647
 20
26.13349714572902
 30
0.0
 10
46.08543997854647
 20
26.19619788357625
 30
0.0
 10
46.08543997854647
 20
26.31918779243042
 30
0.0
  0
POLYLINE
  5
600
330
1F
100
AcDbEntity
  8
0
100
AcDb2dPolyline
 66
     1
 10
0.0
 20
0.0
 30
0.0
  0
VERTEX
  5
601
330
600
100
AcDbEntity
  8
0
100
AcDbVertex
100
AcDb2dVertex
 10
44.59681373896316
 20
24.52050318913181
 30
0.0
  0
VERTEX
  5
602
330
600
100
AcDbEntity
  8
0
100
AcDbVertex
100
AcDb2dVertex
 10
44.59681373896316
 20
24.45814718913181
 30
0.0
  0
VERTEX
  5
603
330
600
100
AcDbEntity
  8
0
100
AcDbVertex
100
AcDb2dVertex
 10
44.78250473896316
 20
24.20941118913181
 30
0.0
  0
VERTEX
  5
604
330
600
100
AcDbEntity
  8
0
100
AcDbVertex
100
AcDb2dVertex
 10
44.84382773896316
 20
24.27176718913181
 30
0.0
  0
VERTEX
  5
605
330
600
100
AcDbEntity
  8
0
100
AcDbVertex
100
AcDb2dVertex
 10
44.59681373896316
 20
24.52050318913181
 30
0.0
  0
SEQEND
  5
606
330
600
100
AcDbEntity
  8
0
  0
POLYLINE
  5
607
330
1F
100
AcDbEntity
  8
0
100
AcDb2dPolyline
 66
     1
 10
0.0
 20
0.0
 30
0.0
 70
     1
  0
VERTEX
  5
608
330
607
100
AcDbEntity
  8
0
100
AcDbVertex
100
AcDb2dVertex
 10
48.94073473896319
 20
27.06539518913181
 30
0.0
  0
VERTEX
  5
609
330
607
100
AcDbEntity
  8
0
100
AcDbVertex
100
AcDb2dVertex
 10
49.00343573896316
 20
27.06539518913181
 30
0.0
  0
VERTEX
  5
60A
330
607
100
AcDbEntity
  8
0
100
AcDbVertex
100
AcDb2dVertex
 10
49.00343573896316
 20
27.56148918913181
 30
0.0
  0
VERTEX
  5
60B
330
607
100
AcDbEntity
  8
0
100
AcDbVertex
100
AcDb2dVertex
 10
48.94073473896319
 20
27.56148918913181
 30
0.0
  0
SEQEND
  5
60C
330
607
100
AcDbEntity
  8
0
  0
POLYLINE
  5
60D
330
1F
100
AcDbEntity
  8
0
100
AcDb2dPolyline
 66
     1
 10
0.0
 20
0.0
 30
0.0
 70
     1
  0
VERTEX
  5
60E
330
60D
100
AcDbEntity
  8
0
100
AcDbVertex
100
AcDb2dVertex
 10
48.75504473896317
 20
27.06539518913181
 30
0.0
  0
VERTEX
  5
60F
330
60D
100
AcDbEntity
  8
0
100
AcDbVertex
100
AcDb2dVertex
 10
48.81671173896316
 20
27.06539518913181
 30
0.0
  0
VERTEX
  5
610
330
60D
100
AcDbEntity
  8
0
100
AcDbVertex
100
AcDb2dVertex
 10
48.81671173896316
 20
27.56148918913181
 30
0.0
  0
VERTEX
  5
611
330
60D
100
AcDbEntity
  8
0
100
AcDbVertex
100
AcDb2dVertex
 10
48.75504473896317
 20
27.56148918913181
 30
0.0
  0
SEQEND
  5
612
330
60D
100
AcDbEntity
  8
0
  0
POLYLINE
  5
613
330
1F
100
AcDbEntity
  8
0
100
AcDb2dPolyline
 66
     1
 10
0.0
 20
0.0
 30
0.0
 70
     1
  0
VERTEX
  5
614
330
613
100
AcDbEntity
  8
0
100
AcDbVertex
100
AcDb2dVertex
 10
48.50699773896315
 20
27.06539518913181
 30
0.0
  0
VERTEX
  5
615
330
613
100
AcDbEntity
  8
0
100
AcDbVertex
100
AcDb2dVertex
 10
48.56866473896317
 20
27.06539518913181
 30
0.0
  0
VERTEX
  5
616
330
613
100
AcDbEntity
  8
0
100
AcDbVertex
100
AcDb2dVertex
 10
48.56866473896317
 20
27.56148918913181
 30
0.0
  0
VERTEX
  5
617
330
613
100
AcDbEntity
  8
0
100
AcDbVertex
100
AcDb2dVertex
 10
48.50699773896315
 20
27.56148918913181
 30
0.0
  0
SEQEND
  5
618
330
613
100
AcDbEntity
  8
0
  0
POLYLINE
  5
619
330
1F
100
AcDbEntity
  8
0
100
AcDb2dPolyline
 66
     1
 10
0.0
 20
0.0
 30
0.0
 70
     1
  0
VERTEX
  5
61A
330
619
100
AcDbEntity
  8
0
100
AcDbVertex
100
AcDb2dVertex
 10
48.19659473896317
 20
27.06539518913181
 30
0.0
  0
VERTEX
  5
61B
330
619
100
AcDbEntity
  8
0
100
AcDbVertex
100
AcDb2dVertex
 10
48.32027373896315
 20
27.06539518913181
 30
0.0
  0
VERTEX
  5
61C
330
619
100
AcDbEntity
  8
0
100
AcDbVertex
100
AcDb2dVertex
 10
48.32027373896315
 20
27.56148918913181
 30
0.0
  0
VERTEX
  5
61D
330
619
100
AcDbEntity
  8
0
100
AcDbVertex
100
AcDb2dVertex
 10
48.19659473896317
 20
27.56148918913181
 30
0.0
  0
SEQEND
  5
61E
330
619
100
AcDbEntity
  8
0
  0
POLYLINE
  5
61F
330
1F
100
AcDbEntity
  8
0
100
AcDb2dPolyline
 66
     1
 10
0.0
 20
0.0
 30
0.0
 70
     1
  0
VERTEX
  5
620
330
61F
100
AcDbEntity
  8
0
100
AcDbVertex
100
AcDb2dVertex
 10
46.89228173896316
 20
27.56148918913181
 30
0.0
  0
VERTEX
  5
621
330
61F
100
AcDbEntity
  8
0
100
AcDbVertex
100
AcDb2dVertex
 10
46.95463773896318
 20
27.56148918913181
 30
0.0
  0
VERTEX
  5
622
330
61F
100
AcDbEntity
  8
0
100
AcDbVertex
100
AcDb2dVertex
 10
46.95463773896318
 20
27.06539518913181
 30
0.0
  0
VERTEX
  5
623
330
61F
100
AcDbEntity
  8
0
100
AcDbVertex
100
AcDb2dVertex
 10
46.89228173896316
 20
27.06539518913181
 30
0.0
  0
SEQEND
  5
624
330
61F
100
AcDbEntity
  8
0
  0
POLYLINE
  5
625
330
1F
100
AcDbEntity
  8
0
100
AcDb2dPolyline
 66
     1
 10
0.0
 20
0.0
 30
0.0
  0
VERTEX
  5
626
330
625
100
AcDbEntity
  8
0
100
AcDbVertex
100
AcDb2dVertex
 10
47.14101673896315
 20
27.06539518913181
 30
0.0
  0
VERTEX
  5
627
330
625
100
AcDbEntity
  8
0
100
AcDbVertex
100
AcDb2dVertex
 10
47.14101673896315
 20
27.56148918913181
 30
0.0
  0
VERTEX
  5
628
330
625
100
AcDbEntity
  8
0
100
AcDbVertex
100
AcDb2dVertex
 10
47.14101673896315
 20
27.06539518913181
 30
0.0
  0
SEQEND
  5
629
330
625
100
AcDbEntity
  8
0
  0
POLYLINE
  5
62A
330
1F
100
AcDbEntity
  8
0
100
AcDb2dPolyline
 66
     1
 10
0.0
 20
0.0
 30
0.0
 70
     1
  0
VERTEX
  5
62B
330
62A
100
AcDbEntity
  8
0
100
AcDbVertex
100
AcDb2dVertex
 10
47.32739673896316
 20
27.56148918913181
 30
0.0
  0
VERTEX
  5
62C
330
62A
100
AcDbEntity
  8
0
100
AcDbVertex
100
AcDb2dVertex
 10
47.38871973896315
 20
27.56148918913181
 30
0.0
  0
VERTEX
  5
62D
330
62A
100
AcDbEntity
  8
0
100
AcDbVertex
100
AcDb2dVertex
 10
47.38871973896315
 20
27.06539518913181
 30
0.0
  0
VERTEX
  5
62E
330
62A
100
AcDbEntity
  8
0
100
AcDbVertex
100
AcDb2dVertex
 10
47.32739673896316
 20
27.06539518913181
 30
0.0
  0
SEQEND
  5
62F
330
62A
100
AcDbEntity
  8
0
  0
POLYLINE
  5
630
330
1F
100
AcDbEntity
  8
0
100
AcDb2dPolyline
 66
     1
 10
0.0
 20
0.0
 30
0.0
 70
     1
  0
VERTEX
  5
631
330
630
100
AcDbEntity
  8
0
100
AcDbVertex
100
AcDb2dVertex
 10
47.57544373896315
 20
27.56148918913181
 30
0.0
  0
VERTEX
  5
632
330
630
100
AcDbEntity
  8
0
100
AcDbVertex
100
AcDb2dVertex
 10
47.69946673896316
 20
27.56148918913181
 30
0.0
  0
VERTEX
  5
633
330
630
100
AcDbEntity
  8
0
100
AcDbVertex
100
AcDb2dVertex
 10
47.69946673896316
 20
27.06539518913181
 30
0.0
  0
VERTEX
  5
634
330
630
100
AcDbEntity
  8
0
100
AcDbVertex
100
AcDb2dVertex
 10
47.57544373896315
 20
27.06539518913181
 30
0.0
  0
SEQEND
  5
635
330
630
100
AcDbEntity
  8
0
  0
POLYLINE
  5
636
330
1F
100
AcDbEntity
  8
0
100
AcDb2dPolyline
 66
     1
 10
0.0
 20
0.0
 30
0.0
 70
     1
  0
VERTEX
  5
637
330
636
100
AcDbEntity
  8
0
100
AcDbVertex
100
AcDb2dVertex
 10
47.88550273896317
 20
27.56148918913181
 30
0.0
  0
VERTEX
  5
638
330
636
100
AcDbEntity
  8
0
100
AcDbVertex
100
AcDb2dVertex
 10
48.00987073896317
 20
27.56148918913181
 30
0.0
  0
VERTEX
  5
639
330
636
100
AcDbEntity
  8
0
100
AcDbVertex
100
AcDb2dVertex
 10
48.00987073896317
 20
27.06539518913181
 30
0.0
  0
VERTEX
  5
63A
330
636
100
AcDbEntity
  8
0
100
AcDbVertex
100
AcDb2dVertex
 10
47.88550273896317
 20
27.06539518913181
 30
0.0
  0
SEQEND
  5
63B
330
636
100
AcDbEntity
  8
0
  0
SPLINE
  5
63C
330
1F
100
AcDbEntity
  8
0
100
AcDbSpline
210
0.0
220
0.0
230
1.0
 70
     8
 71
     3
 72
    11
 73
     7
 74
     0
 42
0.0000000001
 43
0.0000000001
 40
0.0
 40
0.0
 40
0.0
 40
0.0
 40
1.0
 40
1.0
 40
1.0
 40
2.0
 40
2.0
 40
2.0
 40
2.0
 10
46.27147513479648
 20
25.76108232368042
 30
0.0
 10
46.52055553844232
 20
25.51303544868042
 30
0.0
 10
46.89228134139369
 20
25.0782643983332
 30
0.0
 10
46.95463756969232
 20
24.33343475423598
 30
0.0
 10
47.01630477889369
 20
23.03118866048597
 30
0.0
 10
47.01630477889369
 20
23.03118866048597
 30
0.0
 10
47.01630477889369
 20
23.03118866048597
 30
0.0
  0
SPLINE
  5
63D
330
1F
100
AcDbEntity
  8
0
100
AcDbSpline
210
0.0
220
0.0
230
1.0
 70
     8
 71
     3
 72
    11
 73
     7
 74
     0
 42
0.0000000001
 43
0.0000000001
 40
0.0
 40
0.0
 40
0.0
 40
0.0
 40
1.0
 40
1.0
 40
1.0
 40
2.0
 40
2.0
 40
2.0
 40
2.0
 10
46.70590167559507
 20
26.07182993652763
 30
0.0
 10
46.95463756969232
 20
25.82412757107625
 30
0.0
 10
47.51343205753954
 20
25.32700029243042
 30
0.0
 10
47.57544377628954
 20
24.4581472108332
 30
0.0
 10
47.69946721378954
 20
23.15486758843736
 30
0.0
 10
47.69946721378954
 20
23.15486758843736
 30
0.0
 10
47.69946721378954
 20
23.15486758843736
 30
0.0
  0
SPLINE
  5
63E
330
1F
100
AcDbEntity
  8
0
100
AcDbSpline
210
0.0
220
0.0
230
1.0
 70
     8
 71
     3
 72
    11
 73
     7
 74
     0
 42
0.0000000001
 43
0.0000000001
 40
0.0
 40
0.0
 40
0.0
 40
0.0
 40
1.0
 40
1.0
 40
1.0
 40
2.0
 40
2.0
 40
2.0
 40
2.0
 10
46.3341758726437
 20
25.88579478027764
 30
0.0
 10
46.52055553844232
 20
25.63740339572902
 30
0.0
 10
47.01630477889369
 20
25.2022878358332
 30
0.0
 10
47.07866100719232
 20
24.33343475423598
 30
0.0
 10
47.20233993514369
 20
23.03118866048597
 30
0.0
 10
47.20233993514369
 20
23.03118866048597
 30
0.0
 10
47.20233993514369
 20
23.03118866048597
 30
0.0
  0
POLYLINE
  5
63F
330
1F
100
AcDbEntity
  8
0
100
AcDb2dPolyline
 66
     1
 10
0.0
 20
0.0
 30
0.0
 70
     1
  0
VERTEX
  5
640
330
63F
100
AcDbEntity
  8
0
100
AcDbVertex
100
AcDb2dVertex
 10
47.82280173896316
 20
21.47848418913181
 30
0.0
  0
VERTEX
  5
641
330
63F
100
AcDbEntity
  8
0
100
AcDbVertex
100
AcDb2dVertex
 10
48.38262973896317
 20
21.47848418913181
 30
0.0
  0
VERTEX
  5
642
330
63F
100
AcDbEntity
  8
0
100
AcDbVertex
100
AcDb2dVertex
 10
48.38262973896317
 20
22.03590018913181
 30
0.0
  0
VERTEX
  5
643
330
63F
100
AcDbEntity
  8
0
100
AcDbVertex
100
AcDb2dVertex
 10
47.82280173896316
 20
22.03590018913181
 30
0.0
  0
SEQEND
  5
644
330
63F
100
AcDbEntity
  8
0
  0
LINE
  5
645
330
1F
100
AcDbEntity
  8
0
100
AcDbLine
 10
46.89228173896316
 20
21.78854318913181
 30
0.0
 11
48.00987073896317
 21
21.78854318913181
 31
0.0
  0
LINE
  5
646
330
1F
100
AcDbEntity
  8
0
100
AcDbLine
 10
47.51343173896316
 20
22.2229691891318
 30
0.0
 11
47.82280173896316
 21
21.47848418913181
 31
0.0
  0
LINE
  5
647
330
1F
100
AcDbEntity
  8
0
100
AcDbLine
 10
47.14101673896315
 20
22.34664818913181
 30
0.0
 11
47.20233973896319
 21
21.47848418913181
 31
0.0
  0
LINE
  5
648
330
1F
100
AcDbEntity
  8
0
100
AcDbLine
 10
46.82992473896317
 20
22.47239418913181
 30
0.0
 11
46.95463773896318
 21
21.5404961891318
 31
0.0
  0
LINE
  5
649
330
1F
100
AcDbEntity
  8
0
100
AcDbLine
 10
46.58256773896314
 20
22.47239418913181
 30
0.0
 11
46.76825773896317
 21
21.5404961891318
 31
0.0
  0
LINE
  5
64A
330
1F
100
AcDbEntity
  8
0
100
AcDbLine
 10
46.52055573896316
 20
22.47239418913181
 30
0.0
 11
46.45854373896315
 21
21.47848418913181
 31
0.0
  0
LINE
  5
64B
330
1F
100
AcDbEntity
  8
0
100
AcDbLine
 10
45.58831273896316
 20
22.1609571891318
 30
0.0
 11
45.58831273896316
 21
21.47848418913181
 31
0.0
  0
LINE
  5
64C
330
1F
100
AcDbEntity
  8
0
100
AcDbLine
 10
45.40262173896315
 20
22.1609571891318
 30
0.0
 11
45.40262173896315
 21
21.47848418913181
 31
0.0
  0
LINE
  5
64D
330
1F
100
AcDbEntity
  8
0
100
AcDbLine
 10
44.28503273896317
 20
22.03590018913181
 30
0.0
 11
44.34738973896318
 21
21.47848418913181
 31
0.0
  0
LINE
  5
64E
330
1F
100
AcDbEntity
  8
0
100
AcDbLine
 10
43.85060673896316
 20
21.47848418913181
 30
0.0
 11
44.03698573896318
 21
22.03590018913181
 31
0.0
  0
LINE
  5
64F
330
1F
100
AcDbEntity
  8
0
100
AcDbLine
 10
42.67100573896317
 20
22.65808518913181
 30
0.0
 11
42.60933873896317
 21
21.29176018913181
 31
0.0
  0
POLYLINE
  5
650
330
1F
100
AcDbEntity
  8
0
100
AcDb2dPolyline
 66
     1
 10
0.0
 20
0.0
 30
0.0
  0
VERTEX
  5
651
330
650
100
AcDbEntity
  8
0
100
AcDbVertex
100
AcDb2dVertex
 10
38.69846573896317
 20
28.36867518913181
 30
0.0
  0
VERTEX
  5
652
330
650
100
AcDbEntity
  8
0
100
AcDbVertex
100
AcDb2dVertex
 10
38.63542073896315
 20
29.73431118913181
 30
0.0
  0
VERTEX
  5
653
330
650
100
AcDbEntity
  8
0
100
AcDbVertex
100
AcDb2dVertex
 10
38.51208673896318
 20
30.17011518913181
 30
0.0
  0
VERTEX
  5
654
330
650
100
AcDbEntity
  8
0
100
AcDbVertex
100
AcDb2dVertex
 10
38.32570673896317
 20
30.17011518913181
 30
0.0
  0
VERTEX
  5
655
330
650
100
AcDbEntity
  8
0
100
AcDbVertex
100
AcDb2dVertex
 10
38.32570673896317
 20
29.67298818913181
 30
0.0
  0
VERTEX
  5
656
330
650
100
AcDbEntity
  8
0
100
AcDbVertex
100
AcDb2dVertex
 10
38.38806273896319
 20
28.36867518913181
 30
0.0
  0
VERTEX
  5
657
330
650
100
AcDbEntity
  8
0
100
AcDbVertex
100
AcDb2dVertex
 10
38.44973073896318
 20
28.30700818913181
 30
0.0
  0
VERTEX
  5
658
330
650
100
AcDbEntity
  8
0
100
AcDbVertex
100
AcDb2dVertex
 10
38.44973073896318
 20
28.18229518913181
 30
0.0
  0
VERTEX
  5
659
330
650
100
AcDbEntity
  8
0
100
AcDbVertex
100
AcDb2dVertex
 10
38.51208673896318
 20
28.0586161891318
 30
0.0
  0
VERTEX
  5
65A
330
650
100
AcDbEntity
  8
0
100
AcDbVertex
100
AcDb2dVertex
 10
38.51208673896318
 20
27.49982218913181
 30
0.0
  0
VERTEX
  5
65B
330
650
100
AcDbEntity
  8
0
100
AcDbVertex
100
AcDb2dVertex
 10
38.44973073896318
 20
27.49982218913181
 30
0.0
  0
VERTEX
  5
65C
330
650
100
AcDbEntity
  8
0
100
AcDbVertex
100
AcDb2dVertex
 10
38.44973073896318
 20
27.31378718913181
 30
0.0
  0
VERTEX
  5
65D
330
650
100
AcDbEntity
  8
0
100
AcDbVertex
100
AcDb2dVertex
 10
38.63542073896315
 20
27.31378718913181
 30
0.0
  0
VERTEX
  5
65E
330
650
100
AcDbEntity
  8
0
100
AcDbVertex
100
AcDb2dVertex
 10
38.76047773896315
 20
27.4367771891318
 30
0.0
  0
VERTEX
  5
65F
330
650
100
AcDbEntity
  8
0
100
AcDbVertex
100
AcDb2dVertex
 10
38.76047773896315
 20
28.24499618913181
 30
0.0
  0
VERTEX
  5
660
330
650
100
AcDbEntity
  8
0
100
AcDbVertex
100
AcDb2dVertex
 10
38.69846573896317
 20
28.36867518913181
 30
0.0
  0
SEQEND
  5
661
330
650
100
AcDbEntity
  8
0
  0
SPLINE
  5
662
330
1F
100
AcDbEntity
  8
0
100
AcDbSpline
210
0.0
220
0.0
230
1.0
 70
     8
 71
     3
 72
     8
 73
     4
 74
     0
 42
0.0000000001
 43
0.0000000001
 40
0.0
 40
0.0
 40
0.0
 40
0.0
 40
1.0
 40
1.0
 40
1.0
 40
1.0
 10
50.36941621552563
 20
28.80310163791653
 30
0.0
 10
50.36941621552563
 20
28.80310163791653
 30
0.0
 10
50.43108342472706
 20
29.36189612576374
 30
0.0
 10
50.49275063392847
 20
29.60994300076374
 30
0.0
  0
LINE
  5
663
330
1F
100
AcDbEntity
  8
0
100
AcDbLine
 10
50.36941573896314
 20
28.49235418913181
 30
0.0
 11
50.24470373896315
 21
27.68620118913181
 31
0.0
  0
SPLINE
  5
664
330
1F
100
AcDbEntity
  8
0
100
AcDbSpline
210
0.0
220
0.0
230
1.0
 70
     8
 71
     3
 72
     8
 73
     4
 74
     0
 42
0.0000000001
 43
0.0000000001
 40
0.0
 40
0.0
 40
0.0
 40
0.0
 40
1.0
 40
1.0
 40
1.0
 40
1.0
 10
51.54832789087288
 20
28.30700788791653
 30
0.0
 10
51.61033960962289
 20
28.05861650336791
 30
0.0
 10
51.7350520662201
 20
27.56183373427069
 30
0.0
 10
50.98953340302563
 20
27.3757985780207
 30
0.0
  0
SPLINE
  5
665
330
1F
100
AcDbEntity
  8
0
100
AcDbSpline
210
0.0
220
0.0
230
1.0
 70
     8
 71
     3
 72
     8
 73
     4
 74
     0
 42
0.0000000001
 43
0.0000000001
 40
0.0
 40
0.0
 40
0.0
 40
0.0
 40
1.0
 40
1.0
 40
1.0
 40
1.0
 10
50.49275063392847
 20
25.57573618652764
 30
0.0
 10
50.55476235267846
 20
25.45102372993042
 30
0.0
 10
50.74148652802563
 20
25.01694169868042
 30
0.0
 10
50.49275063392847
 20
24.7685503141318
 30
0.0
  0
SPLINE
  5
666
330
1F
100
AcDbEntity
  8
0
100
AcDbSpline
210
0.0
220
0.0
230
1.0
 70
     8
 71
     3
 72
    14
 73
    10
 74
     0
 42
0.0000000001
 43
0.0000000001
 40
0.0
 40
0.0
 40
0.0
 40
0.0
 40
1.0
 40
1.0
 40
1.0
 40
2.0
 40
2.0
 40
2.0
 40
3.0
 40
3.0
 40
3.0
 40
3.0
 10
50.55476235267846
 20
24.64383785753457
 30
0.0
 10
50.92786619382429
 20
24.8305620328818
 30
0.0
 10
51.42361543427563
 20
25.2022878358332
 30
0.0
 10
51.42361543427563
 20
25.63740339572902
 30
0.0
 10
51.42361543427563
 20
25.82412757107625
 30
0.0
 10
51.36229273462288
 20
26.07182993652763
 30
0.0
 10
50.92786619382429
 20
26.25820960232625
 30
0.0
 10
50.61746309052563
 20
26.38188853027763
 30
0.0
 10
49.93395614608118
 20
26.50591196777764
 30
0.0
 10
49.68522025198402
 20
26.50591196777764
 30
0.0
  0
SPLINE
  5
667
330
1F
100
AcDbEntity
  8
0
100
AcDbSpline
210
0.0
220
0.0
230
1.0
 70
     8
 71
     3
 72
    11
 73
     7
 74
     0
 42
0.0000000001
 43
0.0000000001
 40
0.0
 40
0.0
 40
0.0
 40
0.0
 40
1.0
 40
1.0
 40
1.0
 40
2.0
 40
2.0
 40
2.0
 40
2.0
 10
50.36941621552563
 20
22.47239417263875
 30
0.0
 10
50.80349824677563
 20
22.47239417263875
 30
0.0
 10
51.17522404972707
 20
22.7810747281943
 30
0.0
 10
51.17522404972707
 20
23.21687930718736
 30
0.0
 10
51.17522404972707
 20
23.58860511013875
 30
0.0
 10
50.86585447507428
 20
23.96136444173597
 30
0.0
 10
50.55476235267846
 20
24.02372067003457
 30
0.0
  0
POLYLINE
  5
668
330
1F
100
AcDbEntity
  8
0
100
AcDb2dPolyline
 66
     1
 10
0.0
 20
0.0
 30
0.0
 70
     1
  0
VERTEX
  5
669
330
668
100
AcDbEntity
  8
0
100
AcDbVertex
100
AcDb2dVertex
 10
48.32027373896315
 20
25.69941518913181
 30
0.0
  0
VERTEX
  5
66A
330
668
100
AcDbEntity
  8
0
100
AcDbVertex
100
AcDb2dVertex
 10
49.12745973896318
 20
25.69941518913181
 30
0.0
  0
VERTEX
  5
66B
330
668
100
AcDbEntity
  8
0
100
AcDbVertex
100
AcDb2dVertex
 10
49.12745973896318
 20
25.3273451891318
 30
0.0
  0
VERTEX
  5
66C
330
668
100
AcDbEntity
  8
0
100
AcDbVertex
100
AcDb2dVertex
 10
48.32027373896315
 20
25.3273451891318
 30
0.0
  0
SEQEND
  5
66D
330
668
100
AcDbEntity
  8
0
  0
POLYLINE
  5
66E
330
1F
100
AcDbEntity
  8
0
100
AcDb2dPolyline
 66
     1
 10
0.0
 20
0.0
 30
0.0
  0
VERTEX
  5
66F
330
66E
100
AcDbEntity
  8
0
100
AcDbVertex
100
AcDb2dVertex
 10
47.38871973896315
 20
23.0918221891318
 30
0.0
  0
VERTEX
  5
670
330
66E
100
AcDbEntity
  8
0
100
AcDbVertex
100
AcDb2dVertex
 10
46.82992473896317
 20
22.84343118913181
 30
0.0
  0
VERTEX
  5
671
330
66E
100
AcDbEntity
  8
0
100
AcDbVertex
100
AcDb2dVertex
 10
46.82992473896317
 20
22.5330281891318
 30
0.0
  0
VERTEX
  5
672
330
66E
100
AcDbEntity
  8
0
100
AcDbVertex
100
AcDb2dVertex
 10
47.38871973896315
 20
22.2229691891318
 30
0.0
  0
VERTEX
  5
673
330
66E
100
AcDbEntity
  8
0
100
AcDbVertex
100
AcDb2dVertex
 10
47.88550273896317
 20
22.2229691891318
 30
0.0
  0
VERTEX
  5
674
330
66E
100
AcDbEntity
  8
0
100
AcDbVertex
100
AcDb2dVertex
 10
47.88550273896317
 20
23.0918221891318
 30
0.0
  0
VERTEX
  5
675
330
66E
100
AcDbEntity
  8
0
100
AcDbVertex
100
AcDb2dVertex
 10
47.38871973896315
 20
23.0918221891318
 30
0.0
  0
SEQEND
  5
676
330
66E
100
AcDbEntity
  8
0
  0
POLYLINE
  5
677
330
1F
100
AcDbEntity
  8
0
100
AcDb2dPolyline
 66
     1
 10
0.0
 20
0.0
 30
0.0
 70
     1
  0
VERTEX
  5
678
330
677
100
AcDbEntity
  8
0
100
AcDbVertex
100
AcDb2dVertex
 10
47.88550273896317
 20
22.2229691891318
 30
0.0
  0
VERTEX
  5
679
330
677
100
AcDbEntity
  8
0
100
AcDbVertex
100
AcDb2dVertex
 10
48.19659473896317
 20
22.2229691891318
 30
0.0
  0
VERTEX
  5
67A
330
677
100
AcDbEntity
  8
0
100
AcDbVertex
100
AcDb2dVertex
 10
48.19659473896317
 20
23.0918221891318
 30
0.0
  0
VERTEX
  5
67B
330
677
100
AcDbEntity
  8
0
100
AcDbVertex
100
AcDb2dVertex
 10
47.88550273896317
 20
23.0918221891318
 30
0.0
  0
SEQEND
  5
67C
330
677
100
AcDbEntity
  8
0
  0
SPLINE
  5
67D
330
1F
100
AcDbEntity
  8
0
100
AcDbSpline
210
0.0
220
0.0
230
1.0
 70
     8
 71
     3
 72
    11
 73
     7
 74
     0
 42
0.0000000001
 43
0.0000000001
 40
0.0
 40
0.0
 40
0.0
 40
0.0
 40
1.0
 40
1.0
 40
1.0
 40
2.0
 40
2.0
 40
2.0
 40
2.0
 10
45.34129935354648
 20
23.65061682888875
 30
0.0
 10
45.34129935354648
 20
23.34124725423597
 30
0.0
 10
45.52699000024787
 20
22.5330278531943
 30
0.0
 10
46.27147513479648
 20
22.5330278531943
 30
0.0
 10
46.82992511309507
 20
22.5330278531943
 30
0.0
 10
46.82992511309507
 20
22.5330278531943
 30
0.0
 10
46.82992511309507
 20
22.5330278531943
 30
0.0
  0
SPLINE
  5
67E
330
1F
100
AcDbEntity
  8
0
100
AcDbSpline
210
0.0
220
0.0
230
1.0
 70
     8
 71
     3
 72
    11
 73
     7
 74
     0
 42
0.0000000001
 43
0.0000000001
 40
0.0
 40
0.0
 40
0.0
 40
0.0
 40
1.0
 40
1.0
 40
1.0
 40
2.0
 40
2.0
 40
2.0
 40
2.0
 10
46.82992511309507
 20
22.84343095649291
 30
0.0
 10
46.27147513479648
 20
22.84343095649291
 30
0.0
 10
46.27147513479648
 20
22.84343095649291
 30
0.0
 10
46.27147513479648
 20
22.84343095649291
 30
0.0
 10
45.77469236569925
 20
22.84343095649291
 30
0.0
 10
45.65101343774787
 20
23.58860511013875
 30
0.0
 10
45.65101343774787
 20
23.65061682888875
 30
0.0
  0
LINE
  5
67F
330
1F
100
AcDbEntity
  8
0
100
AcDbLine
 10
45.09187473896315
 20
25.45102418913181
 30
0.0
 11
44.90583973896318
 21
25.45102418913181
 31
0.0
  0
POLYLINE
  5
680
330
1F
100
AcDbEntity
  8
0
100
AcDb2dPolyline
 66
     1
 10
0.0
 20
0.0
 30
0.0
  0
VERTEX
  5
681
330
680
100
AcDbEntity
  8
0
100
AcDbVertex
100
AcDb2dVertex
 10
44.71980373896317
 20
25.2653331891318
 30
0.0
  0
VERTEX
  5
682
330
680
100
AcDbEntity
  8
0
100
AcDbVertex
100
AcDb2dVertex
 10
44.65744773896315
 20
25.45102418913181
 30
0.0
  0
VERTEX
  5
683
330
680
100
AcDbEntity
  8
0
100
AcDbVertex
100
AcDb2dVertex
 10
44.71980373896317
 20
25.63740318913181
 30
0.0
  0
VERTEX
  5
684
330
680
100
AcDbEntity
  8
0
100
AcDbVertex
100
AcDb2dVertex
 10
44.84382773896316
 20
25.63740318913181
 30
0.0
  0
VERTEX
  5
685
330
680
100
AcDbEntity
  8
0
100
AcDbVertex
100
AcDb2dVertex
 10
44.90583973896318
 20
25.45102418913181
 30
0.0
  0
VERTEX
  5
686
330
680
100
AcDbEntity
  8
0
100
AcDbVertex
100
AcDb2dVertex
 10
44.84382773896316
 20
25.2653331891318
 30
0.0
  0
VERTEX
  5
687
330
680
100
AcDbEntity
  8
0
100
AcDbVertex
100
AcDb2dVertex
 10
44.71980373896317
 20
25.2653331891318
 30
0.0
  0
SEQEND
  5
688
330
680
100
AcDbEntity
  8
0
  0
POLYLINE
  5
689
330
1F
100
AcDbEntity
  8
0
100
AcDb2dPolyline
 66
     1
 10
0.0
 20
0.0
 30
0.0
  0
VERTEX
  5
68A
330
689
100
AcDbEntity
  8
0
100
AcDbVertex
100
AcDb2dVertex
 10
44.84382773896316
 20
25.63740318913181
 30
0.0
  0
VERTEX
  5
68B
330
689
100
AcDbEntity
  8
0
100
AcDbVertex
100
AcDb2dVertex
 10
45.02951773896316
 20
25.63740318913181
 30
0.0
  0
VERTEX
  5
68C
330
689
100
AcDbEntity
  8
0
100
AcDbVertex
100
AcDb2dVertex
 10
45.09187473896315
 20
25.45102418913181
 30
0.0
  0
VERTEX
  5
68D
330
689
100
AcDbEntity
  8
0
100
AcDbVertex
100
AcDb2dVertex
 10
45.02951773896316
 20
25.2653331891318
 30
0.0
  0
VERTEX
  5
68E
330
689
100
AcDbEntity
  8
0
100
AcDbVertex
100
AcDb2dVertex
 10
44.84382773896316
 20
25.2653331891318
 30
0.0
  0
SEQEND
  5
68F
330
689
100
AcDbEntity
  8
0
  0
POLYLINE
  5
690
330
1F
100
AcDbEntity
  8
0
100
AcDb2dPolyline
 66
     1
 10
0.0
 20
0.0
 30
0.0
  0
VERTEX
  5
691
330
690
100
AcDbEntity
  8
0
100
AcDbVertex
100
AcDb2dVertex
 10
44.96819573896314
 20
25.2653331891318
 30
0.0
  0
VERTEX
  5
692
330
690
100
AcDbEntity
  8
0
100
AcDbVertex
100
AcDb2dVertex
 10
44.96819573896314
 20
25.07826418913181
 30
0.0
  0
VERTEX
  5
693
330
690
100
AcDbEntity
  8
0
100
AcDbVertex
100
AcDb2dVertex
 10
44.59681373896316
 20
25.07826418913181
 30
0.0
  0
VERTEX
  5
694
330
690
100
AcDbEntity
  8
0
100
AcDbVertex
100
AcDb2dVertex
 10
44.59681373896316
 20
25.2653331891318
 30
0.0
  0
VERTEX
  5
695
330
690
100
AcDbEntity
  8
0
100
AcDbVertex
100
AcDb2dVertex
 10
44.71980373896317
 20
25.2653331891318
 30
0.0
  0
VERTEX
  5
696
330
690
100
AcDbEntity
  8
0
100
AcDbVertex
100
AcDb2dVertex
 10
44.71980373896317
 20
25.07826418913181
 30
0.0
  0
SEQEND
  5
697
330
690
100
AcDbEntity
  8
0
  0
POLYLINE
  5
698
330
1F
100
AcDbEntity
  8
0
100
AcDb2dPolyline
 66
     1
 10
0.0
 20
0.0
 30
0.0
  0
VERTEX
  5
699
330
698
100
AcDbEntity
  8
0
100
AcDbVertex
100
AcDb2dVertex
 10
44.90583973896318
 20
24.76855018913181
 30
0.0
  0
VERTEX
  5
69A
330
698
100
AcDbEntity
  8
0
100
AcDbVertex
100
AcDb2dVertex
 10
44.96819573896314
 20
24.8922291891318
 30
0.0
  0
VERTEX
  5
69B
330
698
100
AcDbEntity
  8
0
100
AcDbVertex
100
AcDb2dVertex
 10
45.15457473896316
 20
24.64383818913181
 30
0.0
  0
VERTEX
  5
69C
330
698
100
AcDbEntity
  8
0
100
AcDbVertex
100
AcDb2dVertex
 10
45.02951773896316
 20
24.52050318913181
 30
0.0
  0
VERTEX
  5
69D
330
698
100
AcDbEntity
  8
0
100
AcDbVertex
100
AcDb2dVertex
 10
44.90583973896318
 20
24.64383818913181
 30
0.0
  0
SEQEND
  5
69E
330
698
100
AcDbEntity
  8
0
  0
SPLINE
  5
69F
330
1F
100
AcDbEntity
  8
0
100
AcDbSpline
210
0.0
220
0.0
230
1.0
 70
    11
 71
     3
 72
    53
 73
    49
 74
     0
 42
0.0000000001
 43
0.0000000001
 40
0.0
 40
0.0
 40
0.0
 40
0.0
 40
1.0
 40
1.0
 40
1.0
 40
2.0
 40
2.0
 40
2.0
 40
3.0
 40
3.0
 40
3.0
 40
4.0
 40
4.0
 40
4.0
 40
5.0
 40
5.0
 40
5.0
 40
6.0
 40
6.0
 40
6.0
 40
7.0
 40
7.0
 40
7.0
 40
8.0
 40
8.0
 40
8.0
 40
9.0
 40
9.0
 40
9.0
 40
10.0
 40
10.0
 40
10.0
 40
11.0
 40
11.0
 40
11.0
 40
12.0
 40
12.0
 40
12.0
 40
13.0
 40
13.0
 40
13.0
 40
14.0
 40
14.0
 40
14.0
 40
15.0
 40
15.0
 40
15.0
 40
16.0
 40
16.0
 40
16.0
 40
16.0
 10
46.20980792559507
 20
27.06539547472208
 30
0.0
 10
46.08543997854647
 20
25.82412757107625
 30
0.0
 10
45.89974933184507
 20
25.01694169868042
 30
0.0
 10
45.71336966604647
 20
24.4581472108332
 30
0.0
 10
45.65101343774787
 20
24.33343475423598
 30
0.0
 10
45.58831269990062
 20
24.20975582628457
 30
0.0
 10
45.46497828149788
 20
24.20975582628457
 30
0.0
 10
45.40262205319925
 20
24.14739959798597
 30
0.0
 10
45.27825410615062
 20
24.20975582628457
 30
0.0
 10
45.15457517819925
 20
24.27176754503457
 30
0.0
 10
45.15457517819925
 20
24.27176754503457
 30
0.0
 10
44.90583928410202
 20
24.58182613878457
 30
0.0
 10
44.84382756535203
 20
24.64383785753457
 30
0.0
 10
44.84382756535203
 20
24.7065385953818
 30
0.0
 10
44.84382756535203
 20
24.8305620328818
 30
0.0
 10
44.84382756535203
 20
24.8305620328818
 30
0.0
 10
44.84382756535203
 20
24.8922292420832
 30
0.0
 10
44.78250486569925
 20
24.95561899902764
 30
0.0
 10
44.71980412785202
 20
24.95561899902764
 30
0.0
 10
44.65744789955346
 20
24.95561899902764
 30
0.0
 10
44.59681421899787
 20
24.8922292420832
 30
0.0
 10
44.59681421899787
 20
24.8305620328818
 30
0.0
 10
44.59681421899787
 20
24.5205034391318
 30
0.0
 10
44.59681421899787
 20
24.5205034391318
 30
0.0
 10
44.59681421899787
 20
24.5205034391318
 30
0.0
 10
45.02951821205345
 20
24.08573238878457
 30
0.0
 10
45.02951821205345
 20
24.08573238878457
 30
0.0
 10
45.02951821205345
 20
24.08573238878457
 30
0.0
 10
45.09187444035203
 20
24.02372067003457
 30
0.0
 10
45.34129935354648
 20
23.83665198513875
 30
0.0
 10
45.52699000024787
 20
23.89935272298597
 30
0.0
 10
45.71336966604647
 20
23.96136444173597
 30
0.0
 10
45.83635957490062
 20
24.14739959798597
 30
0.0
 10
45.96141654104648
 20
24.3961354920832
 30
0.0
 10
46.14710718774787
 20
24.95561899902764
 30
0.0
 10
46.33383136309507
 20
25.76108232368042
 30
0.0
 10
46.45854381969232
 20
27.06539547472208
 30
0.0
 10
46.58256725719232
 20
28.24499616916653
 30
0.0
 10
46.89193683184507
 20
28.92746958496514
 30
0.0
 10
47.20233993514369
 20
28.92746958496514
 30
0.0
 10
47.26504067299091
 20
28.92746958496514
 30
0.0
 10
47.32739690128954
 20
28.98948130371514
 30
0.0
 10
47.32739690128954
 20
29.05114851291653
 30
0.0
 10
47.32739690128954
 20
29.11419376031237
 30
0.0
 10
47.26504067299091
 20
29.17620547906237
 30
0.0
 10
47.20233993514369
 20
29.17620547906237
 30
0.0
 10
46.58256725719232
 20
29.23821719781237
 30
0.0
 10
46.33383136309507
 20
28.05861650336791
 30
0.0
 10
46.20980792559507
 20
27.06539547472208
 30
0.0
  0
SPLINE
  5
6A0
330
1F
100
AcDbEntity
  8
0
100
AcDbSpline
210
0.0
220
0.0
230
1.0
 70
    11
 71
     3
 72
    23
 73
    19
 74
     0
 42
0.0000000001
 43
0.0000000001
 40
0.0
 40
0.0
 40
0.0
 40
0.0
 40
1.0
 40
1.0
 40
1.0
 40
2.0
 40
2.0
 40
2.0
 40
3.0
 40
3.0
 40
3.0
 40
4.0
 40
4.0
 40
4.0
 40
5.0
 40
5.0
 40
5.0
 40
6.0
 40
6.0
 40
6.0
 40
6.0
 10
44.09865341170621
 20
23.34124725423597
 30
0.0
 10
44.03698620250477
 20
23.27854651638875
 30
0.0
 10
43.91227374590758
 20
23.27854651638875
 30
0.0
 10
43.78859481795621
 20
23.27854651638875
 30
0.0
 10
43.66491589000477
 20
23.27854651638875
 30
0.0
 10
43.53985892385899
 20
23.34124725423597
 30
0.0
 10
43.41617999590758
 20
23.40291446343736
 30
0.0
 10
43.04307615476176
 20
23.03118866048597
 30
0.0
 10
43.04307615476176
 20
23.03118866048597
 30
0.0
 10
43.04307615476176
 20
23.03118866048597
 30
0.0
 10
43.22945582056036
 20
22.84343095649291
 30
0.0
 10
43.53985892385899
 20
22.71975202854152
 30
0.0
 10
43.78859481795621
 20
22.71975202854152
 30
0.0
 10
44.03698620250477
 20
22.71975202854152
 30
0.0
 10
44.28503307750477
 20
22.7810747281943
 30
0.0
 10
44.4707237242062
 20
22.90613169434014
 30
0.0
 10
44.09865341170621
 20
23.34124725423597
 30
0.0
 10
44.09865341170621
 20
23.34124725423597
 30
0.0
 10
44.09865341170621
 20
23.34124725423597
 30
0.0
  0
SPLINE
  5
6A1
330
1F
100
AcDbEntity
  8
0
100
AcDbSpline
210
0.0
220
0.0
230
1.0
 70
    11
 71
     3
 72
    23
 73
    19
 74
     0
 42
0.0000000001
 43
0.0000000001
 40
0.0
 40
0.0
 40
0.0
 40
0.0
 40
1.0
 40
1.0
 40
1.0
 40
2.0
 40
2.0
 40
2.0
 40
3.0
 40
3.0
 40
3.0
 40
4.0
 40
4.0
 40
4.0
 40
5.0
 40
5.0
 40
5.0
 40
6.0
 40
6.0
 40
6.0
 40
6.0
 10
43.22945582056036
 20
23.65061682888875
 30
0.0
 10
43.10612140215758
 20
23.77532928548597
 30
0.0
 10
43.10612140215758
 20
23.96136444173597
 30
0.0
 10
43.10612140215758
 20
24.14739959798597
 30
0.0
 10
43.10612140215758
 20
24.27176754503457
 30
0.0
 10
43.10612140215758
 20
24.3961354920832
 30
0.0
 10
43.16847763045621
 20
24.5205034391318
 30
0.0
 10
42.73301756101176
 20
25.0782643983332
 30
0.0
 10
42.73301756101176
 20
25.0782643983332
 30
0.0
 10
42.73301756101176
 20
25.0782643983332
 30
0.0
 10
42.60933863306036
 20
24.8305620328818
 30
0.0
 10
42.54732691431036
 20
24.5205034391318
 30
0.0
 10
42.54732691431036
 20
24.20975582628457
 30
0.0
 10
42.54732691431036
 20
23.83665198513875
 30
0.0
 10
42.60933863306036
 20
23.52693790093736
 30
0.0
 10
42.85773001760898
 20
23.21687930718736
 30
0.0
 10
43.22945582056036
 20
23.65061682888875
 30
0.0
 10
43.22945582056036
 20
23.65061682888875
 30
0.0
 10
43.22945582056036
 20
23.65061682888875
 30
0.0
  0
SPLINE
  5
6A2
330
1F
100
AcDbEntity
  8
0
100
AcDbSpline
210
0.0
220
0.0
230
1.0
 70
    11
 71
     3
 72
    23
 73
    19
 74
     0
 42
0.0000000001
 43
0.0000000001
 40
0.0
 40
0.0
 40
0.0
 40
0.0
 40
1.0
 40
1.0
 40
1.0
 40
2.0
 40
2.0
 40
2.0
 40
3.0
 40
3.0
 40
3.0
 40
4.0
 40
4.0
 40
4.0
 40
5.0
 40
5.0
 40
5.0
 40
6.0
 40
6.0
 40
6.0
 40
6.0
 10
44.09865341170621
 20
23.34124725423597
 30
0.0
 10
44.03698620250477
 20
23.27854651638875
 30
0.0
 10
43.91227374590758
 20
23.27854651638875
 30
0.0
 10
43.78859481795621
 20
23.27854651638875
 30
0.0
 10
43.66491589000477
 20
23.27854651638875
 30
0.0
 10
43.53985892385899
 20
23.34124725423597
 30
0.0
 10
43.41617999590758
 20
23.40291446343736
 30
0.0
 10
43.22945582056036
 20
23.27854651638875
 30
0.0
 10
43.22945582056036
 20
23.27854651638875
 30
0.0
 10
43.22945582056036
 20
23.27854651638875
 30
0.0
 10
43.41617999590758
 20
23.09182234104153
 30
0.0
 10
43.60255966170621
 20
23.03118866048597
 30
0.0
 10
43.78859481795621
 20
23.03118866048597
 30
0.0
 10
43.97428546465758
 20
23.03118866048597
 30
0.0
 10
44.09865341170621
 20
23.09182234104153
 30
0.0
 10
44.22336586830346
 20
23.15486758843736
 30
0.0
 10
44.09865341170621
 20
23.34124725423597
 30
0.0
 10
44.09865341170621
 20
23.34124725423597
 30
0.0
 10
44.09865341170621
 20
23.34124725423597
 30
0.0
  0
SPLINE
  5
6A3
330
1F
100
AcDbEntity
  8
0
100
AcDbSpline
210
0.0
220
0.0
230
1.0
 70
    11
 71
     3
 72
    23
 73
    19
 74
     0
 42
0.0000000001
 43
0.0000000001
 40
0.0
 40
0.0
 40
0.0
 40
0.0
 40
1.0
 40
1.0
 40
1.0
 40
2.0
 40
2.0
 40
2.0
 40
3.0
 40
3.0
 40
3.0
 40
4.0
 40
4.0
 40
4.0
 40
5.0
 40
5.0
 40
5.0
 40
6.0
 40
6.0
 40
6.0
 40
6.0
 10
43.16847763045621
 20
24.5205034391318
 30
0.0
 10
42.91974173635899
 20
24.8305620328818
 30
0.0
 10
42.91974173635899
 20
24.8305620328818
 30
0.0
 10
42.91974173635899
 20
24.8305620328818
 30
0.0
 10
42.85773001760898
 20
24.64383785753457
 30
0.0
 10
42.79571829885898
 20
24.4581472108332
 30
0.0
 10
42.79571829885898
 20
24.20975582628457
 30
0.0
 10
42.79571829885898
 20
23.96136444173597
 30
0.0
 10
42.91974173635899
 20
23.65061682888875
 30
0.0
 10
43.04307615476176
 20
23.46492618218736
 30
0.0
 10
43.22945582056036
 20
23.65061682888875
 30
0.0
 10
43.22945582056036
 20
23.65061682888875
 30
0.0
 10
43.22945582056036
 20
23.65061682888875
 30
0.0
 10
43.10612140215758
 20
23.77532928548597
 30
0.0
 10
43.10612140215758
 20
23.96136444173597
 30
0.0
 10
43.10612140215758
 20
24.14739959798597
 30
0.0
 10
43.10612140215758
 20
24.27176754503457
 30
0.0
 10
43.10612140215758
 20
24.3961354920832
 30
0.0
 10
43.16847763045621
 20
24.5205034391318
 30
0.0
  0
SPLINE
  5
6A4
330
1F
100
AcDbEntity
  8
0
100
AcDbSpline
210
0.0
220
0.0
230
1.0
 70
     8
 71
     3
 72
    32
 73
    28
 74
     0
 42
0.0000000001
 43
0.0000000001
 40
0.0
 40
0.0
 40
0.0
 40
0.0
 40
1.0
 40
1.0
 40
1.0
 40
2.0
 40
2.0
 40
2.0
 40
3.0
 40
3.0
 40
3.0
 40
4.0
 40
4.0
 40
4.0
 40
5.0
 40
5.0
 40
5.0
 40
6.0
 40
6.0
 40
6.0
 40
7.0
 40
7.0
 40
7.0
 40
8.0
 40
8.0
 40
8.0
 40
9.0
 40
9.0
 40
9.0
 40
9.0
 10
42.54732691431036
 20
25.32734480197902
 30
0.0
 10
43.16847763045621
 20
24.5205034391318
 30
0.0
 10
43.16847763045621
 20
24.5205034391318
 30
0.0
 10
43.16847763045621
 20
24.5205034391318
 30
0.0
 10
43.10612140215758
 20
24.3961354920832
 30
0.0
 10
43.10612140215758
 20
24.27176754503457
 30
0.0
 10
43.10612140215758
 20
24.14739959798597
 30
0.0
 10
43.10612140215758
 20
23.96136444173597
 30
0.0
 10
43.10612140215758
 20
23.77532928548597
 30
0.0
 10
43.22945582056036
 20
23.65061682888875
 30
0.0
 10
42.60933863306036
 20
23.03118866048597
 30
0.0
 10
42.60933863306036
 20
23.03118866048597
 30
0.0
 10
42.60933863306036
 20
23.03118866048597
 30
0.0
 10
42.79571829885898
 20
22.84343095649291
 30
0.0
 10
42.79571829885898
 20
22.84343095649291
 30
0.0
 10
42.79571829885898
 20
22.84343095649291
 30
0.0
 10
43.41617999590758
 20
23.40291446343736
 30
0.0
 10
43.41617999590758
 20
23.40291446343736
 30
0.0
 10
43.41617999590758
 20
23.40291446343736
 30
0.0
 10
43.53985892385899
 20
23.34124725423597
 30
0.0
 10
43.66491589000477
 20
23.27854651638875
 30
0.0
 10
43.78859481795621
 20
23.27854651638875
 30
0.0
 10
43.91227374590758
 20
23.27854651638875
 30
0.0
 10
44.03698620250477
 20
23.27854651638875
 30
0.0
 10
44.09865341170621
 20
23.34124725423597
 30
0.0
 10
44.65744789955346
 20
22.65808481934014
 30
0.0
 10
44.65744789955346
 20
22.65808481934014
 30
0.0
 10
44.65744789955346
 20
22.65808481934014
 30
0.0
  0
POLYLINE
  5
6A5
330
1F
100
AcDbEntity
  8
0
100
AcDb2dPolyline
 66
     1
 10
0.0
 20
0.0
 30
0.0
  0
VERTEX
  5
6A6
330
6A5
100
AcDbEntity
  8
0
100
AcDbVertex
100
AcDb2dVertex
 10
44.84382773896316
 20
22.84343118913181
 30
0.0
  0
VERTEX
  5
6A7
330
6A5
100
AcDbEntity
  8
0
100
AcDbVertex
100
AcDb2dVertex
 10
44.47072373896316
 20
23.2785461891318
 30
0.0
  0
VERTEX
  5
6A8
330
6A5
100
AcDbEntity
  8
0
100
AcDbVertex
100
AcDb2dVertex
 10
44.47072373896316
 20
25.20228818913181
 30
0.0
  0
VERTEX
  5
6A9
330
6A5
100
AcDbEntity
  8
0
100
AcDbVertex
100
AcDb2dVertex
 10
42.98175373896316
 20
25.1413091891318
 30
0.0
  0
VERTEX
  5
6AA
330
6A5
100
AcDbEntity
  8
0
100
AcDbVertex
100
AcDb2dVertex
 10
42.73301773896315
 20
25.51303518913181
 30
0.0
  0
SEQEND
  5
6AB
330
6A5
100
AcDbEntity
  8
0
  0
LINE
  5
6AC
330
1F
100
AcDbEntity
  8
0
100
AcDbLine
 10
43.66491573896314
 20
24.27176718913181
 30
0.0
 11
43.91227373896316
 21
23.96136418913181
 31
0.0
  0
SPLINE
  5
6AD
330
1F
100
AcDbEntity
  8
0
100
AcDbSpline
210
0.0
220
0.0
230
1.0
 70
    11
 71
     3
 72
    17
 73
    13
 74
     0
 42
0.0000000001
 43
0.0000000001
 40
0.0
 40
0.0
 40
0.0
 40
0.0
 40
1.0
 40
1.0
 40
1.0
 40
2.0
 40
2.0
 40
2.0
 40
3.0
 40
3.0
 40
3.0
 40
4.0
 40
4.0
 40
4.0
 40
4.0
 10
43.97428546465758
 20
24.08573238878457
 30
0.0
 10
43.97428546465758
 20
23.96136444173597
 30
0.0
 10
43.8506065367062
 20
23.89935272298597
 30
0.0
 10
43.78859481795621
 20
23.89935272298597
 30
0.0
 10
43.66491589000477
 20
23.89935272298597
 30
0.0
 10
43.60255966170621
 20
23.96136444173597
 30
0.0
 10
43.60255966170621
 20
24.08573238878457
 30
0.0
 10
43.60255966170621
 20
24.20975582628457
 30
0.0
 10
43.66491589000477
 20
24.33343475423598
 30
0.0
 10
43.78859481795621
 20
24.33343475423598
 30
0.0
 10
43.8506065367062
 20
24.33343475423598
 30
0.0
 10
43.97428546465758
 20
24.20975582628457
 30
0.0
 10
43.97428546465758
 20
24.08573238878457
 30
0.0
  0
SPLINE
  5
6AE
330
1F
100
AcDbEntity
  8
0
100
AcDbSpline
210
0.0
220
0.0
230
1.0
 70
    11
 71
     3
 72
    17
 73
    13
 74
     0
 42
0.0000000001
 43
0.0000000001
 40
0.0
 40
0.0
 40
0.0
 40
0.0
 40
1.0
 40
1.0
 40
1.0
 40
2.0
 40
2.0
 40
2.0
 40
3.0
 40
3.0
 40
3.0
 40
4.0
 40
4.0
 40
4.0
 40
4.0
 10
44.1606651304562
 20
25.45102372993042
 30
0.0
 10
44.1606651304562
 20
25.32700029243042
 30
0.0
 10
44.03698620250477
 20
25.2022878358332
 30
0.0
 10
43.91261825545621
 20
25.2022878358332
 30
0.0
 10
43.78859481795621
 20
25.2022878358332
 30
0.0
 10
43.66526039955346
 20
25.32700029243042
 30
0.0
 10
43.66526039955346
 20
25.45102372993042
 30
0.0
 10
43.66526039955346
 20
25.63740339572902
 30
0.0
 10
43.78859481795621
 20
25.76108232368042
 30
0.0
 10
43.91261825545621
 20
25.76108232368042
 30
0.0
 10
44.03698620250477
 20
25.76108232368042
 30
0.0
 10
44.1606651304562
 20
25.63740339572902
 30
0.0
 10
44.1606651304562
 20
25.45102372993042
 30
0.0
  0
HATCH
  5
6AF
330
1F
100
AcDbEntity
  8
0
100
AcDbHatch
 10
0.0
 20
0.0
 30
0.0
210
0.0
220
0.0
230
1.0
  2
SOLID
 70
     1
 71
     0
 91
        1
 92
        1
 93
        1
 72
     4
 94
        3
 73
     0
 74
     0
 95
       17
 96
       13
 40
0.0
 40
0.0
 40
0.0
 40
0.0
 40
1.0
 40
1.0
 40
1.0
 40
2.0
 40
2.0
 40
2.0
 40
3.0
 40
3.0
 40
3.0
 40
4.0
 40
4.0
 40
4.0
 40
4.0
 10
44.1606651304562
 20
25.45102372993042
 10
44.1606651304562
 20
25.32700029243042
 10
44.03698620250477
 20
25.2022878358332
 10
43.91261825545621
 20
25.2022878358332
 10
43.78859481795621
 20
25.2022878358332
 10
43.66526039955346
 20
25.32700029243042
 10
43.66526039955346
 20
25.45102372993042
 10
43.66526039955346
 20
25.63740339572902
 10
43.78859481795621
 20
25.76108232368042
 10
43.91261825545621
 20
25.76108232368042
 10
44.03698620250477
 20
25.76108232368042
 10
44.1606651304562
 20
25.63740339572902
 10
44.1606651304562
 20
25.45102372993042
 97
        0
 75
     0
 76
     1
 98
        1
 10
-122.3425222610368
 20
-9.114652810868193
450
        0
451
        0
460
0.0
461
0.0
452
        0
462
0.0
453
        0
470

  0
SPLINE
  5
6B0
330
1F
100
AcDbEntity
  8
0
100
AcDbSpline
210
0.0
220
0.0
230
1.0
 70
     8
 71
     3
 72
     8
 73
     4
 74
     0
 42
0.0000000001
 43
0.0000000001
 40
0.0
 40
0.0
 40
0.0
 40
0.0
 40
1.0
 40
1.0
 40
1.0
 40
1.0
 10
44.03733071205346
 20
22.03658959364569
 30
0.0
 10
44.96819551240062
 20
22.03658959364569
 30
0.0
 10
45.58831269990062
 20
22.03658959364569
 30
0.0
 10
46.33383136309507
 20
22.5330278531943
 30
0.0
  0
LINE
  5
6B1
330
1F
100
AcDbEntity
  8
0
100
AcDbLine
 10
43.16882173896317
 20
25.69941518913181
 30
0.0
 11
43.72727173896317
 21
27.93424818913181
 31
0.0
  0
SPLINE
  5
6B2
330
1F
100
AcDbEntity
  8
0
100
AcDbSpline
210
0.0
220
0.0
230
1.0
 70
    11
 71
     3
 72
    17
 73
    13
 74
     0
 42
0.0000000001
 43
0.0000000001
 40
0.0
 40
0.0
 40
0.0
 40
0.0
 40
1.0
 40
1.0
 40
1.0
 40
2.0
 40
2.0
 40
2.0
 40
3.0
 40
3.0
 40
3.0
 40
4.0
 40
4.0
 40
4.0
 40
4.0
 10
47.26504067299091
 20
26.44493377767347
 30
0.0
 10
47.26504067299091
 20
26.38188853027763
 30
0.0
 10
47.32774141083811
 20
26.31953230197903
 30
0.0
 10
47.32774141083811
 20
26.25855411187486
 30
0.0
 10
47.45107582924092
 20
26.13349714572902
 30
0.0
 10
47.88584687958811
 20
25.82412757107625
 30
0.0
 10
48.25826170163674
 20
25.82412757107625
 30
0.0
 10
48.44429685788674
 20
25.94849551812486
 30
0.0
 10
48.56866480493536
 20
26.25855411187486
 30
0.0
 10
48.56866480493536
 20
26.44493377767347
 30
0.0
 10
47.26504067299091
 20
26.44493377767347
 30
0.0
 10
47.26504067299091
 20
26.44493377767347
 30
0.0
 10
47.26504067299091
 20
26.44493377767347
 30
0.0
  0
POLYLINE
  5
6B3
330
1F
100
AcDbEntity
  8
0
100
AcDb2dPolyline
 66
     1
 10
0.0
 20
0.0
 30
0.0
 70
     1
  0
VERTEX
  5
6B4
330
6B3
100
AcDbEntity
  8
0
100
AcDbVertex
100
AcDb2dVertex
 10
46.82992473896317
 20
27.06574018913181
 30
0.0
  0
VERTEX
  5
6B5
330
6B3
100
AcDbEntity
  8
0
100
AcDbVertex
100
AcDb2dVertex
 10
49.00378073896317
 20
27.06574018913181
 30
0.0
  0
VERTEX
  5
6B6
330
6B3
100
AcDbEntity
  8
0
100
AcDbVertex
100
AcDb2dVertex
 10
49.00378073896317
 20
27.80988018913181
 30
0.0
  0
VERTEX
  5
6B7
330
6B3
100
AcDbEntity
  8
0
100
AcDbVertex
100
AcDb2dVertex
 10
46.82992473896317
 20
27.80988018913181
 30
0.0
  0
SEQEND
  5
6B8
330
6B3
100
AcDbEntity
  8
0
  0
POLYLINE
  5
6B9
330
1F
100
AcDbEntity
  8
0
100
AcDb2dPolyline
 66
     1
 10
0.0
 20
0.0
 30
0.0
 70
     1
  0
VERTEX
  5
6BA
330
6B9
100
AcDbEntity
  8
0
100
AcDbVertex
100
AcDb2dVertex
 10
46.95498173896317
 20
27.06574018913181
 30
0.0
  0
VERTEX
  5
6BB
330
6B9
100
AcDbEntity
  8
0
100
AcDbVertex
100
AcDb2dVertex
 10
48.81636673896315
 20
27.06574018913181
 30
0.0
  0
VERTEX
  5
6BC
330
6B9
100
AcDbEntity
  8
0
100
AcDbVertex
100
AcDb2dVertex
 10
48.81636673896315
 20
26.75499218913181
 30
0.0
  0
VERTEX
  5
6BD
330
6B9
100
AcDbEntity
  8
0
100
AcDbVertex
100
AcDb2dVertex
 10
46.95498173896317
 20
26.75499218913181
 30
0.0
  0
SEQEND
  5
6BE
330
6B9
100
AcDbEntity
  8
0
  0
POLYLINE
  5
6BF
330
1F
100
AcDbEntity
  8
0
100
AcDb2dPolyline
 66
     1
 10
0.0
 20
0.0
 30
0.0
 70
     1
  0
VERTEX
  5
6C0
330
6BF
100
AcDbEntity
  8
0
100
AcDbVertex
100
AcDb2dVertex
 10
47.14067273896316
 20
26.44493418913181
 30
0.0
  0
VERTEX
  5
6C1
330
6BF
100
AcDbEntity
  8
0
100
AcDbVertex
100
AcDb2dVertex
 10
48.69268873896317
 20
26.44493418913181
 30
0.0
  0
VERTEX
  5
6C2
330
6BF
100
AcDbEntity
  8
0
100
AcDbVertex
100
AcDb2dVertex
 10
48.69268873896317
 20
26.75499218913181
 30
0.0
  0
VERTEX
  5
6C3
330
6BF
100
AcDbEntity
  8
0
100
AcDbVertex
100
AcDb2dVertex
 10
47.14067273896316
 20
26.75499218913181
 30
0.0
  0
SEQEND
  5
6C4
330
6BF
100
AcDbEntity
  8
0
  0
POLYLINE
  5
6C5
330
1F
100
AcDbEntity
  8
0
100
AcDb2dPolyline
 66
     1
 10
0.0
 20
0.0
 30
0.0
 70
     1
  0
VERTEX
  5
6C6
330
6C5
100
AcDbEntity
  8
0
100
AcDbVertex
100
AcDb2dVertex
 10
47.14067273896316
 20
28.12131718913181
 30
0.0
  0
VERTEX
  5
6C7
330
6C5
100
AcDbEntity
  8
0
100
AcDbVertex
100
AcDb2dVertex
 10
48.69268873896317
 20
28.12131718913181
 30
0.0
  0
VERTEX
  5
6C8
330
6C5
100
AcDbEntity
  8
0
100
AcDbVertex
100
AcDb2dVertex
 10
48.69268873896317
 20
27.80988018913181
 30
0.0
  0
VERTEX
  5
6C9
330
6C5
100
AcDbEntity
  8
0
100
AcDbVertex
100
AcDb2dVertex
 10
47.14067273896316
 20
27.80988018913181
 30
0.0
  0
SEQEND
  5
6CA
330
6C5
100
AcDbEntity
  8
0
  0
SPLINE
  5
6CB
330
1F
100
AcDbEntity
  8
0
100
AcDbSpline
210
0.0
220
0.0
230
1.0
 70
     8
 71
     3
 72
    11
 73
     7
 74
     0
 42
0.0000000001
 43
0.0000000001
 40
0.0
 40
0.0
 40
0.0
 40
0.0
 40
1.0
 40
1.0
 40
1.0
 40
2.0
 40
2.0
 40
2.0
 40
2.0
 10
25.847915564484
 20
24.5821706483332
 30
0.0
 10
25.53751246118537
 20
24.5821706483332
 30
0.0
 10
25.28877656708812
 20
24.83090654243042
 30
0.0
 10
25.28877656708812
 20
25.14165415527763
 30
0.0
 10
25.28877656708812
 20
25.45136823947903
 30
0.0
 10
25.53751246118537
 20
25.69941511447903
 30
0.0
 10
25.847915564484
 20
25.69941511447903
 30
0.0
  0
SPLINE
  5
6CC
330
1F
100
AcDbEntity
  8
0
100
AcDbSpline
210
0.0
220
0.0
230
1.0
 70
     8
 71
     3
 72
    11
 73
     7
 74
     0
 42
0.0000000001
 43
0.0000000001
 40
0.0
 40
0.0
 40
0.0
 40
0.0
 40
1.0
 40
1.0
 40
1.0
 40
2.0
 40
2.0
 40
2.0
 40
2.0
 10
26.22101940562979
 20
25.88613928982625
 30
0.0
 10
25.91027179278262
 20
25.88613928982625
 30
0.0
 10
25.66256942733119
 20
26.13349714572902
 30
0.0
 10
25.66256942733119
 20
26.44493377767347
 30
0.0
 10
25.66256942733119
 20
26.75499237142347
 30
0.0
 10
25.91027179278262
 20
27.00372826552069
 30
0.0
 10
26.22101940562979
 20
27.00372826552069
 30
0.0
  0
SPLINE
  5
6CD
330
1F
100
AcDbEntity
  8
0
100
AcDbSpline
210
0.0
220
0.0
230
1.0
 70
     8
 71
     3
 72
    11
 73
     7
 74
     0
 42
0.0000000001
 43
0.0000000001
 40
0.0
 40
0.0
 40
0.0
 40
0.0
 40
1.0
 40
1.0
 40
1.0
 40
2.0
 40
2.0
 40
2.0
 40
2.0
 10
31.49718314260898
 20
27.80988060927069
 30
0.0
 10
31.12476832056035
 20
27.87189232802069
 30
0.0
 10
30.50396211396316
 20
27.68654619086791
 30
0.0
 10
30.50396211396316
 20
27.00372826552069
 30
0.0
 10
30.62798555146315
 20
26.44493377767347
 30
0.0
 10
30.62798555146315
 20
26.44493377767347
 30
0.0
 10
30.62798555146315
 20
26.44493377767347
 30
0.0
  0
SPLINE
  5
6CE
330
1F
100
AcDbEntity
  8
0
100
AcDbSpline
210
0.0
220
0.0
230
1.0
 70
     8
 71
     3
 72
     8
 73
     4
 74
     0
 42
0.0000000001
 43
0.0000000001
 40
0.0
 40
0.0
 40
0.0
 40
0.0
 40
1.0
 40
1.0
 40
1.0
 40
1.0
 10
32.55310490910205
 20
27.9342485563193
 30
0.0
 10
32.61442760875482
 20
27.9342485563193
 30
0.0
 10
32.61442760875482
 20
27.87189232802069
 30
0.0
 10
32.67678383705342
 20
27.7482134000693
 30
0.0
  0
SPLINE
  5
6CF
330
1F
100
AcDbEntity
  8
0
100
AcDbSpline
210
0.0
220
0.0
230
1.0
 70
     8
 71
     3
 72
     8
 73
     4
 74
     0
 42
0.0000000001
 43
0.0000000001
 40
0.0
 40
0.0
 40
0.0
 40
0.0
 40
1.0
 40
1.0
 40
1.0
 40
1.0
 10
32.67678383705342
 20
26.81734859972208
 30
0.0
 10
32.61442760875482
 20
26.69229163357625
 30
0.0
 10
32.55310490910205
 20
26.69229163357625
 30
0.0
 10
32.55310490910205
 20
26.69229163357625
 30
0.0
  0
SPLINE
  5
6D0
330
1F
100
AcDbEntity
  8
0
100
AcDbSpline
210
0.0
220
0.0
230
1.0
 70
     8
 71
     3
 72
    20
 73
    16
 74
     0
 42
0.0000000001
 43
0.0000000001
 40
0.0
 40
0.0
 40
0.0
 40
0.0
 40
1.0
 40
1.0
 40
1.0
 40
2.0
 40
2.0
 40
2.0
 40
3.0
 40
3.0
 40
3.0
 40
4.0
 40
4.0
 40
4.0
 40
5.0
 40
5.0
 40
5.0
 40
5.0
 10
32.55310490910205
 20
26.69229163357625
 30
0.0
 10
31.55850584226175
 20
26.69229163357625
 30
0.0
 10
31.55850584226175
 20
26.69229163357625
 30
0.0
 10
31.55850584226175
 20
26.69229163357625
 30
0.0
 10
31.43517142385898
 20
26.69229163357625
 30
0.0
 10
31.37212617646316
 20
26.94171654677069
 30
0.0
 10
31.37212617646316
 20
27.31378685927069
 30
0.0
 10
31.37212617646316
 20
27.62453447211791
 30
0.0
 10
31.43517142385898
 20
27.9342485563193
 30
0.0
 10
31.55850584226175
 20
27.9342485563193
 30
0.0
 10
31.74523001760898
 20
27.9342485563193
 30
0.0
 10
31.74523001760898
 20
27.9342485563193
 30
0.0
 10
31.74523001760898
 20
27.9342485563193
 30
0.0
 10
32.55310490910205
 20
27.9342485563193
 30
0.0
 10
32.55310490910205
 20
27.9342485563193
 30
0.0
 10
32.55310490910205
 20
27.9342485563193
 30
0.0
  0
SPLINE
  5
6D1
330
1F
100
AcDbEntity
  8
0
100
AcDbSpline
210
0.0
220
0.0
230
1.0
 70
     8
 71
     3
 72
    17
 73
    13
 74
     0
 42
0.0000000001
 43
0.0000000001
 40
0.0
 40
0.0
 40
0.0
 40
0.0
 40
1.0
 40
1.0
 40
1.0
 40
2.0
 40
2.0
 40
2.0
 40
3.0
 40
3.0
 40
3.0
 40
4.0
 40
4.0
 40
4.0
 40
4.0
 10
32.4900596617062
 20
24.6441823670832
 30
0.0
 10
29.94516762611591
 20
24.6441823670832
 30
0.0
 10
29.94516762611591
 20
24.6441823670832
 30
0.0
 10
29.94516762611591
 20
24.6441823670832
 30
0.0
 10
29.8211441886159
 20
24.6441823670832
 30
0.0
 10
29.75913246986591
 20
24.8925737516318
 30
0.0
 10
29.75913246986591
 20
25.26533308322902
 30
0.0
 10
29.75913246986591
 20
25.57573618652764
 30
0.0
 10
29.8211441886159
 20
25.88613928982625
 30
0.0
 10
29.94516762611591
 20
25.88613928982625
 30
0.0
 10
30.44160588566453
 20
25.88613928982625
 30
0.0
 10
30.44160588566453
 20
25.88613928982625
 30
0.0
 10
30.44160588566453
 20
25.88613928982625
 30
0.0
  0
LINE
  5
6D2
330
1F
100
AcDbEntity
  8
0
100
AcDbLine
 10
31.68425173896316
 20
25.88613918913181
 30
0.0
 11
32.49005973896317
 21
25.88613918913181
 31
0.0
  0
SPLINE
  5
6D3
330
1F
100
AcDbEntity
  8
0
100
AcDbSpline
210
0.0
220
0.0
230
1.0
 70
     8
 71
     3
 72
    11
 73
     7
 74
     0
 42
0.0000000001
 43
0.0000000001
 40
0.0
 40
0.0
 40
0.0
 40
0.0
 40
1.0
 40
1.0
 40
1.0
 40
2.0
 40
2.0
 40
2.0
 40
2.0
 10
33.60764863740062
 20
24.20975582628457
 30
0.0
 10
33.85569551240062
 20
24.02372067003457
 30
0.0
 10
34.10408689694924
 20
23.89935272298597
 30
0.0
 10
34.41483450979649
 20
23.89935272298597
 30
0.0
 10
34.91161727889372
 20
23.89935272298597
 30
0.0
 10
35.28368759139372
 20
24.27176754503457
 30
0.0
 10
35.47041176674091
 20
24.7065385953818
 30
0.0
  0
SPLINE
  5
6D4
330
1F
100
AcDbEntity
  8
0
100
AcDbSpline
210
0.0
220
0.0
230
1.0
 70
     8
 71
     3
 72
    20
 73
    16
 74
     0
 42
0.0000000001
 43
0.0000000001
 40
0.0
 40
0.0
 40
0.0
 40
0.0
 40
1.0
 40
1.0
 40
1.0
 40
2.0
 40
2.0
 40
2.0
 40
3.0
 40
3.0
 40
3.0
 40
4.0
 40
4.0
 40
4.0
 40
5.0
 40
5.0
 40
5.0
 40
5.0
 10
31.74523001760898
 20
26.50625647732625
 30
0.0
 10
31.74523001760898
 20
25.82412757107625
 30
0.0
 10
31.74523001760898
 20
25.82412757107625
 30
0.0
 10
31.74523001760898
 20
25.82412757107625
 30
0.0
 10
31.74523001760898
 20
25.82412757107625
 30
0.0
 10
31.24913626760898
 20
25.45136823947903
 30
0.0
 10
31.00040037351175
 20
25.14165415527763
 30
0.0
 10
30.75200898896316
 20
25.32734480197902
 30
0.0
 10
30.56631834226176
 20
25.51303544868042
 30
0.0
 10
30.44160588566453
 20
25.82412757107625
 30
0.0
 10
30.44160588566453
 20
26.50625647732625
 30
0.0
 10
30.44160588566453
 20
26.50625647732625
 30
0.0
 10
30.44160588566453
 20
26.50625647732625
 30
0.0
 10
30.44160588566453
 20
26.56895721517347
 30
0.0
 10
30.56631834226176
 20
26.56895721517347
 30
0.0
 10
30.62798555146315
 20
26.56895721517347
 30
0.0
  0
SPLINE
  5
6D5
330
1F
100
AcDbEntity
  8
0
100
AcDbSpline
210
0.0
220
0.0
230
1.0
 70
     8
 71
     3
 72
    17
 73
    13
 74
     0
 42
0.0000000001
 43
0.0000000001
 40
0.0
 40
0.0
 40
0.0
 40
0.0
 40
1.0
 40
1.0
 40
1.0
 40
2.0
 40
2.0
 40
2.0
 40
3.0
 40
3.0
 40
3.0
 40
4.0
 40
4.0
 40
4.0
 40
4.0
 10
30.62798555146315
 20
26.56895721517347
 30
0.0
 10
30.50396211396316
 20
26.56895721517347
 30
0.0
 10
30.44160588566453
 20
26.56895721517347
 30
0.0
 10
30.44160588566453
 20
26.50625647732625
 30
0.0
 10
30.44160588566453
 20
26.44493377767347
 30
0.0
 10
30.75200898896316
 20
26.44493377767347
 30
0.0
 10
31.06310111135897
 20
26.44493377767347
 30
0.0
 10
31.43517142385898
 20
26.44493377767347
 30
0.0
 10
31.74523001760898
 20
26.44493377767347
 30
0.0
 10
31.74523001760898
 20
26.50625647732625
 30
0.0
 10
31.74523001760898
 20
26.56895721517347
 30
0.0
 10
31.6835628084076
 20
26.56895721517347
 30
0.0
 10
31.55850584226175
 20
26.56895721517347
 30
0.0
  0
LINE
  5
6D6
330
1F
100
AcDbEntity
  8
0
100
AcDbLine
 10
34.66288173896316
 20
24.64418218913181
 30
0.0
 11
33.73167173896317
 21
24.64418218913181
 31
0.0
  0
SPLINE
  5
6D7
330
1F
100
AcDbEntity
  8
0
100
AcDbSpline
210
0.0
220
0.0
230
1.0
 70
     8
 71
     3
 72
    11
 73
     7
 74
     0
 42
0.0000000001
 43
0.0000000001
 40
0.0
 40
0.0
 40
0.0
 40
0.0
 40
1.0
 40
1.0
 40
1.0
 40
2.0
 40
2.0
 40
2.0
 40
2.0
 10
32.55310490910205
 20
26.69229163357625
 30
0.0
 10
32.4277034334076
 20
26.69229163357625
 30
0.0
 10
32.30436901500482
 20
26.94171654677069
 30
0.0
 10
32.30436901500482
 20
27.31378685927069
 30
0.0
 10
32.30436901500482
 20
27.62453447211791
 30
0.0
 10
32.4277034334076
 20
27.9342485563193
 30
0.0
 10
32.55310490910205
 20
27.9342485563193
 30
0.0
  0
SPLINE
  5
6D8
330
1F
100
AcDbEntity
  8
0
100
AcDbSpline
210
0.0
220
0.0
230
1.0
 70
     8
 71
     3
 72
    20
 73
    16
 74
     0
 42
0.0000000001
 43
0.0000000001
 40
0.0
 40
0.0
 40
0.0
 40
0.0
 40
1.0
 40
1.0
 40
1.0
 40
2.0
 40
2.0
 40
2.0
 40
3.0
 40
3.0
 40
3.0
 40
4.0
 40
4.0
 40
4.0
 40
5.0
 40
5.0
 40
5.0
 40
5.0
 10
33.11121037785205
 20
24.6441823670832
 30
0.0
 10
32.4900596617062
 20
24.6441823670832
 30
0.0
 10
32.4900596617062
 20
24.6441823670832
 30
0.0
 10
32.4900596617062
 20
24.6441823670832
 30
0.0
 10
32.36672524330342
 20
24.6441823670832
 30
0.0
 10
32.2416682771576
 20
24.8925737516318
 30
0.0
 10
32.2416682771576
 20
25.26533308322902
 30
0.0
 10
32.2416682771576
 20
25.57573618652764
 30
0.0
 10
32.36672524330342
 20
25.88613928982625
 30
0.0
 10
32.4900596617062
 20
25.88613928982625
 30
0.0
 10
34.6628813847965
 20
25.88613928982625
 30
0.0
 10
34.6628813847965
 20
25.88613928982625
 30
0.0
 10
34.6628813847965
 20
25.88613928982625
 30
0.0
 10
34.78724933184506
 20
25.88613928982625
 30
0.0
 10
34.84995006969234
 20
25.76142683322903
 30
0.0
 10
34.84995006969234
 20
25.69941511447903
 30
0.0
  0
SPLINE
  5
6D9
330
1F
100
AcDbEntity
  8
0
100
AcDbSpline
210
0.0
220
0.0
230
1.0
 70
    11
 71
     3
 72
    23
 73
    19
 74
     0
 42
0.0000000001
 43
0.0000000001
 40
0.0
 40
0.0
 40
0.0
 40
0.0
 40
1.0
 40
1.0
 40
1.0
 40
2.0
 40
2.0
 40
2.0
 40
3.0
 40
3.0
 40
3.0
 40
4.0
 40
4.0
 40
4.0
 40
5.0
 40
5.0
 40
5.0
 40
6.0
 40
6.0
 40
6.0
 40
6.0
 10
33.73167207490062
 20
24.6441823670832
 30
0.0
 10
33.73167207490062
 20
24.83090654243042
 30
0.0
 10
33.73167207490062
 20
24.83090654243042
 30
0.0
 10
33.73167207490062
 20
24.83090654243042
 30
0.0
 10
33.11121037785205
 20
24.83090654243042
 30
0.0
 10
33.11121037785205
 20
24.83090654243042
 30
0.0
 10
33.11121037785205
 20
24.83090654243042
 30
0.0
 10
33.11121037785205
 20
24.6441823670832
 30
0.0
 10
33.11121037785205
 20
24.6441823670832
 30
0.0
 10
33.11121037785205
 20
24.6441823670832
 30
0.0
 10
33.23488930580342
 20
24.33377926378457
 30
0.0
 10
33.48362519990061
 20
24.20975582628457
 30
0.0
 10
33.79437281274787
 20
24.20975582628457
 30
0.0
 10
34.10408689694924
 20
24.20975582628457
 30
0.0
 10
34.35316730059506
 20
24.33377926378457
 30
0.0
 10
34.47684622854649
 20
24.6441823670832
 30
0.0
 10
33.73167207490062
 20
24.6441823670832
 30
0.0
 10
33.73167207490062
 20
24.6441823670832
 30
0.0
 10
33.73167207490062
 20
24.6441823670832
 30
0.0
  0
SPLINE
  5
6DA
330
1F
100
AcDbEntity
  8
0
100
AcDbSpline
210
0.0
220
0.0
230
1.0
 70
     8
 71
     3
 72
    23
 73
    19
 74
     0
 42
0.0000000001
 43
0.0000000001
 40
0.0
 40
0.0
 40
0.0
 40
0.0
 40
1.0
 40
1.0
 40
1.0
 40
2.0
 40
2.0
 40
2.0
 40
3.0
 40
3.0
 40
3.0
 40
4.0
 40
4.0
 40
4.0
 40
5.0
 40
5.0
 40
5.0
 40
6.0
 40
6.0
 40
6.0
 40
6.0
 10
34.6628813847965
 20
24.6441823670832
 30
0.0
 10
33.73167207490062
 20
24.6441823670832
 30
0.0
 10
33.73167207490062
 20
24.6441823670832
 30
0.0
 10
33.73167207490062
 20
24.6441823670832
 30
0.0
 10
33.73167207490062
 20
24.4581472108332
 30
0.0
 10
33.60764863740062
 20
24.33377926378457
 30
0.0
 10
33.42161348115062
 20
24.33377926378457
 30
0.0
 10
33.35891274330342
 20
24.33377926378457
 30
0.0
 10
33.29759004365062
 20
24.3961354920832
 30
0.0
 10
33.23488930580342
 20
24.3961354920832
 30
0.0
 10
33.42161348115062
 20
24.27176754503457
 30
0.0
 10
33.54563691865062
 20
24.20975582628457
 30
0.0
 10
33.79437281274787
 20
24.20975582628457
 30
0.0
 10
33.85569551240062
 20
24.20975582628457
 30
0.0
 10
34.10408689694924
 20
24.20975582628457
 30
0.0
 10
34.16644312524787
 20
24.20975582628457
 30
0.0
 10
34.47684622854649
 20
24.20975582628457
 30
0.0
 10
34.78724933184506
 20
24.3961354920832
 30
0.0
 10
34.84995006969234
 20
24.7065385953818
 30
0.0
  0
SPLINE
  5
6DB
330
1F
100
AcDbEntity
  8
0
100
AcDbSpline
210
0.0
220
0.0
230
1.0
 70
    27
 71
     3
 72
    11
 73
     7
 74
     0
 42
0.0000000001
 43
0.0000000001
 40
0.0
 40
0.0
 40
0.0
 40
0.0
 40
1.0
 40
1.0
 40
1.0
 40
2.0
 40
2.0
 40
2.0
 40
2.0
 10
33.11121037785205
 20
24.6441823670832
 30
0.0
 10
33.11121037785205
 20
24.5821706483332
 30
0.0
 10
33.11121037785205
 20
24.5821706483332
 30
0.0
 10
33.11121037785205
 20
24.5821706483332
 30
0.0
 10
33.11121037785205
 20
24.5821706483332
 30
0.0
 10
33.11121037785205
 20
24.5821706483332
 30
0.0
 10
33.11121037785205
 20
24.6441823670832
 30
0.0
  0
LINE
  5
6DC
330
1F
100
AcDbEntity
  8
0
100
AcDbLine
 10
34.04241973896316
 20
26.00981818913181
 30
0.0
 11
34.84994973896318
 21
26.00981818913181
 31
0.0
  0
SPLINE
  5
6DD
330
1F
100
AcDbEntity
  8
0
100
AcDbSpline
210
0.0
220
0.0
230
1.0
 70
     8
 71
     3
 72
    11
 73
     7
 74
     0
 42
0.0000000001
 43
0.0000000001
 40
0.0
 40
0.0
 40
0.0
 40
0.0
 40
1.0
 40
1.0
 40
1.0
 40
2.0
 40
2.0
 40
2.0
 40
2.0
 10
33.17287758705342
 20
24.6441823670832
 30
0.0
 10
33.35891274330342
 20
24.02372067003457
 30
0.0
 10
33.91874075979649
 20
23.58860511013875
 30
0.0
 10
34.53954696639371
 20
23.58860511013875
 30
0.0
 10
35.22133136309506
 20
23.58860511013875
 30
0.0
 10
35.78081487003954
 20
24.02372067003457
 30
0.0
 10
35.96719453583816
 20
24.7065385953818
 30
0.0
  0
SPLINE
  5
6DE
330
1F
100
AcDbEntity
  8
0
100
AcDbSpline
210
0.0
220
0.0
230
1.0
 70
     8
 71
     3
 72
     8
 73
     4
 74
     0
 42
0.0000000001
 43
0.0000000001
 40
0.0
 40
0.0
 40
0.0
 40
0.0
 40
1.0
 40
1.0
 40
1.0
 40
1.0
 10
35.28368759139372
 20
25.69941511447903
 30
0.0
 10
35.22133136309506
 20
25.82412757107625
 30
0.0
 10
35.09765243514372
 20
25.94849551812486
 30
0.0
 10
34.9729399785465
 20
26.00981821777764
 30
0.0
  0
SPLINE
  5
6DF
330
1F
100
AcDbEntity
  8
0
100
AcDbSpline
210
0.0
220
0.0
230
1.0
 70
     8
 71
     3
 72
     8
 73
     4
 74
     0
 42
0.0000000001
 43
0.0000000001
 40
0.0
 40
0.0
 40
0.0
 40
0.0
 40
1.0
 40
1.0
 40
1.0
 40
1.0
 10
35.84248207924091
 20
25.69941511447903
 30
0.0
 10
35.78081487003954
 20
25.82412757107625
 30
0.0
 10
35.65679143253954
 20
26.00981821777764
 30
0.0
 10
35.53138995684506
 20
26.13349714572902
 30
0.0
  0
SPLINE
  5
6E0
330
1F
100
AcDbEntity
  8
0
100
AcDbSpline
210
0.0
220
0.0
230
1.0
 70
    11
 71
     3
 72
    20
 73
    16
 74
     0
 42
0.0000000001
 43
0.0000000001
 40
0.0
 40
0.0
 40
0.0
 40
0.0
 40
1.0
 40
1.0
 40
1.0
 40
2.0
 40
2.0
 40
2.0
 40
3.0
 40
3.0
 40
3.0
 40
4.0
 40
4.0
 40
4.0
 40
5.0
 40
5.0
 40
5.0
 40
5.0
 10
33.23488930580342
 20
24.83090654243042
 30
0.0
 10
33.23488930580342
 20
24.7685503141318
 30
0.0
 10
33.23488930580342
 20
24.7685503141318
 30
0.0
 10
33.23488930580342
 20
24.7685503141318
 30
0.0
 10
33.23488930580342
 20
24.6441823670832
 30
0.0
 10
33.35891274330342
 20
24.52084794868042
 30
0.0
 10
33.42161348115062
 20
24.52084794868042
 30
0.0
 10
33.54563691865062
 20
24.52084794868042
 30
0.0
 10
33.60764863740062
 20
24.6441823670832
 30
0.0
 10
33.60764863740062
 20
24.7685503141318
 30
0.0
 10
33.60764863740062
 20
24.83090654243042
 30
0.0
 10
33.60764863740062
 20
24.83090654243042
 30
0.0
 10
33.60764863740062
 20
24.83090654243042
 30
0.0
 10
33.23488930580342
 20
24.83090654243042
 30
0.0
 10
33.23488930580342
 20
24.83090654243042
 30
0.0
 10
33.23488930580342
 20
24.83090654243042
 30
0.0
  0
SPLINE
  5
6E1
330
1F
100
AcDbEntity
  8
0
100
AcDbSpline
210
0.0
220
0.0
230
1.0
 70
    11
 71
     3
 72
    20
 73
    16
 74
     0
 42
0.0000000001
 43
0.0000000001
 40
0.0
 40
0.0
 40
0.0
 40
0.0
 40
1.0
 40
1.0
 40
1.0
 40
2.0
 40
2.0
 40
2.0
 40
3.0
 40
3.0
 40
3.0
 40
4.0
 40
4.0
 40
4.0
 40
5.0
 40
5.0
 40
5.0
 40
5.0
 10
33.11121037785205
 20
24.83090654243042
 30
0.0
 10
33.11121037785205
 20
24.6441823670832
 30
0.0
 10
33.11121037785205
 20
24.6441823670832
 30
0.0
 10
33.11121037785205
 20
24.6441823670832
 30
0.0
 10
33.11121037785205
 20
24.52084794868042
 30
0.0
 10
33.23488930580342
 20
24.33377926378457
 30
0.0
 10
33.42161348115062
 20
24.33377926378457
 30
0.0
 10
33.60764863740062
 20
24.33377926378457
 30
0.0
 10
33.73167207490062
 20
24.52084794868042
 30
0.0
 10
33.73167207490062
 20
24.6441823670832
 30
0.0
 10
33.73167207490062
 20
24.83090654243042
 30
0.0
 10
33.73167207490062
 20
24.83090654243042
 30
0.0
 10
33.73167207490062
 20
24.83090654243042
 30
0.0
 10
33.11121037785205
 20
24.83090654243042
 30
0.0
 10
33.11121037785205
 20
24.83090654243042
 30
0.0
 10
33.11121037785205
 20
24.83090654243042
 30
0.0
  0
POLYLINE
  5
6E2
330
1F
100
AcDbEntity
  8
0
100
AcDb2dPolyline
 66
     1
 10
0.0
 20
0.0
 30
0.0
  0
VERTEX
  5
6E3
330
6E2
100
AcDbEntity
  8
0
100
AcDbVertex
100
AcDb2dVertex
 10
34.66288173896316
 20
25.88613918913181
 30
0.0
  0
VERTEX
  5
6E4
330
6E2
100
AcDbEntity
  8
0
100
AcDbVertex
100
AcDb2dVertex
 10
33.98109673896318
 20
25.88613918913181
 30
0.0
  0
VERTEX
  5
6E5
330
6E2
100
AcDbEntity
  8
0
100
AcDbVertex
100
AcDb2dVertex
 10
34.04241973896316
 20
26.00981818913181
 30
0.0
  0
VERTEX
  5
6E6
330
6E2
100
AcDbEntity
  8
0
100
AcDbVertex
100
AcDb2dVertex
 10
34.84994973896318
 20
26.00981818913181
 30
0.0
  0
SEQEND
  5
6E7
330
6E2
100
AcDbEntity
  8
0
  0
SPLINE
  5
6E8
330
1F
100
AcDbEntity
  8
0
100
AcDbSpline
210
0.0
220
0.0
230
1.0
 70
     8
 71
     3
 72
    17
 73
    13
 74
     0
 42
0.0000000001
 43
0.0000000001
 40
0.0
 40
0.0
 40
0.0
 40
0.0
 40
1.0
 40
1.0
 40
1.0
 40
2.0
 40
2.0
 40
2.0
 40
3.0
 40
3.0
 40
3.0
 40
4.0
 40
4.0
 40
4.0
 40
4.0
 10
34.84995006969234
 20
25.76142683322903
 30
0.0
 10
34.78724933184506
 20
25.82412757107625
 30
0.0
 10
34.72523761309506
 20
25.88613928982625
 30
0.0
 10
34.6628813847965
 20
25.88613928982625
 30
0.0
 10
34.53954696639371
 20
25.88613928982625
 30
0.0
 10
34.47684622854649
 20
25.57573618652764
 30
0.0
 10
34.47684622854649
 20
25.26533308322902
 30
0.0
 10
34.47684622854649
 20
24.8925737516318
 30
0.0
 10
34.53954696639371
 20
24.6441823670832
 30
0.0
 10
34.6628813847965
 20
24.6441823670832
 30
0.0
 10
34.72523761309506
 20
24.6441823670832
 30
0.0
 10
34.78724933184506
 20
24.6441823670832
 30
0.0
 10
34.84995006969234
 20
24.7685503141318
 30
0.0
  0
POLYLINE
  5
6E9
330
1F
100
AcDbEntity
  8
0
100
AcDb2dPolyline
 66
     1
 10
0.0
 20
0.0
 30
0.0
  0
VERTEX
  5
6EA
330
6E9
100
AcDbEntity
  8
0
100
AcDbVertex
100
AcDb2dVertex
 10
33.98109673896318
 20
25.82412718913181
 30
0.0
  0
VERTEX
  5
6EB
330
6E9
100
AcDbEntity
  8
0
100
AcDbVertex
100
AcDb2dVertex
 10
32.92586473896319
 20
25.82412718913181
 30
0.0
  0
VERTEX
  5
6EC
330
6E9
100
AcDbEntity
  8
0
100
AcDbVertex
100
AcDb2dVertex
 10
33.04885373896317
 20
26.25855418913181
 30
0.0
  0
VERTEX
  5
6ED
330
6E9
100
AcDbEntity
  8
0
100
AcDbVertex
100
AcDb2dVertex
 10
34.10408673896316
 20
26.25855418913181
 30
0.0
  0
VERTEX
  5
6EE
330
6E9
100
AcDbEntity
  8
0
100
AcDbVertex
100
AcDb2dVertex
 10
33.98109673896318
 20
25.82412718913181
 30
0.0
  0
SEQEND
  5
6EF
330
6E9
100
AcDbEntity
  8
0
  0
SPLINE
  5
6F0
330
1F
100
AcDbEntity
  8
0
100
AcDbSpline
210
0.0
220
0.0
230
1.0
 70
     8
 71
     3
 72
    14
 73
    10
 74
     0
 42
0.0000000001
 43
0.0000000001
 40
0.0
 40
0.0
 40
0.0
 40
0.0
 40
1.0
 40
1.0
 40
1.0
 40
2.0
 40
2.0
 40
2.0
 40
3.0
 40
3.0
 40
3.0
 40
3.0
 10
41.30571450111591
 20
24.33377926378457
 30
0.0
 10
41.11899032576872
 20
24.02372067003457
 30
0.0
 10
40.74657550372006
 20
23.83699649468736
 30
0.0
 10
40.37381617212287
 20
23.83699649468736
 30
0.0
 10
39.8773779125743
 20
23.83699649468736
 30
0.0
 10
39.44295137177562
 20
24.20975582628457
 30
0.0
 10
39.31961695337287
 20
24.6441823670832
 30
0.0
 10
39.31961695337287
 20
24.7065385953818
 30
0.0
 10
39.31961695337287
 20
24.7065385953818
 30
0.0
 10
39.31961695337287
 20
24.7065385953818
 30
0.0
  0
LINE
  5
6F1
330
1F
100
AcDbEntity
  8
0
100
AcDbLine
 10
40.87163273896317
 20
24.5208481891318
 30
0.0
 11
39.87737773896316
 21
24.5208481891318
 31
0.0
  0
SPLINE
  5
6F2
330
1F
100
AcDbEntity
  8
0
100
AcDbSpline
210
0.0
220
0.0
230
1.0
 70
     8
 71
     3
 72
    29
 73
    25
 74
     0
 42
0.0000000001
 43
0.0000000001
 40
0.0
 40
0.0
 40
0.0
 40
0.0
 40
1.0
 40
1.0
 40
1.0
 40
2.0
 40
2.0
 40
2.0
 40
3.0
 40
3.0
 40
3.0
 40
4.0
 40
4.0
 40
4.0
 40
5.0
 40
5.0
 40
5.0
 40
6.0
 40
6.0
 40
6.0
 40
7.0
 40
7.0
 40
7.0
 40
8.0
 40
8.0
 40
8.0
 40
8.0
 10
40.87163246986594
 20
24.5821706483332
 30
0.0
 10
40.87163246986594
 20
24.5821706483332
 30
0.0
 10
40.87163246986594
 20
24.5821706483332
 30
0.0
 10
40.87163246986594
 20
24.6441823670832
 30
0.0
 10
40.87163246986594
 20
24.83090654243042
 30
0.0
 10
40.87163246986594
 20
24.83090654243042
 30
0.0
 10
40.87163246986594
 20
24.83090654243042
 30
0.0
 10
41.55410588566454
 20
24.83090654243042
 30
0.0
 10
41.55410588566454
 20
24.83090654243042
 30
0.0
 10
41.55410588566454
 20
24.83090654243042
 30
0.0
 10
41.55410588566454
 20
24.6441823670832
 30
0.0
 10
41.55410588566454
 20
24.6441823670832
 30
0.0
 10
41.55410588566454
 20
24.6441823670832
 30
0.0
 10
41.55410588566454
 20
24.5821706483332
 30
0.0
 10
41.49209416691454
 20
24.5821706483332
 30
0.0
 10
41.49209416691454
 20
24.5821706483332
 30
0.0
 10
41.55410588566454
 20
24.5821706483332
 30
0.0
 10
41.55410588566454
 20
24.5821706483332
 30
0.0
 10
41.55410588566454
 20
24.5821706483332
 30
0.0
 10
41.42939342906731
 20
24.33377926378457
 30
0.0
 10
41.18169106361591
 20
24.14739959798597
 30
0.0
 10
40.87163246986594
 20
24.14739959798597
 30
0.0
 10
40.55985132837287
 20
24.14739959798597
 30
0.0
 10
40.31180445337287
 20
24.27176754503457
 30
0.0
 10
40.18778101587287
 20
24.52084794868042
 30
0.0
  0
SPLINE
  5
6F3
330
1F
100
AcDbEntity
  8
0
100
AcDbSpline
210
0.0
220
0.0
230
1.0
 70
     8
 71
     3
 72
    20
 73
    16
 74
     0
 42
0.0000000001
 43
0.0000000001
 40
0.0
 40
0.0
 40
0.0
 40
0.0
 40
1.0
 40
1.0
 40
1.0
 40
2.0
 40
2.0
 40
2.0
 40
3.0
 40
3.0
 40
3.0
 40
4.0
 40
4.0
 40
4.0
 40
5.0
 40
5.0
 40
5.0
 40
5.0
 10
40.87163246986594
 20
24.5821706483332
 30
0.0
 10
40.93295516951871
 20
24.3961354920832
 30
0.0
 10
41.05697860701872
 20
24.27176754503457
 30
0.0
 10
41.18169106361591
 20
24.27176754503457
 30
0.0
 10
41.24335827281732
 20
24.27176754503457
 30
0.0
 10
41.30571450111591
 20
24.33377926378457
 30
0.0
 10
41.36772621986591
 20
24.33377926378457
 30
0.0
 10
41.24335827281732
 20
24.20975582628457
 30
0.0
 10
41.05697860701872
 20
24.14739959798597
 30
0.0
 10
40.87163246986594
 20
24.14739959798597
 30
0.0
 10
40.80858722247007
 20
24.14739959798597
 30
0.0
 10
40.4981841191715
 20
24.14739959798597
 30
0.0
 10
40.43686141951872
 20
24.14739959798597
 30
0.0
 10
40.12611380667149
 20
24.14739959798597
 30
0.0
 10
39.81502168427562
 20
24.3961354920832
 30
0.0
 10
39.75300996552562
 20
24.7065385953818
 30
0.0
  0
SPLINE
  5
6F4
330
1F
100
AcDbEntity
  8
0
100
AcDbSpline
210
0.0
220
0.0
230
1.0
 70
     8
 71
     3
 72
    14
 73
    10
 74
     0
 42
0.0000000001
 43
0.0000000001
 40
0.0
 40
0.0
 40
0.0
 40
0.0
 40
1.0
 40
1.0
 40
1.0
 40
2.0
 40
2.0
 40
2.0
 40
3.0
 40
3.0
 40
3.0
 40
3.0
 10
41.80215276066454
 20
24.5821706483332
 30
0.0
 10
41.61542858531731
 20
23.9620534608332
 30
0.0
 10
41.05697860701872
 20
23.52728241048597
 30
0.0
 10
40.37381617212287
 20
23.52728241048597
 30
0.0
 10
39.69099824677562
 20
23.52728241048597
 30
0.0
 10
39.13254826847705
 20
24.02372067003457
 30
0.0
 10
38.94685762177562
 20
24.6441823670832
 30
0.0
 10
38.94685762177562
 20
24.7065385953818
 30
0.0
 10
38.94685762177562
 20
24.7065385953818
 30
0.0
 10
38.94685762177562
 20
24.7065385953818
 30
0.0
  0
SPLINE
  5
6F5
330
1F
100
AcDbEntity
  8
0
100
AcDbSpline
210
0.0
220
0.0
230
1.0
 70
    11
 71
     3
 72
    20
 73
    16
 74
     0
 42
0.0000000001
 43
0.0000000001
 40
0.0
 40
0.0
 40
0.0
 40
0.0
 40
1.0
 40
1.0
 40
1.0
 40
2.0
 40
2.0
 40
2.0
 40
3.0
 40
3.0
 40
3.0
 40
4.0
 40
4.0
 40
4.0
 40
5.0
 40
5.0
 40
5.0
 40
5.0
 10
41.36772621986591
 20
24.83090654243042
 30
0.0
 10
41.36772621986591
 20
24.7065385953818
 30
0.0
 10
41.36772621986591
 20
24.7065385953818
 30
0.0
 10
41.36772621986591
 20
24.7065385953818
 30
0.0
 10
41.36772621986591
 20
24.5821706483332
 30
0.0
 10
41.30571450111591
 20
24.52084794868042
 30
0.0
 10
41.18169106361591
 20
24.52084794868042
 30
0.0
 10
41.05697860701872
 20
24.52084794868042
 30
0.0
 10
40.99600041691454
 20
24.5821706483332
 30
0.0
 10
40.99600041691454
 20
24.7065385953818
 30
0.0
 10
40.99600041691454
 20
24.83090654243042
 30
0.0
 10
40.99600041691454
 20
24.83090654243042
 30
0.0
 10
40.99600041691454
 20
24.83090654243042
 30
0.0
 10
41.36772621986591
 20
24.83090654243042
 30
0.0
 10
41.36772621986591
 20
24.83090654243042
 30
0.0
 10
41.36772621986591
 20
24.83090654243042
 30
0.0
  0
SPLINE
  5
6F6
330
1F
100
AcDbEntity
  8
0
100
AcDbSpline
210
0.0
220
0.0
230
1.0
 70
    11
 71
     3
 72
    20
 73
    16
 74
     0
 42
0.0000000001
 43
0.0000000001
 40
0.0
 40
0.0
 40
0.0
 40
0.0
 40
1.0
 40
1.0
 40
1.0
 40
2.0
 40
2.0
 40
2.0
 40
3.0
 40
3.0
 40
3.0
 40
4.0
 40
4.0
 40
4.0
 40
5.0
 40
5.0
 40
5.0
 40
5.0
 10
41.55410588566454
 20
24.83090654243042
 30
0.0
 10
41.55410588566454
 20
24.6441823670832
 30
0.0
 10
41.55410588566454
 20
24.6441823670832
 30
0.0
 10
41.55410588566454
 20
24.6441823670832
 30
0.0
 10
41.55410588566454
 20
24.4581472108332
 30
0.0
 10
41.36772621986591
 20
24.27176754503457
 30
0.0
 10
41.18169106361591
 20
24.27176754503457
 30
0.0
 10
40.99600041691454
 20
24.27176754503457
 30
0.0
 10
40.87163246986594
 20
24.4581472108332
 30
0.0
 10
40.87163246986594
 20
24.6441823670832
 30
0.0
 10
40.87163246986594
 20
24.83090654243042
 30
0.0
 10
40.87163246986594
 20
24.83090654243042
 30
0.0
 10
40.87163246986594
 20
24.83090654243042
 30
0.0
 10
41.55410588566454
 20
24.83090654243042
 30
0.0
 10
41.55410588566454
 20
24.83090654243042
 30
0.0
 10
41.55410588566454
 20
24.83090654243042
 30
0.0
  0
SPLINE
  5
6F7
330
1F
100
AcDbEntity
  8
0
100
AcDbSpline
210
0.0
220
0.0
230
1.0
 70
     8
 71
     3
 72
     8
 73
     4
 74
     0
 42
0.0000000001
 43
0.0000000001
 40
0.0
 40
0.0
 40
0.0
 40
0.0
 40
1.0
 40
1.0
 40
1.0
 40
1.0
 10
39.38128416257431
 20
25.63774790527764
 30
0.0
 10
39.44295137177562
 20
25.76142683322903
 30
0.0
 10
39.56766382837287
 20
25.88613928982625
 30
0.0
 10
39.69099824677562
 20
25.94849551812486
 30
0.0
  0
SPLINE
  5
6F8
330
1F
100
AcDbEntity
  8
0
100
AcDbSpline
210
0.0
220
0.0
230
1.0
 70
     8
 71
     3
 72
     8
 73
     4
 74
     0
 42
0.0000000001
 43
0.0000000001
 40
0.0
 40
0.0
 40
0.0
 40
0.0
 40
1.0
 40
1.0
 40
1.0
 40
1.0
 10
38.94685762177562
 20
25.63774790527764
 30
0.0
 10
39.07088105927562
 20
25.82412757107625
 30
0.0
 10
39.13254826847705
 20
25.94849551812486
 30
0.0
 10
39.25691621552562
 20
26.07182993652763
 30
0.0
  0
SPLINE
  5
6F9
330
1F
100
AcDbEntity
  8
0
100
AcDbSpline
210
0.0
220
0.0
230
1.0
 70
     8
 71
     3
 72
    17
 73
    13
 74
     0
 42
0.0000000001
 43
0.0000000001
 40
0.0
 40
0.0
 40
0.0
 40
0.0
 40
1.0
 40
1.0
 40
1.0
 40
2.0
 40
2.0
 40
2.0
 40
3.0
 40
3.0
 40
3.0
 40
4.0
 40
4.0
 40
4.0
 40
4.0
 10
39.75335447507431
 20
25.63740339572902
 30
0.0
 10
39.81502168427562
 20
25.69941511447903
 30
0.0
 10
39.8773779125743
 20
25.76108232368042
 30
0.0
 10
39.9400786504215
 20
25.76108232368042
 30
0.0
 10
40.06444659747006
 20
25.76108232368042
 30
0.0
 10
40.12611380667149
 20
25.51303544868042
 30
0.0
 10
40.12611380667149
 20
25.14130964572903
 30
0.0
 10
40.12611380667149
 20
24.8305620328818
 30
0.0
 10
40.06444659747006
 20
24.5205034391318
 30
0.0
 10
39.9400786504215
 20
24.5205034391318
 30
0.0
 10
39.8773779125743
 20
24.5205034391318
 30
0.0
 10
39.81502168427562
 20
24.58182613878457
 30
0.0
 10
39.75335447507431
 20
24.64383785753457
 30
0.0
  0
LINE
  5
6FA
330
1F
100
AcDbEntity
  8
0
100
AcDbLine
 10
39.75335473896317
 20
27.1274071891318
 30
0.0
 11
40.68456373896316
 21
27.1274071891318
 31
0.0
  0
SPLINE
  5
6FB
330
1F
100
AcDbEntity
  8
0
100
AcDbSpline
210
0.0
220
0.0
230
1.0
 70
     8
 71
     3
 72
    17
 73
    13
 74
     0
 42
0.0000000001
 43
0.0000000001
 40
0.0
 40
0.0
 40
0.0
 40
0.0
 40
1.0
 40
1.0
 40
1.0
 40
2.0
 40
2.0
 40
2.0
 40
3.0
 40
3.0
 40
3.0
 40
4.0
 40
4.0
 40
4.0
 40
4.0
 10
39.62898652802562
 20
27.00372826552069
 30
0.0
 10
39.69099824677562
 20
27.06539547472208
 30
0.0
 10
39.75335447507431
 20
27.12740719347208
 30
0.0
 10
39.75335447507431
 20
27.12740719347208
 30
0.0
 10
39.9400786504215
 20
27.12740719347208
 30
0.0
 10
40.00174585962287
 20
26.8800493375693
 30
0.0
 10
40.00174585962287
 20
26.50591196777764
 30
0.0
 10
40.00174585962287
 20
26.19619788357625
 30
0.0
 10
39.9400786504215
 20
25.88613928982625
 30
0.0
 10
39.75335447507431
 20
25.88613928982625
 30
0.0
 10
39.75335447507431
 20
25.88613928982625
 30
0.0
 10
39.69099824677562
 20
25.94815100857625
 30
0.0
 10
39.62898652802562
 20
26.00981821777764
 30
0.0
  0
SPLINE
  5
6FC
330
1F
100
AcDbEntity
  8
0
100
AcDbSpline
210
0.0
220
0.0
230
1.0
 70
    11
 71
     3
 72
    14
 73
    10
 74
     0
 42
0.0000000001
 43
0.0000000001
 40
0.0
 40
0.0
 40
0.0
 40
0.0
 40
1.0
 40
1.0
 40
1.0
 40
2.0
 40
2.0
 40
2.0
 40
3.0
 40
3.0
 40
3.0
 40
3.0
 10
41.36772621986591
 20
27.31378685927069
 30
0.0
 10
41.36772621986591
 20
27.12740719347208
 30
0.0
 10
41.24335827281732
 20
27.00372826552069
 30
0.0
 10
41.05697860701872
 20
27.00372826552069
 30
0.0
 10
40.87163246986594
 20
27.00372826552069
 30
0.0
 10
40.55985132837287
 20
27.1901079313193
 30
0.0
 10
40.55985132837287
 20
27.31378685927069
 30
0.0
 10
41.36772621986591
 20
27.31378685927069
 30
0.0
 10
41.36772621986591
 20
27.31378685927069
 30
0.0
 10
41.36772621986591
 20
27.31378685927069
 30
0.0
  0
SPLINE
  5
6FD
330
1F
100
AcDbEntity
  8
0
100
AcDbSpline
210
0.0
220
0.0
230
1.0
 70
     8
 71
     3
 72
    14
 73
    10
 74
     0
 42
0.0000000001
 43
0.0000000001
 40
0.0
 40
0.0
 40
0.0
 40
0.0
 40
1.0
 40
1.0
 40
1.0
 40
2.0
 40
2.0
 40
2.0
 40
3.0
 40
3.0
 40
3.0
 40
3.0
 10
42.17422307316454
 20
24.5205034391318
 30
0.0
 10
42.29893552976176
 20
24.5205034391318
 30
0.0
 10
42.42192543861591
 20
24.8305620328818
 30
0.0
 10
42.42192543861591
 20
25.14130964572903
 30
0.0
 10
42.42192543861591
 20
25.51303544868042
 30
0.0
 10
42.29893552976176
 20
25.76108232368042
 30
0.0
 10
42.17422307316454
 20
25.76108232368042
 30
0.0
 10
41.92686521726176
 20
25.76108232368042
 30
0.0
 10
41.92686521726176
 20
25.76108232368042
 30
0.0
 10
41.92686521726176
 20
25.76108232368042
 30
0.0
  0
LINE
  5
6FE
330
1F
100
AcDbEntity
  8
0
100
AcDbLine
 10
40.80858673896318
 20
25.7610821891318
 30
0.0
 11
39.94007873896317
 21
25.7610821891318
 31
0.0
  0
SPLINE
  5
6FF
330
1F
100
AcDbEntity
  8
0
100
AcDbSpline
210
0.0
220
0.0
230
1.0
 70
     8
 71
     3
 72
     8
 73
     4
 74
     0
 42
0.0000000001
 43
0.0000000001
 40
0.0
 40
0.0
 40
0.0
 40
0.0
 40
1.0
 40
1.0
 40
1.0
 40
1.0
 10
26.65510143687979
 20
25.69941511447903
 30
0.0
 10
26.65510143687979
 20
25.69941511447903
 30
0.0
 10
26.65510143687979
 20
25.88613928982625
 30
0.0
 10
26.59274520858119
 20
26.00981821777764
 30
0.0
  0
LINE
  5
700
330
1F
100
AcDbEntity
  8
0
100
AcDbLine
 10
26.03395073896317
 20
25.94815118913181
 30
0.0
 11
26.03395073896317
 21
25.69941518913181
 31
0.0
  0
SPLINE
  5
701
330
1F
100
AcDbEntity
  8
0
100
AcDbSpline
210
0.0
220
0.0
230
1.0
 70
    11
 71
     3
 72
    38
 73
    34
 74
     0
 42
0.0000000001
 43
0.0000000001
 40
0.0
 40
0.0
 40
0.0
 40
0.0
 40
1.0
 40
1.0
 40
1.0
 40
2.0
 40
2.0
 40
2.0
 40
3.0
 40
3.0
 40
3.0
 40
4.0
 40
4.0
 40
4.0
 40
5.0
 40
5.0
 40
5.0
 40
6.0
 40
6.0
 40
6.0
 40
7.0
 40
7.0
 40
7.0
 40
8.0
 40
8.0
 40
8.0
 40
9.0
 40
9.0
 40
9.0
 40
10.0
 40
10.0
 40
10.0
 40
11.0
 40
11.0
 40
11.0
 40
11.0
 10
24.72998207924093
 20
25.69941511447903
 30
0.0
 10
24.85503904538675
 20
25.69941511447903
 30
0.0
 10
24.91601723549093
 20
25.63740339572902
 30
0.0
 10
25.04141871118537
 20
25.63740339572902
 30
0.0
 10
25.10343042993537
 20
25.69941511447903
 30
0.0
 10
25.16509763913675
 20
25.69941511447903
 30
0.0
 10
25.22745386743537
 20
25.76108232368042
 30
0.0
 10
25.22745386743537
 20
26.07182993652763
 30
0.0
 10
24.97837346378958
 20
26.31918779243042
 30
0.0
 10
24.66865937958812
 20
26.31918779243042
 30
0.0
 10
24.29624455753958
 20
26.31918779243042
 30
0.0
 10
24.29624455753958
 20
26.31918779243042
 30
0.0
 10
24.29624455753958
 20
26.31918779243042
 30
0.0
 10
24.17187661049093
 20
26.31918779243042
 30
0.0
 10
24.04750866344233
 20
26.25820960232625
 30
0.0
 10
23.92451875458812
 20
26.19619788357625
 30
0.0
 10
24.04750866344233
 20
26.19619788357625
 30
0.0
 10
24.17187661049093
 20
26.25820960232625
 30
0.0
 10
24.29624455753958
 20
26.25820960232625
 30
0.0
 10
24.54463594208812
 20
26.25820960232625
 30
0.0
 10
24.72998207924093
 20
25.94815100857625
 30
0.0
 10
24.72998207924093
 20
25.69941511447903
 30
0.0
 10
24.79268281708812
 20
25.69941511447903
 30
0.0
 10
24.85503904538675
 20
25.69941511447903
 30
0.0
 10
24.85503904538675
 20
25.69941511447903
 30
0.0
 10
24.85503904538675
 20
26.00981821777764
 30
0.0
 10
24.60664766083812
 20
26.31918779243042
 30
0.0
 10
24.29624455753958
 20
26.31918779243042
 30
0.0
 10
24.29624455753958
 20
26.25820960232625
 30
0.0
 10
24.29624455753958
 20
26.25820960232625
 30
0.0
 10
24.29624455753958
 20
26.25820960232625
 30
0.0
 10
24.54463594208812
 20
26.25820960232625
 30
0.0
 10
24.72998207924093
 20
25.94815100857625
 30
0.0
 10
24.72998207924093
 20
25.69941511447903
 30
0.0
  0
SPLINE
  5
702
330
1F
100
AcDbEntity
  8
0
100
AcDbSpline
210
0.0
220
0.0
230
1.0
 70
     8
 71
     3
 72
     8
 73
     4
 74
     0
 42
0.0000000001
 43
0.0000000001
 40
0.0
 40
0.0
 40
0.0
 40
0.0
 40
1.0
 40
1.0
 40
1.0
 40
1.0
 10
24.29624455753958
 20
25.94815100857625
 30
0.0
 10
24.35791176674093
 20
25.82412757107625
 30
0.0
 10
24.72998207924093
 20
25.63740339572902
 30
0.0
 10
25.04141871118537
 20
25.63740339572902
 30
0.0
  0
SPLINE
  5
703
330
1F
100
AcDbEntity
  8
0
100
AcDbSpline
210
0.0
220
0.0
230
1.0
 70
     8
 71
     3
 72
    20
 73
    16
 74
     0
 42
0.0000000001
 43
0.0000000001
 40
0.0
 40
0.0
 40
0.0
 40
0.0
 40
1.0
 40
1.0
 40
1.0
 40
2.0
 40
2.0
 40
2.0
 40
3.0
 40
3.0
 40
3.0
 40
4.0
 40
4.0
 40
4.0
 40
5.0
 40
5.0
 40
5.0
 40
5.0
 10
24.29624455753958
 20
25.94815100857625
 30
0.0
 10
24.29624455753958
 20
25.88613928982625
 30
0.0
 10
24.54463594208812
 20
25.76108232368042
 30
0.0
 10
24.72998207924093
 20
25.69941511447903
 30
0.0
 10
24.72998207924093
 20
25.94815100857625
 30
0.0
 10
24.54463594208812
 20
26.25820960232625
 30
0.0
 10
24.29624455753958
 20
26.25820960232625
 30
0.0
 10
23.8611289976437
 20
26.25820960232625
 30
0.0
 10
23.48871417559511
 20
26.13349714572902
 30
0.0
 10
23.48871417559511
 20
25.63740339572902
 30
0.0
 10
23.48871417559511
 20
25.32734480197902
 30
0.0
 10
23.73745006969233
 20
25.14130964572903
 30
0.0
 10
24.11020940128958
 20
24.95561899902764
 30
0.0
 10
24.42061250458812
 20
24.8305620328818
 30
0.0
 10
24.85503904538675
 20
24.7685503141318
 30
0.0
 10
25.04141871118537
 20
24.7065385953818
 30
0.0
  0
SPLINE
  5
704
330
1F
100
AcDbEntity
  8
0
100
AcDbSpline
210
0.0
220
0.0
230
1.0
 70
     8
 71
     3
 72
    23
 73
    19
 74
     0
 42
0.0000000001
 43
0.0000000001
 40
0.0
 40
0.0
 40
0.0
 40
0.0
 40
1.0
 40
1.0
 40
1.0
 40
2.0
 40
2.0
 40
2.0
 40
3.0
 40
3.0
 40
3.0
 40
4.0
 40
4.0
 40
4.0
 40
5.0
 40
5.0
 40
5.0
 40
6.0
 40
6.0
 40
6.0
 40
6.0
 10
26.09630694903263
 20
25.63740339572902
 30
0.0
 10
25.97159449243537
 20
25.69941511447903
 30
0.0
 10
25.97159449243537
 20
25.69941511447903
 30
0.0
 10
25.847915564484
 20
25.69941511447903
 30
0.0
 10
25.28877656708812
 20
25.76108232368042
 30
0.0
 10
25.28877656708812
 20
25.76108232368042
 30
0.0
 10
25.28877656708812
 20
25.76108232368042
 30
0.0
 10
24.97837346378958
 20
25.76108232368042
 30
0.0
 10
24.72998207924093
 20
25.51303544868042
 30
0.0
 10
24.72998207924093
 20
25.14130964572903
 30
0.0
 10
24.72998207924093
 20
24.8305620328818
 30
0.0
 10
24.97837346378958
 20
24.58182613878457
 30
0.0
 10
25.28877656708812
 20
24.58182613878457
 30
0.0
 10
25.847915564484
 20
24.58182613878457
 30
0.0
 10
25.847915564484
 20
24.58182613878457
 30
0.0
 10
25.847915564484
 20
24.58182613878457
 30
0.0
 10
25.97159449243537
 20
24.58182613878457
 30
0.0
 10
26.09630694903263
 20
24.58182613878457
 30
0.0
 10
26.15762964868537
 20
24.7065385953818
 30
0.0
  0
POLYLINE
  5
705
330
1F
100
AcDbEntity
  8
0
100
AcDb2dPolyline
 66
     1
 10
0.0
 20
0.0
 30
0.0
  0
VERTEX
  5
706
330
705
100
AcDbEntity
  8
0
100
AcDbVertex
100
AcDb2dVertex
 10
25.60021273896317
 20
27.25108618913181
 30
0.0
  0
VERTEX
  5
707
330
705
100
AcDbEntity
  8
0
100
AcDbVertex
100
AcDb2dVertex
 10
26.09630673896317
 20
27.25108618913181
 30
0.0
  0
VERTEX
  5
708
330
705
100
AcDbEntity
  8
0
100
AcDbVertex
100
AcDb2dVertex
 10
26.15762973896318
 20
27.37579818913181
 30
0.0
  0
VERTEX
  5
709
330
705
100
AcDbEntity
  8
0
100
AcDbVertex
100
AcDb2dVertex
 10
26.40705473896316
 20
27.37579818913181
 30
0.0
  0
VERTEX
  5
70A
330
705
100
AcDbEntity
  8
0
100
AcDbVertex
100
AcDb2dVertex
 10
26.40705473896316
 20
26.94171618913181
 30
0.0
  0
SEQEND
  5
70B
330
705
100
AcDbEntity
  8
0
  0
LINE
  5
70C
330
1F
100
AcDbEntity
  8
0
100
AcDbLine
 10
25.47584573896316
 20
27.62419018913181
 30
0.0
 11
25.66222473896317
 21
27.62419018913181
 31
0.0
  0
POLYLINE
  5
70D
330
1F
100
AcDbEntity
  8
0
100
AcDb2dPolyline
 66
     1
 10
0.0
 20
0.0
 30
0.0
  0
VERTEX
  5
70E
330
70D
100
AcDbEntity
  8
0
100
AcDbVertex
100
AcDb2dVertex
 10
24.60664773896318
 20
27.62419018913181
 30
0.0
  0
VERTEX
  5
70F
330
70D
100
AcDbEntity
  8
0
100
AcDbVertex
100
AcDb2dVertex
 10
24.60664773896318
 20
27.80988018913181
 30
0.0
  0
VERTEX
  5
710
330
70D
100
AcDbEntity
  8
0
100
AcDbVertex
100
AcDb2dVertex
 10
25.04141873896316
 20
27.80988018913181
 30
0.0
  0
VERTEX
  5
711
330
70D
100
AcDbEntity
  8
0
100
AcDbVertex
100
AcDb2dVertex
 10
25.10343073896317
 20
27.93390418913181
 30
0.0
  0
VERTEX
  5
712
330
70D
100
AcDbEntity
  8
0
100
AcDbVertex
100
AcDb2dVertex
 10
25.47584573896316
 20
27.93390418913181
 30
0.0
  0
VERTEX
  5
713
330
70D
100
AcDbEntity
  8
0
100
AcDbVertex
100
AcDb2dVertex
 10
25.47584573896316
 20
27.4367771891318
 30
0.0
  0
SEQEND
  5
714
330
70D
100
AcDbEntity
  8
0
  0
SPLINE
  5
715
330
1F
100
AcDbEntity
  8
0
100
AcDbSpline
210
0.0
220
0.0
230
1.0
 70
    11
 71
     3
 72
    17
 73
    13
 74
     0
 42
0.0000000001
 43
0.0000000001
 40
0.0
 40
0.0
 40
0.0
 40
0.0
 40
1.0
 40
1.0
 40
1.0
 40
2.0
 40
2.0
 40
2.0
 40
3.0
 40
3.0
 40
3.0
 40
4.0
 40
4.0
 40
4.0
 40
4.0
 10
27.46159829017845
 20
26.00981821777764
 30
0.0
 10
27.46159829017845
 20
25.94815100857625
 30
0.0
 10
27.40027559052567
 20
25.82412757107625
 30
0.0
 10
27.40027559052567
 20
25.63740339572902
 30
0.0
 10
27.58596623722704
 20
25.63740339572902
 30
0.0
 10
27.77269041257426
 20
25.63740339572902
 30
0.0
 10
27.95872556882426
 20
25.63740339572902
 30
0.0
 10
27.95872556882426
 20
25.82412757107625
 30
0.0
 10
27.95872556882426
 20
25.94815100857625
 30
0.0
 10
27.89705835962286
 20
26.07182993652763
 30
0.0
 10
27.77269041257426
 20
26.07182993652763
 30
0.0
 10
27.64797795597704
 20
26.07182993652763
 30
0.0
 10
27.46159829017845
 20
26.00981821777764
 30
0.0
  0
SPLINE
  5
716
330
1F
100
AcDbEntity
  8
0
100
AcDbSpline
210
0.0
220
0.0
230
1.0
 70
    11
 71
     3
 72
    20
 73
    16
 74
     0
 42
0.0000000001
 43
0.0000000001
 40
0.0
 40
0.0
 40
0.0
 40
0.0
 40
1.0
 40
1.0
 40
1.0
 40
2.0
 40
2.0
 40
2.0
 40
3.0
 40
3.0
 40
3.0
 40
4.0
 40
4.0
 40
4.0
 40
5.0
 40
5.0
 40
5.0
 40
5.0
 10
27.58596623722704
 20
24.7065385953818
 30
0.0
 10
27.58596623722704
 20
24.3961354920832
 30
0.0
 10
27.52464353757427
 20
24.14739959798597
 30
0.0
 10
27.52464353757427
 20
24.14739959798597
 30
0.0
 10
27.40027559052567
 20
24.14739959798597
 30
0.0
 10
27.40027559052567
 20
24.14739959798597
 30
0.0
 10
27.40027559052567
 20
24.14739959798597
 30
0.0
 10
27.46159829017845
 20
23.77532928548597
 30
0.0
 10
27.58596623722704
 20
23.46492618218736
 30
0.0
 10
27.71067869382426
 20
23.46492618218736
 30
0.0
 10
27.83435762177567
 20
23.46492618218736
 30
0.0
 10
28.02039277802567
 20
24.02372067003457
 30
0.0
 10
28.02039277802567
 20
24.7685503141318
 30
0.0
 10
27.89705835962286
 20
24.7685503141318
 30
0.0
 10
27.77269041257426
 20
24.7065385953818
 30
0.0
 10
27.58596623722704
 20
24.7065385953818
 30
0.0
  0
SPLINE
  5
717
330
1F
100
AcDbEntity
  8
0
100
AcDbSpline
210
0.0
220
0.0
230
1.0
 70
     8
 71
     3
 72
    17
 73
    13
 74
     0
 42
0.0000000001
 43
0.0000000001
 40
0.0
 40
0.0
 40
0.0
 40
0.0
 40
1.0
 40
1.0
 40
1.0
 40
2.0
 40
2.0
 40
2.0
 40
3.0
 40
3.0
 40
3.0
 40
4.0
 40
4.0
 40
4.0
 40
4.0
 10
27.58596623722704
 20
24.7065385953818
 30
0.0
 10
27.58596623722704
 20
24.3961354920832
 30
0.0
 10
27.52464353757427
 20
24.14739959798597
 30
0.0
 10
27.52464353757427
 20
24.14739959798597
 30
0.0
 10
27.33860838132426
 20
24.14739959798597
 30
0.0
 10
27.33860838132426
 20
24.14739959798597
 30
0.0
 10
27.33860838132426
 20
24.14739959798597
 30
0.0
 10
27.40027559052567
 20
24.08573238878457
 30
0.0
 10
27.46159829017845
 20
24.02372067003457
 30
0.0
 10
27.52464353757427
 20
24.02372067003457
 30
0.0
 10
27.64797795597704
 20
24.02372067003457
 30
0.0
 10
27.71067869382426
 20
24.33343475423598
 30
0.0
 10
27.77269041257426
 20
24.7065385953818
 30
0.0
  0
SPLINE
  5
718
330
1F
100
AcDbEntity
  8
0
100
AcDbSpline
210
0.0
220
0.0
230
1.0
 70
    11
 71
     3
 72
    14
 73
    10
 74
     0
 42
0.0000000001
 43
0.0000000001
 40
0.0
 40
0.0
 40
0.0
 40
0.0
 40
1.0
 40
1.0
 40
1.0
 40
2.0
 40
2.0
 40
2.0
 40
3.0
 40
3.0
 40
3.0
 40
3.0
 10
27.64797795597704
 20
25.63740339572902
 30
0.0
 10
27.58596623722704
 20
25.76108232368042
 30
0.0
 10
27.52464353757427
 20
25.82412757107625
 30
0.0
 10
27.52464353757427
 20
25.82412757107625
 30
0.0
 10
27.46159829017845
 20
25.82412757107625
 30
0.0
 10
27.40027559052567
 20
25.76108232368042
 30
0.0
 10
27.33860838132426
 20
25.63740339572902
 30
0.0
 10
27.46159829017845
 20
25.63740339572902
 30
0.0
 10
27.52464353757427
 20
25.63740339572902
 30
0.0
 10
27.64797795597704
 20
25.63740339572902
 30
0.0
  0
SPLINE
  5
719
330
1F
100
AcDbEntity
  8
0
100
AcDbSpline
210
0.0
220
0.0
230
1.0
 70
    11
 71
     3
 72
    17
 73
    13
 74
     0
 42
0.0000000001
 43
0.0000000001
 40
0.0
 40
0.0
 40
0.0
 40
0.0
 40
1.0
 40
1.0
 40
1.0
 40
2.0
 40
2.0
 40
2.0
 40
3.0
 40
3.0
 40
3.0
 40
4.0
 40
4.0
 40
4.0
 40
4.0
 10
26.84113659312979
 20
24.7065385953818
 30
0.0
 10
26.84113659312979
 20
24.3961354920832
 30
0.0
 10
26.77912487437979
 20
24.14739959798597
 30
0.0
 10
26.71676864608119
 20
24.14739959798597
 30
0.0
 10
27.52464353757427
 20
24.14739959798597
 30
0.0
 10
27.52464353757427
 20
24.14739959798597
 30
0.0
 10
27.52464353757427
 20
24.14739959798597
 30
0.0
 10
27.52464353757427
 20
24.14739959798597
 30
0.0
 10
27.58596623722704
 20
24.3961354920832
 30
0.0
 10
27.58596623722704
 20
24.7065385953818
 30
0.0
 10
27.33860838132426
 20
24.7065385953818
 30
0.0
 10
27.08918346812979
 20
24.7065385953818
 30
0.0
 10
26.84113659312979
 20
24.7065385953818
 30
0.0
  0
SPLINE
  5
71A
330
1F
100
AcDbEntity
  8
0
100
AcDbSpline
210
0.0
220
0.0
230
1.0
 70
    11
 71
     3
 72
    17
 73
    13
 74
     0
 42
0.0000000001
 43
0.0000000001
 40
0.0
 40
0.0
 40
0.0
 40
0.0
 40
1.0
 40
1.0
 40
1.0
 40
2.0
 40
2.0
 40
2.0
 40
3.0
 40
3.0
 40
3.0
 40
4.0
 40
4.0
 40
4.0
 40
4.0
 10
26.77912487437979
 20
25.63740339572902
 30
0.0
 10
26.96516003062979
 20
25.63740339572902
 30
0.0
 10
27.27625215302567
 20
25.63740339572902
 30
0.0
 10
27.52464353757427
 20
25.63740339572902
 30
0.0
 10
27.52464353757427
 20
25.69941511447903
 30
0.0
 10
27.52464353757427
 20
25.69941511447903
 30
0.0
 10
27.52464353757427
 20
25.69941511447903
 30
0.0
 10
26.71676864608119
 20
25.69941511447903
 30
0.0
 10
26.71676864608119
 20
25.69941511447903
 30
0.0
 10
26.71676864608119
 20
25.69941511447903
 30
0.0
 10
26.71676864608119
 20
25.69941511447903
 30
0.0
 10
26.71676864608119
 20
25.69941511447903
 30
0.0
 10
26.77912487437979
 20
25.63740339572902
 30
0.0
  0
SPLINE
  5
71B
330
1F
100
AcDbEntity
  8
0
100
AcDbSpline
210
0.0
220
0.0
230
1.0
 70
    11
 71
     3
 72
    17
 73
    13
 74
     0
 42
0.0000000001
 43
0.0000000001
 40
0.0
 40
0.0
 40
0.0
 40
0.0
 40
1.0
 40
1.0
 40
1.0
 40
2.0
 40
2.0
 40
2.0
 40
3.0
 40
3.0
 40
3.0
 40
4.0
 40
4.0
 40
4.0
 40
4.0
 10
26.22101940562979
 20
24.7065385953818
 30
0.0
 10
26.22101940562979
 20
24.3961354920832
 30
0.0
 10
26.15762964868537
 20
24.14739959798597
 30
0.0
 10
26.09630694903263
 20
24.14739959798597
 30
0.0
 10
26.71676864608119
 20
24.14739959798597
 30
0.0
 10
26.71676864608119
 20
24.14739959798597
 30
0.0
 10
26.71676864608119
 20
24.14739959798597
 30
0.0
 10
26.77912487437979
 20
24.14739959798597
 30
0.0
 10
26.84113659312979
 20
24.3961354920832
 30
0.0
 10
26.84113659312979
 20
24.7065385953818
 30
0.0
 10
26.59274520858119
 20
24.7065385953818
 30
0.0
 10
26.40705456187979
 20
24.7065385953818
 30
0.0
 10
26.22101940562979
 20
24.7065385953818
 30
0.0
  0
SPLINE
  5
71C
330
1F
100
AcDbEntity
  8
0
100
AcDbSpline
210
0.0
220
0.0
230
1.0
 70
    11
 71
     3
 72
    17
 73
    13
 74
     0
 42
0.0000000001
 43
0.0000000001
 40
0.0
 40
0.0
 40
0.0
 40
0.0
 40
1.0
 40
1.0
 40
1.0
 40
2.0
 40
2.0
 40
2.0
 40
3.0
 40
3.0
 40
3.0
 40
4.0
 40
4.0
 40
4.0
 40
4.0
 10
26.15762964868537
 20
25.63740339572902
 30
0.0
 10
26.344009314484
 20
25.63740339572902
 30
0.0
 10
26.53073348983119
 20
25.63740339572902
 30
0.0
 10
26.77912487437979
 20
25.63740339572902
 30
0.0
 10
26.71676864608119
 20
25.69941511447903
 30
0.0
 10
26.71676864608119
 20
25.69941511447903
 30
0.0
 10
26.71676864608119
 20
25.69941511447903
 30
0.0
 10
26.09630694903263
 20
25.69941511447903
 30
0.0
 10
26.09630694903263
 20
25.69941511447903
 30
0.0
 10
26.09630694903263
 20
25.69941511447903
 30
0.0
 10
26.09630694903263
 20
25.69941511447903
 30
0.0
 10
26.09630694903263
 20
25.69941511447903
 30
0.0
 10
26.15762964868537
 20
25.63740339572902
 30
0.0
  0
SPLINE
  5
71D
330
1F
100
AcDbEntity
  8
0
100
AcDbSpline
210
0.0
220
0.0
230
1.0
 70
     8
 71
     3
 72
    17
 73
    13
 74
     0
 42
0.0000000001
 43
0.0000000001
 40
0.0
 40
0.0
 40
0.0
 40
0.0
 40
1.0
 40
1.0
 40
1.0
 40
2.0
 40
2.0
 40
2.0
 40
3.0
 40
3.0
 40
3.0
 40
4.0
 40
4.0
 40
4.0
 40
4.0
 10
26.09630694903263
 20
24.7065385953818
 30
0.0
 10
26.09630694903263
 20
24.33343475423598
 30
0.0
 10
26.09630694903263
 20
24.33343475423598
 30
0.0
 10
26.09630694903263
 20
24.33343475423598
 30
0.0
 10
26.033950720734
 20
24.33343475423598
 30
0.0
 10
26.033950720734
 20
24.33343475423598
 30
0.0
 10
26.033950720734
 20
24.33343475423598
 30
0.0
 10
26.033950720734
 20
24.20975582628457
 30
0.0
 10
26.09630694903263
 20
24.14739959798597
 30
0.0
 10
26.09630694903263
 20
24.14739959798597
 30
0.0
 10
26.15762964868537
 20
24.14739959798597
 30
0.0
 10
26.22101940562979
 20
24.3961354920832
 30
0.0
 10
26.22101940562979
 20
24.7065385953818
 30
0.0
  0
SPLINE
  5
71E
330
1F
100
AcDbEntity
  8
0
100
AcDbSpline
210
0.0
220
0.0
230
1.0
 70
    11
 71
     3
 72
    14
 73
    10
 74
     0
 42
0.0000000001
 43
0.0000000001
 40
0.0
 40
0.0
 40
0.0
 40
0.0
 40
1.0
 40
1.0
 40
1.0
 40
2.0
 40
2.0
 40
2.0
 40
3.0
 40
3.0
 40
3.0
 40
3.0
 10
26.15762964868537
 20
25.63740339572902
 30
0.0
 10
26.09630694903263
 20
25.69941511447903
 30
0.0
 10
26.09630694903263
 20
25.69941511447903
 30
0.0
 10
26.09630694903263
 20
25.69941511447903
 30
0.0
 10
26.09630694903263
 20
25.69941511447903
 30
0.0
 10
26.09630694903263
 20
25.69941511447903
 30
0.0
 10
26.09630694903263
 20
25.63740339572902
 30
0.0
 10
26.09630694903263
 20
25.63740339572902
 30
0.0
 10
26.09630694903263
 20
25.63740339572902
 30
0.0
 10
26.15762964868537
 20
25.63740339572902
 30
0.0
  0
LINE
  5
71F
330
1F
100
AcDbEntity
  8
0
100
AcDbLine
 10
25.47584573896316
 20
24.64383818913181
 30
0.0
 11
25.47584573896316
 21
24.33343518913181
 31
0.0
  0
SPLINE
  5
720
330
1F
100
AcDbEntity
  8
0
100
AcDbSpline
210
0.0
220
0.0
230
1.0
 70
     8
 71
     3
 72
    17
 73
    13
 74
     0
 42
0.0000000001
 43
0.0000000001
 40
0.0
 40
0.0
 40
0.0
 40
0.0
 40
1.0
 40
1.0
 40
1.0
 40
2.0
 40
2.0
 40
2.0
 40
3.0
 40
3.0
 40
3.0
 40
4.0
 40
4.0
 40
4.0
 40
4.0
 10
25.16509763913675
 20
24.7065385953818
 30
0.0
 10
25.16509763913675
 20
24.7065385953818
 30
0.0
 10
25.10343042993537
 20
24.33343475423598
 30
0.0
 10
25.28877656708812
 20
24.27176754503457
 30
0.0
 10
25.53751246118537
 20
24.27176754503457
 30
0.0
 10
25.475845251984
 20
24.27176754503457
 30
0.0
 10
25.475845251984
 20
24.27176754503457
 30
0.0
 10
26.09630694903263
 20
24.33343475423598
 30
0.0
 10
26.09630694903263
 20
24.33343475423598
 30
0.0
 10
26.09630694903263
 20
24.33343475423598
 30
0.0
 10
26.09630694903263
 20
24.7065385953818
 30
0.0
 10
26.09630694903263
 20
24.7065385953818
 30
0.0
 10
26.09630694903263
 20
24.7065385953818
 30
0.0
  0
SPLINE
  5
721
330
1F
100
AcDbEntity
  8
0
100
AcDbSpline
210
0.0
220
0.0
230
1.0
 70
    11
 71
     3
 72
    38
 73
    34
 74
     0
 42
0.0000000001
 43
0.0000000001
 40
0.0
 40
0.0
 40
0.0
 40
0.0
 40
1.0
 40
1.0
 40
1.0
 40
2.0
 40
2.0
 40
2.0
 40
3.0
 40
3.0
 40
3.0
 40
4.0
 40
4.0
 40
4.0
 40
5.0
 40
5.0
 40
5.0
 40
6.0
 40
6.0
 40
6.0
 40
7.0
 40
7.0
 40
7.0
 40
8.0
 40
8.0
 40
8.0
 40
9.0
 40
9.0
 40
9.0
 40
10.0
 40
10.0
 40
10.0
 40
11.0
 40
11.0
 40
11.0
 40
11.0
 10
25.10343042993537
 20
27.00372826552069
 30
0.0
 10
25.22745386743537
 20
27.00372826552069
 30
0.0
 10
25.28877656708812
 20
27.00372826552069
 30
0.0
 10
25.41417804278263
 20
27.00372826552069
 30
0.0
 10
25.475845251984
 20
27.00372826552069
 30
0.0
 10
25.53751246118537
 20
27.06539547472208
 30
0.0
 10
25.66222491778262
 20
27.06539547472208
 30
0.0
 10
25.60021319903262
 20
27.3757985780207
 30
0.0
 10
25.35147730493537
 20
27.6241899625693
 30
0.0
 10
25.04141871118537
 20
27.6241899625693
 30
0.0
 10
24.66865937958812
 20
27.6241899625693
 30
0.0
 10
24.66865937958812
 20
27.6241899625693
 30
0.0
 10
24.66865937958812
 20
27.6241899625693
 30
0.0
 10
24.54463594208812
 20
27.6241899625693
 30
0.0
 10
24.42061250458812
 20
27.6241899625693
 30
0.0
 10
24.35791176674093
 20
27.56183373427069
 30
0.0
 10
24.42061250458812
 20
27.56183373427069
 30
0.0
 10
24.54463594208812
 20
27.56183373427069
 30
0.0
 10
24.66865937958812
 20
27.56183373427069
 30
0.0
 10
24.91601723549093
 20
27.56183373427069
 30
0.0
 10
25.10343042993537
 20
27.31378685927069
 30
0.0
 10
25.10343042993537
 20
27.00372826552069
 30
0.0
 10
25.16509763913675
 20
27.00372826552069
 30
0.0
 10
25.22745386743537
 20
27.00372826552069
 30
0.0
 10
25.22745386743537
 20
27.00372826552069
 30
0.0
 10
25.22745386743537
 20
27.3757985780207
 30
0.0
 10
24.97837346378958
 20
27.6241899625693
 30
0.0
 10
24.66865937958812
 20
27.6241899625693
 30
0.0
 10
24.66865937958812
 20
27.56183373427069
 30
0.0
 10
24.66865937958812
 20
27.56183373427069
 30
0.0
 10
24.66865937958812
 20
27.56183373427069
 30
0.0
 10
24.91601723549093
 20
27.56183373427069
 30
0.0
 10
25.10343042993537
 20
27.31378685927069
 30
0.0
 10
25.10343042993537
 20
27.00372826552069
 30
0.0
  0
SPLINE
  5
722
330
1F
100
AcDbEntity
  8
0
100
AcDbSpline
210
0.0
220
0.0
230
1.0
 70
     8
 71
     3
 72
     8
 73
     4
 74
     0
 42
0.0000000001
 43
0.0000000001
 40
0.0
 40
0.0
 40
0.0
 40
0.0
 40
1.0
 40
1.0
 40
1.0
 40
1.0
 10
24.66865937958812
 20
27.25108612142347
 30
0.0
 10
24.72998207924093
 20
27.1901079313193
 30
0.0
 10
25.10343042993537
 20
26.94171654677069
 30
0.0
 10
25.41417804278263
 20
27.00372826552069
 30
0.0
  0
SPLINE
  5
723
330
1F
100
AcDbEntity
  8
0
100
AcDbSpline
210
0.0
220
0.0
230
1.0
 70
     8
 71
     3
 72
    20
 73
    16
 74
     0
 42
0.0000000001
 43
0.0000000001
 40
0.0
 40
0.0
 40
0.0
 40
0.0
 40
1.0
 40
1.0
 40
1.0
 40
2.0
 40
2.0
 40
2.0
 40
3.0
 40
3.0
 40
3.0
 40
4.0
 40
4.0
 40
4.0
 40
5.0
 40
5.0
 40
5.0
 40
5.0
 10
24.66865937958812
 20
27.25108612142347
 30
0.0
 10
24.72998207924093
 20
27.1901079313193
 30
0.0
 10
24.91601723549093
 20
27.06539547472208
 30
0.0
 10
25.10343042993537
 20
27.00372826552069
 30
0.0
 10
25.10343042993537
 20
27.31378685927069
 30
0.0
 10
24.91601723549093
 20
27.56183373427069
 30
0.0
 10
24.66865937958812
 20
27.56183373427069
 30
0.0
 10
24.23388832924093
 20
27.56183373427069
 30
0.0
 10
23.8611289976437
 20
27.43677676812486
 30
0.0
 10
23.8611289976437
 20
26.94171654677069
 30
0.0
 10
23.8611289976437
 20
26.69229163357625
 30
0.0
 10
24.11020940128958
 20
26.44493377767347
 30
0.0
 10
24.48296873288675
 20
26.25820960232625
 30
0.0
 10
24.79268281708812
 20
26.13349714572902
 30
0.0
 10
25.22745386743537
 20
26.07182993652763
 30
0.0
 10
25.41417804278263
 20
26.07182993652763
 30
0.0
  0
SPLINE
  5
724
330
1F
100
AcDbEntity
  8
0
100
AcDbSpline
210
0.0
220
0.0
230
1.0
 70
     8
 71
     3
 72
    23
 73
    19
 74
     0
 42
0.0000000001
 43
0.0000000001
 40
0.0
 40
0.0
 40
0.0
 40
0.0
 40
1.0
 40
1.0
 40
1.0
 40
2.0
 40
2.0
 40
2.0
 40
3.0
 40
3.0
 40
3.0
 40
4.0
 40
4.0
 40
4.0
 40
5.0
 40
5.0
 40
5.0
 40
6.0
 40
6.0
 40
6.0
 40
6.0
 10
26.53073348983119
 20
26.94171654677069
 30
0.0
 10
26.40705456187979
 20
27.00372826552069
 30
0.0
 10
26.344009314484
 20
27.00372826552069
 30
0.0
 10
26.22101940562979
 20
27.00372826552069
 30
0.0
 10
25.66222491778262
 20
27.06539547472208
 30
0.0
 10
25.66222491778262
 20
27.06539547472208
 30
0.0
 10
25.66222491778262
 20
27.06539547472208
 30
0.0
 10
25.35147730493537
 20
27.06539547472208
 30
0.0
 10
25.10343042993537
 20
26.81700409017347
 30
0.0
 10
25.10343042993537
 20
26.50591196777764
 30
0.0
 10
25.10343042993537
 20
26.19619788357625
 30
0.0
 10
25.35147730493537
 20
25.94815100857625
 30
0.0
 10
25.66222491778262
 20
25.94815100857625
 30
0.0
 10
26.22101940562979
 20
25.88613928982625
 30
0.0
 10
26.22101940562979
 20
25.88613928982625
 30
0.0
 10
26.22101940562979
 20
25.88613928982625
 30
0.0
 10
26.344009314484
 20
25.88613928982625
 30
0.0
 10
26.46975529972704
 20
25.94815100857625
 30
0.0
 10
26.59274520858119
 20
26.00981821777764
 30
0.0
  0
SPLINE
  5
725
330
1F
100
AcDbEntity
  8
0
100
AcDbSpline
210
0.0
220
0.0
230
1.0
 70
     8
 71
     3
 72
    17
 73
    13
 74
     0
 42
0.0000000001
 43
0.0000000001
 40
0.0
 40
0.0
 40
0.0
 40
0.0
 40
1.0
 40
1.0
 40
1.0
 40
2.0
 40
2.0
 40
2.0
 40
3.0
 40
3.0
 40
3.0
 40
4.0
 40
4.0
 40
4.0
 40
4.0
 10
32.4277034334076
 20
26.81700409017347
 30
0.0
 10
32.36672524330342
 20
26.81700409017347
 30
0.0
 10
32.36672524330342
 20
26.81700409017347
 30
0.0
 10
32.36672524330342
 20
26.81700409017347
 30
0.0
 10
32.36672524330342
 20
26.75499237142347
 30
0.0
 10
32.36672524330342
 20
26.69229163357625
 30
0.0
 10
32.36672524330342
 20
26.63131344347208
 30
0.0
 10
32.36672524330342
 20
26.25820960232625
 30
0.0
 10
32.4277034334076
 20
26.00981821777764
 30
0.0
 10
32.61442760875482
 20
26.00981821777764
 30
0.0
 10
32.92551973115062
 20
26.00981821777764
 30
0.0
 10
32.92551973115062
 20
26.00981821777764
 30
0.0
 10
32.92551973115062
 20
26.00981821777764
 30
0.0
  0
SPLINE
  5
726
330
1F
100
AcDbEntity
  8
0
100
AcDbSpline
210
0.0
220
0.0
230
1.0
 70
     8
 71
     3
 72
    14
 73
    10
 74
     0
 42
0.0000000001
 43
0.0000000001
 40
0.0
 40
0.0
 40
0.0
 40
0.0
 40
1.0
 40
1.0
 40
1.0
 40
2.0
 40
2.0
 40
2.0
 40
3.0
 40
3.0
 40
3.0
 40
3.0
 10
34.60086966604649
 20
26.94171654677069
 30
0.0
 10
34.60086966604649
 20
26.81700409017347
 30
0.0
 10
34.60086966604649
 20
26.75499237142347
 30
0.0
 10
34.60086966604649
 20
26.63131344347208
 30
0.0
 10
34.60086966604649
 20
26.25820960232625
 30
0.0
 10
34.6628813847965
 20
26.00981821777764
 30
0.0
 10
34.84995006969234
 20
26.00981821777764
 30
0.0
 10
34.84995006969234
 20
26.00981821777764
 30
0.0
 10
34.91161727889372
 20
26.00981821777764
 30
0.0
 10
34.9729399785465
 20
26.13349714572902
 30
0.0
  0
LINE
  5
727
330
1F
100
AcDbEntity
  8
0
100
AcDbLine
 10
31.74522973896316
 20
26.13349718913181
 30
0.0
 11
32.49005973896317
 21
26.13349718913181
 31
0.0
  0
LINE
  5
728
330
1F
100
AcDbEntity
  8
0
100
AcDbLine
 10
34.72523773896319
 20
26.13349718913181
 30
0.0
 11
40.00174573896316
 21
26.13349718913181
 31
0.0
  0
SPLINE
  5
729
330
1F
100
AcDbEntity
  8
0
100
AcDbSpline
210
0.0
220
0.0
230
1.0
 70
     8
 71
     3
 72
    11
 73
     7
 74
     0
 42
0.0000000001
 43
0.0000000001
 40
0.0
 40
0.0
 40
0.0
 40
0.0
 40
1.0
 40
1.0
 40
1.0
 40
2.0
 40
2.0
 40
2.0
 40
2.0
 10
39.9400786504215
 20
27.00372826552069
 30
0.0
 10
35.53138995684506
 20
27.00372826552069
 30
0.0
 10
35.53138995684506
 20
27.00372826552069
 30
0.0
 10
35.53138995684506
 20
27.00372826552069
 30
0.0
 10
34.3528227910465
 20
26.8800493375693
 30
0.0
 10
33.29759004365062
 20
26.81700409017347
 30
0.0
 10
32.4277034334076
 20
26.81700409017347
 30
0.0
  0
SPLINE
  5
72A
330
1F
100
AcDbEntity
  8
0
100
AcDbSpline
210
0.0
220
0.0
230
1.0
 70
     8
 71
     3
 72
     8
 73
     4
 74
     0
 42
0.0000000001
 43
0.0000000001
 40
0.0
 40
0.0
 40
0.0
 40
0.0
 40
1.0
 40
1.0
 40
1.0
 40
1.0
 10
25.475845251984
 20
24.7065385953818
 30
0.0
 10
25.475845251984
 20
24.7065385953818
 30
0.0
 10
29.38637313826871
 20
24.7685503141318
 30
0.0
 10
29.8211441886159
 20
24.7685503141318
 30
0.0
  0
SPLINE
  5
72B
330
1F
100
AcDbEntity
  8
0
100
AcDbSpline
210
0.0
220
0.0
230
1.0
 70
     8
 71
     3
 72
     8
 73
     4
 74
     0
 42
0.0000000001
 43
0.0000000001
 40
0.0
 40
0.0
 40
0.0
 40
0.0
 40
1.0
 40
1.0
 40
1.0
 40
1.0
 10
25.60021319903262
 20
25.63740339572902
 30
0.0
 10
25.60021319903262
 20
25.63740339572902
 30
0.0
 10
29.38637313826871
 20
25.69941511447903
 30
0.0
 10
29.8211441886159
 20
25.69941511447903
 30
0.0
  0
SPLINE
  5
72C
330
1F
100
AcDbEntity
  8
0
100
AcDbSpline
210
0.0
220
0.0
230
1.0
 70
     8
 71
     3
 72
     8
 73
     4
 74
     0
 42
0.0000000001
 43
0.0000000001
 40
0.0
 40
0.0
 40
0.0
 40
0.0
 40
1.0
 40
1.0
 40
1.0
 40
1.0
 10
25.91027179278262
 20
26.00981821777764
 30
0.0
 10
25.91027179278262
 20
26.00981821777764
 30
0.0
 10
30.06953557316453
 20
26.13349714572902
 30
0.0
 10
30.50396211396316
 20
26.13349714572902
 30
0.0
  0
LINE
  5
72D
330
1F
100
AcDbEntity
  8
0
100
AcDbLine
 10
40.06444673896317
 20
24.70653818913181
 30
0.0
 11
34.60086973896316
 21
24.70653818913181
 31
0.0
  0
POLYLINE
  5
72E
330
1F
100
AcDbEntity
  8
0
100
AcDb2dPolyline
 66
     1
 10
0.0
 20
0.0
 30
0.0
  0
VERTEX
  5
72F
330
72E
100
AcDbEntity
  8
0
100
AcDbVertex
100
AcDb2dVertex
 10
40.06444673896317
 20
25.63740318913181
 30
0.0
  0
VERTEX
  5
730
330
72E
100
AcDbEntity
  8
0
100
AcDbVertex
100
AcDb2dVertex
 10
36.58696673896316
 20
25.63740318913181
 30
0.0
  0
VERTEX
  5
731
330
72E
100
AcDbEntity
  8
0
100
AcDbVertex
100
AcDb2dVertex
 10
34.60086973896316
 20
25.69941518913181
 30
0.0
  0
SEQEND
  5
732
330
72E
100
AcDbEntity
  8
0
  0
SPLINE
  5
733
330
1F
100
AcDbEntity
  8
0
100
AcDbSpline
210
0.0
220
0.0
230
1.0
 70
     8
 71
     3
 72
     8
 73
     4
 74
     0
 42
0.0000000001
 43
0.0000000001
 40
0.0
 40
0.0
 40
0.0
 40
0.0
 40
1.0
 40
1.0
 40
1.0
 40
1.0
 10
25.91027179278262
 20
26.94171654677069
 30
0.0
 10
25.91027179278262
 20
26.94171654677069
 30
0.0
 10
30.06953557316453
 20
27.00372826552069
 30
0.0
 10
30.50396211396316
 20
27.00372826552069
 30
0.0
  0
SPLINE
  5
734
330
1F
100
AcDbEntity
  8
0
100
AcDbSpline
210
0.0
220
0.0
230
1.0
 70
    11
 71
     3
 72
    17
 73
    13
 74
     0
 42
0.0000000001
 43
0.0000000001
 40
0.0
 40
0.0
 40
0.0
 40
0.0
 40
1.0
 40
1.0
 40
1.0
 40
2.0
 40
2.0
 40
2.0
 40
3.0
 40
3.0
 40
3.0
 40
4.0
 40
4.0
 40
4.0
 40
4.0
 10
51.17522404972707
 20
31.53437333930541
 30
0.0
 10
51.48631617212288
 20
31.34868269260402
 30
0.0
 10
51.48631617212288
 20
31.34868269260402
 30
0.0
 10
51.48631617212288
 20
31.34868269260402
 30
0.0
 10
51.85873099417148
 20
32.15483503635403
 30
0.0
 10
51.85873099417148
 20
32.15483503635403
 30
0.0
 10
51.85873099417148
 20
32.15483503635403
 30
0.0
 10
51.54832789087288
 20
32.34224823079846
 30
0.0
 10
51.54832789087288
 20
32.34224823079846
 30
0.0
 10
51.54832789087288
 20
32.34224823079846
 30
0.0
 10
51.42361543427563
 20
32.09385684624986
 30
0.0
 10
51.30028101587289
 20
31.78345374295125
 30
0.0
 10
51.17522404972707
 20
31.53437333930541
 30
0.0
  0
SPLINE
  5
735
330
1F
100
AcDbEntity
  8
0
100
AcDbSpline
210
0.0
220
0.0
230
1.0
 70
    11
 71
     3
 72
    17
 73
    13
 74
     0
 42
0.0000000001
 43
0.0000000001
 40
0.0
 40
0.0
 40
0.0
 40
0.0
 40
1.0
 40
1.0
 40
1.0
 40
2.0
 40
2.0
 40
2.0
 40
3.0
 40
3.0
 40
3.0
 40
4.0
 40
4.0
 40
4.0
 40
4.0
 10
50.49240612437981
 20
29.67298824815958
 30
0.0
 10
50.61746309052563
 20
29.60994300076374
 30
0.0
 10
50.61746309052563
 20
29.60994300076374
 30
0.0
 10
50.61746309052563
 20
29.60994300076374
 30
0.0
 10
50.92786619382429
 20
30.4174733827082
 30
0.0
 10
50.92786619382429
 20
30.4174733827082
 30
0.0
 10
50.92786619382429
 20
30.4174733827082
 30
0.0
 10
50.74114201847706
 20
30.4794851014582
 30
0.0
 10
50.74114201847706
 20
30.4794851014582
 30
0.0
 10
50.74114201847706
 20
30.4794851014582
 30
0.0
 10
50.61746309052563
 20
30.17011552680541
 30
0.0
 10
50.55476235267846
 20
29.85867889486098
 30
0.0
 10
50.49240612437981
 20
29.67298824815958
 30
0.0
  0
POLYLINE
  5
736
330
1F
100
AcDbEntity
  8
0
100
AcDb2dPolyline
 66
     1
 10
0.0
 20
0.0
 30
0.0
  0
VERTEX
  5
737
330
736
100
AcDbEntity
  8
0
100
AcDbVertex
100
AcDb2dVertex
 10
52.23080173896315
 20
31.53437318913181
 30
0.0
  0
VERTEX
  5
738
330
736
100
AcDbEntity
  8
0
100
AcDbVertex
100
AcDb2dVertex
 10
52.16913373896318
 20
32.03184518913181
 30
0.0
  0
VERTEX
  5
739
330
736
100
AcDbEntity
  8
0
100
AcDbVertex
100
AcDb2dVertex
 10
51.79775273896317
 20
31.22465918913181
 30
0.0
  0
VERTEX
  5
73A
330
736
100
AcDbEntity
  8
0
100
AcDbVertex
100
AcDb2dVertex
 10
52.23080173896315
 20
31.53437318913181
 30
0.0
  0
SEQEND
  5
73B
330
736
100
AcDbEntity
  8
0
  0
POLYLINE
  5
73C
330
1F
100
AcDbEntity
  8
0
100
AcDb2dPolyline
 66
     1
 10
0.0
 20
0.0
 30
0.0
  0
VERTEX
  5
73D
330
73C
100
AcDbEntity
  8
0
100
AcDbVertex
100
AcDb2dVertex
 10
51.79775273896317
 20
31.22465918913181
 30
0.0
  0
VERTEX
  5
73E
330
73C
100
AcDbEntity
  8
0
100
AcDbVertex
100
AcDb2dVertex
 10
51.48631573896316
 20
31.34868318913181
 30
0.0
  0
VERTEX
  5
73F
330
73C
100
AcDbEntity
  8
0
100
AcDbVertex
100
AcDb2dVertex
 10
51.85873073896317
 20
32.15483518913181
 30
0.0
  0
VERTEX
  5
740
330
73C
100
AcDbEntity
  8
0
100
AcDbVertex
100
AcDb2dVertex
 10
52.16913373896318
 20
32.03184518913181
 30
0.0
  0
VERTEX
  5
741
330
73C
100
AcDbEntity
  8
0
100
AcDbVertex
100
AcDb2dVertex
 10
51.79775273896317
 20
31.22465918913181
 30
0.0
  0
SEQEND
  5
742
330
73C
100
AcDbEntity
  8
0
  0
SPLINE
  5
743
330
1F
100
AcDbEntity
  8
0
100
AcDbSpline
210
0.0
220
0.0
230
1.0
 70
     8
 71
     3
 72
    23
 73
    19
 74
     0
 42
0.0000000001
 43
0.0000000001
 40
0.0
 40
0.0
 40
0.0
 40
0.0
 40
1.0
 40
1.0
 40
1.0
 40
2.0
 40
2.0
 40
2.0
 40
3.0
 40
3.0
 40
3.0
 40
4.0
 40
4.0
 40
4.0
 40
5.0
 40
5.0
 40
5.0
 40
6.0
 40
6.0
 40
6.0
 40
6.0
 10
50.98953340302563
 20
27.99557125597208
 30
0.0
 10
50.98953340302563
 20
28.05861650336791
 30
0.0
 10
51.05120061222706
 20
28.74177893826374
 30
0.0
 10
51.17522404972707
 20
29.23821719781237
 30
0.0
 10
51.30028101587289
 20
29.73431094781237
 30
0.0
 10
51.54832789087288
 20
30.4174733827082
 30
0.0
 10
52.23080130667148
 20
30.79057722385402
 30
0.0
 10
52.47919269122011
 20
30.97626787055541
 30
0.0
 10
52.47919269122011
 20
30.97626787055541
 30
0.0
 10
52.47919269122011
 20
30.97626787055541
 30
0.0
 10
52.6035606382687
 20
31.03827958930541
 30
0.0
 10
52.7279285853173
 20
31.0999467985068
 30
0.0
 10
52.7279285853173
 20
31.22465925510403
 30
0.0
 10
52.7279285853173
 20
31.28632646430541
 30
0.0
 10
52.7279285853173
 20
31.34868269260402
 30
0.0
 10
52.6035606382687
 20
31.41069441135402
 30
0.0
 10
52.23080130667148
 20
31.53437333930541
 30
0.0
 10
52.23080130667148
 20
31.53437333930541
 30
0.0
 10
52.23080130667148
 20
31.53437333930541
 30
0.0
  0
SPLINE
  5
744
330
1F
100
AcDbEntity
  8
0
100
AcDbSpline
210
0.0
220
0.0
230
1.0
 70
    11
 71
     3
 72
    29
 73
    25
 74
     0
 42
0.0000000001
 43
0.0000000001
 40
0.0
 40
0.0
 40
0.0
 40
0.0
 40
1.0
 40
1.0
 40
1.0
 40
2.0
 40
2.0
 40
2.0
 40
3.0
 40
3.0
 40
3.0
 40
4.0
 40
4.0
 40
4.0
 40
5.0
 40
5.0
 40
5.0
 40
6.0
 40
6.0
 40
6.0
 40
7.0
 40
7.0
 40
7.0
 40
8.0
 40
8.0
 40
8.0
 40
8.0
 10
49.25148273028256
 20
28.92746958496514
 30
0.0
 10
49.25148273028256
 20
28.68011172906237
 30
0.0
 10
49.25148273028256
 20
28.68011172906237
 30
0.0
 10
49.25148273028256
 20
28.68011172906237
 30
0.0
 10
49.87228893687981
 20
28.68011172906237
 30
0.0
 10
49.87228893687981
 20
28.68011172906237
 30
0.0
 10
49.87228893687981
 20
28.68011172906237
 30
0.0
 10
50.43108342472706
 20
28.68011172906237
 30
0.0
 10
50.74114201847706
 20
27.99557125597208
 30
0.0
 10
50.74114201847706
 20
27.7482134000693
 30
0.0
 10
50.74114201847706
 20
26.94171654677069
 30
0.0
 10
50.74114201847706
 20
26.94171654677069
 30
0.0
 10
50.74114201847706
 20
26.94171654677069
 30
0.0
 10
50.98953340302563
 20
26.94171654677069
 30
0.0
 10
50.98953340302563
 20
26.94171654677069
 30
0.0
 10
50.98953340302563
 20
26.94171654677069
 30
0.0
 10
50.98953340302563
 20
27.7482134000693
 30
0.0
 10
50.98953340302563
 20
27.7482134000693
 30
0.0
 10
50.98953340302563
 20
27.7482134000693
 30
0.0
 10
50.98953340302563
 20
28.12131724121514
 30
0.0
 10
50.61746309052563
 20
28.92746958496514
 30
0.0
 10
49.87228893687981
 20
28.92746958496514
 30
0.0
 10
49.25148273028256
 20
28.92746958496514
 30
0.0
 10
49.25148273028256
 20
28.92746958496514
 30
0.0
 10
49.25148273028256
 20
28.92746958496514
 30
0.0
  0
SPLINE
  5
745
330
1F
100
AcDbEntity
  8
0
100
AcDbSpline
210
0.0
220
0.0
230
1.0
 70
     8
 71
     3
 72
    11
 73
     7
 74
     0
 42
0.0000000001
 43
0.0000000001
 40
0.0
 40
0.0
 40
0.0
 40
0.0
 40
1.0
 40
1.0
 40
1.0
 40
2.0
 40
2.0
 40
2.0
 40
2.0
 10
50.12033581187981
 20
29.36189612576374
 30
0.0
 10
50.05832409312981
 20
29.23821719781237
 30
0.0
 10
49.56154132403256
 20
28.92746958496514
 30
0.0
 10
49.43751788653256
 20
28.92746958496514
 30
0.0
 10
49.18912650198399
 20
28.98948130371514
 30
0.0
 10
49.18912650198399
 20
28.98948130371514
 30
0.0
 10
49.18912650198399
 20
28.98948130371514
 30
0.0
  0
LINE
  5
746
330
1F
100
AcDbEntity
  8
0
100
AcDbLine
 10
42.48462573896316
 20
20.42359618913181
 30
0.0
 11
42.48462573896316
 21
20.05049218913181
 31
0.0
  0
LINE
  5
747
330
1F
100
AcDbEntity
  8
0
100
AcDbLine
 10
42.73301773896315
 20
20.42359618913181
 30
0.0
 11
41.55376173896317
 21
20.42359618913181
 31
0.0
  0
SPLINE
  5
748
330
1F
100
AcDbEntity
  8
0
100
AcDbSpline
210
0.0
220
0.0
230
1.0
 70
     8
 71
     3
 72
     8
 73
     4
 74
     0
 42
0.0000000001
 43
0.0000000001
 40
0.0
 40
0.0
 40
0.0
 40
0.0
 40
1.0
 40
1.0
 40
1.0
 40
1.0
 10
33.73201658444924
 20
20.42359588704847
 30
0.0
 10
38.01530380233121
 20
20.48526309624985
 30
0.0
 10
42.73301756101176
 20
20.42359588704847
 30
0.0
 10
41.55376137611591
 20
20.42359588704847
 30
0.0
  0
POLYLINE
  5
74A
330
1F
100
AcDbEntity
  8
0
100
AcDb2dPolyline
 66
     1
 10
0.0
 20
0.0
 30
0.0
  0
VERTEX
  5
74B
330
74A
100
AcDbEntity
  8
0
100
AcDbVertex
100
AcDb2dVertex
 10
28.33114073896314
 20
19.55336518913181
 30
0.0
  0
VERTEX
  5
74C
330
74A
100
AcDbEntity
  8
0
100
AcDbVertex
100
AcDb2dVertex
 10
32.30436873896315
 20
19.24296118913181
 30
0.0
  0
VERTEX
  5
74D
330
74A
100
AcDbEntity
  8
0
100
AcDbVertex
100
AcDb2dVertex
 10
32.55310473896316
 20
19.24296118913181
 30
0.0
  0
SEQEND
  5
74E
330
74A
100
AcDbEntity
  8
0
  0
LINE
  5
74F
330
1F
100
AcDbEntity
  8
0
100
AcDbLine
 10
42.29893573896316
 20
19.24296118913181
 30
0.0
 11
42.73301773896315
 21
19.24296118913181
 31
0.0
  0
LINE
  5
750
330
1F
100
AcDbEntity
  8
0
100
AcDbLine
 10
38.63576573896316
 20
19.24296118913181
 30
0.0
 11
39.81502173896317
 21
19.24296118913181
 31
0.0
  0
LINE
  5
751
330
1F
100
AcDbEntity
  8
0
100
AcDbLine
 10
35.03564073896317
 20
19.24296118913181
 30
0.0
 11
36.21455273896316
 21
19.24296118913181
 31
0.0
  0
POLYLINE
  5
752
330
1F
100
AcDbEntity
  8
0
100
AcDb2dPolyline
 66
     1
 10
0.0
 20
0.0
 30
0.0
  0
VERTEX
  5
753
330
752
100
AcDbEntity
  8
0
100
AcDbVertex
100
AcDb2dVertex
 10
28.33114073896314
 20
19.98779118913181
 30
0.0
  0
VERTEX
  5
754
330
752
100
AcDbEntity
  8
0
100
AcDbVertex
100
AcDb2dVertex
 10
28.33114073896314
 20
19.55336518913181
 30
0.0
  0
VERTEX
  5
755
330
752
100
AcDbEntity
  8
0
100
AcDbVertex
100
AcDb2dVertex
 10
32.30436873896315
 20
20.05049218913181
 30
0.0
  0
VERTEX
  5
756
330
752
100
AcDbEntity
  8
0
100
AcDbVertex
100
AcDb2dVertex
 10
42.73301773896315
 20
20.05049218913181
 30
0.0
  0
SEQEND
  5
757
330
752
100
AcDbEntity
  8
0
  0
POLYLINE
  5
758
330
1F
100
AcDbEntity
  8
0
100
AcDb2dPolyline
 66
     1
 10
0.0
 20
0.0
 30
0.0
 70
     1
  0
VERTEX
  5
759
330
758
100
AcDbEntity
  8
0
100
AcDbVertex
100
AcDb2dVertex
 10
32.55310473896316
 20
18.5604881891318
 30
0.0
  0
VERTEX
  5
75A
330
758
100
AcDbEntity
  8
0
100
AcDbVertex
100
AcDb2dVertex
 10
35.03564073896317
 20
18.5604881891318
 30
0.0
  0
VERTEX
  5
75B
330
758
100
AcDbEntity
  8
0
100
AcDbVertex
100
AcDb2dVertex
 10
35.03564073896317
 20
19.98779118913181
 30
0.0
  0
VERTEX
  5
75C
330
758
100
AcDbEntity
  8
0
100
AcDbVertex
100
AcDb2dVertex
 10
32.55310473896316
 20
19.98779118913181
 30
0.0
  0
SEQEND
  5
75D
330
758
100
AcDbEntity
  8
0
  0
POLYLINE
  5
75E
330
1F
100
AcDbEntity
  8
0
100
AcDb2dPolyline
 66
     1
 10
0.0
 20
0.0
 30
0.0
 70
     1
  0
VERTEX
  5
75F
330
75E
100
AcDbEntity
  8
0
100
AcDbVertex
100
AcDb2dVertex
 10
36.21455273896316
 20
18.5604881891318
 30
0.0
  0
VERTEX
  5
760
330
75E
100
AcDbEntity
  8
0
100
AcDbVertex
100
AcDb2dVertex
 10
38.63576573896316
 20
18.5604881891318
 30
0.0
  0
VERTEX
  5
761
330
75E
100
AcDbEntity
  8
0
100
AcDbVertex
100
AcDb2dVertex
 10
38.63576573896316
 20
19.6153761891318
 30
0.0
  0
VERTEX
  5
762
330
75E
100
AcDbEntity
  8
0
100
AcDbVertex
100
AcDb2dVertex
 10
36.21455273896316
 20
19.6153761891318
 30
0.0
  0
SEQEND
  5
763
330
75E
100
AcDbEntity
  8
0
  0
POLYLINE
  5
764
330
1F
100
AcDbEntity
  8
0
100
AcDb2dPolyline
 66
     1
 10
0.0
 20
0.0
 30
0.0
 70
     1
  0
VERTEX
  5
765
330
764
100
AcDbEntity
  8
0
100
AcDbVertex
100
AcDb2dVertex
 10
39.81502173896317
 20
18.5604881891318
 30
0.0
  0
VERTEX
  5
766
330
764
100
AcDbEntity
  8
0
100
AcDbVertex
100
AcDb2dVertex
 10
42.29893573896316
 20
18.5604881891318
 30
0.0
  0
VERTEX
  5
767
330
764
100
AcDbEntity
  8
0
100
AcDbVertex
100
AcDb2dVertex
 10
42.29893573896316
 20
19.98779118913181
 30
0.0
  0
VERTEX
  5
768
330
764
100
AcDbEntity
  8
0
100
AcDbVertex
100
AcDb2dVertex
 10
39.81502173896317
 20
19.98779118913181
 30
0.0
  0
SEQEND
  5
769
330
764
100
AcDbEntity
  8
0
  0
POLYLINE
  5
76A
330
1F
100
AcDbEntity
  8
0
100
AcDb2dPolyline
 66
     1
 10
0.0
 20
0.0
 30
0.0
  0
VERTEX
  5
76B
330
76A
100
AcDbEntity
  8
0
100
AcDbVertex
100
AcDb2dVertex
 10
46.14745173896316
 20
20.48526318913181
 30
0.0
  0
VERTEX
  5
76C
330
76A
100
AcDbEntity
  8
0
100
AcDbVertex
100
AcDb2dVertex
 10
46.70590173896317
 20
20.79566618913181
 30
0.0
  0
VERTEX
  5
76D
330
76A
100
AcDbEntity
  8
0
100
AcDbVertex
100
AcDb2dVertex
 10
46.70590173896317
 20
21.47848418913181
 30
0.0
  0
VERTEX
  5
76E
330
76A
100
AcDbEntity
  8
0
100
AcDbVertex
100
AcDb2dVertex
 10
42.73301773896315
 20
21.47848418913181
 30
0.0
  0
VERTEX
  5
76F
330
76A
100
AcDbEntity
  8
0
100
AcDbVertex
100
AcDb2dVertex
 10
42.73301773896315
 20
18.5604881891318
 30
0.0
  0
VERTEX
  5
770
330
76A
100
AcDbEntity
  8
0
100
AcDbVertex
100
AcDb2dVertex
 10
46.14745173896316
 20
18.5604881891318
 30
0.0
  0
VERTEX
  5
771
330
76A
100
AcDbEntity
  8
0
100
AcDbVertex
100
AcDb2dVertex
 10
46.14745173896316
 20
20.48526318913181
 30
0.0
  0
SEQEND
  5
772
330
76A
100
AcDbEntity
  8
0
  0
POLYLINE
  5
773
330
1F
100
AcDbEntity
  8
0
100
AcDb2dPolyline
 66
     1
 10
0.0
 20
0.0
 30
0.0
  0
VERTEX
  5
774
330
773
100
AcDbEntity
  8
0
100
AcDbVertex
100
AcDb2dVertex
 10
46.70624573896316
 20
21.47848418913181
 30
0.0
  0
VERTEX
  5
775
330
773
100
AcDbEntity
  8
0
100
AcDbVertex
100
AcDb2dVertex
 10
46.70624573896316
 20
20.79532218913181
 30
0.0
  0
VERTEX
  5
776
330
773
100
AcDbEntity
  8
0
100
AcDbVertex
100
AcDb2dVertex
 10
46.14745173896316
 20
20.48526318913181
 30
0.0
  0
VERTEX
  5
777
330
773
100
AcDbEntity
  8
0
100
AcDbVertex
100
AcDb2dVertex
 10
46.14745173896316
 20
18.5604881891318
 30
0.0
  0
VERTEX
  5
778
330
773
100
AcDbEntity
  8
0
100
AcDbVertex
100
AcDb2dVertex
 10
47.94854773896315
 20
18.5604881891318
 30
0.0
  0
VERTEX
  5
779
330
773
100
AcDbEntity
  8
0
100
AcDbVertex
100
AcDb2dVertex
 10
47.94854773896315
 20
20.48526318913181
 30
0.0
  0
VERTEX
  5
77A
330
773
100
AcDbEntity
  8
0
100
AcDbVertex
100
AcDb2dVertex
 10
48.56900973896316
 20
20.79532218913181
 30
0.0
  0
VERTEX
  5
77B
330
773
100
AcDbEntity
  8
0
100
AcDbVertex
100
AcDb2dVertex
 10
48.56900973896316
 20
21.47848418913181
 30
0.0
  0
VERTEX
  5
77C
330
773
100
AcDbEntity
  8
0
100
AcDbVertex
100
AcDb2dVertex
 10
46.70624573896316
 20
21.47848418913181
 30
0.0
  0
SEQEND
  5
77D
330
773
100
AcDbEntity
  8
0
  0
LINE
  5
77E
330
1F
100
AcDbEntity
  8
0
100
AcDbLine
 10
43.35451273896317
 20
22.2229691891318
 30
0.0
 11
43.16882173896317
 21
21.72687518913181
 31
0.0
  0
POLYLINE
  5
77F
330
1F
100
AcDbEntity
  8
0
100
AcDb2dPolyline
 66
     1
 10
0.0
 20
0.0
 30
0.0
  0
VERTEX
  5
780
330
77F
100
AcDbEntity
  8
0
100
AcDbVertex
100
AcDb2dVertex
 10
43.10612173896316
 20
22.34664818913181
 30
0.0
  0
VERTEX
  5
781
330
77F
100
AcDbEntity
  8
0
100
AcDbVertex
100
AcDb2dVertex
 10
43.10612173896316
 20
21.72653118913181
 30
0.0
  0
VERTEX
  5
782
330
77F
100
AcDbEntity
  8
0
100
AcDbVertex
100
AcDb2dVertex
 10
43.66491573896314
 20
21.72653118913181
 30
0.0
  0
SEQEND
  5
783
330
77F
100
AcDbEntity
  8
0
  0
SPLINE
  5
784
330
1F
100
AcDbEntity
  8
0
100
AcDbSpline
210
0.0
220
0.0
230
1.0
 70
     8
 71
     3
 72
    29
 73
    25
 74
     0
 42
0.0000000001
 43
0.0000000001
 40
0.0
 40
0.0
 40
0.0
 40
0.0
 40
1.0
 40
1.0
 40
1.0
 40
2.0
 40
2.0
 40
2.0
 40
3.0
 40
3.0
 40
3.0
 40
4.0
 40
4.0
 40
4.0
 40
5.0
 40
5.0
 40
5.0
 40
6.0
 40
6.0
 40
6.0
 40
7.0
 40
7.0
 40
7.0
 40
8.0
 40
8.0
 40
8.0
 40
8.0
 10
26.28337563392844
 20
24.7065385953818
 30
0.0
 10
26.46941079017845
 20
21.41647240614569
 30
0.0
 10
26.46941079017845
 20
21.41647240614569
 30
0.0
 10
26.46941079017845
 20
21.41647240614569
 30
0.0
 10
26.53073348983119
 20
20.98170135579847
 30
0.0
 10
27.02717174937979
 20
19.92681311795125
 30
0.0
 10
28.45550833792149
 20
19.98779130805542
 30
0.0
 10
30.37993867646316
 20
20.05049204590264
 30
0.0
 10
30.9394221834076
 20
20.42359588704847
 30
0.0
 10
33.73167207490062
 20
20.42359588704847
 30
0.0
 10
36.46328828583816
 20
20.48526309624985
 30
0.0
 10
41.18169106361591
 20
20.42359588704847
 30
0.0
 10
41.55410588566454
 20
20.42359588704847
 30
0.0
 10
41.92720972681036
 20
20.42359588704847
 30
0.0
 10
42.36060273896313
 20
20.92003414659709
 30
0.0
 10
42.60933863306036
 20
21.23043724989569
 30
0.0
 10
42.73336207056035
 20
21.41647240614569
 30
0.0
 10
42.79606280840758
 20
21.54049584364569
 30
0.0
 10
43.10646591170621
 20
21.60216305284709
 30
0.0
 10
43.3545127867062
 20
21.60216305284709
 30
0.0
 10
43.60290417125478
 20
21.60216305284709
 30
0.0
 10
43.60290417125478
 20
21.60216305284709
 30
0.0
 10
43.91261825545621
 20
22.03658959364569
 30
0.0
 10
43.91261825545621
 20
22.03658959364569
 30
0.0
 10
43.91261825545621
 20
22.03658959364569
 30
0.0
  0
SPLINE
  5
785
330
1F
100
AcDbEntity
  8
0
100
AcDbSpline
210
0.0
220
0.0
230
1.0
 70
     8
 71
     3
 72
    20
 73
    16
 74
     0
 42
0.0000000001
 43
0.0000000001
 40
0.0
 40
0.0
 40
0.0
 40
0.0
 40
1.0
 40
1.0
 40
1.0
 40
2.0
 40
2.0
 40
2.0
 40
3.0
 40
3.0
 40
3.0
 40
4.0
 40
4.0
 40
4.0
 40
5.0
 40
5.0
 40
5.0
 40
5.0
 10
22.74457355059511
 20
33.21075680284708
 30
0.0
 10
22.93026419729648
 20
32.90000918999986
 30
0.0
 10
24.11055391083812
 20
30.8515554139582
 30
0.0
 10
24.35825627628958
 20
29.67298824815958
 30
0.0
 10
24.35825627628958
 20
29.67298824815958
 30
0.0
 10
24.42095701413675
 20
29.42356333496514
 30
0.0
 10
24.66900388913675
 20
29.42356333496514
 30
0.0
 10
24.66900388913675
 20
29.42356333496514
 30
0.0
 10
24.79302732663675
 20
28.98948130371514
 30
0.0
 10
25.16544214868537
 20
28.98948130371514
 30
0.0
 10
25.28912107663675
 20
28.98948130371514
 30
0.0
 10
25.351821814484
 20
28.74177893826374
 30
0.0
 10
25.41417804278263
 20
28.61706648166653
 30
0.0
 10
25.41417804278263
 20
28.4923540250693
 30
0.0
 10
25.78555933618537
 20
27.25074161187486
 30
0.0
 10
25.78555933618537
 20
27.25074161187486
 30
0.0
  0
SPLINE
  5
786
330
1F
100
AcDbEntity
  8
0
100
AcDbSpline
210
0.0
220
0.0
230
1.0
 70
    11
 71
     3
 72
    17
 73
    13
 74
     0
 42
0.0000000001
 43
0.0000000001
 40
0.0
 40
0.0
 40
0.0
 40
0.0
 40
1.0
 40
1.0
 40
1.0
 40
2.0
 40
2.0
 40
2.0
 40
3.0
 40
3.0
 40
3.0
 40
4.0
 40
4.0
 40
4.0
 40
4.0
 10
21.68934080319926
 20
33.2734575406943
 30
0.0
 10
21.68934080319926
 20
33.7071950623957
 30
0.0
 10
21.99905488740063
 20
34.08064341309014
 30
0.0
 10
22.24813529104648
 20
34.08064341309014
 30
0.0
 10
22.49583765649788
 20
34.08064341309014
 30
0.0
 10
52.47919269122011
 20
34.08064341309014
 30
0.0
 10
52.47919269122011
 20
34.08064341309014
 30
0.0
 10
52.91430825111593
 20
34.08064341309014
 30
0.0
 10
53.16269963566455
 20
33.6455278531943
 30
0.0
 10
53.16269963566455
 20
33.2734575406943
 30
0.0
 10
21.68934080319926
 20
33.2734575406943
 30
0.0
 10
21.68934080319926
 20
33.2734575406943
 30
0.0
 10
21.68934080319926
 20
33.2734575406943
 30
0.0
  0
ENDSEC
  0
SECTION
  2
OBJECTS
  0
DICTIONARY
  5
C
330
0
100
AcDbDictionary
281
     1
  3
ACAD_COLOR
350
C9
  3
ACAD_GROUP
350
D
  3
ACAD_LAYOUT
350
1A
  3
ACAD_MATERIAL
350
C8
  3
ACAD_MLEADERSTYLE
350
2EC
  3
ACAD_MLINESTYLE
350
17
  3
ACAD_PLOTSETTINGS
350
19
  3
ACAD_PLOTSTYLENAME
350
E
  3
ACAD_SCALELIST
350
2CA
  3
ACAD_TABLESTYLE
350
123
  3
ACAD_VISUALSTYLE
350
296
  3
ACDB_RECOMPOSE_DATA
350
30D
  3
AcDbVariableDictionary
350
9E
  3
AcmDictionary
350
63
  3
AMG
350
49
  3
AMGSNAPSETTINGS
350
588
  3
ASE_INDEX_DICTIONARY
350
794
  0
DICTIONARY
  5
78F
330
10
100
AcDbDictionary
280
     1
281
     1
  3
ADSK_XREC_LAYER_RECONCILED
360
790
  0
DICTIONARY
  5
791
330
38C
100
AcDbDictionary
280
     1
281
     1
  3
ADSK_XREC_LAYER_RECONCILED
360
792
  0
DICTIONARY
  5
99
330
1F
100
AcDbDictionary
280
     1
281
     1
  0
DICTIONARY
  5
C9
102
{ACAD_REACTORS
330
C
102
}
330
C
100
AcDbDictionary
281
     1
  0
DICTIONARY
  5
D
102
{ACAD_REACTORS
330
C
102
}
330
C
100
AcDbDictionary
281
     1
  0
DICTIONARY
  5
1A
102
{ACAD_REACTORS
330
C
102
}
330
C
100
AcDbDictionary
281
     1
  3
Layout1
350
1E
  3
Layout2
350
26
  3
Model
350
22
  0
DICTIONARY
  5
C8
102
{ACAD_REACTORS
330
C
102
}
330
C
100
AcDbDictionary
281
     1
  3
ByBlock
350
294
  3
ByLayer
350
293
  3
Global
350
295
  0
DICTIONARY
  5
2EC
102
{ACAD_REACTORS
330
C
102
}
330
C
100
AcDbDictionary
281
     1
  3
Standard
350
2ED
  0
DICTIONARY
  5
17
102
{ACAD_REACTORS
330
C
102
}
330
C
100
AcDbDictionary
281
     1
  3
Standard
350
18
  0
DICTIONARY
  5
19
102
{ACAD_REACTORS
330
C
102
}
330
C
100
AcDbDictionary
281
     1
  0
ACDBDICTIONARYWDFLT
  5
E
102
{ACAD_REACTORS
330
C
102
}
330
C
100
AcDbDictionary
281
     1
  3
Normal
350
F
100
AcDbDictionaryWithDefault
340
F
  0
DICTIONARY
  5
2CA
102
{ACAD_REACTORS
330
C
102
}
330
C
100
AcDbDictionary
281
     1
  3
A0
350
2CB
  3
A1
350
2CC
  3
A2
350
2CD
  3
A3
350
2CE
  3
A4
350
2CF
  3
A5
350
2D0
  3
A6
350
2D1
  3
A7
350
2D2
  3
A8
350
2D3
  3
A9
350
2D4
  3
B0
350
2D5
  3
B1
350
2D6
  3
B2
350
2D7
  3
B3
350
2D8
  3
B4
350
2D9
  3
B5
350
2DA
  3
B6
350
2DB
  3
B7
350
2DC
  3
B8
350
2DD
  3
B9
350
2DE
  3
C0
350
2DF
  3
C1
350
2E0
  3
C2
350
2E1
  3
C3
350
2E2
  3
C4
350
2E3
  3
C5
350
2E4
  3
C6
350
2E5
  3
C7
350
2E6
  3
C8
350
2E7
  3
C9
350
2E8
  3
D0
350
2E9
  3
D1
350
2EA
  3
D2
350
2EB
  0
DICTIONARY
  5
123
102
{ACAD_REACTORS
330
C
102
}
330
C
100
AcDbDictionary
281
     1
  3
Standard
350
124
  0
DICTIONARY
  5
296
102
{ACAD_REACTORS
330
C
102
}
330
C
100
AcDbDictionary
281
     1
  3
2dWireframe
350
29C
  3
3D Hidden
350
29E
  3
3dWireframe
350
29D
  3
Basic
350
29B
  3
Brighten
350
2A2
  3
ColorChange
350
2A6
  3
Conceptual
350
29F
  3
Dim
350
2A1
  3
Facepattern
350
2A5
  3
Flat
350
297
  3
FlatWithEdges
350
298
  3
Gouraud
350
299
  3
GouraudWithEdges
350
29A
  3
Linepattern
350
2A4
  3
Realistic
350
2A0
  3
Thicken
350
2A3
  0
XRECORD
  5
30D
102
{ACAD_REACTORS
330
C
102
}
330
C
100
AcDbXrecord
280
     1
 90
        1
330
124
  0
DICTIONARY
  5
9E
102
{ACAD_REACTORS
330
C
102
}
330
C
100
AcDbDictionary
281
     1
  3
CANNOSCALE
350
310
  3
CMLEADERSTYLE
350
30E
  3
CTABLESTYLE
350
144
  3
DIMASSOC
350
A0
  3
INDEXCTL
350
9F
  3
LAYEREVAL
350
36B
  3
LAYERNOTIFY
350
36C
  3
LIGHTINGUNITS
350
311
  3
MSLTSCALE
350
30F
  0
DICTIONARY
  5
63
102
{ACAD_REACTORS
330
C
102
}
330
C
100
AcDbDictionary
281
     1
  3
AcmStdDictionary
350
69
  3
AMDTSECTSYM_ARROWCOLOR
350
12C
  0
DICTIONARY
  5
49
102
{ACAD_REACTORS
330
C
102
}
330
C
100
AcDbDictionary
281
     1
  0
DICTIONARY
  5
588
102
{ACAD_REACTORS
330
C
102
}
330
C
100
AcDbDictionary
281
     1
  0
DICTIONARY
  5
794
102
{ACAD_REACTORS
330
C
102
}
330
C
100
AcDbDictionary
281
     1
  3
ASEBlockHierarchyIndexRecord
350
795
1001
DCO15
1040
1687866528.94
  0
XRECORD
  5
790
102
{ACAD_REACTORS
330
78F
102
}
330
78F
100
AcDbXrecord
280
     1
290
     1
  0
XRECORD
  5
792
102
{ACAD_REACTORS
330
791
102
}
330
791
100
AcDbXrecord
280
     1
290
     1
  0
LAYOUT
  5
1E
102
{ACAD_REACTORS
330
1A
102
}
330
1A
100
AcDbPlotSettings
  1

  2

  4

  6

 40
0.0
 41
0.0
 42
0.0
 43
0.0
 44
0.0
 45
0.0
 46
0.0
 47
0.0
 48
0.0
 49
0.0
140
0.0
141
0.0
142
1.0
143
1.0
 70
   688
 72
     0
 73
     0
 74
     5
  7

 75
    16
147
1.0
 76
     0
 77
     2
 78
   300
148
0.0
149
0.0
100
AcDbLayout
  1
Layout1
 70
     1
 71
     1
 10
0.0
 20
0.0
 11
12.0
 21
9.0
 12
0.0
 22
0.0
 32
0.0
 14
1.000000000000000E+20
 24
1.000000000000000E+20
 34
1.000000000000000E+20
 15
-1.000000000000000E+20
 25
-1.000000000000000E+20
 35
-1.000000000000000E+20
146
0.0
 13
0.0
 23
0.0
 33
0.0
 16
1.0
 26
0.0
 36
0.0
 17
0.0
 27
1.0
 37
0.0
 76
     0
330
1B
  0
LAYOUT
  5
26
102
{ACAD_REACTORS
330
1A
102
}
330
1A
100
AcDbPlotSettings
  1

  2

  4

  6

 40
0.0
 41
0.0
 42
0.0
 43
0.0
 44
0.0
 45
0.0
 46
0.0
 47
0.0
 48
0.0
 49
0.0
140
0.0
141
0.0
142
1.0
143
1.0
 70
   688
 72
     0
 73
     0
 74
     5
  7

 75
    16
147
1.0
 76
     0
 77
     2
 78
   300
148
0.0
149
0.0
100
AcDbLayout
  1
Layout2
 70
     1
 71
     2
 10
0.0
 20
0.0
 11
12.0
 21
9.0
 12
0.0
 22
0.0
 32
0.0
 14
0.0
 24
0.0
 34
0.0
 15
0.0
 25
0.0
 35
0.0
146
0.0
 13
0.0
 23
0.0
 33
0.0
 16
1.0
 26
0.0
 36
0.0
 17
0.0
 27
1.0
 37
0.0
 76
     0
330
23
  0
LAYOUT
  5
22
102
{ACAD_REACTORS
330
1A
102
}
330
1A
100
AcDbPlotSettings
  1

  2

  4

  6

 40
0.0
 41
0.0
 42
0.0
 43
0.0
 44
0.0
 45
0.0
 46
0.0
 47
0.0
 48
0.0
 49
0.0
140
0.0
141
0.0
142
1.0
143
1.0
 70
  1712
 72
     0
 73
     0
 74
     0
  7

 75
     0
147
1.0
 76
     0
 77
     2
 78
   300
148
0.0
149
0.0
100
AcDbLayout
  1
Model
 70
     1
 71
     0
 10
0.0
 20
0.0
 11
12.0
 21
9.0
 12
0.0
 22
0.0
 32
0.0
 14
0.0
 24
0.0
 34
0.0
 15
0.0
 25
0.0
 35
0.0
146
0.0
 13
0.0
 23
0.0
 33
0.0
 16
1.0
 26
0.0
 36
0.0
 17
0.0
 27
1.0
 37
0.0
 76
     0
330
1F
331
291
  0
MATERIAL
  5
294
102
{ACAD_REACTORS
330
C8
102
}
330
C8
100
AcDbMaterial
  1
ByBlock
 73
     1
 78
     1
172
     1
176
     1
270
     1
274
     1
 94
       63
  0
MATERIAL
  5
293
102
{ACAD_REACTORS
330
C8
102
}
330
C8
100
AcDbMaterial
  1
ByLayer
 73
     1
 78
     1
172
     1
176
     1
270
     1
274
     1
 94
       63
  0
MATERIAL
  5
295
102
{ACAD_REACTORS
330
C8
102
}
330
C8
100
AcDbMaterial
  1
Global
 73
     1
 78
     1
172
     1
176
     1
270
     1
274
     1
 94
       63
  0
MLEADERSTYLE
  5
2ED
102
{ACAD_REACTORS
330
2EC
102
}
330
2EC
100
AcDbMLeaderStyle
170
     2
171
     1
172
     0
 90
        2
 40
0.0
 41
0.0
173
     1
 91
-1056964608
340
14
 92
       -2
290
     1
 42
0.09
291
     1
 43
0.36
  3
Standard
 44
0.18
300

342
11
174
     1
178
     6
175
     1
176
     0
 93
-1056964608
 45
0.18
292
     0
297
     0
 46
0.18
 94
-1056964608
 47
1.0
 49
1.0
140
1.0
293
     1
141
0.0
294
     1
177
     0
142
1.0
295
     0
296
     0
143
0.125
1001
ACAD_MLEADERVER
1070
     2
  0
MLINESTYLE
  5
18
102
{ACAD_REACTORS
330
17
102
}
330
17
100
AcDbMlineStyle
  2
STANDARD
 70
     0
  3

 62
   256
 51
90.0
 52
90.0
 71
     2
 49
0.5
 62
   256
  6
BYLAYER
 49
-0.5
 62
   256
  6
BYLAYER
  0
ACDBPLACEHOLDER
  5
F
102
{ACAD_REACTORS
330
E
102
}
330
E
  0
SCALE
  5
2CB
102
{ACAD_REACTORS
330
2CA
102
}
330
2CA
100
AcDbScale
 70
     0
300
1:1
140
1.0
141
1.0
290
     1
  0
SCALE
  5
2CC
102
{ACAD_REACTORS
330
2CA
102
}
330
2CA
100
AcDbScale
 70
     0
300
1:2
140
1.0
141
2.0
290
     0
  0
SCALE
  5
2CD
102
{ACAD_REACTORS
330
2CA
102
}
330
2CA
100
AcDbScale
 70
     0
300
1:4
140
1.0
141
4.0
290
     0
  0
SCALE
  5
2CE
102
{ACAD_REACTORS
330
2CA
102
}
330
2CA
100
AcDbScale
 70
     0
300
1:5
140
1.0
141
5.0
290
     0
  0
SCALE
  5
2CF
102
{ACAD_REACTORS
330
2CA
102
}
330
2CA
100
AcDbScale
 70
     0
300
1:8
140
1.0
141
8.0
290
     0
  0
SCALE
  5
2D0
102
{ACAD_REACTORS
330
2CA
102
}
330
2CA
100
AcDbScale
 70
     0
300
1:10
140
1.0
141
10.0
290
     0
  0
SCALE
  5
2D1
102
{ACAD_REACTORS
330
2CA
102
}
330
2CA
100
AcDbScale
 70
     0
300
1:16
140
1.0
141
16.0
290
     0
  0
SCALE
  5
2D2
102
{ACAD_REACTORS
330
2CA
102
}
330
2CA
100
AcDbScale
 70
     0
300
1:20
140
1.0
141
20.0
290
     0
  0
SCALE
  5
2D3
102
{ACAD_REACTORS
330
2CA
102
}
330
2CA
100
AcDbScale
 70
     0
300
1:30
140
1.0
141
30.0
290
     0
  0
SCALE
  5
2D4
102
{ACAD_REACTORS
330
2CA
102
}
330
2CA
100
AcDbScale
 70
     0
300
1:40
140
1.0
141
40.0
290
     0
  0
SCALE
  5
2D5
102
{ACAD_REACTORS
330
2CA
102
}
330
2CA
100
AcDbScale
 70
     0
300
1:50
140
1.0
141
50.0
290
     0
  0
SCALE
  5
2D6
102
{ACAD_REACTORS
330
2CA
102
}
330
2CA
100
AcDbScale
 70
     0
300
1:100
140
1.0
141
100.0
290
     0
  0
SCALE
  5
2D7
102
{ACAD_REACTORS
330
2CA
102
}
330
2CA
100
AcDbScale
 70
     0
300
2:1
140
2.0
141
1.0
290
     0
  0
SCALE
  5
2D8
102
{ACAD_REACTORS
330
2CA
102
}
330
2CA
100
AcDbScale
 70
     0
300
4:1
140
4.0
141
1.0
290
     0
  0
SCALE
  5
2D9
102
{ACAD_REACTORS
330
2CA
102
}
330
2CA
100
AcDbScale
 70
     0
300
8:1
140
8.0
141
1.0
290
     0
  0
SCALE
  5
2DA
102
{ACAD_REACTORS
330
2CA
102
}
330
2CA
100
AcDbScale
 70
     0
300
10:1
140
10.0
141
1.0
290
     0
  0
SCALE
  5
2DB
102
{ACAD_REACTORS
330
2CA
102
}
330
2CA
100
AcDbScale
 70
     0
300
100:1
140
100.0
141
1.0
290
     0
  0
SCALE
  5
2DC
102
{ACAD_REACTORS
330
2CA
102
}
330
2CA
100
AcDbScale
 70
     0
300
1/128" = 1'-0"
140
0.0078125
141
12.0
290
     0
  0
SCALE
  5
2DD
102
{ACAD_REACTORS
330
2CA
102
}
330
2CA
100
AcDbScale
 70
     0
300
1/64" = 1'-0"
140
0.015625
141
12.0
290
     0
  0
SCALE
  5
2DE
102
{ACAD_REACTORS
330
2CA
102
}
330
2CA
100
AcDbScale
 70
     0
300
1/32" = 1'-0"
140
0.03125
141
12.0
290
     0
  0
SCALE
  5
2DF
102
{ACAD_REACTORS
330
2CA
102
}
330
2CA
100
AcDbScale
 70
     0
300
1/16" = 1'-0"
140
0.0625
141
12.0
290
     0
  0
SCALE
  5
2E0
102
{ACAD_REACTORS
330
2CA
102
}
330
2CA
100
AcDbScale
 70
     0
300
3/32" = 1'-0"
140
0.09375
141
12.0
290
     0
  0
SCALE
  5
2E1
102
{ACAD_REACTORS
330
2CA
102
}
330
2CA
100
AcDbScale
 70
     0
300
1/8" = 1'-0"
140
0.125
141
12.0
290
     0
  0
SCALE
  5
2E2
102
{ACAD_REACTORS
330
2CA
102
}
330
2CA
100
AcDbScale
 70
     0
300
3/16" = 1'-0"
140
0.1875
141
12.0
290
     0
  0
SCALE
  5
2E3
102
{ACAD_REACTORS
330
2CA
102
}
330
2CA
100
AcDbScale
 70
     0
300
1/4" = 1'-0"
140
0.25
141
12.0
290
     0
  0
SCALE
  5
2E4
102
{ACAD_REACTORS
330
2CA
102
}
330
2CA
100
AcDbScale
 70
     0
300
3/8" = 1'-0"
140
0.375
141
12.0
290
     0
  0
SCALE
  5
2E5
102
{ACAD_REACTORS
330
2CA
102
}
330
2CA
100
AcDbScale
 70
     0
300
1/2" = 1'-0"
140
0.5
141
12.0
290
     0
  0
SCALE
  5
2E6
102
{ACAD_REACTORS
330
2CA
102
}
330
2CA
100
AcDbScale
 70
     0
300
3/4" = 1'-0"
140
0.75
141
12.0
290
     0
  0
SCALE
  5
2E7
102
{ACAD_REACTORS
330
2CA
102
}
330
2CA
100
AcDbScale
 70
     0
300
1" = 1'-0"
140
1.0
141
12.0
290
     0
  0
SCALE
  5
2E8
102
{ACAD_REACTORS
330
2CA
102
}
330
2CA
100
AcDbScale
 70
     0
300
1-1/2" = 1'-0"
140
1.5
141
12.0
290
     0
  0
SCALE
  5
2E9
102
{ACAD_REACTORS
330
2CA
102
}
330
2CA
100
AcDbScale
 70
     0
300
3" = 1'-0"
140
3.0
141
12.0
290
     0
  0
SCALE
  5
2EA
102
{ACAD_REACTORS
330
2CA
102
}
330
2CA
100
AcDbScale
 70
     0
300
6" = 1'-0"
140
6.0
141
12.0
290
     0
  0
SCALE
  5
2EB
102
{ACAD_REACTORS
330
2CA
102
}
330
2CA
100
AcDbScale
 70
     0
300
1'-0" = 1'-0"
140
12.0
141
12.0
290
     0
  0
TABLESTYLE
  5
124
102
{ACAD_XDICTIONARY
360
30B
102
}
102
{ACAD_REACTORS
330
123
102
}
330
123
100
AcDbTableStyle
  3
Standard
 70
     0
 71
     0
 40
0.06
 41
0.06
280
     0
281
     0
  7
STANDARD
140
0.18
170
     2
 62
     0
 63
     7
283
     0
 90
      512
 91
        0
  1

274
    -2
284
     1
 64
     0
275
    -2
285
     1
 65
     0
276
    -2
286
     1
 66
     0
277
    -2
287
     1
 67
     0
278
    -2
288
     1
 68
     0
279
    -2
289
     1
 69
     0
  7
STANDARD
140
0.25
170
     5
 62
     0
 63
     7
283
     0
 90
      512
 91
        0
  1

274
    -2
284
     1
 64
     0
275
    -2
285
     1
 65
     0
276
    -2
286
     1
 66
     0
277
    -2
287
     1
 67
     0
278
    -2
288
     1
 68
     0
279
    -2
289
     1
 69
     0
  7
STANDARD
140
0.18
170
     5
 62
     0
 63
     7
283
     0
 90
      512
 91
        0
  1

274
    -2
284
     1
 64
     0
275
    -2
285
     1
 65
     0
276
    -2
286
     1
 66
     0
277
    -2
287
     1
 67
     0
278
    -2
288
     1
 68
     0
279
    -2
289
     1
 69
     0
  0
VISUALSTYLE
  5
29C
102
{ACAD_REACTORS
330
296
102
}
330
296
100
AcDbVisualStyle
  2
2dWireframe
 70
     4
 71
     0
 72
     2
 73
     0
 90
        0
 40
-0.6
 41
-30.0
 62
     5
 63
     7
421
 16777215
 74
     1
 91
        4
 64
     7
 65
   257
 75
     1
175
     1
 42
1.0
 92
        0
 66
   257
 43
1.0
 76
     1
 77
     6
 78
     2
 67
     7
 79
     5
170
     0
171
     0
290
     0
174
     0
 93
        1
 44
0.0
173
     0
291
     0
 45
0.0
  0
VISUALSTYLE
  5
29E
102
{ACAD_REACTORS
330
296
102
}
330
296
100
AcDbVisualStyle
  2
3D Hidden
 70
     6
 71
     1
 72
     2
 73
     2
 90
        0
 40
-0.6
 41
-30.0
 62
     5
 63
     7
421
 16777215
 74
     2
 91
        2
 64
     7
 65
   257
 75
     2
175
     1
 42
40.0
 92
        0
 66
   257
 43
1.0
 76
     1
 77
     6
 78
     2
 67
     7
 79
     3
170
     0
171
     0
290
     0
174
     0
 93
        1
 44
0.0
173
     0
291
     0
 45
0.0
  0
VISUALSTYLE
  5
29D
102
{ACAD_REACTORS
330
296
102
}
330
296
100
AcDbVisualStyle
  2
3dWireframe
 70
     5
 71
     0
 72
     2
 73
     0
 90
        0
 40
-0.6
 41
-30.0
 62
     5
 63
     7
421
 16777215
 74
     1
 91
        4
 64
     7
 65
   257
 75
     1
175
     1
 42
1.0
 92
        0
 66
   257
 43
1.0
 76
     1
 77
     6
 78
     2
 67
     7
 79
     5
170
     0
171
     0
290
     0
174
     0
 93
        1
 44
0.0
173
     0
291
     0
 45
0.0
  0
VISUALSTYLE
  5
29B
102
{ACAD_REACTORS
330
296
102
}
330
296
100
AcDbVisualStyle
  2
Basic
 70
     7
 71
     1
 72
     0
 73
     1
 90
        0
 40
-0.6
 41
-30.0
 62
     5
 63
     7
421
 16777215
 74
     0
 91
        4
 64
     7
 65
   257
 75
     1
175
     1
 42
1.0
 92
        8
 66
     7
 43
1.0
 76
     1
 77
     6
 78
     2
 67
     7
 79
     5
170
     0
171
     0
290
     0
174
     0
 93
        1
 44
0.0
173
     0
291
     1
 45
0.0
  0
VISUALSTYLE
  5
2A2
102
{ACAD_REACTORS
330
296
102
}
330
296
100
AcDbVisualStyle
  2
Brighten
 70
    12
 71
     2
 72
     2
 73
     0
 90
        0
 40
-0.6
 41
-30.0
 62
     5
 63
     7
421
 16777215
 74
     1
 91
        4
 64
     7
 65
   257
 75
     1
175
     1
 42
1.0
 92
        8
 66
     7
 43
1.0
 76
     1
 77
     6
 78
     2
 67
     7
 79
     5
170
     0
171
     0
290
     0
174
     0
 93
        1
 44
50.0
173
     0
291
     1
 45
0.0
  0
VISUALSTYLE
  5
2A6
102
{ACAD_REACTORS
330
296
102
}
330
296
100
AcDbVisualStyle
  2
ColorChange
 70
    16
 71
     2
 72
     2
 73
     3
 90
        0
 40
-0.6
 41
-30.0
 62
     5
 63
     8
421
  8421504
 74
     1
 91
        4
 64
     7
 65
   257
 75
     1
175
     1
 42
1.0
 92
        8
 66
     8
424
  8421504
 43
1.0
 76
     1
 77
     6
 78
     2
 67
     7
 79
     5
170
     0
171
     0
290
     0
174
     0
 93
        1
 44
0.0
173
     0
291
     1
 45
0.0
  0
VISUALSTYLE
  5
29F
102
{ACAD_REACTORS
330
296
102
}
330
296
100
AcDbVisualStyle
  2
Conceptual
 70
     9
 71
     3
 72
     2
 73
     0
 90
        0
 40
-0.6
 41
-30.0
 62
     5
 63
     7
421
 16777215
 74
     2
 91
        2
 64
     7
 65
   257
 75
     1
175
     1
 42
40.0
 92
        8
 66
     7
 43
1.0
 76
     1
 77
     6
 78
     2
 67
     7
 79
     3
170
     0
171
     0
290
     0
174
     0
 93
        1
 44
0.0
173
     0
291
     0
 45
0.0
  0
VISUALSTYLE
  5
2A1
102
{ACAD_REACTORS
330
296
102
}
330
296
100
AcDbVisualStyle
  2
Dim
 70
    11
 71
     2
 72
     2
 73
     0
 90
        0
 40
-0.6
 41
-30.0
 62
     5
 63
     7
421
 16777215
 74
     1
 91
        4
 64
     7
 65
   257
 75
     1
175
     1
 42
1.0
 92
        8
 66
     7
 43
1.0
 76
     1
 77
     6
 78
     2
 67
     7
 79
     5
170
     0
171
     0
290
     0
174
     0
 93
        1
 44
-50.0
173
     0
291
     1
 45
0.0
  0
VISUALSTYLE
  5
2A5
102
{ACAD_REACTORS
330
296
102
}
330
296
100
AcDbVisualStyle
  2
Facepattern
 70
    15
 71
     2
 72
     2
 73
     0
 90
        0
 40
-0.6
 41
-30.0
 62
     5
 63
     7
421
 16777215
 74
     1
 91
        4
 64
     7
 65
   257
 75
     1
175
     1
 42
1.0
 92
        8
 66
     7
 43
1.0
 76
     1
 77
     6
 78
     2
 67
     7
 79
     5
170
     0
171
     0
290
     0
174
     0
 93
        1
 44
0.0
173
     0
291
     1
 45
0.0
  0
VISUALSTYLE
  5
297
102
{ACAD_REACTORS
330
296
102
}
330
296
100
AcDbVisualStyle
  2
Flat
 70
     0
 71
     2
 72
     1
 73
     1
 90
        2
 40
-0.6
 41
30.0
 62
     5
 63
     7
421
 16777215
 74
     0
 91
        4
 64
     7
 65
   257
 75
     1
175
     1
 42
1.0
 92
        8
 66
     7
 43
1.0
 76
     1
 77
     6
 78
     2
 67
     7
 79
     5
170
     0
171
     0
290
     0
174
     0
 93
       13
 44
0.0
173
     0
291
     1
 45
0.0
  0
VISUALSTYLE
  5
298
102
{ACAD_REACTORS
330
296
102
}
330
296
100
AcDbVisualStyle
  2
FlatWithEdges
 70
     1
 71
     2
 72
     1
 73
     1
 90
        2
 40
-0.6
 41
30.0
 62
     5
 63
     7
421
 16777215
 74
     1
 91
        4
 64
     7
 65
   257
 75
     1
175
     1
 42
1.0
 92
        0
 66
   257
 43
1.0
 76
     1
 77
     6
 78
     2
 67
     7
 79
     5
170
     0
171
     0
290
     0
174
     0
 93
       13
 44
0.0
173
     0
291
     1
 45
0.0
  0
VISUALSTYLE
  5
299
102
{ACAD_REACTORS
330
296
102
}
330
296
100
AcDbVisualStyle
  2
Gouraud
 70
     2
 71
     2
 72
     2
 73
     1
 90
        2
 40
-0.6
 41
30.0
 62
     5
 63
     7
421
 16777215
 74
     0
 91
        4
 64
     7
 65
   257
 75
     1
175
     1
 42
1.0
 92
        0
 66
     7
 43
1.0
 76
     1
 77
     6
 78
     2
 67
     7
 79
     5
170
     0
171
     0
290
     0
174
     0
 93
       13
 44
0.0
173
     0
291
     1
 45
0.0
  0
VISUALSTYLE
  5
29A
102
{ACAD_REACTORS
330
296
102
}
330
296
100
AcDbVisualStyle
  2
GouraudWithEdges
 70
     3
 71
     2
 72
     2
 73
     1
 90
        2
 40
-0.6
 41
30.0
 62
     5
 63
     7
421
 16777215
 74
     1
 91
        4
 64
     7
 65
   257
 75
     1
175
     1
 42
1.0
 92
        0
 66
   257
 43
1.0
 76
     1
 77
     6
 78
     2
 67
     7
 79
     5
170
     0
171
     0
290
     0
174
     0
 93
       13
 44
0.0
173
     0
291
     1
 45
0.0
  0
VISUALSTYLE
  5
2A4
102
{ACAD_REACTORS
330
296
102
}
330
296
100
AcDbVisualStyle
  2
Linepattern
 70
    14
 71
     2
 72
     2
 73
     0
 90
        0
 40
-0.6
 41
-30.0
 62
     5
 63
     7
421
 16777215
 74
     1
 91
        4
 64
     7
 65
   257
 75
     7
175
     7
 42
1.0
 92
        8
 66
     7
 43
1.0
 76
     1
 77
     6
 78
     2
 67
     7
 79
     5
170
     0
171
     0
290
     0
174
     0
 93
        1
 44
0.0
173
     0
291
     1
 45
0.0
  0
VISUALSTYLE
  5
2A0
102
{ACAD_REACTORS
330
296
102
}
330
296
100
AcDbVisualStyle
  2
Realistic
 70
     8
 71
     2
 72
     2
 73
     0
 90
        0
 40
-0.6
 41
-30.0
 62
     5
 63
     7
421
 16777215
 74
     1
 91
        0
 64
     7
 65
   257
 75
     1
175
     1
 42
1.0
 92
        8
 66
     8
424
  7895160
 43
1.0
 76
     1
 77
     6
 78
     2
 67
     7
 79
     5
170
     0
171
     0
290
     0
174
     0
 93
       13
 44
0.0
173
     0
291
     0
 45
0.0
  0
VISUALSTYLE
  5
2A3
102
{ACAD_REACTORS
330
296
102
}
330
296
100
AcDbVisualStyle
  2
Thicken
 70
    13
 71
     2
 72
     2
 73
     0
 90
        0
 40
-0.6
 41
-30.0
 62
     5
 63
     7
421
 16777215
 74
     1
 91
        4
 64
     7
 65
   257
 75
     1
175
     1
 42
1.0
 92
       12
 66
     7
 43
1.0
 76
     1
 77
     6
 78
     2
 67
     7
 79
     5
170
     0
171
     0
290
     0
174
     0
 93
        1
 44
0.0
173
     0
291
     1
 45
0.0
  0
DICTIONARYVAR
  5
310
102
{ACAD_REACTORS
330
9E
102
}
330
9E
100
DictionaryVariables
280
     0
  1
1:1
  0
DICTIONARYVAR
  5
30E
102
{ACAD_REACTORS
330
9E
102
}
330
9E
100
DictionaryVariables
280
     0
  1
STANDARD
  0
DICTIONARYVAR
  5
144
102
{ACAD_REACTORS
330
9E
102
}
330
9E
100
DictionaryVariables
280
     0
  1
STANDARD
  0
DICTIONARYVAR
  5
A0
102
{ACAD_REACTORS
330
9E
102
}
330
9E
100
DictionaryVariables
280
     0
  1
2
  0
DICTIONARYVAR
  5
9F
102
{ACAD_REACTORS
330
9E
102
}
330
9E
100
DictionaryVariables
280
     0
  1
1
  0
DICTIONARYVAR
  5
36B
102
{ACAD_REACTORS
330
9E
102
}
330
9E
100
DictionaryVariables
280
     0
  1
1
  0
DICTIONARYVAR
  5
36C
102
{ACAD_REACTORS
330
9E
102
}
330
9E
100
DictionaryVariables
280
     0
  1
15
  0
DICTIONARYVAR
  5
311
102
{ACAD_REACTORS
330
9E
102
}
330
9E
100
DictionaryVariables
280
     0
  1
0
  0
DICTIONARYVAR
  5
30F
102
{ACAD_REACTORS
330
9E
102
}
330
9E
100
DictionaryVariables
280
     0
  1
0
  0
DICTIONARY
  5
69
102
{ACAD_REACTORS
330
63
102
}
330
63
100
AcDbDictionary
281
     1
  0
XRECORD
  5
12C
102
{ACAD_REACTORS
330
63
102
}
330
63
100
AcDbXrecord
280
     1
 90
-1023410169
  0
XRECORD
  5
795
102
{ACAD_REACTORS
330
794
102
}
330
794
100
AcDbXrecord
280
     1
  0
DICTIONARY
  5
30B
330
124
100
AcDbDictionary
280
     1
281
     1
  3
ACAD_ROUNDTRIP_2008_TABLESTYLE_CELLSTYLEMAP
360
796
  0
CELLSTYLEMAP
  5
796
102
{ACAD_REACTORS
330
30B
102
}
330
30B
100
AcDbCellStyleMap
 90
        3
300
CELLSTYLE
  1
TABLEFORMAT_BEGIN
 90
        5
170
     1
 91
        0
 92
    32768
 62
   257
 93
        1
300
CONTENTFORMAT
  1
CONTENTFORMAT_BEGIN
 90
        0
 91
        0
 92
      512
 93
        0
300

 40
0.0
140
1.0
 94
        5
 62
     0
340
11
144
0.25
309
CONTENTFORMAT_END
171
     0
 94
        6
 95
        1
302
GRIDFORMAT
  1
GRIDFORMAT_BEGIN
 90
        0
 91
        1
 62
     0
 92
       -2
340
0
 93
        0
 40
0.045
309
GRIDFORMAT_END
 95
        2
302
GRIDFORMAT
  1
GRIDFORMAT_BEGIN
 90
        0
 91
        1
 62
     0
 92
       -2
340
0
 93
        0
 40
0.045
309
GRIDFORMAT_END
 95
        4
302
GRIDFORMAT
  1
GRIDFORMAT_BEGIN
 90
        0
 91
        1
 62
     0
 92
       -2
340
0
 93
        0
 40
0.045
309
GRIDFORMAT_END
 95
        8
302
GRIDFORMAT
  1
GRIDFORMAT_BEGIN
 90
        0
 91
        1
 62
     0
 92
       -2
340
0
 93
        0
 40
0.045
309
GRIDFORMAT_END
 95
       16
302
GRIDFORMAT
  1
GRIDFORMAT_BEGIN
 90
        0
 91
        1
 62
     0
 92
       -2
340
0
 93
        0
 40
0.045
309
GRIDFORMAT_END
 95
       32
302
GRIDFORMAT
  1
GRIDFORMAT_BEGIN
 90
        0
 91
        1
 62
     0
 92
       -2
340
0
 93
        0
 40
0.045
309
GRIDFORMAT_END
309
TABLEFORMAT_END
  1
CELLSTYLE_BEGIN
 90
        1
 91
        1
300
_TITLE
309
CELLSTYLE_END
300
CELLSTYLE
  1
TABLEFORMAT_BEGIN
 90
        5
170
     1
 91
        0
 92
        0
 62
   257
 93
        1
300
CONTENTFORMAT
  1
CONTENTFORMAT_BEGIN
 90
        0
 91
        0
 92
      512
 93
        0
300

 40
0.0
140
1.0
 94
        5
 62
     0
340
11
144
0.18
309
CONTENTFORMAT_END
171
     0
 94
        6
 95
        1
302
GRIDFORMAT
  1
GRIDFORMAT_BEGIN
 90
        0
 91
        1
 62
     0
 92
       -2
340
0
 93
        0
 40
0.045
309
GRIDFORMAT_END
 95
        2
302
GRIDFORMAT
  1
GRIDFORMAT_BEGIN
 90
        0
 91
        1
 62
     0
 92
       -2
340
0
 93
        0
 40
0.045
309
GRIDFORMAT_END
 95
        4
302
GRIDFORMAT
  1
GRIDFORMAT_BEGIN
 90
        0
 91
        1
 62
     0
 92
       -2
340
0
 93
        0
 40
0.045
309
GRIDFORMAT_END
 95
        8
302
GRIDFORMAT
  1
GRIDFORMAT_BEGIN
 90
        0
 91
        1
 62
     0
 92
       -2
340
0
 93
        0
 40
0.045
309
GRIDFORMAT_END
 95
       16
302
GRIDFORMAT
  1
GRIDFORMAT_BEGIN
 90
        0
 91
        1
 62
     0
 92
       -2
340
0
 93
        0
 40
0.045
309
GRIDFORMAT_END
 95
       32
302
GRIDFORMAT
  1
GRIDFORMAT_BEGIN
 90
        0
 91
        1
 62
     0
 92
       -2
340
0
 93
        0
 40
0.045
309
GRIDFORMAT_END
309
TABLEFORMAT_END
  1
CELLSTYLE_BEGIN
 90
        2
 91
        1
300
_HEADER
309
CELLSTYLE_END
300
CELLSTYLE
  1
TABLEFORMAT_BEGIN
 90
        5
170
     1
 91
        0
 92
        0
 62
   257
 93
        1
300
CONTENTFORMAT
  1
CONTENTFORMAT_BEGIN
 90
        0
 91
        0
 92
      512
 93
        0
300

 40
0.0
140
1.0
 94
        2
 62
     0
340
11
144
0.18
309
CONTENTFORMAT_END
171
     0
 94
        6
 95
        1
302
GRIDFORMAT
  1
GRIDFORMAT_BEGIN
 90
        0
 91
        1
 62
     0
 92
       -2
340
0
 93
        0
 40
0.045
309
GRIDFORMAT_END
 95
        2
302
GRIDFORMAT
  1
GRIDFORMAT_BEGIN
 90
        0
 91
        1
 62
     0
 92
       -2
340
0
 93
        0
 40
0.045
309
GRIDFORMAT_END
 95
        4
302
GRIDFORMAT
  1
GRIDFORMAT_BEGIN
 90
        0
 91
        1
 62
     0
 92
       -2
340
0
 93
        0
 40
0.045
309
GRIDFORMAT_END
 95
        8
302
GRIDFORMAT
  1
GRIDFORMAT_BEGIN
 90
        0
 91
        1
 62
     0
 92
       -2
340
0
 93
        0
 40
0.045
309
GRIDFORMAT_END
 95
       16
302
GRIDFORMAT
  1
GRIDFORMAT_BEGIN
 90
        0
 91
        1
 62
     0
 92
       -2
340
0
 93
        0
 40
0.045
309
GRIDFORMAT_END
 95
       32
302
GRIDFORMAT
  1
GRIDFORMAT_BEGIN
 90
        0
 91
        1
 62
     0
 92
       -2
340
0
 93
        0
 40
0.045
309
GRIDFORMAT_END
309
TABLEFORMAT_END
  1
CELLSTYLE_BEGIN
 90
        3
 91
        2
300
_DATA
309
CELLSTYLE_END
  0
ENDSEC
  0
EOF
