  0
SECTION
  2
HEADER
  9
$ACADVER
  1
AC1021
  9
$ACADMAINTVER
 70
    50
  9
$DWGCODEPAGE
  3
ANSI_936
  9
$LASTSAVEDBY
  1
ko69185
  9
$CUSTOMPROPERTYTAG
  1
AmdtFileType
  9
$CUSTOMPROPERTY
  1
84
  9
$INSBASE
 10
0.0
 20
0.0
 30
0.0
  9
$EXTMIN
 10
5.42518835483051
 20
18.37685843595189
 30
0.0
  9
$EXTMAX
 10
60.95788334155975
 20
46.66709765469728
 30
0.0
  9
$LIMMIN
 10
0.0
 20
0.0
  9
$LIMMAX
 10
17.0
 20
11.0
  9
$ORTHOMODE
 70
     0
  9
$REGENMODE
 70
     1
  9
$FILLMODE
 70
     1
  9
$QTEXTMODE
 70
     0
  9
$MIRRTEXT
 70
     1
  9
$LTSCALE
 40
1.0
  9
$ATTMODE
 70
     1
  9
$TEXTSIZE
 40
0.2
  9
$TRACEWID
 40
0.05
  9
$TEXTSTYLE
  7
STANDARD
  9
$CLAYER
  8
0
  9
$CELTYPE
  6
ByLayer
  9
$CECOLOR
 62
   256
  9
$CELTSCALE
 40
1.0
  9
$DISPSILH
 70
     0
  9
$DIMSCALE
 40
1.0
  9
$DIMASZ
 40
0.12
  9
$DIMEXO
 40
0.05
  9
$DIMDLI
 40
0.5
  9
$DIMRND
 40
0.0
  9
$DIMDLE
 40
0.0
  9
$DIMEXE
 40
0.1
  9
$DIMTP
 40
0.1
  9
$DIMTM
 40
0.1
  9
$DIMTXT
 40
0.12
  9
$DIMCEN
 40
0.0
  9
$DIMTSZ
 40
0.0
  9
$DIMTOL
 70
     0
  9
$DIMLIM
 70
     0
  9
$DIMTIH
 70
     1
  9
$DIMTOH
 70
     1
  9
$DIMSE1
 70
     0
  9
$DIMSE2
 70
     0
  9
$DIMTAD
 70
     0
  9
$DIMZIN
 70
     7
  9
$DIMBLK
  1

  9
$DIMASO
 70
     1
  9
$DIMSHO
 70
     1
  9
$DIMPOST
  1

  9
$DIMAPOST
  1
mm
  9
$DIMALT
 70
     0
  9
$DIMALTD
 70
     2
  9
$DIMALTF
 40
25.4
  9
$DIMLFAC
 40
1.0
  9
$DIMTOFL
 70
     0
  9
$DIMTVP
 40
0.0
  9
$DIMTIX
 70
     0
  9
$DIMSOXD
 70
     0
  9
$DIMSAH
 70
     0
  9
$DIMBLK1
  1

  9
$DIMBLK2
  1

  9
$DIMSTYLE
  2
AM_ANSI
  9
$DIMCLRD
 70
   256
  9
$DIMCLRE
 70
   256
  9
$DIMCLRT
 70
   140
  9
$DIMTFAC
 40
0.71
  9
$DIMGAP
 40
0.06
  9
$DIMJUST
 70
     0
  9
$DIMSD1
 70
     0
  9
$DIMSD2
 70
     0
  9
$DIMTOLJ
 70
     1
  9
$DIMTZIN
 70
     7
  9
$DIMALTZ
 70
     0
  9
$DIMALTTZ
 70
     0
  9
$DIMUPT
 70
     0
  9
$DIMDEC
 70
     4
  9
$DIMTDEC
 70
     4
  9
$DIMALTU
 70
     2
  9
$DIMALTTD
 70
     4
  9
$DIMTXSTY
  7
STANDARD
  9
$DIMAUNIT
 70
     0
  9
$DIMADEC
 70
     0
  9
$DIMALTRND
 40
0.0
  9
$DIMAZIN
 70
     2
  9
$DIMDSEP
 70
    46
  9
$DIMATFIT
 70
     3
  9
$DIMFRAC
 70
     0
  9
$DIMLDRBLK
  1

  9
$DIMLUNIT
 70
     2
  9
$DIMLWD
 70
    -1
  9
$DIMLWE
 70
    -1
  9
$DIMTMOVE
 70
     0
  9
$DIMFXL
 40
1.0
  9
$DIMFXLON
 70
     0
  9
$DIMJOGANG
 40
0.7853981633974483
  9
$DIMTFILL
 70
     0
  9
$DIMTFILLCLR
 70
     0
  9
$DIMARCSYM
 70
     1
  9
$DIMLTYPE
  6
ByBlock
  9
$DIMLTEX1
  6
ByBlock
  9
$DIMLTEX2
  6
ByBlock
  9
$LUNITS
 70
     2
  9
$LUPREC
 70
     4
  9
$SKETCHINC
 40
0.1
  9
$FILLETRAD
 40
0.125
  9
$AUNITS
 70
     0
  9
$AUPREC
 70
     0
  9
$MENU
  1
.
  9
$ELEVATION
 40
0.0
  9
$PELEVATION
 40
0.0
  9
$THICKNESS
 40
0.0
  9
$LIMCHECK
 70
     0
  9
$CHAMFERA
 40
0.125
  9
$CHAMFERB
 40
0.125
  9
$CHAMFERC
 40
1.0
  9
$CHAMFERD
 40
0.0
  9
$SKPOLY
 70
     0
  9
$TDCREATE
 40
2455338.702591412
  9
$TDUCREATE
 40
2455338.369258079
  9
$TDUPDATE
 40
2455338.703251215
  9
$TDUUPDATE
 40
2455338.369917882
  9
$TDINDWG
 40
0.0006605208
  9
$TDUSRTIMER
 40
0.0006605208
  9
$USRTIMER
 70
     1
  9
$ANGBASE
 50
0.0
  9
$ANGDIR
 70
     0
  9
$PDMODE
 70
     0
  9
$PDSIZE
 40
0.0
  9
$PLINEWID
 40
0.0
  9
$SPLFRAME
 70
     0
  9
$SPLINETYPE
 70
     6
  9
$SPLINESEGS
 70
     8
  9
$HANDSEED
  5
6B2
  9
$SURFTAB1
 70
     6
  9
$SURFTAB2
 70
     6
  9
$SURFTYPE
 70
     6
  9
$SURFU
 70
     6
  9
$SURFV
 70
     6
  9
$UCSBASE
  2

  9
$UCSNAME
  2

  9
$UCSORG
 10
0.0
 20
0.0
 30
0.0
  9
$UCSXDIR
 10
1.0
 20
0.0
 30
0.0
  9
$UCSYDIR
 10
0.0
 20
1.0
 30
0.0
  9
$UCSORTHOREF
  2

  9
$UCSORTHOVIEW
 70
     0
  9
$UCSORGTOP
 10
0.0
 20
0.0
 30
0.0
  9
$UCSORGBOTTOM
 10
0.0
 20
0.0
 30
0.0
  9
$UCSORGLEFT
 10
0.0
 20
0.0
 30
0.0
  9
$UCSORGRIGHT
 10
0.0
 20
0.0
 30
0.0
  9
$UCSORGFRONT
 10
0.0
 20
0.0
 30
0.0
  9
$UCSORGBACK
 10
0.0
 20
0.0
 30
0.0
  9
$PUCSBASE
  2

  9
$PUCSNAME
  2

  9
$PUCSORG
 10
0.0
 20
0.0
 30
0.0
  9
$PUCSXDIR
 10
1.0
 20
0.0
 30
0.0
  9
$PUCSYDIR
 10
0.0
 20
1.0
 30
0.0
  9
$PUCSORTHOREF
  2

  9
$PUCSORTHOVIEW
 70
     0
  9
$PUCSORGTOP
 10
0.0
 20
0.0
 30
0.0
  9
$PUCSORGBOTTOM
 10
0.0
 20
0.0
 30
0.0
  9
$PUCSORGLEFT
 10
0.0
 20
0.0
 30
0.0
  9
$PUCSORGRIGHT
 10
0.0
 20
0.0
 30
0.0
  9
$PUCSORGFRONT
 10
0.0
 20
0.0
 30
0.0
  9
$PUCSORGBACK
 10
0.0
 20
0.0
 30
0.0
  9
$USERI1
 70
     0
  9
$USERI2
 70
     0
  9
$USERI3
 70
     0
  9
$USERI4
 70
     0
  9
$USERI5
 70
     0
  9
$USERR1
 40
0.0
  9
$USERR2
 40
0.0
  9
$USERR3
 40
0.0
  9
$USERR4
 40
0.0
  9
$USERR5
 40
0.0
  9
$WORLDVIEW
 70
     1
  9
$SHADEDGE
 70
     3
  9
$SHADEDIF
 70
    70
  9
$TILEMODE
 70
     1
  9
$MAXACTVP
 70
    64
  9
$PINSBASE
 10
0.0
 20
0.0
 30
0.0
  9
$PLIMCHECK
 70
     0
  9
$PEXTMIN
 10
1.000000000000000E+20
 20
1.000000000000000E+20
 30
1.000000000000000E+20
  9
$PEXTMAX
 10
-1.000000000000000E+20
 20
-1.000000000000000E+20
 30
-1.000000000000000E+20
  9
$PLIMMIN
 10
0.0
 20
0.0
  9
$PLIMMAX
 10
12.0
 20
9.0
  9
$UNITMODE
 70
     0
  9
$VISRETAIN
 70
     1
  9
$PLINEGEN
 70
     0
  9
$PSLTSCALE
 70
     1
  9
$TREEDEPTH
 70
  3020
  9
$CMLSTYLE
  2
Standard
  9
$CMLJUST
 70
     0
  9
$CMLSCALE
 40
1.0
  9
$PROXYGRAPHICS
 70
     1
  9
$MEASUREMENT
 70
     0
  9
$CELWEIGHT
370
    -1
  9
$ENDCAPS
280
     0
  9
$JOINSTYLE
280
     0
  9
$LWDISPLAY
290
     0
  9
$INSUNITS
 70
     1
  9
$HYPERLINKBASE
  1

  9
$STYLESHEET
  1

  9
$XEDIT
290
     1
  9
$CEPSNTYPE
380
     0
  9
$PSTYLEMODE
290
     1
  9
$FINGERPRINTGUID
  2
{22DC19B9-A604-420C-88A5-D442CEB9F730}
  9
$VERSIONGUID
  2
{2C9D7BAC-0F5A-4C49-A979-910EC8096FFC}
  9
$EXTNAMES
290
     1
  9
$PSVPSCALE
 40
0.0
  9
$OLESTARTUP
290
     0
  9
$SORTENTS
280
   127
  9
$INDEXCTL
280
     0
  9
$HIDETEXT
280
     0
  9
$XCLIPFRAME
290
     0
  9
$HALOGAP
280
     0
  9
$OBSCOLOR
 70
   257
  9
$OBSLTYPE
280
     0
  9
$INTERSECTIONDISPLAY
280
     0
  9
$INTERSECTIONCOLOR
 70
   257
  9
$DIMASSOC
280
     2
  9
$PROJECTNAME
  1

  9
$CAMERADISPLAY
290
     0
  9
$LENSLENGTH
 40
50.0
  9
$CAMERAHEIGHT
 40
0.0
  9
$STEPSPERSEC
 40
2.0
  9
$STEPSIZE
 40
6.0
  9
$3DDWFPREC
 40
2.0
  9
$PSOLWIDTH
 40
0.25
  9
$PSOLHEIGHT
 40
4.0
  9
$LOFTANG1
 40
1.570796326794896
  9
$LOFTANG2
 40
1.570796326794896
  9
$LOFTMAG1
 40
0.0
  9
$LOFTMAG2
 40
0.0
  9
$LOFTPARAM
 70
     7
  9
$LOFTNORMALS
280
     1
  9
$LATITUDE
 40
37.795
  9
$LONGITUDE
 40
-122.394
  9
$NORTHDIRECTION
 40
0.0
  9
$TIMEZONE
 70
 -8000
  9
$LIGHTGLYPHDISPLAY
280
     1
  9
$TILEMODELIGHTSYNCH
280
     1
  9
$CMATERIAL
347
293
  9
$SOLIDHIST
280
     1
  9
$SHOWHIST
280
     1
  9
$DWFFRAME
280
     2
  9
$DGNFRAME
280
     0
  9
$REALWORLDSCALE
290
     1
  9
$INTERFERECOLOR
 62
     1
  9
$INTERFEREOBJVS
345
2A0
  9
$INTERFEREVPVS
346
29D
  9
$CSHADOW
280
     0
  9
$SHADOWPLANELOCATION
 40
0.0
  0
ENDSEC
  0
SECTION
  2
CLASSES
  0
CLASS
  1
ACDBDICTIONARYWDFLT
  2
AcDbDictionaryWithDefault
  3
ObjectDBX Classes
 90
        0
 91
        1
280
     0
281
     0
  0
CLASS
  1
ACME_DOCUMENT
  2
AcMeDbDoc
  3
AcMeServices
 90
     1024
 91
        2
280
     0
281
     0
  0
CLASS
  1
AMGSETTINGSOBJ
  2
AmgSettingsObj
  3
"AcadM|Product Description: AutoCAD Mechanical|Company: Autodesk, Inc."
 90
     1024
 91
        4
280
     0
281
     0
  0
CLASS
  1
ACMESCOPE
  2
AcMeScope
  3
AcMeServices
 90
     1024
 91
        1
280
     0
281
     0
  0
CLASS
  1
ACMECOMMANDHISTORY
  2
AcMeCommandHistory
  3
AcMeServices
 90
     1024
 91
        1
280
     0
281
     0
  0
CLASS
  1
ACIMSYSVARMAN
  2
AcImSysVarManager
  3
AcMeServices
 90
     1024
 91
        5
280
     0
281
     0
  0
CLASS
  1
ACIMREALSYSVAR
  2
AcImRealSysVar
  3
AcMeServices
 90
     1024
 91
        3
280
     0
281
     0
  0
CLASS
  1
ACIMINTSYSVAR
  2
AcImIntSysVar
  3
AcMeServices
 90
     1024
 91
       27
280
     0
281
     0
  0
CLASS
  1
ACMEDRAWINGMAN
  2
AcMeDrawingMan
  3
AcMeServices
 90
     1024
 91
        1
280
     0
281
     0
  0
CLASS
  1
ACMEVIEW
  2
AcMeView
  3
AcMeServices
 90
     1024
 91
        1
280
     0
281
     0
  0
CLASS
  1
ACDBENTITYCACHE
  2
AcMeEntityCache
  3
AcMeServices
 90
     1024
 91
        1
280
     0
281
     0
  0
CLASS
  1
GSMANAGER
  2
AcMeGSManager
  3
AcMeServices
 90
     1024
 91
        1
280
     0
281
     0
  0
CLASS
  1
AMDTINTERNALREACTOR
  2
AmdtInternalReactor
  3
AcMeServices
 90
     1024
 91
        2
280
     0
281
     0
  0
CLASS
  1
ACMESTATEMGR
  2
AcMeStateMgr
  3
AcMeServices
 90
     1024
 91
        1
280
     0
281
     0
  0
CLASS
  1
ACGREFMASTER
  2
AcGrefMaster
  3
AcAttribServices
 90
     1024
 91
        1
280
     0
281
     0
  0
CLASS
  1
ACME_DATABASE
  2
AcMeDbDatabase
  3
AcMeServices
 90
     1024
 91
        2
280
     0
281
     0
  0
CLASS
  1
ACRFINSADJUSTERMGR
  2
AcRfInsAdjusterMgr
  3
AcMeServices
 90
     1024
 91
        1
280
     0
281
     0
  0
CLASS
  1
ACGREFACADMASTER
  2
AcGrefacadMaster
  3
AcGrefServices
 90
     1024
 91
        1
280
     0
281
     0
  0
CLASS
  1
AMIMASTER
  2
AmiMaster
  3
AmiServices
 90
     1024
 91
        1
280
     0
281
     0
  0
CLASS
  1
ACMDATADICTIONARY
  2
AcmDataDictionary
  3
"AcmSymBB|Product Description: AutoCAD Mechanical|Company: Autodesk, Inc."
 90
     1024
 91
        1
280
     0
281
     0
  0
CLASS
  1
ACMDATAENTRYBLOCK
  2
AcmDataEntryBlock
  3
AcmSymBB|Product Description: AutoCAD Mechanical|Company: Autodesk, Inc.
 90
     1024
 91
        1
280
     0
281
     0
  0
CLASS
  1
ACIMSTRSYSVAR
  2
AcImStrSysVar
  3
AcMeServices
 90
     1024
 91
        5
280
     0
281
     0
  0
CLASS
  1
ACMSTANDARDANSI
  2
AcmStandardANSI
  3
"Amdt_StdImp|Product Description: AutoCAD Mechanical|Company: Autodesk, Inc."
 90
     1024
 91
        1
280
     0
281
     0
  0
CLASS
  1
AMGOBJPROPCFG
  2
AmgObjPropCfg
  3
"AmgLay|Product Description: AutoCAD Mechanical|Company: Autodesk, Inc."
 90
     1025
 91
        1
280
     0
281
     0
  0
CLASS
  1
ACMSURFSTANDARDANSI
  2
AcmSurfTextStdANSI
  3
"Amdt_StdImp|Product Description: AutoCAD Mechanical|Company: Autodesk, Inc."
 90
     1024
 91
        1
280
     0
281
     0
  0
CLASS
  1
ACMFCFSTANDARDANSI
  2
AcmFCFStdANSI
  3
"Amdt_StdImp|Product Description: AutoCAD Mechanical|Company: Autodesk, Inc."
 90
     1024
 91
        1
280
     0
281
     0
  0
CLASS
  1
ACMWELDSTANDARDANSI
  2
AcmWeldingStdANSI
  3
"Amdt_StdImp|Product Description: AutoCAD Mechanical|Company: Autodesk, Inc."
 90
     1024
 91
        1
280
     0
281
     0
  0
CLASS
  1
ACMIDSTANDARDANSI
  2
AcmIdStdANSI
  3
"Amdt_StdImp|Product Description: AutoCAD Mechanical|Company: Autodesk, Inc."
 90
     1024
 91
        1
280
     0
281
     0
  0
CLASS
  1
ACMDATUMSTANDARDANSI
  2
AcmDatumStdANSI
  3
"Amdt_StdImp|Product Description: AutoCAD Mechanical|Company: Autodesk, Inc."
 90
     1024
 91
        1
280
     0
281
     0
  0
CLASS
  1
ACMBOMSTANDARDANSI
  2
AcmBOMStdANSI
  3
"Amdt_StdImp|Product Description: AutoCAD Mechanical|Company: Autodesk, Inc."
 90
     1024
 91
        1
280
     0
281
     0
  0
CLASS
  1
ACMDETAILSTANDARDANSI
  2
AmdtDetailSymStdANSI
  3
"Amdt_StdImp|Product Description: AutoCAD Mechanical|Company: Autodesk, Inc."
 90
     1024
 91
        1
280
     0
281
     0
  0
CLASS
  1
ACMSECTIONSTANDARDANSI
  2
AmdtSectionSymStdANSI
  3
"Amdt_StdImp|Product Description: AutoCAD Mechanical|Company: Autodesk, Inc."
 90
     1024
 91
        1
280
     0
281
     0
  0
CLASS
  1
ACMCENTERLINESTANDARDANSI
  2
AmdtCenterLineStdANSI
  3
"Amdt_StdImp|Product Description: AutoCAD Mechanical|Company: Autodesk, Inc."
 90
     1024
 91
        1
280
     0
281
     0
  0
CLASS
  1
ACMNOTESTANDARDANSI
  2
AmdtNoteStdANSI
  3
"Amdt_StdImp|Product Description: AutoCAD Mechanical|Company: Autodesk, Inc."
 90
     1024
 91
        1
280
     0
281
     0
  0
CLASS
  1
ACAMGLAYSTD
  2
AcAmgLayStd
  3
"AmgLay|Product Description: AutoCAD Mechanical|Company: Autodesk, Inc."
 90
     1024
 91
        1
280
     0
281
     0
  0
CLASS
  1
ACAMGDIMSTD
  2
AcAmgDimStd
  3
"AmgDim|Product Description: AutoCAD Mechanical|Company: Autodesk, Inc."
 90
     1024
 91
        1
280
     0
281
     0
  0
CLASS
  1
ACAMGHOLECHARTSTDANSI
  2
AcAmgHoleChartStdANSI
  3
AmgDim|Product Description: AutoCAD Mechanical|Company: Autodesk, Inc.
 90
     1024
 91
        1
280
     0
281
     0
  0
CLASS
  1
ACAMGTITLESTD
  2
AcAmgTitleStd
  3
"AmgTitle|Product Description: AutoCAD Mechanical|Company: Autodesk, Inc."
 90
     4095
 91
        1
280
     0
281
     0
  0
CLASS
  1
LAYER_INDEX
  2
AcDbLayerIndex
  3
ObjectDBX Classes
 90
        0
 91
        0
280
     0
281
     0
  0
CLASS
  1
IDBUFFER
  2
AcDbIdBuffer
  3
ObjectDBX Classes
 90
        0
 91
        0
280
     0
281
     0
  0
CLASS
  1
DICTIONARYVAR
  2
AcDbDictionaryVar
  3
ObjectDBX Classes
 90
        0
 91
        9
280
     0
281
     0
  0
CLASS
  1
AM_DRAWING_MGR
  2
AcDmDwgMgr
  3
AcMechDwgViewMgmt
 90
     1024
 91
        1
280
     0
281
     0
  0
CLASS
  1
AM_DWG_DOCUMENT
  2
AcDmDwgDocument
  3
AcMechDwgViewMgmt
 90
     1024
 91
        1
280
     0
281
     0
  0
CLASS
  1
AM_DWG_SHEET
  2
AcDmSheet
  3
AcMechDwgViewMgmt
 90
     1024
 91
        2
280
     0
281
     0
  0
CLASS
  1
AM_VIEWDIMPARMAP
  2
AcDmViewDimParMap
  3
AcMechDwgViewMgmt
 90
     1024
 91
        2
280
     0
281
     0
  0
CLASS
  1
AM_DWGMGR_NAME
  2
AcDmDwgMgrName
  3
AcMechDwgViewMgmt
 90
     1024
 91
        1
280
     0
281
     0
  0
CLASS
  1
AMDTMENUSTATEMGR
  2
AmdtMenuStateMgr
  3
McadcomServices
 90
     1024
 91
        1
280
     0
281
     0
  0
CLASS
  1
AMDTMCOMMENUSTATE
  2
AmdtMcomMenuState
  3
McadcomServices
 90
     1024
 91
        1
280
     0
281
     0
  0
CLASS
  1
MAPIAMMOUDLE
  2
MApiAmModule
  3
MApiAmServices
 90
     1024
 91
        1
280
     0
281
     0
  0
CLASS
  1
AMDTADMENUSTATE
  2
AmdtAdMenuState
  3
DesignerServices
 90
     1024
 91
        1
280
     0
281
     0
  0
CLASS
  1
ADAPPL
  2
AcAdAppl
  3
DesignerServices
 90
     1024
 91
        1
280
     0
281
     0
  0
CLASS
  1
DEPMGR
  2
AcAdDepMgr
  3
DesignerServices
 90
     1024
 91
        1
280
     0
281
     0
  0
CLASS
  1
PARAMMGR
  2
AcAdParamMgr
  3
DesignerServices
 90
     1024
 91
        1
280
     0
281
     0
  0
CLASS
  1
PARAMSCOPE
  2
AcAdParamScope
  3
DesignerServices
 90
     1024
 91
        1
280
     0
281
     0
  0
CLASS
  1
NAMEDAPPL
  2
AcAdNamedAppl
  3
DesignerServices
 90
     1024
 91
        1
280
     0
281
     0
  0
CLASS
  1
AMDTDMMENUSTATE
  2
AmdtDmMenuState
  3
AcMechDwgViewMgmt
 90
     1024
 91
        1
280
     0
281
     0
  0
CLASS
  1
AMDTAMMENUSTATE
  2
AmdtAmMenuState
  3
DesignerAssemblies
 90
     1024
 91
        1
280
     0
281
     0
  0
CLASS
  1
ACAMPROJECT
  2
AcAmProject
  3
DesignerAssemblies
 90
     1024
 91
        1
280
     0
281
     0
  0
CLASS
  1
ACAMGRCOMPDEF
  2
AcAmGrCompDef
  3
DesignerAssemblies
 90
     1024
 91
        1
280
     0
281
     0
  0
CLASS
  1
ACCMCONTEXT
  2
AcCmContext
  3
DesignerAssemblies
 90
     1024
 91
        1
280
     0
281
     0
  0
CLASS
  1
ACAMCOMPDEF
  2
AcAmCompDef
  3
DesignerAssemblies
 90
     1024
 91
        1
280
     0
281
     0
  0
CLASS
  1
ACAMCOMPDEFMGR
  2
AcAmCompDefMgr
  3
DesignerAssemblies
 90
     1024
 91
        1
280
     0
281
     0
  0
CLASS
  1
AMCONTEXTMGR
  2
AcAmContextMgr
  3
DesignerAssemblies
 90
     1024
 91
        1
280
     0
281
     0
  0
CLASS
  1
ACAMCONTEXTMODELER
  2
AcAmContextModeler
  3
DesignerAssemblies
 90
     1024
 91
        1
280
     0
281
     0
  0
CLASS
  1
ACMTHREADLINESTANDARDANSI
  2
AmdtThreadLineStdANSI
  3
"Amdt_StdImp|Product Description: AutoCAD Mechanical|Company: Autodesk, Inc."
 90
     1024
 91
        1
280
     0
281
     0
  0
CLASS
  1
CATALOGSTATE
  2
AcAmCatalogState
  3
DesignerAssemblies
 90
     1024
 91
        1
280
     0
281
     0
  0
CLASS
  1
ACAMGRCOMPDEFSET
  2
AcAmGrCompDefSet
  3
DesignerAssemblies
 90
     1024
 91
        1
280
     0
281
     0
  0
CLASS
  1
AMDTBROWSERDBTAB
  2
AmdtBrowserDbTab
  3
McadcomServices
 90
     1024
 91
        1
280
     0
281
     0
  0
CLASS
  1
CBROWSERAPPOBJECT
  2
CBrowserAppObject
  3
McadcomServices
 90
     1024
 91
        3
280
     0
281
     0
  0
CLASS
  1
DM_PLACEHOLDER
  2
AcDmSelsetPlaceholder
  3
AcMechDwgViewMgmt
 90
     1024
 91
        1
280
     0
281
     0
  0
CLASS
  1
TABLESTYLE
  2
AcDbTableStyle
  3
ObjectDBX Classes
 90
     4095
 91
        1
280
     0
281
     0
  0
CLASS
  1
AMDTNOTETEMPLATEDB
  2
AmdtNoteTemplateDB
  3
AcmSymBB|Product Description: AutoCAD Mechanical|Company: Autodesk, Inc.
 90
     1024
 91
        6
280
     0
281
     0
  0
CLASS
  1
MATERIAL
  2
AcDbMaterial
  3
ObjectDBX Classes
 90
     1153
 91
        3
280
     0
281
     0
  0
CLASS
  1
VISUALSTYLE
  2
AcDbVisualStyle
  3
ObjectDBX Classes
 90
     4095
 91
       16
280
     0
281
     0
  0
CLASS
  1
ACRFATTGENMGR
  2
AcRfAttGeneralMgr
  3
AcAttribServices
 90
     1024
 91
        1
280
     0
281
     0
  0
CLASS
  1
ACRFOBJATTMGR
  2
AcRfObjAttGroupMgr
  3
AcAttribServices
 90
     1024
 91
        1
280
     0
281
     0
  0
CLASS
  1
ACRFMCADAPIATTHOLDER
  2
AcRfMCADAPIAttHolder
  3
AcAttribServices
 90
     1024
 91
        1
280
     0
281
     0
  0
CLASS
  1
AMDTSYSATTR
  2
AmdtSystemAttribute
  3
AcAttribServices
 90
     1024
 91
        1
280
     0
281
     0
  0
CLASS
  1
ACMTAPERSTANDARDANSI
  2
AcmTaperStdANSI
  3
"Amdt_StdImp|Product Description: AutoCAD Mechanical|Company: Autodesk, Inc."
 90
     1024
 91
        1
280
     0
281
     0
  0
CLASS
  1
CAMSSTRUCTBTNSTATE
  2
StructBtnState
  3
DesignerAssemblies
 90
     1024
 91
        1
280
     0
281
     0
  0
CLASS
  1
SCALE
  2
AcDbScale
  3
ObjectDBX Classes
 90
     1153
 91
       33
280
     0
281
     0
  0
CLASS
  1
MLEADERSTYLE
  2
AcDbMLeaderStyle
  3
ACDB_MLEADERSTYLE_CLASS
 90
     4095
 91
        1
280
     0
281
     0
  0
CLASS
  1
ACMANOOTATIONVIEWSTANDARDANSI
  2
AmdtAnViewStdANSI
  3
"Amdt_StdImp|Product Description: AutoCAD Mechanical|Company: Autodesk, Inc."
 90
     1024
 91
        1
280
     0
281
     0
  0
CLASS
  1
CELLSTYLEMAP
  2
AcDbCellStyleMap
  3
ObjectDBX Classes
 90
     1152
 91
        2
280
     0
281
     0
  0
CLASS
  1
EXACXREFPANELOBJECT
  2
ExAcXREFPanelObject
  3
EXAC_ESW
 90
     1025
 91
        1
280
     0
281
     0
  0
CLASS
  1
NPOCOLLECTION
  2
AcDbImpNonPersistentObjectsCollection
  3
ObjectDBX Classes
 90
     1153
 91
        1
280
     0
281
     0
  0
CLASS
  1
ACAMGFILTERDAT
  2
AcAmgFilterDat
  3
"AcadM|Product Description: AutoCAD Mechanical|Company: Autodesk, Inc."
 90
     1024
 91
        6
280
     0
281
     0
  0
ENDSEC
  0
SECTION
  2
TABLES
  0
TABLE
  2
VPORT
  5
8
330
0
100
AcDbSymbolTable
 70
     1
  0
VPORT
  5
291
330
8
100
AcDbSymbolTableRecord
100
AcDbViewportTableRecord
  2
*Active
 70
     0
 10
0.0
 20
0.0
 11
1.0
 21
1.0
 12
37.64522192733505
 22
29.62617997751573
 13
0.0
 23
0.0
 14
0.125
 24
0.125
 15
1.0
 25
1.0
 16
0.0
 26
0.0
 36
1.0
 17
0.0
 27
0.0
 37
0.0
 40
49.56251654985952
 41
1.439655172413793
 42
50.0
 43
0.0
 44
0.0
 50
0.0
 51
0.0
 71
     0
 72
   100
 73
     1
 74
     3
 75
     0
 76
     0
 77
     0
 78
     0
281
     0
 65
     1
110
0.0
120
0.0
130
0.0
111
1.0
121
0.0
131
0.0
112
0.0
122
1.0
132
0.0
 79
     0
146
0.0
348
29C
 60
     3
 61
     5
292
     1
282
     0
141
0.0
142
0.0
 63
   250
421
  3355443
  0
ENDTAB
  0
TABLE
  2
LTYPE
  5
5
330
0
100
AcDbSymbolTable
 70
    18
  0
LTYPE
  5
14
330
5
100
AcDbSymbolTableRecord
100
AcDbLinetypeTableRecord
  2
ByBlock
 70
     0
  3

 72
    65
 73
     0
 40
0.0
  0
LTYPE
  5
15
330
5
100
AcDbSymbolTableRecord
100
AcDbLinetypeTableRecord
  2
ByLayer
 70
     0
  3

 72
    65
 73
     0
 40
0.0
  0
LTYPE
  5
16
330
5
100
AcDbSymbolTableRecord
100
AcDbLinetypeTableRecord
  2
Continuous
 70
     0
  3
Solid line
 72
    65
 73
     0
 40
0.0
  0
LTYPE
  5
6C
330
5
100
AcDbSymbolTableRecord
100
AcDbLinetypeTableRecord
  2
AM_ISO02W050
 70
     0
  3
__ __ __ __ __ __ __ __ __ __ __ __ __ __ __
 72
    65
 73
     2
 40
7.5
 49
6.0
 74
     0
 49
-1.5
 74
     0
  0
LTYPE
  5
6D
330
5
100
AcDbSymbolTableRecord
100
AcDbLinetypeTableRecord
  2
AM_ISO08W050
 70
     0
  3
____ . ____ . ____ . ____ . ____ . ____ . ____
 72
    65
 73
     4
 40
18.0
 49
12.0
 74
     0
 49
-1.5
 74
     0
 49
3.0
 74
     0
 49
-1.5
 74
     0
  0
LTYPE
  5
6E
330
5
100
AcDbSymbolTableRecord
100
AcDbLinetypeTableRecord
  2
AM_ISO09W050
 70
     0
  3
_____ . . _____ . . _____ . . ____ .. ____
 72
    65
 73
     6
 40
22.5
 49
12.0
 74
     0
 49
-1.5
 74
     0
 49
3.0
 74
     0
 49
-1.5
 74
     0
 49
3.0
 74
     0
 49
-1.5
 74
     0
  0
LTYPE
  5
6F
330
5
100
AcDbSymbolTableRecord
100
AcDbLinetypeTableRecord
  2
Amconstr
 70
     0
  3
_______________________
 72
    65
 73
     2
 40
9999.0
 49
9999.0
 74
     0
 49
0.0
 74
     0
  0
LTYPE
  5
70
330
5
100
AcDbSymbolTableRecord
100
AcDbLinetypeTableRecord
  2
AM_ISO08W050x2
 70
     0
  3
__ . __ . __ . __ . __ . __
 72
    65
 73
     4
 40
9.0
 49
6.0
 74
     0
 49
-0.75
 74
     0
 49
1.5
 74
     0
 49
-0.75
 74
     0
  0
LTYPE
  5
71
330
5
100
AcDbSymbolTableRecord
100
AcDbLinetypeTableRecord
  2
AM_ISO02W050x2
 70
     0
  3
 _ _ _ _ _ _ _ _ _ _ _ _
 72
    65
 73
     2
 40
3.75
 49
3.0
 74
     0
 49
-0.75
 74
     0
  0
LTYPE
  5
74
330
5
100
AcDbSymbolTableRecord
100
AcDbLinetypeTableRecord
  2
Amzigzag
 70
     0
  3
/\/-/\/-/\/-/\/-/\/-/\/
 72
    65
 73
     2
 40
11.0001
 49
0.0001
 74
     4
 75
   136
340
254
 46
0.04
 50
0.0
 44
0.0
 45
0.0
 49
-11.0
 74
     0
  0
LTYPE
  5
75
330
5
100
AcDbSymbolTableRecord
100
AcDbLinetypeTableRecord
  2
HIDDEN
 70
     0
  3
Hidden __ __ __ __ __ __ __ __ __ __ __ __ __ _
 72
    65
 73
     2
 40
0.375
 49
0.25
 74
     0
 49
-0.125
 74
     0
  0
LTYPE
  5
76
330
5
100
AcDbSymbolTableRecord
100
AcDbLinetypeTableRecord
  2
CENTER
 70
     0
  3
Center ____ _ ____ _ ____ _ ____ _ ____ _ ____
 72
    65
 73
     4
 40
2.0
 49
1.25
 74
     0
 49
-0.25
 74
     0
 49
0.25
 74
     0
 49
-0.25
 74
     0
  0
LTYPE
  5
77
330
5
100
AcDbSymbolTableRecord
100
AcDbLinetypeTableRecord
  2
PHANTOM2
 70
     0
  3
Phantom (.5x) ___ _ _ ___ _ _ ___ _ _ ___ _ _
 72
    65
 73
     6
 40
1.25
 49
0.625
 74
     0
 49
-0.125
 74
     0
 49
0.125
 74
     0
 49
-0.125
 74
     0
 49
0.125
 74
     0
 49
-0.125
 74
     0
  0
LTYPE
  5
78
330
5
100
AcDbSymbolTableRecord
100
AcDbLinetypeTableRecord
  2
CENTER2
 70
     0
  3
Center (.5x) ___ _ ___ _ ___ _ ___ _ ___ _ ___
 72
    65
 73
     4
 40
1.125
 49
0.75
 74
     0
 49
-0.125
 74
     0
 49
0.125
 74
     0
 49
-0.125
 74
     0
  0
LTYPE
  5
79
330
5
100
AcDbSymbolTableRecord
100
AcDbLinetypeTableRecord
  2
HIDDEN2
 70
     0
  3
Hidden (.5x) _ _ _ _ _ _ _ _ _ _ _ _ _ _ _ _ _
 72
    65
 73
     2
 40
0.1875
 49
0.125
 74
     0
 49
-0.0625
 74
     0
  0
LTYPE
  5
7A
330
5
100
AcDbSymbolTableRecord
100
AcDbLinetypeTableRecord
  2
Amzigzag2
 70
     0
  3
/\/-/\/-/\/-/\/-/\/-/\/
 72
    65
 73
     2
 40
0.4401
 49
0.0001
 74
     4
 75
   136
340
254
 46
0.0016
 50
0.0
 44
0.0
 45
0.0
 49
-0.4400000000000001
 74
     0
  0
LTYPE
  5
87
330
5
100
AcDbSymbolTableRecord
100
AcDbLinetypeTableRecord
  2
ACANSTGB
 70
     0
  3
__ . . __ . .
 72
    65
 73
     6
 40
0.35433070866
 49
0.15748031496
 74
     0
 49
-0.03937007874
 74
     0
 49
0.03937007874
 74
     0
 49
-0.03937007874
 74
     0
 49
0.03937007874
 74
     0
 49
-0.03937007874
 74
     0
  0
LTYPE
  5
88
330
5
100
AcDbSymbolTableRecord
100
AcDbLinetypeTableRecord
  2
ACANSTGL
 70
     0
  3
_ _ _ _ _
 72
    65
 73
     2
 40
0.11811023622
 49
0.07874015748
 74
     0
 49
-0.03937007874
 74
     0
  0
LTYPE
  5
38C
330
5
100
AcDbSymbolTableRecord
100
AcDbLinetypeTableRecord
  2
AI9-LType9
 70
     0
  3
Illustrator Dash Style No.9
 72
    65
 73
     4
 40
6.688666999999999
 49
4.233333
 74
     0
 49
-1.016
 74
     0
 49
0.4233330000000001
 74
     0
 49
-1.016
 74
     0
  0
ENDTAB
  0
TABLE
  2
LAYER
  5
2
330
0
100
AcDbSymbolTable
 70
     2
  0
LAYER
  5
10
102
{ACAD_XDICTIONARY
360
6AA
102
}
330
2
100
AcDbSymbolTableRecord
100
AcDbLayerTableRecord
  2
0
 70
     0
 62
     7
  6
Continuous
370
    -3
390
F
347
295
  0
LAYER
  5
38D
102
{ACAD_XDICTIONARY
360
6AC
102
}
330
2
100
AcDbSymbolTableRecord
100
AcDbLayerTableRecord
  2
LAYER_1
 70
     0
 62
   160
  6
Continuous
370
    -3
390
F
347
295
  0
ENDTAB
  0
TABLE
  2
STYLE
  5
3
330
0
100
AcDbSymbolTable
 70
     8
  0
STYLE
  5
11
330
3
100
AcDbSymbolTableRecord
100
AcDbTextStyleTableRecord
  2
STANDARD
 70
     0
 40
0.0
 41
1.0
 50
0.0
 71
     0
 42
0.2
  3
ROMANS.SHX
  4

  0
STYLE
  5
73
330
3
100
AcDbSymbolTableRecord
100
AcDbTextStyleTableRecord
  2

 70
     1
 40
0.0
 41
1.0
 50
0.0
 71
     0
 42
0.2
  3
ltypeshp.shx
  4

  0
STYLE
  5
7B
330
3
100
AcDbSymbolTableRecord
100
AcDbTextStyleTableRecord
  2
ACANSTS
 70
     0
 40
1.0
 41
1.0
 50
0.0
 71
     0
 42
0.2
  3
romans.shx
  4

  0
STYLE
  5
86
330
3
100
AcDbSymbolTableRecord
100
AcDbTextStyleTableRecord
  2
ACANSGDT
 70
     0
 40
0.0
 41
1.0
 50
0.0
 71
     0
 42
0.2
  3
amgdt.shx
  4

  0
STYLE
  5
13F
330
3
100
AcDbSymbolTableRecord
100
AcDbTextStyleTableRecord
  2
USER1
 70
     0
 40
0.0
 41
1.0
 50
0.0
 71
     0
 42
0.2
  3
TXT.SHX
  4

  0
STYLE
  5
140
330
3
100
AcDbSymbolTableRecord
100
AcDbTextStyleTableRecord
  2
USER2
 70
     0
 40
0.0
 41
1.0
 50
0.0
 71
     0
 42
0.2
  3
SIMPLEX.SHX
  4

  0
STYLE
  5
141
330
3
100
AcDbSymbolTableRecord
100
AcDbTextStyleTableRecord
  2
USER3
 70
     0
 40
0.0
 41
1.0
 50
0.0
 71
     0
 42
0.2
  3
ITALIC.SHX
  4

  0
STYLE
  5
254
330
3
100
AcDbSymbolTableRecord
100
AcDbTextStyleTableRecord
  2

 70
     1
 40
0.0
 41
1.0
 50
0.0
 71
     0
 42
0.2
  3
genltshp.shx
  4

  0
ENDTAB
  0
TABLE
  2
VIEW
  5
6
330
0
100
AcDbSymbolTable
 70
     0
  0
ENDTAB
  0
TABLE
  2
UCS
  5
7
330
0
100
AcDbSymbolTable
 70
     0
  0
ENDTAB
  0
TABLE
  2
APPID
  5
9
330
0
100
AcDbSymbolTable
 70
    13
  0
APPID
  5
12
330
9
100
AcDbSymbolTableRecord
100
AcDbRegAppTableRecord
  2
ACAD
 70
     0
  0
APPID
  5
4E
330
9
100
AcDbSymbolTableRecord
100
AcDbRegAppTableRecord
  2
MCAD_NO_VIS
 70
     0
  0
APPID
  5
4F
330
9
100
AcDbSymbolTableRecord
100
AcDbRegAppTableRecord
  2
ACAD_TEMP_GRAPHIC
 70
     0
  0
APPID
  5
60
330
9
100
AcDbSymbolTableRecord
100
AcDbRegAppTableRecord
  2
ACATTRIBSERVICES
 70
     0
  0
APPID
  5
F7
330
9
100
AcDbSymbolTableRecord
100
AcDbRegAppTableRecord
  2
AD_DRAW
 70
     0
  0
APPID
  5
115
330
9
100
AcDbSymbolTableRecord
100
AcDbRegAppTableRecord
  2
DESIGNERASSEMBLIES
 70
     0
  0
APPID
  5
11A
330
9
100
AcDbSymbolTableRecord
100
AcDbRegAppTableRecord
  2
ACADM_DIM_EDIT
 70
     0
  0
APPID
  5
11B
330
9
100
AcDbSymbolTableRecord
100
AcDbRegAppTableRecord
  2
AMDT_DM_ADJ
 70
     0
  0
APPID
  5
1D3
330
9
100
AcDbSymbolTableRecord
100
AcDbRegAppTableRecord
  2
ACAD_DSTYLE_DIMARC_LENGTH_SYMBOL
 70
     0
  0
APPID
  5
1D4
330
9
100
AcDbSymbolTableRecord
100
AcDbRegAppTableRecord
  2
ACAD_DSTYLE_DIMJOGGED_JOGANGLE_SYMBOL
 70
     0
  0
APPID
  5
2EE
330
9
100
AcDbSymbolTableRecord
100
AcDbRegAppTableRecord
  2
ACAD_MLEADERVER
 70
     0
  0
APPID
  5
38E
330
9
100
AcDbSymbolTableRecord
100
AcDbRegAppTableRecord
  2
DCO15
 70
     0
  0
APPID
  5
6A3
330
9
100
AcDbSymbolTableRecord
100
AcDbRegAppTableRecord
  2
ACAD_EXEMPT_FROM_CAD_STANDARDS
 70
     0
  0
ENDTAB
  0
TABLE
  2
DIMSTYLE
  5
A
330
0
100
AcDbSymbolTable
 70
     8
100
AcDbDimStyleTable
 71
     1
340
8C
  0
DIMSTYLE
105
27
330
A
100
AcDbSymbolTableRecord
100
AcDbDimStyleTableRecord
  2
Standard
 70
     0
340
11
  0
DIMSTYLE
105
8C
102
{ACAD_REACTORS
330
6A
102
}
330
A
100
AcDbSymbolTableRecord
100
AcDbDimStyleTableRecord
  2
AM_ANSI
 70
     0
  4
mm
 41
0.12
 42
0.05
 43
0.5
 44
0.1
 47
0.1
 48
0.1
 78
     7
 79
     2
 90
     1
140
0.12
141
0.0
146
0.71
147
0.06
176
   256
177
   256
178
   140
274
     4
284
     7
340
11
345
14
346
14
347
14
371
    -1
372
    -1
1001
ACAD_DSTYLE_DIMJOGGED_JOGANGLE_SYMBOL
1070
   384
1040
0.7853981633974483
  0
DIMSTYLE
105
8D
330
A
100
AcDbSymbolTableRecord
100
AcDbDimStyleTableRecord
  2
AM_ANSI$3
 70
     0
  4
mm
 41
0.12
 42
0.05
 43
0.5
 44
0.1
 47
0.1
 48
0.1
 78
     7
 79
     2
 90
     1
140
0.12
141
0.0
146
0.71
147
0.06
176
   256
177
   256
178
   140
274
     4
284
     7
288
     1
289
     0
340
11
345
14
346
14
347
14
371
    -1
372
    -1
1001
ACAD_DSTYLE_DIMJOGGED_JOGANGLE_SYMBOL
1070
   384
1040
0.7853981633974483
  0
DIMSTYLE
105
8E
330
A
100
AcDbSymbolTableRecord
100
AcDbDimStyleTableRecord
  2
AM_ANSI$4
 70
     0
  4
mm
 41
0.12
 42
0.05
 43
0.5
 44
0.1
 47
0.1
 48
0.1
 78
     7
 79
     2
 90
     1
140
0.12
141
0.0
146
0.71
147
0.06
176
   256
177
   256
178
   140
274
     4
284
     7
340
11
345
14
346
14
347
14
371
    -1
372
    -1
1001
ACAD_DSTYLE_DIMJOGGED_JOGANGLE_SYMBOL
1070
   384
1040
0.7853981633974483
  0
DIMSTYLE
105
8F
330
A
100
AcDbSymbolTableRecord
100
AcDbDimStyleTableRecord
  2
AM_ANSI$7
 70
     0
  4
mm
 41
0.12
 42
0.05
 43
0.5
 44
0.1
 47
0.1
 48
0.1
 78
     7
 79
     2
 90
     1
140
0.12
141
0.0
146
0.71
147
0.06
176
   256
177
   256
178
   140
274
     4
284
     7
340
11
345
14
346
14
347
14
371
    -1
372
    -1
1001
ACAD_DSTYLE_DIMJOGGED_JOGANGLE_SYMBOL
1070
   384
1040
0.7853981633974483
  0
DIMSTYLE
105
90
330
A
100
AcDbSymbolTableRecord
100
AcDbDimStyleTableRecord
  2
AM_ANSI$SF
 70
     0
  4
mm
 41
0.12
 42
0.05
 43
0.5
 44
0.1
 47
0.1
 48
0.1
 75
     1
 76
     1
 78
     7
 79
     2
 90
     1
140
0.12
141
0.0
146
0.71
147
0.06
176
   256
177
   256
178
   140
274
     4
284
     7
340
11
345
14
346
14
347
14
371
    -1
372
    -1
1001
ACAD_DSTYLE_DIMJOGGED_JOGANGLE_SYMBOL
1070
   384
1040
0.7853981633974483
  0
DIMSTYLE
105
95
330
A
100
AcDbSymbolTableRecord
100
AcDbDimStyleTableRecord
  2
AM_ANSI$SH
 70
     0
  4
mm
 41
0.12
 42
0.05
 43
0.5
 44
0.1
 47
0.1
 48
0.1
 75
     1
 76
     1
 78
     7
 79
     2
 90
     1
140
0.12
141
0.0
146
0.71
147
0.06
173
     1
176
   256
177
   256
178
   140
274
     4
284
     7
340
11
343
91
345
14
346
14
347
14
371
    -1
372
    -1
1001
ACAD_DSTYLE_DIMJOGGED_JOGANGLE_SYMBOL
1070
   384
1040
0.7853981633974483
  0
ENDTAB
  0
TABLE
  2
BLOCK_RECORD
  5
1
330
0
100
AcDbSymbolTable
 70
     5
  0
BLOCK_RECORD
  5
1F
102
{ACAD_XDICTIONARY
360
99
102
}
330
1
100
AcDbSymbolTableRecord
100
AcDbBlockTableRecord
  2
*Model_Space
340
22
 70
     0
280
     1
281
     0
  0
BLOCK_RECORD
  5
1B
330
1
100
AcDbSymbolTableRecord
100
AcDbBlockTableRecord
  2
*Paper_Space
340
1E
 70
     0
280
     1
281
     0
  0
BLOCK_RECORD
  5
23
330
1
100
AcDbSymbolTableRecord
100
AcDbBlockTableRecord
  2
*Paper_Space0
340
26
 70
     0
280
     1
281
     0
  0
BLOCK_RECORD
  5
91
330
1
100
AcDbSymbolTableRecord
100
AcDbBlockTableRecord
  2
GENAXEH
340
0
 70
     0
280
     1
281
     0
  0
ENDTAB
  0
ENDSEC
  0
SECTION
  2
BLOCKS
  0
BLOCK
  5
20
330
1F
100
AcDbEntity
  8
0
100
AcDbBlockBegin
  2
*Model_Space
 70
     0
 10
0.0
 20
0.0
 30
0.0
  3
*Model_Space
  1

  0
ENDBLK
  5
21
330
1F
100
AcDbEntity
  8
0
100
AcDbBlockEnd
  0
BLOCK
  5
1C
330
1B
100
AcDbEntity
 67
     1
  8
0
100
AcDbBlockBegin
  2
*Paper_Space
 70
     0
 10
0.0
 20
0.0
 30
0.0
  3
*Paper_Space
  1

  0
ENDBLK
  5
1D
330
1B
100
AcDbEntity
 67
     1
  8
0
100
AcDbBlockEnd
  0
BLOCK
  5
24
330
23
100
AcDbEntity
 67
     1
  8
0
100
AcDbBlockBegin
  2
*Paper_Space0
 70
     0
 10
0.0
 20
0.0
 30
0.0
  3
*Paper_Space0
  1

  0
ENDBLK
  5
25
330
23
100
AcDbEntity
 67
     1
  8
0
100
AcDbBlockEnd
  0
BLOCK
  5
93
330
91
100
AcDbEntity
  8
0
100
AcDbBlockBegin
  2
GENAXEH
 70
     0
 10
0.0
 20
0.0
 30
0.0
  3
GENAXEH
  1

  0
LINE
  5
92
330
91
100
AcDbEntity
  8
0
100
AcDbLine
 10
-1.0
 20
0.0
 30
0.0
 11
1.0
 21
0.0
 31
0.0
  0
ENDBLK
  5
94
330
91
100
AcDbEntity
  8
0
100
AcDbBlockEnd
  0
ENDSEC
  0
SECTION
  2
ENTITIES
  0
LINE
  5
51E
330
1F
100
AcDbEntity
  8
0
100
AcDbLine
 10
30.50375622350426
 20
29.14381487171578
 30
0.0
 11
29.48452422350425
 21
29.14381487171578
 31
0.0
  0
SPLINE
  5
51F
330
1F
100
AcDbEntity
  8
0
100
AcDbSpline
210
0.0
220
0.0
230
1.0
 70
     8
 71
     3
 72
    20
 73
    16
 74
     0
 42
0.0000000001
 43
0.0000000001
 40
0.0
 40
0.0
 40
0.0
 40
0.0
 40
1.0
 40
1.0
 40
1.0
 40
2.0
 40
2.0
 40
2.0
 40
3.0
 40
3.0
 40
3.0
 40
4.0
 40
4.0
 40
4.0
 40
5.0
 40
5.0
 40
5.0
 40
5.0
 10
28.84787086326118
 20
29.14381535869496
 30
0.0
 10
28.14610491274037
 20
29.14381535869496
 30
0.0
 10
28.14610491274037
 20
29.14381535869496
 30
0.0
 10
28.14610491274037
 20
29.14381535869496
 30
0.0
 10
28.01880863452853
 20
29.14381535869496
 30
0.0
 10
27.89151235631673
 20
29.40013046286162
 30
0.0
 10
27.89151235631673
 20
29.7811580236255
 30
0.0
 10
27.89151235631673
 20
30.1001738656394
 30
0.0
 10
28.01880863452853
 20
30.41953421720189
 30
0.0
 10
28.14610491274037
 20
30.41953421720189
 30
0.0
 10
30.50375600866047
 20
30.41953421720189
 30
0.0
 10
30.50375600866047
 20
30.41953421720189
 30
0.0
 10
30.50375600866047
 20
30.41953421720189
 30
0.0
 10
30.63105228687231
 20
30.41953421720189
 30
0.0
 10
30.63105228687231
 20
30.29172117466717
 30
0.0
 10
30.63105228687231
 20
30.22729788907689
 30
0.0
  0
SPLINE
  5
520
330
1F
100
AcDbEntity
  8
0
100
AcDbSpline
210
0.0
220
0.0
230
1.0
 70
     8
 71
     3
 72
    11
 73
     7
 74
     0
 42
0.0000000001
 43
0.0000000001
 40
0.0
 40
0.0
 40
0.0
 40
0.0
 40
1.0
 40
1.0
 40
1.0
 40
2.0
 40
2.0
 40
2.0
 40
2.0
 10
43.05475562888619
 20
28.2522246468894
 30
0.0
 10
42.79947405336533
 20
27.99763209046579
 30
0.0
 10
42.48080272090009
 20
27.80711831008384
 30
0.0
 10
42.09874163149031
 20
27.80711831008384
 30
0.0
 10
41.58955651864312
 20
27.80711831008384
 30
0.0
 10
41.14307214364312
 20
28.12475611390328
 30
0.0
 10
41.0159481202056
 20
28.63428573629911
 30
0.0
  0
SPLINE
  5
521
330
1F
100
AcDbEntity
  8
0
100
AcDbSpline
210
0.0
220
0.0
230
1.0
 70
     8
 71
     3
 72
    32
 73
    28
 74
     0
 42
0.0000000001
 43
0.0000000001
 40
0.0
 40
0.0
 40
0.0
 40
0.0
 40
1.0
 40
1.0
 40
1.0
 40
2.0
 40
2.0
 40
2.0
 40
3.0
 40
3.0
 40
3.0
 40
4.0
 40
4.0
 40
4.0
 40
5.0
 40
5.0
 40
5.0
 40
6.0
 40
6.0
 40
6.0
 40
7.0
 40
7.0
 40
7.0
 40
8.0
 40
8.0
 40
8.0
 40
9.0
 40
9.0
 40
9.0
 40
9.0
 10
43.05475562888619
 20
31.18365639602134
 30
0.0
 10
43.81956682680284
 20
31.18365639602134
 30
0.0
 10
43.81956682680284
 20
31.18365639602134
 30
0.0
 10
43.81956682680284
 20
31.18365639602134
 30
0.0
 10
43.94634634069173
 20
31.18365639602134
 30
0.0
 10
44.07347036412924
 20
30.86498506355607
 30
0.0
 10
44.07347036412924
 20
30.54631373109078
 30
0.0
 10
44.07347036412924
 20
30.16356362258384
 30
0.0
 10
43.94634634069173
 20
29.90862655661162
 30
0.0
 10
43.81956682680284
 20
29.90862655661162
 30
0.0
 10
43.43681671829588
 20
29.90862655661162
 30
0.0
 10
43.43681671829588
 20
29.90862655661162
 30
0.0
 10
43.43681671829588
 20
29.90862655661162
 30
0.0
 10
43.43681671829588
 20
29.7811580236255
 30
0.0
 10
43.43681671829588
 20
29.7811580236255
 30
0.0
 10
43.43681671829588
 20
29.7811580236255
 30
0.0
 10
43.94634634069173
 20
29.7811580236255
 30
0.0
 10
43.94634634069173
 20
29.7811580236255
 30
0.0
 10
43.94634634069173
 20
29.7811580236255
 30
0.0
 10
44.07347036412924
 20
29.7811580236255
 30
0.0
 10
44.20128340666396
 20
29.46317571025744
 30
0.0
 10
44.20128340666396
 20
29.14381535869496
 30
0.0
 10
44.20128340666396
 20
28.76244328838244
 30
0.0
 10
44.07347036412924
 20
28.50750622241022
 30
0.0
 10
43.94634634069173
 20
28.50750622241022
 30
0.0
 10
43.24595842836531
 20
28.50750622241022
 30
0.0
 10
43.24595842836531
 20
28.50750622241022
 30
0.0
 10
43.24595842836531
 20
28.50750622241022
 30
0.0
  0
LINE
  5
522
330
1F
100
AcDbEntity
  8
0
100
AcDbLine
 10
42.60861622350424
 20
28.50750587171578
 30
0.0
 11
41.58955622350425
 21
28.50750587171578
 31
0.0
  0
SPLINE
  5
523
330
1F
100
AcDbEntity
  8
0
100
AcDbSpline
210
0.0
220
0.0
230
1.0
 70
     8
 71
     3
 72
    26
 73
    22
 74
     0
 42
0.0000000001
 43
0.0000000001
 40
0.0
 40
0.0
 40
0.0
 40
0.0
 40
1.0
 40
1.0
 40
1.0
 40
2.0
 40
2.0
 40
2.0
 40
3.0
 40
3.0
 40
3.0
 40
4.0
 40
4.0
 40
4.0
 40
5.0
 40
5.0
 40
5.0
 40
6.0
 40
6.0
 40
6.0
 40
7.0
 40
7.0
 40
7.0
 40
7.0
 10
42.60861576343479
 20
28.50750622241022
 30
0.0
 10
42.60861576343479
 20
28.57124048890329
 30
0.0
 10
42.60861576343479
 20
28.57124048890329
 30
0.0
 10
42.60861576343479
 20
28.57124048890329
 30
0.0
 10
42.60861576343479
 20
28.76244328838244
 30
0.0
 10
42.60861576343479
 20
28.76244328838244
 30
0.0
 10
42.60861576343479
 20
28.76244328838244
 30
0.0
 10
43.24595842836531
 20
28.76244328838244
 30
0.0
 10
43.24595842836531
 20
28.76244328838244
 30
0.0
 10
43.24595842836531
 20
28.76244328838244
 30
0.0
 10
43.24595842836531
 20
28.57124048890329
 30
0.0
 10
43.24595842836531
 20
28.57124048890329
 30
0.0
 10
43.24595842836531
 20
28.57124048890329
 30
0.0
 10
43.24595842836531
 20
28.57124048890329
 30
0.0
 10
43.24595842836531
 20
28.57124048890329
 30
0.0
 10
43.24595842836531
 20
28.50750622241022
 30
0.0
 10
43.11814538583061
 20
28.2522246468894
 30
0.0
 10
42.8628638103098
 20
28.06102184741023
 30
0.0
 10
42.54522600649036
 20
28.06102184741023
 30
0.0
 10
42.29028894051812
 20
28.06102184741023
 30
0.0
 10
42.03500736499729
 20
28.2522246468894
 30
0.0
 10
41.90822785110841
 20
28.50750622241022
 30
0.0
  0
SPLINE
  5
524
330
1F
100
AcDbEntity
  8
0
100
AcDbSpline
210
0.0
220
0.0
230
1.0
 70
     8
 71
     3
 72
    20
 73
    16
 74
     0
 42
0.0000000001
 43
0.0000000001
 40
0.0
 40
0.0
 40
0.0
 40
0.0
 40
1.0
 40
1.0
 40
1.0
 40
2.0
 40
2.0
 40
2.0
 40
3.0
 40
3.0
 40
3.0
 40
4.0
 40
4.0
 40
4.0
 40
5.0
 40
5.0
 40
5.0
 40
5.0
 10
42.60861576343479
 20
28.50750622241022
 30
0.0
 10
42.60861576343479
 20
28.38072670852134
 30
0.0
 10
42.73642880596951
 20
28.2522246468894
 30
0.0
 10
42.92728709590007
 20
28.2522246468894
 30
0.0
 10
42.99102136239312
 20
28.2522246468894
 30
0.0
 10
43.05475562888619
 20
28.2522246468894
 30
0.0
 10
43.11814538583061
 20
28.31699244202827
 30
0.0
 10
42.99102136239312
 20
28.18883488994496
 30
0.0
 10
42.79947405336533
 20
28.06102184741023
 30
0.0
 10
42.54522600649036
 20
28.06102184741023
 30
0.0
 10
42.48080272090009
 20
28.06102184741023
 30
0.0
 10
42.22621016447644
 20
28.06102184741023
 30
0.0
 10
42.16282040753201
 20
28.06102184741023
 30
0.0
 10
41.7807593181223
 20
28.06102184741023
 30
0.0
 10
41.52547774260144
 20
28.31699244202827
 30
0.0
 10
41.39835371916396
 20
28.63428573629911
 30
0.0
  0
SPLINE
  5
525
330
1F
100
AcDbEntity
  8
0
100
AcDbSpline
210
0.0
220
0.0
230
1.0
 70
     8
 71
     3
 72
    11
 73
     7
 74
     0
 42
0.0000000001
 43
0.0000000001
 40
0.0
 40
0.0
 40
0.0
 40
0.0
 40
1.0
 40
1.0
 40
1.0
 40
2.0
 40
2.0
 40
2.0
 40
2.0
 10
43.5639407417334
 20
28.50750622241022
 30
0.0
 10
43.37377147090006
 20
27.93424233352133
 30
0.0
 10
42.79947405336533
 20
27.42436820157689
 30
0.0
 10
42.09874163149031
 20
27.42436820157689
 30
0.0
 10
41.39835371916396
 20
27.42436820157689
 30
0.0
 10
40.82474532072646
 20
27.93424233352133
 30
0.0
 10
40.6338870307959
 20
28.63428573629911
 30
0.0
  0
SPLINE
  5
526
330
1F
100
AcDbEntity
  8
0
100
AcDbSpline
210
0.0
220
0.0
230
1.0
 70
    11
 71
     3
 72
    20
 73
    16
 74
     0
 42
0.0000000001
 43
0.0000000001
 40
0.0
 40
0.0
 40
0.0
 40
0.0
 40
1.0
 40
1.0
 40
1.0
 40
2.0
 40
2.0
 40
2.0
 40
3.0
 40
3.0
 40
3.0
 40
4.0
 40
4.0
 40
4.0
 40
5.0
 40
5.0
 40
5.0
 40
5.0
 10
43.11814538583061
 20
28.76244328838244
 30
0.0
 10
43.11814538583061
 20
28.63428573629911
 30
0.0
 10
43.11814538583061
 20
28.63428573629911
 30
0.0
 10
43.11814538583061
 20
28.63428573629911
 30
0.0
 10
43.11814538583061
 20
28.57124048890329
 30
0.0
 10
43.05475562888619
 20
28.44377195591717
 30
0.0
 10
42.92728709590007
 20
28.44377195591717
 30
0.0
 10
42.79947405336533
 20
28.44377195591717
 30
0.0
 10
42.73642880596951
 20
28.57124048890329
 30
0.0
 10
42.73642880596951
 20
28.63428573629911
 30
0.0
 10
42.73642880596951
 20
28.76244328838244
 30
0.0
 10
42.73642880596951
 20
28.76244328838244
 30
0.0
 10
42.73642880596951
 20
28.76244328838244
 30
0.0
 10
43.11814538583061
 20
28.76244328838244
 30
0.0
 10
43.11814538583061
 20
28.76244328838244
 30
0.0
 10
43.11814538583061
 20
28.76244328838244
 30
0.0
  0
SPLINE
  5
527
330
1F
100
AcDbEntity
  8
0
100
AcDbSpline
210
0.0
220
0.0
230
1.0
 70
    11
 71
     3
 72
    20
 73
    16
 74
     0
 42
0.0000000001
 43
0.0000000001
 40
0.0
 40
0.0
 40
0.0
 40
0.0
 40
1.0
 40
1.0
 40
1.0
 40
2.0
 40
2.0
 40
2.0
 40
3.0
 40
3.0
 40
3.0
 40
4.0
 40
4.0
 40
4.0
 40
5.0
 40
5.0
 40
5.0
 40
5.0
 10
43.24595842836531
 20
28.76244328838244
 30
0.0
 10
43.24595842836531
 20
28.57124048890329
 30
0.0
 10
43.24595842836531
 20
28.57124048890329
 30
0.0
 10
43.24595842836531
 20
28.57124048890329
 30
0.0
 10
43.24595842836531
 20
28.38072670852134
 30
0.0
 10
43.11814538583061
 20
28.2522246468894
 30
0.0
 10
42.92728709590007
 20
28.2522246468894
 30
0.0
 10
42.73642880596951
 20
28.2522246468894
 30
0.0
 10
42.60861576343479
 20
28.38072670852134
 30
0.0
 10
42.60861576343479
 20
28.57124048890329
 30
0.0
 10
42.60861576343479
 20
28.76244328838244
 30
0.0
 10
42.60861576343479
 20
28.76244328838244
 30
0.0
 10
42.60861576343479
 20
28.76244328838244
 30
0.0
 10
43.24595842836531
 20
28.76244328838244
 30
0.0
 10
43.24595842836531
 20
28.76244328838244
 30
0.0
 10
43.24595842836531
 20
28.76244328838244
 30
0.0
  0
SPLINE
  5
528
330
1F
100
AcDbEntity
  8
0
100
AcDbSpline
210
0.0
220
0.0
230
1.0
 70
     8
 71
     3
 72
    17
 73
    13
 74
     0
 42
0.0000000001
 43
0.0000000001
 40
0.0
 40
0.0
 40
0.0
 40
0.0
 40
1.0
 40
1.0
 40
1.0
 40
2.0
 40
2.0
 40
2.0
 40
3.0
 40
3.0
 40
3.0
 40
4.0
 40
4.0
 40
4.0
 40
4.0
 10
43.94634634069173
 20
28.50750622241022
 30
0.0
 10
44.07347036412924
 20
28.50750622241022
 30
0.0
 10
44.20128340666396
 20
28.82548853577828
 30
0.0
 10
44.20128340666396
 20
29.14381535869496
 30
0.0
 10
44.20128340666396
 20
29.5269099767505
 30
0.0
 10
44.07347036412924
 20
29.7811580236255
 30
0.0
 10
43.94634634069173
 20
29.7811580236255
 30
0.0
 10
41.58955651864312
 20
29.7811580236255
 30
0.0
 10
41.58955651864312
 20
29.7811580236255
 30
0.0
 10
41.58955651864312
 20
29.7811580236255
 30
0.0
 10
41.52547774260144
 20
29.7811580236255
 30
0.0
 10
41.46208798565701
 20
29.71742375713245
 30
0.0
 10
41.46208798565701
 20
29.654034000188
 30
0.0
  0
SPLINE
  5
529
330
1F
100
AcDbEntity
  8
0
100
AcDbSpline
210
0.0
220
0.0
230
1.0
 70
    11
 71
     3
 72
    26
 73
    22
 74
     0
 42
0.0000000001
 43
0.0000000001
 40
0.0
 40
0.0
 40
0.0
 40
0.0
 40
1.0
 40
1.0
 40
1.0
 40
2.0
 40
2.0
 40
2.0
 40
3.0
 40
3.0
 40
3.0
 40
4.0
 40
4.0
 40
4.0
 40
5.0
 40
5.0
 40
5.0
 40
6.0
 40
6.0
 40
6.0
 40
7.0
 40
7.0
 40
7.0
 40
7.0
 10
29.48452450909451
 20
29.14381535869496
 30
0.0
 10
29.48452450909451
 20
29.14381535869496
 30
0.0
 10
29.5484310303619
 20
29.14381535869496
 30
0.0
 10
29.5484310303619
 20
29.14381535869496
 30
0.0
 10
29.5484310303619
 20
29.33605168681994
 30
0.0
 10
29.5484310303619
 20
29.33605168681994
 30
0.0
 10
29.5484310303619
 20
29.33605168681994
 30
0.0
 10
28.84787086326118
 20
29.33605168681994
 30
0.0
 10
28.84787086326118
 20
29.33605168681994
 30
0.0
 10
28.84787086326118
 20
29.33605168681994
 30
0.0
 10
28.84787086326118
 20
29.14381535869496
 30
0.0
 10
28.84787086326118
 20
29.14381535869496
 30
0.0
 10
28.84787086326118
 20
29.14381535869496
 30
0.0
 10
28.97482263192437
 20
28.82548853577828
 30
0.0
 10
29.2295874431223
 20
28.69836451234079
 30
0.0
 10
29.5484310303619
 20
28.69836451234079
 30
0.0
 10
29.86589657940701
 20
28.69836451234079
 30
0.0
 10
30.12203942879937
 20
28.82548853577828
 30
0.0
 10
30.24864668791396
 20
29.14381535869496
 30
0.0
 10
29.48452450909451
 20
29.14381535869496
 30
0.0
 10
29.48452450909451
 20
29.14381535869496
 30
0.0
 10
29.48452450909451
 20
29.14381535869496
 30
0.0
  0
SPLINE
  5
52A
330
1F
100
AcDbEntity
  8
0
100
AcDbSpline
210
0.0
220
0.0
230
1.0
 70
    11
 71
     3
 72
    32
 73
    28
 74
     0
 42
0.0000000001
 43
0.0000000001
 40
0.0
 40
0.0
 40
0.0
 40
0.0
 40
1.0
 40
1.0
 40
1.0
 40
2.0
 40
2.0
 40
2.0
 40
3.0
 40
3.0
 40
3.0
 40
4.0
 40
4.0
 40
4.0
 40
5.0
 40
5.0
 40
5.0
 40
6.0
 40
6.0
 40
6.0
 40
7.0
 40
7.0
 40
7.0
 40
8.0
 40
8.0
 40
8.0
 40
9.0
 40
9.0
 40
9.0
 40
9.0
 10
30.50375600866047
 20
29.20789413473661
 30
0.0
 10
30.43950497784454
 20
29.20789413473661
 30
0.0
 10
30.43950497784454
 20
29.27162840122968
 30
0.0
 10
30.37611522090009
 20
29.33605168681994
 30
0.0
 10
30.50375600866047
 20
29.14381535869496
 30
0.0
 10
30.50375600866047
 20
29.14381535869496
 30
0.0
 10
30.50375600866047
 20
29.14381535869496
 30
0.0
 10
29.48452450909451
 20
29.14381535869496
 30
0.0
 10
29.48452450909451
 20
29.14381535869496
 30
0.0
 10
29.48452450909451
 20
29.14381535869496
 30
0.0
 10
29.48452450909451
 20
28.953301578313
 30
0.0
 10
29.35688372133409
 20
28.82548853577828
 30
0.0
 10
29.16568092185494
 20
28.82548853577828
 30
0.0
 10
29.10142989103896
 20
28.82548853577828
 30
0.0
 10
29.03838464364313
 20
28.82548853577828
 30
0.0
 10
28.97482263192437
 20
28.89060084046579
 30
0.0
 10
29.16568092185494
 20
28.76244328838244
 30
0.0
 10
29.35688372133409
 20
28.69836451234079
 30
0.0
 10
29.5484310303619
 20
28.69836451234079
 30
0.0
 10
29.61095951343481
 20
28.69836451234079
 30
0.0
 10
29.86589657940701
 20
28.69836451234079
 30
0.0
 10
29.9304921197716
 20
28.69836451234079
 30
0.0
 10
30.31220869963269
 20
28.69836451234079
 30
0.0
 10
30.56766252992783
 20
28.89060084046579
 30
0.0
 10
30.69461429859105
 20
29.20789413473661
 30
0.0
 10
30.63105228687231
 20
29.20789413473661
 30
0.0
 10
30.56766252992783
 20
29.20789413473661
 30
0.0
 10
30.50375600866047
 20
29.20789413473661
 30
0.0
  0
SPLINE
  5
52B
330
1F
100
AcDbEntity
  8
0
100
AcDbSpline
210
0.0
220
0.0
230
1.0
 70
    27
 71
     3
 72
    11
 73
     7
 74
     0
 42
0.0000000001
 43
0.0000000001
 40
0.0
 40
0.0
 40
0.0
 40
0.0
 40
1.0
 40
1.0
 40
1.0
 40
2.0
 40
2.0
 40
2.0
 40
2.0
 10
28.84787086326118
 20
29.14381535869496
 30
0.0
 10
28.84787086326118
 20
29.08111462084772
 30
0.0
 10
28.84787086326118
 20
29.08111462084772
 30
0.0
 10
28.84787086326118
 20
29.08111462084772
 30
0.0
 10
28.84787086326118
 20
29.08111462084772
 30
0.0
 10
28.84787086326118
 20
29.08111462084772
 30
0.0
 10
28.84787086326118
 20
29.14381535869496
 30
0.0
  0
LINE
  5
52C
330
1F
100
AcDbEntity
  8
0
100
AcDbLine
 10
29.80285122350425
 20
30.54631387171578
 30
0.0
 11
30.63105222350424
 21
30.54631387171578
 31
0.0
  0
SPLINE
  5
52D
330
1F
100
AcDbEntity
  8
0
100
AcDbSpline
210
0.0
220
0.0
230
1.0
 70
     8
 71
     3
 72
    11
 73
     7
 74
     0
 42
0.0000000001
 43
0.0000000001
 40
0.0
 40
0.0
 40
0.0
 40
0.0
 40
1.0
 40
1.0
 40
1.0
 40
2.0
 40
2.0
 40
2.0
 40
2.0
 10
28.91091611065701
 20
29.14381535869496
 30
0.0
 10
29.10142989103896
 20
28.69836451234079
 30
0.0
 10
29.48452450909451
 20
28.38072670852134
 30
0.0
 10
29.99405413149032
 20
28.38072670852134
 30
0.0
 10
30.50375600866047
 20
28.38072670852134
 30
0.0
 10
30.94937910978897
 20
28.69836451234079
 30
0.0
 10
31.14092641881673
 20
29.20789413473661
 30
0.0
  0
SPLINE
  5
52E
330
1F
100
AcDbEntity
  8
0
100
AcDbSpline
210
0.0
220
0.0
230
1.0
 70
     8
 71
     3
 72
    11
 73
     7
 74
     0
 42
0.0000000001
 43
0.0000000001
 40
0.0
 40
0.0
 40
0.0
 40
0.0
 40
1.0
 40
1.0
 40
1.0
 40
2.0
 40
2.0
 40
2.0
 40
2.0
 10
28.5285105116987
 20
29.14381535869496
 30
0.0
 10
28.71971331117787
 20
28.50750622241022
 30
0.0
 10
29.29263269051812
 20
28.06102184741023
 30
0.0
 10
29.99405413149032
 20
28.06102184741023
 30
0.0
 10
30.69461429859105
 20
28.06102184741023
 30
0.0
 10
31.33109568965007
 20
28.50750622241022
 30
0.0
 10
31.45908098695908
 20
29.20789413473661
 30
0.0
  0
SPLINE
  5
52F
330
1F
100
AcDbEntity
  8
0
100
AcDbSpline
210
0.0
220
0.0
230
1.0
 70
     8
 71
     3
 72
     8
 73
     4
 74
     0
 42
0.0000000001
 43
0.0000000001
 40
0.0
 40
0.0
 40
0.0
 40
0.0
 40
1.0
 40
1.0
 40
1.0
 40
1.0
 10
41.07968238669869
 20
29.654034000188
 30
0.0
 10
41.14307214364312
 20
29.7811580236255
 30
0.0
 10
41.2071509196848
 20
29.8459258187644
 30
0.0
 10
41.3346194526709
 20
29.97304984220189
 30
0.0
  0
SPLINE
  5
530
330
1F
100
AcDbEntity
  8
0
100
AcDbSpline
210
0.0
220
0.0
230
1.0
 70
     8
 71
     3
 72
     8
 73
     4
 74
     0
 42
0.0000000001
 43
0.0000000001
 40
0.0
 40
0.0
 40
0.0
 40
0.0
 40
1.0
 40
1.0
 40
1.0
 40
1.0
 10
40.6338870307959
 20
29.654034000188
 30
0.0
 10
40.69727678774033
 20
29.7811580236255
 30
0.0
 10
40.82474532072646
 20
29.97304984220189
 30
0.0
 10
40.95152483461531
 20
30.1001738656394
 30
0.0
  0
SPLINE
  5
531
330
1F
100
AcDbEntity
  8
0
100
AcDbSpline
210
0.0
220
0.0
230
1.0
 70
     8
 71
     3
 72
     8
 73
     4
 74
     0
 42
0.0000000001
 43
0.0000000001
 40
0.0
 40
0.0
 40
0.0
 40
0.0
 40
1.0
 40
1.0
 40
1.0
 40
1.0
 10
30.94972361933756
 20
30.22729788907689
 30
0.0
 10
30.88616160761882
 20
30.35511093161161
 30
0.0
 10
30.75886532940702
 20
30.41953421720189
 30
0.0
 10
30.63139679642089
 20
30.5466582406394
 30
0.0
  0
SPLINE
  5
532
330
1F
100
AcDbEntity
  8
0
100
AcDbSpline
210
0.0
220
0.0
230
1.0
 70
     8
 71
     3
 72
     8
 73
     4
 74
     0
 42
0.0000000001
 43
0.0000000001
 40
0.0
 40
0.0
 40
0.0
 40
0.0
 40
1.0
 40
1.0
 40
1.0
 40
1.0
 10
31.39551897524034
 20
30.22729788907689
 30
0.0
 10
31.26891171612576
 20
30.35511093161161
 30
0.0
 10
31.20431617576118
 20
30.5466582406394
 30
0.0
 10
31.07736440709798
 20
30.6737822640769
 30
0.0
  0
SPLINE
  5
533
330
1F
100
AcDbEntity
  8
0
100
AcDbSpline
210
0.0
220
0.0
230
1.0
 70
    11
 71
     3
 72
    20
 73
    16
 74
     0
 42
0.0000000001
 43
0.0000000001
 40
0.0
 40
0.0
 40
0.0
 40
0.0
 40
1.0
 40
1.0
 40
1.0
 40
2.0
 40
2.0
 40
2.0
 40
3.0
 40
3.0
 40
3.0
 40
4.0
 40
4.0
 40
4.0
 40
5.0
 40
5.0
 40
5.0
 40
5.0
 10
28.97516714147298
 20
29.33605168681994
 30
0.0
 10
28.97516714147298
 20
29.20823864428522
 30
0.0
 10
28.97516714147298
 20
29.20823864428522
 30
0.0
 10
28.97516714147298
 20
29.20823864428522
 30
0.0
 10
28.97516714147298
 20
29.14381535869496
 30
0.0
 10
29.03872915319173
 20
29.01772486390328
 30
0.0
 10
29.16568092185494
 20
29.01772486390328
 30
0.0
 10
29.29263269051812
 20
29.01772486390328
 30
0.0
 10
29.3572282308827
 20
29.14381535869496
 30
0.0
 10
29.3572282308827
 20
29.20823864428522
 30
0.0
 10
29.3572282308827
 20
29.33605168681994
 30
0.0
 10
29.3572282308827
 20
29.33605168681994
 30
0.0
 10
29.3572282308827
 20
29.33605168681994
 30
0.0
 10
28.97516714147298
 20
29.33605168681994
 30
0.0
 10
28.97516714147298
 20
29.33605168681994
 30
0.0
 10
28.97516714147298
 20
29.33605168681994
 30
0.0
  0
SPLINE
  5
534
330
1F
100
AcDbEntity
  8
0
100
AcDbSpline
210
0.0
220
0.0
230
1.0
 70
    11
 71
     3
 72
    20
 73
    16
 74
     0
 42
0.0000000001
 43
0.0000000001
 40
0.0
 40
0.0
 40
0.0
 40
0.0
 40
1.0
 40
1.0
 40
1.0
 40
2.0
 40
2.0
 40
2.0
 40
3.0
 40
3.0
 40
3.0
 40
4.0
 40
4.0
 40
4.0
 40
5.0
 40
5.0
 40
5.0
 40
5.0
 10
28.84787086326118
 20
29.33605168681994
 30
0.0
 10
28.84787086326118
 20
29.14381535869496
 30
0.0
 10
28.84787086326118
 20
29.14381535869496
 30
0.0
 10
28.84787086326118
 20
29.14381535869496
 30
0.0
 10
28.84787086326118
 20
28.953301578313
 30
0.0
 10
28.97516714147298
 20
28.8258330453269
 30
0.0
 10
29.16568092185494
 20
28.8258330453269
 30
0.0
 10
29.3572282308827
 20
28.8258330453269
 30
0.0
 10
29.5484310303619
 20
28.953301578313
 30
0.0
 10
29.5484310303619
 20
29.14381535869496
 30
0.0
 10
29.5484310303619
 20
29.33605168681994
 30
0.0
 10
29.5484310303619
 20
29.33605168681994
 30
0.0
 10
29.5484310303619
 20
29.33605168681994
 30
0.0
 10
28.84787086326118
 20
29.33605168681994
 30
0.0
 10
28.84787086326118
 20
29.33605168681994
 30
0.0
 10
28.84787086326118
 20
29.33605168681994
 30
0.0
  0
SPLINE
  5
535
330
1F
100
AcDbEntity
  8
0
100
AcDbSpline
210
0.0
220
0.0
230
1.0
 70
     8
 71
     3
 72
    23
 73
    19
 74
     0
 42
0.0000000001
 43
0.0000000001
 40
0.0
 40
0.0
 40
0.0
 40
0.0
 40
1.0
 40
1.0
 40
1.0
 40
2.0
 40
2.0
 40
2.0
 40
3.0
 40
3.0
 40
3.0
 40
4.0
 40
4.0
 40
4.0
 40
5.0
 40
5.0
 40
5.0
 40
6.0
 40
6.0
 40
6.0
 40
6.0
 10
19.3542212321848
 20
28.12475611390328
 30
0.0
 10
19.4818620199452
 20
27.10673039775744
 30
0.0
 10
19.60967506247994
 20
26.02290335782689
 30
0.0
 10
19.60967506247994
 20
24.93942082744495
 30
0.0
 10
19.60967506247994
 20
23.66542451668105
 30
0.0
 10
20.69229631899032
 20
23.3470976937644
 30
0.0
 10
21.39337325041396
 20
23.2823298986255
 30
0.0
 10
21.39337325041396
 20
23.2823298986255
 30
0.0
 10
21.45676300735841
 20
23.2823298986255
 30
0.0
 10
21.45676300735841
 20
23.2823298986255
 30
0.0
 10
22.15818444833062
 20
23.2823298986255
 30
0.0
 10
52.22938941794869
 20
24.302422672063
 30
0.0
 10
52.22938941794869
 20
24.302422672063
 30
0.0
 10
53.24879317228895
 20
24.42989120504912
 30
0.0
 10
54.2678524170806
 20
24.87499754185467
 30
0.0
 10
54.52313399260145
 20
26.27818493334772
 30
0.0
 10
54.5865237495459
 20
26.78737004619496
 30
0.0
 10
54.65025801603896
 20
27.16908662605606
 30
0.0
 10
54.84146081551812
 20
28.12475611390328
 30
0.0
  0
SPLINE
  5
536
330
1F
100
AcDbEntity
  8
0
100
AcDbSpline
210
0.0
220
0.0
230
1.0
 70
     8
 71
     3
 72
    11
 73
     7
 74
     0
 42
0.0000000001
 43
0.0000000001
 40
0.0
 40
0.0
 40
0.0
 40
0.0
 40
1.0
 40
1.0
 40
1.0
 40
2.0
 40
2.0
 40
2.0
 40
2.0
 10
19.60967506247994
 20
28.25256915643802
 30
0.0
 10
19.67272030987576
 20
28.06136635695884
 30
0.0
 10
19.73662683114312
 20
27.80711831008384
 30
0.0
 10
19.9278296306223
 20
27.80711831008384
 30
0.0
 10
20.30989072003203
 20
27.80711831008384
 30
0.0
 10
20.30989072003203
 20
28.8258330453269
 30
0.0
 10
20.30989072003203
 20
28.8258330453269
 30
0.0
  0
SPLINE
  5
537
330
1F
100
AcDbEntity
  8
0
100
AcDbSpline
210
0.0
220
0.0
230
1.0
 70
     8
 71
     3
 72
    11
 73
     7
 74
     0
 42
0.0000000001
 43
0.0000000001
 40
0.0
 40
0.0
 40
0.0
 40
0.0
 40
1.0
 40
1.0
 40
1.0
 40
2.0
 40
2.0
 40
2.0
 40
2.0
 10
19.4818620199452
 20
28.18883488994496
 30
0.0
 10
19.54576854121256
 20
27.80711831008384
 30
0.0
 10
19.67272030987576
 20
27.42436820157689
 30
0.0
 10
19.99139164234103
 20
27.42436820157689
 30
0.0
 10
20.5014380290598
 20
27.42436820157689
 30
0.0
 10
20.43718699824382
 20
28.8258330453269
 30
0.0
 10
20.43718699824382
 20
28.8258330453269
 30
0.0
  0
SPLINE
  5
538
330
1F
100
AcDbEntity
  8
0
100
AcDbSpline
210
0.0
220
0.0
230
1.0
 70
     8
 71
     3
 72
    14
 73
    10
 74
     0
 42
0.0000000001
 43
0.0000000001
 40
0.0
 40
0.0
 40
0.0
 40
0.0
 40
1.0
 40
1.0
 40
1.0
 40
2.0
 40
2.0
 40
2.0
 40
3.0
 40
3.0
 40
3.0
 40
3.0
 10
18.78095734329591
 20
28.76244328838244
 30
0.0
 10
18.78095734329591
 20
28.76244328838244
 30
0.0
 10
18.78095734329591
 20
28.44411646546578
 30
0.0
 10
18.78095734329591
 20
28.31699244202827
 30
0.0
 10
18.78095734329591
 20
28.25256915643802
 30
0.0
 10
18.65400557463269
 20
28.18883488994496
 30
0.0
 10
18.58975454381675
 20
28.18883488994496
 30
0.0
 10
18.33498973261882
 20
28.18883488994496
 30
0.0
 10
18.33498973261882
 20
28.18883488994496
 30
0.0
 10
18.33498973261882
 20
28.18883488994496
 30
0.0
  0
SPLINE
  5
539
330
1F
100
AcDbEntity
  8
0
100
AcDbSpline
210
0.0
220
0.0
230
1.0
 70
     8
 71
     3
 72
    14
 73
    10
 74
     0
 42
0.0000000001
 43
0.0000000001
 40
0.0
 40
0.0
 40
0.0
 40
0.0
 40
1.0
 40
1.0
 40
1.0
 40
2.0
 40
2.0
 40
2.0
 40
3.0
 40
3.0
 40
3.0
 40
3.0
 10
19.60967506247994
 20
28.8258330453269
 30
0.0
 10
19.60967506247994
 20
28.8258330453269
 30
0.0
 10
19.60967506247994
 20
28.50750622241022
 30
0.0
 10
19.60967506247994
 20
28.38072670852134
 30
0.0
 10
19.60967506247994
 20
28.25256915643802
 30
0.0
 10
19.54576854121256
 20
28.12475611390328
 30
0.0
 10
19.4818620199452
 20
28.12475611390328
 30
0.0
 10
18.84486386456326
 20
27.99763209046579
 30
0.0
 10
18.84486386456326
 20
27.99763209046579
 30
0.0
 10
18.84486386456326
 20
27.99763209046579
 30
0.0
  0
SPLINE
  5
53A
330
1F
100
AcDbEntity
  8
0
100
AcDbSpline
210
0.0
220
0.0
230
1.0
 70
     8
 71
     3
 72
    14
 73
    10
 74
     0
 42
0.0000000001
 43
0.0000000001
 40
0.0
 40
0.0
 40
0.0
 40
0.0
 40
1.0
 40
1.0
 40
1.0
 40
2.0
 40
2.0
 40
2.0
 40
3.0
 40
3.0
 40
3.0
 40
3.0
 10
18.58975454381675
 20
28.18883488994496
 30
0.0
 10
18.65400557463269
 20
28.06136635695884
 30
0.0
 10
18.78095734329591
 20
27.99763209046579
 30
0.0
 10
18.84486386456326
 20
27.99763209046579
 30
0.0
 10
18.9082536215077
 20
27.99763209046579
 30
0.0
 10
18.97250465232368
 20
28.12475611390328
 30
0.0
 10
18.97250465232368
 20
28.25256915643802
 30
0.0
 10
18.97250465232368
 20
28.38072670852134
 30
0.0
 10
18.97250465232368
 20
28.76244328838244
 30
0.0
 10
18.97250465232368
 20
28.76244328838244
 30
0.0
  0
SPLINE
  5
53B
330
1F
100
AcDbEntity
  8
0
100
AcDbSpline
210
0.0
220
0.0
230
1.0
 70
     8
 71
     3
 72
    14
 73
    10
 74
     0
 42
0.0000000001
 43
0.0000000001
 40
0.0
 40
0.0
 40
0.0
 40
0.0
 40
1.0
 40
1.0
 40
1.0
 40
2.0
 40
2.0
 40
2.0
 40
3.0
 40
3.0
 40
3.0
 40
3.0
 10
18.07970815709798
 20
28.31699244202827
 30
0.0
 10
18.14378693313964
 20
28.18883488994496
 30
0.0
 10
18.27091095657715
 20
28.18883488994496
 30
0.0
 10
18.33498973261882
 20
28.18883488994496
 30
0.0
 10
18.3992407634348
 20
28.18883488994496
 30
0.0
 10
18.46245826560494
 20
28.25256915643802
 30
0.0
 10
18.46245826560494
 20
28.31699244202827
 30
0.0
 10
18.46245826560494
 20
28.44411646546578
 30
0.0
 10
18.46245826560494
 20
28.76244328838244
 30
0.0
 10
18.46245826560494
 20
28.76244328838244
 30
0.0
  0
SPLINE
  5
53C
330
1F
100
AcDbEntity
  8
0
100
AcDbSpline
210
0.0
220
0.0
230
1.0
 70
    11
 71
     3
 72
    23
 73
    19
 74
     0
 42
0.0000000001
 43
0.0000000001
 40
0.0
 40
0.0
 40
0.0
 40
0.0
 40
1.0
 40
1.0
 40
1.0
 40
2.0
 40
2.0
 40
2.0
 40
3.0
 40
3.0
 40
3.0
 40
4.0
 40
4.0
 40
4.0
 40
5.0
 40
5.0
 40
5.0
 40
6.0
 40
6.0
 40
6.0
 40
6.0
 10
18.01649065492783
 20
28.69836451234079
 30
0.0
 10
18.14378693313964
 20
28.69836451234079
 30
0.0
 10
18.20734894485841
 20
28.63463024584773
 30
0.0
 10
18.20734894485841
 20
28.50750622241022
 30
0.0
 10
18.20734894485841
 20
28.38072670852134
 30
0.0
 10
18.14378693313964
 20
28.31699244202827
 30
0.0
 10
18.01649065492783
 20
28.31699244202827
 30
0.0
 10
17.44288225649033
 20
28.31699244202827
 30
0.0
 10
17.44288225649033
 20
28.31699244202827
 30
0.0
 10
17.44288225649033
 20
28.31699244202827
 30
0.0
 10
17.57052304425076
 20
28.31699244202827
 30
0.0
 10
17.63442956551815
 20
28.38072670852134
 30
0.0
 10
17.63442956551815
 20
28.50750622241022
 30
0.0
 10
17.63442956551815
 20
28.63463024584773
 30
0.0
 10
17.57052304425076
 20
28.69836451234079
 30
0.0
 10
17.44288225649033
 20
28.69836451234079
 30
0.0
 10
18.01649065492783
 20
28.69836451234079
 30
0.0
 10
18.01649065492783
 20
28.69836451234079
 30
0.0
 10
18.01649065492783
 20
28.69836451234079
 30
0.0
  0
SPLINE
  5
53D
330
1F
100
AcDbEntity
  8
0
100
AcDbSpline
210
0.0
220
0.0
230
1.0
 70
    11
 71
     3
 72
    17
 73
    13
 74
     0
 42
0.0000000001
 43
0.0000000001
 40
0.0
 40
0.0
 40
0.0
 40
0.0
 40
1.0
 40
1.0
 40
1.0
 40
2.0
 40
2.0
 40
2.0
 40
3.0
 40
3.0
 40
3.0
 40
4.0
 40
4.0
 40
4.0
 40
4.0
 10
17.63442956551815
 20
28.50750622241022
 30
0.0
 10
17.63442956551815
 20
28.38072670852134
 30
0.0
 10
17.57052304425076
 20
28.31699244202827
 30
0.0
 10
17.44288225649033
 20
28.31699244202827
 30
0.0
 10
17.31593048782716
 20
28.31699244202827
 30
0.0
 10
17.25167945701119
 20
28.38072670852134
 30
0.0
 10
17.25167945701119
 20
28.50750622241022
 30
0.0
 10
17.25167945701119
 20
28.63463024584773
 30
0.0
 10
17.31593048782716
 20
28.69836451234079
 30
0.0
 10
17.44288225649033
 20
28.69836451234079
 30
0.0
 10
17.57052304425076
 20
28.69836451234079
 30
0.0
 10
17.63442956551815
 20
28.63463024584773
 30
0.0
 10
17.63442956551815
 20
28.50750622241022
 30
0.0
  0
SPLINE
  5
53E
330
1F
100
AcDbEntity
  8
0
100
AcDbSpline
210
0.0
220
0.0
230
1.0
 70
     8
 71
     3
 72
    41
 73
    37
 74
     0
 42
0.0000000001
 43
0.0000000001
 40
0.0
 40
0.0
 40
0.0
 40
0.0
 40
1.0
 40
1.0
 40
1.0
 40
2.0
 40
2.0
 40
2.0
 40
3.0
 40
3.0
 40
3.0
 40
4.0
 40
4.0
 40
4.0
 40
5.0
 40
5.0
 40
5.0
 40
6.0
 40
6.0
 40
6.0
 40
7.0
 40
7.0
 40
7.0
 40
8.0
 40
8.0
 40
8.0
 40
9.0
 40
9.0
 40
9.0
 40
10.0
 40
10.0
 40
10.0
 40
11.0
 40
11.0
 40
11.0
 40
12.0
 40
12.0
 40
12.0
 40
12.0
 10
18.58975454381675
 20
31.18365639602134
 30
0.0
 10
17.9529286432091
 20
31.18365639602134
 30
0.0
 10
17.9529286432091
 20
31.18365639602134
 30
0.0
 10
17.9529286432091
 20
31.18365639602134
 30
0.0
 10
17.9529286432091
 20
31.1202666390769
 30
0.0
 10
17.9529286432091
 20
31.1202666390769
 30
0.0
 10
17.9529286432091
 20
31.1202666390769
 30
0.0
 10
17.76258711760145
 20
31.1202666390769
 30
0.0
 10
17.76258711760145
 20
31.1202666390769
 30
0.0
 10
17.76258711760145
 20
31.1202666390769
 30
0.0
 10
17.76258711760145
 20
31.18365639602134
 30
0.0
 10
17.76258711760145
 20
31.18365639602134
 30
0.0
 10
17.76258711760145
 20
31.18365639602134
 30
0.0
 10
17.44288225649033
 20
31.18365639602134
 30
0.0
 10
17.18742842619519
 20
30.92940834914634
 30
0.0
 10
17.18742842619519
 20
30.61039250713244
 30
0.0
 10
17.18742842619519
 20
30.29172117466717
 30
0.0
 10
17.44288225649033
 20
29.97339435175051
 30
0.0
 10
17.76258711760145
 20
29.97339435175051
 30
0.0
 10
18.58975454381675
 20
29.97339435175051
 30
0.0
 10
18.58975454381675
 20
29.97339435175051
 30
0.0
 10
18.58975454381675
 20
29.97339435175051
 30
0.0
 10
18.58975454381675
 20
29.97339435175051
 30
0.0
 10
18.65400557463269
 20
29.97339435175051
 30
0.0
 10
18.71739533157715
 20
29.97339435175051
 30
0.0
 10
18.71739533157715
 20
29.97339435175051
 30
0.0
 10
18.78095734329591
 20
29.97339435175051
 30
0.0
 10
18.84486386456326
 20
29.97339435175051
 30
0.0
 10
19.67272030987576
 20
29.97339435175051
 30
0.0
 10
19.67272030987576
 20
29.97339435175051
 30
0.0
 10
19.67272030987576
 20
29.97339435175051
 30
0.0
 10
19.99139164234103
 20
29.97339435175051
 30
0.0
 10
20.24563968921605
 20
30.22729788907689
 30
0.0
 10
20.24563968921605
 20
30.5466582406394
 30
0.0
 10
20.24563968921605
 20
30.8009062875144
 30
0.0
 10
20.11903243010146
 20
30.99210908699356
 30
0.0
 10
19.9278296306223
 20
31.1202666390769
 30
0.0
  0
POLYLINE
  5
53F
330
1F
100
AcDbEntity
  8
0
100
AcDb2dPolyline
 66
     1
 10
0.0
 20
0.0
 30
0.0
  0
VERTEX
  5
540
330
53F
100
AcDbEntity
  8
0
100
AcDbVertex
100
AcDb2dVertex
 10
18.46245822350424
 20
31.37520387171579
 30
0.0
  0
VERTEX
  5
541
330
53F
100
AcDbEntity
  8
0
100
AcDbVertex
100
AcDb2dVertex
 10
17.76258722350424
 20
31.37520387171579
 30
0.0
  0
VERTEX
  5
542
330
53F
100
AcDbEntity
  8
0
100
AcDbVertex
100
AcDb2dVertex
 10
17.76258722350424
 20
31.12026687171578
 30
0.0
  0
VERTEX
  5
543
330
53F
100
AcDbEntity
  8
0
100
AcDbVertex
100
AcDb2dVertex
 10
17.95292822350424
 20
31.12026687171578
 30
0.0
  0
VERTEX
  5
544
330
53F
100
AcDbEntity
  8
0
100
AcDbVertex
100
AcDb2dVertex
 10
17.95292822350424
 20
31.24670187171579
 30
0.0
  0
VERTEX
  5
545
330
53F
100
AcDbEntity
  8
0
100
AcDbVertex
100
AcDb2dVertex
 10
18.52619222350425
 20
31.24670187171579
 30
0.0
  0
SEQEND
  5
546
330
53F
100
AcDbEntity
  8
0
  0
POLYLINE
  5
547
330
1F
100
AcDbEntity
  8
0
100
AcDb2dPolyline
 66
     1
 10
0.0
 20
0.0
 30
0.0
  0
VERTEX
  5
548
330
547
100
AcDbEntity
  8
0
100
AcDbVertex
100
AcDb2dVertex
 10
17.95292822350424
 20
30.10017387171578
 30
0.0
  0
VERTEX
  5
549
330
547
100
AcDbEntity
  8
0
100
AcDbVertex
100
AcDb2dVertex
 10
17.50678922350424
 20
30.10017387171578
 30
0.0
  0
VERTEX
  5
54A
330
547
100
AcDbEntity
  8
0
100
AcDbVertex
100
AcDb2dVertex
 10
17.44288222350425
 20
30.29172087171579
 30
0.0
  0
VERTEX
  5
54B
330
547
100
AcDbEntity
  8
0
100
AcDbVertex
100
AcDb2dVertex
 10
17.82528822350424
 20
30.29172087171579
 30
0.0
  0
VERTEX
  5
54C
330
547
100
AcDbEntity
  8
0
100
AcDbVertex
100
AcDb2dVertex
 10
17.95292822350424
 20
30.10017387171578
 30
0.0
  0
SEQEND
  5
54D
330
547
100
AcDbEntity
  8
0
  0
SPLINE
  5
54E
330
1F
100
AcDbEntity
  8
0
100
AcDbSpline
210
0.0
220
0.0
230
1.0
 70
    11
 71
     3
 72
    26
 73
    22
 74
     0
 42
0.0000000001
 43
0.0000000001
 40
0.0
 40
0.0
 40
0.0
 40
0.0
 40
1.0
 40
1.0
 40
1.0
 40
2.0
 40
2.0
 40
2.0
 40
3.0
 40
3.0
 40
3.0
 40
4.0
 40
4.0
 40
4.0
 40
5.0
 40
5.0
 40
5.0
 40
6.0
 40
6.0
 40
6.0
 40
7.0
 40
7.0
 40
7.0
 40
7.0
 10
16.99691464581326
 20
36.21728541077827
 30
0.0
 10
16.35957198088269
 20
36.21728541077827
 30
0.0
 10
16.35957198088269
 20
36.21728541077827
 30
0.0
 10
16.35957198088269
 20
36.21728541077827
 30
0.0
 10
16.16836918140355
 20
36.21728541077827
 30
0.0
 10
16.04124515796606
 20
36.02504908265327
 30
0.0
 10
16.04124515796606
 20
35.77080103577828
 30
0.0
 10
16.04124515796606
 20
31.05687688213244
 30
0.0
 10
16.04124515796606
 20
31.05687688213244
 30
0.0
 10
16.04124515796606
 20
31.05687688213244
 30
0.0
 10
17.18742842619519
 20
31.05687688213244
 30
0.0
 10
17.18742842619519
 20
31.05687688213244
 30
0.0
 10
17.18742842619519
 20
31.05687688213244
 30
0.0
 10
17.18742842619519
 20
33.85946206008384
 30
0.0
 10
17.18742842619519
 20
33.85946206008384
 30
0.0
 10
17.18742842619519
 20
33.85946206008384
 30
0.0
 10
17.18742842619519
 20
35.00564532831301
 30
0.0
 10
17.18742842619519
 20
35.00564532831301
 30
0.0
 10
17.18742842619519
 20
35.00564532831301
 30
0.0
 10
16.99691464581326
 20
36.21728541077827
 30
0.0
 10
16.99691464581326
 20
36.21728541077827
 30
0.0
 10
16.99691464581326
 20
36.21728541077827
 30
0.0
  0
SPLINE
  5
54F
330
1F
100
AcDbEntity
  8
0
100
AcDbSpline
210
0.0
220
0.0
230
1.0
 70
    11
 71
     3
 72
    26
 73
    22
 74
     0
 42
0.0000000001
 43
0.0000000001
 40
0.0
 40
0.0
 40
0.0
 40
0.0
 40
1.0
 40
1.0
 40
1.0
 40
2.0
 40
2.0
 40
2.0
 40
3.0
 40
3.0
 40
3.0
 40
4.0
 40
4.0
 40
4.0
 40
5.0
 40
5.0
 40
5.0
 40
6.0
 40
6.0
 40
6.0
 40
7.0
 40
7.0
 40
7.0
 40
7.0
 10
54.14072839364312
 20
25.32148191685467
 30
0.0
 10
54.01325986065701
 20
25.13096813647272
 30
0.0
 10
53.82136804208061
 20
24.93942082744495
 30
0.0
 10
53.63050975215009
 20
24.81229680400745
 30
0.0
 10
53.63050975215009
 20
22.26361516338245
 30
0.0
 10
53.63050975215009
 20
22.26361516338245
 30
0.0
 10
53.63050975215009
 20
22.26361516338245
 30
0.0
 10
56.11614614537924
 20
22.26361516338245
 30
0.0
 10
56.11614614537924
 20
22.26361516338245
 30
0.0
 10
56.11614614537924
 20
22.26361516338245
 30
0.0
 10
56.11614614537924
 20
24.302422672063
 30
0.0
 10
56.11614614537924
 20
24.302422672063
 30
0.0
 10
56.11614614537924
 20
24.302422672063
 30
0.0
 10
56.49820723478896
 20
24.62178302362551
 30
0.0
 10
56.49820723478896
 20
24.62178302362551
 30
0.0
 10
56.49820723478896
 20
24.62178302362551
 30
0.0
 10
56.49820723478896
 20
25.32148191685467
 30
0.0
 10
56.49820723478896
 20
25.32148191685467
 30
0.0
 10
56.49820723478896
 20
25.32148191685467
 30
0.0
 10
54.14072839364312
 20
25.32148191685467
 30
0.0
 10
54.14072839364312
 20
25.32148191685467
 30
0.0
 10
54.14072839364312
 20
25.32148191685467
 30
0.0
  0
SPLINE
  5
550
330
1F
100
AcDbEntity
  8
0
100
AcDbSpline
210
0.0
220
0.0
230
1.0
 70
    11
 71
     3
 72
    20
 73
    16
 74
     0
 42
0.0000000001
 43
0.0000000001
 40
0.0
 40
0.0
 40
0.0
 40
0.0
 40
1.0
 40
1.0
 40
1.0
 40
2.0
 40
2.0
 40
2.0
 40
3.0
 40
3.0
 40
3.0
 40
4.0
 40
4.0
 40
4.0
 40
5.0
 40
5.0
 40
5.0
 40
5.0
 10
52.22938941794869
 20
24.302422672063
 30
0.0
 10
52.22938941794869
 20
24.302422672063
 30
0.0
 10
51.78256053340009
 20
24.302422672063
 30
0.0
 10
50.95504859763618
 20
24.23903291511855
 30
0.0
 10
50.95504859763618
 20
22.26361516338245
 30
0.0
 10
50.95504859763618
 20
22.26361516338245
 30
0.0
 10
50.95504859763618
 20
22.26361516338245
 30
0.0
 10
53.43965146221953
 20
22.26361516338245
 30
0.0
 10
53.43965146221953
 20
22.26361516338245
 30
0.0
 10
53.43965146221953
 20
22.26361516338245
 30
0.0
 10
53.43965146221953
 20
24.68551729011855
 30
0.0
 10
53.43965146221953
 20
24.68551729011855
 30
0.0
 10
53.43965146221953
 20
24.68551729011855
 30
0.0
 10
53.05827939190701
 20
24.49396998109079
 30
0.0
 10
52.67518477385144
 20
24.36581242900745
 30
0.0
 10
52.22938941794869
 20
24.302422672063
 30
0.0
  0
SPLINE
  5
551
330
1F
100
AcDbEntity
  8
0
100
AcDbSpline
210
0.0
220
0.0
230
1.0
 70
    11
 71
     3
 72
    17
 73
    13
 74
     0
 42
0.0000000001
 43
0.0000000001
 40
0.0
 40
0.0
 40
0.0
 40
0.0
 40
1.0
 40
1.0
 40
1.0
 40
2.0
 40
2.0
 40
2.0
 40
3.0
 40
3.0
 40
3.0
 40
4.0
 40
4.0
 40
4.0
 40
4.0
 10
53.43965146221953
 20
24.68551729011855
 30
0.0
 10
53.43965146221953
 20
24.302422672063
 30
0.0
 10
53.43965146221953
 20
24.302422672063
 30
0.0
 10
53.43965146221953
 20
24.302422672063
 30
0.0
 10
53.50338572871257
 20
24.36581242900745
 30
0.0
 10
53.56746450475424
 20
24.36581242900745
 30
0.0
 10
53.63050975215009
 20
24.42989120504912
 30
0.0
 10
53.63050975215009
 20
24.81229680400745
 30
0.0
 10
53.63050975215009
 20
24.81229680400745
 30
0.0
 10
53.63050975215009
 20
24.81229680400745
 30
0.0
 10
53.56746450475424
 20
24.74821802796578
 30
0.0
 10
53.50338572871257
 20
24.68551729011855
 30
0.0
 10
53.43965146221953
 20
24.68551729011855
 30
0.0
  0
POLYLINE
  5
55C
330
1F
100
AcDbEntity
  8
0
100
AcDb2dPolyline
 66
     1
 10
0.0
 20
0.0
 30
0.0
  0
VERTEX
  5
55D
330
55C
100
AcDbEntity
  8
0
100
AcDbVertex
100
AcDb2dVertex
 10
36.49322722350425
 20
23.34709787171579
 30
0.0
  0
VERTEX
  5
55E
330
55C
100
AcDbEntity
  8
0
100
AcDbVertex
100
AcDb2dVertex
 10
36.49322722350425
 20
22.26361487171578
 30
0.0
  0
VERTEX
  5
55F
330
55C
100
AcDbEntity
  8
0
100
AcDbVertex
100
AcDb2dVertex
 10
39.04121922350424
 20
22.26361487171578
 30
0.0
  0
VERTEX
  5
560
330
55C
100
AcDbEntity
  8
0
100
AcDbVertex
100
AcDb2dVertex
 10
39.04121922350424
 20
23.47491087171579
 30
0.0
  0
VERTEX
  5
561
330
55C
100
AcDbEntity
  8
0
100
AcDbVertex
100
AcDb2dVertex
 10
36.49322722350425
 20
23.34709787171579
 30
0.0
  0
SEQEND
  5
562
330
55C
100
AcDbEntity
  8
0
  0
POLYLINE
  5
563
330
1F
100
AcDbEntity
  8
0
100
AcDb2dPolyline
 66
     1
 10
0.0
 20
0.0
 30
0.0
  0
VERTEX
  5
564
330
563
100
AcDbEntity
  8
0
100
AcDbVertex
100
AcDb2dVertex
 10
46.36824822350424
 20
23.66542487171579
 30
0.0
  0
VERTEX
  5
565
330
563
100
AcDbEntity
  8
0
100
AcDbVertex
100
AcDb2dVertex
 10
46.36824822350424
 20
22.26361487171578
 30
0.0
  0
VERTEX
  5
566
330
563
100
AcDbEntity
  8
0
100
AcDbVertex
100
AcDb2dVertex
 10
48.91555222350425
 20
22.26361487171578
 30
0.0
  0
VERTEX
  5
567
330
563
100
AcDbEntity
  8
0
100
AcDbVertex
100
AcDb2dVertex
 10
48.91555222350425
 20
23.72881387171579
 30
0.0
  0
VERTEX
  5
568
330
563
100
AcDbEntity
  8
0
100
AcDbVertex
100
AcDb2dVertex
 10
46.36824822350424
 20
23.66542487171579
 30
0.0
  0
SEQEND
  5
569
330
563
100
AcDbEntity
  8
0
  0
SPLINE
  5
56A
330
1F
100
AcDbEntity
  8
0
100
AcDbSpline
210
0.0
220
0.0
230
1.0
 70
    11
 71
     3
 72
    17
 73
    13
 74
     0
 42
0.0000000001
 43
0.0000000001
 40
0.0
 40
0.0
 40
0.0
 40
0.0
 40
1.0
 40
1.0
 40
1.0
 40
2.0
 40
2.0
 40
2.0
 40
3.0
 40
3.0
 40
3.0
 40
4.0
 40
4.0
 40
4.0
 40
4.0
 10
55.79678579381672
 20
26.66024602275745
 30
0.0
 10
55.79678579381672
 20
26.596856265813
 30
0.0
 10
55.73270701777507
 20
26.53208847067412
 30
0.0
 10
55.73270701777507
 20
26.53208847067412
 30
0.0
 10
55.66931726083062
 20
26.53208847067412
 30
0.0
 10
55.60592750388618
 20
26.596856265813
 30
0.0
 10
55.60592750388618
 20
26.66024602275745
 30
0.0
 10
55.60592750388618
 20
26.7236357797019
 30
0.0
 10
55.66931726083062
 20
26.78737004619496
 30
0.0
 10
55.73270701777507
 20
26.78737004619496
 30
0.0
 10
55.73270701777507
 20
26.78737004619496
 30
0.0
 10
55.79678579381672
 20
26.7236357797019
 30
0.0
 10
55.79678579381672
 20
26.66024602275745
 30
0.0
  0
POLYLINE
  5
56B
330
1F
100
AcDbEntity
  8
0
100
AcDb2dPolyline
 66
     1
 10
0.0
 20
0.0
 30
0.0
 70
     1
  0
VERTEX
  5
56C
330
56B
100
AcDbEntity
  8
0
100
AcDbVertex
100
AcDb2dVertex
 10
55.47811422350424
 20
25.64118687171578
 30
0.0
  0
VERTEX
  5
56D
330
56B
100
AcDbEntity
  8
0
100
AcDbVertex
100
AcDb2dVertex
 10
55.79644122350423
 20
25.64118687171578
 30
0.0
  0
VERTEX
  5
56E
330
56B
100
AcDbEntity
  8
0
100
AcDbVertex
100
AcDb2dVertex
 10
55.47811422350424
 20
25.64118687171578
 30
0.0
  0
SEQEND
  5
56F
330
56B
100
AcDbEntity
  8
0
  0
SPLINE
  5
570
330
1F
100
AcDbEntity
  8
0
100
AcDbSpline
210
0.0
220
0.0
230
1.0
 70
    11
 71
     3
 72
    20
 73
    16
 74
     0
 42
0.0000000001
 43
0.0000000001
 40
0.0
 40
0.0
 40
0.0
 40
0.0
 40
1.0
 40
1.0
 40
1.0
 40
2.0
 40
2.0
 40
2.0
 40
3.0
 40
3.0
 40
3.0
 40
4.0
 40
4.0
 40
4.0
 40
5.0
 40
5.0
 40
5.0
 40
5.0
 10
55.2865671523237
 20
25.32148191685467
 30
0.0
 10
55.2865671523237
 20
25.89509031529217
 30
0.0
 10
55.2865671523237
 20
25.89509031529217
 30
0.0
 10
55.2865671523237
 20
25.89509031529217
 30
0.0
 10
54.96892934850425
 20
25.89509031529217
 30
0.0
 10
54.96892934850425
 20
25.89509031529217
 30
0.0
 10
54.96892934850425
 20
25.89509031529217
 30
0.0
 10
54.84111630596951
 20
25.89509031529217
 30
0.0
 10
54.7133032634348
 20
25.95848007223662
 30
0.0
 10
54.52278948305283
 20
26.02290335782689
 30
0.0
 10
54.52278948305283
 20
25.32148191685467
 30
0.0
 10
54.52278948305283
 20
25.32148191685467
 30
0.0
 10
54.52278948305283
 20
25.32148191685467
 30
0.0
 10
55.2865671523237
 20
25.32148191685467
 30
0.0
 10
55.2865671523237
 20
25.32148191685467
 30
0.0
 10
55.2865671523237
 20
25.32148191685467
 30
0.0
  0
POLYLINE
  5
571
330
1F
100
AcDbEntity
  8
0
100
AcDb2dPolyline
 66
     1
 10
0.0
 20
0.0
 30
0.0
 70
     1
  0
VERTEX
  5
572
330
571
100
AcDbEntity
  8
0
100
AcDbVertex
100
AcDb2dVertex
 10
55.41541322350425
 20
25.89508987171579
 30
0.0
  0
VERTEX
  5
573
330
571
100
AcDbEntity
  8
0
100
AcDbVertex
100
AcDb2dVertex
 10
55.60592722350425
 20
25.32148187171578
 30
0.0
  0
VERTEX
  5
574
330
571
100
AcDbEntity
  8
0
100
AcDbVertex
100
AcDb2dVertex
 10
55.41541322350425
 20
25.89508987171579
 30
0.0
  0
SEQEND
  5
575
330
571
100
AcDbEntity
  8
0
  0
POLYLINE
  5
576
330
1F
100
AcDbEntity
  8
0
100
AcDb2dPolyline
 66
     1
 10
0.0
 20
0.0
 30
0.0
 70
     1
  0
VERTEX
  5
577
330
576
100
AcDbEntity
  8
0
100
AcDbVertex
100
AcDb2dVertex
 10
55.79678622350425
 20
25.89508987171579
 30
0.0
  0
VERTEX
  5
578
330
576
100
AcDbEntity
  8
0
100
AcDbVertex
100
AcDb2dVertex
 10
55.86086422350423
 20
25.32148187171578
 30
0.0
  0
VERTEX
  5
579
330
576
100
AcDbEntity
  8
0
100
AcDbVertex
100
AcDb2dVertex
 10
55.79678622350425
 20
25.89508987171579
 30
0.0
  0
SEQEND
  5
57A
330
576
100
AcDbEntity
  8
0
  0
POLYLINE
  5
57B
330
1F
100
AcDbEntity
  8
0
100
AcDb2dPolyline
 66
     1
 10
0.0
 20
0.0
 30
0.0
 70
     1
  0
VERTEX
  5
57C
330
57B
100
AcDbEntity
  8
0
100
AcDbVertex
100
AcDb2dVertex
 10
55.92494322350424
 20
25.89508987171579
 30
0.0
  0
VERTEX
  5
57D
330
57B
100
AcDbEntity
  8
0
100
AcDbVertex
100
AcDb2dVertex
 10
55.92494322350424
 20
25.32148187171578
 30
0.0
  0
VERTEX
  5
57E
330
57B
100
AcDbEntity
  8
0
100
AcDbVertex
100
AcDb2dVertex
 10
55.92494322350424
 20
25.89508987171579
 30
0.0
  0
SEQEND
  5
57F
330
57B
100
AcDbEntity
  8
0
  0
POLYLINE
  5
580
330
1F
100
AcDbEntity
  8
0
100
AcDb2dPolyline
 66
     1
 10
0.0
 20
0.0
 30
0.0
  0
VERTEX
  5
581
330
580
100
AcDbEntity
  8
0
100
AcDbVertex
100
AcDb2dVertex
 10
55.35133522350425
 20
26.53208887171579
 30
0.0
  0
VERTEX
  5
582
330
580
100
AcDbEntity
  8
0
100
AcDbVertex
100
AcDb2dVertex
 10
55.73270722350425
 20
26.85075987171579
 30
0.0
  0
VERTEX
  5
583
330
580
100
AcDbEntity
  8
0
100
AcDbVertex
100
AcDb2dVertex
 10
55.92494322350424
 20
26.66024587171579
 30
0.0
  0
VERTEX
  5
584
330
580
100
AcDbEntity
  8
0
100
AcDbVertex
100
AcDb2dVertex
 10
55.86052022350424
 20
26.46869887171578
 30
0.0
  0
VERTEX
  5
585
330
580
100
AcDbEntity
  8
0
100
AcDbVertex
100
AcDb2dVertex
 10
55.35133522350425
 20
26.46869887171578
 30
0.0
  0
SEQEND
  5
586
330
580
100
AcDbEntity
  8
0
  0
LINE
  5
587
330
1F
100
AcDbEntity
  8
0
100
AcDbLine
 10
57.32537422350424
 20
26.78771487171579
 30
0.0
 11
57.45318722350425
 21
26.46869887171578
 31
0.0
  0
POLYLINE
  5
588
330
1F
100
AcDbEntity
  8
0
100
AcDb2dPolyline
 66
     1
 10
0.0
 20
0.0
 30
0.0
  0
VERTEX
  5
589
330
588
100
AcDbEntity
  8
0
100
AcDbVertex
100
AcDb2dVertex
 10
57.13451622350423
 20
26.46869887171578
 30
0.0
  0
VERTEX
  5
58A
330
588
100
AcDbEntity
  8
0
100
AcDbVertex
100
AcDb2dVertex
 10
57.45318722350425
 20
26.46869887171578
 30
0.0
  0
VERTEX
  5
58B
330
588
100
AcDbEntity
  8
0
100
AcDbVertex
100
AcDb2dVertex
 10
57.64439022350423
 20
26.66024587171579
 30
0.0
  0
SEQEND
  5
58C
330
588
100
AcDbEntity
  8
0
  0
SPLINE
  5
58D
330
1F
100
AcDbEntity
  8
0
100
AcDbSpline
210
0.0
220
0.0
230
1.0
 70
    11
 71
     3
 72
    35
 73
    31
 74
     0
 42
0.0000000001
 43
0.0000000001
 40
0.0
 40
0.0
 40
0.0
 40
0.0
 40
1.0
 40
1.0
 40
1.0
 40
2.0
 40
2.0
 40
2.0
 40
3.0
 40
3.0
 40
3.0
 40
4.0
 40
4.0
 40
4.0
 40
5.0
 40
5.0
 40
5.0
 40
6.0
 40
6.0
 40
6.0
 40
7.0
 40
7.0
 40
7.0
 40
8.0
 40
8.0
 40
8.0
 40
9.0
 40
9.0
 40
9.0
 40
10.0
 40
10.0
 40
10.0
 40
10.0
 10
59.10993412280979
 20
26.9782283361255
 30
0.0
 10
58.72718401430282
 20
26.9782283361255
 30
0.0
 10
58.72718401430282
 20
26.9782283361255
 30
0.0
 10
58.72718401430282
 20
26.9782283361255
 30
0.0
 10
58.6000599908653
 20
26.91518308872967
 30
0.0
 10
58.6000599908653
 20
26.91518308872967
 30
0.0
 10
58.6000599908653
 20
26.91518308872967
 30
0.0
 10
58.72718401430282
 20
26.85075980313939
 30
0.0
 10
58.79195180944174
 20
26.7236357797019
 30
0.0
 10
58.79195180944174
 20
26.53208847067412
 30
0.0
 10
58.79195180944174
 20
26.34157469029218
 30
0.0
 10
58.66344974780975
 20
26.21410615730607
 30
0.0
 10
58.53632572437229
 20
26.21410615730607
 30
0.0
 10
58.72718401430282
 20
26.0232478673755
 30
0.0
 10
58.72718401430282
 20
26.0232478673755
 30
0.0
 10
58.72718401430282
 20
26.0232478673755
 30
0.0
 10
59.10993412280979
 20
26.0232478673755
 30
0.0
 10
59.10993412280979
 20
26.0232478673755
 30
0.0
 10
59.10993412280979
 20
26.0232478673755
 30
0.0
 10
59.10993412280979
 20
26.08663762431995
 30
0.0
 10
59.10993412280979
 20
26.08663762431995
 30
0.0
 10
59.10993412280979
 20
26.08663762431995
 30
0.0
 10
58.79195180944174
 20
26.34157469029218
 30
0.0
 10
58.79195180944174
 20
26.34157469029218
 30
0.0
 10
58.79195180944174
 20
26.34157469029218
 30
0.0
 10
58.79195180944174
 20
26.66024602275745
 30
0.0
 10
58.79195180944174
 20
26.66024602275745
 30
0.0
 10
58.79195180944174
 20
26.66024602275745
 30
0.0
 10
59.10993412280979
 20
26.9782283361255
 30
0.0
 10
59.10993412280979
 20
26.9782283361255
 30
0.0
 10
59.10993412280979
 20
26.9782283361255
 30
0.0
  0
SPLINE
  5
58E
330
1F
100
AcDbEntity
  8
0
100
AcDbSpline
210
0.0
220
0.0
230
1.0
 70
    11
 71
     3
 72
    29
 73
    25
 74
     0
 42
0.0000000001
 43
0.0000000001
 40
0.0
 40
0.0
 40
0.0
 40
0.0
 40
1.0
 40
1.0
 40
1.0
 40
2.0
 40
2.0
 40
2.0
 40
3.0
 40
3.0
 40
3.0
 40
4.0
 40
4.0
 40
4.0
 40
5.0
 40
5.0
 40
5.0
 40
6.0
 40
6.0
 40
6.0
 40
7.0
 40
7.0
 40
7.0
 40
8.0
 40
8.0
 40
8.0
 40
8.0
 10
58.53632572437229
 20
26.91518308872967
 30
0.0
 10
58.4092017009348
 20
26.91518308872967
 30
0.0
 10
58.34581194399039
 20
26.78771455574356
 30
0.0
 10
58.28138865840006
 20
26.66024602275745
 30
0.0
 10
58.53632572437229
 20
26.66024602275745
 30
0.0
 10
58.53632572437229
 20
26.66024602275745
 30
0.0
 10
58.53632572437229
 20
26.66024602275745
 30
0.0
 10
58.6000599908653
 20
26.66024602275745
 30
0.0
 10
58.66344974780975
 20
26.59720077536162
 30
0.0
 10
58.66344974780975
 20
26.53208847067412
 30
0.0
 10
58.66344974780975
 20
26.46869871372967
 30
0.0
 10
58.6000599908653
 20
26.40530895678523
 30
0.0
 10
58.53632572437229
 20
26.40530895678523
 30
0.0
 10
58.34581194399039
 20
26.40530895678523
 30
0.0
 10
58.34581194399039
 20
26.40530895678523
 30
0.0
 10
58.34581194399039
 20
26.40530895678523
 30
0.0
 10
58.34581194399039
 20
26.27818493334772
 30
0.0
 10
58.47224694833059
 20
26.21410615730607
 30
0.0
 10
58.53632572437229
 20
26.21410615730607
 30
0.0
 10
58.66344974780975
 20
26.21410615730607
 30
0.0
 10
58.79195180944174
 20
26.34157469029218
 30
0.0
 10
58.79195180944174
 20
26.53208847067412
 30
0.0
 10
58.79195180944174
 20
26.78771455574356
 30
0.0
 10
58.66344974780975
 20
26.91518308872967
 30
0.0
 10
58.53632572437229
 20
26.91518308872967
 30
0.0
  0
SPLINE
  5
58F
330
1F
100
AcDbEntity
  8
0
100
AcDbSpline
210
0.0
220
0.0
230
1.0
 70
    11
 71
     3
 72
    23
 73
    19
 74
     0
 42
0.0000000001
 43
0.0000000001
 40
0.0
 40
0.0
 40
0.0
 40
0.0
 40
1.0
 40
1.0
 40
1.0
 40
2.0
 40
2.0
 40
2.0
 40
3.0
 40
3.0
 40
3.0
 40
4.0
 40
4.0
 40
4.0
 40
5.0
 40
5.0
 40
5.0
 40
6.0
 40
6.0
 40
6.0
 40
6.0
 10
58.1552981636084
 20
26.40530895678523
 30
0.0
 10
58.21834341100424
 20
26.40530895678523
 30
0.0
 10
58.28173316794869
 20
26.46869871372967
 30
0.0
 10
58.28173316794869
 20
26.53208847067412
 30
0.0
 10
58.28173316794869
 20
26.59720077536162
 30
0.0
 10
58.21834341100424
 20
26.66024602275745
 30
0.0
 10
58.1552981636084
 20
26.66024602275745
 30
0.0
 10
58.53667023392091
 20
26.66024602275745
 30
0.0
 10
58.53667023392091
 20
26.66024602275745
 30
0.0
 10
58.53667023392091
 20
26.66024602275745
 30
0.0
 10
58.6000599908653
 20
26.66024602275745
 30
0.0
 10
58.6637942573584
 20
26.59720077536162
 30
0.0
 10
58.6637942573584
 20
26.53208847067412
 30
0.0
 10
58.6637942573584
 20
26.46869871372967
 30
0.0
 10
58.6000599908653
 20
26.40530895678523
 30
0.0
 10
58.53667023392091
 20
26.40530895678523
 30
0.0
 10
58.1552981636084
 20
26.40530895678523
 30
0.0
 10
58.1552981636084
 20
26.40530895678523
 30
0.0
 10
58.1552981636084
 20
26.40530895678523
 30
0.0
  0
SPLINE
  5
590
330
1F
100
AcDbEntity
  8
0
100
AcDbSpline
210
0.0
220
0.0
230
1.0
 70
    11
 71
     3
 72
    32
 73
    28
 74
     0
 42
0.0000000001
 43
0.0000000001
 40
0.0
 40
0.0
 40
0.0
 40
0.0
 40
1.0
 40
1.0
 40
1.0
 40
2.0
 40
2.0
 40
2.0
 40
3.0
 40
3.0
 40
3.0
 40
4.0
 40
4.0
 40
4.0
 40
5.0
 40
5.0
 40
5.0
 40
6.0
 40
6.0
 40
6.0
 40
7.0
 40
7.0
 40
7.0
 40
8.0
 40
8.0
 40
8.0
 40
9.0
 40
9.0
 40
9.0
 40
9.0
 10
58.1552981636084
 20
26.66024602275745
 30
0.0
 10
58.09053036846953
 20
26.66024602275745
 30
0.0
 10
58.09053036846953
 20
26.66024602275745
 30
0.0
 10
58.09053036846953
 20
26.66024602275745
 30
0.0
 10
58.02679610197644
 20
26.66024602275745
 30
0.0
 10
58.02679610197644
 20
26.66024602275745
 30
0.0
 10
57.89932756899033
 20
26.78771455574356
 30
0.0
 10
57.8362823215945
 20
26.85075980313939
 30
0.0
 10
57.58065623652509
 20
27.23385442119495
 30
0.0
 10
57.5162329509348
 20
27.36166746372968
 30
0.0
 10
57.5162329509348
 20
27.23385442119495
 30
0.0
 10
57.45318770353896
 20
27.10673039775744
 30
0.0
 10
57.45318770353896
 20
26.9782283361255
 30
0.0
 10
57.5162329509348
 20
26.85075980313939
 30
0.0
 10
57.64439050301811
 20
26.66024602275745
 30
0.0
 10
57.7084692790598
 20
26.53208847067412
 30
0.0
 10
57.89932756899033
 20
26.40530895678523
 30
0.0
 10
58.02679610197644
 20
26.40530895678523
 30
0.0
 10
58.09053036846953
 20
26.40530895678523
 30
0.0
 10
58.1552981636084
 20
26.40530895678523
 30
0.0
 10
58.1552981636084
 20
26.40530895678523
 30
0.0
 10
58.1552981636084
 20
26.40530895678523
 30
0.0
 10
58.21834341100424
 20
26.40530895678523
 30
0.0
 10
58.28173316794869
 20
26.46869871372967
 30
0.0
 10
58.28173316794869
 20
26.53208847067412
 30
0.0
 10
58.28173316794869
 20
26.59720077536162
 30
0.0
 10
58.21834341100424
 20
26.66024602275745
 30
0.0
 10
58.1552981636084
 20
26.66024602275745
 30
0.0
  0
POLYLINE
  5
591
330
1F
100
AcDbEntity
  8
0
100
AcDb2dPolyline
 66
     1
 10
0.0
 20
0.0
 30
0.0
  0
VERTEX
  5
592
330
591
100
AcDbEntity
  8
0
100
AcDbVertex
100
AcDb2dVertex
 10
59.11027822350425
 20
26.97822787171579
 30
0.0
  0
VERTEX
  5
593
330
591
100
AcDbEntity
  8
0
100
AcDbVertex
100
AcDb2dVertex
 10
58.79195222350424
 20
26.66024587171579
 30
0.0
  0
VERTEX
  5
594
330
591
100
AcDbEntity
  8
0
100
AcDbVertex
100
AcDb2dVertex
 10
58.79195222350424
 20
26.34157487171579
 30
0.0
  0
VERTEX
  5
595
330
591
100
AcDbEntity
  8
0
100
AcDbVertex
100
AcDb2dVertex
 10
59.11027822350425
 20
26.02324787171579
 30
0.0
  0
VERTEX
  5
596
330
591
100
AcDbEntity
  8
0
100
AcDbVertex
100
AcDb2dVertex
 10
59.49233922350424
 20
26.02324787171579
 30
0.0
  0
VERTEX
  5
597
330
591
100
AcDbEntity
  8
0
100
AcDbVertex
100
AcDb2dVertex
 10
59.49233922350424
 20
26.97822787171579
 30
0.0
  0
VERTEX
  5
598
330
591
100
AcDbEntity
  8
0
100
AcDbVertex
100
AcDb2dVertex
 10
59.11027822350425
 20
26.97822787171579
 30
0.0
  0
SEQEND
  5
599
330
591
100
AcDbEntity
  8
0
  0
SPLINE
  5
59A
330
1F
100
AcDbEntity
  8
0
100
AcDbSpline
210
0.0
220
0.0
230
1.0
 70
    11
 71
     3
 72
    17
 73
    13
 74
     0
 42
0.0000000001
 43
0.0000000001
 40
0.0
 40
0.0
 40
0.0
 40
0.0
 40
1.0
 40
1.0
 40
1.0
 40
2.0
 40
2.0
 40
2.0
 40
3.0
 40
3.0
 40
3.0
 40
4.0
 40
4.0
 40
4.0
 40
4.0
 10
56.68941003426812
 20
33.85980656963244
 30
0.0
 10
56.88026832419869
 20
33.79538328404217
 30
0.0
 10
56.88026832419869
 20
33.79538328404217
 30
0.0
 10
56.88026832419869
 20
33.79538328404217
 30
0.0
 10
57.26267392315701
 20
34.56053899150744
 30
0.0
 10
57.26267392315701
 20
34.56053899150744
 30
0.0
 10
57.26267392315701
 20
34.56053899150744
 30
0.0
 10
57.07181563322646
 20
34.62427325800051
 30
0.0
 10
57.07181563322646
 20
34.62427325800051
 30
0.0
 10
57.07181563322646
 20
34.62427325800051
 30
0.0
 10
56.94400259069173
 20
34.36864717293107
 30
0.0
 10
56.81618954815701
 20
34.11474363560467
 30
0.0
 10
56.68941003426812
 20
33.85980656963244
 30
0.0
  0
POLYLINE
  5
59B
330
1F
100
AcDbEntity
  8
0
100
AcDb2dPolyline
 66
     1
 10
0.0
 20
0.0
 30
0.0
  0
VERTEX
  5
59C
330
59B
100
AcDbEntity
  8
0
100
AcDbVertex
100
AcDb2dVertex
 10
56.75280022350425
 20
33.85980687171578
 30
0.0
  0
VERTEX
  5
59D
330
59B
100
AcDbEntity
  8
0
100
AcDbVertex
100
AcDb2dVertex
 10
56.37004922350424
 20
32.33018387171579
 30
0.0
  0
VERTEX
  5
59E
330
59B
100
AcDbEntity
  8
0
100
AcDbVertex
100
AcDb2dVertex
 10
56.37004922350424
 20
32.01220187171579
 30
0.0
  0
SEQEND
  5
59F
330
59B
100
AcDbEntity
  8
0
  0
LINE
  5
5A0
330
1F
100
AcDbEntity
  8
0
100
AcDbLine
 10
57.07181522350423
 20
34.24221187171578
 30
0.0
 11
57.77254822350425
 21
32.33018387171579
 31
0.0
  0
SPLINE
  5
5A1
330
1F
100
AcDbEntity
  8
0
100
AcDbSpline
210
0.0
220
0.0
230
1.0
 70
     8
 71
     3
 72
    11
 73
     7
 74
     0
 42
0.0000000001
 43
0.0000000001
 40
0.0
 40
0.0
 40
0.0
 40
0.0
 40
1.0
 40
1.0
 40
1.0
 40
2.0
 40
2.0
 40
2.0
 40
2.0
 10
56.561941501282
 20
30.29172117466717
 30
0.0
 10
56.62533125822644
 20
30.35511093161161
 30
0.0
 10
56.68941003426812
 20
30.48223495504912
 30
0.0
 10
56.68941003426812
 20
30.61073701668106
 30
0.0
 10
56.68941003426812
 20
30.6737822640769
 30
0.0
 10
56.68941003426812
 20
30.73717202102134
 30
0.0
 10
56.62533125822644
 20
30.80125079706301
 30
0.0
  0
SPLINE
  5
5A2
330
1F
100
AcDbEntity
  8
0
100
AcDbSpline
210
0.0
220
0.0
230
1.0
 70
     8
 71
     3
 72
    11
 73
     7
 74
     0
 42
0.0000000001
 43
0.0000000001
 40
0.0
 40
0.0
 40
0.0
 40
0.0
 40
1.0
 40
1.0
 40
1.0
 40
2.0
 40
2.0
 40
2.0
 40
2.0
 10
56.88026832419869
 20
30.16390813213244
 30
0.0
 10
57.0073923476362
 20
30.22764239862551
 30
0.0
 10
57.1348608806223
 20
30.41987872675051
 30
0.0
 10
57.1348608806223
 20
30.61073701668106
 30
0.0
 10
57.1348608806223
 20
30.73717202102134
 30
0.0
 10
57.07181563322646
 20
30.86498506355607
 30
0.0
 10
57.0073923476362
 20
30.99245359654217
 30
0.0
  0
SPLINE
  5
5A3
330
1F
100
AcDbEntity
  8
0
100
AcDbSpline
210
0.0
220
0.0
230
1.0
 70
     8
 71
     3
 72
    14
 73
    10
 74
     0
 42
0.0000000001
 43
0.0000000001
 40
0.0
 40
0.0
 40
0.0
 40
0.0
 40
1.0
 40
1.0
 40
1.0
 40
2.0
 40
2.0
 40
2.0
 40
3.0
 40
3.0
 40
3.0
 40
3.0
 10
56.11614614537924
 20
33.03160561477134
 30
0.0
 10
56.561941501282
 20
33.03160561477134
 30
0.0
 10
57.89932756899033
 20
32.58546574931996
 30
0.0
 10
57.89932756899033
 20
31.82065455140327
 30
0.0
 10
57.89932756899033
 20
31.43790444289635
 30
0.0
 10
57.5162329509348
 20
31.05687688213244
 30
0.0
 10
57.26267392315701
 20
30.99245359654217
 30
0.0
 10
57.0073923476362
 20
30.99245359654217
 30
0.0
 10
57.0073923476362
 20
30.99245359654217
 30
0.0
 10
57.0073923476362
 20
30.99245359654217
 30
0.0
  0
SPLINE
  5
5A4
330
1F
100
AcDbEntity
  8
0
100
AcDbSpline
210
0.0
220
0.0
230
1.0
 70
     8
 71
     3
 72
     8
 73
     4
 74
     0
 42
0.0000000001
 43
0.0000000001
 40
0.0
 40
0.0
 40
0.0
 40
0.0
 40
1.0
 40
1.0
 40
1.0
 40
1.0
 10
55.22317739537925
 20
28.63463024584773
 30
0.0
 10
55.22317739537925
 20
28.44411646546578
 30
0.0
 10
55.22317739537925
 20
28.06136635695884
 30
0.0
 10
55.41541372350422
 20
27.99763209046579
 30
0.0
  0
SPLINE
  5
5A5
330
1F
100
AcDbEntity
  8
0
100
AcDbSpline
210
0.0
220
0.0
230
1.0
 70
     8
 71
     3
 72
    14
 73
    10
 74
     0
 42
0.0000000001
 43
0.0000000001
 40
0.0
 40
0.0
 40
0.0
 40
0.0
 40
1.0
 40
1.0
 40
1.0
 40
2.0
 40
2.0
 40
2.0
 40
3.0
 40
3.0
 40
3.0
 40
3.0
 10
54.52313399260145
 20
28.76244328838244
 30
0.0
 10
54.52313399260145
 20
28.50785073195884
 30
0.0
 10
54.5865237495459
 20
28.18883488994496
 30
0.0
 10
54.84146081551812
 20
28.12510062345189
 30
0.0
 10
55.41541372350422
 20
27.99763209046579
 30
0.0
 10
55.41541372350422
 20
27.99763209046579
 30
0.0
 10
55.41541372350422
 20
27.99763209046579
 30
0.0
 10
55.54184872784451
 20
27.99763209046579
 30
0.0
 10
55.66931726083062
 20
28.06136635695884
 30
0.0
 10
55.73270701777507
 20
28.18883488994496
 30
0.0
  0
SPLINE
  5
5A6
330
1F
100
AcDbEntity
  8
0
100
AcDbSpline
210
0.0
220
0.0
230
1.0
 70
    11
 71
     3
 72
    26
 73
    22
 74
     0
 42
0.0000000001
 43
0.0000000001
 40
0.0
 40
0.0
 40
0.0
 40
0.0
 40
1.0
 40
1.0
 40
1.0
 40
2.0
 40
2.0
 40
2.0
 40
3.0
 40
3.0
 40
3.0
 40
4.0
 40
4.0
 40
4.0
 40
5.0
 40
5.0
 40
5.0
 40
6.0
 40
6.0
 40
6.0
 40
7.0
 40
7.0
 40
7.0
 40
7.0
 10
54.9055395915598
 20
28.06136635695884
 30
0.0
 10
54.9055395915598
 20
28.12510062345189
 30
0.0
 10
54.9055395915598
 20
28.12510062345189
 30
0.0
 10
54.9055395915598
 20
28.12510062345189
 30
0.0
 10
54.84146081551812
 20
28.12510062345189
 30
0.0
 10
54.84146081551812
 20
28.12510062345189
 30
0.0
 10
54.84146081551812
 20
28.12510062345189
 30
0.0
 10
54.7136477729834
 20
27.36166746372968
 30
0.0
 10
54.5865237495459
 20
26.7236357797019
 30
0.0
 10
54.52313399260145
 20
26.27818493334772
 30
0.0
 10
54.52313399260145
 20
26.21410615730607
 30
0.0
 10
54.45974423565701
 20
26.15037189081301
 30
0.0
 10
54.45974423565701
 20
26.08663762431995
 30
0.0
 10
54.65025801603896
 20
25.95848007223662
 30
0.0
 10
54.77807105857369
 20
25.89509031529217
 30
0.0
 10
54.96892934850425
 20
25.89509031529217
 30
0.0
 10
56.24361467836533
 20
25.89509031529217
 30
0.0
 10
56.24361467836533
 20
25.89509031529217
 30
0.0
 10
56.24361467836533
 20
25.89509031529217
 30
0.0
 10
55.54184872784451
 20
25.89509031529217
 30
0.0
 10
54.9055395915598
 20
26.85075980313939
 30
0.0
 10
54.9055395915598
 20
28.06136635695884
 30
0.0
  0
SPLINE
  5
5A7
330
1F
100
AcDbEntity
  8
0
100
AcDbSpline
210
0.0
220
0.0
230
1.0
 70
     8
 71
     3
 72
    17
 73
    13
 74
     0
 42
0.0000000001
 43
0.0000000001
 40
0.0
 40
0.0
 40
0.0
 40
0.0
 40
1.0
 40
1.0
 40
1.0
 40
2.0
 40
2.0
 40
2.0
 40
3.0
 40
3.0
 40
3.0
 40
4.0
 40
4.0
 40
4.0
 40
4.0
 10
54.9055395915598
 20
28.12510062345189
 30
0.0
 10
54.9055395915598
 20
28.12510062345189
 30
0.0
 10
54.9055395915598
 20
28.12510062345189
 30
0.0
 10
54.9055395915598
 20
28.06136635695884
 30
0.0
 10
54.9055395915598
 20
26.85075980313939
 30
0.0
 10
55.54184872784451
 20
25.89509031529217
 30
0.0
 10
56.24361467836533
 20
25.89509031529217
 30
0.0
 10
57.0073923476362
 20
25.89509031529217
 30
0.0
 10
57.58065623652509
 20
26.85075980313939
 30
0.0
 10
57.58065623652509
 20
28.06136635695884
 30
0.0
 10
57.58065623652509
 20
28.38072670852134
 30
0.0
 10
57.58065623652509
 20
28.6987090218894
 30
0.0
 10
57.5162329509348
 20
28.953301578313
 30
0.0
  0
SPLINE
  5
5A8
330
1F
100
AcDbEntity
  8
0
100
AcDbSpline
210
0.0
220
0.0
230
1.0
 70
     8
 71
     3
 72
     8
 73
     4
 74
     0
 42
0.0000000001
 43
0.0000000001
 40
0.0
 40
0.0
 40
0.0
 40
0.0
 40
1.0
 40
1.0
 40
1.0
 40
1.0
 10
55.79678579381672
 20
28.25256915643802
 30
0.0
 10
55.79678579381672
 20
28.25256915643802
 30
0.0
 10
55.66931726083062
 20
28.38072670852134
 30
0.0
 10
55.73270701777507
 20
28.63463024584773
 30
0.0
  0
SPLINE
  5
5A9
330
1F
100
AcDbEntity
  8
0
100
AcDbSpline
210
0.0
220
0.0
230
1.0
 70
     8
 71
     3
 72
    14
 73
    10
 74
     0
 42
0.0000000001
 43
0.0000000001
 40
0.0
 40
0.0
 40
0.0
 40
0.0
 40
1.0
 40
1.0
 40
1.0
 40
2.0
 40
2.0
 40
2.0
 40
3.0
 40
3.0
 40
3.0
 40
3.0
 10
56.11614614537924
 20
28.38072670852134
 30
0.0
 10
56.11614614537924
 20
28.3173369515769
 30
0.0
 10
56.11614614537924
 20
28.25256915643802
 30
0.0
 10
56.05206736933756
 20
28.18883488994496
 30
0.0
 10
55.47845897090006
 20
28.25256915643802
 30
0.0
 10
55.47845897090006
 20
28.25256915643802
 30
0.0
 10
55.47845897090006
 20
28.25256915643802
 30
0.0
 10
55.47845897090006
 20
28.25256915643802
 30
0.0
 10
55.35133494746256
 20
28.38072670852134
 30
0.0
 10
55.41541372350422
 20
28.63463024584773
 30
0.0
  0
SPLINE
  5
5AA
330
1F
100
AcDbEntity
  8
0
100
AcDbSpline
210
0.0
220
0.0
230
1.0
 70
     8
 71
     3
 72
    35
 73
    31
 74
     0
 42
0.0000000001
 43
0.0000000001
 40
0.0
 40
0.0
 40
0.0
 40
0.0
 40
1.0
 40
1.0
 40
1.0
 40
2.0
 40
2.0
 40
2.0
 40
3.0
 40
3.0
 40
3.0
 40
4.0
 40
4.0
 40
4.0
 40
5.0
 40
5.0
 40
5.0
 40
6.0
 40
6.0
 40
6.0
 40
7.0
 40
7.0
 40
7.0
 40
8.0
 40
8.0
 40
8.0
 40
9.0
 40
9.0
 40
9.0
 40
10.0
 40
10.0
 40
10.0
 40
10.0
 10
54.7136477729834
 20
28.76244328838244
 30
0.0
 10
54.84146081551812
 20
28.6987090218894
 30
0.0
 10
54.96892934850425
 20
28.63463024584773
 30
0.0
 10
55.09605337194172
 20
28.63463024584773
 30
0.0
 10
55.92494334590009
 20
28.63463024584773
 30
0.0
 10
55.92494334590009
 20
28.63463024584773
 30
0.0
 10
55.92494334590009
 20
28.63463024584773
 30
0.0
 10
55.98867761239311
 20
28.63463024584773
 30
0.0
 10
56.05206736933756
 20
28.63463024584773
 30
0.0
 10
56.05206736933756
 20
28.63463024584773
 30
0.0
 10
56.11614614537924
 20
28.63463024584773
 30
0.0
 10
56.17919139277507
 20
28.63463024584773
 30
0.0
 10
56.17919139277507
 20
28.63463024584773
 30
0.0
 10
57.0073923476362
 20
28.63463024584773
 30
0.0
 10
57.0073923476362
 20
28.63463024584773
 30
0.0
 10
57.0073923476362
 20
28.63463024584773
 30
0.0
 10
57.32571917055283
 20
28.63463024584773
 30
0.0
 10
57.58065623652509
 20
28.8909453500144
 30
0.0
 10
57.58065623652509
 20
29.27197291077828
 30
0.0
 10
57.58065623652509
 20
29.59098875279217
 30
0.0
 10
57.32571917055283
 20
29.846270328313
 30
0.0
 10
57.0073923476362
 20
29.846270328313
 30
0.0
 10
56.17919139277507
 20
29.846270328313
 30
0.0
 10
56.17919139277507
 20
29.846270328313
 30
0.0
 10
56.17919139277507
 20
29.846270328313
 30
0.0
 10
56.05206736933756
 20
29.27197291077828
 30
0.0
 10
56.05206736933756
 20
29.27197291077828
 30
0.0
 10
56.05206736933756
 20
29.27197291077828
 30
0.0
 10
55.98867761239311
 20
29.40047497241024
 30
0.0
 10
55.86086456985841
 20
29.65437850973662
 30
0.0
 10
55.66931726083062
 20
29.78150253317411
 30
0.0
  0
POLYLINE
  5
5AB
330
1F
100
AcDbEntity
  8
0
100
AcDb2dPolyline
 66
     1
 10
0.0
 20
0.0
 30
0.0
  0
VERTEX
  5
5AC
330
5AB
100
AcDbEntity
  8
0
100
AcDbVertex
100
AcDb2dVertex
 10
57.07181522350423
 20
29.84626987171579
 30
0.0
  0
VERTEX
  5
5AD
330
5AB
100
AcDbEntity
  8
0
100
AcDbVertex
100
AcDb2dVertex
 10
56.68941022350425
 20
29.84626987171579
 30
0.0
  0
VERTEX
  5
5AE
330
5AB
100
AcDbEntity
  8
0
100
AcDbVertex
100
AcDb2dVertex
 10
56.43447322350424
 20
30.29172087171579
 30
0.0
  0
VERTEX
  5
5AF
330
5AB
100
AcDbEntity
  8
0
100
AcDbVertex
100
AcDb2dVertex
 10
56.81618922350423
 20
30.29172087171579
 30
0.0
  0
VERTEX
  5
5B0
330
5AB
100
AcDbEntity
  8
0
100
AcDbVertex
100
AcDb2dVertex
 10
57.07181522350423
 20
29.84626987171579
 30
0.0
  0
SEQEND
  5
5B1
330
5AB
100
AcDbEntity
  8
0
  0
SPLINE
  5
5B2
330
1F
100
AcDbEntity
  8
0
100
AcDbSpline
210
0.0
220
0.0
230
1.0
 70
     8
 71
     3
 72
     8
 73
     4
 74
     0
 42
0.0000000001
 43
0.0000000001
 40
0.0
 40
0.0
 40
0.0
 40
0.0
 40
1.0
 40
1.0
 40
1.0
 40
1.0
 10
54.33227570267089
 20
30.03712861824356
 30
0.0
 10
54.2678524170806
 20
29.97339435175051
 30
0.0
 10
54.20377364103896
 20
29.846270328313
 30
0.0
 10
54.20377364103896
 20
29.78150253317411
 30
0.0
  0
SPLINE
  5
5B3
330
1F
100
AcDbEntity
  8
0
100
AcDbSpline
210
0.0
220
0.0
230
1.0
 70
     8
 71
     3
 72
     8
 73
     4
 74
     0
 42
0.0000000001
 43
0.0000000001
 40
0.0
 40
0.0
 40
0.0
 40
0.0
 40
1.0
 40
1.0
 40
1.0
 40
1.0
 10
54.52313399260145
 20
29.78150253317411
 30
0.0
 10
54.5865237495459
 20
29.846270328313
 30
0.0
 10
54.65025801603896
 20
29.97339435175051
 30
0.0
 10
54.7136477729834
 20
30.03712861824356
 30
0.0
  0
SPLINE
  5
5B4
330
1F
100
AcDbEntity
  8
0
100
AcDbSpline
210
0.0
220
0.0
230
1.0
 70
     8
 71
     3
 72
     8
 73
     4
 74
     0
 42
0.0000000001
 43
0.0000000001
 40
0.0
 40
0.0
 40
0.0
 40
0.0
 40
1.0
 40
1.0
 40
1.0
 40
1.0
 10
54.01325986065701
 20
30.03712861824356
 30
0.0
 10
53.94952559416395
 20
29.97339435175051
 30
0.0
 10
53.88544681812231
 20
29.846270328313
 30
0.0
 10
53.88544681812231
 20
29.71742375713245
 30
0.0
  0
SPLINE
  5
5B5
330
1F
100
AcDbEntity
  8
0
100
AcDbSpline
210
0.0
220
0.0
230
1.0
 70
     8
 71
     3
 72
     8
 73
     4
 74
     0
 42
0.0000000001
 43
0.0000000001
 40
0.0
 40
0.0
 40
0.0
 40
0.0
 40
1.0
 40
1.0
 40
1.0
 40
1.0
 10
54.77807105857369
 20
29.78150253317411
 30
0.0
 10
54.84146081551812
 20
29.846270328313
 30
0.0
 10
54.84146081551812
 20
29.97339435175051
 30
0.0
 10
54.9055395915598
 20
30.03712861824356
 30
0.0
  0
SPLINE
  5
5B6
330
1F
100
AcDbEntity
  8
0
100
AcDbSpline
210
0.0
220
0.0
230
1.0
 70
     8
 71
     3
 72
     8
 73
     4
 74
     0
 42
0.0000000001
 43
0.0000000001
 40
0.0
 40
0.0
 40
0.0
 40
0.0
 40
1.0
 40
1.0
 40
1.0
 40
1.0
 10
54.2678524170806
 20
28.76244328838244
 30
0.0
 10
54.2678524170806
 20
28.44411646546578
 30
0.0
 10
54.33227570267089
 20
28.06136635695884
 30
0.0
 10
54.65025801603896
 20
27.99763209046579
 30
0.0
  0
SPLINE
  5
5B7
330
1F
100
AcDbEntity
  8
0
100
AcDbSpline
210
0.0
220
0.0
230
1.0
 70
     8
 71
     3
 72
    11
 73
     7
 74
     0
 42
0.0000000001
 43
0.0000000001
 40
0.0
 40
0.0
 40
0.0
 40
0.0
 40
1.0
 40
1.0
 40
1.0
 40
2.0
 40
2.0
 40
2.0
 40
2.0
 10
53.94952559416395
 20
28.76244328838244
 30
0.0
 10
53.94952559416395
 20
28.6987090218894
 30
0.0
 10
53.94952559416395
 20
28.6987090218894
 30
0.0
 10
53.94952559416395
 20
28.6987090218894
 30
0.0
 10
53.94952559416395
 20
28.3173369515769
 30
0.0
 10
54.01325986065701
 20
27.8708525765769
 30
0.0
 10
54.45974423565701
 20
27.74407306268801
 30
0.0
  0
SPLINE
  5
5B8
330
1F
100
AcDbEntity
  8
0
100
AcDbSpline
210
0.0
220
0.0
230
1.0
 70
     8
 71
     3
 72
    14
 73
    10
 74
     0
 42
0.0000000001
 43
0.0000000001
 40
0.0
 40
0.0
 40
0.0
 40
0.0
 40
1.0
 40
1.0
 40
1.0
 40
2.0
 40
2.0
 40
2.0
 40
3.0
 40
3.0
 40
3.0
 40
3.0
 10
53.63050975215009
 20
28.76244328838244
 30
0.0
 10
53.63050975215009
 20
28.63463024584773
 30
0.0
 10
53.63050975215009
 20
28.57124048890329
 30
0.0
 10
53.63050975215009
 20
28.57124048890329
 30
0.0
 10
53.63050975215009
 20
28.12510062345189
 30
0.0
 10
53.69424401864312
 20
27.55218124411161
 30
0.0
 10
54.14072839364312
 20
27.42436820157689
 30
0.0
 10
54.84146081551812
 20
28.12510062345189
 30
0.0
 10
54.84146081551812
 20
28.12510062345189
 30
0.0
 10
54.84146081551812
 20
28.12510062345189
 30
0.0
  0
POLYLINE
  5
5B9
330
1F
100
AcDbEntity
  8
0
100
AcDb2dPolyline
 66
     1
 10
0.0
 20
0.0
 30
0.0
  0
VERTEX
  5
5BA
330
5B9
100
AcDbEntity
  8
0
100
AcDbVertex
100
AcDb2dVertex
 10
57.07181522350423
 20
28.63462987171578
 30
0.0
  0
VERTEX
  5
5BB
330
5B9
100
AcDbEntity
  8
0
100
AcDbVertex
100
AcDb2dVertex
 10
57.07181522350423
 20
27.10673087171578
 30
0.0
  0
VERTEX
  5
5BC
330
5B9
100
AcDbEntity
  8
0
100
AcDbVertex
100
AcDb2dVertex
 10
57.32571922350423
 20
26.78771487171579
 30
0.0
  0
SEQEND
  5
5BD
330
5B9
100
AcDbEntity
  8
0
  0
SPLINE
  5
5BE
330
1F
100
AcDbEntity
  8
0
100
AcDbSpline
210
0.0
220
0.0
230
1.0
 70
    11
 71
     3
 72
    26
 73
    22
 74
     0
 42
0.0000000001
 43
0.0000000001
 40
0.0
 40
0.0
 40
0.0
 40
0.0
 40
1.0
 40
1.0
 40
1.0
 40
2.0
 40
2.0
 40
2.0
 40
3.0
 40
3.0
 40
3.0
 40
4.0
 40
4.0
 40
4.0
 40
5.0
 40
5.0
 40
5.0
 40
6.0
 40
6.0
 40
6.0
 40
7.0
 40
7.0
 40
7.0
 40
7.0
 10
57.39014245614312
 20
28.6987090218894
 30
0.0
 10
57.32571917055283
 20
28.6987090218894
 30
0.0
 10
57.26267392315701
 20
28.6987090218894
 30
0.0
 10
57.26267392315701
 20
28.63463024584773
 30
0.0
 10
57.0073923476362
 20
28.76244328838244
 30
0.0
 10
57.0073923476362
 20
28.76244328838244
 30
0.0
 10
57.0073923476362
 20
28.76244328838244
 30
0.0
 10
57.26267392315701
 20
28.18883488994496
 30
0.0
 10
57.26267392315701
 20
28.18883488994496
 30
0.0
 10
57.26267392315701
 20
28.18883488994496
 30
0.0
 10
57.32571917055283
 20
28.38072670852134
 30
0.0
 10
57.32571917055283
 20
28.38072670852134
 30
0.0
 10
57.32571917055283
 20
28.38072670852134
 30
0.0
 10
57.32571917055283
 20
28.38072670852134
 30
0.0
 10
57.39014245614312
 20
28.38072670852134
 30
0.0
 10
57.39014245614312
 20
28.38072670852134
 30
0.0
 10
57.45318770353896
 20
28.38072670852134
 30
0.0
 10
57.58065623652509
 20
28.44411646546578
 30
0.0
 10
57.58065623652509
 20
28.50785073195884
 30
0.0
 10
57.58065623652509
 20
28.63463024584773
 30
0.0
 10
57.45318770353896
 20
28.6987090218894
 30
0.0
 10
57.39014245614312
 20
28.6987090218894
 30
0.0
  0
SPLINE
  5
5BF
330
1F
100
AcDbEntity
  8
0
100
AcDbSpline
210
0.0
220
0.0
230
1.0
 70
     8
 71
     3
 72
    14
 73
    10
 74
     0
 42
0.0000000001
 43
0.0000000001
 40
0.0
 40
0.0
 40
0.0
 40
0.0
 40
1.0
 40
1.0
 40
1.0
 40
2.0
 40
2.0
 40
2.0
 40
3.0
 40
3.0
 40
3.0
 40
3.0
 10
56.05206736933756
 20
28.63463024584773
 30
0.0
 10
56.05206736933756
 20
28.38072670852134
 30
0.0
 10
56.05206736933756
 20
28.38072670852134
 30
0.0
 10
56.05206736933756
 20
28.38072670852134
 30
0.0
 10
56.68941003426812
 20
28.3173369515769
 30
0.0
 10
56.68941003426812
 20
28.3173369515769
 30
0.0
 10
56.68941003426812
 20
28.3173369515769
 30
0.0
 10
56.88026832419869
 20
28.3173369515769
 30
0.0
 10
57.0073923476362
 20
28.50785073195884
 30
0.0
 10
57.0073923476362
 20
28.6987090218894
 30
0.0
  0
SPLINE
  5
5C0
330
1F
100
AcDbEntity
  8
0
100
AcDbSpline
210
0.0
220
0.0
230
1.0
 70
    11
 71
     3
 72
    23
 73
    19
 74
     0
 42
0.0000000001
 43
0.0000000001
 40
0.0
 40
0.0
 40
0.0
 40
0.0
 40
1.0
 40
1.0
 40
1.0
 40
2.0
 40
2.0
 40
2.0
 40
3.0
 40
3.0
 40
3.0
 40
4.0
 40
4.0
 40
4.0
 40
5.0
 40
5.0
 40
5.0
 40
6.0
 40
6.0
 40
6.0
 40
6.0
 10
57.58065623652509
 20
29.71742375713245
 30
0.0
 10
57.39014245614312
 20
29.71742375713245
 30
0.0
 10
57.39014245614312
 20
29.71742375713245
 30
0.0
 10
57.39014245614312
 20
29.71742375713245
 30
0.0
 10
57.5162329509348
 20
29.59098875279217
 30
0.0
 10
57.58065623652509
 20
29.40047497241024
 30
0.0
 10
57.58065623652509
 20
29.27197291077828
 30
0.0
 10
57.58065623652509
 20
29.08145913039635
 30
0.0
 10
57.5162329509348
 20
28.8909453500144
 30
0.0
 10
57.39014245614312
 20
28.76244328838244
 30
0.0
 10
57.58065623652509
 20
28.76244328838244
 30
0.0
 10
57.58065623652509
 20
28.76244328838244
 30
0.0
 10
57.58065623652509
 20
28.76244328838244
 30
0.0
 10
57.8362823215945
 20
28.76244328838244
 30
0.0
 10
58.02679610197644
 20
29.01772486390328
 30
0.0
 10
58.02679610197644
 20
29.27197291077828
 30
0.0
 10
58.02679610197644
 20
29.5269099767505
 30
0.0
 10
57.8362823215945
 20
29.71742375713245
 30
0.0
 10
57.58065623652509
 20
29.71742375713245
 30
0.0
  0
SPLINE
  5
5C1
330
1F
100
AcDbEntity
  8
0
100
AcDbSpline
210
0.0
220
0.0
230
1.0
 70
    11
 71
     3
 72
    23
 73
    19
 74
     0
 42
0.0000000001
 43
0.0000000001
 40
0.0
 40
0.0
 40
0.0
 40
0.0
 40
1.0
 40
1.0
 40
1.0
 40
2.0
 40
2.0
 40
2.0
 40
3.0
 40
3.0
 40
3.0
 40
4.0
 40
4.0
 40
4.0
 40
5.0
 40
5.0
 40
5.0
 40
6.0
 40
6.0
 40
6.0
 40
6.0
 10
56.561941501282
 20
26.34157469029218
 30
0.0
 10
56.30631541621257
 20
26.34157469029218
 30
0.0
 10
56.11614614537924
 20
26.46869871372967
 30
0.0
 10
55.92494334590009
 20
26.66024602275745
 30
0.0
 10
56.05206736933756
 20
26.85075980313939
 30
0.0
 10
56.17919139277507
 20
27.16943113560467
 30
0.0
 10
56.30631541621257
 20
27.42436820157689
 30
0.0
 10
56.37004968270563
 20
27.29793319723662
 30
0.0
 10
56.49820723478896
 20
27.23385442119495
 30
0.0
 10
56.561941501282
 20
27.23385442119495
 30
0.0
 10
56.68941003426812
 20
27.23385442119495
 30
0.0
 10
56.75279979121256
 20
27.29793319723662
 30
0.0
 10
56.88026832419869
 20
27.36166746372968
 30
0.0
 10
57.1348608806223
 20
26.66024602275745
 30
0.0
 10
57.1348608806223
 20
26.66024602275745
 30
0.0
 10
57.1348608806223
 20
26.66024602275745
 30
0.0
 10
57.0073923476362
 20
26.46869871372967
 30
0.0
 10
56.75279979121256
 20
26.34157469029218
 30
0.0
 10
56.561941501282
 20
26.34157469029218
 30
0.0
  0
SPLINE
  5
5C2
330
1F
100
AcDbEntity
  8
0
100
AcDbSpline
210
0.0
220
0.0
230
1.0
 70
    11
 71
     3
 72
    17
 73
    13
 74
     0
 42
0.0000000001
 43
0.0000000001
 40
0.0
 40
0.0
 40
0.0
 40
0.0
 40
1.0
 40
1.0
 40
1.0
 40
2.0
 40
2.0
 40
2.0
 40
3.0
 40
3.0
 40
3.0
 40
4.0
 40
4.0
 40
4.0
 40
4.0
 10
55.47811446135144
 20
27.99763209046579
 30
0.0
 10
55.66897275128201
 20
27.99763209046579
 30
0.0
 10
55.92494334590009
 20
27.99763209046579
 30
0.0
 10
56.05172285978897
 20
27.99763209046579
 30
0.0
 10
56.05172285978897
 20
27.87050806702828
 30
0.0
 10
56.11649065492783
 20
27.6786162484519
 30
0.0
 10
56.17884688322644
 20
27.61488198195883
 30
0.0
 10
55.73270701777507
 20
26.91483857918106
 30
0.0
 10
55.73270701777507
 20
26.91483857918106
 30
0.0
 10
55.73270701777507
 20
26.91483857918106
 30
0.0
 10
55.60558299433757
 20
27.16908662605606
 30
0.0
 10
55.47811446135144
 20
27.55183673456301
 30
0.0
 10
55.47811446135144
 20
27.99763209046579
 30
0.0
  0
SPLINE
  5
5C3
330
1F
100
AcDbEntity
  8
0
100
AcDbSpline
210
0.0
220
0.0
230
1.0
 70
     8
 71
     3
 72
    11
 73
     7
 74
     0
 42
0.0000000001
 43
0.0000000001
 40
0.0
 40
0.0
 40
0.0
 40
0.0
 40
1.0
 40
1.0
 40
1.0
 40
2.0
 40
2.0
 40
2.0
 40
2.0
 10
56.561941501282
 20
28.63428573629911
 30
0.0
 10
56.88026832419869
 20
28.63428573629911
 30
0.0
 10
57.13451637107368
 20
28.89060084046579
 30
0.0
 10
57.13451637107368
 20
29.20789413473661
 30
0.0
 10
57.13451637107368
 20
29.5269099767505
 30
0.0
 10
56.94365808114312
 20
29.71742375713245
 30
0.0
 10
56.68975454381673
 20
29.8459258187644
 30
0.0
  0
SPLINE
  5
5C4
330
1F
100
AcDbEntity
  8
0
100
AcDbSpline
210
0.0
220
0.0
230
1.0
 70
     8
 71
     3
 72
    11
 73
     7
 74
     0
 42
0.0000000001
 43
0.0000000001
 40
0.0
 40
0.0
 40
0.0
 40
0.0
 40
1.0
 40
1.0
 40
1.0
 40
2.0
 40
2.0
 40
2.0
 40
2.0
 10
56.05172285978897
 20
28.63428573629911
 30
0.0
 10
56.30665992576118
 20
28.63428573629911
 30
0.0
 10
56.561941501282
 20
28.89060084046579
 30
0.0
 10
56.561941501282
 20
29.20789413473661
 30
0.0
 10
56.561941501282
 20
29.46317571025744
 30
0.0
 10
56.43447296829591
 20
29.71742375713245
 30
0.0
 10
56.17884688322644
 20
29.7811580236255
 30
0.0
  0
SPLINE
  5
5C5
330
1F
100
AcDbEntity
  8
0
100
AcDbSpline
210
0.0
220
0.0
230
1.0
 70
     8
 71
     3
 72
    32
 73
    28
 74
     0
 42
0.0000000001
 43
0.0000000001
 40
0.0
 40
0.0
 40
0.0
 40
0.0
 40
1.0
 40
1.0
 40
1.0
 40
2.0
 40
2.0
 40
2.0
 40
3.0
 40
3.0
 40
3.0
 40
4.0
 40
4.0
 40
4.0
 40
5.0
 40
5.0
 40
5.0
 40
6.0
 40
6.0
 40
6.0
 40
7.0
 40
7.0
 40
7.0
 40
8.0
 40
8.0
 40
8.0
 40
9.0
 40
9.0
 40
9.0
 40
9.0
 10
55.79644128426813
 20
31.94777857484079
 30
0.0
 10
55.98867761239311
 20
32.58546574931996
 30
0.0
 10
56.17884688322644
 20
33.15907414775746
 30
0.0
 10
56.36970517315702
 20
33.60349146546579
 30
0.0
 10
56.62498674867784
 20
33.60349146546579
 30
0.0
 10
56.62498674867784
 20
33.60349146546579
 30
0.0
 10
56.62498674867784
 20
33.60349146546579
 30
0.0
 10
57.07147112367784
 20
34.68800752449356
 30
0.0
 10
57.51588844138618
 20
35.89758054966716
 30
0.0
 10
58.9828100993723
 20
37.55467147848661
 30
0.0
 10
16.42296173782715
 20
37.55467147848661
 30
0.0
 10
16.42296173782715
 20
37.55467147848661
 30
0.0
 10
16.42296173782715
 20
37.55467147848661
 30
0.0
 10
16.67910458721951
 20
37.29870088386856
 30
0.0
 10
17.06082116708062
 20
36.79020479011857
 30
0.0
 10
17.18708391664658
 20
36.59831297154218
 30
0.0
 10
17.25167945701119
 20
36.40779919116023
 30
0.0
 10
16.99691464581326
 20
36.40779919116023
 30
0.0
 10
16.99691464581326
 20
36.40779919116023
 30
0.0
 10
17.25167945701119
 20
34.17709986390327
 30
0.0
 10
17.25167945701119
 20
34.17709986390327
 30
0.0
 10
17.25167945701119
 20
34.17709986390327
 30
0.0
 10
17.63408505596951
 20
34.17709986390327
 30
0.0
 10
18.01649065492783
 20
34.0503203500144
 30
0.0
 10
18.01649065492783
 20
33.73164901754912
 30
0.0
 10
18.07970815709798
 20
33.73164901754912
 30
0.0
 10
18.07970815709798
 20
33.73164901754912
 30
0.0
 10
18.07970815709798
 20
33.73164901754912
 30
0.0
  0
SPLINE
  5
5C6
330
1F
100
AcDbEntity
  8
0
100
AcDbSpline
210
0.0
220
0.0
230
1.0
 70
     8
 71
     3
 72
    14
 73
    10
 74
     0
 42
0.0000000001
 43
0.0000000001
 40
0.0
 40
0.0
 40
0.0
 40
0.0
 40
1.0
 40
1.0
 40
1.0
 40
2.0
 40
2.0
 40
2.0
 40
3.0
 40
3.0
 40
3.0
 40
3.0
 10
56.88026832419869
 20
30.1001738656394
 30
0.0
 10
57.13451637107368
 20
30.1001738656394
 30
0.0
 10
57.13451637107368
 20
30.1001738656394
 30
0.0
 10
57.13451637107368
 20
30.1001738656394
 30
0.0
 10
57.38979794659453
 20
30.1001738656394
 30
0.0
 10
57.58031172697645
 20
30.354766422063
 30
0.0
 10
57.58031172697645
 20
30.61039250713244
 30
0.0
 10
57.58031172697645
 20
30.8009062875144
 30
0.0
 10
57.45318770353896
 20
30.92906383959773
 30
0.0
 10
57.32537466100424
 20
31.05687688213244
 30
0.0
  0
SPLINE
  5
5C7
330
1F
100
AcDbEntity
  8
0
100
AcDbSpline
210
0.0
220
0.0
230
1.0
 70
     8
 71
     3
 72
    20
 73
    16
 74
     0
 42
0.0000000001
 43
0.0000000001
 40
0.0
 40
0.0
 40
0.0
 40
0.0
 40
1.0
 40
1.0
 40
1.0
 40
2.0
 40
2.0
 40
2.0
 40
3.0
 40
3.0
 40
3.0
 40
4.0
 40
4.0
 40
4.0
 40
5.0
 40
5.0
 40
5.0
 40
5.0
 10
56.30665992576118
 20
30.8009062875144
 30
0.0
 10
56.561941501282
 20
30.8009062875144
 30
0.0
 10
56.561941501282
 20
30.8009062875144
 30
0.0
 10
56.561941501282
 20
30.8009062875144
 30
0.0
 10
56.88026832419869
 20
30.8009062875144
 30
0.0
 10
57.13451637107368
 20
31.05687688213244
 30
0.0
 10
57.13451637107368
 20
31.37520370504912
 30
0.0
 10
57.13451637107368
 20
31.69353052796579
 30
0.0
 10
56.88026832419869
 20
31.94777857484079
 30
0.0
 10
56.561941501282
 20
31.94777857484079
 30
0.0
 10
55.79644128426813
 20
31.94777857484079
 30
0.0
 10
55.79644128426813
 20
31.94777857484079
 30
0.0
 10
55.79644128426813
 20
31.94777857484079
 30
0.0
 10
55.66897275128201
 20
31.88404430834772
 30
0.0
 10
55.54184872784451
 20
31.75657577536162
 30
0.0
 10
55.47811446135144
 20
31.69353052796579
 30
0.0
  0
SPLINE
  5
5C8
330
1F
100
AcDbEntity
  8
0
100
AcDbSpline
210
0.0
220
0.0
230
1.0
 70
    11
 71
     3
 72
    32
 73
    28
 74
     0
 42
0.0000000001
 43
0.0000000001
 40
0.0
 40
0.0
 40
0.0
 40
0.0
 40
1.0
 40
1.0
 40
1.0
 40
2.0
 40
2.0
 40
2.0
 40
3.0
 40
3.0
 40
3.0
 40
4.0
 40
4.0
 40
4.0
 40
5.0
 40
5.0
 40
5.0
 40
6.0
 40
6.0
 40
6.0
 40
7.0
 40
7.0
 40
7.0
 40
8.0
 40
8.0
 40
8.0
 40
9.0
 40
9.0
 40
9.0
 40
9.0
 10
56.43447296829591
 20
31.82065455140327
 30
0.0
 10
56.43447296829591
 20
31.82065455140327
 30
0.0
 10
55.98867761239311
 20
31.82065455140327
 30
0.0
 10
55.92494334590009
 20
31.82065455140327
 30
0.0
 10
55.86052006030979
 20
31.82065455140327
 30
0.0
 10
55.86052006030979
 20
31.82065455140327
 30
0.0
 10
55.86052006030979
 20
31.82065455140327
 30
0.0
 10
55.66897275128201
 20
31.82065455140327
 30
0.0
 10
55.41541372350422
 20
31.6291072423755
 30
0.0
 10
55.35167945701118
 20
31.43790444289635
 30
0.0
 10
55.22283288583063
 20
30.73682751147273
 30
0.0
 10
55.22283288583063
 20
30.73682751147273
 30
0.0
 10
55.22283288583063
 20
30.73682751147273
 30
0.0
 10
55.22283288583063
 20
30.73682751147273
 30
0.0
 10
55.41541372350422
 20
30.6737822640769
 30
0.0
 10
55.73270701777507
 20
30.61039250713244
 30
0.0
 10
55.98867761239311
 20
30.54631373109078
 30
0.0
 10
56.24327016881672
 20
30.54631373109078
 30
0.0
 10
56.24327016881672
 20
30.54631373109078
 30
0.0
 10
56.36970517315702
 20
31.05687688213244
 30
0.0
 10
56.36970517315702
 20
31.05687688213244
 30
0.0
 10
56.36970517315702
 20
31.05687688213244
 30
0.0
 10
56.561941501282
 20
31.05687688213244
 30
0.0
 10
56.68975454381673
 20
31.18365639602134
 30
0.0
 10
56.68975454381673
 20
31.37520370504912
 30
0.0
 10
56.75245528166396
 20
31.56571748543106
 30
0.0
 10
56.62498674867784
 20
31.75657577536162
 30
0.0
 10
56.43447296829591
 20
31.82065455140327
 30
0.0
  0
SPLINE
  5
5C9
330
1F
100
AcDbEntity
  8
0
100
AcDbSpline
210
0.0
220
0.0
230
1.0
 70
    11
 71
     3
 72
    17
 73
    13
 74
     0
 42
0.0000000001
 43
0.0000000001
 40
0.0
 40
0.0
 40
0.0
 40
0.0
 40
1.0
 40
1.0
 40
1.0
 40
2.0
 40
2.0
 40
2.0
 40
3.0
 40
3.0
 40
3.0
 40
4.0
 40
4.0
 40
4.0
 40
4.0
 10
21.64831031638619
 20
23.2823298986255
 30
0.0
 10
21.96629262975425
 20
22.9006133187644
 30
0.0
 10
21.96629262975425
 20
22.9006133187644
 30
0.0
 10
21.96629262975425
 20
22.9006133187644
 30
0.0
 10
49.04336511239312
 20
23.7288142736255
 30
0.0
 10
49.04336511239312
 20
23.7288142736255
 30
0.0
 10
49.04336511239312
 20
23.7288142736255
 30
0.0
 10
48.97997535544869
 20
24.17460962952829
 30
0.0
 10
48.97997535544869
 20
24.17460962952829
 30
0.0
 10
48.97997535544869
 20
24.17460962952829
 30
0.0
 10
41.58955651864312
 20
23.98409584914634
 30
0.0
 10
23.87728709590007
 20
23.3470976937644
 30
0.0
 10
21.64831031638619
 20
23.2823298986255
 30
0.0
  0
POLYLINE
  5
5CA
330
1F
100
AcDbEntity
  8
0
100
AcDb2dPolyline
 66
     1
 10
0.0
 20
0.0
 30
0.0
  0
VERTEX
  5
5CB
330
5CA
100
AcDbEntity
  8
0
100
AcDbVertex
100
AcDb2dVertex
 10
21.96629222350425
 20
22.90061287171578
 30
0.0
  0
VERTEX
  5
5CC
330
5CA
100
AcDbEntity
  8
0
100
AcDbVertex
100
AcDb2dVertex
 10
21.96629222350425
 20
22.77348887171578
 30
0.0
  0
VERTEX
  5
5CD
330
5CA
100
AcDbEntity
  8
0
100
AcDbVertex
100
AcDb2dVertex
 10
21.77543422350425
 20
22.77348887171578
 30
0.0
  0
VERTEX
  5
5CE
330
5CA
100
AcDbEntity
  8
0
100
AcDbVertex
100
AcDb2dVertex
 10
21.77543422350425
 20
21.37133587171579
 30
0.0
  0
VERTEX
  5
5CF
330
5CA
100
AcDbEntity
  8
0
100
AcDbVertex
100
AcDb2dVertex
 10
23.75050722350426
 20
21.37133587171579
 30
0.0
  0
VERTEX
  5
5D0
330
5CA
100
AcDbEntity
  8
0
100
AcDbVertex
100
AcDb2dVertex
 10
23.75050722350426
 20
22.96503687171578
 30
0.0
  0
VERTEX
  5
5D1
330
5CA
100
AcDbEntity
  8
0
100
AcDbVertex
100
AcDb2dVertex
 10
21.96629222350425
 20
22.90061287171578
 30
0.0
  0
SEQEND
  5
5D2
330
5CA
100
AcDbEntity
  8
0
  0
LINE
  5
5D3
330
1F
100
AcDbEntity
  8
0
100
AcDbLine
 10
19.16232922350424
 20
33.85946187171578
 30
0.0
 11
56.68975422350425
 21
33.85946187171578
 31
0.0
  0
LINE
  5
5D4
330
1F
100
AcDbEntity
  8
0
100
AcDbLine
 10
19.22623622350424
 20
33.60349187171579
 30
0.0
 11
56.36970522350425
 21
33.60349187171579
 31
0.0
  0
SPLINE
  5
5D5
330
1F
100
AcDbEntity
  8
0
100
AcDbSpline
210
0.0
220
0.0
230
1.0
 70
     8
 71
     3
 72
    23
 73
    19
 74
     0
 42
0.0000000001
 43
0.0000000001
 40
0.0
 40
0.0
 40
0.0
 40
0.0
 40
1.0
 40
1.0
 40
1.0
 40
2.0
 40
2.0
 40
2.0
 40
3.0
 40
3.0
 40
3.0
 40
4.0
 40
4.0
 40
4.0
 40
5.0
 40
5.0
 40
5.0
 40
6.0
 40
6.0
 40
6.0
 40
6.0
 10
41.58955651864312
 20
31.05687688213244
 30
0.0
 10
39.86838681378201
 20
31.11992212952828
 30
0.0
 10
37.7029720459869
 20
31.24670164341716
 30
0.0
 10
35.59956899694173
 20
31.43790444289635
 30
0.0
 10
33.81742110197647
 20
31.56571748543106
 30
0.0
 10
32.03200036629937
 20
31.6291072423755
 30
0.0
 10
30.63139679642089
 20
31.69353052796579
 30
0.0
 10
30.56766252992783
 20
31.6291072423755
 30
0.0
 10
30.43984948739312
 20
31.43790444289635
 30
0.0
 10
30.43984948739312
 20
31.18365639602134
 30
0.0
 10
30.43984948739312
 20
30.86498506355607
 30
0.0
 10
30.56766252992783
 20
30.6737822640769
 30
0.0
 10
30.63139679642089
 20
30.6737822640769
 30
0.0
 10
32.03200036629937
 20
30.61039250713244
 30
0.0
 10
33.75317007116048
 20
30.54631373109078
 30
0.0
 10
35.53721276864312
 20
30.41953421720189
 30
0.0
 10
37.7029720459869
 20
30.22729788907689
 30
0.0
 10
39.86838681378201
 20
30.1001738656394
 30
0.0
 10
41.65294627558757
 20
30.03678410869494
 30
0.0
  0
LINE
  5
5D6
330
1F
100
AcDbEntity
  8
0
100
AcDbLine
 10
43.94600222350425
 20
30.03678387171579
 30
0.0
 11
55.66897322350424
 21
30.03678387171579
 31
0.0
  0
LINE
  5
5D7
330
1F
100
AcDbEntity
  8
0
100
AcDbLine
 10
55.28656722350423
 20
31.05687687171579
 30
0.0
 11
43.94600222350425
 21
31.05687687171579
 31
0.0
  0
SPLINE
  5
5D8
330
1F
100
AcDbEntity
  8
0
100
AcDbSpline
210
0.0
220
0.0
230
1.0
 70
     8
 71
     3
 72
    17
 73
    13
 74
     0
 42
0.0000000001
 43
0.0000000001
 40
0.0
 40
0.0
 40
0.0
 40
0.0
 40
1.0
 40
1.0
 40
1.0
 40
2.0
 40
2.0
 40
2.0
 40
3.0
 40
3.0
 40
3.0
 40
4.0
 40
4.0
 40
4.0
 40
4.0
 10
44.07347036412924
 20
28.57124048890329
 30
0.0
 10
48.6613040229834
 20
28.63428573629911
 30
0.0
 10
54.90519508201117
 20
28.76244328838244
 30
0.0
 10
54.96892934850425
 20
28.76244328838244
 30
0.0
 10
55.22283288583063
 20
28.76244328838244
 30
0.0
 10
55.41541372350422
 20
29.01738035435467
 30
0.0
 10
55.41541372350422
 20
29.27162840122968
 30
0.0
 10
55.41541372350422
 20
29.5269099767505
 30
0.0
 10
55.22283288583063
 20
29.7811580236255
 30
0.0
 10
54.90519508201117
 20
29.7811580236255
 30
0.0
 10
54.84111630596951
 20
29.7811580236255
 30
0.0
 10
48.6613040229834
 20
29.654034000188
 30
0.0
 10
44.1372046306223
 20
29.59064424324356
 30
0.0
  0
SPLINE
  5
5D9
330
1F
100
AcDbEntity
  8
0
100
AcDbSpline
210
0.0
220
0.0
230
1.0
 70
     8
 71
     3
 72
    23
 73
    19
 74
     0
 42
0.0000000001
 43
0.0000000001
 40
0.0
 40
0.0
 40
0.0
 40
0.0
 40
1.0
 40
1.0
 40
1.0
 40
2.0
 40
2.0
 40
2.0
 40
3.0
 40
3.0
 40
3.0
 40
4.0
 40
4.0
 40
4.0
 40
5.0
 40
5.0
 40
5.0
 40
6.0
 40
6.0
 40
6.0
 40
6.0
 10
41.7807593181223
 20
29.59064424324356
 30
0.0
 10
39.67821754294869
 20
29.654034000188
 30
0.0
 10
37.44855174433757
 20
29.8459258187644
 30
0.0
 10
35.2821034478966
 20
29.97304984220189
 30
0.0
 10
33.56093374303548
 20
30.1001738656394
 30
0.0
 10
31.90504859763618
 20
30.16356362258384
 30
0.0
 10
30.43984948739312
 20
30.22729788907689
 30
0.0
 10
30.37611522090009
 20
30.16356362258384
 30
0.0
 10
30.31220869963269
 20
29.97304984220189
 30
0.0
 10
30.31220869963269
 20
29.7811580236255
 30
0.0
 10
30.31220869963269
 20
29.46317571025744
 30
0.0
 10
30.37611522090009
 20
29.20789413473661
 30
0.0
 10
30.50375600866047
 20
29.20789413473661
 30
0.0
 10
31.96843835458063
 20
29.14381535869496
 30
0.0
 10
33.56093374303548
 20
29.08111462084772
 30
0.0
 10
35.21802467185495
 20
28.953301578313
 30
0.0
 10
37.3843007135216
 20
28.82548853577828
 30
0.0
 10
39.67821754294869
 20
28.63428573629911
 30
0.0
 10
41.7807593181223
 20
28.63428573629911
 30
0.0
  0
SPLINE
  5
5DA
330
1F
100
AcDbEntity
  8
0
100
AcDbSpline
210
0.0
220
0.0
230
1.0
 70
     8
 71
     3
 72
    17
 73
    13
 74
     0
 42
0.0000000001
 43
0.0000000001
 40
0.0
 40
0.0
 40
0.0
 40
0.0
 40
1.0
 40
1.0
 40
1.0
 40
2.0
 40
2.0
 40
2.0
 40
3.0
 40
3.0
 40
3.0
 40
4.0
 40
4.0
 40
4.0
 40
4.0
 10
41.4617434761084
 20
29.59064424324356
 30
0.0
 10
41.4617434761084
 20
29.71742375713245
 30
0.0
 10
41.52547774260144
 20
29.7811580236255
 30
0.0
 10
41.58955651864312
 20
29.7811580236255
 30
0.0
 10
41.71668054208062
 20
29.7811580236255
 30
0.0
 10
41.84346005596952
 20
29.46317571025744
 30
0.0
 10
41.84346005596952
 20
29.14381535869496
 30
0.0
 10
41.84346005596952
 20
28.76244328838244
 30
0.0
 10
41.71668054208062
 20
28.50750622241022
 30
0.0
 10
41.58955651864312
 20
28.50750622241022
 30
0.0
 10
41.52547774260144
 20
28.50750622241022
 30
0.0
 10
41.52547774260144
 20
28.50750622241022
 30
0.0
 10
41.4617434761084
 20
28.57124048890329
 30
0.0
  0
POLYLINE
  5
5DB
330
1F
100
AcDbEntity
  8
0
100
AcDb2dPolyline
 66
     1
 10
0.0
 20
0.0
 30
0.0
  0
VERTEX
  5
5DC
330
5DB
100
AcDbEntity
  8
0
100
AcDbVertex
100
AcDb2dVertex
 10
41.58955622350425
 20
29.78115787171578
 30
0.0
  0
VERTEX
  5
5DD
330
5DB
100
AcDbEntity
  8
0
100
AcDbVertex
100
AcDb2dVertex
 10
42.35367822350425
 20
29.78115787171578
 30
0.0
  0
VERTEX
  5
5DE
330
5DB
100
AcDbEntity
  8
0
100
AcDbVertex
100
AcDb2dVertex
 10
42.29028922350423
 20
29.90862687171578
 30
0.0
  0
VERTEX
  5
5DF
330
5DB
100
AcDbEntity
  8
0
100
AcDbVertex
100
AcDb2dVertex
 10
41.46174322350424
 20
29.90862687171578
 30
0.0
  0
SEQEND
  5
5E0
330
5DB
100
AcDbEntity
  8
0
  0
LINE
  5
5E1
330
1F
100
AcDbEntity
  8
0
100
AcDbLine
 10
41.46174322350424
 20
31.18365687171579
 30
0.0
 11
42.35367822350425
 21
31.18365687171579
 31
0.0
  0
SPLINE
  5
5E2
330
1F
100
AcDbEntity
  8
0
100
AcDbSpline
210
0.0
220
0.0
230
1.0
 70
     8
 71
     3
 72
    17
 73
    13
 74
     0
 42
0.0000000001
 43
0.0000000001
 40
0.0
 40
0.0
 40
0.0
 40
0.0
 40
1.0
 40
1.0
 40
1.0
 40
2.0
 40
2.0
 40
2.0
 40
3.0
 40
3.0
 40
3.0
 40
4.0
 40
4.0
 40
4.0
 40
4.0
 10
41.3346194526709
 20
31.05687688213244
 30
0.0
 10
41.3346194526709
 20
31.11992212952828
 30
0.0
 10
41.39869822871256
 20
31.18365639602134
 30
0.0
 10
41.4617434761084
 20
31.18365639602134
 30
0.0
 10
41.58955651864312
 20
31.18365639602134
 30
0.0
 10
41.71668054208062
 20
30.86498506355607
 30
0.0
 10
41.71668054208062
 20
30.54631373109078
 30
0.0
 10
41.71668054208062
 20
30.16356362258384
 30
0.0
 10
41.58955651864312
 20
29.90862655661162
 30
0.0
 10
41.4617434761084
 20
29.90862655661162
 30
0.0
 10
41.39869822871256
 20
29.90862655661162
 30
0.0
 10
41.3346194526709
 20
29.97304984220189
 30
0.0
 10
41.3346194526709
 20
30.03678410869494
 30
0.0
  0
SPLINE
  5
5E3
330
1F
100
AcDbEntity
  8
0
100
AcDbSpline
210
0.0
220
0.0
230
1.0
 70
    11
 71
     3
 72
    14
 73
    10
 74
     0
 42
0.0000000001
 43
0.0000000001
 40
0.0
 40
0.0
 40
0.0
 40
0.0
 40
1.0
 40
1.0
 40
1.0
 40
2.0
 40
2.0
 40
2.0
 40
3.0
 40
3.0
 40
3.0
 40
3.0
 10
43.05475562888619
 20
31.31043590991023
 30
0.0
 10
43.05475562888619
 20
31.11992212952828
 30
0.0
 10
42.99067685284453
 20
30.99210908699356
 30
0.0
 10
42.79912954381673
 20
30.99210908699356
 30
0.0
 10
42.54522600649036
 20
30.99210908699356
 30
0.0
 10
42.29028894051812
 20
31.18365639602134
 30
0.0
 10
42.29028894051812
 20
31.31043590991023
 30
0.0
 10
43.05475562888619
 20
31.31043590991023
 30
0.0
 10
43.05475562888619
 20
31.31043590991023
 30
0.0
 10
43.05475562888619
 20
31.31043590991023
 30
0.0
  0
POLYLINE
  5
5E4
330
1F
100
AcDbEntity
  8
0
100
AcDb2dPolyline
 66
     1
 10
0.0
 20
0.0
 30
0.0
  0
VERTEX
  5
5E5
330
5E4
100
AcDbEntity
  8
0
100
AcDbVertex
100
AcDb2dVertex
 10
42.35367822350425
 20
29.71742387171578
 30
0.0
  0
VERTEX
  5
5E6
330
5E4
100
AcDbEntity
  8
0
100
AcDbVertex
100
AcDb2dVertex
 10
43.50089522350424
 20
29.71742387171578
 30
0.0
  0
VERTEX
  5
5E7
330
5E4
100
AcDbEntity
  8
0
100
AcDbVertex
100
AcDb2dVertex
 10
43.37377122350424
 20
30.16356387171579
 30
0.0
  0
VERTEX
  5
5E8
330
5E4
100
AcDbEntity
  8
0
100
AcDbVertex
100
AcDb2dVertex
 10
42.22586522350424
 20
30.16356387171579
 30
0.0
  0
VERTEX
  5
5E9
330
5E4
100
AcDbEntity
  8
0
100
AcDbVertex
100
AcDb2dVertex
 10
42.35367822350425
 20
29.71742387171578
 30
0.0
  0
SEQEND
  5
5EA
330
5E4
100
AcDbEntity
  8
0
  0
SPLINE
  5
5EB
330
1F
100
AcDbEntity
  8
0
100
AcDbSpline
210
0.0
220
0.0
230
1.0
 70
     8
 71
     3
 72
    14
 73
    10
 74
     0
 42
0.0000000001
 43
0.0000000001
 40
0.0
 40
0.0
 40
0.0
 40
0.0
 40
1.0
 40
1.0
 40
1.0
 40
2.0
 40
2.0
 40
2.0
 40
3.0
 40
3.0
 40
3.0
 40
3.0
 10
41.58955651864312
 20
29.7811580236255
 30
0.0
 10
43.94600183114312
 20
29.7811580236255
 30
0.0
 10
43.94600183114312
 20
29.7811580236255
 30
0.0
 10
43.94600183114312
 20
29.7811580236255
 30
0.0
 10
44.07347036412924
 20
29.7811580236255
 30
0.0
 10
44.20128340666396
 20
29.46317571025744
 30
0.0
 10
44.20128340666396
 20
29.14381535869496
 30
0.0
 10
44.20128340666396
 20
28.76244328838244
 30
0.0
 10
44.07347036412924
 20
28.50750622241022
 30
0.0
 10
43.94600183114312
 20
28.50750622241022
 30
0.0
  0
POLYLINE
  5
5EC
330
1F
100
AcDbEntity
  8
0
100
AcDb2dPolyline
 66
     1
 10
0.0
 20
0.0
 30
0.0
  0
VERTEX
  5
5ED
330
5EC
100
AcDbEntity
  8
0
100
AcDbVertex
100
AcDb2dVertex
 10
30.50375622350426
 20
30.41953387171579
 30
0.0
  0
VERTEX
  5
5EE
330
5EC
100
AcDbEntity
  8
0
100
AcDbVertex
100
AcDb2dVertex
 10
29.73928922350424
 20
30.41953387171579
 30
0.0
  0
VERTEX
  5
5EF
330
5EC
100
AcDbEntity
  8
0
100
AcDbVertex
100
AcDb2dVertex
 10
29.80285122350425
 20
30.54631387171578
 30
0.0
  0
VERTEX
  5
5F0
330
5EC
100
AcDbEntity
  8
0
100
AcDbVertex
100
AcDb2dVertex
 10
30.63139722350424
 20
30.54631387171578
 30
0.0
  0
SEQEND
  5
5F1
330
5EC
100
AcDbEntity
  8
0
  0
LINE
  5
5F2
330
1F
100
AcDbEntity
  8
0
100
AcDbLine
 10
30.63139722350424
 20
31.82065487171578
 30
0.0
 11
29.73928922350424
 21
31.82065487171578
 31
0.0
  0
SPLINE
  5
5F3
330
1F
100
AcDbEntity
  8
0
100
AcDbSpline
210
0.0
220
0.0
230
1.0
 70
     8
 71
     3
 72
    17
 73
    13
 74
     0
 42
0.0000000001
 43
0.0000000001
 40
0.0
 40
0.0
 40
0.0
 40
0.0
 40
1.0
 40
1.0
 40
1.0
 40
2.0
 40
2.0
 40
2.0
 40
3.0
 40
3.0
 40
3.0
 40
4.0
 40
4.0
 40
4.0
 40
4.0
 10
30.63139679642089
 20
30.22729788907689
 30
0.0
 10
30.63139679642089
 20
30.354766422063
 30
0.0
 10
30.56766252992783
 20
30.41953421720189
 30
0.0
 10
30.50375600866047
 20
30.41953421720189
 30
0.0
 10
30.37611522090009
 20
30.41953421720189
 30
0.0
 10
30.24830217836534
 20
30.1001738656394
 30
0.0
 10
30.24830217836534
 20
29.7811580236255
 30
0.0
 10
30.24830217836534
 20
29.40013046286162
 30
0.0
 10
30.37611522090009
 20
29.14381535869496
 30
0.0
 10
30.50375600866047
 20
29.14381535869496
 30
0.0
 10
30.56766252992783
 20
29.14381535869496
 30
0.0
 10
30.63139679642089
 20
29.14381535869496
 30
0.0
 10
30.63139679642089
 20
29.27162840122968
 30
0.0
  0
SPLINE
  5
5F4
330
1F
100
AcDbEntity
  8
0
100
AcDbSpline
210
0.0
220
0.0
230
1.0
 70
     8
 71
     3
 72
    17
 73
    13
 74
     0
 42
0.0000000001
 43
0.0000000001
 40
0.0
 40
0.0
 40
0.0
 40
0.0
 40
1.0
 40
1.0
 40
1.0
 40
2.0
 40
2.0
 40
2.0
 40
3.0
 40
3.0
 40
3.0
 40
4.0
 40
4.0
 40
4.0
 40
4.0
 10
30.75852081985841
 20
31.6291072423755
 30
0.0
 10
30.75852081985841
 20
31.75657577536162
 30
0.0
 10
30.69426978904244
 20
31.82065455140327
 30
0.0
 10
30.63139679642089
 20
31.82065455140327
 30
0.0
 10
30.50375600866047
 20
31.82065455140327
 30
0.0
 10
30.37611522090009
 20
31.50163870938939
 30
0.0
 10
30.37611522090009
 20
31.18365639602134
 30
0.0
 10
30.37611522090009
 20
30.8009062875144
 30
0.0
 10
30.50375600866047
 20
30.54631373109078
 30
0.0
 10
30.63139679642089
 20
30.54631373109078
 30
0.0
 10
30.69426978904244
 20
30.54631373109078
 30
0.0
 10
30.75852081985841
 20
30.54631373109078
 30
0.0
 10
30.75852081985841
 20
30.6737822640769
 30
0.0
  0
SPLINE
  5
5F5
330
1F
100
AcDbEntity
  8
0
100
AcDbSpline
210
0.0
220
0.0
230
1.0
 70
    11
 71
     3
 72
    23
 73
    19
 74
     0
 42
0.0000000001
 43
0.0000000001
 40
0.0
 40
0.0
 40
0.0
 40
0.0
 40
1.0
 40
1.0
 40
1.0
 40
2.0
 40
2.0
 40
2.0
 40
3.0
 40
3.0
 40
3.0
 40
4.0
 40
4.0
 40
4.0
 40
5.0
 40
5.0
 40
5.0
 40
6.0
 40
6.0
 40
6.0
 40
6.0
 10
28.01915314407715
 20
31.18365639602134
 30
0.0
 10
28.01915314407715
 20
31.37520370504912
 30
0.0
 10
28.0823706462473
 20
31.56571748543106
 30
0.0
 10
28.14576040319173
 20
31.69353052796579
 30
0.0
 10
24.83330109329589
 20
31.56571748543106
 30
0.0
 10
19.9278296306223
 20
31.11992212952828
 30
0.0
 10
19.67237580032716
 20
31.05687688213244
 30
0.0
 10
19.41847226300078
 20
31.05687688213244
 30
0.0
 10
19.22623593487574
 20
30.8009062875144
 30
0.0
 10
19.22623593487574
 20
30.54631373109078
 30
0.0
 10
19.29065922046605
 20
30.22729788907689
 30
0.0
 10
19.48151751039658
 20
30.03678410869494
 30
0.0
 10
19.80087786195908
 20
30.1001738656394
 30
0.0
 10
19.86392310935494
 20
30.1001738656394
 30
0.0
 10
24.83330109329589
 20
30.54631373109078
 30
0.0
 10
28.14576040319173
 20
30.6737822640769
 30
0.0
 10
28.0823706462473
 20
30.8009062875144
 30
0.0
 10
28.01915314407715
 20
30.92906383959773
 30
0.0
 10
28.01915314407715
 20
31.18365639602134
 30
0.0
  0
SPLINE
  5
5F6
330
1F
100
AcDbEntity
  8
0
100
AcDbSpline
210
0.0
220
0.0
230
1.0
 70
    11
 71
     3
 72
    29
 73
    25
 74
     0
 42
0.0000000001
 43
0.0000000001
 40
0.0
 40
0.0
 40
0.0
 40
0.0
 40
1.0
 40
1.0
 40
1.0
 40
2.0
 40
2.0
 40
2.0
 40
3.0
 40
3.0
 40
3.0
 40
4.0
 40
4.0
 40
4.0
 40
5.0
 40
5.0
 40
5.0
 40
6.0
 40
6.0
 40
6.0
 40
7.0
 40
7.0
 40
7.0
 40
8.0
 40
8.0
 40
8.0
 40
8.0
 10
27.89151235631673
 20
29.7811580236255
 30
0.0
 10
27.89151235631673
 20
29.97304984220189
 30
0.0
 10
27.95559113235841
 20
30.16356362258384
 30
0.0
 10
28.01880863452853
 20
30.29137666511856
 30
0.0
 10
26.2344214274973
 20
30.22729788907689
 30
0.0
 10
24.45089549433757
 20
30.1001738656394
 30
0.0
 10
22.79449358461534
 20
29.97304984220189
 30
0.0
 10
21.13791942011882
 20
29.8459258187644
 30
0.0
 10
19.60967506247994
 20
29.7811580236255
 30
0.0
 10
18.27091095657715
 20
29.7811580236255
 30
0.0
 10
17.95258413366048
 20
29.7811580236255
 30
0.0
 10
17.76207035327854
 20
29.5269099767505
 30
0.0
 10
17.76207035327854
 20
29.27162840122968
 30
0.0
 10
17.76207035327854
 20
28.953301578313
 30
0.0
 10
17.95258413366048
 20
28.76244328838244
 30
0.0
 10
18.27091095657715
 20
28.76244328838244
 30
0.0
 10
19.60967506247994
 20
28.76244328838244
 30
0.0
 10
21.2021704509348
 20
28.89060084046579
 30
0.0
 10
22.85771108678551
 20
29.01738035435467
 30
0.0
 10
24.51394074173341
 20
29.08111462084772
 30
0.0
 10
26.2344214274973
 20
29.20789413473661
 30
0.0
 10
28.01880863452853
 20
29.27162840122968
 30
0.0
 10
27.95559113235841
 20
29.40013046286162
 30
0.0
 10
27.89151235631673
 20
29.5269099767505
 30
0.0
 10
27.89151235631673
 20
29.7811580236255
 30
0.0
  0
SPLINE
  5
5F7
330
1F
100
AcDbEntity
  8
0
100
AcDbSpline
210
0.0
220
0.0
230
1.0
 70
    11
 71
     3
 72
    14
 73
    10
 74
     0
 42
0.0000000001
 43
0.0000000001
 40
0.0
 40
0.0
 40
0.0
 40
0.0
 40
1.0
 40
1.0
 40
1.0
 40
2.0
 40
2.0
 40
2.0
 40
3.0
 40
3.0
 40
3.0
 40
3.0
 10
29.03838464364313
 20
31.94777857484079
 30
0.0
 10
29.03838464364313
 20
31.75657577536162
 30
0.0
 10
29.16568092185494
 20
31.6287627328269
 30
0.0
 10
29.35688372133409
 20
31.6287627328269
 30
0.0
 10
29.5484310303619
 20
31.6287627328269
 30
0.0
 10
29.86589657940701
 20
31.82031004185467
 30
0.0
 10
29.86589657940701
 20
31.94777857484079
 30
0.0
 10
29.03838464364313
 20
31.94777857484079
 30
0.0
 10
29.03838464364313
 20
31.94777857484079
 30
0.0
 10
29.03838464364313
 20
31.94777857484079
 30
0.0
  0
POLYLINE
  5
5F8
330
1F
100
AcDbEntity
  8
0
100
AcDb2dPolyline
 66
     1
 10
0.0
 20
0.0
 30
0.0
  0
VERTEX
  5
5F9
330
5F8
100
AcDbEntity
  8
0
100
AcDbVertex
100
AcDb2dVertex
 10
29.73928922350424
 20
30.35476687171579
 30
0.0
  0
VERTEX
  5
5FA
330
5F8
100
AcDbEntity
  8
0
100
AcDbVertex
100
AcDb2dVertex
 10
28.65597922350425
 20
30.35476687171579
 30
0.0
  0
VERTEX
  5
5FB
330
5F8
100
AcDbEntity
  8
0
100
AcDbVertex
100
AcDb2dVertex
 10
28.71971322350424
 20
30.80090587171579
 30
0.0
  0
VERTEX
  5
5FC
330
5F8
100
AcDbEntity
  8
0
100
AcDbVertex
100
AcDb2dVertex
 10
29.86589622350424
 20
30.80090587171579
 30
0.0
  0
VERTEX
  5
5FD
330
5F8
100
AcDbEntity
  8
0
100
AcDbVertex
100
AcDb2dVertex
 10
29.73928922350424
 20
30.35476687171579
 30
0.0
  0
SEQEND
  5
5FE
330
5F8
100
AcDbEntity
  8
0
  0
SPLINE
  5
5FF
330
1F
100
AcDbEntity
  8
0
100
AcDbSpline
210
0.0
220
0.0
230
1.0
 70
     8
 71
     3
 72
    17
 73
    13
 74
     0
 42
0.0000000001
 43
0.0000000001
 40
0.0
 40
0.0
 40
0.0
 40
0.0
 40
1.0
 40
1.0
 40
1.0
 40
2.0
 40
2.0
 40
2.0
 40
3.0
 40
3.0
 40
3.0
 40
4.0
 40
4.0
 40
4.0
 40
4.0
 10
28.6559790446848
 20
30.54631373109078
 30
0.0
 10
28.27357344572646
 20
30.54631373109078
 30
0.0
 10
28.27357344572646
 20
30.54631373109078
 30
0.0
 10
28.27357344572646
 20
30.54631373109078
 30
0.0
 10
28.14610491274037
 20
30.54631373109078
 30
0.0
 10
28.01880863452853
 20
30.8009062875144
 30
0.0
 10
28.01880863452853
 20
31.18365639602134
 30
0.0
 10
28.01880863452853
 20
31.50163870938939
 30
0.0
 10
28.14610491274037
 20
31.82031004185467
 30
0.0
 10
28.27357344572646
 20
31.82031004185467
 30
0.0
 10
29.03838464364313
 20
31.82031004185467
 30
0.0
 10
29.03838464364313
 20
31.82031004185467
 30
0.0
 10
29.03838464364313
 20
31.82031004185467
 30
0.0
  0
SPLINE
  5
600
330
1F
100
AcDbEntity
  8
0
100
AcDbSpline
210
0.0
220
0.0
230
1.0
 70
     8
 71
     3
 72
    17
 73
    13
 74
     0
 42
0.0000000001
 43
0.0000000001
 40
0.0
 40
0.0
 40
0.0
 40
0.0
 40
1.0
 40
1.0
 40
1.0
 40
2.0
 40
2.0
 40
2.0
 40
3.0
 40
3.0
 40
3.0
 40
4.0
 40
4.0
 40
4.0
 40
4.0
 10
56.24327016881672
 20
30.54631373109078
 30
0.0
 10
56.30631541621257
 20
30.54631373109078
 30
0.0
 10
56.37004968270563
 20
30.54631373109078
 30
0.0
 10
56.37004968270563
 20
30.48223495504912
 30
0.0
 10
56.37004968270563
 20
30.48223495504912
 30
0.0
 10
56.05172285978897
 20
30.54631373109078
 30
0.0
 10
55.73270701777507
 20
30.61039250713244
 30
0.0
 10
55.35133494746256
 20
30.67343775452827
 30
0.0
 10
55.09570886239313
 20
30.73682751147273
 30
0.0
 10
55.09570886239313
 20
30.8009062875144
 30
0.0
 10
55.09570886239313
 20
30.8009062875144
 30
0.0
 10
55.1601321479834
 20
30.8009062875144
 30
0.0
 10
55.22317739537925
 20
30.8009062875144
 30
0.0
  0
SPLINE
  5
601
330
1F
100
AcDbEntity
  8
0
100
AcDbSpline
210
0.0
220
0.0
230
1.0
 70
     8
 71
     3
 72
    14
 73
    10
 74
     0
 42
0.0000000001
 43
0.0000000001
 40
0.0
 40
0.0
 40
0.0
 40
0.0
 40
1.0
 40
1.0
 40
1.0
 40
2.0
 40
2.0
 40
2.0
 40
3.0
 40
3.0
 40
3.0
 40
3.0
 10
55.86052006030979
 20
31.82031004185467
 30
0.0
 10
55.92494334590009
 20
31.82031004185467
 30
0.0
 10
56.43412845874729
 20
31.82031004185467
 30
0.0
 10
56.43412845874729
 20
31.82031004185467
 30
0.0
 10
56.62498674867784
 20
31.75657577536162
 30
0.0
 10
56.75279979121256
 20
31.56571748543106
 30
0.0
 10
56.68941003426812
 20
31.37520370504912
 30
0.0
 10
56.68941003426812
 20
31.18365639602134
 30
0.0
 10
56.56159699173341
 20
31.05653237258383
 30
0.0
 10
56.37004968270563
 20
31.05653237258383
 30
0.0
  0
SPLINE
  5
602
330
1F
100
AcDbEntity
  8
0
100
AcDbSpline
210
0.0
220
0.0
230
1.0
 70
    11
 71
     3
 72
    23
 73
    19
 74
     0
 42
0.0000000001
 43
0.0000000001
 40
0.0
 40
0.0
 40
0.0
 40
0.0
 40
1.0
 40
1.0
 40
1.0
 40
2.0
 40
2.0
 40
2.0
 40
3.0
 40
3.0
 40
3.0
 40
4.0
 40
4.0
 40
4.0
 40
5.0
 40
5.0
 40
5.0
 40
6.0
 40
6.0
 40
6.0
 40
6.0
 10
55.98833310284451
 20
31.82031004185467
 30
0.0
 10
56.30631541621257
 20
31.75657577536162
 30
0.0
 10
56.49820723478896
 20
31.43755993334772
 30
0.0
 10
56.43412845874729
 20
31.18365639602134
 30
0.0
 10
56.24327016881672
 20
30.54631373109078
 30
0.0
 10
56.24327016881672
 20
30.54631373109078
 30
0.0
 10
56.24327016881672
 20
30.54631373109078
 30
0.0
 10
56.24327016881672
 20
30.54631373109078
 30
0.0
 10
55.98833310284451
 20
30.54631373109078
 30
0.0
 10
55.73270701777507
 20
30.61039250713244
 30
0.0
 10
55.4150692139556
 20
30.67343775452827
 30
0.0
 10
55.22317739537925
 20
30.73682751147273
 30
0.0
 10
55.22317739537925
 20
30.73682751147273
 30
0.0
 10
55.35133494746256
 20
31.43755993334772
 30
0.0
 10
55.35133494746256
 20
31.43755993334772
 30
0.0
 10
55.35133494746256
 20
31.43755993334772
 30
0.0
 10
55.4150692139556
 20
31.69353052796579
 30
0.0
 10
55.73270701777507
 20
31.88404430834772
 30
0.0
 10
55.98833310284451
 20
31.82031004185467
 30
0.0
  0
SPLINE
  5
603
330
1F
100
AcDbEntity
  8
0
100
AcDbSpline
210
0.0
220
0.0
230
1.0
 70
     8
 71
     3
 72
    17
 73
    13
 74
     0
 42
0.0000000001
 43
0.0000000001
 40
0.0
 40
0.0
 40
0.0
 40
0.0
 40
1.0
 40
1.0
 40
1.0
 40
2.0
 40
2.0
 40
2.0
 40
3.0
 40
3.0
 40
3.0
 40
4.0
 40
4.0
 40
4.0
 40
4.0
 10
56.24327016881672
 20
30.54631373109078
 30
0.0
 10
56.30631541621257
 20
30.54631373109078
 30
0.0
 10
56.37004968270563
 20
30.54631373109078
 30
0.0
 10
56.37004968270563
 20
30.48223495504912
 30
0.0
 10
56.37004968270563
 20
30.48223495504912
 30
0.0
 10
56.05172285978897
 20
30.54631373109078
 30
0.0
 10
55.73270701777507
 20
30.61039250713244
 30
0.0
 10
55.35133494746256
 20
30.67343775452827
 30
0.0
 10
55.09570886239313
 20
30.73682751147273
 30
0.0
 10
55.09570886239313
 20
30.8009062875144
 30
0.0
 10
55.09570886239313
 20
30.8009062875144
 30
0.0
 10
55.1601321479834
 20
30.8009062875144
 30
0.0
 10
55.22317739537925
 20
30.8009062875144
 30
0.0
  0
SPLINE
  5
604
330
1F
100
AcDbEntity
  8
0
100
AcDbSpline
210
0.0
220
0.0
230
1.0
 70
     8
 71
     3
 72
    11
 73
     7
 74
     0
 42
0.0000000001
 43
0.0000000001
 40
0.0
 40
0.0
 40
0.0
 40
0.0
 40
1.0
 40
1.0
 40
1.0
 40
2.0
 40
2.0
 40
2.0
 40
2.0
 10
55.09570886239313
 20
28.63428573629911
 30
0.0
 10
55.4150692139556
 20
28.63428573629911
 30
0.0
 10
55.66897275128201
 20
28.89060084046579
 30
0.0
 10
55.66897275128201
 20
29.20789413473661
 30
0.0
 10
55.66897275128201
 20
29.5269099767505
 30
0.0
 10
55.4150692139556
 20
29.7811580236255
 30
0.0
 10
55.09570886239313
 20
29.7811580236255
 30
0.0
  0
LINE
  5
605
330
1F
100
AcDbEntity
  8
0
100
AcDbLine
 10
54.90519522350424
 20
29.78115787171578
 30
0.0
 11
54.96892922350425
 21
30.03678387171579
 31
0.0
  0
SPLINE
  5
606
330
1F
100
AcDbEntity
  8
0
100
AcDbSpline
210
0.0
220
0.0
230
1.0
 70
     8
 71
     3
 72
    20
 73
    16
 74
     0
 42
0.0000000001
 43
0.0000000001
 40
0.0
 40
0.0
 40
0.0
 40
0.0
 40
1.0
 40
1.0
 40
1.0
 40
2.0
 40
2.0
 40
2.0
 40
3.0
 40
3.0
 40
3.0
 40
4.0
 40
4.0
 40
4.0
 40
5.0
 40
5.0
 40
5.0
 40
5.0
 10
55.09570886239313
 20
30.8009062875144
 30
0.0
 10
55.09570886239313
 20
30.73682751147273
 30
0.0
 10
55.35133494746256
 20
30.67343775452827
 30
0.0
 10
55.73270701777507
 20
30.61039250713244
 30
0.0
 10
56.05172285978897
 20
30.54631373109078
 30
0.0
 10
56.37004968270563
 20
30.48223495504912
 30
0.0
 10
56.37004968270563
 20
30.48223495504912
 30
0.0
 10
56.05172285978897
 20
29.27162840122968
 30
0.0
 10
56.05172285978897
 20
29.27162840122968
 30
0.0
 10
56.05172285978897
 20
29.27162840122968
 30
0.0
 10
55.92494334590009
 20
29.46317571025744
 30
0.0
 10
55.66897275128201
 20
29.90862655661162
 30
0.0
 10
55.4150692139556
 20
29.97304984220189
 30
0.0
 10
55.22317739537925
 20
29.97304984220189
 30
0.0
 10
55.09570886239313
 20
29.90862655661162
 30
0.0
 10
55.03231910544869
 20
29.7811580236255
 30
0.0
  0
POLYLINE
  5
607
330
1F
100
AcDbEntity
  8
0
100
AcDb2dPolyline
 66
     1
 10
0.0
 20
0.0
 30
0.0
  0
VERTEX
  5
608
330
607
100
AcDbEntity
  8
0
100
AcDbVertex
100
AcDb2dVertex
 10
17.37966522350425
 20
31.05653287171579
 30
0.0
  0
VERTEX
  5
609
330
607
100
AcDbEntity
  8
0
100
AcDbVertex
100
AcDb2dVertex
 10
15.78665222350425
 20
31.05653287171579
 30
0.0
  0
VERTEX
  5
60A
330
607
100
AcDbEntity
  8
0
100
AcDbVertex
100
AcDb2dVertex
 10
15.78665222350425
 20
25.95813587171579
 30
0.0
  0
VERTEX
  5
60B
330
607
100
AcDbEntity
  8
0
100
AcDbVertex
100
AcDb2dVertex
 10
17.50644422350424
 20
25.95813587171579
 30
0.0
  0
VERTEX
  5
60C
330
607
100
AcDbEntity
  8
0
100
AcDbVertex
100
AcDb2dVertex
 10
17.50644422350424
 20
28.31699287171579
 30
0.0
  0
SEQEND
  5
60D
330
607
100
AcDbEntity
  8
0
  0
LINE
  5
60E
330
1F
100
AcDbEntity
  8
0
100
AcDbLine
 10
17.50644422350424
 20
29.90862687171578
 30
0.0
 11
17.50644422350424
 21
30.03678387171579
 31
0.0
  0
SPLINE
  5
60F
330
1F
100
AcDbEntity
  8
0
100
AcDbSpline
210
0.0
220
0.0
230
1.0
 70
     8
 71
     3
 72
     8
 73
     4
 74
     0
 42
0.0000000001
 43
0.0000000001
 40
0.0
 40
0.0
 40
0.0
 40
0.0
 40
1.0
 40
1.0
 40
1.0
 40
1.0
 10
18.14378693313964
 20
28.69836451234079
 30
0.0
 10
18.27091095657715
 20
28.69836451234079
 30
0.0
 10
18.3346452230702
 20
28.69836451234079
 30
0.0
 10
18.3992407634348
 20
28.76244328838244
 30
0.0
  0
SPLINE
  5
610
330
1F
100
AcDbEntity
  8
0
100
AcDbSpline
210
0.0
220
0.0
230
1.0
 70
     8
 71
     3
 72
     8
 73
     4
 74
     0
 42
0.0000000001
 43
0.0000000001
 40
0.0
 40
0.0
 40
0.0
 40
0.0
 40
1.0
 40
1.0
 40
1.0
 40
1.0
 10
18.3992407634348
 20
29.7811580236255
 30
0.0
 10
18.3346452230702
 20
29.8459258187644
 30
0.0
 10
18.20734894485841
 20
29.8459258187644
 30
0.0
 10
18.14378693313964
 20
29.8459258187644
 30
0.0
  0
SPLINE
  5
611
330
1F
100
AcDbEntity
  8
0
100
AcDbSpline
210
0.0
220
0.0
230
1.0
 70
     8
 71
     3
 72
     8
 73
     4
 74
     0
 42
0.0000000001
 43
0.0000000001
 40
0.0
 40
0.0
 40
0.0
 40
0.0
 40
1.0
 40
1.0
 40
1.0
 40
1.0
 10
19.03537764494518
 20
29.97304984220189
 30
0.0
 10
19.09911191143826
 20
29.90862655661162
 30
0.0
 10
19.09911191143826
 20
29.8459258187644
 30
0.0
 10
19.09911191143826
 20
29.7811580236255
 30
0.0
  0
SPLINE
  5
612
330
1F
100
AcDbEntity
  8
0
100
AcDbSpline
210
0.0
220
0.0
230
1.0
 70
     8
 71
     3
 72
    23
 73
    19
 74
     0
 42
0.0000000001
 43
0.0000000001
 40
0.0
 40
0.0
 40
0.0
 40
0.0
 40
1.0
 40
1.0
 40
1.0
 40
2.0
 40
2.0
 40
2.0
 40
3.0
 40
3.0
 40
3.0
 40
4.0
 40
4.0
 40
4.0
 40
5.0
 40
5.0
 40
5.0
 40
6.0
 40
6.0
 40
6.0
 40
6.0
 10
18.27091095657715
 20
29.8459258187644
 30
0.0
 10
18.20734894485841
 20
29.8459258187644
 30
0.0
 10
18.14378693313964
 20
29.8459258187644
 30
0.0
 10
18.14378693313964
 20
29.8459258187644
 30
0.0
 10
17.31558597827855
 20
29.90862655661162
 30
0.0
 10
17.31558597827855
 20
29.90862655661162
 30
0.0
 10
17.31558597827855
 20
29.90862655661162
 30
0.0
 10
16.99657013626465
 20
29.90862655661162
 30
0.0
 10
16.74232208938966
 20
29.59064424324356
 30
0.0
 10
16.74232208938966
 20
29.27162840122968
 30
0.0
 10
16.74232208938966
 20
28.953301578313
 30
0.0
 10
16.99657013626465
 20
28.69836451234079
 30
0.0
 10
17.31558597827855
 20
28.69836451234079
 30
0.0
 10
18.14378693313964
 20
28.69836451234079
 30
0.0
 10
18.14378693313964
 20
28.69836451234079
 30
0.0
 10
18.14378693313964
 20
28.69836451234079
 30
0.0
 10
18.14378693313964
 20
28.69836451234079
 30
0.0
 10
18.20734894485841
 20
28.69836451234079
 30
0.0
 10
18.27091095657715
 20
28.69836451234079
 30
0.0
  0
SPLINE
  5
613
330
1F
100
AcDbEntity
  8
0
100
AcDbSpline
210
0.0
220
0.0
230
1.0
 70
     8
 71
     3
 72
    11
 73
     7
 74
     0
 42
0.0000000001
 43
0.0000000001
 40
0.0
 40
0.0
 40
0.0
 40
0.0
 40
1.0
 40
1.0
 40
1.0
 40
2.0
 40
2.0
 40
2.0
 40
2.0
 10
18.14378693313964
 20
28.69836451234079
 30
0.0
 10
17.82528785544869
 20
28.69836451234079
 30
0.0
 10
17.57017853470215
 20
28.953301578313
 30
0.0
 10
17.57017853470215
 20
29.27162840122968
 30
0.0
 10
17.57017853470215
 20
29.59064424324356
 30
0.0
 10
17.82528785544869
 20
29.8459258187644
 30
0.0
 10
18.14378693313964
 20
29.8459258187644
 30
0.0
  0
SPLINE
  5
614
330
1F
100
AcDbEntity
  8
0
100
AcDbSpline
210
0.0
220
0.0
230
1.0
 70
     8
 71
     3
 72
    17
 73
    13
 74
     0
 42
0.0000000001
 43
0.0000000001
 40
0.0
 40
0.0
 40
0.0
 40
0.0
 40
1.0
 40
1.0
 40
1.0
 40
2.0
 40
2.0
 40
2.0
 40
3.0
 40
3.0
 40
3.0
 40
4.0
 40
4.0
 40
4.0
 40
4.0
 10
17.82528785544869
 20
35.00564532831301
 30
0.0
 10
17.76207035327854
 20
35.00564532831301
 30
0.0
 10
17.69799157723688
 20
35.00564532831301
 30
0.0
 10
17.69799157723688
 20
35.00564532831301
 30
0.0
 10
17.69799157723688
 20
34.94122204272274
 30
0.0
 10
18.01614614537922
 20
35.00564532831301
 30
0.0
 10
18.3346452230702
 20
35.06903508525745
 30
0.0
 10
18.71739533157715
 20
35.13380288039633
 30
0.0
 10
18.97216014277507
 20
35.26058239428522
 30
0.0
 10
18.97216014277507
 20
35.26058239428522
 30
0.0
 10
18.97216014277507
 20
35.26058239428522
 30
0.0
 10
18.9082536215077
 20
35.26058239428522
 30
0.0
 10
18.84451935501465
 20
35.26058239428522
 30
0.0
  0
SPLINE
  5
615
330
1F
100
AcDbEntity
  8
0
100
AcDbSpline
210
0.0
220
0.0
230
1.0
 70
     8
 71
     3
 72
    14
 73
    10
 74
     0
 42
0.0000000001
 43
0.0000000001
 40
0.0
 40
0.0
 40
0.0
 40
0.0
 40
1.0
 40
1.0
 40
1.0
 40
2.0
 40
2.0
 40
2.0
 40
3.0
 40
3.0
 40
3.0
 40
3.0
 10
18.07970815709798
 20
36.66239174758383
 30
0.0
 10
18.07970815709798
 20
36.66239174758383
 30
0.0
 10
17.57017853470215
 20
36.66239174758383
 30
0.0
 10
17.57017853470215
 20
36.66239174758383
 30
0.0
 10
17.37966475432022
 20
36.59796846199356
 30
0.0
 10
17.25167945701119
 20
36.40745468161162
 30
0.0
 10
17.31558597827855
 20
36.21694090122968
 30
0.0
 10
17.31558597827855
 20
36.02470457310468
 30
0.0
 10
17.44253774694172
 20
35.89758054966716
 30
0.0
 10
17.63408505596951
 20
35.89758054966716
 30
0.0
  0
SPLINE
  5
616
330
1F
100
AcDbEntity
  8
0
100
AcDbSpline
210
0.0
220
0.0
230
1.0
 70
     8
 71
     3
 72
    11
 73
     7
 74
     0
 42
0.0000000001
 43
0.0000000001
 40
0.0
 40
0.0
 40
0.0
 40
0.0
 40
1.0
 40
1.0
 40
1.0
 40
2.0
 40
2.0
 40
2.0
 40
2.0
 10
17.63408505596951
 20
35.96200383525745
 30
0.0
 10
17.63408505596951
 20
35.96200383525745
 30
0.0
 10
17.88919437671605
 20
35.96200383525745
 30
0.0
 10
18.14378693313964
 20
36.02470457310468
 30
0.0
 10
18.3992407634348
 20
36.08878334914635
 30
0.0
 10
18.65366106508408
 20
36.15251761563938
 30
0.0
 10
18.65366106508408
 20
36.21694090122968
 30
0.0
  0
SPLINE
  5
617
330
1F
100
AcDbEntity
  8
0
100
AcDbSpline
210
0.0
220
0.0
230
1.0
 70
     8
 71
     3
 72
    11
 73
     7
 74
     0
 42
0.0000000001
 43
0.0000000001
 40
0.0
 40
0.0
 40
0.0
 40
0.0
 40
1.0
 40
1.0
 40
1.0
 40
2.0
 40
2.0
 40
2.0
 40
2.0
 10
17.69799157723688
 20
35.45109617466717
 30
0.0
 10
17.69799157723688
 20
35.45109617466717
 30
0.0
 10
17.95258413366048
 20
35.51448593161162
 30
0.0
 10
18.20734894485841
 20
35.57925372675051
 30
0.0
 10
18.52619253209798
 20
35.64333250279217
 30
0.0
 10
18.71739533157715
 20
35.70706676928522
 30
0.0
 10
18.71739533157715
 20
35.70706676928522
 30
0.0
  0
SPLINE
  5
618
330
1F
100
AcDbEntity
  8
0
100
AcDbSpline
210
0.0
220
0.0
230
1.0
 70
    11
 71
     3
 72
    23
 73
    19
 74
     0
 42
0.0000000001
 43
0.0000000001
 40
0.0
 40
0.0
 40
0.0
 40
0.0
 40
1.0
 40
1.0
 40
1.0
 40
2.0
 40
2.0
 40
2.0
 40
3.0
 40
3.0
 40
3.0
 40
4.0
 40
4.0
 40
4.0
 40
5.0
 40
5.0
 40
5.0
 40
6.0
 40
6.0
 40
6.0
 40
6.0
 10
18.01614614537922
 20
36.66239174758383
 30
0.0
 10
17.69799157723688
 20
36.59796846199356
 30
0.0
 10
17.50644426820906
 20
36.28033065817412
 30
0.0
 10
17.57017853470215
 20
36.02470457310468
 30
0.0
 10
17.82528785544869
 20
35.00564532831301
 30
0.0
 10
17.82528785544869
 20
35.00564532831301
 30
0.0
 10
17.82528785544869
 20
35.00564532831301
 30
0.0
 10
17.82528785544869
 20
35.00564532831301
 30
0.0
 10
18.07970815709798
 20
35.00564532831301
 30
0.0
 10
18.3346452230702
 20
35.06903508525745
 30
0.0
 10
18.65366106508408
 20
35.13380288039633
 30
0.0
 10
18.84451935501465
 20
35.19822616598662
 30
0.0
 10
18.84451935501465
 20
35.26058239428522
 30
0.0
 10
18.65366106508408
 20
36.28033065817412
 30
0.0
 10
18.65366106508408
 20
36.28033065817412
 30
0.0
 10
18.65366106508408
 20
36.28033065817412
 30
0.0
 10
18.58975454381675
 20
36.53492321459772
 30
0.0
 10
18.27091095657715
 20
36.72715954272272
 30
0.0
 10
18.01614614537922
 20
36.66239174758383
 30
0.0
  0
SPLINE
  5
619
330
1F
100
AcDbEntity
  8
0
100
AcDbSpline
210
0.0
220
0.0
230
1.0
 70
     8
 71
     3
 72
    17
 73
    13
 74
     0
 42
0.0000000001
 43
0.0000000001
 40
0.0
 40
0.0
 40
0.0
 40
0.0
 40
1.0
 40
1.0
 40
1.0
 40
2.0
 40
2.0
 40
2.0
 40
3.0
 40
3.0
 40
3.0
 40
4.0
 40
4.0
 40
4.0
 40
4.0
 10
18.01614614537922
 20
34.24186765904218
 30
0.0
 10
18.52619253209798
 20
31.88404430834772
 30
0.0
 10
18.52619253209798
 20
31.88404430834772
 30
0.0
 10
18.52619253209798
 20
31.88404430834772
 30
0.0
 10
18.52619253209798
 20
31.88404430834772
 30
0.0
 10
18.7806128337473
 20
31.88404430834772
 30
0.0
 10
19.03537764494518
 20
31.94777857484079
 30
0.0
 10
19.3542212321848
 20
32.01185735088245
 30
0.0
 10
19.54576854121256
 20
32.07524710782689
 30
0.0
 10
19.54576854121256
 20
32.13898137431994
 30
0.0
 10
19.03537764494518
 20
34.49542668681995
 30
0.0
 10
19.03537764494518
 20
34.49542668681995
 30
0.0
 10
19.03537764494518
 20
34.49542668681995
 30
0.0
  0
SPLINE
  5
61A
330
1F
100
AcDbEntity
  8
0
100
AcDbSpline
210
0.0
220
0.0
230
1.0
 70
     8
 71
     3
 72
    17
 73
    13
 74
     0
 42
0.0000000001
 43
0.0000000001
 40
0.0
 40
0.0
 40
0.0
 40
0.0
 40
1.0
 40
1.0
 40
1.0
 40
2.0
 40
2.0
 40
2.0
 40
3.0
 40
3.0
 40
3.0
 40
4.0
 40
4.0
 40
4.0
 40
4.0
 10
18.52619253209798
 20
31.88404430834772
 30
0.0
 10
18.46211375605631
 20
31.88404430834772
 30
0.0
 10
18.3992407634348
 20
31.88404430834772
 30
0.0
 10
18.3992407634348
 20
31.88404430834772
 30
0.0
 10
18.3992407634348
 20
31.82031004185467
 30
0.0
 10
18.71739533157715
 20
31.88404430834772
 30
0.0
 10
19.03537764494518
 20
31.94777857484079
 30
0.0
 10
19.41812775345215
 20
32.01185735088245
 30
0.0
 10
19.67272030987576
 20
32.13898137431994
 30
0.0
 10
19.67272030987576
 20
32.13898137431994
 30
0.0
 10
19.67272030987576
 20
32.13898137431994
 30
0.0
 10
19.60967506247994
 20
32.13898137431994
 30
0.0
 10
19.54576854121256
 20
32.13898137431994
 30
0.0
  0
SPLINE
  5
61B
330
1F
100
AcDbEntity
  8
0
100
AcDbSpline
210
0.0
220
0.0
230
1.0
 70
     8
 71
     3
 72
    17
 73
    13
 74
     0
 42
0.0000000001
 43
0.0000000001
 40
0.0
 40
0.0
 40
0.0
 40
0.0
 40
1.0
 40
1.0
 40
1.0
 40
2.0
 40
2.0
 40
2.0
 40
3.0
 40
3.0
 40
3.0
 40
4.0
 40
4.0
 40
4.0
 40
4.0
 10
17.69799157723688
 20
35.00564532831301
 30
0.0
 10
17.88919437671605
 20
34.24186765904218
 30
0.0
 10
17.88919437671605
 20
34.24186765904218
 30
0.0
 10
17.88919437671605
 20
34.24186765904218
 30
0.0
 10
17.88919437671605
 20
34.24186765904218
 30
0.0
 10
18.14378693313964
 20
34.24186765904218
 30
0.0
 10
18.52619253209798
 20
34.36830266338244
 30
0.0
 10
18.84451935501465
 20
34.43238143942411
 30
0.0
 10
19.09911191143826
 20
34.49542668681995
 30
0.0
 10
19.09911191143826
 20
34.49542668681995
 30
0.0
 10
18.97216014277507
 20
35.26058239428522
 30
0.0
 10
18.97216014277507
 20
35.26058239428522
 30
0.0
 10
18.97216014277507
 20
35.26058239428522
 30
0.0
  0
POLYLINE
  5
61C
330
1F
100
AcDbEntity
  8
0
100
AcDb2dPolyline
 66
     1
 10
0.0
 20
0.0
 30
0.0
 70
     1
  0
VERTEX
  5
61D
330
61C
100
AcDbEntity
  8
0
100
AcDbVertex
100
AcDb2dVertex
 10
24.19681922350425
 20
23.02911587171579
 30
0.0
  0
VERTEX
  5
61E
330
61C
100
AcDbEntity
  8
0
100
AcDbVertex
100
AcDb2dVertex
 10
26.68038922350425
 20
23.02911587171579
 30
0.0
  0
VERTEX
  5
61F
330
61C
100
AcDbEntity
  8
0
100
AcDbVertex
100
AcDb2dVertex
 10
26.68038922350425
 20
22.26361487171578
 30
0.0
  0
VERTEX
  5
620
330
61C
100
AcDbEntity
  8
0
100
AcDbVertex
100
AcDb2dVertex
 10
24.19681922350425
 20
22.26361487171578
 30
0.0
  0
SEQEND
  5
621
330
61C
100
AcDbEntity
  8
0
  0
POLYLINE
  5
622
330
1F
100
AcDbEntity
  8
0
100
AcDb2dPolyline
 66
     1
 10
0.0
 20
0.0
 30
0.0
  0
VERTEX
  5
623
330
622
100
AcDbEntity
  8
0
100
AcDbVertex
100
AcDb2dVertex
 10
18.07970822350424
 20
21.43506987171579
 30
0.0
  0
VERTEX
  5
624
330
622
100
AcDbEntity
  8
0
100
AcDbVertex
100
AcDb2dVertex
 10
18.07970822350424
 20
22.70975487171579
 30
0.0
  0
VERTEX
  5
625
330
622
100
AcDbEntity
  8
0
100
AcDbVertex
100
AcDb2dVertex
 10
17.88919422350424
 20
22.83722387171578
 30
0.0
  0
VERTEX
  5
626
330
622
100
AcDbEntity
  8
0
100
AcDbVertex
100
AcDb2dVertex
 10
17.63408522350424
 20
22.83722387171578
 30
0.0
  0
VERTEX
  5
627
330
622
100
AcDbEntity
  8
0
100
AcDbVertex
100
AcDb2dVertex
 10
17.63408522350424
 20
21.24455587171578
 30
0.0
  0
VERTEX
  5
628
330
622
100
AcDbEntity
  8
0
100
AcDbVertex
100
AcDb2dVertex
 10
17.88919422350424
 20
21.24455587171578
 30
0.0
  0
VERTEX
  5
629
330
622
100
AcDbEntity
  8
0
100
AcDbVertex
100
AcDb2dVertex
 10
18.07970822350424
 20
21.43506987171579
 30
0.0
  0
SEQEND
  5
62A
330
622
100
AcDbEntity
  8
0
  0
LINE
  5
62B
330
1F
100
AcDbEntity
  8
0
100
AcDbLine
 10
17.63442922350425
 20
21.56288287171578
 30
0.0
 11
17.82528822350424
 21
21.56288287171578
 31
0.0
  0
LINE
  5
62C
330
1F
100
AcDbEntity
  8
0
100
AcDbLine
 10
17.63442922350425
 20
21.81816387171579
 30
0.0
 11
17.82528822350424
 21
21.81816387171579
 31
0.0
  0
LINE
  5
62D
330
1F
100
AcDbEntity
  8
0
100
AcDbLine
 10
17.63442922350425
 20
22.26361487171578
 30
0.0
 11
17.82528822350424
 21
22.26361487171578
 31
0.0
  0
LINE
  5
62E
330
1F
100
AcDbEntity
  8
0
100
AcDbLine
 10
17.63442922350425
 20
22.51924087171579
 30
0.0
 11
17.82528822350424
 21
22.51924087171579
 31
0.0
  0
POLYLINE
  5
62F
330
1F
100
AcDbEntity
  8
0
100
AcDb2dPolyline
 66
     1
 10
0.0
 20
0.0
 30
0.0
  0
VERTEX
  5
630
330
62F
100
AcDbEntity
  8
0
100
AcDbVertex
100
AcDb2dVertex
 10
17.88919422350424
 20
22.83722387171578
 30
0.0
  0
VERTEX
  5
631
330
62F
100
AcDbEntity
  8
0
100
AcDbVertex
100
AcDb2dVertex
 10
17.95292822350424
 20
22.64670987171579
 30
0.0
  0
VERTEX
  5
632
330
62F
100
AcDbEntity
  8
0
100
AcDbVertex
100
AcDb2dVertex
 10
17.82528822350424
 20
22.51924087171579
 30
0.0
  0
VERTEX
  5
633
330
62F
100
AcDbEntity
  8
0
100
AcDbVertex
100
AcDb2dVertex
 10
17.82528822350424
 20
22.26361487171578
 30
0.0
  0
VERTEX
  5
634
330
62F
100
AcDbEntity
  8
0
100
AcDbVertex
100
AcDb2dVertex
 10
17.95292822350424
 20
22.00971187171578
 30
0.0
  0
VERTEX
  5
635
330
62F
100
AcDbEntity
  8
0
100
AcDbVertex
100
AcDb2dVertex
 10
17.82528822350424
 20
21.81816387171579
 30
0.0
  0
VERTEX
  5
636
330
62F
100
AcDbEntity
  8
0
100
AcDbVertex
100
AcDb2dVertex
 10
17.82528822350424
 20
21.56288287171578
 30
0.0
  0
VERTEX
  5
637
330
62F
100
AcDbEntity
  8
0
100
AcDbVertex
100
AcDb2dVertex
 10
17.95292822350424
 20
21.37133587171579
 30
0.0
  0
VERTEX
  5
638
330
62F
100
AcDbEntity
  8
0
100
AcDbVertex
100
AcDb2dVertex
 10
17.82528822350424
 20
21.24490087171579
 30
0.0
  0
SEQEND
  5
639
330
62F
100
AcDbEntity
  8
0
  0
POLYLINE
  5
63A
330
1F
100
AcDbEntity
  8
0
100
AcDb2dPolyline
 66
     1
 10
0.0
 20
0.0
 30
0.0
 70
     1
  0
VERTEX
  5
63B
330
63A
100
AcDbEntity
  8
0
100
AcDbVertex
100
AcDb2dVertex
 10
18.07970822350424
 20
22.58297587171579
 30
0.0
  0
VERTEX
  5
63C
330
63A
100
AcDbEntity
  8
0
100
AcDbVertex
100
AcDb2dVertex
 10
21.77577922350424
 20
22.58297587171579
 30
0.0
  0
VERTEX
  5
63D
330
63A
100
AcDbEntity
  8
0
100
AcDbVertex
100
AcDb2dVertex
 10
21.77577922350424
 20
21.50052687171578
 30
0.0
  0
VERTEX
  5
63E
330
63A
100
AcDbEntity
  8
0
100
AcDbVertex
100
AcDb2dVertex
 10
18.07970822350424
 20
21.50052687171578
 30
0.0
  0
SEQEND
  5
63F
330
63A
100
AcDbEntity
  8
0
  0
POLYLINE
  5
640
330
1F
100
AcDbEntity
  8
0
100
AcDb2dPolyline
 66
     1
 10
0.0
 20
0.0
 30
0.0
  0
VERTEX
  5
641
330
640
100
AcDbEntity
  8
0
100
AcDbVertex
100
AcDb2dVertex
 10
15.91463822350424
 20
20.60755787171578
 30
0.0
  0
VERTEX
  5
642
330
640
100
AcDbEntity
  8
0
100
AcDbVertex
100
AcDb2dVertex
 10
17.25167922350425
 20
20.60755787171578
 30
0.0
  0
VERTEX
  5
643
330
640
100
AcDbEntity
  8
0
100
AcDbVertex
100
AcDb2dVertex
 10
17.37966522350425
 20
20.86249487171579
 30
0.0
  0
VERTEX
  5
644
330
640
100
AcDbEntity
  8
0
100
AcDbVertex
100
AcDb2dVertex
 10
17.37966522350425
 20
21.11743187171578
 30
0.0
  0
VERTEX
  5
645
330
640
100
AcDbEntity
  8
0
100
AcDbVertex
100
AcDb2dVertex
 10
15.78665222350425
 20
21.11743187171578
 30
0.0
  0
VERTEX
  5
646
330
640
100
AcDbEntity
  8
0
100
AcDbVertex
100
AcDb2dVertex
 10
15.78665222350425
 20
20.86249487171579
 30
0.0
  0
VERTEX
  5
647
330
640
100
AcDbEntity
  8
0
100
AcDbVertex
100
AcDb2dVertex
 10
15.91463822350424
 20
20.60755787171578
 30
0.0
  0
SEQEND
  5
648
330
640
100
AcDbEntity
  8
0
  0
LINE
  5
649
330
1F
100
AcDbEntity
  8
0
100
AcDbLine
 10
16.04124522350424
 20
21.05369787171579
 30
0.0
 11
16.04124522350424
 21
20.86249487171579
 31
0.0
  0
LINE
  5
64A
330
1F
100
AcDbEntity
  8
0
100
AcDbLine
 10
16.35957222350424
 20
21.05369787171579
 30
0.0
 11
16.35957222350424
 21
20.86249487171579
 31
0.0
  0
LINE
  5
64B
330
1F
100
AcDbEntity
  8
0
100
AcDbLine
 10
16.80571222350424
 20
21.05369787171579
 30
0.0
 11
16.80571222350424
 21
20.86249487171579
 31
0.0
  0
LINE
  5
64C
330
1F
100
AcDbEntity
  8
0
100
AcDbLine
 10
16.99691422350425
 20
21.05369787171579
 30
0.0
 11
16.99691422350425
 21
20.86249487171579
 31
0.0
  0
POLYLINE
  5
64D
330
1F
100
AcDbEntity
  8
0
100
AcDb2dPolyline
 66
     1
 10
0.0
 20
0.0
 30
0.0
  0
VERTEX
  5
64E
330
64D
100
AcDbEntity
  8
0
100
AcDbVertex
100
AcDb2dVertex
 10
17.37966522350425
 20
20.86249487171579
 30
0.0
  0
VERTEX
  5
64F
330
64D
100
AcDbEntity
  8
0
100
AcDbVertex
100
AcDb2dVertex
 10
17.18742822350425
 20
20.79876087171579
 30
0.0
  0
VERTEX
  5
650
330
64D
100
AcDbEntity
  8
0
100
AcDbVertex
100
AcDb2dVertex
 10
17.06082122350425
 20
20.86249487171579
 30
0.0
  0
VERTEX
  5
651
330
64D
100
AcDbEntity
  8
0
100
AcDbVertex
100
AcDb2dVertex
 10
16.74232222350424
 20
20.86249487171579
 30
0.0
  0
VERTEX
  5
652
330
64D
100
AcDbEntity
  8
0
100
AcDbVertex
100
AcDb2dVertex
 10
16.55077522350424
 20
20.79876087171579
 30
0.0
  0
VERTEX
  5
653
330
64D
100
AcDbEntity
  8
0
100
AcDbVertex
100
AcDb2dVertex
 10
16.35957222350424
 20
20.86249487171579
 30
0.0
  0
VERTEX
  5
654
330
64D
100
AcDbEntity
  8
0
100
AcDbVertex
100
AcDb2dVertex
 10
16.04124522350424
 20
20.86249487171579
 30
0.0
  0
VERTEX
  5
655
330
64D
100
AcDbEntity
  8
0
100
AcDbVertex
100
AcDb2dVertex
 10
15.91463822350424
 20
20.79876087171579
 30
0.0
  0
VERTEX
  5
656
330
64D
100
AcDbEntity
  8
0
100
AcDbVertex
100
AcDb2dVertex
 10
15.78665222350425
 20
20.86249487171579
 30
0.0
  0
SEQEND
  5
657
330
64D
100
AcDbEntity
  8
0
  0
POLYLINE
  5
658
330
1F
100
AcDbEntity
  8
0
100
AcDb2dPolyline
 66
     1
 10
0.0
 20
0.0
 30
0.0
 70
     1
  0
VERTEX
  5
659
330
658
100
AcDbEntity
  8
0
100
AcDbVertex
100
AcDb2dVertex
 10
16.04124522350424
 20
20.60755787171578
 30
0.0
  0
VERTEX
  5
65A
330
658
100
AcDbEntity
  8
0
100
AcDbVertex
100
AcDb2dVertex
 10
17.12403822350424
 20
20.60755787171578
 30
0.0
  0
VERTEX
  5
65B
330
658
100
AcDbEntity
  8
0
100
AcDbVertex
100
AcDb2dVertex
 10
17.12403822350424
 20
18.50501587171579
 30
0.0
  0
VERTEX
  5
65C
330
658
100
AcDbEntity
  8
0
100
AcDbVertex
100
AcDb2dVertex
 10
16.04124522350424
 20
18.50501587171579
 30
0.0
  0
SEQEND
  5
65D
330
658
100
AcDbEntity
  8
0
  0
POLYLINE
  5
65E
330
1F
100
AcDbEntity
  8
0
100
AcDb2dPolyline
 66
     1
 10
0.0
 20
0.0
 30
0.0
  0
VERTEX
  5
65F
330
65E
100
AcDbEntity
  8
0
100
AcDbVertex
100
AcDb2dVertex
 10
17.25167922350425
 20
23.53864487171578
 30
0.0
  0
VERTEX
  5
660
330
65E
100
AcDbEntity
  8
0
100
AcDbVertex
100
AcDb2dVertex
 10
15.91463822350424
 20
23.53864487171578
 30
0.0
  0
VERTEX
  5
661
330
65E
100
AcDbEntity
  8
0
100
AcDbVertex
100
AcDb2dVertex
 10
15.78665222350425
 20
23.34744187171579
 30
0.0
  0
VERTEX
  5
662
330
65E
100
AcDbEntity
  8
0
100
AcDbVertex
100
AcDb2dVertex
 10
15.78665222350425
 20
23.09181587171579
 30
0.0
  0
VERTEX
  5
663
330
65E
100
AcDbEntity
  8
0
100
AcDbVertex
100
AcDb2dVertex
 10
17.37966522350425
 20
23.09181587171579
 30
0.0
  0
VERTEX
  5
664
330
65E
100
AcDbEntity
  8
0
100
AcDbVertex
100
AcDb2dVertex
 10
17.37966522350425
 20
23.34744187171579
 30
0.0
  0
VERTEX
  5
665
330
65E
100
AcDbEntity
  8
0
100
AcDbVertex
100
AcDb2dVertex
 10
17.25167922350425
 20
23.53864487171578
 30
0.0
  0
SEQEND
  5
666
330
65E
100
AcDbEntity
  8
0
  0
SPLINE
  5
667
330
1F
100
AcDbEntity
  8
0
100
AcDbSpline
210
0.0
220
0.0
230
1.0
 70
    11
 71
     3
 72
    53
 73
    49
 74
     0
 42
0.0000000001
 43
0.0000000001
 40
0.0
 40
0.0
 40
0.0
 40
0.0
 40
1.0
 40
1.0
 40
1.0
 40
2.0
 40
2.0
 40
2.0
 40
3.0
 40
3.0
 40
3.0
 40
4.0
 40
4.0
 40
4.0
 40
5.0
 40
5.0
 40
5.0
 40
6.0
 40
6.0
 40
6.0
 40
7.0
 40
7.0
 40
7.0
 40
8.0
 40
8.0
 40
8.0
 40
9.0
 40
9.0
 40
9.0
 40
10.0
 40
10.0
 40
10.0
 40
11.0
 40
11.0
 40
11.0
 40
12.0
 40
12.0
 40
12.0
 40
13.0
 40
13.0
 40
13.0
 40
14.0
 40
14.0
 40
14.0
 40
15.0
 40
15.0
 40
15.0
 40
16.0
 40
16.0
 40
16.0
 40
16.0
 10
17.44288225649033
 20
22.64670978143801
 30
0.0
 10
17.37966475432022
 20
22.64670978143801
 30
0.0
 10
17.25167945701119
 20
22.77383380487551
 30
0.0
 10
17.25167945701119
 20
22.9006133187644
 30
0.0
 10
17.25167945701119
 20
22.96538111390328
 30
0.0
 10
17.25167945701119
 20
23.09181611824355
 30
0.0
 10
17.25167945701119
 20
23.09181611824355
 30
0.0
 10
15.91463789885146
 20
23.09181611824355
 30
0.0
 10
15.91463789885146
 20
23.09181611824355
 30
0.0
 10
15.91463789885146
 20
23.09181611824355
 30
0.0
 10
15.91463789885146
 20
23.09181611824355
 30
0.0
 10
15.91463789885146
 20
22.96538111390328
 30
0.0
 10
15.91463789885146
 20
22.9006133187644
 30
0.0
 10
15.91463789885146
 20
22.77383380487551
 30
0.0
 10
15.9778554010216
 20
22.64670978143801
 30
0.0
 10
15.9778554010216
 20
22.64670978143801
 30
0.0
 10
16.04124515796606
 20
22.64670978143801
 30
0.0
 10
16.04124515796606
 20
22.5192412484519
 30
0.0
 10
16.04124515796606
 20
22.39177271546578
 30
0.0
 10
16.04124515796606
 20
21.69104029359079
 30
0.0
 10
16.04124515796606
 20
21.69104029359079
 30
0.0
 10
16.04124515796606
 20
21.69104029359079
 30
0.0
 10
16.04124515796606
 20
21.56288274150745
 30
0.0
 10
16.04124515796606
 20
21.43541420852133
 30
0.0
 10
15.9778554010216
 20
21.43541420852133
 30
0.0
 10
15.9778554010216
 20
21.43541420852133
 30
0.0
 10
15.91463789885146
 20
21.37133543247967
 30
0.0
 10
15.91463789885146
 20
21.2449004281394
 30
0.0
 10
15.91463789885146
 20
21.18013263300051
 30
0.0
 10
15.91463789885146
 20
21.11743189515328
 30
0.0
 10
15.91463789885146
 20
21.11743189515328
 30
0.0
 10
17.25167945701119
 20
21.11743189515328
 30
0.0
 10
17.25167945701119
 20
21.11743189515328
 30
0.0
 10
17.25167945701119
 20
21.11743189515328
 30
0.0
 10
17.25167945701119
 20
21.11743189515328
 30
0.0
 10
17.25167945701119
 20
21.18013263300051
 30
0.0
 10
17.25167945701119
 20
21.2449004281394
 30
0.0
 10
17.25167945701119
 20
21.37133543247967
 30
0.0
 10
17.37966475432022
 20
21.43541420852133
 30
0.0
 10
17.44288225649033
 20
21.43541420852133
 30
0.0
 10
17.63442956551815
 20
21.43541420852133
 30
0.0
 10
17.63442956551815
 20
21.43541420852133
 30
0.0
 10
17.63442956551815
 20
21.43541420852133
 30
0.0
 10
17.63442956551815
 20
22.64670978143801
 30
0.0
 10
17.63442956551815
 20
22.64670978143801
 30
0.0
 10
17.63442956551815
 20
22.64670978143801
 30
0.0
 10
17.44288225649033
 20
22.64670978143801
 30
0.0
 10
17.44288225649033
 20
22.64670978143801
 30
0.0
 10
17.44288225649033
 20
22.64670978143801
 30
0.0
  0
POLYLINE
  5
668
330
1F
100
AcDbEntity
  8
0
100
AcDb2dPolyline
 66
     1
 10
0.0
 20
0.0
 30
0.0
  0
VERTEX
  5
669
330
668
100
AcDbEntity
  8
0
100
AcDbVertex
100
AcDb2dVertex
 10
16.04124522350424
 20
25.70457687171579
 30
0.0
  0
VERTEX
  5
66A
330
668
100
AcDbEntity
  8
0
100
AcDbVertex
100
AcDb2dVertex
 10
17.18742822350425
 20
25.70457687171579
 30
0.0
  0
VERTEX
  5
66B
330
668
100
AcDbEntity
  8
0
100
AcDbVertex
100
AcDb2dVertex
 10
17.50678922350424
 20
25.95847987171578
 30
0.0
  0
VERTEX
  5
66C
330
668
100
AcDbEntity
  8
0
100
AcDbVertex
100
AcDb2dVertex
 10
15.78665222350425
 20
25.95847987171578
 30
0.0
  0
VERTEX
  5
66D
330
668
100
AcDbEntity
  8
0
100
AcDbVertex
100
AcDb2dVertex
 10
16.04124522350424
 20
25.70457687171579
 30
0.0
  0
SEQEND
  5
66E
330
668
100
AcDbEntity
  8
0
  0
LINE
  5
66F
330
1F
100
AcDbEntity
  8
0
100
AcDbLine
 10
17.12403822350424
 20
23.09181587171579
 30
0.0
 11
17.12403822350424
 21
23.28232987171578
 31
0.0
  0
LINE
  5
670
330
1F
100
AcDbEntity
  8
0
100
AcDbLine
 10
16.86996322350424
 20
23.09181587171579
 30
0.0
 11
16.86996322350424
 21
23.28232987171578
 31
0.0
  0
LINE
  5
671
330
1F
100
AcDbEntity
  8
0
100
AcDbLine
 10
16.42330622350425
 20
23.09181587171579
 30
0.0
 11
16.42330622350425
 21
23.28232987171578
 31
0.0
  0
LINE
  5
672
330
1F
100
AcDbEntity
  8
0
100
AcDbLine
 10
16.16836922350425
 20
23.09181587171579
 30
0.0
 11
16.16836922350425
 21
23.28232987171578
 31
0.0
  0
POLYLINE
  5
673
330
1F
100
AcDbEntity
  8
0
100
AcDb2dPolyline
 66
     1
 10
0.0
 20
0.0
 30
0.0
  0
VERTEX
  5
674
330
673
100
AcDbEntity
  8
0
100
AcDbVertex
100
AcDb2dVertex
 10
15.78665222350425
 20
23.34744187171579
 30
0.0
  0
VERTEX
  5
675
330
673
100
AcDbEntity
  8
0
100
AcDbVertex
100
AcDb2dVertex
 10
15.97785522350425
 20
23.41048787171579
 30
0.0
  0
VERTEX
  5
676
330
673
100
AcDbEntity
  8
0
100
AcDbVertex
100
AcDb2dVertex
 10
16.16836922350425
 20
23.28232987171578
 30
0.0
  0
VERTEX
  5
677
330
673
100
AcDbEntity
  8
0
100
AcDbVertex
100
AcDb2dVertex
 10
16.42330622350425
 20
23.28232987171578
 30
0.0
  0
VERTEX
  5
678
330
673
100
AcDbEntity
  8
0
100
AcDbVertex
100
AcDb2dVertex
 10
16.61416422350425
 20
23.41048787171579
 30
0.0
  0
VERTEX
  5
679
330
673
100
AcDbEntity
  8
0
100
AcDbVertex
100
AcDb2dVertex
 10
16.86996322350424
 20
23.28232987171578
 30
0.0
  0
VERTEX
  5
67A
330
673
100
AcDbEntity
  8
0
100
AcDbVertex
100
AcDb2dVertex
 10
17.12403822350424
 20
23.28232987171578
 30
0.0
  0
VERTEX
  5
67B
330
673
100
AcDbEntity
  8
0
100
AcDbVertex
100
AcDb2dVertex
 10
17.25167922350425
 20
23.41048787171579
 30
0.0
  0
VERTEX
  5
67C
330
673
100
AcDbEntity
  8
0
100
AcDbVertex
100
AcDb2dVertex
 10
17.37966522350425
 20
23.28232987171578
 30
0.0
  0
SEQEND
  5
67D
330
673
100
AcDbEntity
  8
0
  0
POLYLINE
  5
67E
330
1F
100
AcDbEntity
  8
0
100
AcDb2dPolyline
 66
     1
 10
0.0
 20
0.0
 30
0.0
 70
     1
  0
VERTEX
  5
67F
330
67E
100
AcDbEntity
  8
0
100
AcDbVertex
100
AcDb2dVertex
 10
16.04124522350424
 20
25.70457687171579
 30
0.0
  0
VERTEX
  5
680
330
67E
100
AcDbEntity
  8
0
100
AcDbVertex
100
AcDb2dVertex
 10
17.18742822350425
 20
25.70457687171579
 30
0.0
  0
VERTEX
  5
681
330
67E
100
AcDbEntity
  8
0
100
AcDbVertex
100
AcDb2dVertex
 10
17.18742822350425
 20
23.53864487171578
 30
0.0
  0
VERTEX
  5
682
330
67E
100
AcDbEntity
  8
0
100
AcDbVertex
100
AcDb2dVertex
 10
16.04124522350424
 20
23.53864487171578
 30
0.0
  0
SEQEND
  5
683
330
67E
100
AcDbEntity
  8
0
  0
POLYLINE
  5
684
330
1F
100
AcDbEntity
  8
0
100
AcDb2dPolyline
 66
     1
 10
0.0
 20
0.0
 30
0.0
  0
VERTEX
  5
685
330
684
100
AcDbEntity
  8
0
100
AcDbVertex
100
AcDb2dVertex
 10
16.04124522350424
 20
33.85946187171578
 30
0.0
  0
VERTEX
  5
686
330
684
100
AcDbEntity
  8
0
100
AcDbVertex
100
AcDb2dVertex
 10
17.25167922350425
 20
33.85946187171578
 30
0.0
  0
VERTEX
  5
687
330
684
100
AcDbEntity
  8
0
100
AcDbVertex
100
AcDb2dVertex
 10
17.25167922350425
 20
34.17744487171578
 30
0.0
  0
SEQEND
  5
688
330
684
100
AcDbEntity
  8
0
  0
SPLINE
  5
689
330
1F
100
AcDbEntity
  8
0
100
AcDbSpline
210
0.0
220
0.0
230
1.0
 70
    11
 71
     3
 72
    17
 73
    13
 74
     0
 42
0.0000000001
 43
0.0000000001
 40
0.0
 40
0.0
 40
0.0
 40
0.0
 40
1.0
 40
1.0
 40
1.0
 40
2.0
 40
2.0
 40
2.0
 40
3.0
 40
3.0
 40
3.0
 40
4.0
 40
4.0
 40
4.0
 40
4.0
 10
19.67272030987576
 20
29.97339435175051
 30
0.0
 10
19.3542212321848
 20
29.97339435175051
 30
0.0
 10
19.09945642098687
 20
30.22729788907689
 30
0.0
 10
19.09945642098687
 20
30.5466582406394
 30
0.0
 10
19.09945642098687
 20
30.86498506355607
 30
0.0
 10
19.3542212321848
 20
31.18365639602134
 30
0.0
 10
19.67272030987576
 20
31.18365639602134
 30
0.0
 10
19.99139164234103
 20
31.18365639602134
 30
0.0
 10
20.24563968921605
 20
30.86498506355607
 30
0.0
 10
20.24563968921605
 20
30.5466582406394
 30
0.0
 10
20.24563968921605
 20
30.22729788907689
 30
0.0
 10
19.99139164234103
 20
29.97339435175051
 30
0.0
 10
19.67272030987576
 20
29.97339435175051
 30
0.0
  0
SPLINE
  5
68A
330
1F
100
AcDbEntity
  8
0
100
AcDbSpline
210
0.0
220
0.0
230
1.0
 70
     8
 71
     3
 72
    23
 73
    19
 74
     0
 42
0.0000000001
 43
0.0000000001
 40
0.0
 40
0.0
 40
0.0
 40
0.0
 40
1.0
 40
1.0
 40
1.0
 40
2.0
 40
2.0
 40
2.0
 40
3.0
 40
3.0
 40
3.0
 40
4.0
 40
4.0
 40
4.0
 40
5.0
 40
5.0
 40
5.0
 40
6.0
 40
6.0
 40
6.0
 40
6.0
 10
19.86392310935494
 20
31.1202666390769
 30
0.0
 10
19.67272030987576
 20
32.13898137431994
 30
0.0
 10
19.67272030987576
 20
32.13898137431994
 30
0.0
 10
19.67272030987576
 20
32.13898137431994
 30
0.0
 10
19.67272030987576
 20
32.13898137431994
 30
0.0
 10
19.41812775345215
 20
32.01220186043107
 30
0.0
 10
19.03537764494518
 20
31.94777857484079
 30
0.0
 10
18.71739533157715
 20
31.88438881789634
 30
0.0
 10
18.3992407634348
 20
31.82065455140327
 30
0.0
 10
18.3992407634348
 20
31.88438881789634
 30
0.0
 10
18.71739533157715
 20
30.61039250713244
 30
0.0
 10
18.71739533157715
 20
30.61039250713244
 30
0.0
 10
18.71739533157715
 20
30.61039250713244
 30
0.0
 10
18.84486386456326
 20
30.86498506355607
 30
0.0
 10
19.09945642098687
 20
31.24670164341716
 30
0.0
 10
19.3542212321848
 20
31.31078041945884
 30
0.0
 10
19.4818620199452
 20
31.31078041945884
 30
0.0
 10
19.67272030987576
 20
31.24670164341716
 30
0.0
 10
19.73662683114312
 20
31.1202666390769
 30
0.0
  0
SPLINE
  5
68B
330
1F
100
AcDbEntity
  8
0
100
AcDbSpline
210
0.0
220
0.0
230
1.0
 70
     8
 71
     3
 72
    11
 73
     7
 74
     0
 42
0.0000000001
 43
0.0000000001
 40
0.0
 40
0.0
 40
0.0
 40
0.0
 40
1.0
 40
1.0
 40
1.0
 40
2.0
 40
2.0
 40
2.0
 40
2.0
 10
18.58975454381675
 20
29.97339435175051
 30
0.0
 10
18.27091095657715
 20
29.97339435175051
 30
0.0
 10
18.01649065492783
 20
30.22729788907689
 30
0.0
 10
18.01649065492783
 20
30.5466582406394
 30
0.0
 10
18.01649065492783
 20
30.86498506355607
 30
0.0
 10
18.27091095657715
 20
31.18365639602134
 30
0.0
 10
18.58975454381675
 20
31.18365639602134
 30
0.0
  0
SPLINE
  5
68C
330
1F
100
AcDbEntity
  8
0
100
AcDbSpline
210
0.0
220
0.0
230
1.0
 70
    11
 71
     3
 72
    29
 73
    25
 74
     0
 42
0.0000000001
 43
0.0000000001
 40
0.0
 40
0.0
 40
0.0
 40
0.0
 40
1.0
 40
1.0
 40
1.0
 40
2.0
 40
2.0
 40
2.0
 40
3.0
 40
3.0
 40
3.0
 40
4.0
 40
4.0
 40
4.0
 40
5.0
 40
5.0
 40
5.0
 40
6.0
 40
6.0
 40
6.0
 40
7.0
 40
7.0
 40
7.0
 40
8.0
 40
8.0
 40
8.0
 40
8.0
 10
14.44892202428549
 20
37.55467147848661
 30
0.0
 10
14.51196727168134
 20
37.87230928230606
 30
0.0
 10
14.63943580466743
 20
38.25540390036162
 30
0.0
 10
14.89437287063966
 20
38.51137449497968
 30
0.0
 10
19.60967506247994
 20
38.51137449497968
 30
0.0
 10
19.60967506247994
 20
38.51137449497968
 30
0.0
 10
19.60967506247994
 20
38.51137449497968
 30
0.0
 10
20.30989072003203
 20
38.44695120938938
 30
0.0
 10
20.30989072003203
 20
38.44695120938938
 30
0.0
 10
20.30989072003203
 20
38.44695120938938
 30
0.0
 10
54.9055395915598
 20
38.44695120938938
 30
0.0
 10
54.9055395915598
 20
38.44695120938938
 30
0.0
 10
54.9055395915598
 20
38.44695120938938
 30
0.0
 10
55.1601321479834
 20
38.51137449497968
 30
0.0
 10
55.1601321479834
 20
38.51137449497968
 30
0.0
 10
55.1601321479834
 20
38.51137449497968
 30
0.0
 10
60.57547774260147
 20
38.51137449497968
 30
0.0
 10
60.57547774260147
 20
38.51137449497968
 30
0.0
 10
60.57547774260147
 20
38.51137449497968
 30
0.0
 10
60.76702505162924
 20
38.19201414341717
 30
0.0
 10
60.89346005596954
 20
37.87230928230606
 30
0.0
 10
60.95788334155975
 20
37.55467147848661
 30
0.0
 10
14.44892202428549
 20
37.55467147848661
 30
0.0
 10
14.44892202428549
 20
37.55467147848661
 30
0.0
 10
14.44892202428549
 20
37.55467147848661
 30
0.0
  0
ENDSEC
  0
SECTION
  2
OBJECTS
  0
DICTIONARY
  5
C
330
0
100
AcDbDictionary
281
     1
  3
ACAD_COLOR
350
C9
  3
ACAD_GROUP
350
D
  3
ACAD_LAYOUT
350
1A
  3
ACAD_MATERIAL
350
C8
  3
ACAD_MLEADERSTYLE
350
2EC
  3
ACAD_MLINESTYLE
350
17
  3
ACAD_PLOTSETTINGS
350
19
  3
ACAD_PLOTSTYLENAME
350
E
  3
ACAD_SCALELIST
350
2CA
  3
ACAD_TABLESTYLE
350
123
  3
ACAD_VISUALSTYLE
350
296
  3
ACDB_RECOMPOSE_DATA
350
30D
  3
AcDbVariableDictionary
350
9E
  3
AcmDictionary
350
63
  3
AMG
350
49
  3
AMGSNAPSETTINGS
350
516
  3
ASE_INDEX_DICTIONARY
350
6AF
  0
DICTIONARY
  5
6AA
330
10
100
AcDbDictionary
280
     1
281
     1
  3
ADSK_XREC_LAYER_RECONCILED
360
6AB
  0
DICTIONARY
  5
6AC
330
38D
100
AcDbDictionary
280
     1
281
     1
  3
ADSK_XREC_LAYER_RECONCILED
360
6AD
  0
DICTIONARY
  5
99
330
1F
100
AcDbDictionary
280
     1
281
     1
  0
DICTIONARY
  5
C9
102
{ACAD_REACTORS
330
C
102
}
330
C
100
AcDbDictionary
281
     1
  0
DICTIONARY
  5
D
102
{ACAD_REACTORS
330
C
102
}
330
C
100
AcDbDictionary
281
     1
  0
DICTIONARY
  5
1A
102
{ACAD_REACTORS
330
C
102
}
330
C
100
AcDbDictionary
281
     1
  3
Layout1
350
1E
  3
Layout2
350
26
  3
Model
350
22
  0
DICTIONARY
  5
C8
102
{ACAD_REACTORS
330
C
102
}
330
C
100
AcDbDictionary
281
     1
  3
ByBlock
350
294
  3
ByLayer
350
293
  3
Global
350
295
  0
DICTIONARY
  5
2EC
102
{ACAD_REACTORS
330
C
102
}
330
C
100
AcDbDictionary
281
     1
  3
Standard
350
2ED
  0
DICTIONARY
  5
17
102
{ACAD_REACTORS
330
C
102
}
330
C
100
AcDbDictionary
281
     1
  3
Standard
350
18
  0
DICTIONARY
  5
19
102
{ACAD_REACTORS
330
C
102
}
330
C
100
AcDbDictionary
281
     1
  0
ACDBDICTIONARYWDFLT
  5
E
102
{ACAD_REACTORS
330
C
102
}
330
C
100
AcDbDictionary
281
     1
  3
Normal
350
F
100
AcDbDictionaryWithDefault
340
F
  0
DICTIONARY
  5
2CA
102
{ACAD_REACTORS
330
C
102
}
330
C
100
AcDbDictionary
281
     1
  3
A0
350
2CB
  3
A1
350
2CC
  3
A2
350
2CD
  3
A3
350
2CE
  3
A4
350
2CF
  3
A5
350
2D0
  3
A6
350
2D1
  3
A7
350
2D2
  3
A8
350
2D3
  3
A9
350
2D4
  3
B0
350
2D5
  3
B1
350
2D6
  3
B2
350
2D7
  3
B3
350
2D8
  3
B4
350
2D9
  3
B5
350
2DA
  3
B6
350
2DB
  3
B7
350
2DC
  3
B8
350
2DD
  3
B9
350
2DE
  3
C0
350
2DF
  3
C1
350
2E0
  3
C2
350
2E1
  3
C3
350
2E2
  3
C4
350
2E3
  3
C5
350
2E4
  3
C6
350
2E5
  3
C7
350
2E6
  3
C8
350
2E7
  3
C9
350
2E8
  3
D0
350
2E9
  3
D1
350
2EA
  3
D2
350
2EB
  0
DICTIONARY
  5
123
102
{ACAD_REACTORS
330
C
102
}
330
C
100
AcDbDictionary
281
     1
  3
Standard
350
124
  0
DICTIONARY
  5
296
102
{ACAD_REACTORS
330
C
102
}
330
C
100
AcDbDictionary
281
     1
  3
2dWireframe
350
29C
  3
3D Hidden
350
29E
  3
3dWireframe
350
29D
  3
Basic
350
29B
  3
Brighten
350
2A2
  3
ColorChange
350
2A6
  3
Conceptual
350
29F
  3
Dim
350
2A1
  3
Facepattern
350
2A5
  3
Flat
350
297
  3
FlatWithEdges
350
298
  3
Gouraud
350
299
  3
GouraudWithEdges
350
29A
  3
Linepattern
350
2A4
  3
Realistic
350
2A0
  3
Thicken
350
2A3
  0
XRECORD
  5
30D
102
{ACAD_REACTORS
330
C
102
}
330
C
100
AcDbXrecord
280
     1
 90
        1
330
124
  0
DICTIONARY
  5
9E
102
{ACAD_REACTORS
330
C
102
}
330
C
100
AcDbDictionary
281
     1
  3
CANNOSCALE
350
310
  3
CMLEADERSTYLE
350
30E
  3
CTABLESTYLE
350
144
  3
DIMASSOC
350
A0
  3
INDEXCTL
350
9F
  3
LAYEREVAL
350
36B
  3
LAYERNOTIFY
350
36C
  3
LIGHTINGUNITS
350
311
  3
MSLTSCALE
350
30F
  0
DICTIONARY
  5
63
102
{ACAD_REACTORS
330
C
102
}
330
C
100
AcDbDictionary
281
     1
  3
AcmStdDictionary
350
69
  3
AMDTSECTSYM_ARROWCOLOR
350
12C
  0
DICTIONARY
  5
49
102
{ACAD_REACTORS
330
C
102
}
330
C
100
AcDbDictionary
281
     1
  0
DICTIONARY
  5
516
102
{ACAD_REACTORS
330
C
102
}
330
C
100
AcDbDictionary
281
     1
  0
DICTIONARY
  5
6AF
102
{ACAD_REACTORS
330
C
102
}
330
C
100
AcDbDictionary
281
     1
  3
ASEBlockHierarchyIndexRecord
350
6B0
1001
DCO15
1040
1687866456.905
  0
XRECORD
  5
6AB
102
{ACAD_REACTORS
330
6AA
102
}
330
6AA
100
AcDbXrecord
280
     1
290
     1
  0
XRECORD
  5
6AD
102
{ACAD_REACTORS
330
6AC
102
}
330
6AC
100
AcDbXrecord
280
     1
290
     1
  0
LAYOUT
  5
1E
102
{ACAD_REACTORS
330
1A
102
}
330
1A
100
AcDbPlotSettings
  1

  2

  4

  6

 40
0.0
 41
0.0
 42
0.0
 43
0.0
 44
0.0
 45
0.0
 46
0.0
 47
0.0
 48
0.0
 49
0.0
140
0.0
141
0.0
142
1.0
143
1.0
 70
   688
 72
     0
 73
     0
 74
     5
  7

 75
    16
147
1.0
 76
     0
 77
     2
 78
   300
148
0.0
149
0.0
100
AcDbLayout
  1
Layout1
 70
     1
 71
     1
 10
0.0
 20
0.0
 11
12.0
 21
9.0
 12
0.0
 22
0.0
 32
0.0
 14
1.000000000000000E+20
 24
1.000000000000000E+20
 34
1.000000000000000E+20
 15
-1.000000000000000E+20
 25
-1.000000000000000E+20
 35
-1.000000000000000E+20
146
0.0
 13
0.0
 23
0.0
 33
0.0
 16
1.0
 26
0.0
 36
0.0
 17
0.0
 27
1.0
 37
0.0
 76
     0
330
1B
  0
LAYOUT
  5
26
102
{ACAD_REACTORS
330
1A
102
}
330
1A
100
AcDbPlotSettings
  1

  2

  4

  6

 40
0.0
 41
0.0
 42
0.0
 43
0.0
 44
0.0
 45
0.0
 46
0.0
 47
0.0
 48
0.0
 49
0.0
140
0.0
141
0.0
142
1.0
143
1.0
 70
   688
 72
     0
 73
     0
 74
     5
  7

 75
    16
147
1.0
 76
     0
 77
     2
 78
   300
148
0.0
149
0.0
100
AcDbLayout
  1
Layout2
 70
     1
 71
     2
 10
0.0
 20
0.0
 11
12.0
 21
9.0
 12
0.0
 22
0.0
 32
0.0
 14
0.0
 24
0.0
 34
0.0
 15
0.0
 25
0.0
 35
0.0
146
0.0
 13
0.0
 23
0.0
 33
0.0
 16
1.0
 26
0.0
 36
0.0
 17
0.0
 27
1.0
 37
0.0
 76
     0
330
23
  0
LAYOUT
  5
22
102
{ACAD_REACTORS
330
1A
102
}
330
1A
100
AcDbPlotSettings
  1

  2

  4

  6

 40
0.0
 41
0.0
 42
0.0
 43
0.0
 44
0.0
 45
0.0
 46
0.0
 47
0.0
 48
0.0
 49
0.0
140
0.0
141
0.0
142
1.0
143
1.0
 70
  1712
 72
     0
 73
     0
 74
     0
  7

 75
     0
147
1.0
 76
     0
 77
     2
 78
   300
148
0.0
149
0.0
100
AcDbLayout
  1
Model
 70
     1
 71
     0
 10
0.0
 20
0.0
 11
12.0
 21
9.0
 12
0.0
 22
0.0
 32
0.0
 14
0.0
 24
0.0
 34
0.0
 15
0.0
 25
0.0
 35
0.0
146
0.0
 13
0.0
 23
0.0
 33
0.0
 16
1.0
 26
0.0
 36
0.0
 17
0.0
 27
1.0
 37
0.0
 76
     0
330
1F
331
291
  0
MATERIAL
  5
294
102
{ACAD_REACTORS
330
C8
102
}
330
C8
100
AcDbMaterial
  1
ByBlock
 73
     1
 78
     1
172
     1
176
     1
270
     1
274
     1
 94
       63
  0
MATERIAL
  5
293
102
{ACAD_REACTORS
330
C8
102
}
330
C8
100
AcDbMaterial
  1
ByLayer
 73
     1
 78
     1
172
     1
176
     1
270
     1
274
     1
 94
       63
  0
MATERIAL
  5
295
102
{ACAD_REACTORS
330
C8
102
}
330
C8
100
AcDbMaterial
  1
Global
 73
     1
 78
     1
172
     1
176
     1
270
     1
274
     1
 94
       63
  0
MLEADERSTYLE
  5
2ED
102
{ACAD_REACTORS
330
2EC
102
}
330
2EC
100
AcDbMLeaderStyle
170
     2
171
     1
172
     0
 90
        2
 40
0.0
 41
0.0
173
     1
 91
-1056964608
340
14
 92
       -2
290
     1
 42
0.09
291
     1
 43
0.36
  3
Standard
 44
0.18
300

342
11
174
     1
178
     6
175
     1
176
     0
 93
-1056964608
 45
0.18
292
     0
297
     0
 46
0.18
 94
-1056964608
 47
1.0
 49
1.0
140
1.0
293
     1
141
0.0
294
     1
177
     0
142
1.0
295
     0
296
     0
143
0.125
1001
ACAD_MLEADERVER
1070
     2
  0
MLINESTYLE
  5
18
102
{ACAD_REACTORS
330
17
102
}
330
17
100
AcDbMlineStyle
  2
STANDARD
 70
     0
  3

 62
   256
 51
90.0
 52
90.0
 71
     2
 49
0.5
 62
   256
  6
BYLAYER
 49
-0.5
 62
   256
  6
BYLAYER
  0
ACDBPLACEHOLDER
  5
F
102
{ACAD_REACTORS
330
E
102
}
330
E
  0
SCALE
  5
2CB
102
{ACAD_REACTORS
330
2CA
102
}
330
2CA
100
AcDbScale
 70
     0
300
1:1
140
1.0
141
1.0
290
     1
  0
SCALE
  5
2CC
102
{ACAD_REACTORS
330
2CA
102
}
330
2CA
100
AcDbScale
 70
     0
300
1:2
140
1.0
141
2.0
290
     0
  0
SCALE
  5
2CD
102
{ACAD_REACTORS
330
2CA
102
}
330
2CA
100
AcDbScale
 70
     0
300
1:4
140
1.0
141
4.0
290
     0
  0
SCALE
  5
2CE
102
{ACAD_REACTORS
330
2CA
102
}
330
2CA
100
AcDbScale
 70
     0
300
1:5
140
1.0
141
5.0
290
     0
  0
SCALE
  5
2CF
102
{ACAD_REACTORS
330
2CA
102
}
330
2CA
100
AcDbScale
 70
     0
300
1:8
140
1.0
141
8.0
290
     0
  0
SCALE
  5
2D0
102
{ACAD_REACTORS
330
2CA
102
}
330
2CA
100
AcDbScale
 70
     0
300
1:10
140
1.0
141
10.0
290
     0
  0
SCALE
  5
2D1
102
{ACAD_REACTORS
330
2CA
102
}
330
2CA
100
AcDbScale
 70
     0
300
1:16
140
1.0
141
16.0
290
     0
  0
SCALE
  5
2D2
102
{ACAD_REACTORS
330
2CA
102
}
330
2CA
100
AcDbScale
 70
     0
300
1:20
140
1.0
141
20.0
290
     0
  0
SCALE
  5
2D3
102
{ACAD_REACTORS
330
2CA
102
}
330
2CA
100
AcDbScale
 70
     0
300
1:30
140
1.0
141
30.0
290
     0
  0
SCALE
  5
2D4
102
{ACAD_REACTORS
330
2CA
102
}
330
2CA
100
AcDbScale
 70
     0
300
1:40
140
1.0
141
40.0
290
     0
  0
SCALE
  5
2D5
102
{ACAD_REACTORS
330
2CA
102
}
330
2CA
100
AcDbScale
 70
     0
300
1:50
140
1.0
141
50.0
290
     0
  0
SCALE
  5
2D6
102
{ACAD_REACTORS
330
2CA
102
}
330
2CA
100
AcDbScale
 70
     0
300
1:100
140
1.0
141
100.0
290
     0
  0
SCALE
  5
2D7
102
{ACAD_REACTORS
330
2CA
102
}
330
2CA
100
AcDbScale
 70
     0
300
2:1
140
2.0
141
1.0
290
     0
  0
SCALE
  5
2D8
102
{ACAD_REACTORS
330
2CA
102
}
330
2CA
100
AcDbScale
 70
     0
300
4:1
140
4.0
141
1.0
290
     0
  0
SCALE
  5
2D9
102
{ACAD_REACTORS
330
2CA
102
}
330
2CA
100
AcDbScale
 70
     0
300
8:1
140
8.0
141
1.0
290
     0
  0
SCALE
  5
2DA
102
{ACAD_REACTORS
330
2CA
102
}
330
2CA
100
AcDbScale
 70
     0
300
10:1
140
10.0
141
1.0
290
     0
  0
SCALE
  5
2DB
102
{ACAD_REACTORS
330
2CA
102
}
330
2CA
100
AcDbScale
 70
     0
300
100:1
140
100.0
141
1.0
290
     0
  0
SCALE
  5
2DC
102
{ACAD_REACTORS
330
2CA
102
}
330
2CA
100
AcDbScale
 70
     0
300
1/128" = 1'-0"
140
0.0078125
141
12.0
290
     0
  0
SCALE
  5
2DD
102
{ACAD_REACTORS
330
2CA
102
}
330
2CA
100
AcDbScale
 70
     0
300
1/64" = 1'-0"
140
0.015625
141
12.0
290
     0
  0
SCALE
  5
2DE
102
{ACAD_REACTORS
330
2CA
102
}
330
2CA
100
AcDbScale
 70
     0
300
1/32" = 1'-0"
140
0.03125
141
12.0
290
     0
  0
SCALE
  5
2DF
102
{ACAD_REACTORS
330
2CA
102
}
330
2CA
100
AcDbScale
 70
     0
300
1/16" = 1'-0"
140
0.0625
141
12.0
290
     0
  0
SCALE
  5
2E0
102
{ACAD_REACTORS
330
2CA
102
}
330
2CA
100
AcDbScale
 70
     0
300
3/32" = 1'-0"
140
0.09375
141
12.0
290
     0
  0
SCALE
  5
2E1
102
{ACAD_REACTORS
330
2CA
102
}
330
2CA
100
AcDbScale
 70
     0
300
1/8" = 1'-0"
140
0.125
141
12.0
290
     0
  0
SCALE
  5
2E2
102
{ACAD_REACTORS
330
2CA
102
}
330
2CA
100
AcDbScale
 70
     0
300
3/16" = 1'-0"
140
0.1875
141
12.0
290
     0
  0
SCALE
  5
2E3
102
{ACAD_REACTORS
330
2CA
102
}
330
2CA
100
AcDbScale
 70
     0
300
1/4" = 1'-0"
140
0.25
141
12.0
290
     0
  0
SCALE
  5
2E4
102
{ACAD_REACTORS
330
2CA
102
}
330
2CA
100
AcDbScale
 70
     0
300
3/8" = 1'-0"
140
0.375
141
12.0
290
     0
  0
SCALE
  5
2E5
102
{ACAD_REACTORS
330
2CA
102
}
330
2CA
100
AcDbScale
 70
     0
300
1/2" = 1'-0"
140
0.5
141
12.0
290
     0
  0
SCALE
  5
2E6
102
{ACAD_REACTORS
330
2CA
102
}
330
2CA
100
AcDbScale
 70
     0
300
3/4" = 1'-0"
140
0.75
141
12.0
290
     0
  0
SCALE
  5
2E7
102
{ACAD_REACTORS
330
2CA
102
}
330
2CA
100
AcDbScale
 70
     0
300
1" = 1'-0"
140
1.0
141
12.0
290
     0
  0
SCALE
  5
2E8
102
{ACAD_REACTORS
330
2CA
102
}
330
2CA
100
AcDbScale
 70
     0
300
1-1/2" = 1'-0"
140
1.5
141
12.0
290
     0
  0
SCALE
  5
2E9
102
{ACAD_REACTORS
330
2CA
102
}
330
2CA
100
AcDbScale
 70
     0
300
3" = 1'-0"
140
3.0
141
12.0
290
     0
  0
SCALE
  5
2EA
102
{ACAD_REACTORS
330
2CA
102
}
330
2CA
100
AcDbScale
 70
     0
300
6" = 1'-0"
140
6.0
141
12.0
290
     0
  0
SCALE
  5
2EB
102
{ACAD_REACTORS
330
2CA
102
}
330
2CA
100
AcDbScale
 70
     0
300
1'-0" = 1'-0"
140
12.0
141
12.0
290
     0
  0
TABLESTYLE
  5
124
102
{ACAD_XDICTIONARY
360
30B
102
}
102
{ACAD_REACTORS
330
123
102
}
330
123
100
AcDbTableStyle
  3
Standard
 70
     0
 71
     0
 40
0.06
 41
0.06
280
     0
281
     0
  7
STANDARD
140
0.18
170
     2
 62
     0
 63
     7
283
     0
 90
      512
 91
        0
  1

274
    -2
284
     1
 64
     0
275
    -2
285
     1
 65
     0
276
    -2
286
     1
 66
     0
277
    -2
287
     1
 67
     0
278
    -2
288
     1
 68
     0
279
    -2
289
     1
 69
     0
  7
STANDARD
140
0.25
170
     5
 62
     0
 63
     7
283
     0
 90
      512
 91
        0
  1

274
    -2
284
     1
 64
     0
275
    -2
285
     1
 65
     0
276
    -2
286
     1
 66
     0
277
    -2
287
     1
 67
     0
278
    -2
288
     1
 68
     0
279
    -2
289
     1
 69
     0
  7
STANDARD
140
0.18
170
     5
 62
     0
 63
     7
283
     0
 90
      512
 91
        0
  1

274
    -2
284
     1
 64
     0
275
    -2
285
     1
 65
     0
276
    -2
286
     1
 66
     0
277
    -2
287
     1
 67
     0
278
    -2
288
     1
 68
     0
279
    -2
289
     1
 69
     0
  0
VISUALSTYLE
  5
29C
102
{ACAD_REACTORS
330
296
102
}
330
296
100
AcDbVisualStyle
  2
2dWireframe
 70
     4
 71
     0
 72
     2
 73
     0
 90
        0
 40
-0.6
 41
-30.0
 62
     5
 63
     7
421
 16777215
 74
     1
 91
        4
 64
     7
 65
   257
 75
     1
175
     1
 42
1.0
 92
        0
 66
   257
 43
1.0
 76
     1
 77
     6
 78
     2
 67
     7
 79
     5
170
     0
171
     0
290
     0
174
     0
 93
        1
 44
0.0
173
     0
291
     0
 45
0.0
  0
VISUALSTYLE
  5
29E
102
{ACAD_REACTORS
330
296
102
}
330
296
100
AcDbVisualStyle
  2
3D Hidden
 70
     6
 71
     1
 72
     2
 73
     2
 90
        0
 40
-0.6
 41
-30.0
 62
     5
 63
     7
421
 16777215
 74
     2
 91
        2
 64
     7
 65
   257
 75
     2
175
     1
 42
40.0
 92
        0
 66
   257
 43
1.0
 76
     1
 77
     6
 78
     2
 67
     7
 79
     3
170
     0
171
     0
290
     0
174
     0
 93
        1
 44
0.0
173
     0
291
     0
 45
0.0
  0
VISUALSTYLE
  5
29D
102
{ACAD_REACTORS
330
296
102
}
330
296
100
AcDbVisualStyle
  2
3dWireframe
 70
     5
 71
     0
 72
     2
 73
     0
 90
        0
 40
-0.6
 41
-30.0
 62
     5
 63
     7
421
 16777215
 74
     1
 91
        4
 64
     7
 65
   257
 75
     1
175
     1
 42
1.0
 92
        0
 66
   257
 43
1.0
 76
     1
 77
     6
 78
     2
 67
     7
 79
     5
170
     0
171
     0
290
     0
174
     0
 93
        1
 44
0.0
173
     0
291
     0
 45
0.0
  0
VISUALSTYLE
  5
29B
102
{ACAD_REACTORS
330
296
102
}
330
296
100
AcDbVisualStyle
  2
Basic
 70
     7
 71
     1
 72
     0
 73
     1
 90
        0
 40
-0.6
 41
-30.0
 62
     5
 63
     7
421
 16777215
 74
     0
 91
        4
 64
     7
 65
   257
 75
     1
175
     1
 42
1.0
 92
        8
 66
     7
 43
1.0
 76
     1
 77
     6
 78
     2
 67
     7
 79
     5
170
     0
171
     0
290
     0
174
     0
 93
        1
 44
0.0
173
     0
291
     1
 45
0.0
  0
VISUALSTYLE
  5
2A2
102
{ACAD_REACTORS
330
296
102
}
330
296
100
AcDbVisualStyle
  2
Brighten
 70
    12
 71
     2
 72
     2
 73
     0
 90
        0
 40
-0.6
 41
-30.0
 62
     5
 63
     7
421
 16777215
 74
     1
 91
        4
 64
     7
 65
   257
 75
     1
175
     1
 42
1.0
 92
        8
 66
     7
 43
1.0
 76
     1
 77
     6
 78
     2
 67
     7
 79
     5
170
     0
171
     0
290
     0
174
     0
 93
        1
 44
50.0
173
     0
291
     1
 45
0.0
  0
VISUALSTYLE
  5
2A6
102
{ACAD_REACTORS
330
296
102
}
330
296
100
AcDbVisualStyle
  2
ColorChange
 70
    16
 71
     2
 72
     2
 73
     3
 90
        0
 40
-0.6
 41
-30.0
 62
     5
 63
     8
421
  8421504
 74
     1
 91
        4
 64
     7
 65
   257
 75
     1
175
     1
 42
1.0
 92
        8
 66
     8
424
  8421504
 43
1.0
 76
     1
 77
     6
 78
     2
 67
     7
 79
     5
170
     0
171
     0
290
     0
174
     0
 93
        1
 44
0.0
173
     0
291
     1
 45
0.0
  0
VISUALSTYLE
  5
29F
102
{ACAD_REACTORS
330
296
102
}
330
296
100
AcDbVisualStyle
  2
Conceptual
 70
     9
 71
     3
 72
     2
 73
     0
 90
        0
 40
-0.6
 41
-30.0
 62
     5
 63
     7
421
 16777215
 74
     2
 91
        2
 64
     7
 65
   257
 75
     1
175
     1
 42
40.0
 92
        8
 66
     7
 43
1.0
 76
     1
 77
     6
 78
     2
 67
     7
 79
     3
170
     0
171
     0
290
     0
174
     0
 93
        1
 44
0.0
173
     0
291
     0
 45
0.0
  0
VISUALSTYLE
  5
2A1
102
{ACAD_REACTORS
330
296
102
}
330
296
100
AcDbVisualStyle
  2
Dim
 70
    11
 71
     2
 72
     2
 73
     0
 90
        0
 40
-0.6
 41
-30.0
 62
     5
 63
     7
421
 16777215
 74
     1
 91
        4
 64
     7
 65
   257
 75
     1
175
     1
 42
1.0
 92
        8
 66
     7
 43
1.0
 76
     1
 77
     6
 78
     2
 67
     7
 79
     5
170
     0
171
     0
290
     0
174
     0
 93
        1
 44
-50.0
173
     0
291
     1
 45
0.0
  0
VISUALSTYLE
  5
2A5
102
{ACAD_REACTORS
330
296
102
}
330
296
100
AcDbVisualStyle
  2
Facepattern
 70
    15
 71
     2
 72
     2
 73
     0
 90
        0
 40
-0.6
 41
-30.0
 62
     5
 63
     7
421
 16777215
 74
     1
 91
        4
 64
     7
 65
   257
 75
     1
175
     1
 42
1.0
 92
        8
 66
     7
 43
1.0
 76
     1
 77
     6
 78
     2
 67
     7
 79
     5
170
     0
171
     0
290
     0
174
     0
 93
        1
 44
0.0
173
     0
291
     1
 45
0.0
  0
VISUALSTYLE
  5
297
102
{ACAD_REACTORS
330
296
102
}
330
296
100
AcDbVisualStyle
  2
Flat
 70
     0
 71
     2
 72
     1
 73
     1
 90
        2
 40
-0.6
 41
30.0
 62
     5
 63
     7
421
 16777215
 74
     0
 91
        4
 64
     7
 65
   257
 75
     1
175
     1
 42
1.0
 92
        8
 66
     7
 43
1.0
 76
     1
 77
     6
 78
     2
 67
     7
 79
     5
170
     0
171
     0
290
     0
174
     0
 93
       13
 44
0.0
173
     0
291
     1
 45
0.0
  0
VISUALSTYLE
  5
298
102
{ACAD_REACTORS
330
296
102
}
330
296
100
AcDbVisualStyle
  2
FlatWithEdges
 70
     1
 71
     2
 72
     1
 73
     1
 90
        2
 40
-0.6
 41
30.0
 62
     5
 63
     7
421
 16777215
 74
     1
 91
        4
 64
     7
 65
   257
 75
     1
175
     1
 42
1.0
 92
        0
 66
   257
 43
1.0
 76
     1
 77
     6
 78
     2
 67
     7
 79
     5
170
     0
171
     0
290
     0
174
     0
 93
       13
 44
0.0
173
     0
291
     1
 45
0.0
  0
VISUALSTYLE
  5
299
102
{ACAD_REACTORS
330
296
102
}
330
296
100
AcDbVisualStyle
  2
Gouraud
 70
     2
 71
     2
 72
     2
 73
     1
 90
        2
 40
-0.6
 41
30.0
 62
     5
 63
     7
421
 16777215
 74
     0
 91
        4
 64
     7
 65
   257
 75
     1
175
     1
 42
1.0
 92
        0
 66
     7
 43
1.0
 76
     1
 77
     6
 78
     2
 67
     7
 79
     5
170
     0
171
     0
290
     0
174
     0
 93
       13
 44
0.0
173
     0
291
     1
 45
0.0
  0
VISUALSTYLE
  5
29A
102
{ACAD_REACTORS
330
296
102
}
330
296
100
AcDbVisualStyle
  2
GouraudWithEdges
 70
     3
 71
     2
 72
     2
 73
     1
 90
        2
 40
-0.6
 41
30.0
 62
     5
 63
     7
421
 16777215
 74
     1
 91
        4
 64
     7
 65
   257
 75
     1
175
     1
 42
1.0
 92
        0
 66
   257
 43
1.0
 76
     1
 77
     6
 78
     2
 67
     7
 79
     5
170
     0
171
     0
290
     0
174
     0
 93
       13
 44
0.0
173
     0
291
     1
 45
0.0
  0
VISUALSTYLE
  5
2A4
102
{ACAD_REACTORS
330
296
102
}
330
296
100
AcDbVisualStyle
  2
Linepattern
 70
    14
 71
     2
 72
     2
 73
     0
 90
        0
 40
-0.6
 41
-30.0
 62
     5
 63
     7
421
 16777215
 74
     1
 91
        4
 64
     7
 65
   257
 75
     7
175
     7
 42
1.0
 92
        8
 66
     7
 43
1.0
 76
     1
 77
     6
 78
     2
 67
     7
 79
     5
170
     0
171
     0
290
     0
174
     0
 93
        1
 44
0.0
173
     0
291
     1
 45
0.0
  0
VISUALSTYLE
  5
2A0
102
{ACAD_REACTORS
330
296
102
}
330
296
100
AcDbVisualStyle
  2
Realistic
 70
     8
 71
     2
 72
     2
 73
     0
 90
        0
 40
-0.6
 41
-30.0
 62
     5
 63
     7
421
 16777215
 74
     1
 91
        0
 64
     7
 65
   257
 75
     1
175
     1
 42
1.0
 92
        8
 66
     8
424
  7895160
 43
1.0
 76
     1
 77
     6
 78
     2
 67
     7
 79
     5
170
     0
171
     0
290
     0
174
     0
 93
       13
 44
0.0
173
     0
291
     0
 45
0.0
  0
VISUALSTYLE
  5
2A3
102
{ACAD_REACTORS
330
296
102
}
330
296
100
AcDbVisualStyle
  2
Thicken
 70
    13
 71
     2
 72
     2
 73
     0
 90
        0
 40
-0.6
 41
-30.0
 62
     5
 63
     7
421
 16777215
 74
     1
 91
        4
 64
     7
 65
   257
 75
     1
175
     1
 42
1.0
 92
       12
 66
     7
 43
1.0
 76
     1
 77
     6
 78
     2
 67
     7
 79
     5
170
     0
171
     0
290
     0
174
     0
 93
        1
 44
0.0
173
     0
291
     1
 45
0.0
  0
DICTIONARYVAR
  5
310
102
{ACAD_REACTORS
330
9E
102
}
330
9E
100
DictionaryVariables
280
     0
  1
1:1
  0
DICTIONARYVAR
  5
30E
102
{ACAD_REACTORS
330
9E
102
}
330
9E
100
DictionaryVariables
280
     0
  1
STANDARD
  0
DICTIONARYVAR
  5
144
102
{ACAD_REACTORS
330
9E
102
}
330
9E
100
DictionaryVariables
280
     0
  1
STANDARD
  0
DICTIONARYVAR
  5
A0
102
{ACAD_REACTORS
330
9E
102
}
330
9E
100
DictionaryVariables
280
     0
  1
2
  0
DICTIONARYVAR
  5
9F
102
{ACAD_REACTORS
330
9E
102
}
330
9E
100
DictionaryVariables
280
     0
  1
1
  0
DICTIONARYVAR
  5
36B
102
{ACAD_REACTORS
330
9E
102
}
330
9E
100
DictionaryVariables
280
     0
  1
1
  0
DICTIONARYVAR
  5
36C
102
{ACAD_REACTORS
330
9E
102
}
330
9E
100
DictionaryVariables
280
     0
  1
15
  0
DICTIONARYVAR
  5
311
102
{ACAD_REACTORS
330
9E
102
}
330
9E
100
DictionaryVariables
280
     0
  1
0
  0
DICTIONARYVAR
  5
30F
102
{ACAD_REACTORS
330
9E
102
}
330
9E
100
DictionaryVariables
280
     0
  1
0
  0
DICTIONARY
  5
69
102
{ACAD_REACTORS
330
63
102
}
330
63
100
AcDbDictionary
281
     1
  0
XRECORD
  5
12C
102
{ACAD_REACTORS
330
63
102
}
330
63
100
AcDbXrecord
280
     1
 90
-1023410169
  0
XRECORD
  5
6B0
102
{ACAD_REACTORS
330
6AF
102
}
330
6AF
100
AcDbXrecord
280
     1
  0
DICTIONARY
  5
30B
330
124
100
AcDbDictionary
280
     1
281
     1
  3
ACAD_ROUNDTRIP_2008_TABLESTYLE_CELLSTYLEMAP
360
6B1
  0
CELLSTYLEMAP
  5
6B1
102
{ACAD_REACTORS
330
30B
102
}
330
30B
100
AcDbCellStyleMap
 90
        3
300
CELLSTYLE
  1
TABLEFORMAT_BEGIN
 90
        5
170
     1
 91
        0
 92
    32768
 62
   257
 93
        1
300
CONTENTFORMAT
  1
CONTENTFORMAT_BEGIN
 90
        0
 91
        0
 92
      512
 93
        0
300

 40
0.0
140
1.0
 94
        5
 62
     0
340
11
144
0.25
309
CONTENTFORMAT_END
171
     0
 94
        6
 95
        1
302
GRIDFORMAT
  1
GRIDFORMAT_BEGIN
 90
        0
 91
        1
 62
     0
 92
       -2
340
0
 93
        0
 40
0.045
309
GRIDFORMAT_END
 95
        2
302
GRIDFORMAT
  1
GRIDFORMAT_BEGIN
 90
        0
 91
        1
 62
     0
 92
       -2
340
0
 93
        0
 40
0.045
309
GRIDFORMAT_END
 95
        4
302
GRIDFORMAT
  1
GRIDFORMAT_BEGIN
 90
        0
 91
        1
 62
     0
 92
       -2
340
0
 93
        0
 40
0.045
309
GRIDFORMAT_END
 95
        8
302
GRIDFORMAT
  1
GRIDFORMAT_BEGIN
 90
        0
 91
        1
 62
     0
 92
       -2
340
0
 93
        0
 40
0.045
309
GRIDFORMAT_END
 95
       16
302
GRIDFORMAT
  1
GRIDFORMAT_BEGIN
 90
        0
 91
        1
 62
     0
 92
       -2
340
0
 93
        0
 40
0.045
309
GRIDFORMAT_END
 95
       32
302
GRIDFORMAT
  1
GRIDFORMAT_BEGIN
 90
        0
 91
        1
 62
     0
 92
       -2
340
0
 93
        0
 40
0.045
309
GRIDFORMAT_END
309
TABLEFORMAT_END
  1
CELLSTYLE_BEGIN
 90
        1
 91
        1
300
_TITLE
309
CELLSTYLE_END
300
CELLSTYLE
  1
TABLEFORMAT_BEGIN
 90
        5
170
     1
 91
        0
 92
        0
 62
   257
 93
        1
300
CONTENTFORMAT
  1
CONTENTFORMAT_BEGIN
 90
        0
 91
        0
 92
      512
 93
        0
300

 40
0.0
140
1.0
 94
        5
 62
     0
340
11
144
0.18
309
CONTENTFORMAT_END
171
     0
 94
        6
 95
        1
302
GRIDFORMAT
  1
GRIDFORMAT_BEGIN
 90
        0
 91
        1
 62
     0
 92
       -2
340
0
 93
        0
 40
0.045
309
GRIDFORMAT_END
 95
        2
302
GRIDFORMAT
  1
GRIDFORMAT_BEGIN
 90
        0
 91
        1
 62
     0
 92
       -2
340
0
 93
        0
 40
0.045
309
GRIDFORMAT_END
 95
        4
302
GRIDFORMAT
  1
GRIDFORMAT_BEGIN
 90
        0
 91
        1
 62
     0
 92
       -2
340
0
 93
        0
 40
0.045
309
GRIDFORMAT_END
 95
        8
302
GRIDFORMAT
  1
GRIDFORMAT_BEGIN
 90
        0
 91
        1
 62
     0
 92
       -2
340
0
 93
        0
 40
0.045
309
GRIDFORMAT_END
 95
       16
302
GRIDFORMAT
  1
GRIDFORMAT_BEGIN
 90
        0
 91
        1
 62
     0
 92
       -2
340
0
 93
        0
 40
0.045
309
GRIDFORMAT_END
 95
       32
302
GRIDFORMAT
  1
GRIDFORMAT_BEGIN
 90
        0
 91
        1
 62
     0
 92
       -2
340
0
 93
        0
 40
0.045
309
GRIDFORMAT_END
309
TABLEFORMAT_END
  1
CELLSTYLE_BEGIN
 90
        2
 91
        1
300
_HEADER
309
CELLSTYLE_END
300
CELLSTYLE
  1
TABLEFORMAT_BEGIN
 90
        5
170
     1
 91
        0
 92
        0
 62
   257
 93
        1
300
CONTENTFORMAT
  1
CONTENTFORMAT_BEGIN
 90
        0
 91
        0
 92
      512
 93
        0
300

 40
0.0
140
1.0
 94
        2
 62
     0
340
11
144
0.18
309
CONTENTFORMAT_END
171
     0
 94
        6
 95
        1
302
GRIDFORMAT
  1
GRIDFORMAT_BEGIN
 90
        0
 91
        1
 62
     0
 92
       -2
340
0
 93
        0
 40
0.045
309
GRIDFORMAT_END
 95
        2
302
GRIDFORMAT
  1
GRIDFORMAT_BEGIN
 90
        0
 91
        1
 62
     0
 92
       -2
340
0
 93
        0
 40
0.045
309
GRIDFORMAT_END
 95
        4
302
GRIDFORMAT
  1
GRIDFORMAT_BEGIN
 90
        0
 91
        1
 62
     0
 92
       -2
340
0
 93
        0
 40
0.045
309
GRIDFORMAT_END
 95
        8
302
GRIDFORMAT
  1
GRIDFORMAT_BEGIN
 90
        0
 91
        1
 62
     0
 92
       -2
340
0
 93
        0
 40
0.045
309
GRIDFORMAT_END
 95
       16
302
GRIDFORMAT
  1
GRIDFORMAT_BEGIN
 90
        0
 91
        1
 62
     0
 92
       -2
340
0
 93
        0
 40
0.045
309
GRIDFORMAT_END
 95
       32
302
GRIDFORMAT
  1
GRIDFORMAT_BEGIN
 90
        0
 91
        1
 62
     0
 92
       -2
340
0
 93
        0
 40
0.045
309
GRIDFORMAT_END
309
TABLEFORMAT_END
  1
CELLSTYLE_BEGIN
 90
        3
 91
        2
300
_DATA
309
CELLSTYLE_END
  0
ENDSEC
  0
EOF
