  0
SECTION
  2
HEADER
  9
$ACADVER
  1
AC1009
  9
$INSBASE
 10
3540.9165372833331276
 20
187.6165714090948882
 30
0.0
  9
$EXTMIN
 10
3540.4639815610321421
 20
149.7503805083948976
 30
0.0
  9
$EXTMAX
 10
3541.3690930056359321
 20
187.6165714090948882
 30
0.0
  9
$LIMMIN
 10
0.0
 20
0.0
  9
$LIMMAX
 10
11.6929133858000007
 20
8.2677165353999982
  9
$ORTHOMODE
 70
     0
  9
$REGENMODE
 70
     1
  9
$FILLMODE
 70
     1
  9
$QTEXTMODE
 70
     0
  9
$MIRRTEXT
 70
     0
  9
$DRAGMODE
 70
     2
  9
$LTSCALE
 40
0.6431102362
  9
$OSMODE
 70
  3839
  9
$ATTMODE
 70
     1
  9
$TEXTSIZE
 40
0.2
  9
$TRACEWID
 40
0.05
  9
$TEXTSTYLE
  7
STANDARD
  9
$CLAYER
  8
0
  9
$CELTYPE
  6
BYLAYER
  9
$CECOLOR
 62
   256
  9
$DIMSCALE
 40
1.0
  9
$DIMASZ
 40
0.1875
  9
$DIMEXO
 40
0.0625
  9
$DIMDLI
 40
0.4443307087
  9
$DIMRND
 40
0.0
  9
$DIMDLE
 40
0.0
  9
$DIMEXE
 40
0.125
  9
$DIMTP
 40
0.01
  9
$DIMTM
 40
0.01
  9
$DIMTXT
 40
2.0
  9
$DIMCEN
 40
0.1052362205
  9
$DIMTSZ
 40
0.0
  9
$DIMTOL
 70
     1
  9
$DIMLIM
 70
     0
  9
$DIMTIH
 70
     1
  9
$DIMTOH
 70
     1
  9
$DIMSE1
 70
     0
  9
$DIMSE2
 70
     0
  9
$DIMTAD
 70
     0
  9
$DIMZIN
 70
     0
  9
$DIMBLK
  1

  9
$DIMASO
 70
     1
  9
$DIMSHO
 70
     1
  9
$DIMPOST
  1
\X
  9
$DIMAPOST
  1

  9
$DIMALT
 70
     1
  9
$DIMALTD
 70
     2
  9
$DIMALTF
 40
25.3999999999999986
  9
$DIMLFAC
 40
1.0
  9
$DIMTOFL
 70
     0
  9
$DIMTVP
 40
0.0
  9
$DIMTIX
 70
     0
  9
$DIMSOXD
 70
     0
  9
$DIMSAH
 70
     0
  9
$DIMBLK1
  1

  9
$DIMBLK2
  1

  9
$DIMSTYLE
  2
STANDARD
  9
$DIMCLRD
 70
     0
  9
$DIMCLRE
 70
     0
  9
$DIMCLRT
 70
     0
  9
$DIMTFAC
 40
1.0
  9
$DIMGAP
 40
0.09
  9
$LUNITS
 70
     2
  9
$LUPREC
 70
     4
  9
$SKETCHINC
 40
0.1
  9
$FILLETRAD
 40
0.0
  9
$AUNITS
 70
     0
  9
$AUPREC
 70
     0
  9
$MENU
  1
.
  9
$ELEVATION
 40
0.0
  9
$PELEVATION
 40
0.0
  9
$THICKNESS
 40
0.0
  9
$LIMCHECK
 70
     0
  9
$BLIPMODE
 70
     0
  9
$CHAMFERA
 40
0.0
  9
$CHAMFERB
 40
0.0
  9
$SKPOLY
 70
     0
  9
$TDCREATE
 40
2458060.468368056230247
  9
$TDUPDATE
 40
2459247.5067592598497868
  9
$TDINDWG
 40
0.5970903935
  9
$TDUSRTIMER
 40
0.5970903935
  9
$USRTIMER
 70
     1
  9
$ANGBASE
 50
0.0
  9
$ANGDIR
 70
     0
  9
$PDMODE
 70
     0
  9
$PDSIZE
 40
0.3125
  9
$PLINEWID
 40
0.0
  9
$COORDS
 70
     1
  9
$SPLFRAME
 70
     0
  9
$SPLINETYPE
 70
     6
  9
$SPLINESEGS
 70
     8
  9
$ATTDIA
 70
     1
  9
$ATTREQ
 70
     1
  9
$HANDLING
 70
     1
  9
$HANDSEED
  5
13E34
  9
$SURFTAB1
 70
     6
  9
$SURFTAB2
 70
     6
  9
$SURFTYPE
 70
     6
  9
$SURFU
 70
     6
  9
$SURFV
 70
     6
  9
$UCSNAME
  2

  9
$UCSORG
 10
0.0
 20
0.0
 30
0.0
  9
$UCSXDIR
 10
1.0
 20
0.0
 30
0.0
  9
$UCSYDIR
 10
0.0
 20
1.0
 30
0.0
  9
$PUCSNAME
  2

  9
$PUCSORG
 10
0.0
 20
0.0
 30
0.0
  9
$PUCSXDIR
 10
1.0
 20
0.0
 30
0.0
  9
$PUCSYDIR
 10
0.0
 20
1.0
 30
0.0
  9
$USERI1
 70
     0
  9
$USERI2
 70
     0
  9
$USERI3
 70
     0
  9
$USERI4
 70
     0
  9
$USERI5
 70
     0
  9
$USERR1
 40
0.0
  9
$USERR2
 40
0.0
  9
$USERR3
 40
0.0
  9
$USERR4
 40
0.0
  9
$USERR5
 40
0.0
  9
$WORLDVIEW
 70
     1
  9
$SHADEDGE
 70
     3
  9
$SHADEDIF
 70
    70
  9
$TILEMODE
 70
     1
  9
$MAXACTVP
 70
    64
  9
$PLIMCHECK
 70
     0
  9
$PEXTMIN
 10
1.0000000000000000E+20
 20
1.0000000000000000E+20
 30
1.0000000000000000E+20
  9
$PEXTMAX
 10
-1.0000000000000000E+20
 20
-1.0000000000000000E+20
 30
-1.0000000000000000E+20
  9
$PLIMMIN
 10
0.0
 20
0.0
  9
$PLIMMAX
 10
12.0
 20
9.0
  9
$UNITMODE
 70
     0
  9
$VISRETAIN
 70
     1
  9
$PLINEGEN
 70
     0
  9
$PSLTSCALE
 70
     1
  0
ENDSEC
  0
SECTION
  2
TABLES
  0
TABLE
  2
VPORT
 70
     1
  0
VPORT
  2
*ACTIVE
 70
     0
 10
0.0
 20
0.0
 11
1.0
 21
1.0
 12
25.4172697052085788
 22
8.0015377873581883
 13
0.0
 23
0.0
 14
1.0
 24
1.0
 15
0.0
 25
0.0
 16
0.0
 26
0.0
 36
20.9203132949307395
 17
3515.499267578125
 27
160.6819381713866903
 37
0.0
 40
38.2411036818950691
 41
2.9735537190082639
 42
50.0
 43
0.0
 44
0.0
 50
0.0
 51
0.0
 71
     0
 72
   100
 73
     1
 74
     1
 75
     0
 76
     0
 77
     0
 78
     0
  0
ENDTAB
  0
TABLE
  2
LTYPE
 70
     2
  0
LTYPE
  2
CONTINUOUS
 70
     0
  3
Solid line
 72
    65
 73
     0
 40
0.0
  0
LTYPE
  2
PHANTOM2
 70
     0
  3
___ _ _ ___ _ _ ___ _ _ ___ _ _
 72
    65
 73
     6
 40
1.25
 49
0.625
 49
-0.125
 49
0.125
 49
-0.125
 49
0.125
 49
-0.125
  0
ENDTAB
  0
TABLE
  2
LAYER
 70
     2
  0
LAYER
  2
0
 70
     0
 62
   255
  6
CONTINUOUS
  0
LAYER
  2
DEFPOINTS
 70
     0
 62
     7
  6
CONTINUOUS
  0
ENDTAB
  0
TABLE
  2
STYLE
 70
     1
  0
STYLE
  2
STANDARD
 70
     0
 40
0.0
 41
0.8
 50
0.0
 71
     0
 42
0.2
  3
txt
  4

  0
ENDTAB
  0
TABLE
  2
VIEW
 70
     0
  0
ENDTAB
  0
TABLE
  2
UCS
 70
     0
  0
ENDTAB
  0
TABLE
  2
APPID
 70
     9
  0
APPID
  2
ACAD
 70
     0
  0
APPID
  2
ACAD_MLEADERVER
 70
     0
  0
APPID
  2
ACAD_EXEMPT_FROM_CAD_STANDARDS
 70
     0
  0
APPID
  2
ACAD_NAV_VCDISPLAY
 70
     0
  0
APPID
  2
ACAECLAYERSTANDARD
 70
     0
  0
APPID
  2
ACCMTRANSPARENCY
 70
     0
  0
APPID
  2
ACAD_DSTYLE_DIMJAG
 70
     0
  0
APPID
  2
ACAD_DSTYLE_DIMTALN
 70
     0
  0
APPID
  2
ACDBATTR
 70
     0
  0
ENDTAB
  0
TABLE
  2
DIMSTYLE
 70
     1
  0
DIMSTYLE
  2
STANDARD
 70
     0
  3

  4

  5

  6

  7

 40
1.0
 41
0.1875
 42
0.0625
 43
0.38
 44
0.125
 45
0.0
 46
0.0
 47
0.01
 48
0.01
140
0.15625
141
0.09
142
0.0
143
25.3999999999999986
144
1.0
145
0.0
146
1.0
147
0.09
 71
     1
 72
     0
 73
     1
 74
     1
 75
     0
 76
     0
 77
     0
 78
     4
170
     0
171
     2
172
     0
173
     0
174
     0
175
     0
176
     0
177
     0
178
     0
  0
ENDTAB
  0
ENDSEC
  0
SECTION
  2
BLOCKS
  0
BLOCK
  8
0
  2
$MODEL_SPACE
 70
     0
 10
0.0
 20
0.0
 30
0.0
  3
$MODEL_SPACE
  1

  0
ENDBLK
  5
21
  8
0
  0
BLOCK
 67
     1
  8
0
  2
$PAPER_SPACE
 70
     0
 10
0.0
 20
0.0
 30
0.0
  3
$PAPER_SPACE
  1

  0
ENDBLK
  5
1D
 67
     1
  8
0
  0
BLOCK
  8
0
  2
_FILLED
 70
     0
 10
0.0
 20
0.0
 30
0.0
  3
_FILLED
  1

  0
SOLID
  5
13356
  8
0
  6
BYBLOCK
 62
     0
 10
0.0
 20
0.0
 30
0.0
 11
-1.0
 21
0.1666666667
 31
0.0
 12
-1.0
 22
-0.1666666667
 32
0.0
 13
-1.0
 23
-0.1666666667
 33
0.0
  0
ENDBLK
  5
13357
  8
0
  6
BYBLOCK
 62
     0
  0
ENDSEC
  0
SECTION
  2
ENTITIES
  0
ATTDEF
  5
12BEB
  8
DEFPOINTS
 10
3540.905056019641961
 20
187.614926426372989
 30
0.0
 40
0.001
  1
K-12067T
  3

  2
MODELNUMBER
 70
     0
1001
ACDBATTR
1070
     0
1070
     1
  0
ATTDEF
  5
12BEC
  8
DEFPOINTS
 10
3540.905056019641961
 20
187.6132597597064091
 30
0.0
 40
0.001
  1

  3

  2
TRADENAME
 70
     0
1001
ACDBATTR
1070
     0
1070
     1
  0
ATTDEF
  5
12BED
  8
DEFPOINTS
 10
3540.905056019641961
 20
187.6115930930396871
 30
0.0
 40
0.001
  1
HOSE
  3

  2
PRODUCT
 70
     0
1001
ACDBATTR
1070
     0
1070
     1
  0
LINE
  5
13CCC
  8
0
 10
3540.475292770634951
 20
187.6165714090948882
 30
0.0
 11
3541.3577817960331231
 21
187.6165714090948882
 31
0.0
  0
ARC
  5
13CCD
  8
0
 10
3541.3570558401088419
 20
187.6045559220598022
 30
0.0
 40
0.0120373975882039
 50
0.3557732038166829
 51
86.5424864155145599
  0
LINE
  5
13CCE
  8
0
 10
3541.3690930056359321
 20
187.6046306667620911
 30
0.0
 11
3541.3419562918270458
 21
186.9866501491947872
 31
0.0
  0
LINE
  5
13CCF
  8
0
 10
3541.3384986599821787
 20
186.9079099917948952
 30
0.0
 11
3541.3194032328838148
 21
186.4730525508948915
 31
0.0
  0
LINE
  5
13CD0
  8
0
 10
3540.7516609725357739
 20
186.6324690419785952
 30
0.0
 11
3541.0814136991662053
 21
186.6324700417675899
 31
0.0
  0
LINE
  5
13CD1
  8
0
 10
3541.0814136991662053
 20
186.6324700417675899
 30
0.0
 11
3541.0646656094559148
 21
186.4730532613783112
 31
0.0
  0
LINE
  5
13CD2
  8
0
 10
3541.2829852749077872
 20
186.4354690468948945
 30
0.0
 11
3540.5506812128919591
 21
186.4354690468948945
 31
0.0
  0
LINE
  5
13CD3
  8
0
 10
3541.191537283334128
 20
186.4354690468948945
 30
0.0
 11
3541.191537283334128
 21
150.0253805083949032
 31
0.0
  0
ARC
  5
13CD4
  8
0
 10
3540.4760187265601417
 20
187.6045559220598022
 30
0.0
 40
0.0120373975882039
 50
93.4575135844854259
 51
179.6442267961832897
  0
LINE
  5
13CD5
  8
0
 10
3540.4639815610321421
 20
187.6046306667620911
 30
0.0
 11
3540.4911182748669489
 21
186.9866501491947872
 31
0.0
  0
LINE
  5
13CD6
  8
0
 10
3540.4945759067149993
 20
186.9079099917948952
 30
0.0
 11
3540.5136713338301888
 21
186.4730525509372114
 31
0.0
  0
LINE
  5
13CD7
  8
0
 10
3540.6415372833348556
 20
186.4354690468948945
 30
0.0
 11
3540.6415372833348556
 21
150.0253805083949032
 31
0.0
  0
ARC
  5
13CD8
  8
0
 10
3540.9165372833331276
 20
150.0253805083949032
 30
0.0
 40
0.2749999999999986
 50
180.0
 51
0.0000000000016284
  0
ARC
  5
13CD9
  8
0
 10
3541.0293954892708825
 20
186.4860106612900097
 30
0.0
 40
0.0375749330057506
 50
284.1295341929296114
 51
339.8278734272188899
  0
ARC
  5
13CDA
  8
0
 10
3541.2802625743302087
 20
186.474543341651497
 30
0.0
 40
0.0391690389104321
 50
273.9859327143973928
 51
357.8187707292236155
  0
ARC
  5
13CDB
  8
0
 10
3540.5524578594968261
 20
186.4742328337021036
 30
0.0
 40
0.0388044796485349
 50
181.7429856854469108
 51
267.3758197329443078
  0
LINE
  5
13CDC
  8
0
 10
3540.7516609725357739
 20
186.6324690419785952
 30
0.0
 11
3540.7684085071300615
 21
186.4730532174122004
 31
0.0
  0
ARC
  5
13CDD
  8
0
 10
3540.8036799928759137
 20
186.4860123791399928
 30
0.0
 40
0.0375768223696082
 50
200.1739301336257029
 51
255.8697515619425928
  0
ARC
  5
13CDE
  8
0
 10
3540.9165372833331276
 20
187.0262628389614861
 30
0.0
 40
0.5894601386838989
 50
258.0521499775184111
 51
281.9478500224815889
  0
LINE
  5
13CDF
  8
0
 10
3541.3102261824337802
 20
166.3584564687949126
 30
0.0
 11
3541.191537283334128
 21
166.3584564687949126
 31
0.0
  0
LINE
  5
13CE0
  8
0
 10
3540.6415372833348556
 20
166.3584564687949126
 30
0.0
 11
3540.5228483842338392
 21
166.3584564687949126
 31
0.0
  0
LINE
  5
13CE1
  8
0
 10
3541.3102261824337802
 20
166.3584564687949126
 30
0.0
 11
3541.3102261824337802
 21
166.2764793060948989
 31
0.0
  0
LINE
  5
13CE2
  8
0
 10
3541.3102261824337802
 20
165.9075820739948881
 30
0.0
 11
3541.3102261824337802
 21
165.8256049112949029
 31
0.0
  0
LINE
  5
13CE3
  8
0
 10
3541.3102261824337802
 20
165.8256049112949029
 30
0.0
 11
3541.191537283334128
 21
165.8256049112949029
 31
0.0
  0
LINE
  5
13CE4
  8
0
 10
3540.6415372833348556
 20
165.8256049112949029
 30
0.0
 11
3540.5228483842338392
 21
165.8256049112949029
 31
0.0
  0
LINE
  5
13CE5
  8
0
 10
3541.3689486823341213
 20
166.2764793060948989
 30
0.0
 11
3541.191537283334128
 21
166.2764793060948989
 31
0.0
  0
LINE
  5
13CE6
  8
0
 10
3540.6415372833348556
 20
166.2764793060948989
 30
0.0
 11
3540.4641258843339529
 21
166.2764793060948989
 31
0.0
  0
LINE
  5
13CE7
  8
0
 10
3541.3689486823341213
 20
166.2764793060948989
 30
0.0
 11
3541.3689486823341213
 21
165.9075820739948881
 31
0.0
  0
LINE
  5
13CE8
  8
0
 10
3541.3689486823341213
 20
165.9075820739948881
 30
0.0
 11
3541.191537283334128
 21
165.9075820739948881
 31
0.0
  0
LINE
  5
13CE9
  8
0
 10
3540.6415372833348556
 20
165.9075820739948881
 30
0.0
 11
3540.4641258843339529
 21
165.9075820739948881
 31
0.0
  0
LINE
  5
13CEA
  8
0
 10
3541.2111696380338799
 20
165.210776191094908
 30
0.0
 11
3541.191537283334128
 21
165.210776191094908
 31
0.0
  0
LINE
  5
13CEB
  8
0
 10
3540.6415372833348556
 20
165.210776191094908
 30
0.0
 11
3540.6219049286341942
 21
165.210776191094908
 31
0.0
  0
LINE
  5
13CEC
  8
0
 10
3541.2111696380338799
 20
165.210776191094908
 30
0.0
 11
3541.2111696380338799
 21
165.8256049112949029
 31
0.0
  0
LINE
  5
13CED
  8
0
 10
3541.3670187093339337
 20
166.2764793060948989
 30
0.0
 11
3541.3670187093339337
 21
165.9075820739948881
 31
0.0
  0
LINE
  5
13CEE
  8
0
 10
3541.3666071799339079
 20
166.2764793060948989
 30
0.0
 11
3541.3666071799339079
 21
165.9075820739948881
 31
0.0
  0
LINE
  5
13CEF
  8
0
 10
3541.3627566364339145
 20
166.2764793060948989
 30
0.0
 11
3541.3627566364339145
 21
165.9075820739948881
 31
0.0
  0
LINE
  5
13CF0
  8
0
 10
3541.3620729821341229
 20
166.2764793060948989
 30
0.0
 11
3541.3620729821341229
 21
165.9075820739948881
 31
0.0
  0
LINE
  5
13CF1
  8
0
 10
3541.3563206277340214
 20
166.2764793060948989
 30
0.0
 11
3541.3563206277340214
 21
165.9075820739948881
 31
0.0
  0
LINE
  5
13CF2
  8
0
 10
3541.3553681793341639
 20
166.2764793060948989
 30
0.0
 11
3541.3553681793341639
 21
165.9075820739948881
 31
0.0
  0
LINE
  5
13CF3
  8
0
 10
3541.3477420387339407
 20
166.2764793060948989
 30
0.0
 11
3541.3477420387339407
 21
165.9075820739948881
 31
0.0
  0
LINE
  5
13CF4
  8
0
 10
3541.346525436434149
 20
166.2764793060948989
 30
0.0
 11
3541.346525436434149
 21
165.9075820739948881
 31
0.0
  0
LINE
  5
13CF5
  8
0
 10
3541.3370626635341978
 20
166.2764793060948989
 30
0.0
 11
3541.3370626635341978
 21
165.9075820739948881
 31
0.0
  0
LINE
  5
13CF6
  8
0
 10
3541.3355878344341363
 20
166.2764793060948989
 30
0.0
 11
3541.3355878344341363
 21
165.9075820739948881
 31
0.0
  0
LINE
  5
13CF7
  8
0
 10
3541.324334530933811
 20
166.2764793060948989
 30
0.0
 11
3541.324334530933811
 21
165.9075820739948881
 31
0.0
  0
LINE
  5
13CF8
  8
0
 10
3541.3226086603340264
 20
166.2764793060948989
 30
0.0
 11
3541.3226086603340264
 21
165.9075820739948881
 31
0.0
  0
LINE
  5
13CF9
  8
0
 10
3541.3096196511341986
 20
166.2764793060948989
 30
0.0
 11
3541.3096196511341986
 21
165.9075820739948881
 31
0.0
  0
LINE
  5
13CFA
  8
0
 10
3541.3076511472340826
 20
166.2764793060948989
 30
0.0
 11
3541.3076511472340826
 21
165.9075820739948881
 31
0.0
  0
LINE
  5
13CFB
  8
0
 10
3541.2929897136341424
 20
166.2764793060948989
 30
0.0
 11
3541.2929897136341424
 21
165.9075820739948881
 31
0.0
  0
LINE
  5
13CFC
  8
0
 10
3541.2907881667338188
 20
166.2764793060948989
 30
0.0
 11
3541.2907881667338188
 21
165.9075820739948881
 31
0.0
  0
LINE
  5
13CFD
  8
0
 10
3541.2745257376341215
 20
166.2764793060948989
 30
0.0
 11
3541.2745257376341215
 21
165.9075820739948881
 31
0.0
  0
LINE
  5
13CFE
  8
0
 10
3541.272101873633801
 20
166.2764793060948989
 30
0.0
 11
3541.272101873633801
 21
165.9075820739948881
 31
0.0
  0
LINE
  5
13CFF
  8
0
 10
3541.2543176779340683
 20
166.2764793060948989
 30
0.0
 11
3541.2543176779340683
 21
165.9075820739948881
 31
0.0
  0
LINE
  5
13D00
  8
0
 10
3541.2516833054341987
 20
166.2764793060948989
 30
0.0
 11
3541.2516833054341987
 21
165.9075820739948881
 31
0.0
  0
LINE
  5
13D01
  8
0
 10
3541.2324639861340074
 20
166.2764793060948989
 30
0.0
 11
3541.2324639861340074
 21
165.9075820739948881
 31
0.0
  0
LINE
  5
13D02
  8
0
 10
3541.229631939634146
 20
166.2764793060948989
 30
0.0
 11
3541.229631939634146
 21
165.9075820739948881
 31
0.0
  0
LINE
  5
13D03
  8
0
 10
3541.2090711311348059
 20
166.2764793060948989
 30
0.0
 11
3541.2090711311348059
 21
165.9075820739948881
 31
0.0
  0
LINE
  5
13D04
  8
0
 10
3541.2060552081338756
 20
166.2764793060948989
 30
0.0
 11
3541.2060552081338756
 21
165.9075820739948881
 31
0.0
  0
LINE
  5
13D05
  8
0
 10
3540.5228483842338392
 20
166.3584564687949126
 30
0.0
 11
3540.5228483842338392
 21
166.2764793060948989
 31
0.0
  0
LINE
  5
13D06
  8
0
 10
3540.5228483842338392
 20
165.9075820739948881
 30
0.0
 11
3540.5228483842338392
 21
165.8256049112949029
 31
0.0
  0
LINE
  5
13D07
  8
0
 10
3540.4641258843339529
 20
166.2764793060948989
 30
0.0
 11
3540.4641258843339529
 21
165.9075820739948881
 31
0.0
  0
LINE
  5
13D08
  8
0
 10
3540.6219049286341942
 20
165.210776191094908
 30
0.0
 11
3540.6219049286341942
 21
165.8256049112949029
 31
0.0
  0
LINE
  5
13D09
  8
0
 10
3540.4660558573341405
 20
166.2764793060948989
 30
0.0
 11
3540.4660558573341405
 21
165.9075820739948881
 31
0.0
  0
LINE
  5
13D0A
  8
0
 10
3540.4664673867341662
 20
166.2764793060948989
 30
0.0
 11
3540.4664673867341662
 21
165.9075820739948881
 31
0.0
  0
LINE
  5
13D0B
  8
0
 10
3540.4703179302341596
 20
166.2764793060948989
 30
0.0
 11
3540.4703179302341596
 21
165.9075820739948881
 31
0.0
  0
LINE
  5
13D0C
  8
0
 10
3540.4710015845339512
 20
166.2764793060948989
 30
0.0
 11
3540.4710015845339512
 21
165.9075820739948881
 31
0.0
  0
LINE
  5
13D0D
  8
0
 10
3540.4767539389340527
 20
166.2764793060948989
 30
0.0
 11
3540.4767539389340527
 21
165.9075820739948881
 31
0.0
  0
LINE
  5
13D0E
  8
0
 10
3540.4777063873339102
 20
166.2764793060948989
 30
0.0
 11
3540.4777063873339102
 21
165.9075820739948881
 31
0.0
  0
LINE
  5
13D0F
  8
0
 10
3540.4853325279341334
 20
166.2764793060948989
 30
0.0
 11
3540.4853325279341334
 21
165.9075820739948881
 31
0.0
  0
LINE
  5
13D10
  8
0
 10
3540.4865491302339251
 20
166.2764793060948989
 30
0.0
 11
3540.4865491302339251
 21
165.9075820739948881
 31
0.0
  0
LINE
  5
13D11
  8
0
 10
3540.4960119031338763
 20
166.2764793060948989
 30
0.0
 11
3540.4960119031338763
 21
165.9075820739948881
 31
0.0
  0
LINE
  5
13D12
  8
0
 10
3540.4974867322339378
 20
166.2764793060948989
 30
0.0
 11
3540.4974867322339378
 21
165.9075820739948881
 31
0.0
  0
LINE
  5
13D13
  8
0
 10
3540.5087400357338083
 20
166.2764793060948989
 30
0.0
 11
3540.5087400357338083
 21
165.9075820739948881
 31
0.0
  0
LINE
  5
13D14
  8
0
 10
3540.5104659063331383
 20
166.2764793060948989
 30
0.0
 11
3540.5104659063331383
 21
165.9075820739948881
 31
0.0
  0
LINE
  5
13D15
  8
0
 10
3540.5234549155338755
 20
166.2764793060948989
 30
0.0
 11
3540.5234549155338755
 21
165.9075820739948881
 31
0.0
  0
LINE
  5
13D16
  8
0
 10
3540.5254234194339915
 20
166.2764793060948989
 30
0.0
 11
3540.5254234194339915
 21
165.9075820739948881
 31
0.0
  0
LINE
  5
13D17
  8
0
 10
3540.5400848530339317
 20
166.2764793060948989
 30
0.0
 11
3540.5400848530339317
 21
165.9075820739948881
 31
0.0
  0
LINE
  5
13D18
  8
0
 10
3540.5422863999338006
 20
166.2764793060948989
 30
0.0
 11
3540.5422863999338006
 21
165.9075820739948881
 31
0.0
  0
LINE
  5
13D19
  8
0
 10
3540.5585488290339526
 20
166.2764793060948989
 30
0.0
 11
3540.5585488290339526
 21
165.9075820739948881
 31
0.0
  0
LINE
  5
13D1A
  8
0
 10
3540.5609726930338184
 20
166.2764793060948989
 30
0.0
 11
3540.5609726930338184
 21
165.9075820739948881
 31
0.0
  0
LINE
  5
13D1B
  8
0
 10
3540.5787568887330963
 20
166.2764793060948989
 30
0.0
 11
3540.5787568887330963
 21
165.9075820739948881
 31
0.0
  0
LINE
  5
13D1C
  8
0
 10
3540.5813912612338754
 20
166.2764793060948989
 30
0.0
 11
3540.5813912612338754
 21
165.9075820739948881
 31
0.0
  0
LINE
  5
13D1D
  8
0
 10
3540.6006105805340667
 20
166.2764793060948989
 30
0.0
 11
3540.6006105805340667
 21
165.9075820739948881
 31
0.0
  0
LINE
  5
13D1E
  8
0
 10
3540.6034426270339281
 20
166.2764793060948989
 30
0.0
 11
3540.6034426270339281
 21
165.9075820739948881
 31
0.0
  0
LINE
  5
13D1F
  8
0
 10
3540.6240034355341777
 20
166.2764793060948989
 30
0.0
 11
3540.6240034355341777
 21
165.9075820739948881
 31
0.0
  0
LINE
  5
13D20
  8
0
 10
3540.6270193585341985
 20
166.2764793060948989
 30
0.0
 11
3540.6270193585341985
 21
165.9075820739948881
 31
0.0
  0
LINE
  5
13D21
  8
0
 10
3541.3419562918270458
 20
186.9866501491949009
 30
0.0
 11
3540.4911182748669489
 21
186.9866501491947872
 31
0.0
  0
LINE
  5
13D22
  8
0
 10
3541.314568779434012
 20
186.9823194405948925
 30
0.0
 11
3540.5185057872340622
 21
186.9823194405948925
 31
0.0
  0
LINE
  5
13D23
  8
0
 10
3541.3384986599821787
 20
186.9079099917948952
 30
0.0
 11
3540.4945759067149993
 21
186.9079099917948952
 31
0.0
  0
LINE
  5
13D24
  8
0
 10
3541.314568779434012
 20
186.9122407003949036
 30
0.0
 11
3540.5185057872340622
 21
186.9122407003949036
 31
0.0
  0
LINE
  5
13D25
  8
0
 10
3541.3102380707341581
 20
186.9866501491949009
 30
0.0
 11
3541.3102380707341581
 21
186.9823194405948925
 31
0.0
  0
LINE
  5
13D26
  8
0
 10
3541.3102380707341581
 20
186.9079099917948952
 30
0.0
 11
3541.3102380707341581
 21
186.9122407003949036
 31
0.0
  0
ARC
  5
13D27
  8
0
 10
3541.3145687793839897
 20
186.9472800704949123
 30
0.0
 40
0.0350393700999945
 50
270.000000081760902
 51
89.9999999182390837
  0
LINE
  5
13D28
  8
0
 10
3540.522836495933916
 20
186.9866501491949009
 30
0.0
 11
3540.522836495933916
 21
186.9823194405948925
 31
0.0
  0
LINE
  5
13D29
  8
0
 10
3540.522836495933916
 20
186.9079099917948952
 30
0.0
 11
3540.522836495933916
 21
186.9122407003949036
 31
0.0
  0
ARC
  5
13D2A
  8
0
 10
3540.5185057872840844
 20
186.9472800704949123
 30
0.0
 40
0.035039370099998
 50
90.0000000817609163
 51
269.999999918239098
  0
ENDSEC
  0
EOF
