  0
SECTION
  2
HEADER
  9
$ACADVER
  1
AC1009
  9
$INSBASE
 10
0.0
 20
0.0
 30
0.0
  9
$EXTMIN
 10
-22.217642692033539
 20
-0.005
 30
0.0
  9
$EXTMAX
 10
23.783371969592942
 20
31.310263008464759
 30
0.0
  9
$LIMMIN
 10
0.0
 20
0.0
  9
$LIMMAX
 10
12.0
 20
9.0
  9
$ORTHOMODE
 70
     0
  9
$REGENMODE
 70
     1
  9
$FILLMODE
 70
     1
  9
$QTEXTMODE
 70
     0
  9
$MIRRTEXT
 70
     0
  9
$DRAGMODE
 70
     2
  9
$LTSCALE
 40
1.0
  9
$OSMODE
 70
    37
  9
$ATTMODE
 70
     1
  9
$TEXTSIZE
 40
0.001
  9
$TRACEWID
 40
0.05
  9
$TEXTSTYLE
  7
STANDARD
  9
$CLAYER
  8
0
  9
$CELTYPE
  6
BYLAYER
  9
$CECOLOR
 62
     1
  9
$DIMSCALE
 40
1.0
  9
$DIMASZ
 40
0.18
  9
$DIMEXO
 40
0.0625
  9
$DIMDLI
 40
0.38
  9
$DIMRND
 40
0.0
  9
$DIMDLE
 40
0.0
  9
$DIMEXE
 40
0.18
  9
$DIMTP
 40
0.0
  9
$DIMTM
 40
0.0
  9
$DIMTXT
 40
0.18
  9
$DIMCEN
 40
0.09
  9
$DIMTSZ
 40
0.0
  9
$DIMTOL
 70
     0
  9
$DIMLIM
 70
     0
  9
$DIMTIH
 70
     1
  9
$DIMTOH
 70
     1
  9
$DIMSE1
 70
     0
  9
$DIMSE2
 70
     0
  9
$DIMTAD
 70
     0
  9
$DIMZIN
 70
     0
  9
$DIMBLK
  1

  9
$DIMASO
 70
     1
  9
$DIMSHO
 70
     1
  9
$DIMPOST
  1

  9
$DIMAPOST
  1

  9
$DIMALT
 70
     0
  9
$DIMALTD
 70
     2
  9
$DIMALTF
 40
25.399999999999999
  9
$DIMLFAC
 40
1.0
  9
$DIMTOFL
 70
     0
  9
$DIMTVP
 40
0.0
  9
$DIMTIX
 70
     0
  9
$DIMSOXD
 70
     0
  9
$DIMSAH
 70
     0
  9
$DIMBLK1
  1

  9
$DIMBLK2
  1

  9
$DIMSTYLE
  2
STANDARD
  9
$DIMCLRD
 70
     0
  9
$DIMCLRE
 70
     0
  9
$DIMCLRT
 70
     0
  9
$DIMTFAC
 40
1.0
  9
$DIMGAP
 40
0.09
  9
$LUNITS
 70
     2
  9
$LUPREC
 70
     4
  9
$SKETCHINC
 40
0.1
  9
$FILLETRAD
 40
0.0
  9
$AUNITS
 70
     0
  9
$AUPREC
 70
     0
  9
$MENU
  1
.
  9
$ELEVATION
 40
0.0
  9
$PELEVATION
 40
0.0
  9
$THICKNESS
 40
0.0
  9
$LIMCHECK
 70
     0
  9
$BLIPMODE
 70
     0
  9
$CHAMFERA
 40
0.0
  9
$CHAMFERB
 40
0.0
  9
$SKPOLY
 70
     0
  9
$TDCREATE
 40
2454273.664668391
  9
$TDUPDATE
 40
2454379.3844905561
  9
$TDINDWG
 40
0.0392288079
  9
$TDUSRTIMER
 40
0.0392288079
  9
$USRTIMER
 70
     1
  9
$ANGBASE
 50
0.0
  9
$ANGDIR
 70
     0
  9
$PDMODE
 70
     0
  9
$PDSIZE
 40
0.0
  9
$PLINEWID
 40
0.0
  9
$COORDS
 70
     2
  9
$SPLFRAME
 70
     0
  9
$SPLINETYPE
 70
     6
  9
$SPLINESEGS
 70
     8
  9
$ATTDIA
 70
     0
  9
$ATTREQ
 70
     1
  9
$HANDLING
 70
     1
  9
$HANDSEED
  5
2CA3
  9
$SURFTAB1
 70
     6
  9
$SURFTAB2
 70
     6
  9
$SURFTYPE
 70
     6
  9
$SURFU
 70
     6
  9
$SURFV
 70
     6
  9
$UCSNAME
  2

  9
$UCSORG
 10
0.0
 20
0.0
 30
0.0
  9
$UCSXDIR
 10
1.0
 20
0.0
 30
0.0
  9
$UCSYDIR
 10
0.0
 20
1.0
 30
0.0
  9
$PUCSNAME
  2

  9
$PUCSORG
 10
0.0
 20
0.0
 30
0.0
  9
$PUCSXDIR
 10
1.0
 20
0.0
 30
0.0
  9
$PUCSYDIR
 10
0.0
 20
1.0
 30
0.0
  9
$USERI1
 70
     0
  9
$USERI2
 70
     0
  9
$USERI3
 70
     0
  9
$USERI4
 70
     0
  9
$USERI5
 70
     0
  9
$USERR1
 40
0.0
  9
$USERR2
 40
0.0
  9
$USERR3
 40
0.0
  9
$USERR4
 40
0.0
  9
$USERR5
 40
0.0
  9
$WORLDVIEW
 70
     1
  9
$SHADEDGE
 70
     3
  9
$SHADEDIF
 70
    70
  9
$TILEMODE
 70
     1
  9
$MAXACTVP
 70
    64
  9
$PLIMCHECK
 70
     0
  9
$PEXTMIN
 10
0.0
 20
0.0
 30
0.0
  9
$PEXTMAX
 10
0.0
 20
0.0
 30
0.0
  9
$PLIMMIN
 10
0.0
 20
0.0
  9
$PLIMMAX
 10
12.0
 20
9.0
  9
$UNITMODE
 70
     0
  9
$VISRETAIN
 70
     1
  9
$PLINEGEN
 70
     0
  9
$PSLTSCALE
 70
     1
  0
ENDSEC
  0
SECTION
  2
TABLES
  0
TABLE
  2
VPORT
 70
     2
  0
VPORT
  2
*ACTIVE
 70
     0
 10
0.0
 20
0.0
 11
1.0
 21
1.0
 12
4.5899320643113271
 22
11.949708982514609
 13
0.0
 23
0.0
 14
0.5
 24
0.5
 15
0.5
 25
0.5
 16
0.0
 26
0.0
 36
1.0
 17
0.0
 27
0.0
 37
0.0
 40
50.643079872326979
 41
1.9162210338680921
 42
50.0
 43
0.0
 44
0.0
 50
0.0
 51
0.0
 71
     0
 72
  1000
 73
     1
 74
     3
 75
     0
 76
     0
 77
     0
 78
     0
  0
ENDTAB
  0
TABLE
  2
LTYPE
 70
     1
  0
LTYPE
  2
CONTINUOUS
 70
     0
  3
Solid line
 72
    65
 73
     0
 40
0.0
  0
ENDTAB
  0
TABLE
  2
LAYER
 70
     3
  0
LAYER
  2
0
 70
     0
 62
     7
  6
CONTINUOUS
  0
LAYER
  2
LAYER_1
 70
     0
 62
     7
  6
CONTINUOUS
  0
LAYER
  2
DEFPOINTS
 70
     0
 62
     7
  6
CONTINUOUS
  0
ENDTAB
  0
TABLE
  2
STYLE
 70
     1
  0
STYLE
  2
STANDARD
 70
     0
 40
0.0
 41
1.0
 50
0.0
 71
     0
 42
0.001
  3
txt
  4

  0
ENDTAB
  0
TABLE
  2
VIEW
 70
     0
  0
ENDTAB
  0
TABLE
  2
UCS
 70
     0
  0
ENDTAB
  0
TABLE
  2
APPID
 70
     4
  0
APPID
  2
ACAD
 70
     0
  0
APPID
  2
ACAD_EXEMPT_FROM_CAD_STANDARDS
 70
     0
  0
APPID
  2
ACDBATTR
 70
     0
  0
APPID
  2
CONTENTBLOCKICON
 70
     0
  0
ENDTAB
  0
TABLE
  2
DIMSTYLE
 70
     1
  0
DIMSTYLE
  2
STANDARD
 70
     0
  3

  4

  5

  6

  7

 40
1.0
 41
0.18
 42
0.0625
 43
0.38
 44
0.18
 45
0.0
 46
0.0
 47
0.0
 48
0.0
140
0.18
141
0.09
142
0.0
143
25.399999999999999
144
1.0
145
0.0
146
1.0
147
0.09
 71
     0
 72
     0
 73
     1
 74
     1
 75
     0
 76
     0
 77
     0
 78
     0
170
     0
171
     2
172
     0
173
     0
174
     0
175
     0
176
     0
177
     0
178
     0
  0
ENDTAB
  0
ENDSEC
  0
SECTION
  2
BLOCKS
  0
BLOCK
  8
0
  2
$MODEL_SPACE
 70
     0
 10
0.0
 20
0.0
 30
0.0
  3
$MODEL_SPACE
  1

  0
ENDBLK
  5
21
  8
0
  0
BLOCK
 67
     1
  8
0
  2
$PAPER_SPACE
 70
     0
 10
0.0
 20
0.0
 30
0.0
  3
$PAPER_SPACE
  1

  0
ENDBLK
  5
5B
 67
     1
  8
0
  0
BLOCK
  8
0
 62
     1
  2
1190FRT
 70
     0
 10
0.0
 20
0.0
 30
0.0
  3
1190FRT
  1

  0
LINE
  5
1ED4
  8
LAYER_1
 10
0.1438804167907222
 20
4.877516111145904
 30
0.0
 11
0.1438804167907222
 21
4.7709284735060962
 31
0.0
  0
LINE
  5
1ED5
  8
LAYER_1
 10
0.1438804167907222
 20
4.877516111145904
 30
0.0
 11
0.1438804167907222
 21
4.7709284735060962
 31
0.0
  0
LINE
  5
1ED6
  8
LAYER_1
 10
-0.6013664805281281
 20
5.9420926383042882
 30
0.0
 11
-0.3884078467884677
 21
5.835938283744329
 31
0.0
  0
LINE
  5
1ED7
  8
LAYER_1
 10
0.1438804167907222
 20
4.877516111145904
 30
0.0
 11
0.1438804167907222
 21
4.7709284735060962
 31
0.0
  0
LINE
  5
1ED8
  8
LAYER_1
 10
0.1438804167907222
 20
4.877516111145904
 30
0.0
 11
0.1438804167907222
 21
4.7709284735060962
 31
0.0
  0
LINE
  5
1ED9
  8
LAYER_1
 10
-0.2820368506886126
 20
5.7293506461045416
 30
0.0
 11
-0.2820368506886126
 21
5.6227630084647577
 31
0.0
  0
LINE
  5
1EDA
  8
LAYER_1
 10
-0.2820368506886126
 20
5.7293506461045416
 30
0.0
 11
-0.2820368506886126
 21
5.6227630084647577
 31
0.0
  0
LINE
  5
1EDB
  8
LAYER_1
 10
-0.2820368506886126
 20
5.7293506461045416
 30
0.0
 11
-0.2820368506886126
 21
5.5161753708249641
 31
0.0
  0
LINE
  5
1EDC
  8
LAYER_1
 10
-0.2820368506886126
 20
5.6227630084647577
 30
0.0
 11
-0.2820368506886126
 21
5.410021016265012
 31
0.0
  0
LINE
  5
1EDD
  8
LAYER_1
 10
-0.2820368506886126
 20
5.5161753708249641
 30
0.0
 11
-0.2820368506886126
 21
5.410021016265012
 31
0.0
  0
POLYLINE
  5
1EDE
  8
LAYER_1
 66
     1
 10
0.0
 20
0.0
 30
0.0
  0
VERTEX
  5
1EDF
  8
LAYER_1
 10
-0.2820368506886126
 20
5.5161753708249641
 30
0.0
  0
VERTEX
  5
1EE0
  8
LAYER_1
 10
-0.2820368506886126
 20
5.410021016265012
 30
0.0
  0
VERTEX
  5
1EE1
  8
LAYER_1
 10
-0.1754492130488074
 20
5.410021016265012
 30
0.0
  0
VERTEX
  5
1EE2
  8
LAYER_1
 10
-0.1754492130488074
 20
5.3034333786252139
 30
0.0
  0
SEQEND
  5
1EE3
  8
LAYER_1
  0
LINE
  5
1EE4
  8
LAYER_1
 10
-0.1754492130488074
 20
5.410021016265012
 30
0.0
 11
-0.1754492130488074
 21
5.1968457409854274
 31
0.0
  0
POLYLINE
  5
1EE5
  8
LAYER_1
 66
     1
 10
0.0
 20
0.0
 30
0.0
  0
VERTEX
  5
1EE6
  8
LAYER_1
 10
-0.1754492130488074
 20
5.3034333786252139
 30
0.0
  0
VERTEX
  5
1EE7
  8
LAYER_1
 10
-0.0690782169489381
 20
5.3034333786252139
 30
0.0
  0
VERTEX
  5
1EE8
  8
LAYER_1
 10
-0.0690782169489381
 20
5.0902581033456427
 30
0.0
  0
SEQEND
  5
1EE9
  8
LAYER_1
  0
LINE
  5
1EEA
  8
LAYER_1
 10
-0.707954118167919
 20
6.1552679135838657
 30
0.0
 11
-0.707954118167919
 21
5.9420926383042882
 31
0.0
  0
LINE
  5
1EEB
  8
LAYER_1
 10
-0.2820368506886126
 20
5.7293506461045416
 30
0.0
 11
-0.2820368506886126
 21
5.6227630084647577
 31
0.0
  0
LINE
  5
1EEC
  8
LAYER_1
 10
-0.2820368506886126
 20
5.7293506461045416
 30
0.0
 11
-0.2820368506886126
 21
5.6227630084647577
 31
0.0
  0
LINE
  5
1EED
  8
LAYER_1
 10
0.0375094206908386
 20
0.0858385312335131
 30
0.0
 11
0.0375094206908386
 21
4.877516111145904
 31
0.0
  0
LINE
  5
1EEE
  8
LAYER_1
 10
-0.1754492130488074
 20
6.581185181063204
 30
0.0
 11
-0.1754492130488074
 21
6.2618555512236682
 31
0.0
  0
LINE
  5
1EEF
  8
LAYER_1
 10
-0.6013664805281281
 20
5.9420926383042882
 30
0.0
 11
-0.707954118167919
 21
5.9420926383042882
 31
0.0
  0
POLYLINE
  5
1EF0
  8
LAYER_1
 66
     1
 10
0.0
 20
0.0
 30
0.0
  0
VERTEX
  5
1EF1
  8
LAYER_1
 10
-0.0690782169489381
 20
4.9841037487856852
 30
0.0
  0
VERTEX
  5
1EF2
  8
LAYER_1
 10
-0.2820368506886126
 20
5.3034333786252139
 30
0.0
  0
VERTEX
  5
1EF3
  8
LAYER_1
 10
-0.2820368506886126
 20
5.7293506461045416
 30
0.0
  0
SEQEND
  5
1EF4
  8
LAYER_1
  0
LINE
  5
1EF5
  8
LAYER_1
 10
-0.0690782169489381
 20
4.9841037487856852
 30
0.0
 11
-0.0690782169489381
 21
4.877516111145904
 31
0.0
  0
POLYLINE
  5
1EF6
  8
LAYER_1
 66
     1
 10
0.0
 20
0.0
 30
0.0
  0
VERTEX
  5
1EF7
  8
LAYER_1
 10
-0.3884078467884677
 20
5.835938283744329
 30
0.0
  0
VERTEX
  5
1EF8
  8
LAYER_1
 10
-0.3884078467884677
 20
5.835938283744329
 30
0.0
  0
VERTEX
  5
1EF9
  8
LAYER_1
 10
-0.2820368506886126
 20
5.7293506461045416
 30
0.0
  0
SEQEND
  5
1EFA
  8
LAYER_1
  0
LINE
  5
1EFB
  8
LAYER_1
 10
-2.518210825725034
 20
6.581185181063204
 30
0.0
 11
-3.7959626281630028
 21
6.581185181063204
 31
0.0
  0
LINE
  5
1EFC
  8
LAYER_1
 10
-0.1754492130488074
 20
6.581185181063204
 30
0.0
 11
-2.518210825725034
 21
6.581185181063204
 31
0.0
  0
LINE
  5
1EFD
  8
LAYER_1
 10
-19.023046544398689
 20
28.517007663948078
 30
0.0
 11
-19.023046544398689
 21
28.41042002630827
 31
0.0
  0
POLYLINE
  5
1EFE
  8
LAYER_1
 66
     1
 10
0.0
 20
0.0
 30
0.0
  0
VERTEX
  5
1EFF
  8
LAYER_1
 10
-19.023046544398689
 20
28.517007663948078
 30
0.0
  0
VERTEX
  5
1F00
  8
LAYER_1
 10
-18.916675548298809
 20
28.62316201850804
 30
0.0
  0
VERTEX
  5
1F01
  8
LAYER_1
 10
-18.384170643179711
 20
28.62316201850804
 30
0.0
  0
VERTEX
  5
1F02
  8
LAYER_1
 10
-18.27758300553992
 20
28.747763008464759
 30
0.0
  0
VERTEX
  5
1F03
  8
LAYER_1
 10
-18.06462437180026
 20
28.747763008464759
 30
0.0
  0
SEQEND
  5
1F04
  8
LAYER_1
  0
LINE
  5
1F05
  8
LAYER_1
 10
21.22765172317704
 20
28.517007663948078
 30
0.0
 11
21.12128072707716
 21
28.517007663948078
 31
0.0
  0
LINE
  5
1F06
  8
LAYER_1
 10
19.311024019520069
 20
27.66517312898943
 30
0.0
 11
19.311024019520069
 21
27.558585491349628
 31
0.0
  0
LINE
  5
1F07
  8
LAYER_1
 10
20.375817188218409
 20
28.41042002630827
 30
0.0
 11
20.375817188218409
 21
28.3038323886685
 31
0.0
  0
LINE
  5
1F08
  8
LAYER_1
 10
-20.93967424805567
 20
28.729749656147821
 30
0.0
 11
-20.93967424805567
 21
28.62316201850804
 31
0.0
  0
LINE
  5
1F09
  8
LAYER_1
 10
-17.851665738060589
 20
27.66517312898943
 30
0.0
 11
-17.851665738060589
 21
27.558585491349628
 31
0.0
  0
LINE
  5
1F0A
  8
LAYER_1
 10
-18.810087910659028
 20
28.41042002630827
 30
0.0
 11
-18.810087910659028
 21
28.3038323886685
 31
0.0
  0
LINE
  5
1F0B
  8
LAYER_1
 10
-17.851665738060589
 20
27.66517312898943
 30
0.0
 11
-17.851665738060589
 21
27.558585491349628
 31
0.0
  0
LINE
  5
1F0C
  8
LAYER_1
 10
19.311024019520069
 20
27.66517312898943
 30
0.0
 11
19.311024019520069
 21
27.558585491349628
 31
0.0
  0
LINE
  5
1F0D
  8
LAYER_1
 10
19.311024019520069
 20
27.66517312898943
 30
0.0
 11
19.311024019520069
 21
27.558585491349628
 31
0.0
  0
LINE
  5
1F0E
  8
LAYER_1
 10
20.375817188218409
 20
28.3038323886685
 30
0.0
 11
20.375817188218409
 21
28.197244751028698
 31
0.0
  0
LINE
  5
1F0F
  8
LAYER_1
 10
18.778519114400961
 20
28.62316201850804
 30
0.0
 11
19.311024019520069
 21
27.66517312898943
 31
0.0
  0
LINE
  5
1F10
  8
LAYER_1
 10
20.26944619211854
 20
28.62316201850804
 30
0.0
 11
20.375817188218409
 21
28.41042002630827
 31
0.0
  0
LINE
  5
1F11
  8
LAYER_1
 10
19.311024019520069
 20
27.66517312898943
 30
0.0
 11
19.311024019520069
 21
27.558585491349628
 31
0.0
  0
LINE
  5
1F12
  8
LAYER_1
 10
20.375817188218409
 20
28.41042002630827
 30
0.0
 11
20.375817188218409
 21
28.3038323886685
 31
0.0
  0
LINE
  5
1F13
  8
LAYER_1
 10
-17.851665738060589
 20
27.66517312898943
 30
0.0
 11
-17.851665738060589
 21
27.558585491349628
 31
0.0
  0
LINE
  5
1F14
  8
LAYER_1
 10
-18.810087910659028
 20
28.3038323886685
 30
0.0
 11
-18.810087910659028
 21
28.197244751028698
 31
0.0
  0
LINE
  5
1F15
  8
LAYER_1
 10
-17.212789836841569
 20
28.62316201850804
 30
0.0
 11
-17.851665738060589
 21
27.66517312898943
 31
0.0
  0
LINE
  5
1F16
  8
LAYER_1
 10
-18.703716914559148
 20
28.62316201850804
 30
0.0
 11
-18.810087910659028
 21
28.41042002630827
 31
0.0
  0
LINE
  5
1F17
  8
LAYER_1
 10
-17.851665738060589
 20
27.66517312898943
 30
0.0
 11
-17.851665738060589
 21
27.558585491349628
 31
0.0
  0
LINE
  5
1F18
  8
LAYER_1
 10
1.634807494508272
 20
6.2618555512236682
 30
0.0
 11
1.634807494508272
 21
6.2618555512236682
 31
0.0
  0
POLYLINE
  5
1F19
  8
LAYER_1
 66
     1
 10
0.0
 20
0.0
 30
0.0
  0
VERTEX
  5
1F1A
  8
LAYER_1
 10
2.2736833957272751
 20
6.1552679135838657
 30
0.0
  0
VERTEX
  5
1F1B
  8
LAYER_1
 10
2.2736833957272751
 20
6.1552679135838657
 30
0.0
  0
VERTEX
  5
1F1C
  8
LAYER_1
 10
2.167095758087477
 20
6.2618555512236682
 30
0.0
  0
SEQEND
  5
1F1D
  8
LAYER_1
  0
LINE
  5
1F1E
  8
LAYER_1
 10
2.167095758087477
 20
5.9420926383042882
 30
0.0
 11
2.167095758087477
 21
5.9420926383042882
 31
0.0
  0
POLYLINE
  5
1F1F
  8
LAYER_1
 66
     1
 10
0.0
 20
0.0
 30
0.0
  0
VERTEX
  5
1F20
  8
LAYER_1
 10
1.528219856868503
 20
4.9841037487856852
 30
0.0
  0
VERTEX
  5
1F21
  8
LAYER_1
 10
1.7411784906081349
 20
5.3034333786252139
 30
0.0
  0
VERTEX
  5
1F22
  8
LAYER_1
 10
1.8477661282479541
 20
5.7293506461045416
 30
0.0
  0
SEQEND
  5
1F23
  8
LAYER_1
  0
LINE
  5
1F24
  8
LAYER_1
 10
1.528219856868503
 20
4.9841037487856852
 30
0.0
 11
1.528219856868503
 21
4.877516111145904
 31
0.0
  0
LINE
  5
1F25
  8
LAYER_1
 10
1.8477661282479541
 20
5.835938283744329
 30
0.0
 11
1.8477661282479541
 21
5.7293506461045416
 31
0.0
  0
POLYLINE
  5
1F26
  8
LAYER_1
 66
     1
 10
0.0
 20
0.0
 30
0.0
  0
VERTEX
  5
1F27
  8
LAYER_1
 10
23.783371969592942
 20
29.803433378625218
 30
0.0
  0
VERTEX
  5
1F28
  8
LAYER_1
 10
23.676784331953112
 20
30.016175370824978
 30
0.0
  0
VERTEX
  5
1F29
  8
LAYER_1
 10
23.357454702113579
 20
30.122763008464759
 30
0.0
  0
SEQEND
  5
1F2A
  8
LAYER_1
  0
LINE
  5
1F2B
  8
LAYER_1
 10
-0.0690782169489381
 20
4.877516111145904
 30
0.0
 11
0.1438804167907222
 21
4.877516111145904
 31
0.0
  0
LINE
  5
1F2C
  8
LAYER_1
 10
-0.0690782169489381
 20
4.9841037487856852
 30
0.0
 11
-0.0690782169489381
 21
4.877516111145904
 31
0.0
  0
LINE
  5
1F2D
  8
LAYER_1
 10
-0.0690782169489381
 20
4.9841037487856852
 30
0.0
 11
-0.0690782169489381
 21
4.877516111145904
 31
0.0
  0
LINE
  5
1F2E
  8
LAYER_1
 10
-0.0690782169489381
 20
4.9841037487856852
 30
0.0
 11
-0.0690782169489381
 21
4.877516111145904
 31
0.0
  0
LINE
  5
1F2F
  8
LAYER_1
 10
-0.0690782169489381
 20
4.9841037487856852
 30
0.0
 11
-0.0690782169489381
 21
4.877516111145904
 31
0.0
  0
LINE
  5
1F30
  8
LAYER_1
 10
-0.0690782169489381
 20
4.9841037487856852
 30
0.0
 11
-0.0690782169489381
 21
4.877516111145904
 31
0.0
  0
POLYLINE
  5
1F31
  8
LAYER_1
 66
     1
 10
0.0
 20
0.0
 30
0.0
  0
VERTEX
  5
1F32
  8
LAYER_1
 10
-0.0690782169489381
 20
4.9841037487856852
 30
0.0
  0
VERTEX
  5
1F33
  8
LAYER_1
 10
-0.0690782169489381
 20
5.0902581033456427
 30
0.0
  0
VERTEX
  5
1F34
  8
LAYER_1
 10
-0.0690782169489381
 20
4.9841037487856852
 30
0.0
  0
SEQEND
  5
1F35
  8
LAYER_1
  0
LINE
  5
1F36
  8
LAYER_1
 10
-0.0690782169489381
 20
5.0902581033456427
 30
0.0
 11
-0.0690782169489381
 21
4.9841037487856852
 31
0.0
  0
LINE
  5
1F37
  8
LAYER_1
 10
-0.0690782169489381
 20
5.0902581033456427
 30
0.0
 11
-0.0690782169489381
 21
4.9841037487856852
 31
0.0
  0
LINE
  5
1F38
  8
LAYER_1
 10
-0.0690782169489381
 20
5.0902581033456427
 30
0.0
 11
-0.0690782169489381
 21
4.9841037487856852
 31
0.0
  0
LINE
  5
1F39
  8
LAYER_1
 10
-0.0690782169489381
 20
5.0902581033456427
 30
0.0
 11
-0.0690782169489381
 21
4.9841037487856852
 31
0.0
  0
POLYLINE
  5
1F3A
  8
LAYER_1
 66
     1
 10
0.0
 20
0.0
 30
0.0
  0
VERTEX
  5
1F3B
  8
LAYER_1
 10
-0.0690782169489381
 20
5.0902581033456427
 30
0.0
  0
VERTEX
  5
1F3C
  8
LAYER_1
 10
-0.0690782169489381
 20
5.1968457409854274
 30
0.0
  0
VERTEX
  5
1F3D
  8
LAYER_1
 10
-0.0690782169489381
 20
5.0902581033456427
 30
0.0
  0
SEQEND
  5
1F3E
  8
LAYER_1
  0
LINE
  5
1F3F
  8
LAYER_1
 10
-0.0690782169489381
 20
5.1968457409854274
 30
0.0
 11
-0.0690782169489381
 21
5.0902581033456427
 31
0.0
  0
LINE
  5
1F40
  8
LAYER_1
 10
-0.0690782169489381
 20
5.1968457409854274
 30
0.0
 11
-0.0690782169489381
 21
5.0902581033456427
 31
0.0
  0
POLYLINE
  5
1F41
  8
LAYER_1
 66
     1
 10
0.0
 20
0.0
 30
0.0
  0
VERTEX
  5
1F42
  8
LAYER_1
 10
-0.0690782169489381
 20
5.1968457409854274
 30
0.0
  0
VERTEX
  5
1F43
  8
LAYER_1
 10
0.0375094206908386
 20
5.1968457409854274
 30
0.0
  0
VERTEX
  5
1F44
  8
LAYER_1
 10
0.0375094206908386
 20
5.0902581033456427
 30
0.0
  0
SEQEND
  5
1F45
  8
LAYER_1
  0
LINE
  5
1F46
  8
LAYER_1
 10
0.0375094206908386
 20
5.1968457409854274
 30
0.0
 11
0.0375094206908386
 21
5.0902581033456427
 31
0.0
  0
LINE
  5
1F47
  8
LAYER_1
 10
0.0375094206908386
 20
5.1968457409854274
 30
0.0
 11
0.0375094206908386
 21
5.0902581033456427
 31
0.0
  0
LINE
  5
1F48
  8
LAYER_1
 10
0.0375094206908386
 20
5.1968457409854274
 30
0.0
 11
0.0375094206908386
 21
4.9841037487856852
 31
0.0
  0
LINE
  5
1F49
  8
LAYER_1
 10
0.0375094206908386
 20
5.0902581033456427
 30
0.0
 11
0.0375094206908386
 21
4.9841037487856852
 31
0.0
  0
LINE
  5
1F4A
  8
LAYER_1
 10
0.0375094206908386
 20
5.0902581033456427
 30
0.0
 11
0.0375094206908386
 21
4.9841037487856852
 31
0.0
  0
LINE
  5
1F4B
  8
LAYER_1
 10
0.0375094206908386
 20
5.0902581033456427
 30
0.0
 11
0.0375094206908386
 21
4.9841037487856852
 31
0.0
  0
POLYLINE
  5
1F4C
  8
LAYER_1
 66
     1
 10
0.0
 20
0.0
 30
0.0
  0
VERTEX
  5
1F4D
  8
LAYER_1
 10
0.0375094206908386
 20
5.0902581033456427
 30
0.0
  0
VERTEX
  5
1F4E
  8
LAYER_1
 10
0.1438804167907222
 20
5.0902581033456427
 30
0.0
  0
VERTEX
  5
1F4F
  8
LAYER_1
 10
0.1438804167907222
 20
4.9841037487856852
 30
0.0
  0
SEQEND
  5
1F50
  8
LAYER_1
  0
LINE
  5
1F51
  8
LAYER_1
 10
0.1438804167907222
 20
5.0902581033456427
 30
0.0
 11
0.1438804167907222
 21
4.877516111145904
 31
0.0
  0
LINE
  5
1F52
  8
LAYER_1
 10
0.1438804167907222
 20
4.9841037487856852
 30
0.0
 11
0.1438804167907222
 21
4.877516111145904
 31
0.0
  0
LINE
  5
1F53
  8
LAYER_1
 10
0.1438804167907222
 20
4.9841037487856852
 30
0.0
 11
0.1438804167907222
 21
4.877516111145904
 31
0.0
  0
LINE
  5
1F54
  8
LAYER_1
 10
0.1438804167907222
 20
4.9841037487856852
 30
0.0
 11
0.1438804167907222
 21
4.877516111145904
 31
0.0
  0
LINE
  5
1F55
  8
LAYER_1
 10
0.1438804167907222
 20
4.9841037487856852
 30
0.0
 11
0.1438804167907222
 21
4.877516111145904
 31
0.0
  0
LINE
  5
1F56
  8
LAYER_1
 10
0.1438804167907222
 20
4.9841037487856852
 30
0.0
 11
0.1438804167907222
 21
4.877516111145904
 31
0.0
  0
LINE
  5
1F57
  8
LAYER_1
 10
0.1438804167907222
 20
4.9841037487856852
 30
0.0
 11
0.1438804167907222
 21
4.877516111145904
 31
0.0
  0
LINE
  5
1F58
  8
LAYER_1
 10
-19.5555514495178
 20
28.41042002630827
 30
0.0
 11
-19.5555514495178
 21
28.3038323886685
 31
0.0
  0
LINE
  5
1F59
  8
LAYER_1
 10
-19.5555514495178
 20
28.41042002630827
 30
0.0
 11
-19.5555514495178
 21
28.3038323886685
 31
0.0
  0
POLYLINE
  5
1F5A
  8
LAYER_1
 66
     1
 10
0.0
 20
0.0
 30
0.0
  0
VERTEX
  5
1F5B
  8
LAYER_1
 10
-19.5555514495178
 20
28.41042002630827
 30
0.0
  0
VERTEX
  5
1F5C
  8
LAYER_1
 10
-19.448963811877999
 20
28.41042002630827
 30
0.0
  0
VERTEX
  5
1F5D
  8
LAYER_1
 10
-19.448963811877999
 20
28.3038323886685
 30
0.0
  0
SEQEND
  5
1F5E
  8
LAYER_1
  0
LINE
  5
1F5F
  8
LAYER_1
 10
-19.448963811877999
 20
28.41042002630827
 30
0.0
 11
-19.448963811877999
 21
28.3038323886685
 31
0.0
  0
POLYLINE
  5
1F60
  8
LAYER_1
 66
     1
 10
0.0
 20
0.0
 30
0.0
  0
VERTEX
  5
1F61
  8
LAYER_1
 10
-19.448963811877999
 20
28.41042002630827
 30
0.0
  0
VERTEX
  5
1F62
  8
LAYER_1
 10
-19.34259281577814
 20
28.517007663948078
 30
0.0
  0
VERTEX
  5
1F63
  8
LAYER_1
 10
-19.34259281577814
 20
28.41042002630827
 30
0.0
  0
SEQEND
  5
1F64
  8
LAYER_1
  0
LINE
  5
1F65
  8
LAYER_1
 10
-19.34259281577814
 20
28.517007663948078
 30
0.0
 11
-19.34259281577814
 21
28.41042002630827
 31
0.0
  0
LINE
  5
1F66
  8
LAYER_1
 10
-19.34259281577814
 20
28.517007663948078
 30
0.0
 11
-19.023046544398689
 21
28.517007663948078
 31
0.0
  0
LINE
  5
1F67
  8
LAYER_1
 10
18.352601846921608
 20
28.3038323886685
 30
0.0
 11
18.352601846921608
 21
28.197244751028698
 31
0.0
  0
LINE
  5
1F68
  8
LAYER_1
 10
18.352601846921608
 20
28.3038323886685
 30
0.0
 11
18.352601846921608
 21
28.197244751028698
 31
0.0
  0
LINE
  5
1F69
  8
LAYER_1
 10
18.352601846921608
 20
28.3038323886685
 30
0.0
 11
18.352601846921608
 21
28.197244751028698
 31
0.0
  0
LINE
  5
1F6A
  8
LAYER_1
 10
18.352601846921608
 20
28.3038323886685
 30
0.0
 11
18.352601846921608
 21
28.197244751028698
 31
0.0
  0
LINE
  5
1F6B
  8
LAYER_1
 10
18.352601846921608
 20
28.3038323886685
 30
0.0
 11
18.352601846921608
 21
28.197244751028698
 31
0.0
  0
LINE
  5
1F6C
  8
LAYER_1
 10
18.352601846921608
 20
28.3038323886685
 30
0.0
 11
18.352601846921608
 21
28.197244751028698
 31
0.0
  0
LINE
  5
1F6D
  8
LAYER_1
 10
18.352601846921608
 20
28.3038323886685
 30
0.0
 11
18.352601846921608
 21
28.41042002630827
 31
0.0
  0
LINE
  5
1F6E
  8
LAYER_1
 10
-17.851665738060589
 20
27.771327483549371
 30
0.0
 11
-17.851665738060589
 21
27.558585491349628
 31
0.0
  0
POLYLINE
  5
1F6F
  8
LAYER_1
 66
     1
 10
0.0
 20
0.0
 30
0.0
  0
VERTEX
  5
1F70
  8
LAYER_1
 10
-17.851665738060589
 20
27.66517312898943
 30
0.0
  0
VERTEX
  5
1F71
  8
LAYER_1
 10
-17.851665738060589
 20
27.771327483549371
 30
0.0
  0
VERTEX
  5
1F72
  8
LAYER_1
 10
-17.851665738060589
 20
27.66517312898943
 30
0.0
  0
SEQEND
  5
1F73
  8
LAYER_1
  0
LINE
  5
1F74
  8
LAYER_1
 10
-17.851665738060589
 20
27.771327483549371
 30
0.0
 11
-17.851665738060589
 21
27.66517312898943
 31
0.0
  0
POLYLINE
  5
1F75
  8
LAYER_1
 66
     1
 10
0.0
 20
0.0
 30
0.0
  0
VERTEX
  5
1F76
  8
LAYER_1
 10
-17.851665738060589
 20
27.771327483549371
 30
0.0
  0
VERTEX
  5
1F77
  8
LAYER_1
 10
-17.95825337570038
 20
27.771327483549371
 30
0.0
  0
VERTEX
  5
1F78
  8
LAYER_1
 10
-17.95825337570038
 20
27.66517312898943
 30
0.0
  0
SEQEND
  5
1F79
  8
LAYER_1
  0
LINE
  5
1F7A
  8
LAYER_1
 10
-17.95825337570038
 20
27.771327483549371
 30
0.0
 11
-17.95825337570038
 21
27.66517312898943
 31
0.0
  0
LINE
  5
1F7B
  8
LAYER_1
 10
-17.95825337570038
 20
27.771327483549371
 30
0.0
 11
-17.95825337570038
 21
27.66517312898943
 31
0.0
  0
LINE
  5
1F7C
  8
LAYER_1
 10
-17.95825337570038
 20
27.771327483549371
 30
0.0
 11
-17.95825337570038
 21
27.66517312898943
 31
0.0
  0
LINE
  5
1F7D
  8
LAYER_1
 10
-17.95825337570038
 20
27.771327483549371
 30
0.0
 11
-17.95825337570038
 21
27.66517312898943
 31
0.0
  0
LINE
  5
1F7E
  8
LAYER_1
 10
-17.95825337570038
 20
27.771327483549371
 30
0.0
 11
-17.95825337570038
 21
27.66517312898943
 31
0.0
  0
LINE
  5
1F7F
  8
LAYER_1
 10
-17.95825337570038
 20
27.771327483549371
 30
0.0
 11
-17.95825337570038
 21
27.66517312898943
 31
0.0
  0
LINE
  5
1F80
  8
LAYER_1
 10
-17.95825337570038
 20
27.771327483549371
 30
0.0
 11
-17.95825337570038
 21
27.66517312898943
 31
0.0
  0
POLYLINE
  5
1F81
  8
LAYER_1
 66
     1
 10
0.0
 20
0.0
 30
0.0
  0
VERTEX
  5
1F82
  8
LAYER_1
 10
-17.95825337570038
 20
27.771327483549371
 30
0.0
  0
VERTEX
  5
1F83
  8
LAYER_1
 10
-18.06462437180026
 20
27.771327483549371
 30
0.0
  0
VERTEX
  5
1F84
  8
LAYER_1
 10
-18.06462437180026
 20
27.66517312898943
 30
0.0
  0
SEQEND
  5
1F85
  8
LAYER_1
  0
POLYLINE
  5
1F86
  8
LAYER_1
 66
     1
 10
0.0
 20
0.0
 30
0.0
  0
VERTEX
  5
1F87
  8
LAYER_1
 10
-18.06462437180026
 20
27.771327483549371
 30
0.0
  0
VERTEX
  5
1F88
  8
LAYER_1
 10
-18.06462437180026
 20
27.877915121189162
 30
0.0
  0
VERTEX
  5
1F89
  8
LAYER_1
 10
-18.06462437180026
 20
27.771327483549371
 30
0.0
  0
SEQEND
  5
1F8A
  8
LAYER_1
  0
LINE
  5
1F8B
  8
LAYER_1
 10
-18.06462437180026
 20
27.877915121189162
 30
0.0
 11
-18.06462437180026
 21
27.771327483549371
 31
0.0
  0
POLYLINE
  5
1F8C
  8
LAYER_1
 66
     1
 10
0.0
 20
0.0
 30
0.0
  0
VERTEX
  5
1F8D
  8
LAYER_1
 10
-18.06462437180026
 20
27.877915121189162
 30
0.0
  0
VERTEX
  5
1F8E
  8
LAYER_1
 10
-18.17121200944004
 20
27.877915121189162
 30
0.0
  0
VERTEX
  5
1F8F
  8
LAYER_1
 10
-18.17121200944004
 20
27.771327483549371
 30
0.0
  0
SEQEND
  5
1F90
  8
LAYER_1
  0
LINE
  5
1F91
  8
LAYER_1
 10
-18.17121200944004
 20
27.877915121189162
 30
0.0
 11
-18.17121200944004
 21
27.771327483549371
 31
0.0
  0
LINE
  5
1F92
  8
LAYER_1
 10
-18.17121200944004
 20
27.877915121189162
 30
0.0
 11
-18.17121200944004
 21
27.771327483549371
 31
0.0
  0
POLYLINE
  5
1F93
  8
LAYER_1
 66
     1
 10
0.0
 20
0.0
 30
0.0
  0
VERTEX
  5
1F94
  8
LAYER_1
 10
-18.17121200944004
 20
27.877915121189162
 30
0.0
  0
VERTEX
  5
1F95
  8
LAYER_1
 10
-18.27758300553992
 20
27.877915121189162
 30
0.0
  0
VERTEX
  5
1F96
  8
LAYER_1
 10
-18.27758300553992
 20
27.98450275882896
 30
0.0
  0
VERTEX
  5
1F97
  8
LAYER_1
 10
-18.27758300553992
 20
27.877915121189162
 30
0.0
  0
SEQEND
  5
1F98
  8
LAYER_1
  0
LINE
  5
1F99
  8
LAYER_1
 10
-18.27758300553992
 20
27.98450275882896
 30
0.0
 11
-18.27758300553992
 21
27.877915121189162
 31
0.0
  0
LINE
  5
1F9A
  8
LAYER_1
 10
-18.27758300553992
 20
27.98450275882896
 30
0.0
 11
-18.27758300553992
 21
27.877915121189162
 31
0.0
  0
POLYLINE
  5
1F9B
  8
LAYER_1
 66
     1
 10
0.0
 20
0.0
 30
0.0
  0
VERTEX
  5
1F9C
  8
LAYER_1
 10
-18.27758300553992
 20
27.98450275882896
 30
0.0
  0
VERTEX
  5
1F9D
  8
LAYER_1
 10
-18.384170643179711
 20
27.98450275882896
 30
0.0
  0
VERTEX
  5
1F9E
  8
LAYER_1
 10
-18.384170643179711
 20
27.877915121189162
 30
0.0
  0
SEQEND
  5
1F9F
  8
LAYER_1
  0
POLYLINE
  5
1FA0
  8
LAYER_1
 66
     1
 10
0.0
 20
0.0
 30
0.0
  0
VERTEX
  5
1FA1
  8
LAYER_1
 10
-18.384170643179711
 20
27.98450275882896
 30
0.0
  0
VERTEX
  5
1FA2
  8
LAYER_1
 10
-18.384170643179711
 20
28.091090396468761
 30
0.0
  0
VERTEX
  5
1FA3
  8
LAYER_1
 10
-18.384170643179711
 20
27.98450275882896
 30
0.0
  0
SEQEND
  5
1FA4
  8
LAYER_1
  0
POLYLINE
  5
1FA5
  8
LAYER_1
 66
     1
 10
0.0
 20
0.0
 30
0.0
  0
VERTEX
  5
1FA6
  8
LAYER_1
 10
-18.384170643179711
 20
28.091090396468761
 30
0.0
  0
VERTEX
  5
1FA7
  8
LAYER_1
 10
-18.490758280819481
 20
28.091090396468761
 30
0.0
  0
VERTEX
  5
1FA8
  8
LAYER_1
 10
-18.490758280819481
 20
27.98450275882896
 30
0.0
  0
SEQEND
  5
1FA9
  8
LAYER_1
  0
LINE
  5
1FAA
  8
LAYER_1
 10
-18.490758280819481
 20
28.091090396468761
 30
0.0
 11
-18.490758280819481
 21
27.98450275882896
 31
0.0
  0
LINE
  5
1FAB
  8
LAYER_1
 10
-18.490758280819481
 20
28.091090396468761
 30
0.0
 11
-18.490758280819481
 21
27.98450275882896
 31
0.0
  0
POLYLINE
  5
1FAC
  8
LAYER_1
 66
     1
 10
0.0
 20
0.0
 30
0.0
  0
VERTEX
  5
1FAD
  8
LAYER_1
 10
-18.490758280819481
 20
28.091090396468761
 30
0.0
  0
VERTEX
  5
1FAE
  8
LAYER_1
 10
-18.597129276919361
 20
28.091090396468761
 30
0.0
  0
VERTEX
  5
1FAF
  8
LAYER_1
 10
-18.597129276919361
 20
28.197244751028698
 30
0.0
  0
VERTEX
  5
1FB0
  8
LAYER_1
 10
-18.597129276919361
 20
28.091090396468761
 30
0.0
  0
SEQEND
  5
1FB1
  8
LAYER_1
  0
LINE
  5
1FB2
  8
LAYER_1
 10
-18.597129276919361
 20
28.197244751028698
 30
0.0
 11
-18.597129276919361
 21
28.091090396468761
 31
0.0
  0
LINE
  5
1FB3
  8
LAYER_1
 10
-18.597129276919361
 20
28.197244751028698
 30
0.0
 11
-18.597129276919361
 21
28.091090396468761
 31
0.0
  0
POLYLINE
  5
1FB4
  8
LAYER_1
 66
     1
 10
0.0
 20
0.0
 30
0.0
  0
VERTEX
  5
1FB5
  8
LAYER_1
 10
-18.597129276919361
 20
28.197244751028698
 30
0.0
  0
VERTEX
  5
1FB6
  8
LAYER_1
 10
-18.703716914559148
 20
28.197244751028698
 30
0.0
  0
VERTEX
  5
1FB7
  8
LAYER_1
 10
-18.703716914559148
 20
28.091090396468761
 30
0.0
  0
SEQEND
  5
1FB8
  8
LAYER_1
  0
LINE
  5
1FB9
  8
LAYER_1
 10
-18.703716914559148
 20
28.197244751028698
 30
0.0
 11
-18.703716914559148
 21
28.091090396468761
 31
0.0
  0
LINE
  5
1FBA
  8
LAYER_1
 10
-18.703716914559148
 20
28.197244751028698
 30
0.0
 11
-18.703716914559148
 21
28.091090396468761
 31
0.0
  0
POLYLINE
  5
1FBB
  8
LAYER_1
 66
     1
 10
0.0
 20
0.0
 30
0.0
  0
VERTEX
  5
1FBC
  8
LAYER_1
 10
-18.703716914559148
 20
28.197244751028698
 30
0.0
  0
VERTEX
  5
1FBD
  8
LAYER_1
 10
-18.703716914559148
 20
28.3038323886685
 30
0.0
  0
VERTEX
  5
1FBE
  8
LAYER_1
 10
-18.703716914559148
 20
28.197244751028698
 30
0.0
  0
SEQEND
  5
1FBF
  8
LAYER_1
  0
LINE
  5
1FC0
  8
LAYER_1
 10
-18.703716914559148
 20
28.3038323886685
 30
0.0
 11
-18.703716914559148
 21
28.197244751028698
 31
0.0
  0
LINE
  5
1FC1
  8
LAYER_1
 10
-18.703716914559148
 20
28.3038323886685
 30
0.0
 11
-18.703716914559148
 21
28.197244751028698
 31
0.0
  0
POLYLINE
  5
1FC2
  8
LAYER_1
 66
     1
 10
0.0
 20
0.0
 30
0.0
  0
VERTEX
  5
1FC3
  8
LAYER_1
 10
-18.703716914559148
 20
28.3038323886685
 30
0.0
  0
VERTEX
  5
1FC4
  8
LAYER_1
 10
-18.810087910659028
 20
28.3038323886685
 30
0.0
  0
VERTEX
  5
1FC5
  8
LAYER_1
 10
-18.810087910659028
 20
28.197244751028698
 30
0.0
  0
SEQEND
  5
1FC6
  8
LAYER_1
  0
LINE
  5
1FC7
  8
LAYER_1
 10
-18.810087910659028
 20
28.3038323886685
 30
0.0
 11
-18.810087910659028
 21
28.197244751028698
 31
0.0
  0
LINE
  5
1FC8
  8
LAYER_1
 10
-18.810087910659028
 20
28.3038323886685
 30
0.0
 11
-18.810087910659028
 21
28.197244751028698
 31
0.0
  0
LINE
  5
1FC9
  8
LAYER_1
 10
-18.810087910659028
 20
28.3038323886685
 30
0.0
 11
-18.810087910659028
 21
28.197244751028698
 31
0.0
  0
LINE
  5
1FCA
  8
LAYER_1
 10
-18.810087910659028
 20
28.3038323886685
 30
0.0
 11
-18.810087910659028
 21
28.197244751028698
 31
0.0
  0
LINE
  5
1FCB
  8
LAYER_1
 10
-18.810087910659028
 20
28.3038323886685
 30
0.0
 11
-18.810087910659028
 21
28.197244751028698
 31
0.0
  0
LINE
  5
1FCC
  8
LAYER_1
 10
-18.810087910659028
 20
28.3038323886685
 30
0.0
 11
-18.810087910659028
 21
28.197244751028698
 31
0.0
  0
POLYLINE
  5
1FCD
  8
LAYER_1
 66
     1
 10
0.0
 20
0.0
 30
0.0
  0
VERTEX
  5
1FCE
  8
LAYER_1
 10
-17.212789836841569
 20
28.747763008464759
 30
0.0
  0
VERTEX
  5
1FCF
  8
LAYER_1
 10
-17.319377474481371
 20
28.747763008464759
 30
0.0
  0
VERTEX
  5
1FD0
  8
LAYER_1
 10
-17.319377474481371
 20
28.62316201850804
 30
0.0
  0
SEQEND
  5
1FD1
  8
LAYER_1
  0
LINE
  5
1FD2
  8
LAYER_1
 10
-17.319377474481371
 20
28.729749656147821
 30
0.0
 11
-17.319377474481371
 21
28.62316201850804
 31
0.0
  0
LINE
  5
1FD3
  8
LAYER_1
 10
-17.319377474481371
 20
28.729749656147821
 30
0.0
 11
-17.319377474481371
 21
28.62316201850804
 31
0.0
  0
LINE
  5
1FD4
  8
LAYER_1
 10
-17.319377474481371
 20
28.729749656147821
 30
0.0
 11
-17.319377474481371
 21
28.62316201850804
 31
0.0
  0
LINE
  5
1FD5
  8
LAYER_1
 10
-17.319377474481371
 20
28.729749656147821
 30
0.0
 11
-17.319377474481371
 21
28.62316201850804
 31
0.0
  0
LINE
  5
1FD6
  8
LAYER_1
 10
-17.319377474481371
 20
28.729749656147821
 30
0.0
 11
-17.319377474481371
 21
28.62316201850804
 31
0.0
  0
LINE
  5
1FD7
  8
LAYER_1
 10
-17.319377474481371
 20
28.729749656147821
 30
0.0
 11
-17.319377474481371
 21
28.62316201850804
 31
0.0
  0
LINE
  5
1FD8
  8
LAYER_1
 10
-17.319377474481371
 20
28.729749656147821
 30
0.0
 11
-17.319377474481371
 21
28.62316201850804
 31
0.0
  0
POLYLINE
  5
1FD9
  8
LAYER_1
 66
     1
 10
0.0
 20
0.0
 30
0.0
  0
VERTEX
  5
1FDA
  8
LAYER_1
 10
19.736941286999372
 20
30.327264371505169
 30
0.0
  0
VERTEX
  5
1FDB
  8
LAYER_1
 10
19.41761165715987
 20
30.327264371505169
 30
0.0
  0
VERTEX
  5
1FDC
  8
LAYER_1
 10
19.2046530234202
 20
30.433418726065121
 30
0.0
  0
VERTEX
  5
1FDD
  8
LAYER_1
 10
18.672148118301099
 20
30.433418726065121
 30
0.0
  0
VERTEX
  5
1FDE
  8
LAYER_1
 10
18.459189484561431
 20
30.540006363704912
 30
0.0
  0
VERTEX
  5
1FDF
  8
LAYER_1
 10
18.033272217082079
 20
30.540006363704912
 30
0.0
  0
VERTEX
  5
1FE0
  8
LAYER_1
 10
17.713725945702599
 20
30.646594001344699
 30
0.0
  0
VERTEX
  5
1FE1
  8
LAYER_1
 10
16.968479048383799
 20
30.646594001344699
 30
0.0
  0
VERTEX
  5
1FE2
  8
LAYER_1
 10
16.648932777004319
 20
30.753181638984501
 30
0.0
  0
VERTEX
  5
1FE3
  8
LAYER_1
 10
16.11642787188519
 20
30.753181638984501
 30
0.0
  0
VERTEX
  5
1FE4
  8
LAYER_1
 10
15.79709824204566
 20
30.859335993544448
 30
0.0
  0
VERTEX
  5
1FE5
  8
LAYER_1
 10
14.5193464396077
 20
30.859335993544448
 30
0.0
  0
VERTEX
  5
1FE6
  8
LAYER_1
 10
14.09342917212834
 20
30.96592363118425
 30
0.0
  0
VERTEX
  5
1FE7
  8
LAYER_1
 10
12.709089732050581
 20
30.96592363118425
 30
0.0
  0
VERTEX
  5
1FE8
  8
LAYER_1
 10
12.283172464571249
 20
31.07251126882403
 30
0.0
  0
VERTEX
  5
1FE9
  8
LAYER_1
 10
9.9404108518950594
 20
31.07251126882403
 30
0.0
  0
VERTEX
  5
1FEA
  8
LAYER_1
 10
9.5144935844157388
 20
31.179098906463839
 30
0.0
  0
VERTEX
  5
1FEB
  8
LAYER_1
 10
5.6812381771017959
 20
31.179098906463839
 30
0.0
  0
VERTEX
  5
1FEC
  8
LAYER_1
 10
5.2551042680825466
 20
31.310263008464759
 30
0.0
  0
SEQEND
  5
1FED
  8
LAYER_1
  0
LINE
  5
1FEE
  8
LAYER_1
 10
20.375817188218409
 20
28.3038323886685
 30
0.0
 11
20.375817188218409
 21
28.197244751028698
 31
0.0
  0
LINE
  5
1FEF
  8
LAYER_1
 10
20.375817188218409
 20
28.3038323886685
 30
0.0
 11
20.375817188218409
 21
28.197244751028698
 31
0.0
  0
LINE
  5
1FF0
  8
LAYER_1
 10
20.375817188218409
 20
28.3038323886685
 30
0.0
 11
20.375817188218409
 21
28.197244751028698
 31
0.0
  0
LINE
  5
1FF1
  8
LAYER_1
 10
20.375817188218409
 20
28.3038323886685
 30
0.0
 11
20.375817188218409
 21
28.197244751028698
 31
0.0
  0
LINE
  5
1FF2
  8
LAYER_1
 10
20.375817188218409
 20
28.3038323886685
 30
0.0
 11
20.375817188218409
 21
28.197244751028698
 31
0.0
  0
LINE
  5
1FF3
  8
LAYER_1
 10
20.375817188218409
 20
28.3038323886685
 30
0.0
 11
20.375817188218409
 21
28.197244751028698
 31
0.0
  0
LINE
  5
1FF4
  8
LAYER_1
 10
20.375817188218409
 20
28.3038323886685
 30
0.0
 11
20.375817188218409
 21
28.197244751028698
 31
0.0
  0
LINE
  5
1FF5
  8
LAYER_1
 10
20.375817188218409
 20
28.3038323886685
 30
0.0
 11
20.375817188218409
 21
28.197244751028698
 31
0.0
  0
POLYLINE
  5
1FF6
  8
LAYER_1
 66
     1
 10
0.0
 20
0.0
 30
0.0
  0
VERTEX
  5
1FF7
  8
LAYER_1
 10
20.375817188218409
 20
28.3038323886685
 30
0.0
  0
VERTEX
  5
1FF8
  8
LAYER_1
 10
20.26944619211854
 20
28.3038323886685
 30
0.0
  0
VERTEX
  5
1FF9
  8
LAYER_1
 10
20.26944619211854
 20
28.197244751028698
 30
0.0
  0
SEQEND
  5
1FFA
  8
LAYER_1
  0
LINE
  5
1FFB
  8
LAYER_1
 10
20.26944619211854
 20
28.3038323886685
 30
0.0
 11
20.26944619211854
 21
28.197244751028698
 31
0.0
  0
LINE
  5
1FFC
  8
LAYER_1
 10
20.26944619211854
 20
28.3038323886685
 30
0.0
 11
20.26944619211854
 21
28.197244751028698
 31
0.0
  0
LINE
  5
1FFD
  8
LAYER_1
 10
20.26944619211854
 20
28.3038323886685
 30
0.0
 11
20.26944619211854
 21
28.197244751028698
 31
0.0
  0
LINE
  5
1FFE
  8
LAYER_1
 10
20.26944619211854
 20
28.3038323886685
 30
0.0
 11
20.26944619211854
 21
28.197244751028698
 31
0.0
  0
POLYLINE
  5
1FFF
  8
LAYER_1
 66
     1
 10
0.0
 20
0.0
 30
0.0
  0
VERTEX
  5
2000
  8
LAYER_1
 10
20.26944619211854
 20
28.3038323886685
 30
0.0
  0
VERTEX
  5
2001
  8
LAYER_1
 10
20.16285855447871
 20
28.197244751028698
 30
0.0
  0
VERTEX
  5
2002
  8
LAYER_1
 10
20.16285855447871
 20
28.091090396468761
 30
0.0
  0
SEQEND
  5
2003
  8
LAYER_1
  0
LINE
  5
2004
  8
LAYER_1
 10
20.16285855447871
 20
28.197244751028698
 30
0.0
 11
20.16285855447871
 21
28.091090396468761
 31
0.0
  0
LINE
  5
2005
  8
LAYER_1
 10
20.16285855447871
 20
28.197244751028698
 30
0.0
 11
20.16285855447871
 21
28.091090396468761
 31
0.0
  0
LINE
  5
2006
  8
LAYER_1
 10
20.16285855447871
 20
28.197244751028698
 30
0.0
 11
20.16285855447871
 21
28.091090396468761
 31
0.0
  0
POLYLINE
  5
2007
  8
LAYER_1
 66
     1
 10
0.0
 20
0.0
 30
0.0
  0
VERTEX
  5
2008
  8
LAYER_1
 10
20.16285855447871
 20
28.197244751028698
 30
0.0
  0
VERTEX
  5
2009
  8
LAYER_1
 10
20.056487558378841
 20
28.197244751028698
 30
0.0
  0
VERTEX
  5
200A
  8
LAYER_1
 10
20.056487558378841
 20
28.091090396468761
 30
0.0
  0
SEQEND
  5
200B
  8
LAYER_1
  0
LINE
  5
200C
  8
LAYER_1
 10
20.056487558378841
 20
28.197244751028698
 30
0.0
 11
20.056487558378841
 21
27.98450275882896
 31
0.0
  0
POLYLINE
  5
200D
  8
LAYER_1
 66
     1
 10
0.0
 20
0.0
 30
0.0
  0
VERTEX
  5
200E
  8
LAYER_1
 10
20.056487558378841
 20
28.091090396468761
 30
0.0
  0
VERTEX
  5
200F
  8
LAYER_1
 10
19.94989992073911
 20
28.091090396468761
 30
0.0
  0
VERTEX
  5
2010
  8
LAYER_1
 10
19.94989992073911
 20
27.98450275882896
 30
0.0
  0
SEQEND
  5
2011
  8
LAYER_1
  0
LINE
  5
2012
  8
LAYER_1
 10
19.94989992073911
 20
28.091090396468761
 30
0.0
 11
19.94989992073911
 21
27.98450275882896
 31
0.0
  0
LINE
  5
2013
  8
LAYER_1
 10
19.94989992073911
 20
28.091090396468761
 30
0.0
 11
19.94989992073911
 21
27.98450275882896
 31
0.0
  0
POLYLINE
  5
2014
  8
LAYER_1
 66
     1
 10
0.0
 20
0.0
 30
0.0
  0
VERTEX
  5
2015
  8
LAYER_1
 10
19.94989992073911
 20
28.091090396468761
 30
0.0
  0
VERTEX
  5
2016
  8
LAYER_1
 10
19.84352892463918
 20
27.98450275882896
 30
0.0
  0
VERTEX
  5
2017
  8
LAYER_1
 10
19.84352892463918
 20
27.877915121189162
 30
0.0
  0
SEQEND
  5
2018
  8
LAYER_1
  0
LINE
  5
2019
  8
LAYER_1
 10
19.84352892463918
 20
27.98450275882896
 30
0.0
 11
19.84352892463918
 21
27.877915121189162
 31
0.0
  0
LINE
  5
201A
  8
LAYER_1
 10
19.84352892463918
 20
27.98450275882896
 30
0.0
 11
19.84352892463918
 21
27.877915121189162
 31
0.0
  0
POLYLINE
  5
201B
  8
LAYER_1
 66
     1
 10
0.0
 20
0.0
 30
0.0
  0
VERTEX
  5
201C
  8
LAYER_1
 10
19.84352892463918
 20
27.98450275882896
 30
0.0
  0
VERTEX
  5
201D
  8
LAYER_1
 10
19.736941286999372
 20
27.98450275882896
 30
0.0
  0
VERTEX
  5
201E
  8
LAYER_1
 10
19.736941286999372
 20
27.877915121189162
 30
0.0
  0
SEQEND
  5
201F
  8
LAYER_1
  0
LINE
  5
2020
  8
LAYER_1
 10
19.736941286999372
 20
27.98450275882896
 30
0.0
 11
19.736941286999372
 21
27.771327483549371
 31
0.0
  0
POLYLINE
  5
2021
  8
LAYER_1
 66
     1
 10
0.0
 20
0.0
 30
0.0
  0
VERTEX
  5
2022
  8
LAYER_1
 10
19.736941286999372
 20
27.877915121189162
 30
0.0
  0
VERTEX
  5
2023
  8
LAYER_1
 10
19.630570290899531
 20
27.877915121189162
 30
0.0
  0
VERTEX
  5
2024
  8
LAYER_1
 10
19.630570290899531
 20
27.771327483549371
 30
0.0
  0
SEQEND
  5
2025
  8
LAYER_1
  0
LINE
  5
2026
  8
LAYER_1
 10
19.630570290899531
 20
27.877915121189162
 30
0.0
 11
19.630570290899531
 21
27.771327483549371
 31
0.0
  0
LINE
  5
2027
  8
LAYER_1
 10
19.630570290899531
 20
27.877915121189162
 30
0.0
 11
19.630570290899531
 21
27.771327483549371
 31
0.0
  0
POLYLINE
  5
2028
  8
LAYER_1
 66
     1
 10
0.0
 20
0.0
 30
0.0
  0
VERTEX
  5
2029
  8
LAYER_1
 10
19.630570290899531
 20
27.877915121189162
 30
0.0
  0
VERTEX
  5
202A
  8
LAYER_1
 10
19.523982653259729
 20
27.771327483549371
 30
0.0
  0
VERTEX
  5
202B
  8
LAYER_1
 10
19.523982653259729
 20
27.66517312898943
 30
0.0
  0
SEQEND
  5
202C
  8
LAYER_1
  0
LINE
  5
202D
  8
LAYER_1
 10
19.523982653259729
 20
27.771327483549371
 30
0.0
 11
19.523982653259729
 21
27.66517312898943
 31
0.0
  0
LINE
  5
202E
  8
LAYER_1
 10
19.523982653259729
 20
27.771327483549371
 30
0.0
 11
19.523982653259729
 21
27.66517312898943
 31
0.0
  0
LINE
  5
202F
  8
LAYER_1
 10
19.523982653259729
 20
27.771327483549371
 30
0.0
 11
19.523982653259729
 21
27.66517312898943
 31
0.0
  0
POLYLINE
  5
2030
  8
LAYER_1
 66
     1
 10
0.0
 20
0.0
 30
0.0
  0
VERTEX
  5
2031
  8
LAYER_1
 10
19.523982653259729
 20
27.771327483549371
 30
0.0
  0
VERTEX
  5
2032
  8
LAYER_1
 10
19.41761165715987
 20
27.771327483549371
 30
0.0
  0
VERTEX
  5
2033
  8
LAYER_1
 10
19.41761165715987
 20
27.66517312898943
 30
0.0
  0
SEQEND
  5
2034
  8
LAYER_1
  0
LINE
  5
2035
  8
LAYER_1
 10
19.41761165715987
 20
27.771327483549371
 30
0.0
 11
19.41761165715987
 21
27.66517312898943
 31
0.0
  0
LINE
  5
2036
  8
LAYER_1
 10
19.41761165715987
 20
27.771327483549371
 30
0.0
 11
19.41761165715987
 21
27.66517312898943
 31
0.0
  0
LINE
  5
2037
  8
LAYER_1
 10
19.41761165715987
 20
27.771327483549371
 30
0.0
 11
19.41761165715987
 21
27.558585491349628
 31
0.0
  0
LINE
  5
2038
  8
LAYER_1
 10
19.41761165715987
 20
27.66517312898943
 30
0.0
 11
19.41761165715987
 21
27.558585491349628
 31
0.0
  0
LINE
  5
2039
  8
LAYER_1
 10
19.41761165715987
 20
27.66517312898943
 30
0.0
 11
19.41761165715987
 21
27.558585491349628
 31
0.0
  0
LINE
  5
203A
  8
LAYER_1
 10
19.41761165715987
 20
27.66517312898943
 30
0.0
 11
19.41761165715987
 21
27.558585491349628
 31
0.0
  0
LINE
  5
203B
  8
LAYER_1
 10
19.41761165715987
 20
27.66517312898943
 30
0.0
 11
19.41761165715987
 21
27.558585491349628
 31
0.0
  0
POLYLINE
  5
203C
  8
LAYER_1
 66
     1
 10
0.0
 20
0.0
 30
0.0
  0
VERTEX
  5
203D
  8
LAYER_1
 10
19.41761165715987
 20
27.66517312898943
 30
0.0
  0
VERTEX
  5
203E
  8
LAYER_1
 10
19.311024019520069
 20
27.66517312898943
 30
0.0
  0
VERTEX
  5
203F
  8
LAYER_1
 10
19.311024019520069
 20
27.558585491349628
 30
0.0
  0
SEQEND
  5
2040
  8
LAYER_1
  0
LINE
  5
2041
  8
LAYER_1
 10
19.311024019520069
 20
27.66517312898943
 30
0.0
 11
19.311024019520069
 21
27.558585491349628
 31
0.0
  0
LINE
  5
2042
  8
LAYER_1
 10
18.352601846921608
 20
28.3038323886685
 30
0.0
 11
18.352601846921608
 21
28.197244751028698
 31
0.0
  0
LINE
  5
2043
  8
LAYER_1
 10
18.352601846921608
 20
28.3038323886685
 30
0.0
 11
18.352601846921608
 21
28.197244751028698
 31
0.0
  0
LINE
  5
2044
  8
LAYER_1
 10
18.352601846921608
 20
28.3038323886685
 30
0.0
 11
18.352601846921608
 21
28.197244751028698
 31
0.0
  0
LINE
  5
2045
  8
LAYER_1
 10
18.352601846921608
 20
28.3038323886685
 30
0.0
 11
18.352601846921608
 21
28.197244751028698
 31
0.0
  0
LINE
  5
2046
  8
LAYER_1
 10
18.352601846921608
 20
28.3038323886685
 30
0.0
 11
18.352601846921608
 21
28.197244751028698
 31
0.0
  0
POLYLINE
  5
2047
  8
LAYER_1
 66
     1
 10
0.0
 20
0.0
 30
0.0
  0
VERTEX
  5
2048
  8
LAYER_1
 10
-19.023046544398689
 20
28.517007663948078
 30
0.0
  0
VERTEX
  5
2049
  8
LAYER_1
 10
-19.236005178138349
 20
28.517007663948078
 30
0.0
  0
VERTEX
  5
204A
  8
LAYER_1
 10
-19.236005178138349
 20
28.41042002630827
 30
0.0
  0
SEQEND
  5
204B
  8
LAYER_1
  0
POLYLINE
  5
204C
  8
LAYER_1
 66
     1
 10
0.0
 20
0.0
 30
0.0
  0
VERTEX
  5
204D
  8
LAYER_1
 10
-19.236005178138349
 20
28.517007663948078
 30
0.0
  0
VERTEX
  5
204E
  8
LAYER_1
 10
-19.448963811877999
 20
28.517007663948078
 30
0.0
  0
VERTEX
  5
204F
  8
LAYER_1
 10
-19.448963811877999
 20
28.41042002630827
 30
0.0
  0
SEQEND
  5
2050
  8
LAYER_1
  0
POLYLINE
  5
2051
  8
LAYER_1
 66
     1
 10
0.0
 20
0.0
 30
0.0
  0
VERTEX
  5
2052
  8
LAYER_1
 10
-19.5555514495178
 20
28.517007663948078
 30
0.0
  0
VERTEX
  5
2053
  8
LAYER_1
 10
-19.768510083257461
 20
28.517007663948078
 30
0.0
  0
VERTEX
  5
2054
  8
LAYER_1
 10
-19.874881079357319
 20
28.41042002630827
 30
0.0
  0
VERTEX
  5
2055
  8
LAYER_1
 10
-20.087839713096979
 20
28.41042002630827
 30
0.0
  0
VERTEX
  5
2056
  8
LAYER_1
 10
-20.194427350736792
 20
28.3038323886685
 30
0.0
  0
VERTEX
  5
2057
  8
LAYER_1
 10
-20.30079834683665
 20
28.3038323886685
 30
0.0
  0
VERTEX
  5
2058
  8
LAYER_1
 10
-20.30079834683665
 20
28.091090396468761
 30
0.0
  0
SEQEND
  5
2059
  8
LAYER_1
  0
LINE
  5
205A
  8
LAYER_1
 10
-20.30079834683665
 20
28.197244751028698
 30
0.0
 11
-20.30079834683665
 21
27.98450275882896
 31
0.0
  0
POLYLINE
  5
205B
  8
LAYER_1
 66
     1
 10
0.0
 20
0.0
 30
0.0
  0
VERTEX
  5
205C
  8
LAYER_1
 10
-20.30079834683665
 20
28.091090396468761
 30
0.0
  0
VERTEX
  5
205D
  8
LAYER_1
 10
-20.194427350736792
 20
27.98450275882896
 30
0.0
  0
VERTEX
  5
205E
  8
LAYER_1
 10
-19.981468716997131
 20
27.98450275882896
 30
0.0
  0
VERTEX
  5
205F
  8
LAYER_1
 10
-19.874881079357319
 20
27.877915121189162
 30
0.0
  0
VERTEX
  5
2060
  8
LAYER_1
 10
-19.66192244561767
 20
27.877915121189162
 30
0.0
  0
VERTEX
  5
2061
  8
LAYER_1
 10
-19.236005178138349
 20
27.66517312898943
 30
0.0
  0
VERTEX
  5
2062
  8
LAYER_1
 10
-19.023046544398689
 20
27.66517312898943
 30
0.0
  0
VERTEX
  5
2063
  8
LAYER_1
 10
-18.703716914559148
 20
27.558585491349628
 30
0.0
  0
VERTEX
  5
2064
  8
LAYER_1
 10
-18.490758280819481
 20
27.558585491349628
 30
0.0
  0
VERTEX
  5
2065
  8
LAYER_1
 10
-18.17121200944004
 20
27.451997853709841
 30
0.0
  0
VERTEX
  5
2066
  8
LAYER_1
 10
-17.851665738060589
 20
27.451997853709841
 30
0.0
  0
VERTEX
  5
2067
  8
LAYER_1
 10
-17.532336108221038
 20
27.34541021607005
 30
0.0
  0
VERTEX
  5
2068
  8
LAYER_1
 10
-17.106418840741721
 20
27.23882257843027
 30
0.0
  0
VERTEX
  5
2069
  8
LAYER_1
 10
-16.786872569362281
 20
27.23882257843027
 30
0.0
  0
VERTEX
  5
206A
  8
LAYER_1
 10
-16.360955301882939
 20
27.132668223870301
 30
0.0
  0
VERTEX
  5
206B
  8
LAYER_1
 10
-16.041625672043399
 20
27.026080586230531
 30
0.0
  0
SEQEND
  5
206C
  8
LAYER_1
  0
LINE
  5
206D
  8
LAYER_1
 10
-18.17121200944004
 20
28.747763008464759
 30
0.0
 11
-18.17121200944004
 21
28.62316201850804
 31
0.0
  0
POLYLINE
  5
206E
  8
LAYER_1
 66
     1
 10
0.0
 20
0.0
 30
0.0
  0
VERTEX
  5
206F
  8
LAYER_1
 10
-18.17121200944004
 20
28.747763008464759
 30
0.0
  0
VERTEX
  5
2070
  8
LAYER_1
 10
-18.384170643179711
 20
28.747763008464759
 30
0.0
  0
VERTEX
  5
2071
  8
LAYER_1
 10
-18.384170643179711
 20
28.62316201850804
 30
0.0
  0
SEQEND
  5
2072
  8
LAYER_1
  0
POLYLINE
  5
2073
  8
LAYER_1
 66
     1
 10
0.0
 20
0.0
 30
0.0
  0
VERTEX
  5
2074
  8
LAYER_1
 10
-18.384170643179711
 20
28.747763008464759
 30
0.0
  0
VERTEX
  5
2075
  8
LAYER_1
 10
-18.490758280819481
 20
28.62316201850804
 30
0.0
  0
VERTEX
  5
2076
  8
LAYER_1
 10
-18.703716914559148
 20
28.62316201850804
 30
0.0
  0
SEQEND
  5
2077
  8
LAYER_1
  0
POLYLINE
  5
2078
  8
LAYER_1
 66
     1
 10
0.0
 20
0.0
 30
0.0
  0
VERTEX
  5
2079
  8
LAYER_1
 10
-18.384170643179711
 20
28.747763008464759
 30
0.0
  0
VERTEX
  5
207A
  8
LAYER_1
 10
-18.703716914559148
 20
28.747763008464759
 30
0.0
  0
VERTEX
  5
207B
  8
LAYER_1
 10
-18.916675548298809
 20
28.62316201850804
 30
0.0
  0
VERTEX
  5
207C
  8
LAYER_1
 10
-19.129634182038469
 20
28.62316201850804
 30
0.0
  0
VERTEX
  5
207D
  8
LAYER_1
 10
-19.34259281577814
 20
28.517007663948078
 30
0.0
  0
VERTEX
  5
207E
  8
LAYER_1
 10
-19.5555514495178
 20
28.517007663948078
 30
0.0
  0
SEQEND
  5
207F
  8
LAYER_1
  0
POLYLINE
  5
2080
  8
LAYER_1
 66
     1
 10
0.0
 20
0.0
 30
0.0
  0
VERTEX
  5
2081
  8
LAYER_1
 10
20.26944619211854
 20
30.11408909622558
 30
0.0
  0
VERTEX
  5
2082
  8
LAYER_1
 10
20.16285855447871
 20
30.11408909622558
 30
0.0
  0
VERTEX
  5
2083
  8
LAYER_1
 10
20.056487558378841
 20
30.220676733865378
 30
0.0
  0
VERTEX
  5
2084
  8
LAYER_1
 10
19.84352892463918
 20
30.220676733865378
 30
0.0
  0
VERTEX
  5
2085
  8
LAYER_1
 10
19.736941286999372
 20
30.327264371505169
 30
0.0
  0
SEQEND
  5
2086
  8
LAYER_1
  0
POLYLINE
  5
2087
  8
LAYER_1
 66
     1
 10
0.0
 20
0.0
 30
0.0
  0
VERTEX
  5
2088
  8
LAYER_1
 10
-18.06462437180026
 20
30.327264371505169
 30
0.0
  0
VERTEX
  5
2089
  8
LAYER_1
 10
-18.17121200944004
 20
30.327264371505169
 30
0.0
  0
VERTEX
  5
208A
  8
LAYER_1
 10
-18.27758300553992
 20
30.220676733865378
 30
0.0
  0
VERTEX
  5
208B
  8
LAYER_1
 10
-18.490758280819481
 20
30.220676733865378
 30
0.0
  0
VERTEX
  5
208C
  8
LAYER_1
 10
-18.597129276919361
 20
30.11408909622558
 30
0.0
  0
VERTEX
  5
208D
  8
LAYER_1
 10
-18.703716914559148
 20
30.11408909622558
 30
0.0
  0
SEQEND
  5
208E
  8
LAYER_1
  0
POLYLINE
  5
208F
  8
LAYER_1
 66
     1
 10
0.0
 20
0.0
 30
0.0
  0
VERTEX
  5
2090
  8
LAYER_1
 10
18.885106752040748
 20
30.11408909622558
 30
0.0
  0
VERTEX
  5
2091
  8
LAYER_1
 10
18.672148118301099
 20
30.11408909622558
 30
0.0
  0
VERTEX
  5
2092
  8
LAYER_1
 10
18.459189484561431
 20
30.220676733865378
 30
0.0
  0
VERTEX
  5
2093
  8
LAYER_1
 10
17.926684579442298
 20
30.220676733865378
 30
0.0
  0
VERTEX
  5
2094
  8
LAYER_1
 10
17.60735494960273
 20
30.327264371505169
 30
0.0
  0
VERTEX
  5
2095
  8
LAYER_1
 10
16.968479048383799
 20
30.327264371505169
 30
0.0
  0
VERTEX
  5
2096
  8
LAYER_1
 10
16.648932777004319
 20
30.433418726065121
 30
0.0
  0
VERTEX
  5
2097
  8
LAYER_1
 10
15.58413960830601
 20
30.433418726065121
 30
0.0
  0
VERTEX
  5
2098
  8
LAYER_1
 10
15.26459333692655
 20
30.540006363704912
 30
0.0
  0
VERTEX
  5
2099
  8
LAYER_1
 10
13.88047053838868
 20
30.540006363704912
 30
0.0
  0
VERTEX
  5
209A
  8
LAYER_1
 10
13.45433662936944
 20
30.646594001344699
 30
0.0
  0
VERTEX
  5
209B
  8
LAYER_1
 10
11.537708925712471
 20
30.646594001344699
 30
0.0
  0
VERTEX
  5
209C
  8
LAYER_1
 10
11.111791658233161
 20
30.753181638984501
 30
0.0
  0
VERTEX
  5
209D
  8
LAYER_1
 10
8.1301541443379648
 20
30.753181638984501
 30
0.0
  0
VERTEX
  5
209E
  8
LAYER_1
 10
7.7042368768586442
 20
30.859335993544448
 30
0.0
  0
VERTEX
  5
209F
  8
LAYER_1
 10
0.7829729595496247
 20
30.859335993544448
 30
0.0
  0
SEQEND
  5
20A0
  8
LAYER_1
  0
POLYLINE
  5
20A1
  8
LAYER_1
 66
     1
 10
0.0
 20
0.0
 30
0.0
  0
VERTEX
  5
20A2
  8
LAYER_1
 10
21.12128072707716
 20
28.517007663948078
 30
0.0
  0
VERTEX
  5
20A3
  8
LAYER_1
 10
20.908322093337521
 20
28.517007663948078
 30
0.0
  0
VERTEX
  5
20A4
  8
LAYER_1
 10
20.695363459597839
 20
28.62316201850804
 30
0.0
  0
VERTEX
  5
20A5
  8
LAYER_1
 10
20.482404825858161
 20
28.62316201850804
 30
0.0
  0
VERTEX
  5
20A6
  8
LAYER_1
 10
20.16285855447871
 20
28.747763008464759
 30
0.0
  0
VERTEX
  5
20A7
  8
LAYER_1
 10
19.94989992073911
 20
28.747763008464759
 30
0.0
  0
VERTEX
  5
20A8
  8
LAYER_1
 10
19.94989992073911
 20
28.62316201850804
 30
0.0
  0
SEQEND
  5
20A9
  8
LAYER_1
  0
LINE
  5
20AA
  8
LAYER_1
 10
19.630570290899531
 20
28.747763008464759
 30
0.0
 11
19.630570290899531
 21
28.641175370824971
 31
0.0
  0
POLYLINE
  5
20AB
  8
LAYER_1
 66
     1
 10
0.0
 20
0.0
 30
0.0
  0
VERTEX
  5
20AC
  8
LAYER_1
 10
19.630570290899531
 20
28.747763008464759
 30
0.0
  0
VERTEX
  5
20AD
  8
LAYER_1
 10
19.736941286999372
 20
28.747763008464759
 30
0.0
  0
VERTEX
  5
20AE
  8
LAYER_1
 10
19.94989992073911
 20
28.62316201850804
 30
0.0
  0
VERTEX
  5
20AF
  8
LAYER_1
 10
20.375817188218409
 20
28.62316201850804
 30
0.0
  0
VERTEX
  5
20B0
  8
LAYER_1
 10
20.482404825858161
 20
28.517007663948078
 30
0.0
  0
VERTEX
  5
20B1
  8
LAYER_1
 10
20.695363459597839
 20
28.517007663948078
 30
0.0
  0
VERTEX
  5
20B2
  8
LAYER_1
 10
20.695363459597839
 20
28.41042002630827
 30
0.0
  0
SEQEND
  5
20B3
  8
LAYER_1
  0
POLYLINE
  5
20B4
  8
LAYER_1
 66
     1
 10
0.0
 20
0.0
 30
0.0
  0
VERTEX
  5
20B5
  8
LAYER_1
 10
20.695363459597839
 20
28.517007663948078
 30
0.0
  0
VERTEX
  5
20B6
  8
LAYER_1
 10
20.908322093337521
 20
28.517007663948078
 30
0.0
  0
VERTEX
  5
20B7
  8
LAYER_1
 10
20.908322093337521
 20
28.41042002630827
 30
0.0
  0
SEQEND
  5
20B8
  8
LAYER_1
  0
POLYLINE
  5
20B9
  8
LAYER_1
 66
     1
 10
0.0
 20
0.0
 30
0.0
  0
VERTEX
  5
20BA
  8
LAYER_1
 10
20.908322093337521
 20
28.517007663948078
 30
0.0
  0
VERTEX
  5
20BB
  8
LAYER_1
 10
20.908322093337521
 20
28.41042002630827
 30
0.0
  0
VERTEX
  5
20BC
  8
LAYER_1
 10
21.01469308943739
 20
28.41042002630827
 30
0.0
  0
VERTEX
  5
20BD
  8
LAYER_1
 10
21.01469308943739
 20
28.3038323886685
 30
0.0
  0
SEQEND
  5
20BE
  8
LAYER_1
  0
POLYLINE
  5
20BF
  8
LAYER_1
 66
     1
 10
0.0
 20
0.0
 30
0.0
  0
VERTEX
  5
20C0
  8
LAYER_1
 10
20.588775821958031
 20
28.517007663948078
 30
0.0
  0
VERTEX
  5
20C1
  8
LAYER_1
 10
20.482404825858161
 20
28.517007663948078
 30
0.0
  0
VERTEX
  5
20C2
  8
LAYER_1
 10
20.482404825858161
 20
28.62316201850804
 30
0.0
  0
VERTEX
  5
20C3
  8
LAYER_1
 10
20.056487558378841
 20
28.62316201850804
 30
0.0
  0
SEQEND
  5
20C4
  8
LAYER_1
  0
LINE
  5
20C5
  8
LAYER_1
 10
20.908322093337521
 20
28.517007663948078
 30
0.0
 11
20.908322093337521
 21
28.41042002630827
 31
0.0
  0
LINE
  5
20C6
  8
LAYER_1
 10
20.908322093337521
 20
28.517007663948078
 30
0.0
 11
20.588775821958031
 21
28.517007663948078
 31
0.0
  0
POLYLINE
  5
20C7
  8
LAYER_1
 66
     1
 10
0.0
 20
0.0
 30
0.0
  0
VERTEX
  5
20C8
  8
LAYER_1
 10
20.056487558378841
 20
28.62316201850804
 30
0.0
  0
VERTEX
  5
20C9
  8
LAYER_1
 10
19.94989992073911
 20
28.747763008464759
 30
0.0
  0
VERTEX
  5
20CA
  8
LAYER_1
 10
19.630570290899531
 20
28.747763008464759
 30
0.0
  0
SEQEND
  5
20CB
  8
LAYER_1
  0
POLYLINE
  5
20CC
  8
LAYER_1
 66
     1
 10
0.0
 20
0.0
 30
0.0
  0
VERTEX
  5
20CD
  8
LAYER_1
 10
-19.448963811877999
 20
28.517007663948078
 30
0.0
  0
VERTEX
  5
20CE
  8
LAYER_1
 10
-19.5555514495178
 20
28.41042002630827
 30
0.0
  0
VERTEX
  5
20CF
  8
LAYER_1
 10
-19.5555514495178
 20
28.3038323886685
 30
0.0
  0
SEQEND
  5
20D0
  8
LAYER_1
  0
POLYLINE
  5
20D1
  8
LAYER_1
 66
     1
 10
0.0
 20
0.0
 30
0.0
  0
VERTEX
  5
20D2
  8
LAYER_1
 10
-19.5555514495178
 20
28.41042002630827
 30
0.0
  0
VERTEX
  5
20D3
  8
LAYER_1
 10
-19.66192244561767
 20
28.41042002630827
 30
0.0
  0
VERTEX
  5
20D4
  8
LAYER_1
 10
-19.66192244561767
 20
28.3038323886685
 30
0.0
  0
SEQEND
  5
20D5
  8
LAYER_1
  0
LINE
  5
20D6
  8
LAYER_1
 10
-19.66192244561767
 20
28.41042002630827
 30
0.0
 11
-19.66192244561767
 21
28.3038323886685
 31
0.0
  0
POLYLINE
  5
20D7
  8
LAYER_1
 66
     1
 10
0.0
 20
0.0
 30
0.0
  0
VERTEX
  5
20D8
  8
LAYER_1
 10
-19.66192244561767
 20
28.41042002630827
 30
0.0
  0
VERTEX
  5
20D9
  8
LAYER_1
 10
-19.768510083257461
 20
28.41042002630827
 30
0.0
  0
VERTEX
  5
20DA
  8
LAYER_1
 10
-19.768510083257461
 20
28.3038323886685
 30
0.0
  0
SEQEND
  5
20DB
  8
LAYER_1
  0
POLYLINE
  5
20DC
  8
LAYER_1
 66
     1
 10
0.0
 20
0.0
 30
0.0
  0
VERTEX
  5
20DD
  8
LAYER_1
 10
-19.768510083257461
 20
28.41042002630827
 30
0.0
  0
VERTEX
  5
20DE
  8
LAYER_1
 10
-19.768510083257461
 20
28.3038323886685
 30
0.0
  0
VERTEX
  5
20DF
  8
LAYER_1
 10
-19.874881079357319
 20
28.3038323886685
 30
0.0
  0
VERTEX
  5
20E0
  8
LAYER_1
 10
-19.874881079357319
 20
28.197244751028698
 30
0.0
  0
SEQEND
  5
20E1
  8
LAYER_1
  0
LINE
  5
20E2
  8
LAYER_1
 10
-19.874881079357319
 20
28.3038323886685
 30
0.0
 11
-19.874881079357319
 21
28.197244751028698
 31
0.0
  0
LINE
  5
20E3
  8
LAYER_1
 10
-19.874881079357319
 20
28.3038323886685
 30
0.0
 11
-19.874881079357319
 21
28.197244751028698
 31
0.0
  0
LINE
  5
20E4
  8
LAYER_1
 10
-19.874881079357319
 20
28.3038323886685
 30
0.0
 11
-19.874881079357319
 21
28.197244751028698
 31
0.0
  0
POLYLINE
  5
20E5
  8
LAYER_1
 66
     1
 10
0.0
 20
0.0
 30
0.0
  0
VERTEX
  5
20E6
  8
LAYER_1
 10
-19.874881079357319
 20
28.3038323886685
 30
0.0
  0
VERTEX
  5
20E7
  8
LAYER_1
 10
-19.981468716997131
 20
28.197244751028698
 30
0.0
  0
VERTEX
  5
20E8
  8
LAYER_1
 10
-19.981468716997131
 20
28.091090396468761
 30
0.0
  0
SEQEND
  5
20E9
  8
LAYER_1
  0
LINE
  5
20EA
  8
LAYER_1
 10
-19.981468716997131
 20
28.197244751028698
 30
0.0
 11
-19.981468716997131
 21
28.091090396468761
 31
0.0
  0
LINE
  5
20EB
  8
LAYER_1
 10
-19.981468716997131
 20
28.197244751028698
 30
0.0
 11
-19.981468716997131
 21
28.091090396468761
 31
0.0
  0
LINE
  5
20EC
  8
LAYER_1
 10
-19.981468716997131
 20
28.197244751028698
 30
0.0
 11
-19.981468716997131
 21
28.091090396468761
 31
0.0
  0
POLYLINE
  5
20ED
  8
LAYER_1
 66
     1
 10
0.0
 20
0.0
 30
0.0
  0
VERTEX
  5
20EE
  8
LAYER_1
 10
-19.981468716997131
 20
28.197244751028698
 30
0.0
  0
VERTEX
  5
20EF
  8
LAYER_1
 10
-19.874881079357319
 20
28.091090396468761
 30
0.0
  0
VERTEX
  5
20F0
  8
LAYER_1
 10
-19.874881079357319
 20
27.98450275882896
 30
0.0
  0
SEQEND
  5
20F1
  8
LAYER_1
  0
LINE
  5
20F2
  8
LAYER_1
 10
-19.874881079357319
 20
28.091090396468761
 30
0.0
 11
-19.874881079357319
 21
27.98450275882896
 31
0.0
  0
LINE
  5
20F3
  8
LAYER_1
 10
-19.874881079357319
 20
28.091090396468761
 30
0.0
 11
-19.874881079357319
 21
27.98450275882896
 31
0.0
  0
LINE
  5
20F4
  8
LAYER_1
 10
-19.874881079357319
 20
28.091090396468761
 30
0.0
 11
-19.874881079357319
 21
27.98450275882896
 31
0.0
  0
POLYLINE
  5
20F5
  8
LAYER_1
 66
     1
 10
0.0
 20
0.0
 30
0.0
  0
VERTEX
  5
20F6
  8
LAYER_1
 10
-19.874881079357319
 20
28.091090396468761
 30
0.0
  0
VERTEX
  5
20F7
  8
LAYER_1
 10
-19.768510083257461
 20
28.091090396468761
 30
0.0
  0
VERTEX
  5
20F8
  8
LAYER_1
 10
-19.768510083257461
 20
27.877915121189162
 30
0.0
  0
SEQEND
  5
20F9
  8
LAYER_1
  0
POLYLINE
  5
20FA
  8
LAYER_1
 66
     1
 10
0.0
 20
0.0
 30
0.0
  0
VERTEX
  5
20FB
  8
LAYER_1
 10
-19.768510083257461
 20
27.98450275882896
 30
0.0
  0
VERTEX
  5
20FC
  8
LAYER_1
 10
-19.66192244561767
 20
27.98450275882896
 30
0.0
  0
VERTEX
  5
20FD
  8
LAYER_1
 10
-19.66192244561767
 20
27.877915121189162
 30
0.0
  0
SEQEND
  5
20FE
  8
LAYER_1
  0
POLYLINE
  5
20FF
  8
LAYER_1
 66
     1
 10
0.0
 20
0.0
 30
0.0
  0
VERTEX
  5
2100
  8
LAYER_1
 10
-19.66192244561767
 20
27.98450275882896
 30
0.0
  0
VERTEX
  5
2101
  8
LAYER_1
 10
-19.5555514495178
 20
27.98450275882896
 30
0.0
  0
VERTEX
  5
2102
  8
LAYER_1
 10
-19.5555514495178
 20
27.877915121189162
 30
0.0
  0
SEQEND
  5
2103
  8
LAYER_1
  0
POLYLINE
  5
2104
  8
LAYER_1
 66
     1
 10
0.0
 20
0.0
 30
0.0
  0
VERTEX
  5
2105
  8
LAYER_1
 10
-19.5555514495178
 20
27.98450275882896
 30
0.0
  0
VERTEX
  5
2106
  8
LAYER_1
 10
-19.448963811877999
 20
27.877915121189162
 30
0.0
  0
VERTEX
  5
2107
  8
LAYER_1
 10
-19.448963811877999
 20
27.771327483549371
 30
0.0
  0
SEQEND
  5
2108
  8
LAYER_1
  0
POLYLINE
  5
2109
  8
LAYER_1
 66
     1
 10
0.0
 20
0.0
 30
0.0
  0
VERTEX
  5
210A
  8
LAYER_1
 10
-19.448963811877999
 20
27.877915121189162
 30
0.0
  0
VERTEX
  5
210B
  8
LAYER_1
 10
-19.34259281577814
 20
27.877915121189162
 30
0.0
  0
VERTEX
  5
210C
  8
LAYER_1
 10
-19.34259281577814
 20
27.771327483549371
 30
0.0
  0
SEQEND
  5
210D
  8
LAYER_1
  0
POLYLINE
  5
210E
  8
LAYER_1
 66
     1
 10
0.0
 20
0.0
 30
0.0
  0
VERTEX
  5
210F
  8
LAYER_1
 10
-19.34259281577814
 20
27.877915121189162
 30
0.0
  0
VERTEX
  5
2110
  8
LAYER_1
 10
-19.236005178138349
 20
27.877915121189162
 30
0.0
  0
VERTEX
  5
2111
  8
LAYER_1
 10
-19.129634182038469
 20
27.771327483549371
 30
0.0
  0
VERTEX
  5
2112
  8
LAYER_1
 10
-19.129634182038469
 20
27.66517312898943
 30
0.0
  0
SEQEND
  5
2113
  8
LAYER_1
  0
POLYLINE
  5
2114
  8
LAYER_1
 66
     1
 10
0.0
 20
0.0
 30
0.0
  0
VERTEX
  5
2115
  8
LAYER_1
 10
-19.129634182038469
 20
27.771327483549371
 30
0.0
  0
VERTEX
  5
2116
  8
LAYER_1
 10
-18.703716914559148
 20
27.771327483549371
 30
0.0
  0
VERTEX
  5
2117
  8
LAYER_1
 10
-18.703716914559148
 20
27.66517312898943
 30
0.0
  0
VERTEX
  5
2118
  8
LAYER_1
 10
-18.27758300553992
 20
27.66517312898943
 30
0.0
  0
VERTEX
  5
2119
  8
LAYER_1
 10
-18.17121200944004
 20
27.558585491349628
 30
0.0
  0
VERTEX
  5
211A
  8
LAYER_1
 10
-17.74529474196072
 20
27.558585491349628
 30
0.0
  0
VERTEX
  5
211B
  8
LAYER_1
 10
-17.6387071043209
 20
27.451997853709841
 30
0.0
  0
VERTEX
  5
211C
  8
LAYER_1
 10
-16.999831203101909
 20
27.451997853709841
 30
0.0
  0
SEQEND
  5
211D
  8
LAYER_1
  0
POLYLINE
  5
211E
  8
LAYER_1
 66
     1
 10
0.0
 20
0.0
 30
0.0
  0
VERTEX
  5
211F
  8
LAYER_1
 10
-18.703716914559148
 20
28.62316201850804
 30
0.0
  0
VERTEX
  5
2120
  8
LAYER_1
 10
-18.810087910659028
 20
28.62316201850804
 30
0.0
  0
VERTEX
  5
2121
  8
LAYER_1
 10
-18.810087910659028
 20
28.517007663948078
 30
0.0
  0
SEQEND
  5
2122
  8
LAYER_1
  0
POLYLINE
  5
2123
  8
LAYER_1
 66
     1
 10
0.0
 20
0.0
 30
0.0
  0
VERTEX
  5
2124
  8
LAYER_1
 10
-18.810087910659028
 20
28.62316201850804
 30
0.0
  0
VERTEX
  5
2125
  8
LAYER_1
 10
-18.916675548298809
 20
28.62316201850804
 30
0.0
  0
VERTEX
  5
2126
  8
LAYER_1
 10
-19.023046544398689
 20
28.517007663948078
 30
0.0
  0
SEQEND
  5
2127
  8
LAYER_1
  0
LINE
  5
2128
  8
LAYER_1
 10
-16.786872569362281
 20
28.3038323886685
 30
0.0
 11
-16.786872569362281
 21
28.197244751028698
 31
0.0
  0
LINE
  5
2129
  8
LAYER_1
 10
-16.786872569362281
 20
28.3038323886685
 30
0.0
 11
-16.89346020700205
 21
28.3038323886685
 31
0.0
  0
POLYLINE
  5
212A
  8
LAYER_1
 66
     1
 10
0.0
 20
0.0
 30
0.0
  0
VERTEX
  5
212B
  8
LAYER_1
 10
0.7829729595496247
 20
30.859335993544448
 30
0.0
  0
VERTEX
  5
212C
  8
LAYER_1
 10
-6.1385075992992881
 20
30.859335993544448
 30
0.0
  0
VERTEX
  5
212D
  8
LAYER_1
 10
-6.6710125044184201
 20
30.753181638984501
 30
0.0
  0
VERTEX
  5
212E
  8
LAYER_1
 10
-9.6524333767736863
 20
30.753181638984501
 30
0.0
  0
VERTEX
  5
212F
  8
LAYER_1
 10
-9.9719796481531588
 20
30.646594001344699
 30
0.0
  0
VERTEX
  5
2130
  8
LAYER_1
 10
-11.995194989449899
 20
30.646594001344699
 30
0.0
  0
VERTEX
  5
2131
  8
LAYER_1
 10
-12.314524619289431
 20
30.540006363704912
 30
0.0
  0
VERTEX
  5
2132
  8
LAYER_1
 10
-13.80545169700698
 20
30.540006363704912
 30
0.0
  0
VERTEX
  5
2133
  8
LAYER_1
 10
-14.12478132684652
 20
30.433418726065121
 30
0.0
  0
VERTEX
  5
2134
  8
LAYER_1
 10
-15.08320349944497
 20
30.433418726065121
 30
0.0
  0
VERTEX
  5
2135
  8
LAYER_1
 10
-15.40253312928451
 20
30.327264371505169
 30
0.0
  0
VERTEX
  5
2136
  8
LAYER_1
 10
-16.041625672043399
 20
30.327264371505169
 30
0.0
  0
VERTEX
  5
2137
  8
LAYER_1
 10
-16.360955301882939
 20
30.220676733865378
 30
0.0
  0
VERTEX
  5
2138
  8
LAYER_1
 10
-16.89346020700205
 20
30.220676733865378
 30
0.0
  0
VERTEX
  5
2139
  8
LAYER_1
 10
-17.212789836841569
 20
30.11408909622558
 30
0.0
  0
VERTEX
  5
213A
  8
LAYER_1
 10
-17.42574847058124
 20
30.11408909622558
 30
0.0
  0
SEQEND
  5
213B
  8
LAYER_1
  0
POLYLINE
  5
213C
  8
LAYER_1
 66
     1
 10
0.0
 20
0.0
 30
0.0
  0
VERTEX
  5
213D
  8
LAYER_1
 10
-3.6893749905231981
 20
31.310263008464759
 30
0.0
  0
VERTEX
  5
213E
  8
LAYER_1
 10
-4.2218798956423242
 20
31.179098906463839
 30
0.0
  0
VERTEX
  5
213F
  8
LAYER_1
 10
-8.0553519444961879
 20
31.179098906463839
 30
0.0
  0
VERTEX
  5
2140
  8
LAYER_1
 10
-8.4812692119754942
 20
31.07251126882403
 30
0.0
  0
VERTEX
  5
2141
  8
LAYER_1
 10
-10.823814183111811
 20
31.07251126882403
 30
0.0
  0
VERTEX
  5
2142
  8
LAYER_1
 10
-11.143360454491241
 20
30.96592363118425
 30
0.0
  0
VERTEX
  5
2143
  8
LAYER_1
 10
-12.634070890668889
 20
30.96592363118425
 30
0.0
  0
VERTEX
  5
2144
  8
LAYER_1
 10
-12.95340052050844
 20
30.859335993544448
 30
0.0
  0
VERTEX
  5
2145
  8
LAYER_1
 10
-14.2313689644863
 20
30.859335993544448
 30
0.0
  0
VERTEX
  5
2146
  8
LAYER_1
 10
-14.55069859432583
 20
30.753181638984501
 30
0.0
  0
VERTEX
  5
2147
  8
LAYER_1
 10
-15.18957449554485
 20
30.753181638984501
 30
0.0
  0
VERTEX
  5
2148
  8
LAYER_1
 10
-15.40253312928451
 20
30.646594001344699
 30
0.0
  0
VERTEX
  5
2149
  8
LAYER_1
 10
-16.254584305783059
 20
30.646594001344699
 30
0.0
  0
VERTEX
  5
214A
  8
LAYER_1
 10
-16.46754293952273
 20
30.540006363704912
 30
0.0
  0
VERTEX
  5
214B
  8
LAYER_1
 10
-16.89346020700205
 20
30.540006363704912
 30
0.0
  0
VERTEX
  5
214C
  8
LAYER_1
 10
-17.106418840741721
 20
30.433418726065121
 30
0.0
  0
VERTEX
  5
214D
  8
LAYER_1
 10
-17.74529474196072
 20
30.433418726065121
 30
0.0
  0
VERTEX
  5
214E
  8
LAYER_1
 10
-17.851665738060589
 20
30.327264371505169
 30
0.0
  0
VERTEX
  5
214F
  8
LAYER_1
 10
-18.06462437180026
 20
30.327264371505169
 30
0.0
  0
SEQEND
  5
2150
  8
LAYER_1
  0
LINE
  5
2151
  8
LAYER_1
 10
19.84352892463918
 20
27.98450275882896
 30
0.0
 11
19.84352892463918
 21
27.877915121189162
 31
0.0
  0
LINE
  5
2152
  8
LAYER_1
 10
19.84352892463918
 20
27.98450275882896
 30
0.0
 11
19.84352892463918
 21
27.877915121189162
 31
0.0
  0
POLYLINE
  5
2153
  8
LAYER_1
 66
     1
 10
0.0
 20
0.0
 30
0.0
  0
VERTEX
  5
2154
  8
LAYER_1
 10
19.84352892463918
 20
27.98450275882896
 30
0.0
  0
VERTEX
  5
2155
  8
LAYER_1
 10
19.736941286999372
 20
27.98450275882896
 30
0.0
  0
VERTEX
  5
2156
  8
LAYER_1
 10
19.736941286999372
 20
27.877915121189162
 30
0.0
  0
SEQEND
  5
2157
  8
LAYER_1
  0
LINE
  5
2158
  8
LAYER_1
 10
19.736941286999372
 20
27.98450275882896
 30
0.0
 11
19.736941286999372
 21
27.877915121189162
 31
0.0
  0
POLYLINE
  5
2159
  8
LAYER_1
 66
     1
 10
0.0
 20
0.0
 30
0.0
  0
VERTEX
  5
215A
  8
LAYER_1
 10
19.736941286999372
 20
27.98450275882896
 30
0.0
  0
VERTEX
  5
215B
  8
LAYER_1
 10
19.736941286999372
 20
27.877915121189162
 30
0.0
  0
VERTEX
  5
215C
  8
LAYER_1
 10
19.630570290899531
 20
27.877915121189162
 30
0.0
  0
VERTEX
  5
215D
  8
LAYER_1
 10
19.630570290899531
 20
27.771327483549371
 30
0.0
  0
SEQEND
  5
215E
  8
LAYER_1
  0
LINE
  5
215F
  8
LAYER_1
 10
19.630570290899531
 20
27.877915121189162
 30
0.0
 11
19.630570290899531
 21
27.771327483549371
 31
0.0
  0
LINE
  5
2160
  8
LAYER_1
 10
19.630570290899531
 20
27.877915121189162
 30
0.0
 11
19.630570290899531
 21
27.771327483549371
 31
0.0
  0
LINE
  5
2161
  8
LAYER_1
 10
19.630570290899531
 20
27.877915121189162
 30
0.0
 11
19.630570290899531
 21
27.771327483549371
 31
0.0
  0
POLYLINE
  5
2162
  8
LAYER_1
 66
     1
 10
0.0
 20
0.0
 30
0.0
  0
VERTEX
  5
2163
  8
LAYER_1
 10
19.630570290899531
 20
27.877915121189162
 30
0.0
  0
VERTEX
  5
2164
  8
LAYER_1
 10
19.523982653259729
 20
27.877915121189162
 30
0.0
  0
VERTEX
  5
2165
  8
LAYER_1
 10
19.523982653259729
 20
27.66517312898943
 30
0.0
  0
SEQEND
  5
2166
  8
LAYER_1
  0
LINE
  5
2167
  8
LAYER_1
 10
19.523982653259729
 20
27.771327483549371
 30
0.0
 11
19.523982653259729
 21
27.66517312898943
 31
0.0
  0
LINE
  5
2168
  8
LAYER_1
 10
19.523982653259729
 20
27.771327483549371
 30
0.0
 11
19.523982653259729
 21
27.66517312898943
 31
0.0
  0
LINE
  5
2169
  8
LAYER_1
 10
19.523982653259729
 20
27.771327483549371
 30
0.0
 11
19.523982653259729
 21
27.66517312898943
 31
0.0
  0
LINE
  5
216A
  8
LAYER_1
 10
19.523982653259729
 20
27.771327483549371
 30
0.0
 11
19.523982653259729
 21
27.66517312898943
 31
0.0
  0
POLYLINE
  5
216B
  8
LAYER_1
 66
     1
 10
0.0
 20
0.0
 30
0.0
  0
VERTEX
  5
216C
  8
LAYER_1
 10
19.523982653259729
 20
27.771327483549371
 30
0.0
  0
VERTEX
  5
216D
  8
LAYER_1
 10
19.41761165715987
 20
27.771327483549371
 30
0.0
  0
VERTEX
  5
216E
  8
LAYER_1
 10
19.41761165715987
 20
27.66517312898943
 30
0.0
  0
SEQEND
  5
216F
  8
LAYER_1
  0
LINE
  5
2170
  8
LAYER_1
 10
19.41761165715987
 20
27.771327483549371
 30
0.0
 11
19.41761165715987
 21
27.66517312898943
 31
0.0
  0
LINE
  5
2171
  8
LAYER_1
 10
19.41761165715987
 20
27.771327483549371
 30
0.0
 11
19.41761165715987
 21
27.66517312898943
 31
0.0
  0
LINE
  5
2172
  8
LAYER_1
 10
19.41761165715987
 20
27.771327483549371
 30
0.0
 11
19.41761165715987
 21
27.66517312898943
 31
0.0
  0
LINE
  5
2173
  8
LAYER_1
 10
19.41761165715987
 20
27.771327483549371
 30
0.0
 11
19.41761165715987
 21
27.558585491349628
 31
0.0
  0
LINE
  5
2174
  8
LAYER_1
 10
19.41761165715987
 20
27.66517312898943
 30
0.0
 11
19.41761165715987
 21
27.558585491349628
 31
0.0
  0
LINE
  5
2175
  8
LAYER_1
 10
19.41761165715987
 20
27.66517312898943
 30
0.0
 11
19.41761165715987
 21
27.558585491349628
 31
0.0
  0
LINE
  5
2176
  8
LAYER_1
 10
19.41761165715987
 20
27.66517312898943
 30
0.0
 11
19.41761165715987
 21
27.558585491349628
 31
0.0
  0
LINE
  5
2177
  8
LAYER_1
 10
18.672148118301099
 20
28.517007663948078
 30
0.0
 11
18.672148118301099
 21
28.41042002630827
 31
0.0
  0
LINE
  5
2178
  8
LAYER_1
 10
18.672148118301099
 20
28.517007663948078
 30
0.0
 11
18.672148118301099
 21
28.41042002630827
 31
0.0
  0
LINE
  5
2179
  8
LAYER_1
 10
18.672148118301099
 20
28.517007663948078
 30
0.0
 11
18.672148118301099
 21
28.41042002630827
 31
0.0
  0
POLYLINE
  5
217A
  8
LAYER_1
 66
     1
 10
0.0
 20
0.0
 30
0.0
  0
VERTEX
  5
217B
  8
LAYER_1
 10
18.672148118301099
 20
28.517007663948078
 30
0.0
  0
VERTEX
  5
217C
  8
LAYER_1
 10
18.778519114400961
 20
28.62316201850804
 30
0.0
  0
VERTEX
  5
217D
  8
LAYER_1
 10
18.778519114400961
 20
28.517007663948078
 30
0.0
  0
SEQEND
  5
217E
  8
LAYER_1
  0
LINE
  5
217F
  8
LAYER_1
 10
18.033272217082079
 20
27.98450275882896
 30
0.0
 11
18.246230850821739
 21
27.98450275882896
 31
0.0
  0
LINE
  5
2180
  8
LAYER_1
 10
18.352601846921608
 20
27.34541021607005
 30
0.0
 11
18.672148118301099
 21
27.451997853709841
 31
0.0
  0
LINE
  5
2181
  8
LAYER_1
 10
23.357454702113579
 20
30.122763008464759
 30
0.0
 11
-21.79172542455419
 21
30.122763008464759
 31
0.0
  0
POLYLINE
  5
2182
  8
LAYER_1
 66
     1
 10
0.0
 20
0.0
 30
0.0
  0
VERTEX
  5
2183
  8
LAYER_1
 10
-20.93967424805567
 20
28.747763008464759
 30
0.0
  0
VERTEX
  5
2184
  8
LAYER_1
 10
-20.93967424805567
 20
28.517007663948078
 30
0.0
  0
VERTEX
  5
2185
  8
LAYER_1
 10
-20.83330325195579
 20
28.517007663948078
 30
0.0
  0
VERTEX
  5
2186
  8
LAYER_1
 10
-20.83330325195579
 20
28.3038323886685
 30
0.0
  0
VERTEX
  5
2187
  8
LAYER_1
 10
-20.72671561431601
 20
28.3038323886685
 30
0.0
  0
VERTEX
  5
2188
  8
LAYER_1
 10
-20.72671561431601
 20
28.197244751028698
 30
0.0
  0
SEQEND
  5
2189
  8
LAYER_1
  0
POLYLINE
  5
218A
  8
LAYER_1
 66
     1
 10
0.0
 20
0.0
 30
0.0
  0
VERTEX
  5
218B
  8
LAYER_1
 10
-20.72671561431601
 20
28.3038323886685
 30
0.0
  0
VERTEX
  5
218C
  8
LAYER_1
 10
-20.62034461821613
 20
28.197244751028698
 30
0.0
  0
VERTEX
  5
218D
  8
LAYER_1
 10
-20.62034461821613
 20
28.091090396468761
 30
0.0
  0
SEQEND
  5
218E
  8
LAYER_1
  0
LINE
  5
218F
  8
LAYER_1
 10
-20.62034461821613
 20
28.197244751028698
 30
0.0
 11
-20.62034461821613
 21
28.091090396468761
 31
0.0
  0
POLYLINE
  5
2190
  8
LAYER_1
 66
     1
 10
0.0
 20
0.0
 30
0.0
  0
VERTEX
  5
2191
  8
LAYER_1
 10
-20.62034461821613
 20
28.197244751028698
 30
0.0
  0
VERTEX
  5
2192
  8
LAYER_1
 10
-20.513756980576339
 20
28.091090396468761
 30
0.0
  0
VERTEX
  5
2193
  8
LAYER_1
 10
-20.513756980576339
 20
27.98450275882896
 30
0.0
  0
SEQEND
  5
2194
  8
LAYER_1
  0
POLYLINE
  5
2195
  8
LAYER_1
 66
     1
 10
0.0
 20
0.0
 30
0.0
  0
VERTEX
  5
2196
  8
LAYER_1
 10
-20.513756980576339
 20
28.091090396468761
 30
0.0
  0
VERTEX
  5
2197
  8
LAYER_1
 10
-20.407385984476441
 20
28.091090396468761
 30
0.0
  0
VERTEX
  5
2198
  8
LAYER_1
 10
-20.407385984476441
 20
27.98450275882896
 30
0.0
  0
SEQEND
  5
2199
  8
LAYER_1
  0
POLYLINE
  5
219A
  8
LAYER_1
 66
     1
 10
0.0
 20
0.0
 30
0.0
  0
VERTEX
  5
219B
  8
LAYER_1
 10
-20.407385984476441
 20
28.091090396468761
 30
0.0
  0
VERTEX
  5
219C
  8
LAYER_1
 10
-20.407385984476441
 20
27.98450275882896
 30
0.0
  0
VERTEX
  5
219D
  8
LAYER_1
 10
-20.30079834683665
 20
27.98450275882896
 30
0.0
  0
VERTEX
  5
219E
  8
LAYER_1
 10
-20.30079834683665
 20
27.877915121189162
 30
0.0
  0
SEQEND
  5
219F
  8
LAYER_1
  0
POLYLINE
  5
21A0
  8
LAYER_1
 66
     1
 10
0.0
 20
0.0
 30
0.0
  0
VERTEX
  5
21A1
  8
LAYER_1
 10
-20.30079834683665
 20
27.98450275882896
 30
0.0
  0
VERTEX
  5
21A2
  8
LAYER_1
 10
-20.194427350736792
 20
27.98450275882896
 30
0.0
  0
VERTEX
  5
21A3
  8
LAYER_1
 10
-20.194427350736792
 20
27.877915121189162
 30
0.0
  0
SEQEND
  5
21A4
  8
LAYER_1
  0
POLYLINE
  5
21A5
  8
LAYER_1
 66
     1
 10
0.0
 20
0.0
 30
0.0
  0
VERTEX
  5
21A6
  8
LAYER_1
 10
-20.194427350736792
 20
27.98450275882896
 30
0.0
  0
VERTEX
  5
21A7
  8
LAYER_1
 10
-20.087839713096979
 20
27.98450275882896
 30
0.0
  0
VERTEX
  5
21A8
  8
LAYER_1
 10
-20.087839713096979
 20
27.877915121189162
 30
0.0
  0
VERTEX
  5
21A9
  8
LAYER_1
 10
-19.981468716997131
 20
27.877915121189162
 30
0.0
  0
VERTEX
  5
21AA
  8
LAYER_1
 10
-19.981468716997131
 20
27.771327483549371
 30
0.0
  0
SEQEND
  5
21AB
  8
LAYER_1
  0
POLYLINE
  5
21AC
  8
LAYER_1
 66
     1
 10
0.0
 20
0.0
 30
0.0
  0
VERTEX
  5
21AD
  8
LAYER_1
 10
-19.981468716997131
 20
27.877915121189162
 30
0.0
  0
VERTEX
  5
21AE
  8
LAYER_1
 10
-19.768510083257461
 20
27.877915121189162
 30
0.0
  0
VERTEX
  5
21AF
  8
LAYER_1
 10
-19.768510083257461
 20
27.771327483549371
 30
0.0
  0
VERTEX
  5
21B0
  8
LAYER_1
 10
-19.5555514495178
 20
27.771327483549371
 30
0.0
  0
VERTEX
  5
21B1
  8
LAYER_1
 10
-19.5555514495178
 20
27.66517312898943
 30
0.0
  0
SEQEND
  5
21B2
  8
LAYER_1
  0
POLYLINE
  5
21B3
  8
LAYER_1
 66
     1
 10
0.0
 20
0.0
 30
0.0
  0
VERTEX
  5
21B4
  8
LAYER_1
 10
-19.5555514495178
 20
27.771327483549371
 30
0.0
  0
VERTEX
  5
21B5
  8
LAYER_1
 10
-19.448963811877999
 20
27.771327483549371
 30
0.0
  0
VERTEX
  5
21B6
  8
LAYER_1
 10
-19.34259281577814
 20
27.66517312898943
 30
0.0
  0
VERTEX
  5
21B7
  8
LAYER_1
 10
-19.129634182038469
 20
27.66517312898943
 30
0.0
  0
VERTEX
  5
21B8
  8
LAYER_1
 10
-19.129634182038469
 20
27.558585491349628
 30
0.0
  0
SEQEND
  5
21B9
  8
LAYER_1
  0
POLYLINE
  5
21BA
  8
LAYER_1
 66
     1
 10
0.0
 20
0.0
 30
0.0
  0
VERTEX
  5
21BB
  8
LAYER_1
 10
-19.129634182038469
 20
27.66517312898943
 30
0.0
  0
VERTEX
  5
21BC
  8
LAYER_1
 10
-19.023046544398689
 20
27.66517312898943
 30
0.0
  0
VERTEX
  5
21BD
  8
LAYER_1
 10
-18.916675548298809
 20
27.558585491349628
 30
0.0
  0
VERTEX
  5
21BE
  8
LAYER_1
 10
-18.490758280819481
 20
27.558585491349628
 30
0.0
  0
VERTEX
  5
21BF
  8
LAYER_1
 10
-18.27758300553992
 20
27.451997853709841
 30
0.0
  0
VERTEX
  5
21C0
  8
LAYER_1
 10
-17.95825337570038
 20
27.451997853709841
 30
0.0
  0
VERTEX
  5
21C1
  8
LAYER_1
 10
-17.851665738060589
 20
27.34541021607005
 30
0.0
  0
VERTEX
  5
21C2
  8
LAYER_1
 10
-17.42574847058124
 20
27.34541021607005
 30
0.0
  0
VERTEX
  5
21C3
  8
LAYER_1
 10
-17.212789836841569
 20
27.23882257843027
 30
0.0
  0
VERTEX
  5
21C4
  8
LAYER_1
 10
-16.89346020700205
 20
27.23882257843027
 30
0.0
  0
VERTEX
  5
21C5
  8
LAYER_1
 10
-16.68050157326239
 20
27.132668223870301
 30
0.0
  0
VERTEX
  5
21C6
  8
LAYER_1
 10
-16.360955301882939
 20
27.132668223870301
 30
0.0
  0
VERTEX
  5
21C7
  8
LAYER_1
 10
-16.147996668143278
 20
27.026080586230531
 30
0.0
  0
VERTEX
  5
21C8
  8
LAYER_1
 10
-16.041625672043399
 20
27.026080586230531
 30
0.0
  0
SEQEND
  5
21C9
  8
LAYER_1
  0
LINE
  5
21CA
  8
LAYER_1
 10
-16.786872569362281
 20
28.3038323886685
 30
0.0
 11
-16.786872569362281
 21
28.197244751028698
 31
0.0
  0
LINE
  5
21CB
  8
LAYER_1
 10
-16.786872569362281
 20
28.3038323886685
 30
0.0
 11
-16.786872569362281
 21
28.197244751028698
 31
0.0
  0
LINE
  5
21CC
  8
LAYER_1
 10
-16.786872569362281
 20
28.3038323886685
 30
0.0
 11
-16.786872569362281
 21
28.197244751028698
 31
0.0
  0
LINE
  5
21CD
  8
LAYER_1
 10
-16.786872569362281
 20
28.3038323886685
 30
0.0
 11
-16.786872569362281
 21
28.197244751028698
 31
0.0
  0
POLYLINE
  5
21CE
  8
LAYER_1
 66
     1
 10
0.0
 20
0.0
 30
0.0
  0
VERTEX
  5
21CF
  8
LAYER_1
 10
21.334239360816859
 20
28.3038323886685
 30
0.0
  0
VERTEX
  5
21D0
  8
LAYER_1
 10
21.334239360816859
 20
28.41042002630827
 30
0.0
  0
VERTEX
  5
21D1
  8
LAYER_1
 10
21.22765172317704
 20
28.41042002630827
 30
0.0
  0
VERTEX
  5
21D2
  8
LAYER_1
 10
21.22765172317704
 20
28.3038323886685
 30
0.0
  0
SEQEND
  5
21D3
  8
LAYER_1
  0
LINE
  5
21D4
  8
LAYER_1
 10
21.22765172317704
 20
28.41042002630827
 30
0.0
 11
21.22765172317704
 21
28.3038323886685
 31
0.0
  0
POLYLINE
  5
21D5
  8
LAYER_1
 66
     1
 10
0.0
 20
0.0
 30
0.0
  0
VERTEX
  5
21D6
  8
LAYER_1
 10
21.22765172317704
 20
28.41042002630827
 30
0.0
  0
VERTEX
  5
21D7
  8
LAYER_1
 10
21.12128072707716
 20
28.41042002630827
 30
0.0
  0
VERTEX
  5
21D8
  8
LAYER_1
 10
21.12128072707716
 20
28.3038323886685
 30
0.0
  0
SEQEND
  5
21D9
  8
LAYER_1
  0
POLYLINE
  5
21DA
  8
LAYER_1
 66
     1
 10
0.0
 20
0.0
 30
0.0
  0
VERTEX
  5
21DB
  8
LAYER_1
 10
21.12128072707716
 20
28.41042002630827
 30
0.0
  0
VERTEX
  5
21DC
  8
LAYER_1
 10
21.01469308943739
 20
28.41042002630827
 30
0.0
  0
VERTEX
  5
21DD
  8
LAYER_1
 10
21.01469308943739
 20
28.517007663948078
 30
0.0
  0
VERTEX
  5
21DE
  8
LAYER_1
 10
20.908322093337521
 20
28.517007663948078
 30
0.0
  0
SEQEND
  5
21DF
  8
LAYER_1
  0
LINE
  5
21E0
  8
LAYER_1
 10
-17.212789836841569
 20
28.517007663948078
 30
0.0
 11
-17.212789836841569
 21
28.41042002630827
 31
0.0
  0
LINE
  5
21E1
  8
LAYER_1
 10
-17.212789836841569
 20
28.517007663948078
 30
0.0
 11
-17.212789836841569
 21
28.41042002630827
 31
0.0
  0
LINE
  5
21E2
  8
LAYER_1
 10
-17.212789836841569
 20
28.517007663948078
 30
0.0
 11
-17.212789836841569
 21
28.41042002630827
 31
0.0
  0
POLYLINE
  5
21E3
  8
LAYER_1
 66
     1
 10
0.0
 20
0.0
 30
0.0
  0
VERTEX
  5
21E4
  8
LAYER_1
 10
-17.212789836841569
 20
28.517007663948078
 30
0.0
  0
VERTEX
  5
21E5
  8
LAYER_1
 10
-17.212789836841569
 20
28.62316201850804
 30
0.0
  0
VERTEX
  5
21E6
  8
LAYER_1
 10
-17.212789836841569
 20
28.517007663948078
 30
0.0
  0
SEQEND
  5
21E7
  8
LAYER_1
  0
LINE
  5
21E8
  8
LAYER_1
 10
20.375817188218409
 20
28.3038323886685
 30
0.0
 11
20.375817188218409
 21
28.197244751028698
 31
0.0
  0
LINE
  5
21E9
  8
LAYER_1
 10
20.375817188218409
 20
28.3038323886685
 30
0.0
 11
20.375817188218409
 21
28.197244751028698
 31
0.0
  0
POLYLINE
  5
21EA
  8
LAYER_1
 66
     1
 10
0.0
 20
0.0
 30
0.0
  0
VERTEX
  5
21EB
  8
LAYER_1
 10
20.375817188218409
 20
28.3038323886685
 30
0.0
  0
VERTEX
  5
21EC
  8
LAYER_1
 10
20.26944619211854
 20
28.3038323886685
 30
0.0
  0
VERTEX
  5
21ED
  8
LAYER_1
 10
20.26944619211854
 20
28.197244751028698
 30
0.0
  0
SEQEND
  5
21EE
  8
LAYER_1
  0
LINE
  5
21EF
  8
LAYER_1
 10
20.26944619211854
 20
28.3038323886685
 30
0.0
 11
20.26944619211854
 21
28.197244751028698
 31
0.0
  0
LINE
  5
21F0
  8
LAYER_1
 10
20.26944619211854
 20
28.3038323886685
 30
0.0
 11
20.26944619211854
 21
28.197244751028698
 31
0.0
  0
LINE
  5
21F1
  8
LAYER_1
 10
20.26944619211854
 20
28.3038323886685
 30
0.0
 11
20.26944619211854
 21
28.197244751028698
 31
0.0
  0
LINE
  5
21F2
  8
LAYER_1
 10
20.26944619211854
 20
28.3038323886685
 30
0.0
 11
20.26944619211854
 21
28.197244751028698
 31
0.0
  0
LINE
  5
21F3
  8
LAYER_1
 10
20.26944619211854
 20
28.3038323886685
 30
0.0
 11
20.26944619211854
 21
28.197244751028698
 31
0.0
  0
LINE
  5
21F4
  8
LAYER_1
 10
20.26944619211854
 20
28.3038323886685
 30
0.0
 11
20.26944619211854
 21
28.197244751028698
 31
0.0
  0
LINE
  5
21F5
  8
LAYER_1
 10
20.26944619211854
 20
28.3038323886685
 30
0.0
 11
20.26944619211854
 21
28.197244751028698
 31
0.0
  0
LINE
  5
21F6
  8
LAYER_1
 10
20.26944619211854
 20
28.3038323886685
 30
0.0
 11
20.26944619211854
 21
28.197244751028698
 31
0.0
  0
POLYLINE
  5
21F7
  8
LAYER_1
 66
     1
 10
0.0
 20
0.0
 30
0.0
  0
VERTEX
  5
21F8
  8
LAYER_1
 10
20.26944619211854
 20
28.3038323886685
 30
0.0
  0
VERTEX
  5
21F9
  8
LAYER_1
 10
20.16285855447871
 20
28.197244751028698
 30
0.0
  0
VERTEX
  5
21FA
  8
LAYER_1
 10
20.16285855447871
 20
28.091090396468761
 30
0.0
  0
SEQEND
  5
21FB
  8
LAYER_1
  0
LINE
  5
21FC
  8
LAYER_1
 10
20.16285855447871
 20
28.197244751028698
 30
0.0
 11
20.16285855447871
 21
28.091090396468761
 31
0.0
  0
LINE
  5
21FD
  8
LAYER_1
 10
20.16285855447871
 20
28.197244751028698
 30
0.0
 11
20.16285855447871
 21
28.091090396468761
 31
0.0
  0
LINE
  5
21FE
  8
LAYER_1
 10
20.16285855447871
 20
28.197244751028698
 30
0.0
 11
20.16285855447871
 21
28.091090396468761
 31
0.0
  0
LINE
  5
21FF
  8
LAYER_1
 10
20.16285855447871
 20
28.197244751028698
 30
0.0
 11
20.16285855447871
 21
28.091090396468761
 31
0.0
  0
POLYLINE
  5
2200
  8
LAYER_1
 66
     1
 10
0.0
 20
0.0
 30
0.0
  0
VERTEX
  5
2201
  8
LAYER_1
 10
20.16285855447871
 20
28.197244751028698
 30
0.0
  0
VERTEX
  5
2202
  8
LAYER_1
 10
20.056487558378841
 20
28.197244751028698
 30
0.0
  0
VERTEX
  5
2203
  8
LAYER_1
 10
20.056487558378841
 20
28.091090396468761
 30
0.0
  0
SEQEND
  5
2204
  8
LAYER_1
  0
LINE
  5
2205
  8
LAYER_1
 10
20.056487558378841
 20
28.197244751028698
 30
0.0
 11
20.056487558378841
 21
28.091090396468761
 31
0.0
  0
POLYLINE
  5
2206
  8
LAYER_1
 66
     1
 10
0.0
 20
0.0
 30
0.0
  0
VERTEX
  5
2207
  8
LAYER_1
 10
20.056487558378841
 20
28.197244751028698
 30
0.0
  0
VERTEX
  5
2208
  8
LAYER_1
 10
20.056487558378841
 20
28.091090396468761
 30
0.0
  0
VERTEX
  5
2209
  8
LAYER_1
 10
19.94989992073911
 20
28.091090396468761
 30
0.0
  0
VERTEX
  5
220A
  8
LAYER_1
 10
19.94989992073911
 20
27.98450275882896
 30
0.0
  0
SEQEND
  5
220B
  8
LAYER_1
  0
LINE
  5
220C
  8
LAYER_1
 10
19.94989992073911
 20
28.091090396468761
 30
0.0
 11
19.94989992073911
 21
27.98450275882896
 31
0.0
  0
LINE
  5
220D
  8
LAYER_1
 10
19.94989992073911
 20
28.091090396468761
 30
0.0
 11
19.94989992073911
 21
27.98450275882896
 31
0.0
  0
LINE
  5
220E
  8
LAYER_1
 10
19.94989992073911
 20
28.091090396468761
 30
0.0
 11
19.94989992073911
 21
27.98450275882896
 31
0.0
  0
POLYLINE
  5
220F
  8
LAYER_1
 66
     1
 10
0.0
 20
0.0
 30
0.0
  0
VERTEX
  5
2210
  8
LAYER_1
 10
19.94989992073911
 20
28.091090396468761
 30
0.0
  0
VERTEX
  5
2211
  8
LAYER_1
 10
19.84352892463918
 20
27.98450275882896
 30
0.0
  0
VERTEX
  5
2212
  8
LAYER_1
 10
19.84352892463918
 20
27.877915121189162
 30
0.0
  0
SEQEND
  5
2213
  8
LAYER_1
  0
POLYLINE
  5
2214
  8
LAYER_1
 66
     1
 10
0.0
 20
0.0
 30
0.0
  0
VERTEX
  5
2215
  8
LAYER_1
 10
-13.27294679188789
 20
9.0305344313791949
 30
0.0
  0
VERTEX
  5
2216
  8
LAYER_1
 10
-13.16657579578801
 20
9.0305344313791949
 30
0.0
  0
VERTEX
  5
2217
  8
LAYER_1
 10
-13.16657579578801
 20
8.9239467937394021
 30
0.0
  0
VERTEX
  5
2218
  8
LAYER_1
 10
-13.05998815814822
 20
8.9239467937394021
 30
0.0
  0
VERTEX
  5
2219
  8
LAYER_1
 10
-13.05998815814822
 20
8.7107715184598185
 30
0.0
  0
VERTEX
  5
221A
  8
LAYER_1
 10
-12.95340052050844
 20
8.7107715184598185
 30
0.0
  0
VERTEX
  5
221B
  8
LAYER_1
 10
-12.95340052050844
 20
8.6041838808200275
 30
0.0
  0
VERTEX
  5
221C
  8
LAYER_1
 10
-12.84702952440855
 20
8.6041838808200275
 30
0.0
  0
VERTEX
  5
221D
  8
LAYER_1
 10
-12.84702952440855
 20
8.4980295262600762
 30
0.0
  0
VERTEX
  5
221E
  8
LAYER_1
 10
-12.74044188676878
 20
8.4980295262600762
 30
0.0
  0
VERTEX
  5
221F
  8
LAYER_1
 10
-12.74044188676878
 20
8.3914418886202853
 30
0.0
  0
VERTEX
  5
2220
  8
LAYER_1
 10
-12.634070890668889
 20
8.3914418886202853
 30
0.0
  0
VERTEX
  5
2221
  8
LAYER_1
 10
-12.42111225692925
 20
8.178266613340714
 30
0.0
  0
VERTEX
  5
2222
  8
LAYER_1
 10
-12.42111225692925
 20
8.0721122587807628
 30
0.0
  0
SEQEND
  5
2223
  8
LAYER_1
  0
LINE
  5
2224
  8
LAYER_1
 10
-12.42111225692925
 20
8.178266613340714
 30
0.0
 11
-12.314524619289431
 21
8.0721122587807628
 31
0.0
  0
LINE
  5
2225
  8
LAYER_1
 10
-17.851665738060589
 20
27.771327483549371
 30
0.0
 11
-17.851665738060589
 21
27.66517312898943
 31
0.0
  0
LINE
  5
2226
  8
LAYER_1
 10
-18.810087910659028
 20
28.41042002630827
 30
0.0
 11
-18.810087910659028
 21
28.3038323886685
 31
0.0
  0
LINE
  5
2227
  8
LAYER_1
 10
18.352601846921608
 20
28.3038323886685
 30
0.0
 11
18.352601846921608
 21
28.197244751028698
 31
0.0
  0
LINE
  5
2228
  8
LAYER_1
 10
18.352601846921608
 20
28.3038323886685
 30
0.0
 11
18.352601846921608
 21
28.197244751028698
 31
0.0
  0
LINE
  5
2229
  8
LAYER_1
 10
18.352601846921608
 20
28.3038323886685
 30
0.0
 11
18.352601846921608
 21
28.197244751028698
 31
0.0
  0
LINE
  5
222A
  8
LAYER_1
 10
18.352601846921608
 20
28.3038323886685
 30
0.0
 11
18.352601846921608
 21
28.197244751028698
 31
0.0
  0
LINE
  5
222B
  8
LAYER_1
 10
18.352601846921608
 20
28.3038323886685
 30
0.0
 11
18.352601846921608
 21
28.197244751028698
 31
0.0
  0
LINE
  5
222C
  8
LAYER_1
 10
18.352601846921608
 20
28.3038323886685
 30
0.0
 11
18.352601846921608
 21
28.197244751028698
 31
0.0
  0
POLYLINE
  5
222D
  8
LAYER_1
 66
     1
 10
0.0
 20
0.0
 30
0.0
  0
VERTEX
  5
222E
  8
LAYER_1
 10
18.352601846921608
 20
28.3038323886685
 30
0.0
  0
VERTEX
  5
222F
  8
LAYER_1
 10
18.352601846921608
 20
28.41042002630827
 30
0.0
  0
VERTEX
  5
2230
  8
LAYER_1
 10
18.352601846921608
 20
28.3038323886685
 30
0.0
  0
SEQEND
  5
2231
  8
LAYER_1
  0
LINE
  5
2232
  8
LAYER_1
 10
18.352601846921608
 20
28.41042002630827
 30
0.0
 11
18.352601846921608
 21
28.3038323886685
 31
0.0
  0
POLYLINE
  5
2233
  8
LAYER_1
 66
     1
 10
0.0
 20
0.0
 30
0.0
  0
VERTEX
  5
2234
  8
LAYER_1
 10
18.352601846921608
 20
28.41042002630827
 30
0.0
  0
VERTEX
  5
2235
  8
LAYER_1
 10
18.459189484561431
 20
28.41042002630827
 30
0.0
  0
VERTEX
  5
2236
  8
LAYER_1
 10
18.459189484561431
 20
28.3038323886685
 30
0.0
  0
SEQEND
  5
2237
  8
LAYER_1
  0
LINE
  5
2238
  8
LAYER_1
 10
18.459189484561431
 20
28.41042002630827
 30
0.0
 11
18.459189484561431
 21
28.3038323886685
 31
0.0
  0
LINE
  5
2239
  8
LAYER_1
 10
18.459189484561431
 20
28.41042002630827
 30
0.0
 11
18.459189484561431
 21
28.3038323886685
 31
0.0
  0
LINE
  5
223A
  8
LAYER_1
 10
18.459189484561431
 20
28.41042002630827
 30
0.0
 11
18.459189484561431
 21
28.3038323886685
 31
0.0
  0
POLYLINE
  5
223B
  8
LAYER_1
 66
     1
 10
0.0
 20
0.0
 30
0.0
  0
VERTEX
  5
223C
  8
LAYER_1
 10
18.459189484561431
 20
28.41042002630827
 30
0.0
  0
VERTEX
  5
223D
  8
LAYER_1
 10
18.565560480661301
 20
28.517007663948078
 30
0.0
  0
VERTEX
  5
223E
  8
LAYER_1
 10
18.565560480661301
 20
28.41042002630827
 30
0.0
  0
SEQEND
  5
223F
  8
LAYER_1
  0
LINE
  5
2240
  8
LAYER_1
 10
18.565560480661301
 20
28.517007663948078
 30
0.0
 11
18.565560480661301
 21
28.41042002630827
 31
0.0
  0
LINE
  5
2241
  8
LAYER_1
 10
18.565560480661301
 20
28.517007663948078
 30
0.0
 11
18.565560480661301
 21
28.41042002630827
 31
0.0
  0
POLYLINE
  5
2242
  8
LAYER_1
 66
     1
 10
0.0
 20
0.0
 30
0.0
  0
VERTEX
  5
2243
  8
LAYER_1
 10
18.565560480661301
 20
28.517007663948078
 30
0.0
  0
VERTEX
  5
2244
  8
LAYER_1
 10
18.672148118301099
 20
28.517007663948078
 30
0.0
  0
VERTEX
  5
2245
  8
LAYER_1
 10
18.672148118301099
 20
28.41042002630827
 30
0.0
  0
SEQEND
  5
2246
  8
LAYER_1
  0
POLYLINE
  5
2247
  8
LAYER_1
 66
     1
 10
0.0
 20
0.0
 30
0.0
  0
VERTEX
  5
2248
  8
LAYER_1
 10
18.672148118301099
 20
28.517007663948078
 30
0.0
  0
VERTEX
  5
2249
  8
LAYER_1
 10
18.672148118301099
 20
28.62316201850804
 30
0.0
  0
VERTEX
  5
224A
  8
LAYER_1
 10
18.672148118301099
 20
28.517007663948078
 30
0.0
  0
SEQEND
  5
224B
  8
LAYER_1
  0
POLYLINE
  5
224C
  8
LAYER_1
 66
     1
 10
0.0
 20
0.0
 30
0.0
  0
VERTEX
  5
224D
  8
LAYER_1
 10
18.672148118301099
 20
28.62316201850804
 30
0.0
  0
VERTEX
  5
224E
  8
LAYER_1
 10
18.778519114400961
 20
28.62316201850804
 30
0.0
  0
VERTEX
  5
224F
  8
LAYER_1
 10
18.778519114400961
 20
28.517007663948078
 30
0.0
  0
SEQEND
  5
2250
  8
LAYER_1
  0
LINE
  5
2251
  8
LAYER_1
 10
18.778519114400961
 20
28.62316201850804
 30
0.0
 11
18.778519114400961
 21
28.517007663948078
 31
0.0
  0
POLYLINE
  5
2252
  8
LAYER_1
 66
     1
 10
0.0
 20
0.0
 30
0.0
  0
VERTEX
  5
2253
  8
LAYER_1
 10
18.778519114400961
 20
28.62316201850804
 30
0.0
  0
VERTEX
  5
2254
  8
LAYER_1
 10
18.885106752040748
 20
28.62316201850804
 30
0.0
  0
VERTEX
  5
2255
  8
LAYER_1
 10
18.885106752040748
 20
28.729749656147821
 30
0.0
  0
SEQEND
  5
2256
  8
LAYER_1
  0
POLYLINE
  5
2257
  8
LAYER_1
 66
     1
 10
0.0
 20
0.0
 30
0.0
  0
VERTEX
  5
2258
  8
LAYER_1
 10
18.246230850821739
 20
27.98450275882896
 30
0.0
  0
VERTEX
  5
2259
  8
LAYER_1
 10
18.352601846921608
 20
27.98450275882896
 30
0.0
  0
VERTEX
  5
225A
  8
LAYER_1
 10
18.459189484561431
 20
28.091090396468761
 30
0.0
  0
VERTEX
  5
225B
  8
LAYER_1
 10
18.885106752040748
 20
28.091090396468761
 30
0.0
  0
VERTEX
  5
225C
  8
LAYER_1
 10
18.991694389680539
 20
28.197244751028698
 30
0.0
  0
VERTEX
  5
225D
  8
LAYER_1
 10
18.991694389680539
 20
28.091090396468761
 30
0.0
  0
SEQEND
  5
225E
  8
LAYER_1
  0
POLYLINE
  5
225F
  8
LAYER_1
 66
     1
 10
0.0
 20
0.0
 30
0.0
  0
VERTEX
  5
2260
  8
LAYER_1
 10
18.672148118301099
 20
27.451997853709841
 30
0.0
  0
VERTEX
  5
2261
  8
LAYER_1
 10
19.2046530234202
 20
27.451997853709841
 30
0.0
  0
VERTEX
  5
2262
  8
LAYER_1
 10
19.311024019520069
 20
27.558585491349628
 30
0.0
  0
VERTEX
  5
2263
  8
LAYER_1
 10
19.736941286999372
 20
27.558585491349628
 30
0.0
  0
VERTEX
  5
2264
  8
LAYER_1
 10
19.84352892463918
 20
27.66517312898943
 30
0.0
  0
VERTEX
  5
2265
  8
LAYER_1
 10
19.94989992073911
 20
27.66517312898943
 30
0.0
  0
VERTEX
  5
2266
  8
LAYER_1
 10
19.94989992073911
 20
27.558585491349628
 30
0.0
  0
SEQEND
  5
2267
  8
LAYER_1
  0
POLYLINE
  5
2268
  8
LAYER_1
 66
     1
 10
0.0
 20
0.0
 30
0.0
  0
VERTEX
  5
2269
  8
LAYER_1
 10
19.94989992073911
 20
27.66517312898943
 30
0.0
  0
VERTEX
  5
226A
  8
LAYER_1
 10
20.16285855447871
 20
27.66517312898943
 30
0.0
  0
VERTEX
  5
226B
  8
LAYER_1
 10
20.26944619211854
 20
27.771327483549371
 30
0.0
  0
VERTEX
  5
226C
  8
LAYER_1
 10
20.482404825858161
 20
27.771327483549371
 30
0.0
  0
VERTEX
  5
226D
  8
LAYER_1
 10
20.482404825858161
 20
27.66517312898943
 30
0.0
  0
SEQEND
  5
226E
  8
LAYER_1
  0
POLYLINE
  5
226F
  8
LAYER_1
 66
     1
 10
0.0
 20
0.0
 30
0.0
  0
VERTEX
  5
2270
  8
LAYER_1
 10
20.482404825858161
 20
27.771327483549371
 30
0.0
  0
VERTEX
  5
2271
  8
LAYER_1
 10
20.695363459597839
 20
27.771327483549371
 30
0.0
  0
VERTEX
  5
2272
  8
LAYER_1
 10
20.695363459597839
 20
27.877915121189162
 30
0.0
  0
VERTEX
  5
2273
  8
LAYER_1
 10
20.908322093337521
 20
27.877915121189162
 30
0.0
  0
VERTEX
  5
2274
  8
LAYER_1
 10
20.908322093337521
 20
27.771327483549371
 30
0.0
  0
SEQEND
  5
2275
  8
LAYER_1
  0
POLYLINE
  5
2276
  8
LAYER_1
 66
     1
 10
0.0
 20
0.0
 30
0.0
  0
VERTEX
  5
2277
  8
LAYER_1
 10
20.908322093337521
 20
27.877915121189162
 30
0.0
  0
VERTEX
  5
2278
  8
LAYER_1
 10
21.01469308943739
 20
27.877915121189162
 30
0.0
  0
VERTEX
  5
2279
  8
LAYER_1
 10
21.01469308943739
 20
27.98450275882896
 30
0.0
  0
VERTEX
  5
227A
  8
LAYER_1
 10
21.12128072707716
 20
27.98450275882896
 30
0.0
  0
VERTEX
  5
227B
  8
LAYER_1
 10
21.12128072707716
 20
27.877915121189162
 30
0.0
  0
SEQEND
  5
227C
  8
LAYER_1
  0
POLYLINE
  5
227D
  8
LAYER_1
 66
     1
 10
0.0
 20
0.0
 30
0.0
  0
VERTEX
  5
227E
  8
LAYER_1
 10
21.12128072707716
 20
27.98450275882896
 30
0.0
  0
VERTEX
  5
227F
  8
LAYER_1
 10
21.22765172317704
 20
27.98450275882896
 30
0.0
  0
VERTEX
  5
2280
  8
LAYER_1
 10
21.22765172317704
 20
27.877915121189162
 30
0.0
  0
SEQEND
  5
2281
  8
LAYER_1
  0
POLYLINE
  5
2282
  8
LAYER_1
 66
     1
 10
0.0
 20
0.0
 30
0.0
  0
VERTEX
  5
2283
  8
LAYER_1
 10
21.22765172317704
 20
27.98450275882896
 30
0.0
  0
VERTEX
  5
2284
  8
LAYER_1
 10
21.334239360816859
 20
27.98450275882896
 30
0.0
  0
VERTEX
  5
2285
  8
LAYER_1
 10
21.334239360816859
 20
28.091090396468761
 30
0.0
  0
VERTEX
  5
2286
  8
LAYER_1
 10
21.334239360816859
 20
27.98450275882896
 30
0.0
  0
SEQEND
  5
2287
  8
LAYER_1
  0
LINE
  5
2288
  8
LAYER_1
 10
21.334239360816859
 20
28.091090396468761
 30
0.0
 11
21.334239360816859
 21
27.98450275882896
 31
0.0
  0
POLYLINE
  5
2289
  8
LAYER_1
 66
     1
 10
0.0
 20
0.0
 30
0.0
  0
VERTEX
  5
228A
  8
LAYER_1
 10
21.334239360816859
 20
28.091090396468761
 30
0.0
  0
VERTEX
  5
228B
  8
LAYER_1
 10
21.440610356916721
 20
28.091090396468761
 30
0.0
  0
VERTEX
  5
228C
  8
LAYER_1
 10
21.440610356916721
 20
27.98450275882896
 30
0.0
  0
SEQEND
  5
228D
  8
LAYER_1
  0
LINE
  5
228E
  8
LAYER_1
 10
21.440610356916721
 20
28.091090396468761
 30
0.0
 11
21.440610356916721
 21
27.98450275882896
 31
0.0
  0
POLYLINE
  5
228F
  8
LAYER_1
 66
     1
 10
0.0
 20
0.0
 30
0.0
  0
VERTEX
  5
2290
  8
LAYER_1
 10
21.440610356916721
 20
28.091090396468761
 30
0.0
  0
VERTEX
  5
2291
  8
LAYER_1
 10
21.440610356916721
 20
28.197244751028698
 30
0.0
  0
VERTEX
  5
2292
  8
LAYER_1
 10
21.440610356916721
 20
28.091090396468761
 30
0.0
  0
SEQEND
  5
2293
  8
LAYER_1
  0
LINE
  5
2294
  8
LAYER_1
 10
21.440610356916721
 20
28.197244751028698
 30
0.0
 11
21.440610356916721
 21
28.091090396468761
 31
0.0
  0
LINE
  5
2295
  8
LAYER_1
 10
21.440610356916721
 20
28.197244751028698
 30
0.0
 11
21.440610356916721
 21
28.091090396468761
 31
0.0
  0
LINE
  5
2296
  8
LAYER_1
 10
21.440610356916721
 20
28.197244751028698
 30
0.0
 11
21.440610356916721
 21
28.091090396468761
 31
0.0
  0
POLYLINE
  5
2297
  8
LAYER_1
 66
     1
 10
0.0
 20
0.0
 30
0.0
  0
VERTEX
  5
2298
  8
LAYER_1
 10
21.440610356916721
 20
28.197244751028698
 30
0.0
  0
VERTEX
  5
2299
  8
LAYER_1
 10
21.440610356916721
 20
28.3038323886685
 30
0.0
  0
VERTEX
  5
229A
  8
LAYER_1
 10
21.440610356916721
 20
28.197244751028698
 30
0.0
  0
SEQEND
  5
229B
  8
LAYER_1
  0
LINE
  5
229C
  8
LAYER_1
 10
21.440610356916721
 20
28.3038323886685
 30
0.0
 11
21.440610356916721
 21
28.197244751028698
 31
0.0
  0
LINE
  5
229D
  8
LAYER_1
 10
21.440610356916721
 20
28.3038323886685
 30
0.0
 11
21.440610356916721
 21
28.197244751028698
 31
0.0
  0
POLYLINE
  5
229E
  8
LAYER_1
 66
     1
 10
0.0
 20
0.0
 30
0.0
  0
VERTEX
  5
229F
  8
LAYER_1
 10
21.440610356916721
 20
28.3038323886685
 30
0.0
  0
VERTEX
  5
22A0
  8
LAYER_1
 10
21.334239360816859
 20
28.3038323886685
 30
0.0
  0
VERTEX
  5
22A1
  8
LAYER_1
 10
21.334239360816859
 20
28.197244751028698
 30
0.0
  0
SEQEND
  5
22A2
  8
LAYER_1
  0
POLYLINE
  5
22A3
  8
LAYER_1
 66
     1
 10
0.0
 20
0.0
 30
0.0
  0
VERTEX
  5
22A4
  8
LAYER_1
 10
-18.810087910659028
 20
28.3038323886685
 30
0.0
  0
VERTEX
  5
22A5
  8
LAYER_1
 10
-18.810087910659028
 20
28.41042002630827
 30
0.0
  0
VERTEX
  5
22A6
  8
LAYER_1
 10
-18.810087910659028
 20
28.3038323886685
 30
0.0
  0
SEQEND
  5
22A7
  8
LAYER_1
  0
POLYLINE
  5
22A8
  8
LAYER_1
 66
     1
 10
0.0
 20
0.0
 30
0.0
  0
VERTEX
  5
22A9
  8
LAYER_1
 10
-16.999831203101909
 20
27.451997853709841
 30
0.0
  0
VERTEX
  5
22AA
  8
LAYER_1
 10
-16.786872569362281
 20
27.34541021607005
 30
0.0
  0
VERTEX
  5
22AB
  8
LAYER_1
 10
-16.57391393562261
 20
27.34541021607005
 30
0.0
  0
VERTEX
  5
22AC
  8
LAYER_1
 10
-16.360955301882939
 20
27.23882257843027
 30
0.0
  0
VERTEX
  5
22AD
  8
LAYER_1
 10
-16.147996668143278
 20
27.23882257843027
 30
0.0
  0
VERTEX
  5
22AE
  8
LAYER_1
 10
-16.147996668143278
 20
27.132668223870301
 30
0.0
  0
SEQEND
  5
22AF
  8
LAYER_1
  0
LINE
  5
22B0
  8
LAYER_1
 10
-17.532336108221038
 20
28.197244751028698
 30
0.0
 11
-17.532336108221038
 21
28.091090396468761
 31
0.0
  0
POLYLINE
  5
22B1
  8
LAYER_1
 66
     1
 10
0.0
 20
0.0
 30
0.0
  0
VERTEX
  5
22B2
  8
LAYER_1
 10
-17.532336108221038
 20
28.197244751028698
 30
0.0
  0
VERTEX
  5
22B3
  8
LAYER_1
 10
-17.42574847058124
 20
28.091090396468761
 30
0.0
  0
VERTEX
  5
22B4
  8
LAYER_1
 10
-16.89346020700205
 20
28.091090396468761
 30
0.0
  0
VERTEX
  5
22B5
  8
LAYER_1
 10
-16.786872569362281
 20
27.98450275882896
 30
0.0
  0
VERTEX
  5
22B6
  8
LAYER_1
 10
-16.57391393562261
 20
27.98450275882896
 30
0.0
  0
SEQEND
  5
22B7
  8
LAYER_1
  0
POLYLINE
  5
22B8
  8
LAYER_1
 66
     1
 10
0.0
 20
0.0
 30
0.0
  0
VERTEX
  5
22B9
  8
LAYER_1
 10
-15.82866703830376
 20
26.174246051271851
 30
0.0
  0
VERTEX
  5
22BA
  8
LAYER_1
 10
-13.485905425627539
 20
9.7757813286980593
 30
0.0
  0
VERTEX
  5
22BB
  8
LAYER_1
 10
-13.485905425627539
 20
9.6691936910582719
 30
0.0
  0
SEQEND
  5
22BC
  8
LAYER_1
  0
POLYLINE
  5
22BD
  8
LAYER_1
 66
     1
 10
0.0
 20
0.0
 30
0.0
  0
VERTEX
  5
22BE
  8
LAYER_1
 10
-13.485905425627539
 20
9.7757813286980593
 30
0.0
  0
VERTEX
  5
22BF
  8
LAYER_1
 10
-13.485905425627539
 20
9.5626060534184774
 30
0.0
  0
VERTEX
  5
22C0
  8
LAYER_1
 10
-13.379534429527689
 20
9.5626060534184774
 30
0.0
  0
VERTEX
  5
22C1
  8
LAYER_1
 10
-13.379534429527689
 20
9.2432764235789442
 30
0.0
  0
VERTEX
  5
22C2
  8
LAYER_1
 10
-13.27294679188789
 20
9.2432764235789442
 30
0.0
  0
VERTEX
  5
22C3
  8
LAYER_1
 10
-13.27294679188789
 20
9.0305344313791949
 30
0.0
  0
SEQEND
  5
22C4
  8
LAYER_1
  0
POLYLINE
  5
22C5
  8
LAYER_1
 66
     1
 10
0.0
 20
0.0
 30
0.0
  0
VERTEX
  5
22C6
  8
LAYER_1
 10
19.630570290899531
 20
27.877915121189162
 30
0.0
  0
VERTEX
  5
22C7
  8
LAYER_1
 10
19.523982653259729
 20
27.877915121189162
 30
0.0
  0
VERTEX
  5
22C8
  8
LAYER_1
 10
19.523982653259729
 20
27.771327483549371
 30
0.0
  0
SEQEND
  5
22C9
  8
LAYER_1
  0
LINE
  5
22CA
  8
LAYER_1
 10
19.523982653259729
 20
27.877915121189162
 30
0.0
 11
19.523982653259729
 21
27.66517312898943
 31
0.0
  0
LINE
  5
22CB
  8
LAYER_1
 10
19.523982653259729
 20
27.771327483549371
 30
0.0
 11
19.523982653259729
 21
27.66517312898943
 31
0.0
  0
POLYLINE
  5
22CC
  8
LAYER_1
 66
     1
 10
0.0
 20
0.0
 30
0.0
  0
VERTEX
  5
22CD
  8
LAYER_1
 10
19.523982653259729
 20
27.771327483549371
 30
0.0
  0
VERTEX
  5
22CE
  8
LAYER_1
 10
19.41761165715987
 20
27.771327483549371
 30
0.0
  0
VERTEX
  5
22CF
  8
LAYER_1
 10
19.41761165715987
 20
27.66517312898943
 30
0.0
  0
SEQEND
  5
22D0
  8
LAYER_1
  0
LINE
  5
22D1
  8
LAYER_1
 10
19.41761165715987
 20
27.771327483549371
 30
0.0
 11
19.41761165715987
 21
27.66517312898943
 31
0.0
  0
LINE
  5
22D2
  8
LAYER_1
 10
19.41761165715987
 20
27.771327483549371
 30
0.0
 11
19.41761165715987
 21
27.66517312898943
 31
0.0
  0
LINE
  5
22D3
  8
LAYER_1
 10
19.41761165715987
 20
27.771327483549371
 30
0.0
 11
19.41761165715987
 21
27.66517312898943
 31
0.0
  0
LINE
  5
22D4
  8
LAYER_1
 10
19.41761165715987
 20
27.771327483549371
 30
0.0
 11
19.41761165715987
 21
27.66517312898943
 31
0.0
  0
LINE
  5
22D5
  8
LAYER_1
 10
19.41761165715987
 20
27.771327483549371
 30
0.0
 11
19.41761165715987
 21
27.558585491349628
 31
0.0
  0
POLYLINE
  5
22D6
  8
LAYER_1
 66
     1
 10
0.0
 20
0.0
 30
0.0
  0
VERTEX
  5
22D7
  8
LAYER_1
 10
19.41761165715987
 20
27.66517312898943
 30
0.0
  0
VERTEX
  5
22D8
  8
LAYER_1
 10
19.311024019520069
 20
27.66517312898943
 30
0.0
  0
VERTEX
  5
22D9
  8
LAYER_1
 10
19.311024019520069
 20
27.558585491349628
 30
0.0
  0
SEQEND
  5
22DA
  8
LAYER_1
  0
LINE
  5
22DB
  8
LAYER_1
 10
19.311024019520069
 20
27.66517312898943
 30
0.0
 11
19.311024019520069
 21
27.558585491349628
 31
0.0
  0
LINE
  5
22DC
  8
LAYER_1
 10
19.311024019520069
 20
27.66517312898943
 30
0.0
 11
19.311024019520069
 21
27.558585491349628
 31
0.0
  0
LINE
  5
22DD
  8
LAYER_1
 10
19.311024019520069
 20
27.66517312898943
 30
0.0
 11
19.311024019520069
 21
27.558585491349628
 31
0.0
  0
POLYLINE
  5
22DE
  8
LAYER_1
 66
     1
 10
0.0
 20
0.0
 30
0.0
  0
VERTEX
  5
22DF
  8
LAYER_1
 10
17.60735494960273
 20
27.23882257843027
 30
0.0
  0
VERTEX
  5
22E0
  8
LAYER_1
 10
17.926684579442298
 20
27.23882257843027
 30
0.0
  0
VERTEX
  5
22E1
  8
LAYER_1
 10
18.033272217082079
 20
27.34541021607005
 30
0.0
  0
VERTEX
  5
22E2
  8
LAYER_1
 10
18.352601846921608
 20
27.34541021607005
 30
0.0
  0
SEQEND
  5
22E3
  8
LAYER_1
  0
LINE
  5
22E4
  8
LAYER_1
 10
-17.851665738060589
 20
27.66517312898943
 30
0.0
 11
-17.851665738060589
 21
27.558585491349628
 31
0.0
  0
LINE
  5
22E5
  8
LAYER_1
 10
-17.851665738060589
 20
27.66517312898943
 30
0.0
 11
-17.851665738060589
 21
27.558585491349628
 31
0.0
  0
LINE
  5
22E6
  8
LAYER_1
 10
-17.851665738060589
 20
27.66517312898943
 30
0.0
 11
-17.851665738060589
 21
27.558585491349628
 31
0.0
  0
LINE
  5
22E7
  8
LAYER_1
 10
-17.851665738060589
 20
27.66517312898943
 30
0.0
 11
-17.851665738060589
 21
27.558585491349628
 31
0.0
  0
LINE
  5
22E8
  8
LAYER_1
 10
-17.851665738060589
 20
27.66517312898943
 30
0.0
 11
-17.851665738060589
 21
27.558585491349628
 31
0.0
  0
LINE
  5
22E9
  8
LAYER_1
 10
-17.851665738060589
 20
27.66517312898943
 30
0.0
 11
-17.851665738060589
 21
27.558585491349628
 31
0.0
  0
LINE
  5
22EA
  8
LAYER_1
 10
-17.851665738060589
 20
27.66517312898943
 30
0.0
 11
-17.851665738060589
 21
27.558585491349628
 31
0.0
  0
LINE
  5
22EB
  8
LAYER_1
 10
-17.851665738060589
 20
27.66517312898943
 30
0.0
 11
-17.851665738060589
 21
27.558585491349628
 31
0.0
  0
POLYLINE
  5
22EC
  8
LAYER_1
 66
     1
 10
0.0
 20
0.0
 30
0.0
  0
VERTEX
  5
22ED
  8
LAYER_1
 10
-17.851665738060589
 20
27.66517312898943
 30
0.0
  0
VERTEX
  5
22EE
  8
LAYER_1
 10
-17.95825337570038
 20
27.771327483549371
 30
0.0
  0
VERTEX
  5
22EF
  8
LAYER_1
 10
-17.95825337570038
 20
27.66517312898943
 30
0.0
  0
SEQEND
  5
22F0
  8
LAYER_1
  0
LINE
  5
22F1
  8
LAYER_1
 10
-17.95825337570038
 20
27.771327483549371
 30
0.0
 11
-17.95825337570038
 21
27.66517312898943
 31
0.0
  0
LINE
  5
22F2
  8
LAYER_1
 10
-17.95825337570038
 20
27.771327483549371
 30
0.0
 11
-17.95825337570038
 21
27.66517312898943
 31
0.0
  0
LINE
  5
22F3
  8
LAYER_1
 10
-17.95825337570038
 20
27.771327483549371
 30
0.0
 11
-17.95825337570038
 21
27.66517312898943
 31
0.0
  0
LINE
  5
22F4
  8
LAYER_1
 10
-17.95825337570038
 20
27.771327483549371
 30
0.0
 11
-17.95825337570038
 21
27.66517312898943
 31
0.0
  0
POLYLINE
  5
22F5
  8
LAYER_1
 66
     1
 10
0.0
 20
0.0
 30
0.0
  0
VERTEX
  5
22F6
  8
LAYER_1
 10
-17.95825337570038
 20
27.771327483549371
 30
0.0
  0
VERTEX
  5
22F7
  8
LAYER_1
 10
-18.06462437180026
 20
27.771327483549371
 30
0.0
  0
VERTEX
  5
22F8
  8
LAYER_1
 10
-18.06462437180026
 20
27.66517312898943
 30
0.0
  0
SEQEND
  5
22F9
  8
LAYER_1
  0
LINE
  5
22FA
  8
LAYER_1
 10
-18.06462437180026
 20
27.771327483549371
 30
0.0
 11
-18.06462437180026
 21
27.66517312898943
 31
0.0
  0
POLYLINE
  5
22FB
  8
LAYER_1
 66
     1
 10
0.0
 20
0.0
 30
0.0
  0
VERTEX
  5
22FC
  8
LAYER_1
 10
-18.06462437180026
 20
27.771327483549371
 30
0.0
  0
VERTEX
  5
22FD
  8
LAYER_1
 10
-18.06462437180026
 20
27.877915121189162
 30
0.0
  0
VERTEX
  5
22FE
  8
LAYER_1
 10
-18.06462437180026
 20
27.771327483549371
 30
0.0
  0
SEQEND
  5
22FF
  8
LAYER_1
  0
POLYLINE
  5
2300
  8
LAYER_1
 66
     1
 10
0.0
 20
0.0
 30
0.0
  0
VERTEX
  5
2301
  8
LAYER_1
 10
-18.06462437180026
 20
27.877915121189162
 30
0.0
  0
VERTEX
  5
2302
  8
LAYER_1
 10
-18.17121200944004
 20
27.877915121189162
 30
0.0
  0
VERTEX
  5
2303
  8
LAYER_1
 10
-18.17121200944004
 20
27.771327483549371
 30
0.0
  0
SEQEND
  5
2304
  8
LAYER_1
  0
LINE
  5
2305
  8
LAYER_1
 10
-18.17121200944004
 20
27.877915121189162
 30
0.0
 11
-18.17121200944004
 21
27.771327483549371
 31
0.0
  0
LINE
  5
2306
  8
LAYER_1
 10
-18.17121200944004
 20
27.877915121189162
 30
0.0
 11
-18.17121200944004
 21
27.771327483549371
 31
0.0
  0
POLYLINE
  5
2307
  8
LAYER_1
 66
     1
 10
0.0
 20
0.0
 30
0.0
  0
VERTEX
  5
2308
  8
LAYER_1
 10
-18.17121200944004
 20
27.877915121189162
 30
0.0
  0
VERTEX
  5
2309
  8
LAYER_1
 10
-18.27758300553992
 20
27.98450275882896
 30
0.0
  0
VERTEX
  5
230A
  8
LAYER_1
 10
-18.27758300553992
 20
27.877915121189162
 30
0.0
  0
SEQEND
  5
230B
  8
LAYER_1
  0
LINE
  5
230C
  8
LAYER_1
 10
-18.27758300553992
 20
27.98450275882896
 30
0.0
 11
-18.27758300553992
 21
27.877915121189162
 31
0.0
  0
LINE
  5
230D
  8
LAYER_1
 10
-18.27758300553992
 20
27.98450275882896
 30
0.0
 11
-18.27758300553992
 21
27.877915121189162
 31
0.0
  0
POLYLINE
  5
230E
  8
LAYER_1
 66
     1
 10
0.0
 20
0.0
 30
0.0
  0
VERTEX
  5
230F
  8
LAYER_1
 10
-18.27758300553992
 20
27.98450275882896
 30
0.0
  0
VERTEX
  5
2310
  8
LAYER_1
 10
-18.384170643179711
 20
27.98450275882896
 30
0.0
  0
VERTEX
  5
2311
  8
LAYER_1
 10
-18.384170643179711
 20
27.877915121189162
 30
0.0
  0
SEQEND
  5
2312
  8
LAYER_1
  0
POLYLINE
  5
2313
  8
LAYER_1
 66
     1
 10
0.0
 20
0.0
 30
0.0
  0
VERTEX
  5
2314
  8
LAYER_1
 10
-18.384170643179711
 20
27.98450275882896
 30
0.0
  0
VERTEX
  5
2315
  8
LAYER_1
 10
-18.384170643179711
 20
28.091090396468761
 30
0.0
  0
VERTEX
  5
2316
  8
LAYER_1
 10
-18.384170643179711
 20
27.98450275882896
 30
0.0
  0
SEQEND
  5
2317
  8
LAYER_1
  0
POLYLINE
  5
2318
  8
LAYER_1
 66
     1
 10
0.0
 20
0.0
 30
0.0
  0
VERTEX
  5
2319
  8
LAYER_1
 10
-18.384170643179711
 20
28.091090396468761
 30
0.0
  0
VERTEX
  5
231A
  8
LAYER_1
 10
-18.490758280819481
 20
28.091090396468761
 30
0.0
  0
VERTEX
  5
231B
  8
LAYER_1
 10
-18.490758280819481
 20
27.98450275882896
 30
0.0
  0
SEQEND
  5
231C
  8
LAYER_1
  0
LINE
  5
231D
  8
LAYER_1
 10
-18.490758280819481
 20
28.091090396468761
 30
0.0
 11
-18.490758280819481
 21
27.98450275882896
 31
0.0
  0
LINE
  5
231E
  8
LAYER_1
 10
-18.490758280819481
 20
28.091090396468761
 30
0.0
 11
-18.490758280819481
 21
27.98450275882896
 31
0.0
  0
POLYLINE
  5
231F
  8
LAYER_1
 66
     1
 10
0.0
 20
0.0
 30
0.0
  0
VERTEX
  5
2320
  8
LAYER_1
 10
-18.490758280819481
 20
28.091090396468761
 30
0.0
  0
VERTEX
  5
2321
  8
LAYER_1
 10
-18.597129276919361
 20
28.197244751028698
 30
0.0
  0
VERTEX
  5
2322
  8
LAYER_1
 10
-18.597129276919361
 20
28.091090396468761
 30
0.0
  0
SEQEND
  5
2323
  8
LAYER_1
  0
LINE
  5
2324
  8
LAYER_1
 10
-18.597129276919361
 20
28.197244751028698
 30
0.0
 11
-18.597129276919361
 21
28.091090396468761
 31
0.0
  0
LINE
  5
2325
  8
LAYER_1
 10
-18.597129276919361
 20
28.197244751028698
 30
0.0
 11
-18.597129276919361
 21
28.091090396468761
 31
0.0
  0
POLYLINE
  5
2326
  8
LAYER_1
 66
     1
 10
0.0
 20
0.0
 30
0.0
  0
VERTEX
  5
2327
  8
LAYER_1
 10
-18.597129276919361
 20
28.197244751028698
 30
0.0
  0
VERTEX
  5
2328
  8
LAYER_1
 10
-18.703716914559148
 20
28.197244751028698
 30
0.0
  0
VERTEX
  5
2329
  8
LAYER_1
 10
-18.703716914559148
 20
28.091090396468761
 30
0.0
  0
SEQEND
  5
232A
  8
LAYER_1
  0
LINE
  5
232B
  8
LAYER_1
 10
-18.703716914559148
 20
28.197244751028698
 30
0.0
 11
-18.703716914559148
 21
28.091090396468761
 31
0.0
  0
POLYLINE
  5
232C
  8
LAYER_1
 66
     1
 10
0.0
 20
0.0
 30
0.0
  0
VERTEX
  5
232D
  8
LAYER_1
 10
-18.703716914559148
 20
28.197244751028698
 30
0.0
  0
VERTEX
  5
232E
  8
LAYER_1
 10
-18.703716914559148
 20
28.3038323886685
 30
0.0
  0
VERTEX
  5
232F
  8
LAYER_1
 10
-18.703716914559148
 20
28.197244751028698
 30
0.0
  0
SEQEND
  5
2330
  8
LAYER_1
  0
POLYLINE
  5
2331
  8
LAYER_1
 66
     1
 10
0.0
 20
0.0
 30
0.0
  0
VERTEX
  5
2332
  8
LAYER_1
 10
-18.703716914559148
 20
28.3038323886685
 30
0.0
  0
VERTEX
  5
2333
  8
LAYER_1
 10
-18.810087910659028
 20
28.3038323886685
 30
0.0
  0
VERTEX
  5
2334
  8
LAYER_1
 10
-18.810087910659028
 20
28.197244751028698
 30
0.0
  0
SEQEND
  5
2335
  8
LAYER_1
  0
LINE
  5
2336
  8
LAYER_1
 10
-18.810087910659028
 20
28.3038323886685
 30
0.0
 11
-18.810087910659028
 21
28.197244751028698
 31
0.0
  0
LINE
  5
2337
  8
LAYER_1
 10
-18.810087910659028
 20
28.3038323886685
 30
0.0
 11
-18.810087910659028
 21
28.197244751028698
 31
0.0
  0
LINE
  5
2338
  8
LAYER_1
 10
-18.810087910659028
 20
28.3038323886685
 30
0.0
 11
-18.810087910659028
 21
28.197244751028698
 31
0.0
  0
LINE
  5
2339
  8
LAYER_1
 10
-18.810087910659028
 20
28.3038323886685
 30
0.0
 11
-18.810087910659028
 21
28.197244751028698
 31
0.0
  0
LINE
  5
233A
  8
LAYER_1
 10
-18.810087910659028
 20
28.3038323886685
 30
0.0
 11
-18.810087910659028
 21
28.197244751028698
 31
0.0
  0
LINE
  5
233B
  8
LAYER_1
 10
-18.810087910659028
 20
28.3038323886685
 30
0.0
 11
-18.810087910659028
 21
28.197244751028698
 31
0.0
  0
LINE
  5
233C
  8
LAYER_1
 10
-18.810087910659028
 20
28.3038323886685
 30
0.0
 11
-18.810087910659028
 21
28.197244751028698
 31
0.0
  0
LINE
  5
233D
  8
LAYER_1
 10
-18.810087910659028
 20
28.3038323886685
 30
0.0
 11
-18.810087910659028
 21
28.197244751028698
 31
0.0
  0
POLYLINE
  5
233E
  8
LAYER_1
 66
     1
 10
0.0
 20
0.0
 30
0.0
  0
VERTEX
  5
233F
  8
LAYER_1
 10
21.12128072707716
 20
27.771327483549371
 30
0.0
  0
VERTEX
  5
2340
  8
LAYER_1
 10
21.22765172317704
 20
27.771327483549371
 30
0.0
  0
VERTEX
  5
2341
  8
LAYER_1
 10
21.22765172317704
 20
27.66517312898943
 30
0.0
  0
SEQEND
  5
2342
  8
LAYER_1
  0
POLYLINE
  5
2343
  8
LAYER_1
 66
     1
 10
0.0
 20
0.0
 30
0.0
  0
VERTEX
  5
2344
  8
LAYER_1
 10
21.22765172317704
 20
27.771327483549371
 30
0.0
  0
VERTEX
  5
2345
  8
LAYER_1
 10
21.334239360816859
 20
27.877915121189162
 30
0.0
  0
VERTEX
  5
2346
  8
LAYER_1
 10
21.334239360816859
 20
27.771327483549371
 30
0.0
  0
SEQEND
  5
2347
  8
LAYER_1
  0
POLYLINE
  5
2348
  8
LAYER_1
 66
     1
 10
0.0
 20
0.0
 30
0.0
  0
VERTEX
  5
2349
  8
LAYER_1
 10
21.334239360816859
 20
27.877915121189162
 30
0.0
  0
VERTEX
  5
234A
  8
LAYER_1
 10
21.547197994556509
 20
27.877915121189162
 30
0.0
  0
VERTEX
  5
234B
  8
LAYER_1
 10
21.547197994556509
 20
27.771327483549371
 30
0.0
  0
SEQEND
  5
234C
  8
LAYER_1
  0
POLYLINE
  5
234D
  8
LAYER_1
 66
     1
 10
0.0
 20
0.0
 30
0.0
  0
VERTEX
  5
234E
  8
LAYER_1
 10
21.547197994556509
 20
27.877915121189162
 30
0.0
  0
VERTEX
  5
234F
  8
LAYER_1
 10
21.653785632196278
 20
27.98450275882896
 30
0.0
  0
VERTEX
  5
2350
  8
LAYER_1
 10
21.653785632196278
 20
27.877915121189162
 30
0.0
  0
SEQEND
  5
2351
  8
LAYER_1
  0
POLYLINE
  5
2352
  8
LAYER_1
 66
     1
 10
0.0
 20
0.0
 30
0.0
  0
VERTEX
  5
2353
  8
LAYER_1
 10
21.653785632196278
 20
27.98450275882896
 30
0.0
  0
VERTEX
  5
2354
  8
LAYER_1
 10
21.76015662829613
 20
27.98450275882896
 30
0.0
  0
VERTEX
  5
2355
  8
LAYER_1
 10
21.76015662829613
 20
27.877915121189162
 30
0.0
  0
SEQEND
  5
2356
  8
LAYER_1
  0
POLYLINE
  5
2357
  8
LAYER_1
 66
     1
 10
0.0
 20
0.0
 30
0.0
  0
VERTEX
  5
2358
  8
LAYER_1
 10
21.76015662829613
 20
27.98450275882896
 30
0.0
  0
VERTEX
  5
2359
  8
LAYER_1
 10
21.866744265935971
 20
27.98450275882896
 30
0.0
  0
VERTEX
  5
235A
  8
LAYER_1
 10
21.866744265935971
 20
27.877915121189162
 30
0.0
  0
SEQEND
  5
235B
  8
LAYER_1
  0
POLYLINE
  5
235C
  8
LAYER_1
 66
     1
 10
0.0
 20
0.0
 30
0.0
  0
VERTEX
  5
235D
  8
LAYER_1
 10
21.866744265935971
 20
27.98450275882896
 30
0.0
  0
VERTEX
  5
235E
  8
LAYER_1
 10
21.866744265935971
 20
28.091090396468761
 30
0.0
  0
VERTEX
  5
235F
  8
LAYER_1
 10
21.973115262035812
 20
28.091090396468761
 30
0.0
  0
VERTEX
  5
2360
  8
LAYER_1
 10
21.973115262035812
 20
27.98450275882896
 30
0.0
  0
SEQEND
  5
2361
  8
LAYER_1
  0
POLYLINE
  5
2362
  8
LAYER_1
 66
     1
 10
0.0
 20
0.0
 30
0.0
  0
VERTEX
  5
2363
  8
LAYER_1
 10
21.973115262035812
 20
28.091090396468761
 30
0.0
  0
VERTEX
  5
2364
  8
LAYER_1
 10
22.079702899675599
 20
28.091090396468761
 30
0.0
  0
VERTEX
  5
2365
  8
LAYER_1
 10
22.079702899675599
 20
28.197244751028698
 30
0.0
  0
VERTEX
  5
2366
  8
LAYER_1
 10
22.18607389577549
 20
28.197244751028698
 30
0.0
  0
VERTEX
  5
2367
  8
LAYER_1
 10
22.18607389577549
 20
28.091090396468761
 30
0.0
  0
SEQEND
  5
2368
  8
LAYER_1
  0
POLYLINE
  5
2369
  8
LAYER_1
 66
     1
 10
0.0
 20
0.0
 30
0.0
  0
VERTEX
  5
236A
  8
LAYER_1
 10
22.18607389577549
 20
28.197244751028698
 30
0.0
  0
VERTEX
  5
236B
  8
LAYER_1
 10
22.18607389577549
 20
28.3038323886685
 30
0.0
  0
VERTEX
  5
236C
  8
LAYER_1
 10
22.292661533415281
 20
28.3038323886685
 30
0.0
  0
VERTEX
  5
236D
  8
LAYER_1
 10
22.292661533415281
 20
28.197244751028698
 30
0.0
  0
SEQEND
  5
236E
  8
LAYER_1
  0
POLYLINE
  5
236F
  8
LAYER_1
 66
     1
 10
0.0
 20
0.0
 30
0.0
  0
VERTEX
  5
2370
  8
LAYER_1
 10
22.292661533415281
 20
28.3038323886685
 30
0.0
  0
VERTEX
  5
2371
  8
LAYER_1
 10
22.399032529515189
 20
28.41042002630827
 30
0.0
  0
VERTEX
  5
2372
  8
LAYER_1
 10
22.399032529515189
 20
28.517007663948078
 30
0.0
  0
VERTEX
  5
2373
  8
LAYER_1
 10
22.399032529515189
 20
28.41042002630827
 30
0.0
  0
SEQEND
  5
2374
  8
LAYER_1
  0
POLYLINE
  5
2375
  8
LAYER_1
 66
     1
 10
0.0
 20
0.0
 30
0.0
  0
VERTEX
  5
2376
  8
LAYER_1
 10
22.399032529515189
 20
28.517007663948078
 30
0.0
  0
VERTEX
  5
2377
  8
LAYER_1
 10
22.399032529515189
 20
28.62316201850804
 30
0.0
  0
VERTEX
  5
2378
  8
LAYER_1
 10
22.505620167154941
 20
28.747763008464759
 30
0.0
  0
SEQEND
  5
2379
  8
LAYER_1
  0
POLYLINE
  5
237A
  8
LAYER_1
 66
     1
 10
0.0
 20
0.0
 30
0.0
  0
VERTEX
  5
237B
  8
LAYER_1
 10
17.500767311962981
 20
27.026080586230531
 30
0.0
  0
VERTEX
  5
237C
  8
LAYER_1
 10
17.926684579442298
 20
27.132668223870301
 30
0.0
  0
VERTEX
  5
237D
  8
LAYER_1
 10
18.246230850821739
 20
27.23882257843027
 30
0.0
  0
VERTEX
  5
237E
  8
LAYER_1
 10
18.672148118301099
 20
27.23882257843027
 30
0.0
  0
VERTEX
  5
237F
  8
LAYER_1
 10
19.311024019520069
 20
27.451997853709841
 30
0.0
  0
VERTEX
  5
2380
  8
LAYER_1
 10
19.630570290899531
 20
27.451997853709841
 30
0.0
  0
VERTEX
  5
2381
  8
LAYER_1
 10
19.94989992073911
 20
27.558585491349628
 30
0.0
  0
VERTEX
  5
2382
  8
LAYER_1
 10
20.26944619211854
 20
27.558585491349628
 30
0.0
  0
VERTEX
  5
2383
  8
LAYER_1
 10
20.482404825858161
 20
27.66517312898943
 30
0.0
  0
VERTEX
  5
2384
  8
LAYER_1
 10
20.801734455697719
 20
27.66517312898943
 30
0.0
  0
VERTEX
  5
2385
  8
LAYER_1
 10
21.22765172317704
 20
27.877915121189162
 30
0.0
  0
VERTEX
  5
2386
  8
LAYER_1
 10
21.334239360816859
 20
27.877915121189162
 30
0.0
  0
VERTEX
  5
2387
  8
LAYER_1
 10
21.547197994556509
 20
27.98450275882896
 30
0.0
  0
VERTEX
  5
2388
  8
LAYER_1
 10
21.76015662829613
 20
27.98450275882896
 30
0.0
  0
VERTEX
  5
2389
  8
LAYER_1
 10
21.76015662829613
 20
28.091090396468761
 30
0.0
  0
VERTEX
  5
238A
  8
LAYER_1
 10
21.866744265935971
 20
28.091090396468761
 30
0.0
  0
VERTEX
  5
238B
  8
LAYER_1
 10
21.866744265935971
 20
28.197244751028698
 30
0.0
  0
VERTEX
  5
238C
  8
LAYER_1
 10
21.866744265935971
 20
28.091090396468761
 30
0.0
  0
SEQEND
  5
238D
  8
LAYER_1
  0
POLYLINE
  5
238E
  8
LAYER_1
 66
     1
 10
0.0
 20
0.0
 30
0.0
  0
VERTEX
  5
238F
  8
LAYER_1
 10
21.866744265935971
 20
28.197244751028698
 30
0.0
  0
VERTEX
  5
2390
  8
LAYER_1
 10
21.76015662829613
 20
28.3038323886685
 30
0.0
  0
VERTEX
  5
2391
  8
LAYER_1
 10
21.76015662829613
 20
28.197244751028698
 30
0.0
  0
SEQEND
  5
2392
  8
LAYER_1
  0
POLYLINE
  5
2393
  8
LAYER_1
 66
     1
 10
0.0
 20
0.0
 30
0.0
  0
VERTEX
  5
2394
  8
LAYER_1
 10
21.76015662829613
 20
28.3038323886685
 30
0.0
  0
VERTEX
  5
2395
  8
LAYER_1
 10
21.653785632196278
 20
28.41042002630827
 30
0.0
  0
VERTEX
  5
2396
  8
LAYER_1
 10
21.440610356916721
 20
28.41042002630827
 30
0.0
  0
VERTEX
  5
2397
  8
LAYER_1
 10
21.22765172317704
 20
28.517007663948078
 30
0.0
  0
SEQEND
  5
2398
  8
LAYER_1
  0
LINE
  5
2399
  8
LAYER_1
 10
20.375817188218409
 20
28.41042002630827
 30
0.0
 11
20.375817188218409
 21
28.3038323886685
 31
0.0
  0
LINE
  5
239A
  8
LAYER_1
 10
20.375817188218409
 20
28.41042002630827
 30
0.0
 11
20.375817188218409
 21
28.3038323886685
 31
0.0
  0
LINE
  5
239B
  8
LAYER_1
 10
20.375817188218409
 20
28.41042002630827
 30
0.0
 11
20.375817188218409
 21
28.3038323886685
 31
0.0
  0
LINE
  5
239C
  8
LAYER_1
 10
20.375817188218409
 20
28.41042002630827
 30
0.0
 11
20.375817188218409
 21
28.3038323886685
 31
0.0
  0
LINE
  5
239D
  8
LAYER_1
 10
20.375817188218409
 20
28.41042002630827
 30
0.0
 11
20.375817188218409
 21
28.3038323886685
 31
0.0
  0
LINE
  5
239E
  8
LAYER_1
 10
20.375817188218409
 20
28.41042002630827
 30
0.0
 11
20.375817188218409
 21
28.197244751028698
 31
0.0
  0
POLYLINE
  5
239F
  8
LAYER_1
 66
     1
 10
0.0
 20
0.0
 30
0.0
  0
VERTEX
  5
23A0
  8
LAYER_1
 10
20.375817188218409
 20
28.3038323886685
 30
0.0
  0
VERTEX
  5
23A1
  8
LAYER_1
 10
20.26944619211854
 20
28.3038323886685
 30
0.0
  0
VERTEX
  5
23A2
  8
LAYER_1
 10
20.26944619211854
 20
28.197244751028698
 30
0.0
  0
SEQEND
  5
23A3
  8
LAYER_1
  0
LINE
  5
23A4
  8
LAYER_1
 10
20.26944619211854
 20
28.3038323886685
 30
0.0
 11
20.26944619211854
 21
28.197244751028698
 31
0.0
  0
LINE
  5
23A5
  8
LAYER_1
 10
20.26944619211854
 20
28.3038323886685
 30
0.0
 11
20.26944619211854
 21
28.197244751028698
 31
0.0
  0
LINE
  5
23A6
  8
LAYER_1
 10
20.26944619211854
 20
28.3038323886685
 30
0.0
 11
20.26944619211854
 21
28.197244751028698
 31
0.0
  0
LINE
  5
23A7
  8
LAYER_1
 10
20.26944619211854
 20
28.3038323886685
 30
0.0
 11
20.26944619211854
 21
28.197244751028698
 31
0.0
  0
LINE
  5
23A8
  8
LAYER_1
 10
20.26944619211854
 20
28.3038323886685
 30
0.0
 11
20.26944619211854
 21
28.197244751028698
 31
0.0
  0
POLYLINE
  5
23A9
  8
LAYER_1
 66
     1
 10
0.0
 20
0.0
 30
0.0
  0
VERTEX
  5
23AA
  8
LAYER_1
 10
20.26944619211854
 20
28.3038323886685
 30
0.0
  0
VERTEX
  5
23AB
  8
LAYER_1
 10
20.16285855447871
 20
28.3038323886685
 30
0.0
  0
VERTEX
  5
23AC
  8
LAYER_1
 10
20.16285855447871
 20
28.197244751028698
 30
0.0
  0
SEQEND
  5
23AD
  8
LAYER_1
  0
LINE
  5
23AE
  8
LAYER_1
 10
20.16285855447871
 20
28.3038323886685
 30
0.0
 11
20.16285855447871
 21
28.091090396468761
 31
0.0
  0
LINE
  5
23AF
  8
LAYER_1
 10
20.16285855447871
 20
28.197244751028698
 30
0.0
 11
20.16285855447871
 21
28.091090396468761
 31
0.0
  0
POLYLINE
  5
23B0
  8
LAYER_1
 66
     1
 10
0.0
 20
0.0
 30
0.0
  0
VERTEX
  5
23B1
  8
LAYER_1
 10
20.16285855447871
 20
28.197244751028698
 30
0.0
  0
VERTEX
  5
23B2
  8
LAYER_1
 10
20.056487558378841
 20
28.197244751028698
 30
0.0
  0
VERTEX
  5
23B3
  8
LAYER_1
 10
20.056487558378841
 20
28.091090396468761
 30
0.0
  0
SEQEND
  5
23B4
  8
LAYER_1
  0
LINE
  5
23B5
  8
LAYER_1
 10
20.056487558378841
 20
28.197244751028698
 30
0.0
 11
20.056487558378841
 21
28.091090396468761
 31
0.0
  0
LINE
  5
23B6
  8
LAYER_1
 10
20.056487558378841
 20
28.197244751028698
 30
0.0
 11
20.056487558378841
 21
28.091090396468761
 31
0.0
  0
POLYLINE
  5
23B7
  8
LAYER_1
 66
     1
 10
0.0
 20
0.0
 30
0.0
  0
VERTEX
  5
23B8
  8
LAYER_1
 10
20.056487558378841
 20
28.197244751028698
 30
0.0
  0
VERTEX
  5
23B9
  8
LAYER_1
 10
19.94989992073911
 20
28.091090396468761
 30
0.0
  0
VERTEX
  5
23BA
  8
LAYER_1
 10
19.94989992073911
 20
27.98450275882896
 30
0.0
  0
SEQEND
  5
23BB
  8
LAYER_1
  0
LINE
  5
23BC
  8
LAYER_1
 10
19.94989992073911
 20
28.091090396468761
 30
0.0
 11
19.94989992073911
 21
27.98450275882896
 31
0.0
  0
LINE
  5
23BD
  8
LAYER_1
 10
19.94989992073911
 20
28.091090396468761
 30
0.0
 11
19.94989992073911
 21
27.98450275882896
 31
0.0
  0
POLYLINE
  5
23BE
  8
LAYER_1
 66
     1
 10
0.0
 20
0.0
 30
0.0
  0
VERTEX
  5
23BF
  8
LAYER_1
 10
19.94989992073911
 20
28.091090396468761
 30
0.0
  0
VERTEX
  5
23C0
  8
LAYER_1
 10
19.84352892463918
 20
28.091090396468761
 30
0.0
  0
VERTEX
  5
23C1
  8
LAYER_1
 10
19.84352892463918
 20
27.98450275882896
 30
0.0
  0
SEQEND
  5
23C2
  8
LAYER_1
  0
LINE
  5
23C3
  8
LAYER_1
 10
19.84352892463918
 20
28.091090396468761
 30
0.0
 11
19.84352892463918
 21
27.877915121189162
 31
0.0
  0
POLYLINE
  5
23C4
  8
LAYER_1
 66
     1
 10
0.0
 20
0.0
 30
0.0
  0
VERTEX
  5
23C5
  8
LAYER_1
 10
19.84352892463918
 20
27.98450275882896
 30
0.0
  0
VERTEX
  5
23C6
  8
LAYER_1
 10
19.736941286999372
 20
27.98450275882896
 30
0.0
  0
VERTEX
  5
23C7
  8
LAYER_1
 10
19.736941286999372
 20
27.877915121189162
 30
0.0
  0
SEQEND
  5
23C8
  8
LAYER_1
  0
LINE
  5
23C9
  8
LAYER_1
 10
19.736941286999372
 20
27.98450275882896
 30
0.0
 11
19.736941286999372
 21
27.877915121189162
 31
0.0
  0
LINE
  5
23CA
  8
LAYER_1
 10
19.736941286999372
 20
27.98450275882896
 30
0.0
 11
19.736941286999372
 21
27.877915121189162
 31
0.0
  0
POLYLINE
  5
23CB
  8
LAYER_1
 66
     1
 10
0.0
 20
0.0
 30
0.0
  0
VERTEX
  5
23CC
  8
LAYER_1
 10
19.736941286999372
 20
27.98450275882896
 30
0.0
  0
VERTEX
  5
23CD
  8
LAYER_1
 10
19.630570290899531
 20
27.877915121189162
 30
0.0
  0
VERTEX
  5
23CE
  8
LAYER_1
 10
19.630570290899531
 20
27.771327483549371
 30
0.0
  0
SEQEND
  5
23CF
  8
LAYER_1
  0
LINE
  5
23D0
  8
LAYER_1
 10
19.630570290899531
 20
27.877915121189162
 30
0.0
 11
19.630570290899531
 21
27.771327483549371
 31
0.0
  0
LINE
  5
23D1
  8
LAYER_1
 10
19.630570290899531
 20
27.877915121189162
 30
0.0
 11
19.630570290899531
 21
27.771327483549371
 31
0.0
  0
LINE
  5
23D2
  8
LAYER_1
 10
-9.5460623806738241
 20
7.0071024485425211
 30
0.0
 11
-9.5460623806738241
 21
6.9005148109027301
 31
0.0
  0
POLYLINE
  5
23D3
  8
LAYER_1
 66
     1
 10
0.0
 20
0.0
 30
0.0
  0
VERTEX
  5
23D4
  8
LAYER_1
 10
-9.5460623806738241
 20
7.0071024485425211
 30
0.0
  0
VERTEX
  5
23D5
  8
LAYER_1
 10
-9.439474743034026
 20
7.0071024485425211
 30
0.0
  0
VERTEX
  5
23D6
  8
LAYER_1
 10
-9.439474743034026
 20
6.9005148109027301
 30
0.0
  0
SEQEND
  5
23D7
  8
LAYER_1
  0
LINE
  5
23D8
  8
LAYER_1
 10
-9.439474743034026
 20
7.0071024485425211
 30
0.0
 11
-9.439474743034026
 21
6.9005148109027301
 31
0.0
  0
POLYLINE
  5
23D9
  8
LAYER_1
 66
     1
 10
0.0
 20
0.0
 30
0.0
  0
VERTEX
  5
23DA
  8
LAYER_1
 10
-9.439474743034026
 20
7.0071024485425211
 30
0.0
  0
VERTEX
  5
23DB
  8
LAYER_1
 10
-9.2265161092943657
 20
7.0071024485425211
 30
0.0
  0
VERTEX
  5
23DC
  8
LAYER_1
 10
-9.2265161092943657
 20
6.9005148109027301
 30
0.0
  0
SEQEND
  5
23DD
  8
LAYER_1
  0
LINE
  5
23DE
  8
LAYER_1
 10
-15.82866703830376
 20
26.386988043471611
 30
0.0
 11
-15.82866703830376
 21
26.174246051271851
 31
0.0
  0
LINE
  5
23DF
  8
LAYER_1
 10
18.885106752040748
 20
28.729749656147821
 30
0.0
 11
18.885106752040748
 21
28.62316201850804
 31
0.0
  0
LINE
  5
23E0
  8
LAYER_1
 10
18.885106752040748
 20
28.729749656147821
 30
0.0
 11
18.885106752040748
 21
28.62316201850804
 31
0.0
  0
LINE
  5
23E1
  8
LAYER_1
 10
18.885106752040748
 20
28.729749656147821
 30
0.0
 11
18.885106752040748
 21
28.62316201850804
 31
0.0
  0
LINE
  5
23E2
  8
LAYER_1
 10
18.885106752040748
 20
28.729749656147821
 30
0.0
 11
18.885106752040748
 21
28.62316201850804
 31
0.0
  0
LINE
  5
23E3
  8
LAYER_1
 10
18.885106752040748
 20
28.729749656147821
 30
0.0
 11
18.885106752040748
 21
28.62316201850804
 31
0.0
  0
POLYLINE
  5
23E4
  8
LAYER_1
 66
     1
 10
0.0
 20
0.0
 30
0.0
  0
VERTEX
  5
23E5
  8
LAYER_1
 10
18.885106752040748
 20
28.747763008464759
 30
0.0
  0
VERTEX
  5
23E6
  8
LAYER_1
 10
18.778519114400961
 20
28.747763008464759
 30
0.0
  0
VERTEX
  5
23E7
  8
LAYER_1
 10
18.778519114400961
 20
28.641175370824971
 30
0.0
  0
SEQEND
  5
23E8
  8
LAYER_1
  0
LINE
  5
23E9
  8
LAYER_1
 10
18.778519114400961
 20
28.729749656147821
 30
0.0
 11
18.778519114400961
 21
28.62316201850804
 31
0.0
  0
LINE
  5
23EA
  8
LAYER_1
 10
18.778519114400961
 20
28.729749656147821
 30
0.0
 11
18.778519114400961
 21
28.62316201850804
 31
0.0
  0
POLYLINE
  5
23EB
  8
LAYER_1
 66
     1
 10
0.0
 20
0.0
 30
0.0
  0
VERTEX
  5
23EC
  8
LAYER_1
 10
20.26944619211854
 20
28.41042002630827
 30
0.0
  0
VERTEX
  5
23ED
  8
LAYER_1
 10
20.375817188218409
 20
28.517007663948078
 30
0.0
  0
VERTEX
  5
23EE
  8
LAYER_1
 10
20.375817188218409
 20
28.41042002630827
 30
0.0
  0
SEQEND
  5
23EF
  8
LAYER_1
  0
POLYLINE
  5
23F0
  8
LAYER_1
 66
     1
 10
0.0
 20
0.0
 30
0.0
  0
VERTEX
  5
23F1
  8
LAYER_1
 10
20.375817188218409
 20
28.517007663948078
 30
0.0
  0
VERTEX
  5
23F2
  8
LAYER_1
 10
20.482404825858161
 20
28.517007663948078
 30
0.0
  0
VERTEX
  5
23F3
  8
LAYER_1
 10
20.482404825858161
 20
28.41042002630827
 30
0.0
  0
SEQEND
  5
23F4
  8
LAYER_1
  0
LINE
  5
23F5
  8
LAYER_1
 10
20.482404825858161
 20
28.517007663948078
 30
0.0
 11
20.588775821958031
 21
28.517007663948078
 31
0.0
  0
LINE
  5
23F6
  8
LAYER_1
 10
-10.184938281892819
 20
7.4330197160218461
 30
0.0
 11
-10.184938281892819
 21
7.3264320783820507
 31
0.0
  0
LINE
  5
23F7
  8
LAYER_1
 10
18.352601846921608
 20
28.3038323886685
 30
0.0
 11
18.352601846921608
 21
28.197244751028698
 31
0.0
  0
POLYLINE
  5
23F8
  8
LAYER_1
 66
     1
 10
0.0
 20
0.0
 30
0.0
  0
VERTEX
  5
23F9
  8
LAYER_1
 10
17.500767311962981
 20
27.026080586230531
 30
0.0
  0
VERTEX
  5
23FA
  8
LAYER_1
 10
17.713725945702599
 20
27.026080586230531
 30
0.0
  0
VERTEX
  5
23FB
  8
LAYER_1
 10
17.926684579442298
 20
27.132668223870301
 30
0.0
  0
VERTEX
  5
23FC
  8
LAYER_1
 10
18.246230850821739
 20
27.132668223870301
 30
0.0
  0
VERTEX
  5
23FD
  8
LAYER_1
 10
18.459189484561431
 20
27.23882257843027
 30
0.0
  0
VERTEX
  5
23FE
  8
LAYER_1
 10
18.778519114400961
 20
27.23882257843027
 30
0.0
  0
VERTEX
  5
23FF
  8
LAYER_1
 10
18.885106752040748
 20
27.34541021607005
 30
0.0
  0
VERTEX
  5
2400
  8
LAYER_1
 10
19.311024019520069
 20
27.34541021607005
 30
0.0
  0
VERTEX
  5
2401
  8
LAYER_1
 10
19.41761165715987
 20
27.451997853709841
 30
0.0
  0
VERTEX
  5
2402
  8
LAYER_1
 10
19.84352892463918
 20
27.451997853709841
 30
0.0
  0
VERTEX
  5
2403
  8
LAYER_1
 10
19.94989992073911
 20
27.558585491349628
 30
0.0
  0
VERTEX
  5
2404
  8
LAYER_1
 10
20.375817188218409
 20
27.558585491349628
 30
0.0
  0
VERTEX
  5
2405
  8
LAYER_1
 10
20.482404825858161
 20
27.66517312898943
 30
0.0
  0
VERTEX
  5
2406
  8
LAYER_1
 10
20.908322093337521
 20
27.66517312898943
 30
0.0
  0
VERTEX
  5
2407
  8
LAYER_1
 10
20.908322093337521
 20
27.771327483549371
 30
0.0
  0
VERTEX
  5
2408
  8
LAYER_1
 10
21.12128072707716
 20
27.771327483549371
 30
0.0
  0
SEQEND
  5
2409
  8
LAYER_1
  0
LINE
  5
240A
  8
LAYER_1
 10
18.352601846921608
 20
28.3038323886685
 30
0.0
 11
18.352601846921608
 21
28.197244751028698
 31
0.0
  0
LINE
  5
240B
  8
LAYER_1
 10
18.672148118301099
 20
28.517007663948078
 30
0.0
 11
18.778519114400961
 21
28.517007663948078
 31
0.0
  0
LINE
  5
240C
  8
LAYER_1
 10
18.672148118301099
 20
28.517007663948078
 30
0.0
 11
18.672148118301099
 21
28.41042002630827
 31
0.0
  0
LINE
  5
240D
  8
LAYER_1
 10
18.672148118301099
 20
28.517007663948078
 30
0.0
 11
18.672148118301099
 21
28.41042002630827
 31
0.0
  0
LINE
  5
240E
  8
LAYER_1
 10
18.565560480661301
 20
28.517007663948078
 30
0.0
 11
18.672148118301099
 21
28.517007663948078
 31
0.0
  0
POLYLINE
  5
240F
  8
LAYER_1
 66
     1
 10
0.0
 20
0.0
 30
0.0
  0
VERTEX
  5
2410
  8
LAYER_1
 10
18.565560480661301
 20
28.517007663948078
 30
0.0
  0
VERTEX
  5
2411
  8
LAYER_1
 10
18.565560480661301
 20
28.41042002630827
 30
0.0
  0
VERTEX
  5
2412
  8
LAYER_1
 10
18.565560480661301
 20
28.517007663948078
 30
0.0
  0
SEQEND
  5
2413
  8
LAYER_1
  0
LINE
  5
2414
  8
LAYER_1
 10
18.565560480661301
 20
28.41042002630827
 30
0.0
 11
18.565560480661301
 21
28.3038323886685
 31
0.0
  0
LINE
  5
2415
  8
LAYER_1
 10
18.352601846921608
 20
28.3038323886685
 30
0.0
 11
18.352601846921608
 21
28.197244751028698
 31
0.0
  0
LINE
  5
2416
  8
LAYER_1
 10
-19.023046544398689
 20
28.517007663948078
 30
0.0
 11
-19.023046544398689
 21
28.41042002630827
 31
0.0
  0
POLYLINE
  5
2417
  8
LAYER_1
 66
     1
 10
0.0
 20
0.0
 30
0.0
  0
VERTEX
  5
2418
  8
LAYER_1
 10
-19.023046544398689
 20
28.517007663948078
 30
0.0
  0
VERTEX
  5
2419
  8
LAYER_1
 10
-18.916675548298809
 20
28.517007663948078
 30
0.0
  0
VERTEX
  5
241A
  8
LAYER_1
 10
-18.916675548298809
 20
28.41042002630827
 30
0.0
  0
SEQEND
  5
241B
  8
LAYER_1
  0
POLYLINE
  5
241C
  8
LAYER_1
 66
     1
 10
0.0
 20
0.0
 30
0.0
  0
VERTEX
  5
241D
  8
LAYER_1
 10
-18.916675548298809
 20
28.517007663948078
 30
0.0
  0
VERTEX
  5
241E
  8
LAYER_1
 10
-18.810087910659028
 20
28.517007663948078
 30
0.0
  0
VERTEX
  5
241F
  8
LAYER_1
 10
-18.810087910659028
 20
28.41042002630827
 30
0.0
  0
SEQEND
  5
2420
  8
LAYER_1
  0
LINE
  5
2421
  8
LAYER_1
 10
-17.106418840741721
 20
28.729749656147821
 30
0.0
 11
-17.106418840741721
 21
28.62316201850804
 31
0.0
  0
LINE
  5
2422
  8
LAYER_1
 10
-17.106418840741721
 20
28.729749656147821
 30
0.0
 11
-17.106418840741721
 21
28.62316201850804
 31
0.0
  0
LINE
  5
2423
  8
LAYER_1
 10
-16.89346020700205
 20
28.41042002630827
 30
0.0
 11
-16.89346020700205
 21
28.3038323886685
 31
0.0
  0
POLYLINE
  5
2424
  8
LAYER_1
 66
     1
 10
0.0
 20
0.0
 30
0.0
  0
VERTEX
  5
2425
  8
LAYER_1
 10
-16.89346020700205
 20
28.41042002630827
 30
0.0
  0
VERTEX
  5
2426
  8
LAYER_1
 10
-16.89346020700205
 20
28.3038323886685
 30
0.0
  0
VERTEX
  5
2427
  8
LAYER_1
 10
-16.786872569362281
 20
28.3038323886685
 30
0.0
  0
VERTEX
  5
2428
  8
LAYER_1
 10
-16.786872569362281
 20
28.197244751028698
 30
0.0
  0
SEQEND
  5
2429
  8
LAYER_1
  0
LINE
  5
242A
  8
LAYER_1
 10
-16.786872569362281
 20
28.3038323886685
 30
0.0
 11
-16.786872569362281
 21
28.197244751028698
 31
0.0
  0
LINE
  5
242B
  8
LAYER_1
 10
-16.786872569362281
 20
28.3038323886685
 30
0.0
 11
-16.786872569362281
 21
28.197244751028698
 31
0.0
  0
LINE
  5
242C
  8
LAYER_1
 10
-9.2265161092943657
 20
5.6227630084647577
 30
0.0
 11
-9.2265161092943657
 21
7.4330197160218461
 31
0.0
  0
LINE
  5
242D
  8
LAYER_1
 10
18.459189484561431
 20
28.41042002630827
 30
0.0
 11
18.459189484561431
 21
28.3038323886685
 31
0.0
  0
POLYLINE
  5
242E
  8
LAYER_1
 66
     1
 10
0.0
 20
0.0
 30
0.0
  0
VERTEX
  5
242F
  8
LAYER_1
 10
18.459189484561431
 20
28.41042002630827
 30
0.0
  0
VERTEX
  5
2430
  8
LAYER_1
 10
18.352601846921608
 20
28.41042002630827
 30
0.0
  0
VERTEX
  5
2431
  8
LAYER_1
 10
18.352601846921608
 20
28.197244751028698
 30
0.0
  0
SEQEND
  5
2432
  8
LAYER_1
  0
LINE
  5
2433
  8
LAYER_1
 10
18.352601846921608
 20
28.3038323886685
 30
0.0
 11
18.352601846921608
 21
28.197244751028698
 31
0.0
  0
LINE
  5
2434
  8
LAYER_1
 10
18.352601846921608
 20
28.3038323886685
 30
0.0
 11
18.352601846921608
 21
28.197244751028698
 31
0.0
  0
LINE
  5
2435
  8
LAYER_1
 10
18.352601846921608
 20
28.3038323886685
 30
0.0
 11
18.352601846921608
 21
28.197244751028698
 31
0.0
  0
LINE
  5
2436
  8
LAYER_1
 10
18.352601846921608
 20
28.3038323886685
 30
0.0
 11
18.352601846921608
 21
28.197244751028698
 31
0.0
  0
LINE
  5
2437
  8
LAYER_1
 10
18.352601846921608
 20
28.3038323886685
 30
0.0
 11
18.352601846921608
 21
28.197244751028698
 31
0.0
  0
POLYLINE
  5
2438
  8
LAYER_1
 66
     1
 10
0.0
 20
0.0
 30
0.0
  0
VERTEX
  5
2439
  8
LAYER_1
 10
18.352601846921608
 20
28.3038323886685
 30
0.0
  0
VERTEX
  5
243A
  8
LAYER_1
 10
18.352601846921608
 20
28.41042002630827
 30
0.0
  0
VERTEX
  5
243B
  8
LAYER_1
 10
18.352601846921608
 20
28.3038323886685
 30
0.0
  0
SEQEND
  5
243C
  8
LAYER_1
  0
POLYLINE
  5
243D
  8
LAYER_1
 66
     1
 10
0.0
 20
0.0
 30
0.0
  0
VERTEX
  5
243E
  8
LAYER_1
 10
18.352601846921608
 20
28.41042002630827
 30
0.0
  0
VERTEX
  5
243F
  8
LAYER_1
 10
18.459189484561431
 20
28.41042002630827
 30
0.0
  0
VERTEX
  5
2440
  8
LAYER_1
 10
18.459189484561431
 20
28.3038323886685
 30
0.0
  0
SEQEND
  5
2441
  8
LAYER_1
  0
LINE
  5
2442
  8
LAYER_1
 10
18.352601846921608
 20
28.3038323886685
 30
0.0
 11
18.352601846921608
 21
28.197244751028698
 31
0.0
  0
LINE
  5
2443
  8
LAYER_1
 10
18.352601846921608
 20
28.3038323886685
 30
0.0
 11
18.352601846921608
 21
28.197244751028698
 31
0.0
  0
LINE
  5
2444
  8
LAYER_1
 10
18.352601846921608
 20
28.3038323886685
 30
0.0
 11
18.352601846921608
 21
28.197244751028698
 31
0.0
  0
LINE
  5
2445
  8
LAYER_1
 10
18.352601846921608
 20
28.3038323886685
 30
0.0
 11
18.352601846921608
 21
28.197244751028698
 31
0.0
  0
LINE
  5
2446
  8
LAYER_1
 10
18.352601846921608
 20
28.3038323886685
 30
0.0
 11
18.352601846921608
 21
28.197244751028698
 31
0.0
  0
LINE
  5
2447
  8
LAYER_1
 10
18.352601846921608
 20
28.3038323886685
 30
0.0
 11
18.352601846921608
 21
28.197244751028698
 31
0.0
  0
LINE
  5
2448
  8
LAYER_1
 10
-16.786872569362281
 20
28.3038323886685
 30
0.0
 11
-16.786872569362281
 21
28.197244751028698
 31
0.0
  0
POLYLINE
  5
2449
  8
LAYER_1
 66
     1
 10
0.0
 20
0.0
 30
0.0
  0
VERTEX
  5
244A
  8
LAYER_1
 10
-16.786872569362281
 20
28.3038323886685
 30
0.0
  0
VERTEX
  5
244B
  8
LAYER_1
 10
-16.89346020700205
 20
28.3038323886685
 30
0.0
  0
VERTEX
  5
244C
  8
LAYER_1
 10
-16.89346020700205
 20
28.197244751028698
 30
0.0
  0
SEQEND
  5
244D
  8
LAYER_1
  0
LINE
  5
244E
  8
LAYER_1
 10
-16.89346020700205
 20
28.3038323886685
 30
0.0
 11
-16.89346020700205
 21
28.197244751028698
 31
0.0
  0
LINE
  5
244F
  8
LAYER_1
 10
-16.89346020700205
 20
28.3038323886685
 30
0.0
 11
-16.89346020700205
 21
28.41042002630827
 31
0.0
  0
LINE
  5
2450
  8
LAYER_1
 10
-16.68050157326239
 20
28.197244751028698
 30
0.0
 11
-16.68050157326239
 21
28.091090396468761
 31
0.0
  0
LINE
  5
2451
  8
LAYER_1
 10
-16.68050157326239
 20
28.197244751028698
 30
0.0
 11
-16.68050157326239
 21
28.091090396468761
 31
0.0
  0
LINE
  5
2452
  8
LAYER_1
 10
-16.68050157326239
 20
28.197244751028698
 30
0.0
 11
-16.68050157326239
 21
28.091090396468761
 31
0.0
  0
LINE
  5
2453
  8
LAYER_1
 10
-16.68050157326239
 20
28.197244751028698
 30
0.0
 11
-16.68050157326239
 21
28.091090396468761
 31
0.0
  0
LINE
  5
2454
  8
LAYER_1
 10
-16.68050157326239
 20
28.197244751028698
 30
0.0
 11
-16.68050157326239
 21
28.091090396468761
 31
0.0
  0
LINE
  5
2455
  8
LAYER_1
 10
-10.184938281892819
 20
7.4330197160218461
 30
0.0
 11
-10.184938281892819
 21
7.3264320783820507
 31
0.0
  0
LINE
  5
2456
  8
LAYER_1
 10
-10.184938281892819
 20
7.4330197160218461
 30
0.0
 11
-10.184938281892819
 21
7.2202777238220959
 31
0.0
  0
POLYLINE
  5
2457
  8
LAYER_1
 66
     1
 10
0.0
 20
0.0
 30
0.0
  0
VERTEX
  5
2458
  8
LAYER_1
 10
-10.184938281892819
 20
7.3264320783820507
 30
0.0
  0
VERTEX
  5
2459
  8
LAYER_1
 10
-10.078350644253019
 20
7.2202777238220959
 30
0.0
  0
VERTEX
  5
245A
  8
LAYER_1
 10
-10.078350644253019
 20
7.113690086182312
 30
0.0
  0
SEQEND
  5
245B
  8
LAYER_1
  0
LINE
  5
245C
  8
LAYER_1
 10
-10.078350644253019
 20
7.2202777238220959
 30
0.0
 11
-10.078350644253019
 21
7.113690086182312
 31
0.0
  0
LINE
  5
245D
  8
LAYER_1
 10
-10.078350644253019
 20
7.2202777238220959
 30
0.0
 11
-10.078350644253019
 21
7.113690086182312
 31
0.0
  0
LINE
  5
245E
  8
LAYER_1
 10
-10.078350644253019
 20
7.2202777238220959
 30
0.0
 11
-10.078350644253019
 21
7.113690086182312
 31
0.0
  0
POLYLINE
  5
245F
  8
LAYER_1
 66
     1
 10
0.0
 20
0.0
 30
0.0
  0
VERTEX
  5
2460
  8
LAYER_1
 10
-10.078350644253019
 20
7.2202777238220959
 30
0.0
  0
VERTEX
  5
2461
  8
LAYER_1
 10
-9.9719796481531588
 20
7.113690086182312
 30
0.0
  0
VERTEX
  5
2462
  8
LAYER_1
 10
-9.9719796481531588
 20
7.0071024485425211
 30
0.0
  0
SEQEND
  5
2463
  8
LAYER_1
  0
LINE
  5
2464
  8
LAYER_1
 10
-9.9719796481531588
 20
7.113690086182312
 30
0.0
 11
-9.9719796481531588
 21
7.0071024485425211
 31
0.0
  0
LINE
  5
2465
  8
LAYER_1
 10
-9.9719796481531588
 20
7.113690086182312
 30
0.0
 11
-9.9719796481531588
 21
7.0071024485425211
 31
0.0
  0
POLYLINE
  5
2466
  8
LAYER_1
 66
     1
 10
0.0
 20
0.0
 30
0.0
  0
VERTEX
  5
2467
  8
LAYER_1
 10
-9.9719796481531588
 20
7.113690086182312
 30
0.0
  0
VERTEX
  5
2468
  8
LAYER_1
 10
-9.8653920105133661
 20
7.113690086182312
 30
0.0
  0
VERTEX
  5
2469
  8
LAYER_1
 10
-9.8653920105133661
 20
7.0071024485425211
 30
0.0
  0
SEQEND
  5
246A
  8
LAYER_1
  0
LINE
  5
246B
  8
LAYER_1
 10
-9.8653920105133661
 20
7.113690086182312
 30
0.0
 11
-9.8653920105133661
 21
7.0071024485425211
 31
0.0
  0
POLYLINE
  5
246C
  8
LAYER_1
 66
     1
 10
0.0
 20
0.0
 30
0.0
  0
VERTEX
  5
246D
  8
LAYER_1
 10
-9.8653920105133661
 20
7.113690086182312
 30
0.0
  0
VERTEX
  5
246E
  8
LAYER_1
 10
-9.7590210144135057
 20
7.113690086182312
 30
0.0
  0
VERTEX
  5
246F
  8
LAYER_1
 10
-9.7590210144135057
 20
7.0071024485425211
 30
0.0
  0
SEQEND
  5
2470
  8
LAYER_1
  0
LINE
  5
2471
  8
LAYER_1
 10
-9.7590210144135057
 20
7.113690086182312
 30
0.0
 11
-9.7590210144135057
 21
7.0071024485425211
 31
0.0
  0
POLYLINE
  5
2472
  8
LAYER_1
 66
     1
 10
0.0
 20
0.0
 30
0.0
  0
VERTEX
  5
2473
  8
LAYER_1
 10
-9.7590210144135057
 20
7.113690086182312
 30
0.0
  0
VERTEX
  5
2474
  8
LAYER_1
 10
-9.7590210144135057
 20
7.0071024485425211
 30
0.0
  0
VERTEX
  5
2475
  8
LAYER_1
 10
-9.6524333767736863
 20
7.0071024485425211
 30
0.0
  0
VERTEX
  5
2476
  8
LAYER_1
 10
-9.6524333767736863
 20
6.9005148109027301
 30
0.0
  0
SEQEND
  5
2477
  8
LAYER_1
  0
LINE
  5
2478
  8
LAYER_1
 10
-9.6524333767736863
 20
7.0071024485425211
 30
0.0
 11
-9.5460623806738241
 21
7.0071024485425211
 31
0.0
  0
POLYLINE
  5
2479
  8
LAYER_1
 66
     1
 10
0.0
 20
0.0
 30
0.0
  0
VERTEX
  5
247A
  8
LAYER_1
 10
-17.42574847058124
 20
28.747763008464759
 30
0.0
  0
VERTEX
  5
247B
  8
LAYER_1
 10
-17.319377474481371
 20
28.62316201850804
 30
0.0
  0
VERTEX
  5
247C
  8
LAYER_1
 10
-17.319377474481371
 20
28.517007663948078
 30
0.0
  0
SEQEND
  5
247D
  8
LAYER_1
  0
LINE
  5
247E
  8
LAYER_1
 10
-17.319377474481371
 20
28.62316201850804
 30
0.0
 11
-17.319377474481371
 21
28.517007663948078
 31
0.0
  0
LINE
  5
247F
  8
LAYER_1
 10
-17.319377474481371
 20
28.62316201850804
 30
0.0
 11
-17.319377474481371
 21
28.517007663948078
 31
0.0
  0
POLYLINE
  5
2480
  8
LAYER_1
 66
     1
 10
0.0
 20
0.0
 30
0.0
  0
VERTEX
  5
2481
  8
LAYER_1
 10
-17.319377474481371
 20
28.62316201850804
 30
0.0
  0
VERTEX
  5
2482
  8
LAYER_1
 10
-17.212789836841569
 20
28.62316201850804
 30
0.0
  0
VERTEX
  5
2483
  8
LAYER_1
 10
-17.212789836841569
 20
28.517007663948078
 30
0.0
  0
SEQEND
  5
2484
  8
LAYER_1
  0
LINE
  5
2485
  8
LAYER_1
 10
-17.212789836841569
 20
28.62316201850804
 30
0.0
 11
-17.212789836841569
 21
28.517007663948078
 31
0.0
  0
LINE
  5
2486
  8
LAYER_1
 10
-17.212789836841569
 20
28.62316201850804
 30
0.0
 11
-17.212789836841569
 21
28.517007663948078
 31
0.0
  0
LINE
  5
2487
  8
LAYER_1
 10
-17.212789836841569
 20
28.62316201850804
 30
0.0
 11
-17.212789836841569
 21
28.517007663948078
 31
0.0
  0
LINE
  5
2488
  8
LAYER_1
 10
-17.212789836841569
 20
28.62316201850804
 30
0.0
 11
-17.212789836841569
 21
28.517007663948078
 31
0.0
  0
LINE
  5
2489
  8
LAYER_1
 10
-17.212789836841569
 20
28.62316201850804
 30
0.0
 11
-17.212789836841569
 21
28.41042002630827
 31
0.0
  0
LINE
  5
248A
  8
LAYER_1
 10
-17.212789836841569
 20
28.517007663948078
 30
0.0
 11
-17.212789836841569
 21
28.41042002630827
 31
0.0
  0
LINE
  5
248B
  8
LAYER_1
 10
-17.106418840741721
 20
28.517007663948078
 30
0.0
 11
-17.106418840741721
 21
28.41042002630827
 31
0.0
  0
LINE
  5
248C
  8
LAYER_1
 10
-17.212789836841569
 20
28.517007663948078
 30
0.0
 11
-17.106418840741721
 21
28.517007663948078
 31
0.0
  0
LINE
  5
248D
  8
LAYER_1
 10
-17.212789836841569
 20
28.517007663948078
 30
0.0
 11
-17.212789836841569
 21
28.41042002630827
 31
0.0
  0
LINE
  5
248E
  8
LAYER_1
 10
-17.212789836841569
 20
28.517007663948078
 30
0.0
 11
-17.212789836841569
 21
28.41042002630827
 31
0.0
  0
LINE
  5
248F
  8
LAYER_1
 10
-16.786872569362281
 20
28.3038323886685
 30
0.0
 11
-16.786872569362281
 21
28.197244751028698
 31
0.0
  0
LINE
  5
2490
  8
LAYER_1
 10
-17.42574847058124
 20
28.747763008464759
 30
0.0
 11
-17.319377474481371
 21
28.747763008464759
 31
0.0
  0
LINE
  5
2491
  8
LAYER_1
 10
-16.786872569362281
 20
28.3038323886685
 30
0.0
 11
-16.786872569362281
 21
28.197244751028698
 31
0.0
  0
LINE
  5
2492
  8
LAYER_1
 10
-3.7959626281630028
 20
5.6227630084647577
 30
0.0
 11
-3.7959626281630028
 21
6.9005148109027301
 31
0.0
  0
LINE
  5
2493
  8
LAYER_1
 10
-5.2866730643406319
 20
5.6227630084647577
 30
0.0
 11
-5.2866730643406319
 21
7.4330197160218461
 31
0.0
  0
LINE
  5
2494
  8
LAYER_1
 10
18.352601846921608
 20
28.3038323886685
 30
0.0
 11
18.352601846921608
 21
28.197244751028698
 31
0.0
  0
LINE
  5
2495
  8
LAYER_1
 10
18.352601846921608
 20
28.3038323886685
 30
0.0
 11
18.352601846921608
 21
28.197244751028698
 31
0.0
  0
LINE
  5
2496
  8
LAYER_1
 10
18.352601846921608
 20
28.3038323886685
 30
0.0
 11
18.352601846921608
 21
28.197244751028698
 31
0.0
  0
LINE
  5
2497
  8
LAYER_1
 10
18.352601846921608
 20
28.3038323886685
 30
0.0
 11
18.352601846921608
 21
28.197244751028698
 31
0.0
  0
LINE
  5
2498
  8
LAYER_1
 10
18.672148118301099
 20
28.729749656147821
 30
0.0
 11
18.672148118301099
 21
28.62316201850804
 31
0.0
  0
LINE
  5
2499
  8
LAYER_1
 10
18.672148118301099
 20
28.729749656147821
 30
0.0
 11
18.672148118301099
 21
28.62316201850804
 31
0.0
  0
LINE
  5
249A
  8
LAYER_1
 10
18.991694389680539
 20
28.747763008464759
 30
0.0
 11
18.991694389680539
 21
28.641175370824971
 31
0.0
  0
POLYLINE
  5
249B
  8
LAYER_1
 66
     1
 10
0.0
 20
0.0
 30
0.0
  0
VERTEX
  5
249C
  8
LAYER_1
 10
18.991694389680539
 20
28.747763008464759
 30
0.0
  0
VERTEX
  5
249D
  8
LAYER_1
 10
18.885106752040748
 20
28.747763008464759
 30
0.0
  0
VERTEX
  5
249E
  8
LAYER_1
 10
18.885106752040748
 20
28.641175370824971
 30
0.0
  0
SEQEND
  5
249F
  8
LAYER_1
  0
LINE
  5
24A0
  8
LAYER_1
 10
18.885106752040748
 20
28.747763008464759
 30
0.0
 11
18.885106752040748
 21
28.535021016265009
 31
0.0
  0
POLYLINE
  5
24A1
  8
LAYER_1
 66
     1
 10
0.0
 20
0.0
 30
0.0
  0
VERTEX
  5
24A2
  8
LAYER_1
 10
18.885106752040748
 20
28.62316201850804
 30
0.0
  0
VERTEX
  5
24A3
  8
LAYER_1
 10
18.778519114400961
 20
28.62316201850804
 30
0.0
  0
VERTEX
  5
24A4
  8
LAYER_1
 10
18.778519114400961
 20
28.517007663948078
 30
0.0
  0
SEQEND
  5
24A5
  8
LAYER_1
  0
LINE
  5
24A6
  8
LAYER_1
 10
18.778519114400961
 20
28.62316201850804
 30
0.0
 11
18.778519114400961
 21
28.517007663948078
 31
0.0
  0
LINE
  5
24A7
  8
LAYER_1
 10
18.778519114400961
 20
28.62316201850804
 30
0.0
 11
18.778519114400961
 21
28.517007663948078
 31
0.0
  0
LINE
  5
24A8
  8
LAYER_1
 10
18.778519114400961
 20
28.62316201850804
 30
0.0
 11
18.778519114400961
 21
28.517007663948078
 31
0.0
  0
LINE
  5
24A9
  8
LAYER_1
 10
18.778519114400961
 20
28.62316201850804
 30
0.0
 11
18.778519114400961
 21
28.517007663948078
 31
0.0
  0
LINE
  5
24AA
  8
LAYER_1
 10
18.778519114400961
 20
28.62316201850804
 30
0.0
 11
18.778519114400961
 21
28.517007663948078
 31
0.0
  0
POLYLINE
  5
24AB
  8
LAYER_1
 66
     1
 10
0.0
 20
0.0
 30
0.0
  0
VERTEX
  5
24AC
  8
LAYER_1
 10
18.778519114400961
 20
28.62316201850804
 30
0.0
  0
VERTEX
  5
24AD
  8
LAYER_1
 10
18.672148118301099
 20
28.62316201850804
 30
0.0
  0
VERTEX
  5
24AE
  8
LAYER_1
 10
18.672148118301099
 20
28.41042002630827
 30
0.0
  0
SEQEND
  5
24AF
  8
LAYER_1
  0
LINE
  5
24B0
  8
LAYER_1
 10
18.672148118301099
 20
28.517007663948078
 30
0.0
 11
18.672148118301099
 21
28.41042002630827
 31
0.0
  0
POLYLINE
  5
24B1
  8
LAYER_1
 66
     1
 10
0.0
 20
0.0
 30
0.0
  0
VERTEX
  5
24B2
  8
LAYER_1
 10
18.778519114400961
 20
28.517007663948078
 30
0.0
  0
VERTEX
  5
24B3
  8
LAYER_1
 10
18.672148118301099
 20
28.517007663948078
 30
0.0
  0
VERTEX
  5
24B4
  8
LAYER_1
 10
18.672148118301099
 20
28.41042002630827
 30
0.0
  0
SEQEND
  5
24B5
  8
LAYER_1
  0
LINE
  5
24B6
  8
LAYER_1
 10
18.672148118301099
 20
28.517007663948078
 30
0.0
 11
18.672148118301099
 21
28.41042002630827
 31
0.0
  0
LINE
  5
24B7
  8
LAYER_1
 10
18.672148118301099
 20
28.517007663948078
 30
0.0
 11
18.672148118301099
 21
28.41042002630827
 31
0.0
  0
POLYLINE
  5
24B8
  8
LAYER_1
 66
     1
 10
0.0
 20
0.0
 30
0.0
  0
VERTEX
  5
24B9
  8
LAYER_1
 10
18.672148118301099
 20
28.517007663948078
 30
0.0
  0
VERTEX
  5
24BA
  8
LAYER_1
 10
18.565560480661301
 20
28.517007663948078
 30
0.0
  0
VERTEX
  5
24BB
  8
LAYER_1
 10
18.565560480661301
 20
28.3038323886685
 30
0.0
  0
SEQEND
  5
24BC
  8
LAYER_1
  0
LINE
  5
24BD
  8
LAYER_1
 10
18.565560480661301
 20
28.41042002630827
 30
0.0
 11
18.565560480661301
 21
28.3038323886685
 31
0.0
  0
POLYLINE
  5
24BE
  8
LAYER_1
 66
     1
 10
0.0
 20
0.0
 30
0.0
  0
VERTEX
  5
24BF
  8
LAYER_1
 10
18.565560480661301
 20
28.41042002630827
 30
0.0
  0
VERTEX
  5
24C0
  8
LAYER_1
 10
18.459189484561431
 20
28.41042002630827
 30
0.0
  0
VERTEX
  5
24C1
  8
LAYER_1
 10
18.459189484561431
 20
28.3038323886685
 30
0.0
  0
SEQEND
  5
24C2
  8
LAYER_1
  0
LINE
  5
24C3
  8
LAYER_1
 10
18.459189484561431
 20
28.41042002630827
 30
0.0
 11
18.459189484561431
 21
28.3038323886685
 31
0.0
  0
LINE
  5
24C4
  8
LAYER_1
 10
18.459189484561431
 20
28.41042002630827
 30
0.0
 11
18.459189484561431
 21
28.3038323886685
 31
0.0
  0
LINE
  5
24C5
  8
LAYER_1
 10
18.459189484561431
 20
28.41042002630827
 30
0.0
 11
18.459189484561431
 21
28.3038323886685
 31
0.0
  0
LINE
  5
24C6
  8
LAYER_1
 10
18.459189484561431
 20
28.41042002630827
 30
0.0
 11
18.459189484561431
 21
28.3038323886685
 31
0.0
  0
LINE
  5
24C7
  8
LAYER_1
 10
18.459189484561431
 20
28.41042002630827
 30
0.0
 11
18.459189484561431
 21
28.3038323886685
 31
0.0
  0
LINE
  5
24C8
  8
LAYER_1
 10
18.459189484561431
 20
28.41042002630827
 30
0.0
 11
18.459189484561431
 21
28.3038323886685
 31
0.0
  0
LINE
  5
24C9
  8
LAYER_1
 10
18.459189484561431
 20
28.41042002630827
 30
0.0
 11
18.459189484561431
 21
28.3038323886685
 31
0.0
  0
LINE
  5
24CA
  8
LAYER_1
 10
18.459189484561431
 20
28.41042002630827
 30
0.0
 11
18.459189484561431
 21
28.3038323886685
 31
0.0
  0
LINE
  5
24CB
  8
LAYER_1
 10
18.459189484561431
 20
28.41042002630827
 30
0.0
 11
18.459189484561431
 21
28.3038323886685
 31
0.0
  0
LINE
  5
24CC
  8
LAYER_1
 10
18.459189484561431
 20
28.41042002630827
 30
0.0
 11
18.565560480661301
 21
28.41042002630827
 31
0.0
  0
LINE
  5
24CD
  8
LAYER_1
 10
18.885106752040748
 20
28.747763008464759
 30
0.0
 11
18.991694389680539
 21
28.747763008464759
 31
0.0
  0
LINE
  5
24CE
  8
LAYER_1
 10
-18.490758280819481
 20
28.091090396468761
 30
0.0
 11
-18.490758280819481
 21
27.98450275882896
 31
0.0
  0
LINE
  5
24CF
  8
LAYER_1
 10
-18.490758280819481
 20
28.091090396468761
 30
0.0
 11
-18.490758280819481
 21
27.98450275882896
 31
0.0
  0
POLYLINE
  5
24D0
  8
LAYER_1
 66
     1
 10
0.0
 20
0.0
 30
0.0
  0
VERTEX
  5
24D1
  8
LAYER_1
 10
-18.490758280819481
 20
28.091090396468761
 30
0.0
  0
VERTEX
  5
24D2
  8
LAYER_1
 10
-18.490758280819481
 20
28.197244751028698
 30
0.0
  0
VERTEX
  5
24D3
  8
LAYER_1
 10
-18.597129276919361
 20
28.197244751028698
 30
0.0
  0
VERTEX
  5
24D4
  8
LAYER_1
 10
-18.597129276919361
 20
28.091090396468761
 30
0.0
  0
SEQEND
  5
24D5
  8
LAYER_1
  0
LINE
  5
24D6
  8
LAYER_1
 10
-18.597129276919361
 20
28.197244751028698
 30
0.0
 11
-18.597129276919361
 21
28.091090396468761
 31
0.0
  0
LINE
  5
24D7
  8
LAYER_1
 10
-18.597129276919361
 20
28.197244751028698
 30
0.0
 11
-18.597129276919361
 21
28.091090396468761
 31
0.0
  0
LINE
  5
24D8
  8
LAYER_1
 10
-18.597129276919361
 20
28.197244751028698
 30
0.0
 11
-18.597129276919361
 21
28.091090396468761
 31
0.0
  0
POLYLINE
  5
24D9
  8
LAYER_1
 66
     1
 10
0.0
 20
0.0
 30
0.0
  0
VERTEX
  5
24DA
  8
LAYER_1
 10
-18.597129276919361
 20
28.197244751028698
 30
0.0
  0
VERTEX
  5
24DB
  8
LAYER_1
 10
-18.703716914559148
 20
28.197244751028698
 30
0.0
  0
VERTEX
  5
24DC
  8
LAYER_1
 10
-18.703716914559148
 20
28.091090396468761
 30
0.0
  0
SEQEND
  5
24DD
  8
LAYER_1
  0
POLYLINE
  5
24DE
  8
LAYER_1
 66
     1
 10
0.0
 20
0.0
 30
0.0
  0
VERTEX
  5
24DF
  8
LAYER_1
 10
-18.703716914559148
 20
28.197244751028698
 30
0.0
  0
VERTEX
  5
24E0
  8
LAYER_1
 10
-18.703716914559148
 20
28.3038323886685
 30
0.0
  0
VERTEX
  5
24E1
  8
LAYER_1
 10
-18.703716914559148
 20
28.197244751028698
 30
0.0
  0
SEQEND
  5
24E2
  8
LAYER_1
  0
LINE
  5
24E3
  8
LAYER_1
 10
-18.703716914559148
 20
28.3038323886685
 30
0.0
 11
-18.703716914559148
 21
28.197244751028698
 31
0.0
  0
LINE
  5
24E4
  8
LAYER_1
 10
-18.703716914559148
 20
28.3038323886685
 30
0.0
 11
-18.703716914559148
 21
28.197244751028698
 31
0.0
  0
LINE
  5
24E5
  8
LAYER_1
 10
-18.703716914559148
 20
28.3038323886685
 30
0.0
 11
-18.703716914559148
 21
28.197244751028698
 31
0.0
  0
LINE
  5
24E6
  8
LAYER_1
 10
-17.319377474481371
 20
28.747763008464759
 30
0.0
 11
-17.319377474481371
 21
28.517007663948078
 31
0.0
  0
LINE
  5
24E7
  8
LAYER_1
 10
-17.319377474481371
 20
28.62316201850804
 30
0.0
 11
-17.319377474481371
 21
28.517007663948078
 31
0.0
  0
POLYLINE
  5
24E8
  8
LAYER_1
 66
     1
 10
0.0
 20
0.0
 30
0.0
  0
VERTEX
  5
24E9
  8
LAYER_1
 10
-17.319377474481371
 20
28.62316201850804
 30
0.0
  0
VERTEX
  5
24EA
  8
LAYER_1
 10
-17.212789836841569
 20
28.62316201850804
 30
0.0
  0
VERTEX
  5
24EB
  8
LAYER_1
 10
-17.212789836841569
 20
28.517007663948078
 30
0.0
  0
SEQEND
  5
24EC
  8
LAYER_1
  0
LINE
  5
24ED
  8
LAYER_1
 10
-17.212789836841569
 20
28.62316201850804
 30
0.0
 11
-17.212789836841569
 21
28.517007663948078
 31
0.0
  0
POLYLINE
  5
24EE
  8
LAYER_1
 66
     1
 10
0.0
 20
0.0
 30
0.0
  0
VERTEX
  5
24EF
  8
LAYER_1
 10
-17.212789836841569
 20
28.62316201850804
 30
0.0
  0
VERTEX
  5
24F0
  8
LAYER_1
 10
-17.106418840741721
 20
28.517007663948078
 30
0.0
  0
VERTEX
  5
24F1
  8
LAYER_1
 10
-17.106418840741721
 20
28.41042002630827
 30
0.0
  0
SEQEND
  5
24F2
  8
LAYER_1
  0
LINE
  5
24F3
  8
LAYER_1
 10
-17.106418840741721
 20
28.517007663948078
 30
0.0
 11
-17.106418840741721
 21
28.41042002630827
 31
0.0
  0
LINE
  5
24F4
  8
LAYER_1
 10
-17.106418840741721
 20
28.517007663948078
 30
0.0
 11
-17.106418840741721
 21
28.41042002630827
 31
0.0
  0
POLYLINE
  5
24F5
  8
LAYER_1
 66
     1
 10
0.0
 20
0.0
 30
0.0
  0
VERTEX
  5
24F6
  8
LAYER_1
 10
-17.106418840741721
 20
28.517007663948078
 30
0.0
  0
VERTEX
  5
24F7
  8
LAYER_1
 10
-16.999831203101909
 20
28.517007663948078
 30
0.0
  0
VERTEX
  5
24F8
  8
LAYER_1
 10
-16.999831203101909
 20
28.41042002630827
 30
0.0
  0
SEQEND
  5
24F9
  8
LAYER_1
  0
LINE
  5
24FA
  8
LAYER_1
 10
-16.999831203101909
 20
28.517007663948078
 30
0.0
 11
-16.999831203101909
 21
28.3038323886685
 31
0.0
  0
POLYLINE
  5
24FB
  8
LAYER_1
 66
     1
 10
0.0
 20
0.0
 30
0.0
  0
VERTEX
  5
24FC
  8
LAYER_1
 10
-16.999831203101909
 20
28.41042002630827
 30
0.0
  0
VERTEX
  5
24FD
  8
LAYER_1
 10
-16.89346020700205
 20
28.41042002630827
 30
0.0
  0
VERTEX
  5
24FE
  8
LAYER_1
 10
-16.89346020700205
 20
28.3038323886685
 30
0.0
  0
SEQEND
  5
24FF
  8
LAYER_1
  0
LINE
  5
2500
  8
LAYER_1
 10
-16.89346020700205
 20
28.41042002630827
 30
0.0
 11
-16.89346020700205
 21
28.3038323886685
 31
0.0
  0
LINE
  5
2501
  8
LAYER_1
 10
-16.89346020700205
 20
28.41042002630827
 30
0.0
 11
-16.89346020700205
 21
28.3038323886685
 31
0.0
  0
LINE
  5
2502
  8
LAYER_1
 10
-16.89346020700205
 20
28.41042002630827
 30
0.0
 11
-16.89346020700205
 21
28.3038323886685
 31
0.0
  0
LINE
  5
2503
  8
LAYER_1
 10
-16.89346020700205
 20
28.41042002630827
 30
0.0
 11
-16.89346020700205
 21
28.3038323886685
 31
0.0
  0
POLYLINE
  5
2504
  8
LAYER_1
 66
     1
 10
0.0
 20
0.0
 30
0.0
  0
VERTEX
  5
2505
  8
LAYER_1
 10
-16.89346020700205
 20
28.41042002630827
 30
0.0
  0
VERTEX
  5
2506
  8
LAYER_1
 10
-16.89346020700205
 20
28.3038323886685
 30
0.0
  0
VERTEX
  5
2507
  8
LAYER_1
 10
-16.786872569362281
 20
28.3038323886685
 30
0.0
  0
VERTEX
  5
2508
  8
LAYER_1
 10
-16.786872569362281
 20
28.197244751028698
 30
0.0
  0
SEQEND
  5
2509
  8
LAYER_1
  0
LINE
  5
250A
  8
LAYER_1
 10
-16.786872569362281
 20
28.3038323886685
 30
0.0
 11
-16.786872569362281
 21
28.197244751028698
 31
0.0
  0
LINE
  5
250B
  8
LAYER_1
 10
-16.786872569362281
 20
28.3038323886685
 30
0.0
 11
-16.786872569362281
 21
28.197244751028698
 31
0.0
  0
LINE
  5
250C
  8
LAYER_1
 10
-16.786872569362281
 20
28.3038323886685
 30
0.0
 11
-16.786872569362281
 21
28.197244751028698
 31
0.0
  0
LINE
  5
250D
  8
LAYER_1
 10
-16.786872569362281
 20
28.3038323886685
 30
0.0
 11
-16.786872569362281
 21
28.197244751028698
 31
0.0
  0
LINE
  5
250E
  8
LAYER_1
 10
-16.786872569362281
 20
28.3038323886685
 30
0.0
 11
-16.786872569362281
 21
28.197244751028698
 31
0.0
  0
LINE
  5
250F
  8
LAYER_1
 10
-16.786872569362281
 20
28.3038323886685
 30
0.0
 11
-16.786872569362281
 21
28.197244751028698
 31
0.0
  0
LINE
  5
2510
  8
LAYER_1
 10
-16.786872569362281
 20
28.3038323886685
 30
0.0
 11
-16.786872569362281
 21
28.197244751028698
 31
0.0
  0
LINE
  5
2511
  8
LAYER_1
 10
-16.786872569362281
 20
28.3038323886685
 30
0.0
 11
-16.786872569362281
 21
28.197244751028698
 31
0.0
  0
LINE
  5
2512
  8
LAYER_1
 10
-16.786872569362281
 20
28.3038323886685
 30
0.0
 11
-16.786872569362281
 21
28.197244751028698
 31
0.0
  0
LINE
  5
2513
  8
LAYER_1
 10
-16.786872569362281
 20
28.3038323886685
 30
0.0
 11
-16.786872569362281
 21
28.197244751028698
 31
0.0
  0
LINE
  5
2514
  8
LAYER_1
 10
-16.786872569362281
 20
28.3038323886685
 30
0.0
 11
-16.786872569362281
 21
28.197244751028698
 31
0.0
  0
POLYLINE
  5
2515
  8
LAYER_1
 66
     1
 10
0.0
 20
0.0
 30
0.0
  0
VERTEX
  5
2516
  8
LAYER_1
 10
-16.786872569362281
 20
28.3038323886685
 30
0.0
  0
VERTEX
  5
2517
  8
LAYER_1
 10
-16.68050157326239
 20
28.3038323886685
 30
0.0
  0
VERTEX
  5
2518
  8
LAYER_1
 10
-16.68050157326239
 20
28.197244751028698
 30
0.0
  0
SEQEND
  5
2519
  8
LAYER_1
  0
LINE
  5
251A
  8
LAYER_1
 10
-17.42574847058124
 20
28.729749656147821
 30
0.0
 11
-17.42574847058124
 21
28.62316201850804
 31
0.0
  0
LINE
  5
251B
  8
LAYER_1
 10
-17.42574847058124
 20
28.729749656147821
 30
0.0
 11
-17.42574847058124
 21
28.62316201850804
 31
0.0
  0
LINE
  5
251C
  8
LAYER_1
 10
-17.42574847058124
 20
28.747763008464759
 30
0.0
 11
-17.42574847058124
 21
28.62316201850804
 31
0.0
  0
LINE
  5
251D
  8
LAYER_1
 10
19.736941286999372
 20
27.877915121189162
 30
0.0
 11
19.736941286999372
 21
27.771327483549371
 31
0.0
  0
LINE
  5
251E
  8
LAYER_1
 10
19.736941286999372
 20
27.877915121189162
 30
0.0
 11
19.736941286999372
 21
27.771327483549371
 31
0.0
  0
POLYLINE
  5
251F
  8
LAYER_1
 66
     1
 10
0.0
 20
0.0
 30
0.0
  0
VERTEX
  5
2520
  8
LAYER_1
 10
19.736941286999372
 20
27.877915121189162
 30
0.0
  0
VERTEX
  5
2521
  8
LAYER_1
 10
19.630570290899531
 20
27.877915121189162
 30
0.0
  0
VERTEX
  5
2522
  8
LAYER_1
 10
19.630570290899531
 20
27.771327483549371
 30
0.0
  0
SEQEND
  5
2523
  8
LAYER_1
  0
LINE
  5
2524
  8
LAYER_1
 10
19.630570290899531
 20
27.877915121189162
 30
0.0
 11
19.630570290899531
 21
27.771327483549371
 31
0.0
  0
LINE
  5
2525
  8
LAYER_1
 10
19.630570290899531
 20
27.877915121189162
 30
0.0
 11
19.630570290899531
 21
27.771327483549371
 31
0.0
  0
POLYLINE
  5
2526
  8
LAYER_1
 66
     1
 10
0.0
 20
0.0
 30
0.0
  0
VERTEX
  5
2527
  8
LAYER_1
 10
19.630570290899531
 20
27.877915121189162
 30
0.0
  0
VERTEX
  5
2528
  8
LAYER_1
 10
19.630570290899531
 20
27.771327483549371
 30
0.0
  0
VERTEX
  5
2529
  8
LAYER_1
 10
19.523982653259729
 20
27.771327483549371
 30
0.0
  0
VERTEX
  5
252A
  8
LAYER_1
 10
19.523982653259729
 20
27.66517312898943
 30
0.0
  0
SEQEND
  5
252B
  8
LAYER_1
  0
LINE
  5
252C
  8
LAYER_1
 10
19.523982653259729
 20
27.771327483549371
 30
0.0
 11
19.523982653259729
 21
27.66517312898943
 31
0.0
  0
LINE
  5
252D
  8
LAYER_1
 10
19.523982653259729
 20
27.771327483549371
 30
0.0
 11
19.523982653259729
 21
27.66517312898943
 31
0.0
  0
LINE
  5
252E
  8
LAYER_1
 10
19.523982653259729
 20
27.771327483549371
 30
0.0
 11
19.523982653259729
 21
27.66517312898943
 31
0.0
  0
LINE
  5
252F
  8
LAYER_1
 10
19.523982653259729
 20
27.771327483549371
 30
0.0
 11
19.523982653259729
 21
27.66517312898943
 31
0.0
  0
LINE
  5
2530
  8
LAYER_1
 10
19.523982653259729
 20
27.771327483549371
 30
0.0
 11
19.523982653259729
 21
27.66517312898943
 31
0.0
  0
POLYLINE
  5
2531
  8
LAYER_1
 66
     1
 10
0.0
 20
0.0
 30
0.0
  0
VERTEX
  5
2532
  8
LAYER_1
 10
18.565560480661301
 20
28.747763008464759
 30
0.0
  0
VERTEX
  5
2533
  8
LAYER_1
 10
18.672148118301099
 20
28.747763008464759
 30
0.0
  0
VERTEX
  5
2534
  8
LAYER_1
 10
18.672148118301099
 20
28.641175370824971
 30
0.0
  0
SEQEND
  5
2535
  8
LAYER_1
  0
LINE
  5
2536
  8
LAYER_1
 10
18.352601846921608
 20
28.41042002630827
 30
0.0
 11
18.352601846921608
 21
28.3038323886685
 31
0.0
  0
LINE
  5
2537
  8
LAYER_1
 10
18.672148118301099
 20
28.62316201850804
 30
0.0
 11
18.672148118301099
 21
28.729749656147821
 31
0.0
  0
LINE
  5
2538
  8
LAYER_1
 10
-16.89346020700205
 20
28.41042002630827
 30
0.0
 11
-16.89346020700205
 21
28.3038323886685
 31
0.0
  0
LINE
  5
2539
  8
LAYER_1
 10
-16.89346020700205
 20
28.41042002630827
 30
0.0
 11
-16.89346020700205
 21
28.3038323886685
 31
0.0
  0
LINE
  5
253A
  8
LAYER_1
 10
-16.89346020700205
 20
28.41042002630827
 30
0.0
 11
-16.89346020700205
 21
28.3038323886685
 31
0.0
  0
LINE
  5
253B
  8
LAYER_1
 10
-16.89346020700205
 20
28.41042002630827
 30
0.0
 11
-16.89346020700205
 21
28.197244751028698
 31
0.0
  0
LINE
  5
253C
  8
LAYER_1
 10
-16.89346020700205
 20
28.3038323886685
 30
0.0
 11
-16.89346020700205
 21
28.197244751028698
 31
0.0
  0
LINE
  5
253D
  8
LAYER_1
 10
-16.89346020700205
 20
28.41042002630827
 30
0.0
 11
-16.89346020700205
 21
28.3038323886685
 31
0.0
  0
POLYLINE
  5
253E
  8
LAYER_1
 66
     1
 10
0.0
 20
0.0
 30
0.0
  0
VERTEX
  5
253F
  8
LAYER_1
 10
-16.89346020700205
 20
28.41042002630827
 30
0.0
  0
VERTEX
  5
2540
  8
LAYER_1
 10
-16.999831203101909
 20
28.41042002630827
 30
0.0
  0
VERTEX
  5
2541
  8
LAYER_1
 10
-16.999831203101909
 20
28.3038323886685
 30
0.0
  0
SEQEND
  5
2542
  8
LAYER_1
  0
LINE
  5
2543
  8
LAYER_1
 10
-16.999831203101909
 20
28.41042002630827
 30
0.0
 11
-16.999831203101909
 21
28.3038323886685
 31
0.0
  0
LINE
  5
2544
  8
LAYER_1
 10
-16.999831203101909
 20
28.41042002630827
 30
0.0
 11
-16.999831203101909
 21
28.3038323886685
 31
0.0
  0
POLYLINE
  5
2545
  8
LAYER_1
 66
     1
 10
0.0
 20
0.0
 30
0.0
  0
VERTEX
  5
2546
  8
LAYER_1
 10
-16.999831203101909
 20
28.41042002630827
 30
0.0
  0
VERTEX
  5
2547
  8
LAYER_1
 10
-17.106418840741721
 20
28.41042002630827
 30
0.0
  0
VERTEX
  5
2548
  8
LAYER_1
 10
-17.106418840741721
 20
28.517007663948078
 30
0.0
  0
VERTEX
  5
2549
  8
LAYER_1
 10
-17.106418840741721
 20
28.41042002630827
 30
0.0
  0
SEQEND
  5
254A
  8
LAYER_1
  0
LINE
  5
254B
  8
LAYER_1
 10
-17.106418840741721
 20
28.517007663948078
 30
0.0
 11
-17.106418840741721
 21
28.41042002630827
 31
0.0
  0
POLYLINE
  5
254C
  8
LAYER_1
 66
     1
 10
0.0
 20
0.0
 30
0.0
  0
VERTEX
  5
254D
  8
LAYER_1
 10
-17.106418840741721
 20
28.517007663948078
 30
0.0
  0
VERTEX
  5
254E
  8
LAYER_1
 10
-17.212789836841569
 20
28.517007663948078
 30
0.0
  0
VERTEX
  5
254F
  8
LAYER_1
 10
-17.212789836841569
 20
28.41042002630827
 30
0.0
  0
SEQEND
  5
2550
  8
LAYER_1
  0
LINE
  5
2551
  8
LAYER_1
 10
-17.106418840741721
 20
28.517007663948078
 30
0.0
 11
-17.106418840741721
 21
28.41042002630827
 31
0.0
  0
LINE
  5
2552
  8
LAYER_1
 10
-17.106418840741721
 20
28.517007663948078
 30
0.0
 11
-17.106418840741721
 21
28.41042002630827
 31
0.0
  0
LINE
  5
2553
  8
LAYER_1
 10
-17.106418840741721
 20
28.517007663948078
 30
0.0
 11
-17.106418840741721
 21
28.41042002630827
 31
0.0
  0
POLYLINE
  5
2554
  8
LAYER_1
 66
     1
 10
0.0
 20
0.0
 30
0.0
  0
VERTEX
  5
2555
  8
LAYER_1
 10
-17.106418840741721
 20
28.517007663948078
 30
0.0
  0
VERTEX
  5
2556
  8
LAYER_1
 10
-16.999831203101909
 20
28.41042002630827
 30
0.0
  0
VERTEX
  5
2557
  8
LAYER_1
 10
-16.999831203101909
 20
28.3038323886685
 30
0.0
  0
SEQEND
  5
2558
  8
LAYER_1
  0
LINE
  5
2559
  8
LAYER_1
 10
-16.999831203101909
 20
28.41042002630827
 30
0.0
 11
-16.999831203101909
 21
28.3038323886685
 31
0.0
  0
LINE
  5
255A
  8
LAYER_1
 10
-16.999831203101909
 20
28.41042002630827
 30
0.0
 11
-16.999831203101909
 21
28.3038323886685
 31
0.0
  0
LINE
  5
255B
  8
LAYER_1
 10
-16.999831203101909
 20
28.41042002630827
 30
0.0
 11
-16.999831203101909
 21
28.3038323886685
 31
0.0
  0
LINE
  5
255C
  8
LAYER_1
 10
-16.999831203101909
 20
28.41042002630827
 30
0.0
 11
-16.999831203101909
 21
28.3038323886685
 31
0.0
  0
LINE
  5
255D
  8
LAYER_1
 10
-16.999831203101909
 20
28.41042002630827
 30
0.0
 11
-16.999831203101909
 21
28.3038323886685
 31
0.0
  0
LINE
  5
255E
  8
LAYER_1
 10
-16.999831203101909
 20
28.41042002630827
 30
0.0
 11
-16.999831203101909
 21
28.3038323886685
 31
0.0
  0
POLYLINE
  5
255F
  8
LAYER_1
 66
     1
 10
0.0
 20
0.0
 30
0.0
  0
VERTEX
  5
2560
  8
LAYER_1
 10
-16.999831203101909
 20
28.41042002630827
 30
0.0
  0
VERTEX
  5
2561
  8
LAYER_1
 10
-16.89346020700205
 20
28.41042002630827
 30
0.0
  0
VERTEX
  5
2562
  8
LAYER_1
 10
-16.89346020700205
 20
28.3038323886685
 30
0.0
  0
SEQEND
  5
2563
  8
LAYER_1
  0
LINE
  5
2564
  8
LAYER_1
 10
-16.89346020700205
 20
28.41042002630827
 30
0.0
 11
-16.89346020700205
 21
28.3038323886685
 31
0.0
  0
LINE
  5
2565
  8
LAYER_1
 10
-16.89346020700205
 20
28.41042002630827
 30
0.0
 11
-16.89346020700205
 21
28.3038323886685
 31
0.0
  0
LINE
  5
2566
  8
LAYER_1
 10
-17.95825337570038
 20
27.771327483549371
 30
0.0
 11
-17.95825337570038
 21
27.66517312898943
 31
0.0
  0
LINE
  5
2567
  8
LAYER_1
 10
-17.95825337570038
 20
27.771327483549371
 30
0.0
 11
-17.95825337570038
 21
27.66517312898943
 31
0.0
  0
LINE
  5
2568
  8
LAYER_1
 10
-17.95825337570038
 20
27.771327483549371
 30
0.0
 11
-17.95825337570038
 21
27.66517312898943
 31
0.0
  0
POLYLINE
  5
2569
  8
LAYER_1
 66
     1
 10
0.0
 20
0.0
 30
0.0
  0
VERTEX
  5
256A
  8
LAYER_1
 10
-17.95825337570038
 20
27.771327483549371
 30
0.0
  0
VERTEX
  5
256B
  8
LAYER_1
 10
-18.06462437180026
 20
27.771327483549371
 30
0.0
  0
VERTEX
  5
256C
  8
LAYER_1
 10
-18.06462437180026
 20
27.66517312898943
 30
0.0
  0
SEQEND
  5
256D
  8
LAYER_1
  0
POLYLINE
  5
256E
  8
LAYER_1
 66
     1
 10
0.0
 20
0.0
 30
0.0
  0
VERTEX
  5
256F
  8
LAYER_1
 10
-18.06462437180026
 20
27.771327483549371
 30
0.0
  0
VERTEX
  5
2570
  8
LAYER_1
 10
-18.06462437180026
 20
27.877915121189162
 30
0.0
  0
VERTEX
  5
2571
  8
LAYER_1
 10
-18.06462437180026
 20
27.771327483549371
 30
0.0
  0
SEQEND
  5
2572
  8
LAYER_1
  0
LINE
  5
2573
  8
LAYER_1
 10
-18.06462437180026
 20
27.877915121189162
 30
0.0
 11
-18.06462437180026
 21
27.771327483549371
 31
0.0
  0
LINE
  5
2574
  8
LAYER_1
 10
-18.06462437180026
 20
27.877915121189162
 30
0.0
 11
-18.06462437180026
 21
27.771327483549371
 31
0.0
  0
POLYLINE
  5
2575
  8
LAYER_1
 66
     1
 10
0.0
 20
0.0
 30
0.0
  0
VERTEX
  5
2576
  8
LAYER_1
 10
-18.06462437180026
 20
27.877915121189162
 30
0.0
  0
VERTEX
  5
2577
  8
LAYER_1
 10
-18.17121200944004
 20
27.877915121189162
 30
0.0
  0
VERTEX
  5
2578
  8
LAYER_1
 10
-18.17121200944004
 20
27.771327483549371
 30
0.0
  0
SEQEND
  5
2579
  8
LAYER_1
  0
LINE
  5
257A
  8
LAYER_1
 10
-18.17121200944004
 20
27.877915121189162
 30
0.0
 11
-18.17121200944004
 21
27.771327483549371
 31
0.0
  0
LINE
  5
257B
  8
LAYER_1
 10
-18.17121200944004
 20
27.877915121189162
 30
0.0
 11
-18.17121200944004
 21
27.771327483549371
 31
0.0
  0
POLYLINE
  5
257C
  8
LAYER_1
 66
     1
 10
0.0
 20
0.0
 30
0.0
  0
VERTEX
  5
257D
  8
LAYER_1
 10
-18.17121200944004
 20
27.877915121189162
 30
0.0
  0
VERTEX
  5
257E
  8
LAYER_1
 10
-18.17121200944004
 20
27.98450275882896
 30
0.0
  0
VERTEX
  5
257F
  8
LAYER_1
 10
-18.27758300553992
 20
27.98450275882896
 30
0.0
  0
VERTEX
  5
2580
  8
LAYER_1
 10
-18.27758300553992
 20
27.877915121189162
 30
0.0
  0
SEQEND
  5
2581
  8
LAYER_1
  0
LINE
  5
2582
  8
LAYER_1
 10
-18.27758300553992
 20
27.98450275882896
 30
0.0
 11
-18.27758300553992
 21
27.877915121189162
 31
0.0
  0
LINE
  5
2583
  8
LAYER_1
 10
-18.27758300553992
 20
27.98450275882896
 30
0.0
 11
-18.27758300553992
 21
27.877915121189162
 31
0.0
  0
POLYLINE
  5
2584
  8
LAYER_1
 66
     1
 10
0.0
 20
0.0
 30
0.0
  0
VERTEX
  5
2585
  8
LAYER_1
 10
-18.27758300553992
 20
27.98450275882896
 30
0.0
  0
VERTEX
  5
2586
  8
LAYER_1
 10
-18.384170643179711
 20
27.98450275882896
 30
0.0
  0
VERTEX
  5
2587
  8
LAYER_1
 10
-18.384170643179711
 20
28.091090396468761
 30
0.0
  0
VERTEX
  5
2588
  8
LAYER_1
 10
-18.384170643179711
 20
27.98450275882896
 30
0.0
  0
SEQEND
  5
2589
  8
LAYER_1
  0
LINE
  5
258A
  8
LAYER_1
 10
-18.384170643179711
 20
28.091090396468761
 30
0.0
 11
-18.384170643179711
 21
27.98450275882896
 31
0.0
  0
POLYLINE
  5
258B
  8
LAYER_1
 66
     1
 10
0.0
 20
0.0
 30
0.0
  0
VERTEX
  5
258C
  8
LAYER_1
 10
-18.384170643179711
 20
28.091090396468761
 30
0.0
  0
VERTEX
  5
258D
  8
LAYER_1
 10
-18.490758280819481
 20
28.091090396468761
 30
0.0
  0
VERTEX
  5
258E
  8
LAYER_1
 10
-18.490758280819481
 20
27.98450275882896
 30
0.0
  0
SEQEND
  5
258F
  8
LAYER_1
  0
LINE
  5
2590
  8
LAYER_1
 10
-16.89346020700205
 20
28.41042002630827
 30
0.0
 11
-16.89346020700205
 21
28.3038323886685
 31
0.0
  0
POLYLINE
  5
2591
  8
LAYER_1
 66
     1
 10
0.0
 20
0.0
 30
0.0
  0
VERTEX
  5
2592
  8
LAYER_1
 10
-16.89346020700205
 20
28.41042002630827
 30
0.0
  0
VERTEX
  5
2593
  8
LAYER_1
 10
-16.786872569362281
 20
28.3038323886685
 30
0.0
  0
VERTEX
  5
2594
  8
LAYER_1
 10
-16.786872569362281
 20
28.197244751028698
 30
0.0
  0
SEQEND
  5
2595
  8
LAYER_1
  0
LINE
  5
2596
  8
LAYER_1
 10
-16.786872569362281
 20
28.3038323886685
 30
0.0
 11
-16.786872569362281
 21
28.197244751028698
 31
0.0
  0
LINE
  5
2597
  8
LAYER_1
 10
-16.786872569362281
 20
28.3038323886685
 30
0.0
 11
-16.786872569362281
 21
28.197244751028698
 31
0.0
  0
LINE
  5
2598
  8
LAYER_1
 10
-16.786872569362281
 20
28.3038323886685
 30
0.0
 11
-16.786872569362281
 21
28.197244751028698
 31
0.0
  0
LINE
  5
2599
  8
LAYER_1
 10
-16.786872569362281
 20
28.3038323886685
 30
0.0
 11
-16.786872569362281
 21
28.197244751028698
 31
0.0
  0
LINE
  5
259A
  8
LAYER_1
 10
-16.786872569362281
 20
28.3038323886685
 30
0.0
 11
-16.786872569362281
 21
28.197244751028698
 31
0.0
  0
LINE
  5
259B
  8
LAYER_1
 10
-16.786872569362281
 20
28.3038323886685
 30
0.0
 11
-16.786872569362281
 21
28.197244751028698
 31
0.0
  0
LINE
  5
259C
  8
LAYER_1
 10
-16.786872569362281
 20
28.3038323886685
 30
0.0
 11
-16.786872569362281
 21
28.197244751028698
 31
0.0
  0
LINE
  5
259D
  8
LAYER_1
 10
-16.786872569362281
 20
28.3038323886685
 30
0.0
 11
-16.786872569362281
 21
28.197244751028698
 31
0.0
  0
LINE
  5
259E
  8
LAYER_1
 10
-16.786872569362281
 20
28.3038323886685
 30
0.0
 11
-16.786872569362281
 21
28.197244751028698
 31
0.0
  0
LINE
  5
259F
  8
LAYER_1
 10
-16.786872569362281
 20
28.3038323886685
 30
0.0
 11
-16.786872569362281
 21
28.197244751028698
 31
0.0
  0
LINE
  5
25A0
  8
LAYER_1
 10
-16.89346020700205
 20
28.41042002630827
 30
0.0
 11
-16.89346020700205
 21
28.3038323886685
 31
0.0
  0
LINE
  5
25A1
  8
LAYER_1
 10
-16.89346020700205
 20
28.41042002630827
 30
0.0
 11
-16.89346020700205
 21
28.3038323886685
 31
0.0
  0
LINE
  5
25A2
  8
LAYER_1
 10
-16.89346020700205
 20
28.41042002630827
 30
0.0
 11
-16.89346020700205
 21
28.3038323886685
 31
0.0
  0
LINE
  5
25A3
  8
LAYER_1
 10
-16.89346020700205
 20
28.41042002630827
 30
0.0
 11
-16.89346020700205
 21
28.3038323886685
 31
0.0
  0
LINE
  5
25A4
  8
LAYER_1
 10
-16.89346020700205
 20
28.41042002630827
 30
0.0
 11
-16.89346020700205
 21
28.3038323886685
 31
0.0
  0
LINE
  5
25A5
  8
LAYER_1
 10
-16.89346020700205
 20
28.41042002630827
 30
0.0
 11
-16.89346020700205
 21
28.3038323886685
 31
0.0
  0
LINE
  5
25A6
  8
LAYER_1
 10
-16.89346020700205
 20
28.41042002630827
 30
0.0
 11
-16.89346020700205
 21
28.3038323886685
 31
0.0
  0
LINE
  5
25A7
  8
LAYER_1
 10
-17.106418840741721
 20
28.729749656147821
 30
0.0
 11
-17.106418840741721
 21
28.62316201850804
 31
0.0
  0
LINE
  5
25A8
  8
LAYER_1
 10
-16.999831203101909
 20
28.517007663948078
 30
0.0
 11
-16.89346020700205
 21
28.41042002630827
 31
0.0
  0
POLYLINE
  5
25A9
  8
LAYER_1
 66
     1
 10
0.0
 20
0.0
 30
0.0
  0
VERTEX
  5
25AA
  8
LAYER_1
 10
18.459189484561431
 20
28.517007663948078
 30
0.0
  0
VERTEX
  5
25AB
  8
LAYER_1
 10
18.565560480661301
 20
28.517007663948078
 30
0.0
  0
VERTEX
  5
25AC
  8
LAYER_1
 10
18.565560480661301
 20
28.41042002630827
 30
0.0
  0
SEQEND
  5
25AD
  8
LAYER_1
  0
LINE
  5
25AE
  8
LAYER_1
 10
18.565560480661301
 20
28.517007663948078
 30
0.0
 11
18.565560480661301
 21
28.41042002630827
 31
0.0
  0
POLYLINE
  5
25AF
  8
LAYER_1
 66
     1
 10
0.0
 20
0.0
 30
0.0
  0
VERTEX
  5
25B0
  8
LAYER_1
 10
18.565560480661301
 20
28.517007663948078
 30
0.0
  0
VERTEX
  5
25B1
  8
LAYER_1
 10
18.565560480661301
 20
28.62316201850804
 30
0.0
  0
VERTEX
  5
25B2
  8
LAYER_1
 10
18.565560480661301
 20
28.517007663948078
 30
0.0
  0
SEQEND
  5
25B3
  8
LAYER_1
  0
POLYLINE
  5
25B4
  8
LAYER_1
 66
     1
 10
0.0
 20
0.0
 30
0.0
  0
VERTEX
  5
25B5
  8
LAYER_1
 10
18.565560480661301
 20
28.62316201850804
 30
0.0
  0
VERTEX
  5
25B6
  8
LAYER_1
 10
18.672148118301099
 20
28.62316201850804
 30
0.0
  0
VERTEX
  5
25B7
  8
LAYER_1
 10
18.672148118301099
 20
28.517007663948078
 30
0.0
  0
SEQEND
  5
25B8
  8
LAYER_1
  0
LINE
  5
25B9
  8
LAYER_1
 10
18.672148118301099
 20
28.62316201850804
 30
0.0
 11
18.672148118301099
 21
28.517007663948078
 31
0.0
  0
LINE
  5
25BA
  8
LAYER_1
 10
18.352601846921608
 20
28.41042002630827
 30
0.0
 11
18.352601846921608
 21
28.3038323886685
 31
0.0
  0
LINE
  5
25BB
  8
LAYER_1
 10
18.352601846921608
 20
28.41042002630827
 30
0.0
 11
18.352601846921608
 21
28.3038323886685
 31
0.0
  0
POLYLINE
  5
25BC
  8
LAYER_1
 66
     1
 10
0.0
 20
0.0
 30
0.0
  0
VERTEX
  5
25BD
  8
LAYER_1
 10
18.352601846921608
 20
28.41042002630827
 30
0.0
  0
VERTEX
  5
25BE
  8
LAYER_1
 10
18.459189484561431
 20
28.41042002630827
 30
0.0
  0
VERTEX
  5
25BF
  8
LAYER_1
 10
18.459189484561431
 20
28.3038323886685
 30
0.0
  0
SEQEND
  5
25C0
  8
LAYER_1
  0
LINE
  5
25C1
  8
LAYER_1
 10
18.459189484561431
 20
28.41042002630827
 30
0.0
 11
18.459189484561431
 21
28.3038323886685
 31
0.0
  0
LINE
  5
25C2
  8
LAYER_1
 10
18.459189484561431
 20
28.41042002630827
 30
0.0
 11
18.459189484561431
 21
28.3038323886685
 31
0.0
  0
LINE
  5
25C3
  8
LAYER_1
 10
18.459189484561431
 20
28.41042002630827
 30
0.0
 11
18.459189484561431
 21
28.517007663948078
 31
0.0
  0
POLYLINE
  5
25C4
  8
LAYER_1
 66
     1
 10
0.0
 20
0.0
 30
0.0
  0
VERTEX
  5
25C5
  8
LAYER_1
 10
18.672148118301099
 20
28.747763008464759
 30
0.0
  0
VERTEX
  5
25C6
  8
LAYER_1
 10
18.778519114400961
 20
28.747763008464759
 30
0.0
  0
VERTEX
  5
25C7
  8
LAYER_1
 10
18.778519114400961
 20
28.641175370824971
 30
0.0
  0
SEQEND
  5
25C8
  8
LAYER_1
  0
LINE
  5
25C9
  8
LAYER_1
 10
20.26944619211854
 20
28.3038323886685
 30
0.0
 11
20.26944619211854
 21
28.197244751028698
 31
0.0
  0
LINE
  5
25CA
  8
LAYER_1
 10
20.26944619211854
 20
28.3038323886685
 30
0.0
 11
20.26944619211854
 21
28.197244751028698
 31
0.0
  0
POLYLINE
  5
25CB
  8
LAYER_1
 66
     1
 10
0.0
 20
0.0
 30
0.0
  0
VERTEX
  5
25CC
  8
LAYER_1
 10
20.26944619211854
 20
28.3038323886685
 30
0.0
  0
VERTEX
  5
25CD
  8
LAYER_1
 10
20.16285855447871
 20
28.197244751028698
 30
0.0
  0
VERTEX
  5
25CE
  8
LAYER_1
 10
20.16285855447871
 20
28.091090396468761
 30
0.0
  0
SEQEND
  5
25CF
  8
LAYER_1
  0
LINE
  5
25D0
  8
LAYER_1
 10
20.16285855447871
 20
28.197244751028698
 30
0.0
 11
20.16285855447871
 21
28.091090396468761
 31
0.0
  0
LINE
  5
25D1
  8
LAYER_1
 10
20.16285855447871
 20
28.197244751028698
 30
0.0
 11
20.16285855447871
 21
28.091090396468761
 31
0.0
  0
LINE
  5
25D2
  8
LAYER_1
 10
20.16285855447871
 20
28.197244751028698
 30
0.0
 11
20.16285855447871
 21
28.091090396468761
 31
0.0
  0
LINE
  5
25D3
  8
LAYER_1
 10
20.16285855447871
 20
28.197244751028698
 30
0.0
 11
20.16285855447871
 21
28.091090396468761
 31
0.0
  0
POLYLINE
  5
25D4
  8
LAYER_1
 66
     1
 10
0.0
 20
0.0
 30
0.0
  0
VERTEX
  5
25D5
  8
LAYER_1
 10
20.16285855447871
 20
28.197244751028698
 30
0.0
  0
VERTEX
  5
25D6
  8
LAYER_1
 10
20.056487558378841
 20
28.197244751028698
 30
0.0
  0
VERTEX
  5
25D7
  8
LAYER_1
 10
20.056487558378841
 20
28.091090396468761
 30
0.0
  0
SEQEND
  5
25D8
  8
LAYER_1
  0
LINE
  5
25D9
  8
LAYER_1
 10
20.056487558378841
 20
28.197244751028698
 30
0.0
 11
20.056487558378841
 21
27.98450275882896
 31
0.0
  0
LINE
  5
25DA
  8
LAYER_1
 10
20.056487558378841
 20
28.091090396468761
 30
0.0
 11
20.056487558378841
 21
27.98450275882896
 31
0.0
  0
POLYLINE
  5
25DB
  8
LAYER_1
 66
     1
 10
0.0
 20
0.0
 30
0.0
  0
VERTEX
  5
25DC
  8
LAYER_1
 10
20.056487558378841
 20
28.091090396468761
 30
0.0
  0
VERTEX
  5
25DD
  8
LAYER_1
 10
19.94989992073911
 20
28.091090396468761
 30
0.0
  0
VERTEX
  5
25DE
  8
LAYER_1
 10
19.94989992073911
 20
27.98450275882896
 30
0.0
  0
SEQEND
  5
25DF
  8
LAYER_1
  0
LINE
  5
25E0
  8
LAYER_1
 10
19.94989992073911
 20
28.091090396468761
 30
0.0
 11
19.94989992073911
 21
27.98450275882896
 31
0.0
  0
LINE
  5
25E1
  8
LAYER_1
 10
19.94989992073911
 20
28.091090396468761
 30
0.0
 11
19.94989992073911
 21
27.98450275882896
 31
0.0
  0
POLYLINE
  5
25E2
  8
LAYER_1
 66
     1
 10
0.0
 20
0.0
 30
0.0
  0
VERTEX
  5
25E3
  8
LAYER_1
 10
19.94989992073911
 20
28.091090396468761
 30
0.0
  0
VERTEX
  5
25E4
  8
LAYER_1
 10
19.94989992073911
 20
27.98450275882896
 30
0.0
  0
VERTEX
  5
25E5
  8
LAYER_1
 10
19.84352892463918
 20
27.98450275882896
 30
0.0
  0
VERTEX
  5
25E6
  8
LAYER_1
 10
19.84352892463918
 20
27.877915121189162
 30
0.0
  0
SEQEND
  5
25E7
  8
LAYER_1
  0
LINE
  5
25E8
  8
LAYER_1
 10
19.84352892463918
 20
27.98450275882896
 30
0.0
 11
19.84352892463918
 21
27.877915121189162
 31
0.0
  0
LINE
  5
25E9
  8
LAYER_1
 10
19.84352892463918
 20
27.98450275882896
 30
0.0
 11
19.84352892463918
 21
27.877915121189162
 31
0.0
  0
POLYLINE
  5
25EA
  8
LAYER_1
 66
     1
 10
0.0
 20
0.0
 30
0.0
  0
VERTEX
  5
25EB
  8
LAYER_1
 10
19.84352892463918
 20
27.98450275882896
 30
0.0
  0
VERTEX
  5
25EC
  8
LAYER_1
 10
19.736941286999372
 20
27.98450275882896
 30
0.0
  0
VERTEX
  5
25ED
  8
LAYER_1
 10
19.736941286999372
 20
27.877915121189162
 30
0.0
  0
SEQEND
  5
25EE
  8
LAYER_1
  0
LINE
  5
25EF
  8
LAYER_1
 10
19.736941286999372
 20
27.98450275882896
 30
0.0
 11
19.736941286999372
 21
27.877915121189162
 31
0.0
  0
POLYLINE
  5
25F0
  8
LAYER_1
 66
     1
 10
0.0
 20
0.0
 30
0.0
  0
VERTEX
  5
25F1
  8
LAYER_1
 10
-9.9719796481531588
 20
7.2202777238220959
 30
0.0
  0
VERTEX
  5
25F2
  8
LAYER_1
 10
-9.9719796481531588
 20
7.113690086182312
 30
0.0
  0
VERTEX
  5
25F3
  8
LAYER_1
 10
-9.8653920105133661
 20
7.113690086182312
 30
0.0
  0
VERTEX
  5
25F4
  8
LAYER_1
 10
-9.8653920105133661
 20
7.0071024485425211
 30
0.0
  0
SEQEND
  5
25F5
  8
LAYER_1
  0
LINE
  5
25F6
  8
LAYER_1
 10
-9.8653920105133661
 20
7.113690086182312
 30
0.0
 11
-9.8653920105133661
 21
7.0071024485425211
 31
0.0
  0
LINE
  5
25F7
  8
LAYER_1
 10
-9.8653920105133661
 20
7.113690086182312
 30
0.0
 11
-9.8653920105133661
 21
7.0071024485425211
 31
0.0
  0
POLYLINE
  5
25F8
  8
LAYER_1
 66
     1
 10
0.0
 20
0.0
 30
0.0
  0
VERTEX
  5
25F9
  8
LAYER_1
 10
-9.8653920105133661
 20
7.113690086182312
 30
0.0
  0
VERTEX
  5
25FA
  8
LAYER_1
 10
-9.7590210144135057
 20
7.113690086182312
 30
0.0
  0
VERTEX
  5
25FB
  8
LAYER_1
 10
-9.7590210144135057
 20
7.0071024485425211
 30
0.0
  0
SEQEND
  5
25FC
  8
LAYER_1
  0
POLYLINE
  5
25FD
  8
LAYER_1
 66
     1
 10
0.0
 20
0.0
 30
0.0
  0
VERTEX
  5
25FE
  8
LAYER_1
 10
-9.7590210144135057
 20
7.113690086182312
 30
0.0
  0
VERTEX
  5
25FF
  8
LAYER_1
 10
-9.6524333767736863
 20
7.113690086182312
 30
0.0
  0
VERTEX
  5
2600
  8
LAYER_1
 10
-9.6524333767736863
 20
7.0071024485425211
 30
0.0
  0
VERTEX
  5
2601
  8
LAYER_1
 10
-9.5460623806738241
 20
7.0071024485425211
 30
0.0
  0
VERTEX
  5
2602
  8
LAYER_1
 10
-9.5460623806738241
 20
6.9005148109027301
 30
0.0
  0
SEQEND
  5
2603
  8
LAYER_1
  0
POLYLINE
  5
2604
  8
LAYER_1
 66
     1
 10
0.0
 20
0.0
 30
0.0
  0
VERTEX
  5
2605
  8
LAYER_1
 10
-9.5460623806738241
 20
7.0071024485425211
 30
0.0
  0
VERTEX
  5
2606
  8
LAYER_1
 10
-9.439474743034026
 20
7.0071024485425211
 30
0.0
  0
VERTEX
  5
2607
  8
LAYER_1
 10
-9.439474743034026
 20
6.9005148109027301
 30
0.0
  0
SEQEND
  5
2608
  8
LAYER_1
  0
POLYLINE
  5
2609
  8
LAYER_1
 66
     1
 10
0.0
 20
0.0
 30
0.0
  0
VERTEX
  5
260A
  8
LAYER_1
 10
-9.439474743034026
 20
7.0071024485425211
 30
0.0
  0
VERTEX
  5
260B
  8
LAYER_1
 10
-9.3331037469341425
 20
7.0071024485425211
 30
0.0
  0
VERTEX
  5
260C
  8
LAYER_1
 10
-9.3331037469341425
 20
6.9005148109027301
 30
0.0
  0
SEQEND
  5
260D
  8
LAYER_1
  0
LINE
  5
260E
  8
LAYER_1
 10
-9.3331037469341425
 20
7.0071024485425211
 30
0.0
 11
-9.2265161092943657
 21
7.0071024485425211
 31
0.0
  0
LINE
  5
260F
  8
LAYER_1
 10
-16.786872569362281
 20
28.3038323886685
 30
0.0
 11
-16.786872569362281
 21
28.197244751028698
 31
0.0
  0
LINE
  5
2610
  8
LAYER_1
 10
-16.786872569362281
 20
28.3038323886685
 30
0.0
 11
-16.786872569362281
 21
28.197244751028698
 31
0.0
  0
LINE
  5
2611
  8
LAYER_1
 10
-16.786872569362281
 20
28.3038323886685
 30
0.0
 11
-16.786872569362281
 21
28.197244751028698
 31
0.0
  0
LINE
  5
2612
  8
LAYER_1
 10
-16.786872569362281
 20
28.3038323886685
 30
0.0
 11
-16.786872569362281
 21
28.197244751028698
 31
0.0
  0
LINE
  5
2613
  8
LAYER_1
 10
-16.786872569362281
 20
28.3038323886685
 30
0.0
 11
-16.786872569362281
 21
28.197244751028698
 31
0.0
  0
LINE
  5
2614
  8
LAYER_1
 10
-16.786872569362281
 20
28.3038323886685
 30
0.0
 11
-16.786872569362281
 21
28.197244751028698
 31
0.0
  0
LINE
  5
2615
  8
LAYER_1
 10
-16.786872569362281
 20
28.3038323886685
 30
0.0
 11
-16.786872569362281
 21
28.197244751028698
 31
0.0
  0
LINE
  5
2616
  8
LAYER_1
 10
-16.786872569362281
 20
28.3038323886685
 30
0.0
 11
-16.786872569362281
 21
28.197244751028698
 31
0.0
  0
LINE
  5
2617
  8
LAYER_1
 10
-16.786872569362281
 20
28.3038323886685
 30
0.0
 11
-16.786872569362281
 21
28.197244751028698
 31
0.0
  0
LINE
  5
2618
  8
LAYER_1
 10
-16.786872569362281
 20
28.3038323886685
 30
0.0
 11
-16.786872569362281
 21
28.197244751028698
 31
0.0
  0
LINE
  5
2619
  8
LAYER_1
 10
-16.786872569362281
 20
28.3038323886685
 30
0.0
 11
-16.786872569362281
 21
28.197244751028698
 31
0.0
  0
LINE
  5
261A
  8
LAYER_1
 10
-16.786872569362281
 20
28.3038323886685
 30
0.0
 11
-16.786872569362281
 21
28.197244751028698
 31
0.0
  0
LINE
  5
261B
  8
LAYER_1
 10
-16.786872569362281
 20
28.3038323886685
 30
0.0
 11
-16.786872569362281
 21
28.197244751028698
 31
0.0
  0
LINE
  5
261C
  8
LAYER_1
 10
-17.212789836841569
 20
28.729749656147821
 30
0.0
 11
-17.212789836841569
 21
28.62316201850804
 31
0.0
  0
LINE
  5
261D
  8
LAYER_1
 10
-17.212789836841569
 20
28.729749656147821
 30
0.0
 11
-17.212789836841569
 21
28.62316201850804
 31
0.0
  0
POLYLINE
  5
261E
  8
LAYER_1
 66
     1
 10
0.0
 20
0.0
 30
0.0
  0
VERTEX
  5
261F
  8
LAYER_1
 10
-17.212789836841569
 20
28.747763008464759
 30
0.0
  0
VERTEX
  5
2620
  8
LAYER_1
 10
-17.212789836841569
 20
28.62316201850804
 30
0.0
  0
VERTEX
  5
2621
  8
LAYER_1
 10
-17.106418840741721
 20
28.62316201850804
 30
0.0
  0
VERTEX
  5
2622
  8
LAYER_1
 10
-17.106418840741721
 20
28.517007663948078
 30
0.0
  0
SEQEND
  5
2623
  8
LAYER_1
  0
LINE
  5
2624
  8
LAYER_1
 10
-17.106418840741721
 20
28.62316201850804
 30
0.0
 11
-17.106418840741721
 21
28.517007663948078
 31
0.0
  0
LINE
  5
2625
  8
LAYER_1
 10
-17.106418840741721
 20
28.62316201850804
 30
0.0
 11
-17.106418840741721
 21
28.517007663948078
 31
0.0
  0
POLYLINE
  5
2626
  8
LAYER_1
 66
     1
 10
0.0
 20
0.0
 30
0.0
  0
VERTEX
  5
2627
  8
LAYER_1
 10
-17.106418840741721
 20
28.62316201850804
 30
0.0
  0
VERTEX
  5
2628
  8
LAYER_1
 10
-17.106418840741721
 20
28.517007663948078
 30
0.0
  0
VERTEX
  5
2629
  8
LAYER_1
 10
-16.999831203101909
 20
28.517007663948078
 30
0.0
  0
VERTEX
  5
262A
  8
LAYER_1
 10
-16.999831203101909
 20
28.41042002630827
 30
0.0
  0
SEQEND
  5
262B
  8
LAYER_1
  0
LINE
  5
262C
  8
LAYER_1
 10
-16.999831203101909
 20
28.517007663948078
 30
0.0
 11
-16.999831203101909
 21
28.41042002630827
 31
0.0
  0
LINE
  5
262D
  8
LAYER_1
 10
1.8477661282479541
 20
5.6227630084647577
 30
0.0
 11
1.8477661282479541
 21
5.5161753708249641
 31
0.0
  0
POLYLINE
  5
262E
  8
LAYER_1
 66
     1
 10
0.0
 20
0.0
 30
0.0
  0
VERTEX
  5
262F
  8
LAYER_1
 10
1.8477661282479541
 20
5.6227630084647577
 30
0.0
  0
VERTEX
  5
2630
  8
LAYER_1
 10
1.8477661282479541
 20
5.5161753708249641
 30
0.0
  0
VERTEX
  5
2631
  8
LAYER_1
 10
1.7411784906081349
 20
5.5161753708249641
 30
0.0
  0
VERTEX
  5
2632
  8
LAYER_1
 10
1.7411784906081349
 20
5.410021016265012
 30
0.0
  0
SEQEND
  5
2633
  8
LAYER_1
  0
LINE
  5
2634
  8
LAYER_1
 10
1.7411784906081349
 20
5.5161753708249641
 30
0.0
 11
1.7411784906081349
 21
5.3034333786252139
 31
0.0
  0
LINE
  5
2635
  8
LAYER_1
 10
1.7411784906081349
 20
5.410021016265012
 30
0.0
 11
1.7411784906081349
 21
5.3034333786252139
 31
0.0
  0
POLYLINE
  5
2636
  8
LAYER_1
 66
     1
 10
0.0
 20
0.0
 30
0.0
  0
VERTEX
  5
2637
  8
LAYER_1
 10
1.7411784906081349
 20
5.410021016265012
 30
0.0
  0
VERTEX
  5
2638
  8
LAYER_1
 10
1.634807494508272
 20
5.3034333786252139
 30
0.0
  0
VERTEX
  5
2639
  8
LAYER_1
 10
1.634807494508272
 20
5.1968457409854274
 30
0.0
  0
SEQEND
  5
263A
  8
LAYER_1
  0
LINE
  5
263B
  8
LAYER_1
 10
1.634807494508272
 20
5.3034333786252139
 30
0.0
 11
1.634807494508272
 21
5.1968457409854274
 31
0.0
  0
POLYLINE
  5
263C
  8
LAYER_1
 66
     1
 10
0.0
 20
0.0
 30
0.0
  0
VERTEX
  5
263D
  8
LAYER_1
 10
1.634807494508272
 20
5.3034333786252139
 30
0.0
  0
VERTEX
  5
263E
  8
LAYER_1
 10
1.528219856868503
 20
5.1968457409854274
 30
0.0
  0
VERTEX
  5
263F
  8
LAYER_1
 10
1.528219856868503
 20
5.0902581033456427
 30
0.0
  0
SEQEND
  5
2640
  8
LAYER_1
  0
POLYLINE
  5
2641
  8
LAYER_1
 66
     1
 10
0.0
 20
0.0
 30
0.0
  0
VERTEX
  5
2642
  8
LAYER_1
 10
18.246230850821739
 20
28.197244751028698
 30
0.0
  0
VERTEX
  5
2643
  8
LAYER_1
 10
18.246230850821739
 20
28.3038323886685
 30
0.0
  0
VERTEX
  5
2644
  8
LAYER_1
 10
18.246230850821739
 20
28.197244751028698
 30
0.0
  0
SEQEND
  5
2645
  8
LAYER_1
  0
LINE
  5
2646
  8
LAYER_1
 10
18.246230850821739
 20
28.3038323886685
 30
0.0
 11
18.246230850821739
 21
28.197244751028698
 31
0.0
  0
LINE
  5
2647
  8
LAYER_1
 10
18.246230850821739
 20
28.3038323886685
 30
0.0
 11
18.246230850821739
 21
28.197244751028698
 31
0.0
  0
LINE
  5
2648
  8
LAYER_1
 10
18.246230850821739
 20
28.3038323886685
 30
0.0
 11
18.246230850821739
 21
28.197244751028698
 31
0.0
  0
POLYLINE
  5
2649
  8
LAYER_1
 66
     1
 10
0.0
 20
0.0
 30
0.0
  0
VERTEX
  5
264A
  8
LAYER_1
 10
18.246230850821739
 20
28.3038323886685
 30
0.0
  0
VERTEX
  5
264B
  8
LAYER_1
 10
18.352601846921608
 20
28.3038323886685
 30
0.0
  0
VERTEX
  5
264C
  8
LAYER_1
 10
18.352601846921608
 20
28.197244751028698
 30
0.0
  0
SEQEND
  5
264D
  8
LAYER_1
  0
LINE
  5
264E
  8
LAYER_1
 10
18.352601846921608
 20
28.3038323886685
 30
0.0
 11
18.352601846921608
 21
28.197244751028698
 31
0.0
  0
LINE
  5
264F
  8
LAYER_1
 10
18.352601846921608
 20
28.3038323886685
 30
0.0
 11
18.352601846921608
 21
28.197244751028698
 31
0.0
  0
LINE
  5
2650
  8
LAYER_1
 10
18.246230850821739
 20
28.3038323886685
 30
0.0
 11
18.246230850821739
 21
28.197244751028698
 31
0.0
  0
LINE
  5
2651
  8
LAYER_1
 10
18.246230850821739
 20
28.3038323886685
 30
0.0
 11
18.246230850821739
 21
28.197244751028698
 31
0.0
  0
LINE
  5
2652
  8
LAYER_1
 10
18.246230850821739
 20
28.3038323886685
 30
0.0
 11
18.246230850821739
 21
28.197244751028698
 31
0.0
  0
LINE
  5
2653
  8
LAYER_1
 10
18.246230850821739
 20
28.3038323886685
 30
0.0
 11
18.246230850821739
 21
28.091090396468761
 31
0.0
  0
LINE
  5
2654
  8
LAYER_1
 10
18.246230850821739
 20
28.197244751028698
 30
0.0
 11
18.246230850821739
 21
28.091090396468761
 31
0.0
  0
LINE
  5
2655
  8
LAYER_1
 10
18.246230850821739
 20
28.197244751028698
 30
0.0
 11
18.246230850821739
 21
28.091090396468761
 31
0.0
  0
LINE
  5
2656
  8
LAYER_1
 10
18.246230850821739
 20
28.197244751028698
 30
0.0
 11
18.246230850821739
 21
28.091090396468761
 31
0.0
  0
LINE
  5
2657
  8
LAYER_1
 10
18.246230850821739
 20
28.197244751028698
 30
0.0
 11
18.246230850821739
 21
28.091090396468761
 31
0.0
  0
LINE
  5
2658
  8
LAYER_1
 10
18.246230850821739
 20
28.197244751028698
 30
0.0
 11
18.246230850821739
 21
28.091090396468761
 31
0.0
  0
LINE
  5
2659
  8
LAYER_1
 10
18.246230850821739
 20
28.197244751028698
 30
0.0
 11
18.246230850821739
 21
28.091090396468761
 31
0.0
  0
LINE
  5
265A
  8
LAYER_1
 10
18.246230850821739
 20
28.197244751028698
 30
0.0
 11
18.246230850821739
 21
28.091090396468761
 31
0.0
  0
LINE
  5
265B
  8
LAYER_1
 10
18.246230850821739
 20
28.197244751028698
 30
0.0
 11
18.246230850821739
 21
28.091090396468761
 31
0.0
  0
LINE
  5
265C
  8
LAYER_1
 10
18.246230850821739
 20
28.197244751028698
 30
0.0
 11
18.246230850821739
 21
28.091090396468761
 31
0.0
  0
LINE
  5
265D
  8
LAYER_1
 10
18.246230850821739
 20
28.3038323886685
 30
0.0
 11
18.246230850821739
 21
28.197244751028698
 31
0.0
  0
LINE
  5
265E
  8
LAYER_1
 10
18.246230850821739
 20
28.3038323886685
 30
0.0
 11
18.246230850821739
 21
28.197244751028698
 31
0.0
  0
LINE
  5
265F
  8
LAYER_1
 10
18.246230850821739
 20
28.3038323886685
 30
0.0
 11
18.246230850821739
 21
28.197244751028698
 31
0.0
  0
LINE
  5
2660
  8
LAYER_1
 10
18.246230850821739
 20
28.3038323886685
 30
0.0
 11
18.246230850821739
 21
28.197244751028698
 31
0.0
  0
LINE
  5
2661
  8
LAYER_1
 10
18.246230850821739
 20
28.3038323886685
 30
0.0
 11
18.246230850821739
 21
28.197244751028698
 31
0.0
  0
LINE
  5
2662
  8
LAYER_1
 10
18.246230850821739
 20
28.3038323886685
 30
0.0
 11
18.246230850821739
 21
28.197244751028698
 31
0.0
  0
LINE
  5
2663
  8
LAYER_1
 10
18.246230850821739
 20
28.3038323886685
 30
0.0
 11
18.246230850821739
 21
28.197244751028698
 31
0.0
  0
LINE
  5
2664
  8
LAYER_1
 10
18.246230850821739
 20
28.3038323886685
 30
0.0
 11
18.246230850821739
 21
28.197244751028698
 31
0.0
  0
LINE
  5
2665
  8
LAYER_1
 10
18.246230850821739
 20
28.3038323886685
 30
0.0
 11
18.246230850821739
 21
28.197244751028698
 31
0.0
  0
LINE
  5
2666
  8
LAYER_1
 10
18.246230850821739
 20
28.3038323886685
 30
0.0
 11
18.246230850821739
 21
28.197244751028698
 31
0.0
  0
LINE
  5
2667
  8
LAYER_1
 10
18.246230850821739
 20
28.3038323886685
 30
0.0
 11
18.246230850821739
 21
28.197244751028698
 31
0.0
  0
LINE
  5
2668
  8
LAYER_1
 10
18.246230850821739
 20
28.3038323886685
 30
0.0
 11
18.246230850821739
 21
28.197244751028698
 31
0.0
  0
LINE
  5
2669
  8
LAYER_1
 10
18.246230850821739
 20
28.3038323886685
 30
0.0
 11
18.246230850821739
 21
28.197244751028698
 31
0.0
  0
LINE
  5
266A
  8
LAYER_1
 10
18.246230850821739
 20
28.3038323886685
 30
0.0
 11
18.352601846921608
 21
28.3038323886685
 31
0.0
  0
LINE
  5
266B
  8
LAYER_1
 10
2.2736833957272751
 20
6.1552679135838657
 30
0.0
 11
2.2736833957272751
 21
5.9420926383042882
 31
0.0
  0
LINE
  5
266C
  8
LAYER_1
 10
1.8477661282479541
 20
5.7293506461045416
 30
0.0
 11
1.8477661282479541
 21
5.6227630084647577
 31
0.0
  0
LINE
  5
266D
  8
LAYER_1
 10
1.8477661282479541
 20
5.7293506461045416
 30
0.0
 11
1.8477661282479541
 21
5.6227630084647577
 31
0.0
  0
LINE
  5
266E
  8
LAYER_1
 10
1.528219856868503
 20
0.0858385312335131
 30
0.0
 11
1.528219856868503
 21
4.877516111145904
 31
0.0
  0
LINE
  5
266F
  8
LAYER_1
 10
1.7411784906081349
 20
6.581185181063204
 30
0.0
 11
1.634807494508272
 21
6.2618555512236682
 31
0.0
  0
LINE
  5
2670
  8
LAYER_1
 10
18.246230850821739
 20
28.3038323886685
 30
0.0
 11
18.246230850821739
 21
28.197244751028698
 31
0.0
  0
POLYLINE
  5
2671
  8
LAYER_1
 66
     1
 10
0.0
 20
0.0
 30
0.0
  0
VERTEX
  5
2672
  8
LAYER_1
 10
-9.2265161092943657
 20
7.4330197160218461
 30
0.0
  0
VERTEX
  5
2673
  8
LAYER_1
 10
-9.3331037469341425
 20
7.4330197160218461
 30
0.0
  0
VERTEX
  5
2674
  8
LAYER_1
 10
-9.439474743034026
 20
7.3264320783820507
 30
0.0
  0
VERTEX
  5
2675
  8
LAYER_1
 10
-9.5460623806738241
 20
7.3264320783820507
 30
0.0
  0
VERTEX
  5
2676
  8
LAYER_1
 10
-9.5460623806738241
 20
7.2202777238220959
 30
0.0
  0
SEQEND
  5
2677
  8
LAYER_1
  0
POLYLINE
  5
2678
  8
LAYER_1
 66
     1
 10
0.0
 20
0.0
 30
0.0
  0
VERTEX
  5
2679
  8
LAYER_1
 10
-9.5460623806738241
 20
7.3264320783820507
 30
0.0
  0
VERTEX
  5
267A
  8
LAYER_1
 10
-9.6524333767736863
 20
7.3264320783820507
 30
0.0
  0
VERTEX
  5
267B
  8
LAYER_1
 10
-9.6524333767736863
 20
7.2202777238220959
 30
0.0
  0
SEQEND
  5
267C
  8
LAYER_1
  0
POLYLINE
  5
267D
  8
LAYER_1
 66
     1
 10
0.0
 20
0.0
 30
0.0
  0
VERTEX
  5
267E
  8
LAYER_1
 10
-9.6524333767736863
 20
7.3264320783820507
 30
0.0
  0
VERTEX
  5
267F
  8
LAYER_1
 10
-9.7590210144135057
 20
7.3264320783820507
 30
0.0
  0
VERTEX
  5
2680
  8
LAYER_1
 10
-9.7590210144135057
 20
7.2202777238220959
 30
0.0
  0
SEQEND
  5
2681
  8
LAYER_1
  0
POLYLINE
  5
2682
  8
LAYER_1
 66
     1
 10
0.0
 20
0.0
 30
0.0
  0
VERTEX
  5
2683
  8
LAYER_1
 10
-9.7590210144135057
 20
7.3264320783820507
 30
0.0
  0
VERTEX
  5
2684
  8
LAYER_1
 10
-9.8653920105133661
 20
7.3264320783820507
 30
0.0
  0
VERTEX
  5
2685
  8
LAYER_1
 10
-9.8653920105133661
 20
7.113690086182312
 30
0.0
  0
SEQEND
  5
2686
  8
LAYER_1
  0
LINE
  5
2687
  8
LAYER_1
 10
-9.8653920105133661
 20
7.2202777238220959
 30
0.0
 11
-9.8653920105133661
 21
7.113690086182312
 31
0.0
  0
LINE
  5
2688
  8
LAYER_1
 10
-9.8653920105133661
 20
7.2202777238220959
 30
0.0
 11
-9.8653920105133661
 21
7.113690086182312
 31
0.0
  0
POLYLINE
  5
2689
  8
LAYER_1
 66
     1
 10
0.0
 20
0.0
 30
0.0
  0
VERTEX
  5
268A
  8
LAYER_1
 10
-9.8653920105133661
 20
7.2202777238220959
 30
0.0
  0
VERTEX
  5
268B
  8
LAYER_1
 10
-9.9719796481531588
 20
7.2202777238220959
 30
0.0
  0
VERTEX
  5
268C
  8
LAYER_1
 10
-9.9719796481531588
 20
7.113690086182312
 30
0.0
  0
SEQEND
  5
268D
  8
LAYER_1
  0
LINE
  5
268E
  8
LAYER_1
 10
-9.9719796481531588
 20
7.2202777238220959
 30
0.0
 11
-9.9719796481531588
 21
7.113690086182312
 31
0.0
  0
LINE
  5
268F
  8
LAYER_1
 10
-9.9719796481531588
 20
7.2202777238220959
 30
0.0
 11
-9.9719796481531588
 21
7.113690086182312
 31
0.0
  0
POLYLINE
  5
2690
  8
LAYER_1
 66
     1
 10
0.0
 20
0.0
 30
0.0
  0
VERTEX
  5
2691
  8
LAYER_1
 10
-18.490758280819481
 20
28.197244751028698
 30
0.0
  0
VERTEX
  5
2692
  8
LAYER_1
 10
-18.597129276919361
 20
28.197244751028698
 30
0.0
  0
VERTEX
  5
2693
  8
LAYER_1
 10
-18.597129276919361
 20
28.091090396468761
 30
0.0
  0
SEQEND
  5
2694
  8
LAYER_1
  0
LINE
  5
2695
  8
LAYER_1
 10
-18.597129276919361
 20
28.197244751028698
 30
0.0
 11
-18.597129276919361
 21
28.091090396468761
 31
0.0
  0
LINE
  5
2696
  8
LAYER_1
 10
-18.597129276919361
 20
28.197244751028698
 30
0.0
 11
-18.597129276919361
 21
28.091090396468761
 31
0.0
  0
POLYLINE
  5
2697
  8
LAYER_1
 66
     1
 10
0.0
 20
0.0
 30
0.0
  0
VERTEX
  5
2698
  8
LAYER_1
 10
-18.597129276919361
 20
28.197244751028698
 30
0.0
  0
VERTEX
  5
2699
  8
LAYER_1
 10
-18.597129276919361
 20
28.3038323886685
 30
0.0
  0
VERTEX
  5
269A
  8
LAYER_1
 10
-18.703716914559148
 20
28.3038323886685
 30
0.0
  0
VERTEX
  5
269B
  8
LAYER_1
 10
-18.703716914559148
 20
28.197244751028698
 30
0.0
  0
SEQEND
  5
269C
  8
LAYER_1
  0
LINE
  5
269D
  8
LAYER_1
 10
-18.703716914559148
 20
28.3038323886685
 30
0.0
 11
-18.703716914559148
 21
28.197244751028698
 31
0.0
  0
LINE
  5
269E
  8
LAYER_1
 10
-18.703716914559148
 20
28.3038323886685
 30
0.0
 11
-18.703716914559148
 21
28.197244751028698
 31
0.0
  0
LINE
  5
269F
  8
LAYER_1
 10
-18.703716914559148
 20
28.3038323886685
 30
0.0
 11
-18.703716914559148
 21
28.197244751028698
 31
0.0
  0
POLYLINE
  5
26A0
  8
LAYER_1
 66
     1
 10
0.0
 20
0.0
 30
0.0
  0
VERTEX
  5
26A1
  8
LAYER_1
 10
-18.703716914559148
 20
28.3038323886685
 30
0.0
  0
VERTEX
  5
26A2
  8
LAYER_1
 10
-18.810087910659028
 20
28.3038323886685
 30
0.0
  0
VERTEX
  5
26A3
  8
LAYER_1
 10
-18.810087910659028
 20
28.197244751028698
 30
0.0
  0
SEQEND
  5
26A4
  8
LAYER_1
  0
LINE
  5
26A5
  8
LAYER_1
 10
-18.810087910659028
 20
28.3038323886685
 30
0.0
 11
-18.810087910659028
 21
28.197244751028698
 31
0.0
  0
LINE
  5
26A6
  8
LAYER_1
 10
-18.810087910659028
 20
28.3038323886685
 30
0.0
 11
-18.810087910659028
 21
28.197244751028698
 31
0.0
  0
POLYLINE
  5
26A7
  8
LAYER_1
 66
     1
 10
0.0
 20
0.0
 30
0.0
  0
VERTEX
  5
26A8
  8
LAYER_1
 10
-18.810087910659028
 20
28.3038323886685
 30
0.0
  0
VERTEX
  5
26A9
  8
LAYER_1
 10
-18.810087910659028
 20
28.41042002630827
 30
0.0
  0
VERTEX
  5
26AA
  8
LAYER_1
 10
-18.810087910659028
 20
28.3038323886685
 30
0.0
  0
SEQEND
  5
26AB
  8
LAYER_1
  0
LINE
  5
26AC
  8
LAYER_1
 10
-18.810087910659028
 20
28.41042002630827
 30
0.0
 11
-18.810087910659028
 21
28.3038323886685
 31
0.0
  0
LINE
  5
26AD
  8
LAYER_1
 10
-18.810087910659028
 20
28.41042002630827
 30
0.0
 11
-18.810087910659028
 21
28.3038323886685
 31
0.0
  0
LINE
  5
26AE
  8
LAYER_1
 10
-18.810087910659028
 20
28.41042002630827
 30
0.0
 11
-18.810087910659028
 21
28.3038323886685
 31
0.0
  0
LINE
  5
26AF
  8
LAYER_1
 10
-18.810087910659028
 20
28.41042002630827
 30
0.0
 11
-18.810087910659028
 21
28.3038323886685
 31
0.0
  0
LINE
  5
26B0
  8
LAYER_1
 10
-18.810087910659028
 20
28.41042002630827
 30
0.0
 11
-18.810087910659028
 21
28.3038323886685
 31
0.0
  0
LINE
  5
26B1
  8
LAYER_1
 10
-18.810087910659028
 20
28.41042002630827
 30
0.0
 11
-18.810087910659028
 21
28.3038323886685
 31
0.0
  0
LINE
  5
26B2
  8
LAYER_1
 10
-18.810087910659028
 20
28.41042002630827
 30
0.0
 11
-18.810087910659028
 21
28.3038323886685
 31
0.0
  0
POLYLINE
  5
26B3
  8
LAYER_1
 66
     1
 10
0.0
 20
0.0
 30
0.0
  0
VERTEX
  5
26B4
  8
LAYER_1
 10
-16.786872569362281
 20
28.3038323886685
 30
0.0
  0
VERTEX
  5
26B5
  8
LAYER_1
 10
-16.68050157326239
 20
28.197244751028698
 30
0.0
  0
VERTEX
  5
26B6
  8
LAYER_1
 10
-16.68050157326239
 20
28.091090396468761
 30
0.0
  0
SEQEND
  5
26B7
  8
LAYER_1
  0
LINE
  5
26B8
  8
LAYER_1
 10
-16.68050157326239
 20
28.197244751028698
 30
0.0
 11
-16.68050157326239
 21
28.091090396468761
 31
0.0
  0
POLYLINE
  5
26B9
  8
LAYER_1
 66
     1
 10
0.0
 20
0.0
 30
0.0
  0
VERTEX
  5
26BA
  8
LAYER_1
 10
-16.68050157326239
 20
28.197244751028698
 30
0.0
  0
VERTEX
  5
26BB
  8
LAYER_1
 10
-16.68050157326239
 20
28.091090396468761
 30
0.0
  0
VERTEX
  5
26BC
  8
LAYER_1
 10
-16.57391393562261
 20
28.091090396468761
 30
0.0
  0
VERTEX
  5
26BD
  8
LAYER_1
 10
-16.57391393562261
 20
27.98450275882896
 30
0.0
  0
SEQEND
  5
26BE
  8
LAYER_1
  0
LINE
  5
26BF
  8
LAYER_1
 10
-16.57391393562261
 20
28.091090396468761
 30
0.0
 11
-16.57391393562261
 21
27.98450275882896
 31
0.0
  0
LINE
  5
26C0
  8
LAYER_1
 10
-16.57391393562261
 20
28.091090396468761
 30
0.0
 11
-16.57391393562261
 21
27.877915121189162
 31
0.0
  0
POLYLINE
  5
26C1
  8
LAYER_1
 66
     1
 10
0.0
 20
0.0
 30
0.0
  0
VERTEX
  5
26C2
  8
LAYER_1
 10
-16.57391393562261
 20
27.98450275882896
 30
0.0
  0
VERTEX
  5
26C3
  8
LAYER_1
 10
-16.46754293952273
 20
27.98450275882896
 30
0.0
  0
VERTEX
  5
26C4
  8
LAYER_1
 10
-16.46754293952273
 20
27.771327483549371
 30
0.0
  0
SEQEND
  5
26C5
  8
LAYER_1
  0
LINE
  5
26C6
  8
LAYER_1
 10
-16.46754293952273
 20
27.877915121189162
 30
0.0
 11
-16.46754293952273
 21
27.771327483549371
 31
0.0
  0
POLYLINE
  5
26C7
  8
LAYER_1
 66
     1
 10
0.0
 20
0.0
 30
0.0
  0
VERTEX
  5
26C8
  8
LAYER_1
 10
-16.46754293952273
 20
27.877915121189162
 30
0.0
  0
VERTEX
  5
26C9
  8
LAYER_1
 10
-16.360955301882939
 20
27.771327483549371
 30
0.0
  0
VERTEX
  5
26CA
  8
LAYER_1
 10
-16.360955301882939
 20
27.66517312898943
 30
0.0
  0
SEQEND
  5
26CB
  8
LAYER_1
  0
LINE
  5
26CC
  8
LAYER_1
 10
-16.360955301882939
 20
27.771327483549371
 30
0.0
 11
-16.360955301882939
 21
27.66517312898943
 31
0.0
  0
LINE
  5
26CD
  8
LAYER_1
 10
-16.360955301882939
 20
27.771327483549371
 30
0.0
 11
-16.360955301882939
 21
27.558585491349628
 31
0.0
  0
POLYLINE
  5
26CE
  8
LAYER_1
 66
     1
 10
0.0
 20
0.0
 30
0.0
  0
VERTEX
  5
26CF
  8
LAYER_1
 10
-16.360955301882939
 20
27.66517312898943
 30
0.0
  0
VERTEX
  5
26D0
  8
LAYER_1
 10
-16.254584305783059
 20
27.66517312898943
 30
0.0
  0
VERTEX
  5
26D1
  8
LAYER_1
 10
-16.254584305783059
 20
27.451997853709841
 30
0.0
  0
SEQEND
  5
26D2
  8
LAYER_1
  0
LINE
  5
26D3
  8
LAYER_1
 10
-16.254584305783059
 20
27.558585491349628
 30
0.0
 11
-16.254584305783059
 21
27.451997853709841
 31
0.0
  0
LINE
  5
26D4
  8
LAYER_1
 10
-16.254584305783059
 20
27.558585491349628
 30
0.0
 11
-16.254584305783059
 21
27.34541021607005
 31
0.0
  0
POLYLINE
  5
26D5
  8
LAYER_1
 66
     1
 10
0.0
 20
0.0
 30
0.0
  0
VERTEX
  5
26D6
  8
LAYER_1
 10
-16.254584305783059
 20
27.451997853709841
 30
0.0
  0
VERTEX
  5
26D7
  8
LAYER_1
 10
-16.147996668143278
 20
27.451997853709841
 30
0.0
  0
VERTEX
  5
26D8
  8
LAYER_1
 10
-16.147996668143278
 20
27.23882257843027
 30
0.0
  0
SEQEND
  5
26D9
  8
LAYER_1
  0
LINE
  5
26DA
  8
LAYER_1
 10
-16.147996668143278
 20
27.34541021607005
 30
0.0
 11
-16.147996668143278
 21
27.23882257843027
 31
0.0
  0
LINE
  5
26DB
  8
LAYER_1
 10
-16.147996668143278
 20
27.34541021607005
 30
0.0
 11
-16.147996668143278
 21
27.132668223870301
 31
0.0
  0
LINE
  5
26DC
  8
LAYER_1
 10
-16.147996668143278
 20
27.23882257843027
 30
0.0
 11
-16.147996668143278
 21
27.132668223870301
 31
0.0
  0
POLYLINE
  5
26DD
  8
LAYER_1
 66
     1
 10
0.0
 20
0.0
 30
0.0
  0
VERTEX
  5
26DE
  8
LAYER_1
 10
-16.147996668143278
 20
27.23882257843027
 30
0.0
  0
VERTEX
  5
26DF
  8
LAYER_1
 10
-16.041625672043399
 20
27.132668223870301
 30
0.0
  0
VERTEX
  5
26E0
  8
LAYER_1
 10
-16.041625672043399
 20
27.026080586230531
 30
0.0
  0
SEQEND
  5
26E1
  8
LAYER_1
  0
LINE
  5
26E2
  8
LAYER_1
 10
-16.041625672043399
 20
27.132668223870301
 30
0.0
 11
-16.041625672043399
 21
27.026080586230531
 31
0.0
  0
LINE
  5
26E3
  8
LAYER_1
 10
-16.041625672043399
 20
27.132668223870301
 30
0.0
 11
-16.041625672043399
 21
27.026080586230531
 31
0.0
  0
LINE
  5
26E4
  8
LAYER_1
 10
-16.041625672043399
 20
27.132668223870301
 30
0.0
 11
-16.041625672043399
 21
26.919492948590719
 31
0.0
  0
LINE
  5
26E5
  8
LAYER_1
 10
-16.041625672043399
 20
27.026080586230531
 30
0.0
 11
-16.041625672043399
 21
26.919492948590719
 31
0.0
  0
LINE
  5
26E6
  8
LAYER_1
 10
-16.041625672043399
 20
27.026080586230531
 30
0.0
 11
-16.041625672043399
 21
26.812905310950931
 31
0.0
  0
POLYLINE
  5
26E7
  8
LAYER_1
 66
     1
 10
0.0
 20
0.0
 30
0.0
  0
VERTEX
  5
26E8
  8
LAYER_1
 10
-16.041625672043399
 20
26.919492948590719
 30
0.0
  0
VERTEX
  5
26E9
  8
LAYER_1
 10
-15.93503803440362
 20
26.919492948590719
 30
0.0
  0
VERTEX
  5
26EA
  8
LAYER_1
 10
-15.93503803440362
 20
26.70675095639098
 30
0.0
  0
SEQEND
  5
26EB
  8
LAYER_1
  0
LINE
  5
26EC
  8
LAYER_1
 10
-15.93503803440362
 20
26.812905310950931
 30
0.0
 11
-15.93503803440362
 21
26.70675095639098
 31
0.0
  0
LINE
  5
26ED
  8
LAYER_1
 10
-15.93503803440362
 20
26.812905310950931
 30
0.0
 11
-15.93503803440362
 21
26.70675095639098
 31
0.0
  0
LINE
  5
26EE
  8
LAYER_1
 10
-15.93503803440362
 20
26.812905310950931
 30
0.0
 11
-15.93503803440362
 21
26.6001633187512
 31
0.0
  0
LINE
  5
26EF
  8
LAYER_1
 10
-15.93503803440362
 20
26.70675095639098
 30
0.0
 11
-15.93503803440362
 21
26.6001633187512
 31
0.0
  0
LINE
  5
26F0
  8
LAYER_1
 10
-15.93503803440362
 20
26.70675095639098
 30
0.0
 11
-15.93503803440362
 21
26.6001633187512
 31
0.0
  0
LINE
  5
26F1
  8
LAYER_1
 10
-15.93503803440362
 20
26.70675095639098
 30
0.0
 11
-15.93503803440362
 21
26.493575681111391
 31
0.0
  0
LINE
  5
26F2
  8
LAYER_1
 10
-15.93503803440362
 20
26.6001633187512
 30
0.0
 11
-15.93503803440362
 21
26.493575681111391
 31
0.0
  0
LINE
  5
26F3
  8
LAYER_1
 10
-15.93503803440362
 20
26.6001633187512
 30
0.0
 11
-15.93503803440362
 21
26.493575681111391
 31
0.0
  0
LINE
  5
26F4
  8
LAYER_1
 10
-15.93503803440362
 20
26.6001633187512
 30
0.0
 11
-15.93503803440362
 21
26.386988043471611
 31
0.0
  0
POLYLINE
  5
26F5
  8
LAYER_1
 66
     1
 10
0.0
 20
0.0
 30
0.0
  0
VERTEX
  5
26F6
  8
LAYER_1
 10
-15.93503803440362
 20
26.493575681111391
 30
0.0
  0
VERTEX
  5
26F7
  8
LAYER_1
 10
-15.82866703830376
 20
26.493575681111391
 30
0.0
  0
VERTEX
  5
26F8
  8
LAYER_1
 10
-15.82866703830376
 20
26.280833688911638
 30
0.0
  0
SEQEND
  5
26F9
  8
LAYER_1
  0
LINE
  5
26FA
  8
LAYER_1
 10
-15.82866703830376
 20
26.386988043471611
 30
0.0
 11
-15.82866703830376
 21
26.280833688911638
 31
0.0
  0
LINE
  5
26FB
  8
LAYER_1
 10
-16.786872569362281
 20
28.3038323886685
 30
0.0
 11
-16.786872569362281
 21
28.197244751028698
 31
0.0
  0
LINE
  5
26FC
  8
LAYER_1
 10
1.8477661282479541
 20
5.7293506461045416
 30
0.0
 11
1.8477661282479541
 21
5.6227630084647577
 31
0.0
  0
LINE
  5
26FD
  8
LAYER_1
 10
1.8477661282479541
 20
5.7293506461045416
 30
0.0
 11
1.8477661282479541
 21
5.6227630084647577
 31
0.0
  0
LINE
  5
26FE
  8
LAYER_1
 10
1.8477661282479541
 20
5.7293506461045416
 30
0.0
 11
1.8477661282479541
 21
5.6227630084647577
 31
0.0
  0
POLYLINE
  5
26FF
  8
LAYER_1
 66
     1
 10
0.0
 20
0.0
 30
0.0
  0
VERTEX
  5
2700
  8
LAYER_1
 10
-18.17121200944004
 20
27.98450275882896
 30
0.0
  0
VERTEX
  5
2701
  8
LAYER_1
 10
-18.27758300553992
 20
27.98450275882896
 30
0.0
  0
VERTEX
  5
2702
  8
LAYER_1
 10
-18.27758300553992
 20
27.877915121189162
 30
0.0
  0
SEQEND
  5
2703
  8
LAYER_1
  0
LINE
  5
2704
  8
LAYER_1
 10
-18.27758300553992
 20
27.98450275882896
 30
0.0
 11
-18.27758300553992
 21
27.877915121189162
 31
0.0
  0
POLYLINE
  5
2705
  8
LAYER_1
 66
     1
 10
0.0
 20
0.0
 30
0.0
  0
VERTEX
  5
2706
  8
LAYER_1
 10
-18.27758300553992
 20
27.98450275882896
 30
0.0
  0
VERTEX
  5
2707
  8
LAYER_1
 10
-18.27758300553992
 20
28.091090396468761
 30
0.0
  0
VERTEX
  5
2708
  8
LAYER_1
 10
-18.384170643179711
 20
28.091090396468761
 30
0.0
  0
VERTEX
  5
2709
  8
LAYER_1
 10
-18.384170643179711
 20
27.98450275882896
 30
0.0
  0
SEQEND
  5
270A
  8
LAYER_1
  0
LINE
  5
270B
  8
LAYER_1
 10
-18.384170643179711
 20
28.091090396468761
 30
0.0
 11
-18.384170643179711
 21
27.98450275882896
 31
0.0
  0
LINE
  5
270C
  8
LAYER_1
 10
-18.384170643179711
 20
28.091090396468761
 30
0.0
 11
-18.384170643179711
 21
27.98450275882896
 31
0.0
  0
POLYLINE
  5
270D
  8
LAYER_1
 66
     1
 10
0.0
 20
0.0
 30
0.0
  0
VERTEX
  5
270E
  8
LAYER_1
 10
-18.384170643179711
 20
28.091090396468761
 30
0.0
  0
VERTEX
  5
270F
  8
LAYER_1
 10
-18.490758280819481
 20
28.091090396468761
 30
0.0
  0
VERTEX
  5
2710
  8
LAYER_1
 10
-18.490758280819481
 20
28.197244751028698
 30
0.0
  0
VERTEX
  5
2711
  8
LAYER_1
 10
-18.490758280819481
 20
28.091090396468761
 30
0.0
  0
SEQEND
  5
2712
  8
LAYER_1
  0
LINE
  5
2713
  8
LAYER_1
 10
-18.490758280819481
 20
28.197244751028698
 30
0.0
 11
-18.490758280819481
 21
28.091090396468761
 31
0.0
  0
LINE
  5
2714
  8
LAYER_1
 10
-17.851665738060589
 20
27.771327483549371
 30
0.0
 11
-17.851665738060589
 21
27.66517312898943
 31
0.0
  0
POLYLINE
  5
2715
  8
LAYER_1
 66
     1
 10
0.0
 20
0.0
 30
0.0
  0
VERTEX
  5
2716
  8
LAYER_1
 10
-17.851665738060589
 20
27.771327483549371
 30
0.0
  0
VERTEX
  5
2717
  8
LAYER_1
 10
-17.95825337570038
 20
27.771327483549371
 30
0.0
  0
VERTEX
  5
2718
  8
LAYER_1
 10
-17.95825337570038
 20
27.66517312898943
 30
0.0
  0
SEQEND
  5
2719
  8
LAYER_1
  0
LINE
  5
271A
  8
LAYER_1
 10
-17.95825337570038
 20
27.771327483549371
 30
0.0
 11
-17.95825337570038
 21
27.66517312898943
 31
0.0
  0
LINE
  5
271B
  8
LAYER_1
 10
-17.95825337570038
 20
27.771327483549371
 30
0.0
 11
-17.95825337570038
 21
27.66517312898943
 31
0.0
  0
LINE
  5
271C
  8
LAYER_1
 10
-17.95825337570038
 20
27.771327483549371
 30
0.0
 11
-17.95825337570038
 21
27.66517312898943
 31
0.0
  0
LINE
  5
271D
  8
LAYER_1
 10
-17.95825337570038
 20
27.771327483549371
 30
0.0
 11
-17.95825337570038
 21
27.66517312898943
 31
0.0
  0
POLYLINE
  5
271E
  8
LAYER_1
 66
     1
 10
0.0
 20
0.0
 30
0.0
  0
VERTEX
  5
271F
  8
LAYER_1
 10
-17.95825337570038
 20
27.771327483549371
 30
0.0
  0
VERTEX
  5
2720
  8
LAYER_1
 10
-18.06462437180026
 20
27.877915121189162
 30
0.0
  0
VERTEX
  5
2721
  8
LAYER_1
 10
-18.06462437180026
 20
27.771327483549371
 30
0.0
  0
SEQEND
  5
2722
  8
LAYER_1
  0
LINE
  5
2723
  8
LAYER_1
 10
-18.06462437180026
 20
27.877915121189162
 30
0.0
 11
-18.06462437180026
 21
27.771327483549371
 31
0.0
  0
LINE
  5
2724
  8
LAYER_1
 10
-18.06462437180026
 20
27.877915121189162
 30
0.0
 11
-18.06462437180026
 21
27.771327483549371
 31
0.0
  0
POLYLINE
  5
2725
  8
LAYER_1
 66
     1
 10
0.0
 20
0.0
 30
0.0
  0
VERTEX
  5
2726
  8
LAYER_1
 10
-18.06462437180026
 20
27.877915121189162
 30
0.0
  0
VERTEX
  5
2727
  8
LAYER_1
 10
-18.17121200944004
 20
27.877915121189162
 30
0.0
  0
VERTEX
  5
2728
  8
LAYER_1
 10
-18.17121200944004
 20
27.771327483549371
 30
0.0
  0
SEQEND
  5
2729
  8
LAYER_1
  0
LINE
  5
272A
  8
LAYER_1
 10
-18.17121200944004
 20
27.877915121189162
 30
0.0
 11
-18.17121200944004
 21
27.771327483549371
 31
0.0
  0
POLYLINE
  5
272B
  8
LAYER_1
 66
     1
 10
0.0
 20
0.0
 30
0.0
  0
VERTEX
  5
272C
  8
LAYER_1
 10
-18.17121200944004
 20
27.877915121189162
 30
0.0
  0
VERTEX
  5
272D
  8
LAYER_1
 10
-18.17121200944004
 20
27.98450275882896
 30
0.0
  0
VERTEX
  5
272E
  8
LAYER_1
 10
-18.17121200944004
 20
27.877915121189162
 30
0.0
  0
SEQEND
  5
272F
  8
LAYER_1
  0
POLYLINE
  5
2730
  8
LAYER_1
 66
     1
 10
0.0
 20
0.0
 30
0.0
  0
VERTEX
  5
2731
  8
LAYER_1
 10
-18.17121200944004
 20
27.98450275882896
 30
0.0
  0
VERTEX
  5
2732
  8
LAYER_1
 10
-18.27758300553992
 20
27.98450275882896
 30
0.0
  0
VERTEX
  5
2733
  8
LAYER_1
 10
-18.27758300553992
 20
27.877915121189162
 30
0.0
  0
SEQEND
  5
2734
  8
LAYER_1
  0
LINE
  5
2735
  8
LAYER_1
 10
-18.27758300553992
 20
27.98450275882896
 30
0.0
 11
-18.27758300553992
 21
27.877915121189162
 31
0.0
  0
POLYLINE
  5
2736
  8
LAYER_1
 66
     1
 10
0.0
 20
0.0
 30
0.0
  0
VERTEX
  5
2737
  8
LAYER_1
 10
-18.27758300553992
 20
27.98450275882896
 30
0.0
  0
VERTEX
  5
2738
  8
LAYER_1
 10
-18.384170643179711
 20
28.091090396468761
 30
0.0
  0
VERTEX
  5
2739
  8
LAYER_1
 10
-18.384170643179711
 20
27.98450275882896
 30
0.0
  0
SEQEND
  5
273A
  8
LAYER_1
  0
LINE
  5
273B
  8
LAYER_1
 10
-18.384170643179711
 20
28.091090396468761
 30
0.0
 11
-18.384170643179711
 21
27.98450275882896
 31
0.0
  0
LINE
  5
273C
  8
LAYER_1
 10
-18.384170643179711
 20
28.091090396468761
 30
0.0
 11
-18.384170643179711
 21
27.98450275882896
 31
0.0
  0
POLYLINE
  5
273D
  8
LAYER_1
 66
     1
 10
0.0
 20
0.0
 30
0.0
  0
VERTEX
  5
273E
  8
LAYER_1
 10
-18.384170643179711
 20
28.091090396468761
 30
0.0
  0
VERTEX
  5
273F
  8
LAYER_1
 10
-18.490758280819481
 20
28.091090396468761
 30
0.0
  0
VERTEX
  5
2740
  8
LAYER_1
 10
-18.490758280819481
 20
27.98450275882896
 30
0.0
  0
SEQEND
  5
2741
  8
LAYER_1
  0
POLYLINE
  5
2742
  8
LAYER_1
 66
     1
 10
0.0
 20
0.0
 30
0.0
  0
VERTEX
  5
2743
  8
LAYER_1
 10
-18.490758280819481
 20
28.091090396468761
 30
0.0
  0
VERTEX
  5
2744
  8
LAYER_1
 10
-18.490758280819481
 20
28.197244751028698
 30
0.0
  0
VERTEX
  5
2745
  8
LAYER_1
 10
-18.490758280819481
 20
28.091090396468761
 30
0.0
  0
SEQEND
  5
2746
  8
LAYER_1
  0
POLYLINE
  5
2747
  8
LAYER_1
 66
     1
 10
0.0
 20
0.0
 30
0.0
  0
VERTEX
  5
2748
  8
LAYER_1
 10
-18.490758280819481
 20
28.197244751028698
 30
0.0
  0
VERTEX
  5
2749
  8
LAYER_1
 10
-18.597129276919361
 20
28.197244751028698
 30
0.0
  0
VERTEX
  5
274A
  8
LAYER_1
 10
-18.597129276919361
 20
28.091090396468761
 30
0.0
  0
SEQEND
  5
274B
  8
LAYER_1
  0
LINE
  5
274C
  8
LAYER_1
 10
-18.597129276919361
 20
28.197244751028698
 30
0.0
 11
-18.597129276919361
 21
28.091090396468761
 31
0.0
  0
LINE
  5
274D
  8
LAYER_1
 10
-18.597129276919361
 20
28.197244751028698
 30
0.0
 11
-18.597129276919361
 21
28.091090396468761
 31
0.0
  0
LINE
  5
274E
  8
LAYER_1
 10
-18.597129276919361
 20
28.197244751028698
 30
0.0
 11
-18.597129276919361
 21
28.091090396468761
 31
0.0
  0
POLYLINE
  5
274F
  8
LAYER_1
 66
     1
 10
0.0
 20
0.0
 30
0.0
  0
VERTEX
  5
2750
  8
LAYER_1
 10
-18.597129276919361
 20
28.197244751028698
 30
0.0
  0
VERTEX
  5
2751
  8
LAYER_1
 10
-18.703716914559148
 20
28.3038323886685
 30
0.0
  0
VERTEX
  5
2752
  8
LAYER_1
 10
-18.703716914559148
 20
28.197244751028698
 30
0.0
  0
SEQEND
  5
2753
  8
LAYER_1
  0
LINE
  5
2754
  8
LAYER_1
 10
-18.703716914559148
 20
28.3038323886685
 30
0.0
 11
-18.703716914559148
 21
28.197244751028698
 31
0.0
  0
LINE
  5
2755
  8
LAYER_1
 10
-18.703716914559148
 20
28.3038323886685
 30
0.0
 11
-18.703716914559148
 21
28.197244751028698
 31
0.0
  0
LINE
  5
2756
  8
LAYER_1
 10
-18.703716914559148
 20
28.3038323886685
 30
0.0
 11
-18.703716914559148
 21
28.197244751028698
 31
0.0
  0
POLYLINE
  5
2757
  8
LAYER_1
 66
     1
 10
0.0
 20
0.0
 30
0.0
  0
VERTEX
  5
2758
  8
LAYER_1
 10
-18.703716914559148
 20
28.3038323886685
 30
0.0
  0
VERTEX
  5
2759
  8
LAYER_1
 10
-18.810087910659028
 20
28.3038323886685
 30
0.0
  0
VERTEX
  5
275A
  8
LAYER_1
 10
-18.810087910659028
 20
28.197244751028698
 30
0.0
  0
SEQEND
  5
275B
  8
LAYER_1
  0
LINE
  5
275C
  8
LAYER_1
 10
-18.810087910659028
 20
28.3038323886685
 30
0.0
 11
-18.810087910659028
 21
28.197244751028698
 31
0.0
  0
LINE
  5
275D
  8
LAYER_1
 10
-18.810087910659028
 20
28.3038323886685
 30
0.0
 11
-18.810087910659028
 21
28.197244751028698
 31
0.0
  0
LINE
  5
275E
  8
LAYER_1
 10
-18.810087910659028
 20
28.3038323886685
 30
0.0
 11
-18.810087910659028
 21
28.197244751028698
 31
0.0
  0
LINE
  5
275F
  8
LAYER_1
 10
-18.810087910659028
 20
28.3038323886685
 30
0.0
 11
-18.810087910659028
 21
28.197244751028698
 31
0.0
  0
LINE
  5
2760
  8
LAYER_1
 10
-18.810087910659028
 20
28.3038323886685
 30
0.0
 11
-18.810087910659028
 21
28.197244751028698
 31
0.0
  0
POLYLINE
  5
2761
  8
LAYER_1
 66
     1
 10
0.0
 20
0.0
 30
0.0
  0
VERTEX
  5
2762
  8
LAYER_1
 10
-18.810087910659028
 20
28.3038323886685
 30
0.0
  0
VERTEX
  5
2763
  8
LAYER_1
 10
-18.810087910659028
 20
28.41042002630827
 30
0.0
  0
VERTEX
  5
2764
  8
LAYER_1
 10
-18.810087910659028
 20
28.3038323886685
 30
0.0
  0
SEQEND
  5
2765
  8
LAYER_1
  0
LINE
  5
2766
  8
LAYER_1
 10
-18.810087910659028
 20
28.41042002630827
 30
0.0
 11
-18.810087910659028
 21
28.3038323886685
 31
0.0
  0
LINE
  5
2767
  8
LAYER_1
 10
-18.810087910659028
 20
28.41042002630827
 30
0.0
 11
-18.810087910659028
 21
28.3038323886685
 31
0.0
  0
LINE
  5
2768
  8
LAYER_1
 10
-18.810087910659028
 20
28.41042002630827
 30
0.0
 11
-18.810087910659028
 21
28.3038323886685
 31
0.0
  0
LINE
  5
2769
  8
LAYER_1
 10
-17.851665738060589
 20
27.66517312898943
 30
0.0
 11
-17.851665738060589
 21
27.558585491349628
 31
0.0
  0
LINE
  5
276A
  8
LAYER_1
 10
-17.851665738060589
 20
27.66517312898943
 30
0.0
 11
-17.851665738060589
 21
27.558585491349628
 31
0.0
  0
LINE
  5
276B
  8
LAYER_1
 10
-17.851665738060589
 20
27.66517312898943
 30
0.0
 11
-17.851665738060589
 21
27.558585491349628
 31
0.0
  0
LINE
  5
276C
  8
LAYER_1
 10
-17.851665738060589
 20
27.66517312898943
 30
0.0
 11
-17.851665738060589
 21
27.558585491349628
 31
0.0
  0
LINE
  5
276D
  8
LAYER_1
 10
-17.851665738060589
 20
27.66517312898943
 30
0.0
 11
-17.851665738060589
 21
27.558585491349628
 31
0.0
  0
POLYLINE
  5
276E
  8
LAYER_1
 66
     1
 10
0.0
 20
0.0
 30
0.0
  0
VERTEX
  5
276F
  8
LAYER_1
 10
-17.851665738060589
 20
27.66517312898943
 30
0.0
  0
VERTEX
  5
2770
  8
LAYER_1
 10
-17.851665738060589
 20
27.771327483549371
 30
0.0
  0
VERTEX
  5
2771
  8
LAYER_1
 10
-17.851665738060589
 20
27.66517312898943
 30
0.0
  0
SEQEND
  5
2772
  8
LAYER_1
  0
LINE
  5
2773
  8
LAYER_1
 10
-17.851665738060589
 20
27.771327483549371
 30
0.0
 11
-17.851665738060589
 21
27.66517312898943
 31
0.0
  0
LINE
  5
2774
  8
LAYER_1
 10
-17.851665738060589
 20
27.771327483549371
 30
0.0
 11
-17.851665738060589
 21
27.66517312898943
 31
0.0
  0
LINE
  5
2775
  8
LAYER_1
 10
-17.851665738060589
 20
27.771327483549371
 30
0.0
 11
-17.851665738060589
 21
27.66517312898943
 31
0.0
  0
POLYLINE
  5
2776
  8
LAYER_1
 66
     1
 10
0.0
 20
0.0
 30
0.0
  0
VERTEX
  5
2777
  8
LAYER_1
 10
-17.851665738060589
 20
27.771327483549371
 30
0.0
  0
VERTEX
  5
2778
  8
LAYER_1
 10
-17.95825337570038
 20
27.771327483549371
 30
0.0
  0
VERTEX
  5
2779
  8
LAYER_1
 10
-17.95825337570038
 20
27.66517312898943
 30
0.0
  0
SEQEND
  5
277A
  8
LAYER_1
  0
LINE
  5
277B
  8
LAYER_1
 10
-17.95825337570038
 20
27.771327483549371
 30
0.0
 11
-17.95825337570038
 21
27.66517312898943
 31
0.0
  0
LINE
  5
277C
  8
LAYER_1
 10
-17.95825337570038
 20
27.771327483549371
 30
0.0
 11
-17.95825337570038
 21
27.66517312898943
 31
0.0
  0
LINE
  5
277D
  8
LAYER_1
 10
-17.95825337570038
 20
27.771327483549371
 30
0.0
 11
-17.95825337570038
 21
27.66517312898943
 31
0.0
  0
POLYLINE
  5
277E
  8
LAYER_1
 66
     1
 10
0.0
 20
0.0
 30
0.0
  0
VERTEX
  5
277F
  8
LAYER_1
 10
-17.95825337570038
 20
27.771327483549371
 30
0.0
  0
VERTEX
  5
2780
  8
LAYER_1
 10
-18.06462437180026
 20
27.877915121189162
 30
0.0
  0
VERTEX
  5
2781
  8
LAYER_1
 10
-18.06462437180026
 20
27.771327483549371
 30
0.0
  0
SEQEND
  5
2782
  8
LAYER_1
  0
LINE
  5
2783
  8
LAYER_1
 10
-18.06462437180026
 20
27.877915121189162
 30
0.0
 11
-18.06462437180026
 21
27.771327483549371
 31
0.0
  0
LINE
  5
2784
  8
LAYER_1
 10
-18.06462437180026
 20
27.877915121189162
 30
0.0
 11
-18.06462437180026
 21
27.771327483549371
 31
0.0
  0
LINE
  5
2785
  8
LAYER_1
 10
-18.06462437180026
 20
27.877915121189162
 30
0.0
 11
-18.06462437180026
 21
27.771327483549371
 31
0.0
  0
POLYLINE
  5
2786
  8
LAYER_1
 66
     1
 10
0.0
 20
0.0
 30
0.0
  0
VERTEX
  5
2787
  8
LAYER_1
 10
-18.06462437180026
 20
27.877915121189162
 30
0.0
  0
VERTEX
  5
2788
  8
LAYER_1
 10
-18.17121200944004
 20
27.877915121189162
 30
0.0
  0
VERTEX
  5
2789
  8
LAYER_1
 10
-18.17121200944004
 20
27.98450275882896
 30
0.0
  0
VERTEX
  5
278A
  8
LAYER_1
 10
-18.17121200944004
 20
27.877915121189162
 30
0.0
  0
SEQEND
  5
278B
  8
LAYER_1
  0
LINE
  5
278C
  8
LAYER_1
 10
-18.17121200944004
 20
27.98450275882896
 30
0.0
 11
-18.17121200944004
 21
27.877915121189162
 31
0.0
  0
LINE
  5
278D
  8
LAYER_1
 10
12.49613109831094
 20
7.8589369835011773
 30
0.0
 11
12.49613109831094
 21
7.752349345861389
 31
0.0
  0
POLYLINE
  5
278E
  8
LAYER_1
 66
     1
 10
0.0
 20
0.0
 30
0.0
  0
VERTEX
  5
278F
  8
LAYER_1
 10
12.49613109831094
 20
7.8589369835011773
 30
0.0
  0
VERTEX
  5
2790
  8
LAYER_1
 10
12.602502094410809
 20
7.8589369835011773
 30
0.0
  0
VERTEX
  5
2791
  8
LAYER_1
 10
12.602502094410809
 20
7.6461949913014351
 30
0.0
  0
SEQEND
  5
2792
  8
LAYER_1
  0
LINE
  5
2793
  8
LAYER_1
 10
12.602502094410809
 20
7.752349345861389
 30
0.0
 11
12.602502094410809
 21
7.6461949913014351
 31
0.0
  0
LINE
  5
2794
  8
LAYER_1
 10
12.602502094410809
 20
7.752349345861389
 30
0.0
 11
12.602502094410809
 21
7.6461949913014351
 31
0.0
  0
POLYLINE
  5
2795
  8
LAYER_1
 66
     1
 10
0.0
 20
0.0
 30
0.0
  0
VERTEX
  5
2796
  8
LAYER_1
 10
12.602502094410809
 20
7.752349345861389
 30
0.0
  0
VERTEX
  5
2797
  8
LAYER_1
 10
12.709089732050581
 20
7.752349345861389
 30
0.0
  0
VERTEX
  5
2798
  8
LAYER_1
 10
12.709089732050581
 20
7.6461949913014351
 30
0.0
  0
SEQEND
  5
2799
  8
LAYER_1
  0
LINE
  5
279A
  8
LAYER_1
 10
12.709089732050581
 20
7.752349345861389
 30
0.0
 11
12.709089732050581
 21
7.6461949913014351
 31
0.0
  0
LINE
  5
279B
  8
LAYER_1
 10
12.709089732050581
 20
7.752349345861389
 30
0.0
 11
12.709089732050581
 21
7.6461949913014351
 31
0.0
  0
LINE
  5
279C
  8
LAYER_1
 10
12.709089732050581
 20
7.752349345861389
 30
0.0
 11
12.709089732050581
 21
7.6461949913014351
 31
0.0
  0
LINE
  5
279D
  8
LAYER_1
 10
12.709089732050581
 20
7.752349345861389
 30
0.0
 11
12.709089732050581
 21
7.6461949913014351
 31
0.0
  0
LINE
  5
279E
  8
LAYER_1
 10
12.709089732050581
 20
7.752349345861389
 30
0.0
 11
12.709089732050581
 21
7.5396073536616264
 31
0.0
  0
LINE
  5
279F
  8
LAYER_1
 10
12.709089732050581
 20
7.6461949913014351
 30
0.0
 11
12.709089732050581
 21
7.5396073536616264
 31
0.0
  0
POLYLINE
  5
27A0
  8
LAYER_1
 66
     1
 10
0.0
 20
0.0
 30
0.0
  0
VERTEX
  5
27A1
  8
LAYER_1
 10
12.709089732050581
 20
7.6461949913014351
 30
0.0
  0
VERTEX
  5
27A2
  8
LAYER_1
 10
12.602502094410809
 20
7.6461949913014351
 30
0.0
  0
VERTEX
  5
27A3
  8
LAYER_1
 10
12.602502094410809
 20
7.5396073536616264
 30
0.0
  0
SEQEND
  5
27A4
  8
LAYER_1
  0
LINE
  5
27A5
  8
LAYER_1
 10
12.602502094410809
 20
7.6461949913014351
 30
0.0
 11
12.602502094410809
 21
7.5396073536616264
 31
0.0
  0
LINE
  5
27A6
  8
LAYER_1
 10
12.602502094410809
 20
7.6461949913014351
 30
0.0
 11
12.602502094410809
 21
7.5396073536616264
 31
0.0
  0
LINE
  5
27A7
  8
LAYER_1
 10
12.602502094410809
 20
7.6461949913014351
 30
0.0
 11
12.602502094410809
 21
7.5396073536616264
 31
0.0
  0
POLYLINE
  5
27A8
  8
LAYER_1
 66
     1
 10
0.0
 20
0.0
 30
0.0
  0
VERTEX
  5
27A9
  8
LAYER_1
 10
12.602502094410809
 20
7.6461949913014351
 30
0.0
  0
VERTEX
  5
27AA
  8
LAYER_1
 10
12.49613109831094
 20
7.6461949913014351
 30
0.0
  0
VERTEX
  5
27AB
  8
LAYER_1
 10
12.49613109831094
 20
7.5396073536616264
 30
0.0
  0
SEQEND
  5
27AC
  8
LAYER_1
  0
POLYLINE
  5
27AD
  8
LAYER_1
 66
     1
 10
0.0
 20
0.0
 30
0.0
  0
VERTEX
  5
27AE
  8
LAYER_1
 10
12.49613109831094
 20
7.6461949913014351
 30
0.0
  0
VERTEX
  5
27AF
  8
LAYER_1
 10
12.49613109831094
 20
7.5396073536616264
 30
0.0
  0
VERTEX
  5
27B0
  8
LAYER_1
 10
12.389543460671151
 20
7.5396073536616264
 30
0.0
  0
VERTEX
  5
27B1
  8
LAYER_1
 10
12.389543460671151
 20
7.4330197160218461
 30
0.0
  0
SEQEND
  5
27B2
  8
LAYER_1
  0
LINE
  5
27B3
  8
LAYER_1
 10
12.389543460671151
 20
7.5396073536616264
 30
0.0
 11
12.389543460671151
 21
7.4330197160218461
 31
0.0
  0
POLYLINE
  5
27B4
  8
LAYER_1
 66
     1
 10
0.0
 20
0.0
 30
0.0
  0
VERTEX
  5
27B5
  8
LAYER_1
 10
12.389543460671151
 20
7.5396073536616264
 30
0.0
  0
VERTEX
  5
27B6
  8
LAYER_1
 10
12.283172464571249
 20
7.5396073536616264
 30
0.0
  0
VERTEX
  5
27B7
  8
LAYER_1
 10
12.283172464571249
 20
7.4330197160218461
 30
0.0
  0
SEQEND
  5
27B8
  8
LAYER_1
  0
POLYLINE
  5
27B9
  8
LAYER_1
 66
     1
 10
0.0
 20
0.0
 30
0.0
  0
VERTEX
  5
27BA
  8
LAYER_1
 10
12.283172464571249
 20
7.5396073536616264
 30
0.0
  0
VERTEX
  5
27BB
  8
LAYER_1
 10
12.17658482693148
 20
7.5396073536616264
 30
0.0
  0
VERTEX
  5
27BC
  8
LAYER_1
 10
12.17658482693148
 20
7.4330197160218461
 30
0.0
  0
SEQEND
  5
27BD
  8
LAYER_1
  0
POLYLINE
  5
27BE
  8
LAYER_1
 66
     1
 10
0.0
 20
0.0
 30
0.0
  0
VERTEX
  5
27BF
  8
LAYER_1
 10
12.17658482693148
 20
7.5396073536616264
 30
0.0
  0
VERTEX
  5
27C0
  8
LAYER_1
 10
11.96362619319178
 20
7.5396073536616264
 30
0.0
  0
VERTEX
  5
27C1
  8
LAYER_1
 10
11.96362619319178
 20
7.4330197160218461
 30
0.0
  0
SEQEND
  5
27C2
  8
LAYER_1
  0
POLYLINE
  5
27C3
  8
LAYER_1
 66
     1
 10
0.0
 20
0.0
 30
0.0
  0
VERTEX
  5
27C4
  8
LAYER_1
 10
11.96362619319178
 20
7.5396073536616264
 30
0.0
  0
VERTEX
  5
27C5
  8
LAYER_1
 10
11.85725519709192
 20
7.4330197160218461
 30
0.0
  0
VERTEX
  5
27C6
  8
LAYER_1
 10
11.85725519709192
 20
7.3264320783820507
 30
0.0
  0
SEQEND
  5
27C7
  8
LAYER_1
  0
LINE
  5
27C8
  8
LAYER_1
 10
11.85725519709192
 20
7.4330197160218461
 30
0.0
 11
11.750667559452131
 21
7.4330197160218461
 31
0.0
  0
POLYLINE
  5
27C9
  8
LAYER_1
 66
     1
 10
0.0
 20
0.0
 30
0.0
  0
VERTEX
  5
27CA
  8
LAYER_1
 10
10.47291575701416
 20
7.4330197160218461
 30
0.0
  0
VERTEX
  5
27CB
  8
LAYER_1
 10
10.15336948563472
 20
7.4330197160218461
 30
0.0
  0
VERTEX
  5
27CC
  8
LAYER_1
 10
10.04699848953484
 20
7.5396073536616264
 30
0.0
  0
VERTEX
  5
27CD
  8
LAYER_1
 10
8.5562880533571857
 20
7.5396073536616264
 30
0.0
  0
VERTEX
  5
27CE
  8
LAYER_1
 10
8.3433294196175325
 20
7.6461949913014351
 30
0.0
  0
VERTEX
  5
27CF
  8
LAYER_1
 10
5.894196810841442
 20
7.6461949913014351
 30
0.0
  0
VERTEX
  5
27D0
  8
LAYER_1
 10
5.6812381771017959
 20
7.752349345861389
 30
0.0
  0
VERTEX
  5
27D1
  8
LAYER_1
 10
-0.1754492130488074
 20
7.752349345861389
 30
0.0
  0
SEQEND
  5
27D2
  8
LAYER_1
  0
LINE
  5
27D3
  8
LAYER_1
 10
-17.106418840741721
 20
28.747763008464759
 30
0.0
 11
-17.106418840741721
 21
28.62316201850804
 31
0.0
  0
POLYLINE
  5
27D4
  8
LAYER_1
 66
     1
 10
0.0
 20
0.0
 30
0.0
  0
VERTEX
  5
27D5
  8
LAYER_1
 10
-17.106418840741721
 20
28.747763008464759
 30
0.0
  0
VERTEX
  5
27D6
  8
LAYER_1
 10
-16.999831203101909
 20
28.62316201850804
 30
0.0
  0
VERTEX
  5
27D7
  8
LAYER_1
 10
-16.999831203101909
 20
28.517007663948078
 30
0.0
  0
SEQEND
  5
27D8
  8
LAYER_1
  0
LINE
  5
27D9
  8
LAYER_1
 10
-16.999831203101909
 20
28.62316201850804
 30
0.0
 11
-16.999831203101909
 21
28.517007663948078
 31
0.0
  0
POLYLINE
  5
27DA
  8
LAYER_1
 66
     1
 10
0.0
 20
0.0
 30
0.0
  0
VERTEX
  5
27DB
  8
LAYER_1
 10
-16.999831203101909
 20
28.62316201850804
 30
0.0
  0
VERTEX
  5
27DC
  8
LAYER_1
 10
-16.999831203101909
 20
28.517007663948078
 30
0.0
  0
VERTEX
  5
27DD
  8
LAYER_1
 10
-16.89346020700205
 20
28.517007663948078
 30
0.0
  0
VERTEX
  5
27DE
  8
LAYER_1
 10
-16.89346020700205
 20
28.41042002630827
 30
0.0
  0
SEQEND
  5
27DF
  8
LAYER_1
  0
LINE
  5
27E0
  8
LAYER_1
 10
-16.89346020700205
 20
28.517007663948078
 30
0.0
 11
-16.89346020700205
 21
28.41042002630827
 31
0.0
  0
LINE
  5
27E1
  8
LAYER_1
 10
-16.89346020700205
 20
28.517007663948078
 30
0.0
 11
-16.89346020700205
 21
28.3038323886685
 31
0.0
  0
POLYLINE
  5
27E2
  8
LAYER_1
 66
     1
 10
0.0
 20
0.0
 30
0.0
  0
VERTEX
  5
27E3
  8
LAYER_1
 10
-16.89346020700205
 20
28.41042002630827
 30
0.0
  0
VERTEX
  5
27E4
  8
LAYER_1
 10
-16.786872569362281
 20
28.41042002630827
 30
0.0
  0
VERTEX
  5
27E5
  8
LAYER_1
 10
-16.786872569362281
 20
28.3038323886685
 30
0.0
  0
SEQEND
  5
27E6
  8
LAYER_1
  0
LINE
  5
27E7
  8
LAYER_1
 10
-16.786872569362281
 20
28.41042002630827
 30
0.0
 11
-16.786872569362281
 21
28.3038323886685
 31
0.0
  0
LINE
  5
27E8
  8
LAYER_1
 10
-16.786872569362281
 20
28.41042002630827
 30
0.0
 11
-16.786872569362281
 21
28.197244751028698
 31
0.0
  0
LINE
  5
27E9
  8
LAYER_1
 10
-16.786872569362281
 20
28.3038323886685
 30
0.0
 11
-16.786872569362281
 21
28.197244751028698
 31
0.0
  0
LINE
  5
27EA
  8
LAYER_1
 10
-16.786872569362281
 20
28.3038323886685
 30
0.0
 11
-16.786872569362281
 21
28.197244751028698
 31
0.0
  0
LINE
  5
27EB
  8
LAYER_1
 10
-16.786872569362281
 20
28.3038323886685
 30
0.0
 11
-16.786872569362281
 21
28.197244751028698
 31
0.0
  0
LINE
  5
27EC
  8
LAYER_1
 10
-16.786872569362281
 20
28.3038323886685
 30
0.0
 11
-16.786872569362281
 21
28.197244751028698
 31
0.0
  0
LINE
  5
27ED
  8
LAYER_1
 10
-16.786872569362281
 20
28.3038323886685
 30
0.0
 11
-16.786872569362281
 21
28.197244751028698
 31
0.0
  0
POLYLINE
  5
27EE
  8
LAYER_1
 66
     1
 10
0.0
 20
0.0
 30
0.0
  0
VERTEX
  5
27EF
  8
LAYER_1
 10
-16.786872569362281
 20
28.3038323886685
 30
0.0
  0
VERTEX
  5
27F0
  8
LAYER_1
 10
-16.68050157326239
 20
28.3038323886685
 30
0.0
  0
VERTEX
  5
27F1
  8
LAYER_1
 10
-16.68050157326239
 20
28.197244751028698
 30
0.0
  0
SEQEND
  5
27F2
  8
LAYER_1
  0
LINE
  5
27F3
  8
LAYER_1
 10
-16.68050157326239
 20
28.3038323886685
 30
0.0
 11
-16.68050157326239
 21
28.197244751028698
 31
0.0
  0
LINE
  5
27F4
  8
LAYER_1
 10
-16.68050157326239
 20
28.3038323886685
 30
0.0
 11
-16.68050157326239
 21
28.197244751028698
 31
0.0
  0
LINE
  5
27F5
  8
LAYER_1
 10
-16.68050157326239
 20
28.3038323886685
 30
0.0
 11
-16.68050157326239
 21
28.197244751028698
 31
0.0
  0
LINE
  5
27F6
  8
LAYER_1
 10
-16.68050157326239
 20
28.3038323886685
 30
0.0
 11
-16.68050157326239
 21
28.197244751028698
 31
0.0
  0
LINE
  5
27F7
  8
LAYER_1
 10
-16.68050157326239
 20
28.3038323886685
 30
0.0
 11
-16.68050157326239
 21
28.197244751028698
 31
0.0
  0
LINE
  5
27F8
  8
LAYER_1
 10
-16.68050157326239
 20
28.3038323886685
 30
0.0
 11
-16.68050157326239
 21
28.197244751028698
 31
0.0
  0
LINE
  5
27F9
  8
LAYER_1
 10
-16.68050157326239
 20
28.3038323886685
 30
0.0
 11
-16.68050157326239
 21
28.197244751028698
 31
0.0
  0
LINE
  5
27FA
  8
LAYER_1
 10
-16.68050157326239
 20
28.3038323886685
 30
0.0
 11
-16.68050157326239
 21
28.197244751028698
 31
0.0
  0
LINE
  5
27FB
  8
LAYER_1
 10
-17.851665738060589
 20
27.66517312898943
 30
0.0
 11
-17.851665738060589
 21
27.558585491349628
 31
0.0
  0
LINE
  5
27FC
  8
LAYER_1
 10
-17.851665738060589
 20
27.66517312898943
 30
0.0
 11
-17.851665738060589
 21
27.558585491349628
 31
0.0
  0
LINE
  5
27FD
  8
LAYER_1
 10
-17.851665738060589
 20
27.66517312898943
 30
0.0
 11
-17.851665738060589
 21
27.558585491349628
 31
0.0
  0
LINE
  5
27FE
  8
LAYER_1
 10
-17.851665738060589
 20
27.66517312898943
 30
0.0
 11
-17.851665738060589
 21
27.558585491349628
 31
0.0
  0
LINE
  5
27FF
  8
LAYER_1
 10
-17.851665738060589
 20
27.66517312898943
 30
0.0
 11
-17.851665738060589
 21
27.558585491349628
 31
0.0
  0
POLYLINE
  5
2800
  8
LAYER_1
 66
     1
 10
0.0
 20
0.0
 30
0.0
  0
VERTEX
  5
2801
  8
LAYER_1
 10
-17.851665738060589
 20
27.66517312898943
 30
0.0
  0
VERTEX
  5
2802
  8
LAYER_1
 10
-17.851665738060589
 20
27.771327483549371
 30
0.0
  0
VERTEX
  5
2803
  8
LAYER_1
 10
-17.851665738060589
 20
27.66517312898943
 30
0.0
  0
SEQEND
  5
2804
  8
LAYER_1
  0
POLYLINE
  5
2805
  8
LAYER_1
 66
     1
 10
0.0
 20
0.0
 30
0.0
  0
VERTEX
  5
2806
  8
LAYER_1
 10
13.986841534488571
 20
8.0721122587807628
 30
0.0
  0
VERTEX
  5
2807
  8
LAYER_1
 10
14.09342917212834
 20
8.178266613340714
 30
0.0
  0
VERTEX
  5
2808
  8
LAYER_1
 10
14.09342917212834
 20
8.0721122587807628
 30
0.0
  0
SEQEND
  5
2809
  8
LAYER_1
  0
POLYLINE
  5
280A
  8
LAYER_1
 66
     1
 10
0.0
 20
0.0
 30
0.0
  0
VERTEX
  5
280B
  8
LAYER_1
 10
14.09342917212834
 20
8.178266613340714
 30
0.0
  0
VERTEX
  5
280C
  8
LAYER_1
 10
14.30638780586802
 20
8.3914418886202853
 30
0.0
  0
VERTEX
  5
280D
  8
LAYER_1
 10
14.41275880196787
 20
8.3914418886202853
 30
0.0
  0
VERTEX
  5
280E
  8
LAYER_1
 10
14.41275880196787
 20
8.4980295262600762
 30
0.0
  0
VERTEX
  5
280F
  8
LAYER_1
 10
14.732305073347341
 20
8.8173591560996094
 30
0.0
  0
VERTEX
  5
2810
  8
LAYER_1
 10
14.732305073347341
 20
8.9239467937394021
 30
0.0
  0
VERTEX
  5
2811
  8
LAYER_1
 10
14.8386760694472
 20
9.0305344313791949
 30
0.0
  0
VERTEX
  5
2812
  8
LAYER_1
 10
14.8386760694472
 20
9.1366887859391621
 30
0.0
  0
VERTEX
  5
2813
  8
LAYER_1
 10
14.94526370708701
 20
9.2432764235789442
 30
0.0
  0
VERTEX
  5
2814
  8
LAYER_1
 10
14.94526370708701
 20
9.3498640612187316
 30
0.0
  0
VERTEX
  5
2815
  8
LAYER_1
 10
15.051634703186901
 20
9.4564516988585225
 30
0.0
  0
VERTEX
  5
2816
  8
LAYER_1
 10
15.051634703186901
 20
9.7757813286980593
 30
0.0
  0
VERTEX
  5
2817
  8
LAYER_1
 10
17.394396315863101
 20
26.280833688911638
 30
0.0
  0
SEQEND
  5
2818
  8
LAYER_1
  0
LINE
  5
2819
  8
LAYER_1
 10
2.167095758087477
 20
5.9420926383042882
 30
0.0
 11
1.8477661282479541
 21
5.835938283744329
 31
0.0
  0
POLYLINE
  5
281A
  8
LAYER_1
 66
     1
 10
0.0
 20
0.0
 30
0.0
  0
VERTEX
  5
281B
  8
LAYER_1
 10
11.750667559452131
 20
7.5396073536616264
 30
0.0
  0
VERTEX
  5
281C
  8
LAYER_1
 10
11.750667559452131
 20
7.4330197160218461
 30
0.0
  0
VERTEX
  5
281D
  8
LAYER_1
 10
11.64429656335226
 20
7.4330197160218461
 30
0.0
  0
SEQEND
  5
281E
  8
LAYER_1
  0
POLYLINE
  5
281F
  8
LAYER_1
 66
     1
 10
0.0
 20
0.0
 30
0.0
  0
VERTEX
  5
2820
  8
LAYER_1
 10
-0.1754492130488074
 20
7.752349345861389
 30
0.0
  0
VERTEX
  5
2821
  8
LAYER_1
 10
-5.7125903318199667
 20
7.6461949913014351
 30
0.0
  0
VERTEX
  5
2822
  8
LAYER_1
 10
-7.096929771897762
 20
7.6461949913014351
 30
0.0
  0
VERTEX
  5
2823
  8
LAYER_1
 10
-7.309888405637416
 20
7.5396073536616264
 30
0.0
  0
VERTEX
  5
2824
  8
LAYER_1
 10
-8.4812692119754942
 20
7.5396073536616264
 30
0.0
  0
VERTEX
  5
2825
  8
LAYER_1
 10
-8.5876402080753849
 20
7.4330197160218461
 30
0.0
  0
VERTEX
  5
2826
  8
LAYER_1
 10
-8.9071864794548201
 20
7.4330197160218461
 30
0.0
  0
SEQEND
  5
2827
  8
LAYER_1
  0
LINE
  5
2828
  8
LAYER_1
 10
-10.184938281892819
 20
7.5396073536616264
 30
0.0
 11
-10.184938281892819
 21
7.3264320783820507
 31
0.0
  0
LINE
  5
2829
  8
LAYER_1
 10
-10.184938281892819
 20
7.4330197160218461
 30
0.0
 11
-10.184938281892819
 21
7.3264320783820507
 31
0.0
  0
LINE
  5
282A
  8
LAYER_1
 10
-10.184938281892819
 20
7.4330197160218461
 30
0.0
 11
-10.184938281892819
 21
7.3264320783820507
 31
0.0
  0
POLYLINE
  5
282B
  8
LAYER_1
 66
     1
 10
0.0
 20
0.0
 30
0.0
  0
VERTEX
  5
282C
  8
LAYER_1
 10
0.5700143258099857
 20
8.2848542509805014
 30
0.0
  0
VERTEX
  5
282D
  8
LAYER_1
 10
-5.6062193357201053
 20
8.178266613340714
 30
0.0
  0
VERTEX
  5
282E
  8
LAYER_1
 10
-6.9903421342579426
 20
8.178266613340714
 30
0.0
  0
VERTEX
  5
282F
  8
LAYER_1
 10
-7.096929771897762
 20
8.0721122587807628
 30
0.0
  0
VERTEX
  5
2830
  8
LAYER_1
 10
-8.6942278457151616
 20
8.0721122587807628
 30
0.0
  0
VERTEX
  5
2831
  8
LAYER_1
 10
-8.9071864794548201
 20
7.9655246211409638
 30
0.0
  0
VERTEX
  5
2832
  8
LAYER_1
 10
-9.439474743034026
 20
7.9655246211409638
 30
0.0
  0
SEQEND
  5
2833
  8
LAYER_1
  0
POLYLINE
  5
2834
  8
LAYER_1
 66
     1
 10
0.0
 20
0.0
 30
0.0
  0
VERTEX
  5
2835
  8
LAYER_1
 10
-9.5460623806738241
 20
7.9655246211409638
 30
0.0
  0
VERTEX
  5
2836
  8
LAYER_1
 10
-9.7590210144135057
 20
7.8589369835011773
 30
0.0
  0
VERTEX
  5
2837
  8
LAYER_1
 10
-10.184938281892819
 20
7.8589369835011773
 30
0.0
  0
VERTEX
  5
2838
  8
LAYER_1
 10
-10.29130927799269
 20
7.752349345861389
 30
0.0
  0
VERTEX
  5
2839
  8
LAYER_1
 10
-10.29130927799269
 20
7.6461949913014351
 30
0.0
  0
SEQEND
  5
283A
  8
LAYER_1
  0
POLYLINE
  5
283B
  8
LAYER_1
 66
     1
 10
0.0
 20
0.0
 30
0.0
  0
VERTEX
  5
283C
  8
LAYER_1
 10
-10.29130927799269
 20
7.752349345861389
 30
0.0
  0
VERTEX
  5
283D
  8
LAYER_1
 10
-10.397896915632471
 20
7.752349345861389
 30
0.0
  0
VERTEX
  5
283E
  8
LAYER_1
 10
-10.397896915632471
 20
7.6461949913014351
 30
0.0
  0
SEQEND
  5
283F
  8
LAYER_1
  0
LINE
  5
2840
  8
LAYER_1
 10
-10.397896915632471
 20
7.752349345861389
 30
0.0
 11
-10.397896915632471
 21
7.6461949913014351
 31
0.0
  0
LINE
  5
2841
  8
LAYER_1
 10
-10.397896915632471
 20
7.752349345861389
 30
0.0
 11
-10.397896915632471
 21
7.6461949913014351
 31
0.0
  0
LINE
  5
2842
  8
LAYER_1
 10
-10.397896915632471
 20
7.752349345861389
 30
0.0
 11
-10.397896915632471
 21
7.5396073536616264
 31
0.0
  0
LINE
  5
2843
  8
LAYER_1
 10
-10.397896915632471
 20
7.6461949913014351
 30
0.0
 11
-10.397896915632471
 21
7.5396073536616264
 31
0.0
  0
LINE
  5
2844
  8
LAYER_1
 10
-10.397896915632471
 20
7.6461949913014351
 30
0.0
 11
-10.397896915632471
 21
7.5396073536616264
 31
0.0
  0
LINE
  5
2845
  8
LAYER_1
 10
-10.397896915632471
 20
7.6461949913014351
 30
0.0
 11
-10.397896915632471
 21
7.5396073536616264
 31
0.0
  0
POLYLINE
  5
2846
  8
LAYER_1
 66
     1
 10
0.0
 20
0.0
 30
0.0
  0
VERTEX
  5
2847
  8
LAYER_1
 10
-10.397896915632471
 20
7.6461949913014351
 30
0.0
  0
VERTEX
  5
2848
  8
LAYER_1
 10
-10.29130927799269
 20
7.6461949913014351
 30
0.0
  0
VERTEX
  5
2849
  8
LAYER_1
 10
-10.29130927799269
 20
7.5396073536616264
 30
0.0
  0
SEQEND
  5
284A
  8
LAYER_1
  0
POLYLINE
  5
284B
  8
LAYER_1
 66
     1
 10
0.0
 20
0.0
 30
0.0
  0
VERTEX
  5
284C
  8
LAYER_1
 10
-10.29130927799269
 20
7.6461949913014351
 30
0.0
  0
VERTEX
  5
284D
  8
LAYER_1
 10
-10.29130927799269
 20
7.5396073536616264
 30
0.0
  0
VERTEX
  5
284E
  8
LAYER_1
 10
-10.184938281892819
 20
7.5396073536616264
 30
0.0
  0
SEQEND
  5
284F
  8
LAYER_1
  0
LINE
  5
2850
  8
LAYER_1
 10
-0.1754492130488074
 20
8.2848542509805014
 30
0.0
 11
2.2736833957272751
 21
8.2848542509805014
 31
0.0
  0
POLYLINE
  5
2851
  8
LAYER_1
 66
     1
 10
0.0
 20
0.0
 30
0.0
  0
VERTEX
  5
2852
  8
LAYER_1
 10
2.3800543918271511
 20
8.2848542509805014
 30
0.0
  0
VERTEX
  5
2853
  8
LAYER_1
 10
3.5514351981652501
 20
8.2848542509805014
 30
0.0
  0
VERTEX
  5
2854
  8
LAYER_1
 10
3.5514351981652501
 20
8.178266613340714
 30
0.0
  0
SEQEND
  5
2855
  8
LAYER_1
  0
POLYLINE
  5
2856
  8
LAYER_1
 66
     1
 10
0.0
 20
0.0
 30
0.0
  0
VERTEX
  5
2857
  8
LAYER_1
 10
3.5514351981652501
 20
8.2848542509805014
 30
0.0
  0
VERTEX
  5
2858
  8
LAYER_1
 10
5.574650539462005
 20
8.2848542509805014
 30
0.0
  0
VERTEX
  5
2859
  8
LAYER_1
 10
5.574650539462005
 20
8.178266613340714
 30
0.0
  0
SEQEND
  5
285A
  8
LAYER_1
  0
POLYLINE
  5
285B
  8
LAYER_1
 66
     1
 10
0.0
 20
0.0
 30
0.0
  0
VERTEX
  5
285C
  8
LAYER_1
 10
5.574650539462005
 20
8.2848542509805014
 30
0.0
  0
VERTEX
  5
285D
  8
LAYER_1
 10
6.8524023418999738
 20
8.2848542509805014
 30
0.0
  0
VERTEX
  5
285E
  8
LAYER_1
 10
6.958989979539786
 20
8.178266613340714
 30
0.0
  0
VERTEX
  5
285F
  8
LAYER_1
 10
7.065360975639642
 20
8.178266613340714
 30
0.0
  0
VERTEX
  5
2860
  8
LAYER_1
 10
7.065360975639642
 20
8.0721122587807628
 30
0.0
  0
SEQEND
  5
2861
  8
LAYER_1
  0
POLYLINE
  5
2862
  8
LAYER_1
 66
     1
 10
0.0
 20
0.0
 30
0.0
  0
VERTEX
  5
2863
  8
LAYER_1
 10
7.065360975639642
 20
8.178266613340714
 30
0.0
  0
VERTEX
  5
2864
  8
LAYER_1
 10
8.1301541443379648
 20
8.178266613340714
 30
0.0
  0
VERTEX
  5
2865
  8
LAYER_1
 10
8.1301541443379648
 20
8.0721122587807628
 30
0.0
  0
SEQEND
  5
2866
  8
LAYER_1
  0
POLYLINE
  5
2867
  8
LAYER_1
 66
     1
 10
0.0
 20
0.0
 30
0.0
  0
VERTEX
  5
2868
  8
LAYER_1
 10
8.1301541443379648
 20
8.178266613340714
 30
0.0
  0
VERTEX
  5
2869
  8
LAYER_1
 10
8.9822053208365205
 20
8.178266613340714
 30
0.0
  0
VERTEX
  5
286A
  8
LAYER_1
 10
8.9822053208365205
 20
8.0721122587807628
 30
0.0
  0
SEQEND
  5
286B
  8
LAYER_1
  0
POLYLINE
  5
286C
  8
LAYER_1
 66
     1
 10
0.0
 20
0.0
 30
0.0
  0
VERTEX
  5
286D
  8
LAYER_1
 10
8.9822053208365205
 20
8.178266613340714
 30
0.0
  0
VERTEX
  5
286E
  8
LAYER_1
 10
9.6210812220555297
 20
8.178266613340714
 30
0.0
  0
VERTEX
  5
286F
  8
LAYER_1
 10
9.7274522181553991
 20
8.0721122587807628
 30
0.0
  0
VERTEX
  5
2870
  8
LAYER_1
 10
9.7274522181553991
 20
7.9655246211409638
 30
0.0
  0
SEQEND
  5
2871
  8
LAYER_1
  0
POLYLINE
  5
2872
  8
LAYER_1
 66
     1
 10
0.0
 20
0.0
 30
0.0
  0
VERTEX
  5
2873
  8
LAYER_1
 10
9.7274522181553991
 20
8.0721122587807628
 30
0.0
  0
VERTEX
  5
2874
  8
LAYER_1
 10
10.259957123274519
 20
8.0721122587807628
 30
0.0
  0
VERTEX
  5
2875
  8
LAYER_1
 10
10.259957123274519
 20
7.9655246211409638
 30
0.0
  0
SEQEND
  5
2876
  8
LAYER_1
  0
POLYLINE
  5
2877
  8
LAYER_1
 66
     1
 10
0.0
 20
0.0
 30
0.0
  0
VERTEX
  5
2878
  8
LAYER_1
 10
10.259957123274519
 20
8.0721122587807628
 30
0.0
  0
VERTEX
  5
2879
  8
LAYER_1
 10
10.792245386853709
 20
8.0721122587807628
 30
0.0
  0
VERTEX
  5
287A
  8
LAYER_1
 10
10.792245386853709
 20
7.9655246211409638
 30
0.0
  0
SEQEND
  5
287B
  8
LAYER_1
  0
POLYLINE
  5
287C
  8
LAYER_1
 66
     1
 10
0.0
 20
0.0
 30
0.0
  0
VERTEX
  5
287D
  8
LAYER_1
 10
10.792245386853709
 20
8.0721122587807628
 30
0.0
  0
VERTEX
  5
287E
  8
LAYER_1
 10
11.111791658233161
 20
8.0721122587807628
 30
0.0
  0
VERTEX
  5
287F
  8
LAYER_1
 10
11.111791658233161
 20
7.9655246211409638
 30
0.0
  0
SEQEND
  5
2880
  8
LAYER_1
  0
POLYLINE
  5
2881
  8
LAYER_1
 66
     1
 10
0.0
 20
0.0
 30
0.0
  0
VERTEX
  5
2882
  8
LAYER_1
 10
11.111791658233161
 20
8.0721122587807628
 30
0.0
  0
VERTEX
  5
2883
  8
LAYER_1
 10
11.21837929587293
 20
7.9655246211409638
 30
0.0
  0
VERTEX
  5
2884
  8
LAYER_1
 10
11.431337929612599
 20
7.9655246211409638
 30
0.0
  0
VERTEX
  5
2885
  8
LAYER_1
 10
11.431337929612599
 20
7.8589369835011773
 30
0.0
  0
SEQEND
  5
2886
  8
LAYER_1
  0
POLYLINE
  5
2887
  8
LAYER_1
 66
     1
 10
0.0
 20
0.0
 30
0.0
  0
VERTEX
  5
2888
  8
LAYER_1
 10
11.431337929612599
 20
7.9655246211409638
 30
0.0
  0
VERTEX
  5
2889
  8
LAYER_1
 10
11.64429656335226
 20
7.9655246211409638
 30
0.0
  0
VERTEX
  5
288A
  8
LAYER_1
 10
11.64429656335226
 20
7.8589369835011773
 30
0.0
  0
SEQEND
  5
288B
  8
LAYER_1
  0
POLYLINE
  5
288C
  8
LAYER_1
 66
     1
 10
0.0
 20
0.0
 30
0.0
  0
VERTEX
  5
288D
  8
LAYER_1
 10
11.64429656335226
 20
7.9655246211409638
 30
0.0
  0
VERTEX
  5
288E
  8
LAYER_1
 10
11.85725519709192
 20
7.9655246211409638
 30
0.0
  0
VERTEX
  5
288F
  8
LAYER_1
 10
11.85725519709192
 20
7.8589369835011773
 30
0.0
  0
SEQEND
  5
2890
  8
LAYER_1
  0
POLYLINE
  5
2891
  8
LAYER_1
 66
     1
 10
0.0
 20
0.0
 30
0.0
  0
VERTEX
  5
2892
  8
LAYER_1
 10
11.85725519709192
 20
7.9655246211409638
 30
0.0
  0
VERTEX
  5
2893
  8
LAYER_1
 10
11.96362619319178
 20
7.9655246211409638
 30
0.0
  0
VERTEX
  5
2894
  8
LAYER_1
 10
11.96362619319178
 20
7.8589369835011773
 30
0.0
  0
SEQEND
  5
2895
  8
LAYER_1
  0
POLYLINE
  5
2896
  8
LAYER_1
 66
     1
 10
0.0
 20
0.0
 30
0.0
  0
VERTEX
  5
2897
  8
LAYER_1
 10
11.96362619319178
 20
7.9655246211409638
 30
0.0
  0
VERTEX
  5
2898
  8
LAYER_1
 10
12.070213830831619
 20
7.9655246211409638
 30
0.0
  0
VERTEX
  5
2899
  8
LAYER_1
 10
12.070213830831619
 20
7.8589369835011773
 30
0.0
  0
VERTEX
  5
289A
  8
LAYER_1
 10
12.17658482693148
 20
7.8589369835011773
 30
0.0
  0
VERTEX
  5
289B
  8
LAYER_1
 10
12.17658482693148
 20
7.752349345861389
 30
0.0
  0
SEQEND
  5
289C
  8
LAYER_1
  0
POLYLINE
  5
289D
  8
LAYER_1
 66
     1
 10
0.0
 20
0.0
 30
0.0
  0
VERTEX
  5
289E
  8
LAYER_1
 10
12.17658482693148
 20
7.8589369835011773
 30
0.0
  0
VERTEX
  5
289F
  8
LAYER_1
 10
12.283172464571249
 20
7.8589369835011773
 30
0.0
  0
VERTEX
  5
28A0
  8
LAYER_1
 10
12.283172464571249
 20
7.752349345861389
 30
0.0
  0
SEQEND
  5
28A1
  8
LAYER_1
  0
POLYLINE
  5
28A2
  8
LAYER_1
 66
     1
 10
0.0
 20
0.0
 30
0.0
  0
VERTEX
  5
28A3
  8
LAYER_1
 10
12.283172464571249
 20
7.8589369835011773
 30
0.0
  0
VERTEX
  5
28A4
  8
LAYER_1
 10
12.389543460671151
 20
7.8589369835011773
 30
0.0
  0
VERTEX
  5
28A5
  8
LAYER_1
 10
12.389543460671151
 20
7.752349345861389
 30
0.0
  0
SEQEND
  5
28A6
  8
LAYER_1
  0
POLYLINE
  5
28A7
  8
LAYER_1
 66
     1
 10
0.0
 20
0.0
 30
0.0
  0
VERTEX
  5
28A8
  8
LAYER_1
 10
12.389543460671151
 20
7.8589369835011773
 30
0.0
  0
VERTEX
  5
28A9
  8
LAYER_1
 10
12.49613109831094
 20
7.8589369835011773
 30
0.0
  0
VERTEX
  5
28AA
  8
LAYER_1
 10
12.49613109831094
 20
7.752349345861389
 30
0.0
  0
SEQEND
  5
28AB
  8
LAYER_1
  0
POLYLINE
  5
28AC
  8
LAYER_1
 66
     1
 10
0.0
 20
0.0
 30
0.0
  0
VERTEX
  5
28AD
  8
LAYER_1
 10
13.45433662936944
 20
7.752349345861389
 30
0.0
  0
VERTEX
  5
28AE
  8
LAYER_1
 10
13.56092426700924
 20
7.8589369835011773
 30
0.0
  0
VERTEX
  5
28AF
  8
LAYER_1
 10
13.56092426700924
 20
7.752349345861389
 30
0.0
  0
SEQEND
  5
28B0
  8
LAYER_1
  0
POLYLINE
  5
28B1
  8
LAYER_1
 66
     1
 10
0.0
 20
0.0
 30
0.0
  0
VERTEX
  5
28B2
  8
LAYER_1
 10
13.56092426700924
 20
7.8589369835011773
 30
0.0
  0
VERTEX
  5
28B3
  8
LAYER_1
 10
13.667511904649031
 20
7.8589369835011773
 30
0.0
  0
VERTEX
  5
28B4
  8
LAYER_1
 10
13.7738829007489
 20
7.9655246211409638
 30
0.0
  0
VERTEX
  5
28B5
  8
LAYER_1
 10
13.7738829007489
 20
7.8589369835011773
 30
0.0
  0
SEQEND
  5
28B6
  8
LAYER_1
  0
POLYLINE
  5
28B7
  8
LAYER_1
 66
     1
 10
0.0
 20
0.0
 30
0.0
  0
VERTEX
  5
28B8
  8
LAYER_1
 10
13.7738829007489
 20
7.9655246211409638
 30
0.0
  0
VERTEX
  5
28B9
  8
LAYER_1
 10
13.88047053838868
 20
8.0721122587807628
 30
0.0
  0
VERTEX
  5
28BA
  8
LAYER_1
 10
13.986841534488571
 20
8.0721122587807628
 30
0.0
  0
SEQEND
  5
28BB
  8
LAYER_1
  0
LINE
  5
28BC
  8
LAYER_1
 10
10.8988330244935
 20
7.0071024485425211
 30
0.0
 11
10.8988330244935
 21
6.9005148109027301
 31
0.0
  0
POLYLINE
  5
28BD
  8
LAYER_1
 66
     1
 10
0.0
 20
0.0
 30
0.0
  0
VERTEX
  5
28BE
  8
LAYER_1
 10
10.8988330244935
 20
7.0071024485425211
 30
0.0
  0
VERTEX
  5
28BF
  8
LAYER_1
 10
11.00542066213327
 20
7.0071024485425211
 30
0.0
  0
VERTEX
  5
28C0
  8
LAYER_1
 10
11.00542066213327
 20
6.9005148109027301
 30
0.0
  0
SEQEND
  5
28C1
  8
LAYER_1
  0
POLYLINE
  5
28C2
  8
LAYER_1
 66
     1
 10
0.0
 20
0.0
 30
0.0
  0
VERTEX
  5
28C3
  8
LAYER_1
 10
11.00542066213327
 20
7.0071024485425211
 30
0.0
  0
VERTEX
  5
28C4
  8
LAYER_1
 10
11.111791658233161
 20
7.0071024485425211
 30
0.0
  0
VERTEX
  5
28C5
  8
LAYER_1
 10
11.111791658233161
 20
6.9005148109027301
 30
0.0
  0
SEQEND
  5
28C6
  8
LAYER_1
  0
POLYLINE
  5
28C7
  8
LAYER_1
 66
     1
 10
0.0
 20
0.0
 30
0.0
  0
VERTEX
  5
28C8
  8
LAYER_1
 10
11.111791658233161
 20
7.0071024485425211
 30
0.0
  0
VERTEX
  5
28C9
  8
LAYER_1
 10
11.21837929587293
 20
7.0071024485425211
 30
0.0
  0
VERTEX
  5
28CA
  8
LAYER_1
 10
11.21837929587293
 20
6.9005148109027301
 30
0.0
  0
SEQEND
  5
28CB
  8
LAYER_1
  0
POLYLINE
  5
28CC
  8
LAYER_1
 66
     1
 10
0.0
 20
0.0
 30
0.0
  0
VERTEX
  5
28CD
  8
LAYER_1
 10
11.21837929587293
 20
7.0071024485425211
 30
0.0
  0
VERTEX
  5
28CE
  8
LAYER_1
 10
11.21837929587293
 20
7.113690086182312
 30
0.0
  0
VERTEX
  5
28CF
  8
LAYER_1
 10
11.324750291972819
 20
7.113690086182312
 30
0.0
  0
VERTEX
  5
28D0
  8
LAYER_1
 10
11.324750291972819
 20
7.0071024485425211
 30
0.0
  0
SEQEND
  5
28D1
  8
LAYER_1
  0
LINE
  5
28D2
  8
LAYER_1
 10
11.324750291972819
 20
7.113690086182312
 30
0.0
 11
11.324750291972819
 21
7.0071024485425211
 31
0.0
  0
POLYLINE
  5
28D3
  8
LAYER_1
 66
     1
 10
0.0
 20
0.0
 30
0.0
  0
VERTEX
  5
28D4
  8
LAYER_1
 10
11.324750291972819
 20
7.113690086182312
 30
0.0
  0
VERTEX
  5
28D5
  8
LAYER_1
 10
11.431337929612599
 20
7.113690086182312
 30
0.0
  0
VERTEX
  5
28D6
  8
LAYER_1
 10
11.431337929612599
 20
7.0071024485425211
 30
0.0
  0
SEQEND
  5
28D7
  8
LAYER_1
  0
LINE
  5
28D8
  8
LAYER_1
 10
11.431337929612599
 20
7.113690086182312
 30
0.0
 11
11.431337929612599
 21
7.0071024485425211
 31
0.0
  0
LINE
  5
28D9
  8
LAYER_1
 10
11.431337929612599
 20
7.113690086182312
 30
0.0
 11
11.431337929612599
 21
7.0071024485425211
 31
0.0
  0
POLYLINE
  5
28DA
  8
LAYER_1
 66
     1
 10
0.0
 20
0.0
 30
0.0
  0
VERTEX
  5
28DB
  8
LAYER_1
 10
11.431337929612599
 20
7.113690086182312
 30
0.0
  0
VERTEX
  5
28DC
  8
LAYER_1
 10
11.431337929612599
 20
7.2202777238220959
 30
0.0
  0
VERTEX
  5
28DD
  8
LAYER_1
 10
11.431337929612599
 20
7.113690086182312
 30
0.0
  0
SEQEND
  5
28DE
  8
LAYER_1
  0
LINE
  5
28DF
  8
LAYER_1
 10
11.431337929612599
 20
7.2202777238220959
 30
0.0
 11
11.431337929612599
 21
7.113690086182312
 31
0.0
  0
LINE
  5
28E0
  8
LAYER_1
 10
11.431337929612599
 20
7.2202777238220959
 30
0.0
 11
11.431337929612599
 21
7.113690086182312
 31
0.0
  0
LINE
  5
28E1
  8
LAYER_1
 10
11.431337929612599
 20
7.2202777238220959
 30
0.0
 11
11.431337929612599
 21
7.113690086182312
 31
0.0
  0
LINE
  5
28E2
  8
LAYER_1
 10
11.431337929612599
 20
7.2202777238220959
 30
0.0
 11
11.431337929612599
 21
7.113690086182312
 31
0.0
  0
POLYLINE
  5
28E3
  8
LAYER_1
 66
     1
 10
0.0
 20
0.0
 30
0.0
  0
VERTEX
  5
28E4
  8
LAYER_1
 10
11.431337929612599
 20
7.2202777238220959
 30
0.0
  0
VERTEX
  5
28E5
  8
LAYER_1
 10
11.324750291972819
 20
7.2202777238220959
 30
0.0
  0
VERTEX
  5
28E6
  8
LAYER_1
 10
11.324750291972819
 20
7.113690086182312
 30
0.0
  0
SEQEND
  5
28E7
  8
LAYER_1
  0
POLYLINE
  5
28E8
  8
LAYER_1
 66
     1
 10
0.0
 20
0.0
 30
0.0
  0
VERTEX
  5
28E9
  8
LAYER_1
 10
11.324750291972819
 20
7.2202777238220959
 30
0.0
  0
VERTEX
  5
28EA
  8
LAYER_1
 10
11.324750291972819
 20
7.3264320783820507
 30
0.0
  0
VERTEX
  5
28EB
  8
LAYER_1
 10
11.21837929587293
 20
7.3264320783820507
 30
0.0
  0
VERTEX
  5
28EC
  8
LAYER_1
 10
11.21837929587293
 20
7.2202777238220959
 30
0.0
  0
SEQEND
  5
28ED
  8
LAYER_1
  0
LINE
  5
28EE
  8
LAYER_1
 10
11.21837929587293
 20
7.3264320783820507
 30
0.0
 11
11.21837929587293
 21
7.2202777238220959
 31
0.0
  0
POLYLINE
  5
28EF
  8
LAYER_1
 66
     1
 10
0.0
 20
0.0
 30
0.0
  0
VERTEX
  5
28F0
  8
LAYER_1
 10
11.21837929587293
 20
7.3264320783820507
 30
0.0
  0
VERTEX
  5
28F1
  8
LAYER_1
 10
11.00542066213327
 20
7.3264320783820507
 30
0.0
  0
VERTEX
  5
28F2
  8
LAYER_1
 10
11.00542066213327
 20
7.2202777238220959
 30
0.0
  0
SEQEND
  5
28F3
  8
LAYER_1
  0
LINE
  5
28F4
  8
LAYER_1
 10
11.00542066213327
 20
7.3264320783820507
 30
0.0
 11
10.8988330244935
 21
7.4330197160218461
 31
0.0
  0
LINE
  5
28F5
  8
LAYER_1
 10
10.792245386853709
 20
7.0071024485425211
 30
0.0
 11
10.792245386853709
 21
6.9005148109027301
 31
0.0
  0
POLYLINE
  5
28F6
  8
LAYER_1
 66
     1
 10
0.0
 20
0.0
 30
0.0
  0
VERTEX
  5
28F7
  8
LAYER_1
 10
10.792245386853709
 20
7.0071024485425211
 30
0.0
  0
VERTEX
  5
28F8
  8
LAYER_1
 10
10.8988330244935
 20
7.0071024485425211
 30
0.0
  0
VERTEX
  5
28F9
  8
LAYER_1
 10
10.8988330244935
 20
6.9005148109027301
 30
0.0
  0
SEQEND
  5
28FA
  8
LAYER_1
  0
POLYLINE
  5
28FB
  8
LAYER_1
 66
     1
 10
0.0
 20
0.0
 30
0.0
  0
VERTEX
  5
28FC
  8
LAYER_1
 10
10.8988330244935
 20
7.0071024485425211
 30
0.0
  0
VERTEX
  5
28FD
  8
LAYER_1
 10
11.00542066213327
 20
7.0071024485425211
 30
0.0
  0
VERTEX
  5
28FE
  8
LAYER_1
 10
11.00542066213327
 20
6.9005148109027301
 30
0.0
  0
SEQEND
  5
28FF
  8
LAYER_1
  0
LINE
  5
2900
  8
LAYER_1
 10
11.00542066213327
 20
7.0071024485425211
 30
0.0
 11
11.00542066213327
 21
6.9005148109027301
 31
0.0
  0
POLYLINE
  5
2901
  8
LAYER_1
 66
     1
 10
0.0
 20
0.0
 30
0.0
  0
VERTEX
  5
2902
  8
LAYER_1
 10
11.00542066213327
 20
7.0071024485425211
 30
0.0
  0
VERTEX
  5
2903
  8
LAYER_1
 10
11.111791658233161
 20
7.0071024485425211
 30
0.0
  0
VERTEX
  5
2904
  8
LAYER_1
 10
11.111791658233161
 20
6.9005148109027301
 30
0.0
  0
SEQEND
  5
2905
  8
LAYER_1
  0
POLYLINE
  5
2906
  8
LAYER_1
 66
     1
 10
0.0
 20
0.0
 30
0.0
  0
VERTEX
  5
2907
  8
LAYER_1
 10
11.111791658233161
 20
7.0071024485425211
 30
0.0
  0
VERTEX
  5
2908
  8
LAYER_1
 10
11.21837929587293
 20
7.0071024485425211
 30
0.0
  0
VERTEX
  5
2909
  8
LAYER_1
 10
11.21837929587293
 20
6.9005148109027301
 30
0.0
  0
SEQEND
  5
290A
  8
LAYER_1
  0
POLYLINE
  5
290B
  8
LAYER_1
 66
     1
 10
0.0
 20
0.0
 30
0.0
  0
VERTEX
  5
290C
  8
LAYER_1
 10
11.21837929587293
 20
7.0071024485425211
 30
0.0
  0
VERTEX
  5
290D
  8
LAYER_1
 10
11.21837929587293
 20
7.113690086182312
 30
0.0
  0
VERTEX
  5
290E
  8
LAYER_1
 10
11.324750291972819
 20
7.113690086182312
 30
0.0
  0
VERTEX
  5
290F
  8
LAYER_1
 10
11.324750291972819
 20
7.0071024485425211
 30
0.0
  0
SEQEND
  5
2910
  8
LAYER_1
  0
LINE
  5
2911
  8
LAYER_1
 10
11.324750291972819
 20
7.113690086182312
 30
0.0
 11
11.324750291972819
 21
7.0071024485425211
 31
0.0
  0
POLYLINE
  5
2912
  8
LAYER_1
 66
     1
 10
0.0
 20
0.0
 30
0.0
  0
VERTEX
  5
2913
  8
LAYER_1
 10
11.324750291972819
 20
7.113690086182312
 30
0.0
  0
VERTEX
  5
2914
  8
LAYER_1
 10
11.431337929612599
 20
7.113690086182312
 30
0.0
  0
VERTEX
  5
2915
  8
LAYER_1
 10
11.431337929612599
 20
7.0071024485425211
 30
0.0
  0
SEQEND
  5
2916
  8
LAYER_1
  0
LINE
  5
2917
  8
LAYER_1
 10
11.431337929612599
 20
7.113690086182312
 30
0.0
 11
11.431337929612599
 21
7.0071024485425211
 31
0.0
  0
LINE
  5
2918
  8
LAYER_1
 10
11.431337929612599
 20
7.113690086182312
 30
0.0
 11
11.431337929612599
 21
7.0071024485425211
 31
0.0
  0
POLYLINE
  5
2919
  8
LAYER_1
 66
     1
 10
0.0
 20
0.0
 30
0.0
  0
VERTEX
  5
291A
  8
LAYER_1
 10
11.431337929612599
 20
7.113690086182312
 30
0.0
  0
VERTEX
  5
291B
  8
LAYER_1
 10
11.537708925712471
 20
7.113690086182312
 30
0.0
  0
VERTEX
  5
291C
  8
LAYER_1
 10
11.537708925712471
 20
7.0071024485425211
 30
0.0
  0
SEQEND
  5
291D
  8
LAYER_1
  0
POLYLINE
  5
291E
  8
LAYER_1
 66
     1
 10
0.0
 20
0.0
 30
0.0
  0
VERTEX
  5
291F
  8
LAYER_1
 10
11.537708925712471
 20
7.113690086182312
 30
0.0
  0
VERTEX
  5
2920
  8
LAYER_1
 10
11.537708925712471
 20
7.2202777238220959
 30
0.0
  0
VERTEX
  5
2921
  8
LAYER_1
 10
11.537708925712471
 20
7.113690086182312
 30
0.0
  0
SEQEND
  5
2922
  8
LAYER_1
  0
POLYLINE
  5
2923
  8
LAYER_1
 66
     1
 10
0.0
 20
0.0
 30
0.0
  0
VERTEX
  5
2924
  8
LAYER_1
 10
11.537708925712471
 20
7.2202777238220959
 30
0.0
  0
VERTEX
  5
2925
  8
LAYER_1
 10
11.64429656335226
 20
7.2202777238220959
 30
0.0
  0
VERTEX
  5
2926
  8
LAYER_1
 10
11.64429656335226
 20
7.113690086182312
 30
0.0
  0
SEQEND
  5
2927
  8
LAYER_1
  0
LINE
  5
2928
  8
LAYER_1
 10
11.64429656335226
 20
7.2202777238220959
 30
0.0
 11
11.64429656335226
 21
7.113690086182312
 31
0.0
  0
POLYLINE
  5
2929
  8
LAYER_1
 66
     1
 10
0.0
 20
0.0
 30
0.0
  0
VERTEX
  5
292A
  8
LAYER_1
 10
11.64429656335226
 20
7.2202777238220959
 30
0.0
  0
VERTEX
  5
292B
  8
LAYER_1
 10
11.64429656335226
 20
7.3264320783820507
 30
0.0
  0
VERTEX
  5
292C
  8
LAYER_1
 10
11.750667559452131
 20
7.5396073536616264
 30
0.0
  0
SEQEND
  5
292D
  8
LAYER_1
  0
POLYLINE
  5
292E
  8
LAYER_1
 66
     1
 10
0.0
 20
0.0
 30
0.0
  0
VERTEX
  5
292F
  8
LAYER_1
 10
11.750667559452131
 20
7.4330197160218461
 30
0.0
  0
VERTEX
  5
2930
  8
LAYER_1
 10
11.85725519709192
 20
7.4330197160218461
 30
0.0
  0
VERTEX
  5
2931
  8
LAYER_1
 10
11.85725519709192
 20
7.3264320783820507
 30
0.0
  0
SEQEND
  5
2932
  8
LAYER_1
  0
POLYLINE
  5
2933
  8
LAYER_1
 66
     1
 10
0.0
 20
0.0
 30
0.0
  0
VERTEX
  5
2934
  8
LAYER_1
 10
11.85725519709192
 20
7.4330197160218461
 30
0.0
  0
VERTEX
  5
2935
  8
LAYER_1
 10
12.070213830831619
 20
7.4330197160218461
 30
0.0
  0
VERTEX
  5
2936
  8
LAYER_1
 10
12.070213830831619
 20
7.5396073536616264
 30
0.0
  0
VERTEX
  5
2937
  8
LAYER_1
 10
12.17658482693148
 20
7.5396073536616264
 30
0.0
  0
VERTEX
  5
2938
  8
LAYER_1
 10
12.17658482693148
 20
7.4330197160218461
 30
0.0
  0
SEQEND
  5
2939
  8
LAYER_1
  0
POLYLINE
  5
293A
  8
LAYER_1
 66
     1
 10
0.0
 20
0.0
 30
0.0
  0
VERTEX
  5
293B
  8
LAYER_1
 10
12.17658482693148
 20
7.5396073536616264
 30
0.0
  0
VERTEX
  5
293C
  8
LAYER_1
 10
12.389543460671151
 20
7.5396073536616264
 30
0.0
  0
VERTEX
  5
293D
  8
LAYER_1
 10
12.389543460671151
 20
7.4330197160218461
 30
0.0
  0
SEQEND
  5
293E
  8
LAYER_1
  0
POLYLINE
  5
293F
  8
LAYER_1
 66
     1
 10
0.0
 20
0.0
 30
0.0
  0
VERTEX
  5
2940
  8
LAYER_1
 10
12.389543460671151
 20
7.5396073536616264
 30
0.0
  0
VERTEX
  5
2941
  8
LAYER_1
 10
12.49613109831094
 20
7.5396073536616264
 30
0.0
  0
VERTEX
  5
2942
  8
LAYER_1
 10
12.49613109831094
 20
7.4330197160218461
 30
0.0
  0
SEQEND
  5
2943
  8
LAYER_1
  0
POLYLINE
  5
2944
  8
LAYER_1
 66
     1
 10
0.0
 20
0.0
 30
0.0
  0
VERTEX
  5
2945
  8
LAYER_1
 10
12.49613109831094
 20
7.5396073536616264
 30
0.0
  0
VERTEX
  5
2946
  8
LAYER_1
 10
12.602502094410809
 20
7.5396073536616264
 30
0.0
  0
VERTEX
  5
2947
  8
LAYER_1
 10
12.602502094410809
 20
7.4330197160218461
 30
0.0
  0
SEQEND
  5
2948
  8
LAYER_1
  0
POLYLINE
  5
2949
  8
LAYER_1
 66
     1
 10
0.0
 20
0.0
 30
0.0
  0
VERTEX
  5
294A
  8
LAYER_1
 10
12.602502094410809
 20
7.5396073536616264
 30
0.0
  0
VERTEX
  5
294B
  8
LAYER_1
 10
12.709089732050581
 20
7.5396073536616264
 30
0.0
  0
VERTEX
  5
294C
  8
LAYER_1
 10
12.709089732050581
 20
7.6461949913014351
 30
0.0
  0
VERTEX
  5
294D
  8
LAYER_1
 10
12.815460728150461
 20
7.6461949913014351
 30
0.0
  0
VERTEX
  5
294E
  8
LAYER_1
 10
12.815460728150461
 20
7.5396073536616264
 30
0.0
  0
SEQEND
  5
294F
  8
LAYER_1
  0
POLYLINE
  5
2950
  8
LAYER_1
 66
     1
 10
0.0
 20
0.0
 30
0.0
  0
VERTEX
  5
2951
  8
LAYER_1
 10
12.815460728150461
 20
7.6461949913014351
 30
0.0
  0
VERTEX
  5
2952
  8
LAYER_1
 10
12.922048365790261
 20
7.6461949913014351
 30
0.0
  0
VERTEX
  5
2953
  8
LAYER_1
 10
12.922048365790261
 20
7.5396073536616264
 30
0.0
  0
SEQEND
  5
2954
  8
LAYER_1
  0
POLYLINE
  5
2955
  8
LAYER_1
 66
     1
 10
0.0
 20
0.0
 30
0.0
  0
VERTEX
  5
2956
  8
LAYER_1
 10
12.922048365790261
 20
7.6461949913014351
 30
0.0
  0
VERTEX
  5
2957
  8
LAYER_1
 10
13.135006999529921
 20
7.6461949913014351
 30
0.0
  0
VERTEX
  5
2958
  8
LAYER_1
 10
13.135006999529921
 20
7.5396073536616264
 30
0.0
  0
SEQEND
  5
2959
  8
LAYER_1
  0
POLYLINE
  5
295A
  8
LAYER_1
 66
     1
 10
0.0
 20
0.0
 30
0.0
  0
VERTEX
  5
295B
  8
LAYER_1
 10
13.135006999529921
 20
7.6461949913014351
 30
0.0
  0
VERTEX
  5
295C
  8
LAYER_1
 10
13.241377995629801
 20
7.752349345861389
 30
0.0
  0
VERTEX
  5
295D
  8
LAYER_1
 10
13.241377995629801
 20
7.6461949913014351
 30
0.0
  0
SEQEND
  5
295E
  8
LAYER_1
  0
POLYLINE
  5
295F
  8
LAYER_1
 66
     1
 10
0.0
 20
0.0
 30
0.0
  0
VERTEX
  5
2960
  8
LAYER_1
 10
13.241377995629801
 20
7.752349345861389
 30
0.0
  0
VERTEX
  5
2961
  8
LAYER_1
 10
13.34796563326957
 20
7.752349345861389
 30
0.0
  0
VERTEX
  5
2962
  8
LAYER_1
 10
13.34796563326957
 20
7.6461949913014351
 30
0.0
  0
SEQEND
  5
2963
  8
LAYER_1
  0
LINE
  5
2964
  8
LAYER_1
 10
13.34796563326957
 20
7.752349345861389
 30
0.0
 11
13.45433662936944
 21
7.752349345861389
 31
0.0
  0
POLYLINE
  5
2965
  8
LAYER_1
 66
     1
 10
0.0
 20
0.0
 30
0.0
  0
VERTEX
  5
2966
  8
LAYER_1
 10
-10.397896915632471
 20
7.9655246211409638
 30
0.0
  0
VERTEX
  5
2967
  8
LAYER_1
 10
-10.184938281892819
 20
7.9655246211409638
 30
0.0
  0
VERTEX
  5
2968
  8
LAYER_1
 10
-10.184938281892819
 20
7.8589369835011773
 30
0.0
  0
SEQEND
  5
2969
  8
LAYER_1
  0
POLYLINE
  5
296A
  8
LAYER_1
 66
     1
 10
0.0
 20
0.0
 30
0.0
  0
VERTEX
  5
296B
  8
LAYER_1
 10
-10.184938281892819
 20
7.9655246211409638
 30
0.0
  0
VERTEX
  5
296C
  8
LAYER_1
 10
-9.9719796481531588
 20
7.9655246211409638
 30
0.0
  0
VERTEX
  5
296D
  8
LAYER_1
 10
-9.9719796481531588
 20
7.8589369835011773
 30
0.0
  0
SEQEND
  5
296E
  8
LAYER_1
  0
POLYLINE
  5
296F
  8
LAYER_1
 66
     1
 10
0.0
 20
0.0
 30
0.0
  0
VERTEX
  5
2970
  8
LAYER_1
 10
-9.9719796481531588
 20
7.9655246211409638
 30
0.0
  0
VERTEX
  5
2971
  8
LAYER_1
 10
-9.7590210144135057
 20
7.9655246211409638
 30
0.0
  0
VERTEX
  5
2972
  8
LAYER_1
 10
-9.7590210144135057
 20
7.8589369835011773
 30
0.0
  0
SEQEND
  5
2973
  8
LAYER_1
  0
POLYLINE
  5
2974
  8
LAYER_1
 66
     1
 10
0.0
 20
0.0
 30
0.0
  0
VERTEX
  5
2975
  8
LAYER_1
 10
-9.7590210144135057
 20
7.9655246211409638
 30
0.0
  0
VERTEX
  5
2976
  8
LAYER_1
 10
-9.6524333767736863
 20
8.0721122587807628
 30
0.0
  0
VERTEX
  5
2977
  8
LAYER_1
 10
-9.439474743034026
 20
8.0721122587807628
 30
0.0
  0
VERTEX
  5
2978
  8
LAYER_1
 10
-9.439474743034026
 20
7.9655246211409638
 30
0.0
  0
SEQEND
  5
2979
  8
LAYER_1
  0
POLYLINE
  5
297A
  8
LAYER_1
 66
     1
 10
0.0
 20
0.0
 30
0.0
  0
VERTEX
  5
297B
  8
LAYER_1
 10
-9.439474743034026
 20
8.0721122587807628
 30
0.0
  0
VERTEX
  5
297C
  8
LAYER_1
 10
-9.0135574755546912
 20
8.0721122587807628
 30
0.0
  0
VERTEX
  5
297D
  8
LAYER_1
 10
-9.0135574755546912
 20
7.9655246211409638
 30
0.0
  0
SEQEND
  5
297E
  8
LAYER_1
  0
POLYLINE
  5
297F
  8
LAYER_1
 66
     1
 10
0.0
 20
0.0
 30
0.0
  0
VERTEX
  5
2980
  8
LAYER_1
 10
-9.0135574755546912
 20
8.0721122587807628
 30
0.0
  0
VERTEX
  5
2981
  8
LAYER_1
 10
-8.4812692119754942
 20
8.0721122587807628
 30
0.0
  0
VERTEX
  5
2982
  8
LAYER_1
 10
-8.4812692119754942
 20
7.9655246211409638
 30
0.0
  0
SEQEND
  5
2983
  8
LAYER_1
  0
POLYLINE
  5
2984
  8
LAYER_1
 66
     1
 10
0.0
 20
0.0
 30
0.0
  0
VERTEX
  5
2985
  8
LAYER_1
 10
-8.4812692119754942
 20
8.0721122587807628
 30
0.0
  0
VERTEX
  5
2986
  8
LAYER_1
 10
-8.1617229405960501
 20
8.0721122587807628
 30
0.0
  0
VERTEX
  5
2987
  8
LAYER_1
 10
-8.0553519444961879
 20
8.178266613340714
 30
0.0
  0
VERTEX
  5
2988
  8
LAYER_1
 10
-7.8423933107565196
 20
8.178266613340714
 30
0.0
  0
VERTEX
  5
2989
  8
LAYER_1
 10
-7.8423933107565196
 20
8.0721122587807628
 30
0.0
  0
SEQEND
  5
298A
  8
LAYER_1
  0
POLYLINE
  5
298B
  8
LAYER_1
 66
     1
 10
0.0
 20
0.0
 30
0.0
  0
VERTEX
  5
298C
  8
LAYER_1
 10
-7.8423933107565196
 20
8.178266613340714
 30
0.0
  0
VERTEX
  5
298D
  8
LAYER_1
 10
-6.9903421342579426
 20
8.178266613340714
 30
0.0
  0
VERTEX
  5
298E
  8
LAYER_1
 10
-6.9903421342579426
 20
8.0721122587807628
 30
0.0
  0
SEQEND
  5
298F
  8
LAYER_1
  0
POLYLINE
  5
2990
  8
LAYER_1
 66
     1
 10
0.0
 20
0.0
 30
0.0
  0
VERTEX
  5
2991
  8
LAYER_1
 10
-6.9903421342579426
 20
8.178266613340714
 30
0.0
  0
VERTEX
  5
2992
  8
LAYER_1
 10
-6.0321366031994108
 20
8.178266613340714
 30
0.0
  0
VERTEX
  5
2993
  8
LAYER_1
 10
-6.0321366031994108
 20
8.0721122587807628
 30
0.0
  0
SEQEND
  5
2994
  8
LAYER_1
  0
POLYLINE
  5
2995
  8
LAYER_1
 66
     1
 10
0.0
 20
0.0
 30
0.0
  0
VERTEX
  5
2996
  8
LAYER_1
 10
-6.0321366031994108
 20
8.178266613340714
 30
0.0
  0
VERTEX
  5
2997
  8
LAYER_1
 10
-5.6062193357201053
 20
8.178266613340714
 30
0.0
  0
VERTEX
  5
2998
  8
LAYER_1
 10
0.2504680544304989
 20
8.2848542509805014
 30
0.0
  0
SEQEND
  5
2999
  8
LAYER_1
  0
LINE
  5
299A
  8
LAYER_1
 10
5.0421456343428943
 20
6.581185181063204
 30
0.0
 11
5.2551042680825466
 21
6.581185181063204
 31
0.0
  0
LINE
  5
299B
  8
LAYER_1
 10
5.0421456343428943
 20
6.581185181063204
 30
0.0
 11
4.8291870006032189
 21
6.581185181063204
 31
0.0
  0
LINE
  5
299C
  8
LAYER_1
 10
4.0839401032843616
 20
6.581185181063204
 30
0.0
 11
4.935774638243017
 21
6.581185181063204
 31
0.0
  0
LINE
  5
299D
  8
LAYER_1
 10
4.8291870006032189
 20
6.581185181063204
 30
0.0
 11
4.8291870006032189
 21
6.4745975434234104
 31
0.0
  0
LINE
  5
299E
  8
LAYER_1
 10
4.0839401032843616
 20
6.581185181063204
 30
0.0
 11
4.0839401032843616
 21
6.4745975434234104
 31
0.0
  0
LINE
  5
299F
  8
LAYER_1
 10
10.47291575701416
 20
7.4330197160218461
 30
0.0
 11
10.792245386853709
 21
7.4330197160218461
 31
0.0
  0
LINE
  5
29A0
  8
LAYER_1
 10
1.528219856868503
 20
4.877516111145904
 30
0.0
 11
0.1438804167907222
 21
4.877516111145904
 31
0.0
  0
LINE
  5
29A1
  8
LAYER_1
 10
-9.2265161092943657
 20
5.6227630084647577
 30
0.0
 11
-3.7959626281630028
 21
5.6227630084647577
 31
0.0
  0
LINE
  5
29A2
  8
LAYER_1
 10
5.2551042680825466
 20
5.6227630084647577
 30
0.0
 11
10.792245386853709
 21
5.6227630084647577
 31
0.0
  0
LINE
  5
29A3
  8
LAYER_1
 10
1.8477661282479541
 20
5.7293506461045416
 30
0.0
 11
-0.2820368506886126
 21
5.7293506461045416
 31
0.0
  0
LINE
  5
29A4
  8
LAYER_1
 10
2.167095758087477
 20
5.9420926383042882
 30
0.0
 11
-0.707954118167919
 21
5.9420926383042882
 31
0.0
  0
LINE
  5
29A5
  8
LAYER_1
 10
-0.707954118167919
 20
6.2618555512236682
 30
0.0
 11
2.167095758087477
 21
6.2618555512236682
 31
0.0
  0
LINE
  5
29A6
  8
LAYER_1
 10
-5.2866730643406319
 20
6.9005148109027301
 30
0.0
 11
-3.7959626281630028
 21
6.9005148109027301
 31
0.0
  0
LINE
  5
29A7
  8
LAYER_1
 10
-0.1754492130488074
 20
6.581185181063204
 30
0.0
 11
4.0839401032843616
 21
6.581185181063204
 31
0.0
  0
LINE
  5
29A8
  8
LAYER_1
 10
1.7411784906081349
 20
6.581185181063204
 30
0.0
 11
4.0839401032843616
 21
6.581185181063204
 31
0.0
  0
LINE
  5
29A9
  8
LAYER_1
 10
-9.2265161092943657
 20
7.4330197160218461
 30
0.0
 11
-8.9071864794548201
 21
7.4330197160218461
 31
0.0
  0
LINE
  5
29AA
  8
LAYER_1
 10
-10.184938281892819
 20
7.4330197160218461
 30
0.0
 11
-10.184938281892819
 21
7.3264320783820507
 31
0.0
  0
LINE
  5
29AB
  8
LAYER_1
 10
6.7460313458001124
 20
5.6227630084647577
 30
0.0
 11
6.7460313458001124
 21
7.4330197160218461
 31
0.0
  0
LINE
  5
29AC
  8
LAYER_1
 10
5.2551042680825466
 20
5.6227630084647577
 30
0.0
 11
5.2551042680825466
 21
6.7943604563427717
 31
0.0
  0
LINE
  5
29AD
  8
LAYER_1
 10
1.528219856868503
 20
4.9841037487856852
 30
0.0
 11
1.528219856868503
 21
4.877516111145904
 31
0.0
  0
POLYLINE
  5
29AE
  8
LAYER_1
 66
     1
 10
0.0
 20
0.0
 30
0.0
  0
VERTEX
  5
29AF
  8
LAYER_1
 10
1.528219856868503
 20
4.9841037487856852
 30
0.0
  0
VERTEX
  5
29B0
  8
LAYER_1
 10
1.634807494508272
 20
4.9841037487856852
 30
0.0
  0
VERTEX
  5
29B1
  8
LAYER_1
 10
1.634807494508272
 20
4.877516111145904
 30
0.0
  0
SEQEND
  5
29B2
  8
LAYER_1
  0
LINE
  5
29B3
  8
LAYER_1
 10
1.634807494508272
 20
4.9841037487856852
 30
0.0
 11
1.634807494508272
 21
4.877516111145904
 31
0.0
  0
LINE
  5
29B4
  8
LAYER_1
 10
1.634807494508272
 20
4.9841037487856852
 30
0.0
 11
1.634807494508272
 21
4.877516111145904
 31
0.0
  0
POLYLINE
  5
29B5
  8
LAYER_1
 66
     1
 10
0.0
 20
0.0
 30
0.0
  0
VERTEX
  5
29B6
  8
LAYER_1
 10
1.634807494508272
 20
4.9841037487856852
 30
0.0
  0
VERTEX
  5
29B7
  8
LAYER_1
 10
1.634807494508272
 20
5.0902581033456427
 30
0.0
  0
VERTEX
  5
29B8
  8
LAYER_1
 10
1.634807494508272
 20
4.9841037487856852
 30
0.0
  0
SEQEND
  5
29B9
  8
LAYER_1
  0
LINE
  5
29BA
  8
LAYER_1
 10
1.634807494508272
 20
5.0902581033456427
 30
0.0
 11
1.634807494508272
 21
4.9841037487856852
 31
0.0
  0
LINE
  5
29BB
  8
LAYER_1
 10
1.634807494508272
 20
5.0902581033456427
 30
0.0
 11
1.634807494508272
 21
4.9841037487856852
 31
0.0
  0
LINE
  5
29BC
  8
LAYER_1
 10
1.634807494508272
 20
5.0902581033456427
 30
0.0
 11
1.634807494508272
 21
4.9841037487856852
 31
0.0
  0
POLYLINE
  5
29BD
  8
LAYER_1
 66
     1
 10
0.0
 20
0.0
 30
0.0
  0
VERTEX
  5
29BE
  8
LAYER_1
 10
1.634807494508272
 20
5.0902581033456427
 30
0.0
  0
VERTEX
  5
29BF
  8
LAYER_1
 10
1.528219856868503
 20
5.0902581033456427
 30
0.0
  0
VERTEX
  5
29C0
  8
LAYER_1
 10
1.528219856868503
 20
5.1968457409854274
 30
0.0
  0
VERTEX
  5
29C1
  8
LAYER_1
 10
1.528219856868503
 20
5.0902581033456427
 30
0.0
  0
SEQEND
  5
29C2
  8
LAYER_1
  0
LINE
  5
29C3
  8
LAYER_1
 10
1.528219856868503
 20
5.1968457409854274
 30
0.0
 11
1.528219856868503
 21
5.0902581033456427
 31
0.0
  0
LINE
  5
29C4
  8
LAYER_1
 10
1.528219856868503
 20
5.1968457409854274
 30
0.0
 11
1.528219856868503
 21
5.0902581033456427
 31
0.0
  0
LINE
  5
29C5
  8
LAYER_1
 10
19.311024019520069
 20
27.66517312898943
 30
0.0
 11
19.311024019520069
 21
27.558585491349628
 31
0.0
  0
LINE
  5
29C6
  8
LAYER_1
 10
19.311024019520069
 20
27.66517312898943
 30
0.0
 11
19.311024019520069
 21
27.558585491349628
 31
0.0
  0
LINE
  5
29C7
  8
LAYER_1
 10
1.528219856868503
 20
5.1968457409854274
 30
0.0
 11
1.528219856868503
 21
5.0902581033456427
 31
0.0
  0
LINE
  5
29C8
  8
LAYER_1
 10
1.528219856868503
 20
5.1968457409854274
 30
0.0
 11
1.528219856868503
 21
5.0902581033456427
 31
0.0
  0
LINE
  5
29C9
  8
LAYER_1
 10
1.528219856868503
 20
5.1968457409854274
 30
0.0
 11
1.528219856868503
 21
5.0902581033456427
 31
0.0
  0
LINE
  5
29CA
  8
LAYER_1
 10
1.528219856868503
 20
5.1968457409854274
 30
0.0
 11
1.528219856868503
 21
5.0902581033456427
 31
0.0
  0
POLYLINE
  5
29CB
  8
LAYER_1
 66
     1
 10
0.0
 20
0.0
 30
0.0
  0
VERTEX
  5
29CC
  8
LAYER_1
 10
1.528219856868503
 20
5.1968457409854274
 30
0.0
  0
VERTEX
  5
29CD
  8
LAYER_1
 10
1.421848860768619
 20
5.0902581033456427
 30
0.0
  0
VERTEX
  5
29CE
  8
LAYER_1
 10
1.421848860768619
 20
4.9841037487856852
 30
0.0
  0
SEQEND
  5
29CF
  8
LAYER_1
  0
LINE
  5
29D0
  8
LAYER_1
 10
1.421848860768619
 20
5.0902581033456427
 30
0.0
 11
1.421848860768619
 21
4.9841037487856852
 31
0.0
  0
LINE
  5
29D1
  8
LAYER_1
 10
1.421848860768619
 20
5.0902581033456427
 30
0.0
 11
1.421848860768619
 21
4.9841037487856852
 31
0.0
  0
LINE
  5
29D2
  8
LAYER_1
 10
1.421848860768619
 20
5.0902581033456427
 30
0.0
 11
1.421848860768619
 21
4.9841037487856852
 31
0.0
  0
LINE
  5
29D3
  8
LAYER_1
 10
1.421848860768619
 20
5.0902581033456427
 30
0.0
 11
1.421848860768619
 21
4.9841037487856852
 31
0.0
  0
LINE
  5
29D4
  8
LAYER_1
 10
1.421848860768619
 20
5.0902581033456427
 30
0.0
 11
1.421848860768619
 21
4.9841037487856852
 31
0.0
  0
POLYLINE
  5
29D5
  8
LAYER_1
 66
     1
 10
0.0
 20
0.0
 30
0.0
  0
VERTEX
  5
29D6
  8
LAYER_1
 10
1.421848860768619
 20
5.0902581033456427
 30
0.0
  0
VERTEX
  5
29D7
  8
LAYER_1
 10
1.421848860768619
 20
4.9841037487856852
 30
0.0
  0
VERTEX
  5
29D8
  8
LAYER_1
 10
1.315261223128821
 20
4.877516111145904
 30
0.0
  0
SEQEND
  5
29D9
  8
LAYER_1
  0
LINE
  5
29DA
  8
LAYER_1
 10
10.792245386853709
 20
7.0071024485425211
 30
0.0
 11
10.792245386853709
 21
6.9005148109027301
 31
0.0
  0
LINE
  5
29DB
  8
LAYER_1
 10
10.792245386853709
 20
7.0071024485425211
 30
0.0
 11
10.8988330244935
 21
7.0071024485425211
 31
0.0
  0
LINE
  5
29DC
  8
LAYER_1
 10
5.1487332719826711
 20
8.2848542509805014
 30
0.0
 11
0.5700143258099857
 21
8.2848542509805014
 31
0.0
  0
LINE
  5
29DD
  8
LAYER_1
 10
4.935774638243017
 20
6.581185181063204
 30
0.0
 11
5.2551042680825466
 21
6.581185181063204
 31
0.0
  0
POLYLINE
  5
29DE
  8
LAYER_1
 66
     1
 10
0.0
 20
0.0
 30
0.0
  0
VERTEX
  5
29DF
  8
LAYER_1
 10
6.7460313458001124
 20
6.9005148109027301
 30
0.0
  0
VERTEX
  5
29E0
  8
LAYER_1
 10
6.0005678069413122
 20
6.9005148109027301
 30
0.0
  0
VERTEX
  5
29E1
  8
LAYER_1
 10
5.787609173201659
 20
6.7943604563427717
 30
0.0
  0
VERTEX
  5
29E2
  8
LAYER_1
 10
5.2551042680825466
 20
6.7943604563427717
 30
0.0
  0
SEQEND
  5
29E3
  8
LAYER_1
  0
LINE
  5
29E4
  8
LAYER_1
 10
10.47291575701416
 20
7.4330197160218461
 30
0.0
 11
6.7460313458001124
 21
7.4330197160218461
 31
0.0
  0
LINE
  5
29E5
  8
LAYER_1
 10
-5.2866730643406319
 20
7.4330197160218461
 30
0.0
 11
-8.9071864794548201
 21
7.4330197160218461
 31
0.0
  0
POLYLINE
  5
29E6
  8
LAYER_1
 66
     1
 10
0.0
 20
0.0
 30
0.0
  0
VERTEX
  5
29E7
  8
LAYER_1
 10
-10.184938281892819
 20
7.4330197160218461
 30
0.0
  0
VERTEX
  5
29E8
  8
LAYER_1
 10
-10.397896915632471
 20
7.4330197160218461
 30
0.0
  0
VERTEX
  5
29E9
  8
LAYER_1
 10
-10.397896915632471
 20
7.5396073536616264
 30
0.0
  0
VERTEX
  5
29EA
  8
LAYER_1
 10
-10.61085554937212
 20
7.5396073536616264
 30
0.0
  0
VERTEX
  5
29EB
  8
LAYER_1
 10
-10.61085554937212
 20
7.4330197160218461
 30
0.0
  0
SEQEND
  5
29EC
  8
LAYER_1
  0
POLYLINE
  5
29ED
  8
LAYER_1
 66
     1
 10
0.0
 20
0.0
 30
0.0
  0
VERTEX
  5
29EE
  8
LAYER_1
 10
-10.61085554937212
 20
7.5396073536616264
 30
0.0
  0
VERTEX
  5
29EF
  8
LAYER_1
 10
-10.71744318701194
 20
7.5396073536616264
 30
0.0
  0
VERTEX
  5
29F0
  8
LAYER_1
 10
-10.71744318701194
 20
7.4330197160218461
 30
0.0
  0
SEQEND
  5
29F1
  8
LAYER_1
  0
POLYLINE
  5
29F2
  8
LAYER_1
 66
     1
 10
0.0
 20
0.0
 30
0.0
  0
VERTEX
  5
29F3
  8
LAYER_1
 10
-10.71744318701194
 20
7.5396073536616264
 30
0.0
  0
VERTEX
  5
29F4
  8
LAYER_1
 10
-10.823814183111811
 20
7.5396073536616264
 30
0.0
  0
VERTEX
  5
29F5
  8
LAYER_1
 10
-10.823814183111811
 20
7.4330197160218461
 30
0.0
  0
SEQEND
  5
29F6
  8
LAYER_1
  0
LINE
  5
29F7
  8
LAYER_1
 10
-10.823814183111811
 20
7.5396073536616264
 30
0.0
 11
-10.823814183111811
 21
7.4330197160218461
 31
0.0
  0
POLYLINE
  5
29F8
  8
LAYER_1
 66
     1
 10
0.0
 20
0.0
 30
0.0
  0
VERTEX
  5
29F9
  8
LAYER_1
 10
-10.823814183111811
 20
7.5396073536616264
 30
0.0
  0
VERTEX
  5
29FA
  8
LAYER_1
 10
-10.93040182075157
 20
7.5396073536616264
 30
0.0
  0
VERTEX
  5
29FB
  8
LAYER_1
 10
-10.93040182075157
 20
7.4330197160218461
 30
0.0
  0
SEQEND
  5
29FC
  8
LAYER_1
  0
POLYLINE
  5
29FD
  8
LAYER_1
 66
     1
 10
0.0
 20
0.0
 30
0.0
  0
VERTEX
  5
29FE
  8
LAYER_1
 10
-10.93040182075157
 20
7.5396073536616264
 30
0.0
  0
VERTEX
  5
29FF
  8
LAYER_1
 10
-11.03677281685146
 20
7.6461949913014351
 30
0.0
  0
VERTEX
  5
2A00
  8
LAYER_1
 10
-11.03677281685146
 20
7.5396073536616264
 30
0.0
  0
SEQEND
  5
2A01
  8
LAYER_1
  0
LINE
  5
2A02
  8
LAYER_1
 10
-11.03677281685146
 20
7.6461949913014351
 30
0.0
 11
-11.03677281685146
 21
7.5396073536616264
 31
0.0
  0
LINE
  5
2A03
  8
LAYER_1
 10
-11.03677281685146
 20
7.6461949913014351
 30
0.0
 11
-11.03677281685146
 21
7.5396073536616264
 31
0.0
  0
POLYLINE
  5
2A04
  8
LAYER_1
 66
     1
 10
0.0
 20
0.0
 30
0.0
  0
VERTEX
  5
2A05
  8
LAYER_1
 10
-11.03677281685146
 20
7.6461949913014351
 30
0.0
  0
VERTEX
  5
2A06
  8
LAYER_1
 10
-11.143360454491241
 20
7.6461949913014351
 30
0.0
  0
VERTEX
  5
2A07
  8
LAYER_1
 10
-11.143360454491241
 20
7.5396073536616264
 30
0.0
  0
SEQEND
  5
2A08
  8
LAYER_1
  0
LINE
  5
2A09
  8
LAYER_1
 10
-11.143360454491241
 20
7.6461949913014351
 30
0.0
 11
-11.143360454491241
 21
7.5396073536616264
 31
0.0
  0
LINE
  5
2A0A
  8
LAYER_1
 10
-11.143360454491241
 20
7.6461949913014351
 30
0.0
 11
-11.143360454491241
 21
7.5396073536616264
 31
0.0
  0
LINE
  5
2A0B
  8
LAYER_1
 10
-11.143360454491241
 20
7.6461949913014351
 30
0.0
 11
-11.143360454491241
 21
7.5396073536616264
 31
0.0
  0
LINE
  5
2A0C
  8
LAYER_1
 10
-11.143360454491241
 20
7.6461949913014351
 30
0.0
 11
-11.143360454491241
 21
7.5396073536616264
 31
0.0
  0
POLYLINE
  5
2A0D
  8
LAYER_1
 66
     1
 10
0.0
 20
0.0
 30
0.0
  0
VERTEX
  5
2A0E
  8
LAYER_1
 10
-11.143360454491241
 20
7.6461949913014351
 30
0.0
  0
VERTEX
  5
2A0F
  8
LAYER_1
 10
-11.143360454491241
 20
7.752349345861389
 30
0.0
  0
VERTEX
  5
2A10
  8
LAYER_1
 10
-11.143360454491241
 20
7.6461949913014351
 30
0.0
  0
SEQEND
  5
2A11
  8
LAYER_1
  0
LINE
  5
2A12
  8
LAYER_1
 10
-11.143360454491241
 20
7.752349345861389
 30
0.0
 11
-11.143360454491241
 21
7.6461949913014351
 31
0.0
  0
LINE
  5
2A13
  8
LAYER_1
 10
-11.143360454491241
 20
7.752349345861389
 30
0.0
 11
-11.143360454491241
 21
7.6461949913014351
 31
0.0
  0
LINE
  5
2A14
  8
LAYER_1
 10
-11.143360454491241
 20
7.752349345861389
 30
0.0
 11
-11.143360454491241
 21
7.6461949913014351
 31
0.0
  0
LINE
  5
2A15
  8
LAYER_1
 10
-11.143360454491241
 20
7.752349345861389
 30
0.0
 11
-11.143360454491241
 21
7.6461949913014351
 31
0.0
  0
LINE
  5
2A16
  8
LAYER_1
 10
-11.143360454491241
 20
7.752349345861389
 30
0.0
 11
-11.143360454491241
 21
7.6461949913014351
 31
0.0
  0
LINE
  5
2A17
  8
LAYER_1
 10
-11.143360454491241
 20
7.752349345861389
 30
0.0
 11
-11.143360454491241
 21
7.6461949913014351
 31
0.0
  0
LINE
  5
2A18
  8
LAYER_1
 10
-11.143360454491241
 20
7.752349345861389
 30
0.0
 11
-11.143360454491241
 21
7.6461949913014351
 31
0.0
  0
POLYLINE
  5
2A19
  8
LAYER_1
 66
     1
 10
0.0
 20
0.0
 30
0.0
  0
VERTEX
  5
2A1A
  8
LAYER_1
 10
-11.143360454491241
 20
7.752349345861389
 30
0.0
  0
VERTEX
  5
2A1B
  8
LAYER_1
 10
-11.03677281685146
 20
7.752349345861389
 30
0.0
  0
VERTEX
  5
2A1C
  8
LAYER_1
 10
-11.03677281685146
 20
7.8589369835011773
 30
0.0
  0
VERTEX
  5
2A1D
  8
LAYER_1
 10
-11.03677281685146
 20
7.752349345861389
 30
0.0
  0
SEQEND
  5
2A1E
  8
LAYER_1
  0
POLYLINE
  5
2A1F
  8
LAYER_1
 66
     1
 10
0.0
 20
0.0
 30
0.0
  0
VERTEX
  5
2A20
  8
LAYER_1
 10
-11.03677281685146
 20
7.8589369835011773
 30
0.0
  0
VERTEX
  5
2A21
  8
LAYER_1
 10
-10.93040182075157
 20
7.8589369835011773
 30
0.0
  0
VERTEX
  5
2A22
  8
LAYER_1
 10
-10.93040182075157
 20
7.752349345861389
 30
0.0
  0
SEQEND
  5
2A23
  8
LAYER_1
  0
LINE
  5
2A24
  8
LAYER_1
 10
-10.93040182075157
 20
7.8589369835011773
 30
0.0
 11
-10.93040182075157
 21
7.752349345861389
 31
0.0
  0
POLYLINE
  5
2A25
  8
LAYER_1
 66
     1
 10
0.0
 20
0.0
 30
0.0
  0
VERTEX
  5
2A26
  8
LAYER_1
 10
-10.93040182075157
 20
7.8589369835011773
 30
0.0
  0
VERTEX
  5
2A27
  8
LAYER_1
 10
-10.823814183111811
 20
7.8589369835011773
 30
0.0
  0
VERTEX
  5
2A28
  8
LAYER_1
 10
-10.823814183111811
 20
7.752349345861389
 30
0.0
  0
SEQEND
  5
2A29
  8
LAYER_1
  0
POLYLINE
  5
2A2A
  8
LAYER_1
 66
     1
 10
0.0
 20
0.0
 30
0.0
  0
VERTEX
  5
2A2B
  8
LAYER_1
 10
-10.823814183111811
 20
7.8589369835011773
 30
0.0
  0
VERTEX
  5
2A2C
  8
LAYER_1
 10
-10.71744318701194
 20
7.8589369835011773
 30
0.0
  0
VERTEX
  5
2A2D
  8
LAYER_1
 10
-10.71744318701194
 20
7.752349345861389
 30
0.0
  0
SEQEND
  5
2A2E
  8
LAYER_1
  0
POLYLINE
  5
2A2F
  8
LAYER_1
 66
     1
 10
0.0
 20
0.0
 30
0.0
  0
VERTEX
  5
2A30
  8
LAYER_1
 10
-10.71744318701194
 20
7.8589369835011773
 30
0.0
  0
VERTEX
  5
2A31
  8
LAYER_1
 10
-10.61085554937212
 20
7.8589369835011773
 30
0.0
  0
VERTEX
  5
2A32
  8
LAYER_1
 10
-10.61085554937212
 20
7.752349345861389
 30
0.0
  0
SEQEND
  5
2A33
  8
LAYER_1
  0
POLYLINE
  5
2A34
  8
LAYER_1
 66
     1
 10
0.0
 20
0.0
 30
0.0
  0
VERTEX
  5
2A35
  8
LAYER_1
 10
-10.61085554937212
 20
7.8589369835011773
 30
0.0
  0
VERTEX
  5
2A36
  8
LAYER_1
 10
-10.50448455327227
 20
7.9655246211409638
 30
0.0
  0
VERTEX
  5
2A37
  8
LAYER_1
 10
-10.50448455327227
 20
7.8589369835011773
 30
0.0
  0
SEQEND
  5
2A38
  8
LAYER_1
  0
POLYLINE
  5
2A39
  8
LAYER_1
 66
     1
 10
0.0
 20
0.0
 30
0.0
  0
VERTEX
  5
2A3A
  8
LAYER_1
 10
-10.50448455327227
 20
7.9655246211409638
 30
0.0
  0
VERTEX
  5
2A3B
  8
LAYER_1
 10
-10.397896915632471
 20
7.9655246211409638
 30
0.0
  0
VERTEX
  5
2A3C
  8
LAYER_1
 10
-10.397896915632471
 20
7.8589369835011773
 30
0.0
  0
SEQEND
  5
2A3D
  8
LAYER_1
  0
LINE
  5
2A3E
  8
LAYER_1
 10
-17.851665738060589
 20
27.771327483549371
 30
0.0
 11
-17.851665738060589
 21
27.66517312898943
 31
0.0
  0
LINE
  5
2A3F
  8
LAYER_1
 10
-17.851665738060589
 20
27.771327483549371
 30
0.0
 11
-17.851665738060589
 21
27.66517312898943
 31
0.0
  0
LINE
  5
2A40
  8
LAYER_1
 10
-17.851665738060589
 20
27.771327483549371
 30
0.0
 11
-17.851665738060589
 21
27.66517312898943
 31
0.0
  0
LINE
  5
2A41
  8
LAYER_1
 10
-17.851665738060589
 20
27.771327483549371
 30
0.0
 11
-17.851665738060589
 21
27.66517312898943
 31
0.0
  0
LINE
  5
2A42
  8
LAYER_1
 10
-17.851665738060589
 20
27.771327483549371
 30
0.0
 11
-17.851665738060589
 21
27.66517312898943
 31
0.0
  0
POLYLINE
  5
2A43
  8
LAYER_1
 66
     1
 10
0.0
 20
0.0
 30
0.0
  0
VERTEX
  5
2A44
  8
LAYER_1
 10
-17.851665738060589
 20
27.771327483549371
 30
0.0
  0
VERTEX
  5
2A45
  8
LAYER_1
 10
-17.95825337570038
 20
27.771327483549371
 30
0.0
  0
VERTEX
  5
2A46
  8
LAYER_1
 10
-17.95825337570038
 20
27.66517312898943
 30
0.0
  0
SEQEND
  5
2A47
  8
LAYER_1
  0
LINE
  5
2A48
  8
LAYER_1
 10
-17.95825337570038
 20
27.771327483549371
 30
0.0
 11
-17.95825337570038
 21
27.66517312898943
 31
0.0
  0
LINE
  5
2A49
  8
LAYER_1
 10
-17.95825337570038
 20
27.771327483549371
 30
0.0
 11
-17.95825337570038
 21
27.66517312898943
 31
0.0
  0
LINE
  5
2A4A
  8
LAYER_1
 10
-17.95825337570038
 20
27.771327483549371
 30
0.0
 11
-17.95825337570038
 21
27.66517312898943
 31
0.0
  0
LINE
  5
2A4B
  8
LAYER_1
 10
-17.95825337570038
 20
27.771327483549371
 30
0.0
 11
-17.95825337570038
 21
27.66517312898943
 31
0.0
  0
LINE
  5
2A4C
  8
LAYER_1
 10
-17.95825337570038
 20
27.771327483549371
 30
0.0
 11
-17.95825337570038
 21
27.66517312898943
 31
0.0
  0
LINE
  5
2A4D
  8
LAYER_1
 10
-17.95825337570038
 20
27.771327483549371
 30
0.0
 11
-17.95825337570038
 21
27.66517312898943
 31
0.0
  0
POLYLINE
  5
2A4E
  8
LAYER_1
 66
     1
 10
0.0
 20
0.0
 30
0.0
  0
VERTEX
  5
2A4F
  8
LAYER_1
 10
-17.95825337570038
 20
27.771327483549371
 30
0.0
  0
VERTEX
  5
2A50
  8
LAYER_1
 10
-18.06462437180026
 20
27.771327483549371
 30
0.0
  0
VERTEX
  5
2A51
  8
LAYER_1
 10
-18.06462437180026
 20
27.877915121189162
 30
0.0
  0
VERTEX
  5
2A52
  8
LAYER_1
 10
-18.06462437180026
 20
27.771327483549371
 30
0.0
  0
SEQEND
  5
2A53
  8
LAYER_1
  0
LINE
  5
2A54
  8
LAYER_1
 10
-18.06462437180026
 20
27.877915121189162
 30
0.0
 11
-18.06462437180026
 21
27.771327483549371
 31
0.0
  0
LINE
  5
2A55
  8
LAYER_1
 10
-18.06462437180026
 20
27.877915121189162
 30
0.0
 11
-18.06462437180026
 21
27.771327483549371
 31
0.0
  0
POLYLINE
  5
2A56
  8
LAYER_1
 66
     1
 10
0.0
 20
0.0
 30
0.0
  0
VERTEX
  5
2A57
  8
LAYER_1
 10
-18.06462437180026
 20
27.877915121189162
 30
0.0
  0
VERTEX
  5
2A58
  8
LAYER_1
 10
-18.17121200944004
 20
27.877915121189162
 30
0.0
  0
VERTEX
  5
2A59
  8
LAYER_1
 10
-18.17121200944004
 20
27.771327483549371
 30
0.0
  0
SEQEND
  5
2A5A
  8
LAYER_1
  0
LINE
  5
2A5B
  8
LAYER_1
 10
-18.17121200944004
 20
27.877915121189162
 30
0.0
 11
-18.17121200944004
 21
27.771327483549371
 31
0.0
  0
POLYLINE
  5
2A5C
  8
LAYER_1
 66
     1
 10
0.0
 20
0.0
 30
0.0
  0
VERTEX
  5
2A5D
  8
LAYER_1
 10
-18.17121200944004
 20
27.877915121189162
 30
0.0
  0
VERTEX
  5
2A5E
  8
LAYER_1
 10
-18.17121200944004
 20
27.98450275882896
 30
0.0
  0
VERTEX
  5
2A5F
  8
LAYER_1
 10
-18.17121200944004
 20
27.877915121189162
 30
0.0
  0
SEQEND
  5
2A60
  8
LAYER_1
  0
POLYLINE
  5
2A61
  8
LAYER_1
 66
     1
 10
0.0
 20
0.0
 30
0.0
  0
VERTEX
  5
2A62
  8
LAYER_1
 10
-18.17121200944004
 20
27.98450275882896
 30
0.0
  0
VERTEX
  5
2A63
  8
LAYER_1
 10
-18.27758300553992
 20
27.98450275882896
 30
0.0
  0
VERTEX
  5
2A64
  8
LAYER_1
 10
-18.27758300553992
 20
27.877915121189162
 30
0.0
  0
SEQEND
  5
2A65
  8
LAYER_1
  0
LINE
  5
2A66
  8
LAYER_1
 10
-18.27758300553992
 20
27.98450275882896
 30
0.0
 11
-18.27758300553992
 21
27.877915121189162
 31
0.0
  0
LINE
  5
2A67
  8
LAYER_1
 10
-18.27758300553992
 20
27.98450275882896
 30
0.0
 11
-18.27758300553992
 21
27.877915121189162
 31
0.0
  0
POLYLINE
  5
2A68
  8
LAYER_1
 66
     1
 10
0.0
 20
0.0
 30
0.0
  0
VERTEX
  5
2A69
  8
LAYER_1
 10
-18.27758300553992
 20
27.98450275882896
 30
0.0
  0
VERTEX
  5
2A6A
  8
LAYER_1
 10
-18.384170643179711
 20
27.98450275882896
 30
0.0
  0
VERTEX
  5
2A6B
  8
LAYER_1
 10
-18.384170643179711
 20
28.091090396468761
 30
0.0
  0
VERTEX
  5
2A6C
  8
LAYER_1
 10
-18.384170643179711
 20
27.98450275882896
 30
0.0
  0
SEQEND
  5
2A6D
  8
LAYER_1
  0
LINE
  5
2A6E
  8
LAYER_1
 10
-18.384170643179711
 20
28.091090396468761
 30
0.0
 11
-18.384170643179711
 21
27.98450275882896
 31
0.0
  0
LINE
  5
2A6F
  8
LAYER_1
 10
-18.384170643179711
 20
28.091090396468761
 30
0.0
 11
-18.384170643179711
 21
27.98450275882896
 31
0.0
  0
POLYLINE
  5
2A70
  8
LAYER_1
 66
     1
 10
0.0
 20
0.0
 30
0.0
  0
VERTEX
  5
2A71
  8
LAYER_1
 10
-18.384170643179711
 20
28.091090396468761
 30
0.0
  0
VERTEX
  5
2A72
  8
LAYER_1
 10
-18.490758280819481
 20
28.091090396468761
 30
0.0
  0
VERTEX
  5
2A73
  8
LAYER_1
 10
-18.490758280819481
 20
27.98450275882896
 30
0.0
  0
SEQEND
  5
2A74
  8
LAYER_1
  0
POLYLINE
  5
2A75
  8
LAYER_1
 66
     1
 10
0.0
 20
0.0
 30
0.0
  0
VERTEX
  5
2A76
  8
LAYER_1
 10
-18.490758280819481
 20
28.091090396468761
 30
0.0
  0
VERTEX
  5
2A77
  8
LAYER_1
 10
-18.490758280819481
 20
28.197244751028698
 30
0.0
  0
VERTEX
  5
2A78
  8
LAYER_1
 10
-18.490758280819481
 20
28.091090396468761
 30
0.0
  0
SEQEND
  5
2A79
  8
LAYER_1
  0
POLYLINE
  5
2A7A
  8
LAYER_1
 66
     1
 10
0.0
 20
0.0
 30
0.0
  0
VERTEX
  5
2A7B
  8
LAYER_1
 10
-18.490758280819481
 20
28.197244751028698
 30
0.0
  0
VERTEX
  5
2A7C
  8
LAYER_1
 10
-18.597129276919361
 20
28.197244751028698
 30
0.0
  0
VERTEX
  5
2A7D
  8
LAYER_1
 10
-18.597129276919361
 20
28.091090396468761
 30
0.0
  0
SEQEND
  5
2A7E
  8
LAYER_1
  0
LINE
  5
2A7F
  8
LAYER_1
 10
-18.597129276919361
 20
28.197244751028698
 30
0.0
 11
-18.597129276919361
 21
28.091090396468761
 31
0.0
  0
LINE
  5
2A80
  8
LAYER_1
 10
-18.597129276919361
 20
28.197244751028698
 30
0.0
 11
-18.597129276919361
 21
28.091090396468761
 31
0.0
  0
LINE
  5
2A81
  8
LAYER_1
 10
-18.597129276919361
 20
28.197244751028698
 30
0.0
 11
-18.597129276919361
 21
28.091090396468761
 31
0.0
  0
POLYLINE
  5
2A82
  8
LAYER_1
 66
     1
 10
0.0
 20
0.0
 30
0.0
  0
VERTEX
  5
2A83
  8
LAYER_1
 10
-18.597129276919361
 20
28.197244751028698
 30
0.0
  0
VERTEX
  5
2A84
  8
LAYER_1
 10
-18.703716914559148
 20
28.197244751028698
 30
0.0
  0
VERTEX
  5
2A85
  8
LAYER_1
 10
-18.703716914559148
 20
28.3038323886685
 30
0.0
  0
VERTEX
  5
2A86
  8
LAYER_1
 10
-18.703716914559148
 20
28.197244751028698
 30
0.0
  0
SEQEND
  5
2A87
  8
LAYER_1
  0
LINE
  5
2A88
  8
LAYER_1
 10
-18.703716914559148
 20
28.3038323886685
 30
0.0
 11
-18.703716914559148
 21
28.197244751028698
 31
0.0
  0
LINE
  5
2A89
  8
LAYER_1
 10
-18.703716914559148
 20
28.3038323886685
 30
0.0
 11
-18.703716914559148
 21
28.197244751028698
 31
0.0
  0
LINE
  5
2A8A
  8
LAYER_1
 10
-18.703716914559148
 20
28.3038323886685
 30
0.0
 11
-18.703716914559148
 21
28.197244751028698
 31
0.0
  0
LINE
  5
2A8B
  8
LAYER_1
 10
-18.703716914559148
 20
28.3038323886685
 30
0.0
 11
-18.703716914559148
 21
28.197244751028698
 31
0.0
  0
POLYLINE
  5
2A8C
  8
LAYER_1
 66
     1
 10
0.0
 20
0.0
 30
0.0
  0
VERTEX
  5
2A8D
  8
LAYER_1
 10
-18.703716914559148
 20
28.3038323886685
 30
0.0
  0
VERTEX
  5
2A8E
  8
LAYER_1
 10
-18.810087910659028
 20
28.3038323886685
 30
0.0
  0
VERTEX
  5
2A8F
  8
LAYER_1
 10
-18.810087910659028
 20
28.197244751028698
 30
0.0
  0
SEQEND
  5
2A90
  8
LAYER_1
  0
LINE
  5
2A91
  8
LAYER_1
 10
-18.810087910659028
 20
28.3038323886685
 30
0.0
 11
-18.810087910659028
 21
28.197244751028698
 31
0.0
  0
LINE
  5
2A92
  8
LAYER_1
 10
-18.810087910659028
 20
28.3038323886685
 30
0.0
 11
-18.810087910659028
 21
28.197244751028698
 31
0.0
  0
LINE
  5
2A93
  8
LAYER_1
 10
-18.810087910659028
 20
28.3038323886685
 30
0.0
 11
-18.810087910659028
 21
28.197244751028698
 31
0.0
  0
LINE
  5
2A94
  8
LAYER_1
 10
-18.810087910659028
 20
28.3038323886685
 30
0.0
 11
-18.810087910659028
 21
28.197244751028698
 31
0.0
  0
LINE
  5
2A95
  8
LAYER_1
 10
-18.810087910659028
 20
28.3038323886685
 30
0.0
 11
-18.810087910659028
 21
28.197244751028698
 31
0.0
  0
LINE
  5
2A96
  8
LAYER_1
 10
-18.810087910659028
 20
28.3038323886685
 30
0.0
 11
-18.810087910659028
 21
28.197244751028698
 31
0.0
  0
LINE
  5
2A97
  8
LAYER_1
 10
-17.851665738060589
 20
27.66517312898943
 30
0.0
 11
-17.851665738060589
 21
27.558585491349628
 31
0.0
  0
LINE
  5
2A98
  8
LAYER_1
 10
-17.851665738060589
 20
27.66517312898943
 30
0.0
 11
-17.851665738060589
 21
27.558585491349628
 31
0.0
  0
POLYLINE
  5
2A99
  8
LAYER_1
 66
     1
 10
0.0
 20
0.0
 30
0.0
  0
VERTEX
  5
2A9A
  8
LAYER_1
 10
11.750667559452131
 20
7.5396073536616264
 30
0.0
  0
VERTEX
  5
2A9B
  8
LAYER_1
 10
11.85725519709192
 20
7.6461949913014351
 30
0.0
  0
VERTEX
  5
2A9C
  8
LAYER_1
 10
11.85725519709192
 20
7.5396073536616264
 30
0.0
  0
SEQEND
  5
2A9D
  8
LAYER_1
  0
LINE
  5
2A9E
  8
LAYER_1
 10
11.85725519709192
 20
7.6461949913014351
 30
0.0
 11
11.85725519709192
 21
7.5396073536616264
 31
0.0
  0
POLYLINE
  5
2A9F
  8
LAYER_1
 66
     1
 10
0.0
 20
0.0
 30
0.0
  0
VERTEX
  5
2AA0
  8
LAYER_1
 10
11.85725519709192
 20
7.6461949913014351
 30
0.0
  0
VERTEX
  5
2AA1
  8
LAYER_1
 10
11.96362619319178
 20
7.6461949913014351
 30
0.0
  0
VERTEX
  5
2AA2
  8
LAYER_1
 10
11.96362619319178
 20
7.5396073536616264
 30
0.0
  0
SEQEND
  5
2AA3
  8
LAYER_1
  0
POLYLINE
  5
2AA4
  8
LAYER_1
 66
     1
 10
0.0
 20
0.0
 30
0.0
  0
VERTEX
  5
2AA5
  8
LAYER_1
 10
11.96362619319178
 20
7.6461949913014351
 30
0.0
  0
VERTEX
  5
2AA6
  8
LAYER_1
 10
11.96362619319178
 20
7.752349345861389
 30
0.0
  0
VERTEX
  5
2AA7
  8
LAYER_1
 10
11.96362619319178
 20
7.6461949913014351
 30
0.0
  0
SEQEND
  5
2AA8
  8
LAYER_1
  0
POLYLINE
  5
2AA9
  8
LAYER_1
 66
     1
 10
0.0
 20
0.0
 30
0.0
  0
VERTEX
  5
2AAA
  8
LAYER_1
 10
11.96362619319178
 20
7.752349345861389
 30
0.0
  0
VERTEX
  5
2AAB
  8
LAYER_1
 10
11.85725519709192
 20
7.752349345861389
 30
0.0
  0
VERTEX
  5
2AAC
  8
LAYER_1
 10
11.85725519709192
 20
7.6461949913014351
 30
0.0
  0
SEQEND
  5
2AAD
  8
LAYER_1
  0
POLYLINE
  5
2AAE
  8
LAYER_1
 66
     1
 10
0.0
 20
0.0
 30
0.0
  0
VERTEX
  5
2AAF
  8
LAYER_1
 10
11.85725519709192
 20
7.752349345861389
 30
0.0
  0
VERTEX
  5
2AB0
  8
LAYER_1
 10
11.750667559452131
 20
7.8589369835011773
 30
0.0
  0
VERTEX
  5
2AB1
  8
LAYER_1
 10
11.21837929587293
 20
7.8589369835011773
 30
0.0
  0
VERTEX
  5
2AB2
  8
LAYER_1
 10
11.111791658233161
 20
7.9655246211409638
 30
0.0
  0
SEQEND
  5
2AB3
  8
LAYER_1
  0
POLYLINE
  5
2AB4
  8
LAYER_1
 66
     1
 10
0.0
 20
0.0
 30
0.0
  0
VERTEX
  5
2AB5
  8
LAYER_1
 10
10.8988330244935
 20
7.9655246211409638
 30
0.0
  0
VERTEX
  5
2AB6
  8
LAYER_1
 10
10.366328119374391
 20
7.9655246211409638
 30
0.0
  0
VERTEX
  5
2AB7
  8
LAYER_1
 10
10.15336948563472
 20
8.0721122587807628
 30
0.0
  0
VERTEX
  5
2AB8
  8
LAYER_1
 10
8.7692466870968531
 20
8.0721122587807628
 30
0.0
  0
VERTEX
  5
2AB9
  8
LAYER_1
 10
8.5562880533571857
 20
8.178266613340714
 30
0.0
  0
VERTEX
  5
2ABA
  8
LAYER_1
 10
5.468062901822214
 20
8.178266613340714
 30
0.0
  0
VERTEX
  5
2ABB
  8
LAYER_1
 10
5.2551042680825466
 20
8.2848542509805014
 30
0.0
  0
VERTEX
  5
2ABC
  8
LAYER_1
 10
5.1487332719826711
 20
8.2848542509805014
 30
0.0
  0
SEQEND
  5
2ABD
  8
LAYER_1
  0
LINE
  5
2ABE
  8
LAYER_1
 10
19.41761165715987
 20
27.66517312898943
 30
0.0
 11
19.41761165715987
 21
27.558585491349628
 31
0.0
  0
LINE
  5
2ABF
  8
LAYER_1
 10
19.41761165715987
 20
27.66517312898943
 30
0.0
 11
19.41761165715987
 21
27.558585491349628
 31
0.0
  0
LINE
  5
2AC0
  8
LAYER_1
 10
19.41761165715987
 20
27.66517312898943
 30
0.0
 11
19.41761165715987
 21
27.558585491349628
 31
0.0
  0
LINE
  5
2AC1
  8
LAYER_1
 10
19.41761165715987
 20
27.66517312898943
 30
0.0
 11
19.41761165715987
 21
27.558585491349628
 31
0.0
  0
LINE
  5
2AC2
  8
LAYER_1
 10
19.41761165715987
 20
27.66517312898943
 30
0.0
 11
19.41761165715987
 21
27.558585491349628
 31
0.0
  0
LINE
  5
2AC3
  8
LAYER_1
 10
19.41761165715987
 20
27.66517312898943
 30
0.0
 11
19.41761165715987
 21
27.558585491349628
 31
0.0
  0
LINE
  5
2AC4
  8
LAYER_1
 10
19.41761165715987
 20
27.66517312898943
 30
0.0
 11
19.41761165715987
 21
27.558585491349628
 31
0.0
  0
POLYLINE
  5
2AC5
  8
LAYER_1
 66
     1
 10
0.0
 20
0.0
 30
0.0
  0
VERTEX
  5
2AC6
  8
LAYER_1
 10
19.41761165715987
 20
27.66517312898943
 30
0.0
  0
VERTEX
  5
2AC7
  8
LAYER_1
 10
19.311024019520069
 20
27.66517312898943
 30
0.0
  0
VERTEX
  5
2AC8
  8
LAYER_1
 10
19.311024019520069
 20
27.558585491349628
 30
0.0
  0
SEQEND
  5
2AC9
  8
LAYER_1
  0
LINE
  5
2ACA
  8
LAYER_1
 10
19.311024019520069
 20
27.66517312898943
 30
0.0
 11
19.311024019520069
 21
27.558585491349628
 31
0.0
  0
LINE
  5
2ACB
  8
LAYER_1
 10
-10.29130927799269
 20
7.6461949913014351
 30
0.0
 11
-10.29130927799269
 21
7.5396073536616264
 31
0.0
  0
LINE
  5
2ACC
  8
LAYER_1
 10
-10.29130927799269
 20
7.6461949913014351
 30
0.0
 11
-10.29130927799269
 21
7.5396073536616264
 31
0.0
  0
LINE
  5
2ACD
  8
LAYER_1
 10
-10.29130927799269
 20
7.6461949913014351
 30
0.0
 11
-10.29130927799269
 21
7.5396073536616264
 31
0.0
  0
LINE
  5
2ACE
  8
LAYER_1
 10
-10.29130927799269
 20
7.6461949913014351
 30
0.0
 11
-10.29130927799269
 21
7.5396073536616264
 31
0.0
  0
LINE
  5
2ACF
  8
LAYER_1
 10
-10.29130927799269
 20
7.6461949913014351
 30
0.0
 11
-10.29130927799269
 21
7.5396073536616264
 31
0.0
  0
POLYLINE
  5
2AD0
  8
LAYER_1
 66
     1
 10
0.0
 20
0.0
 30
0.0
  0
VERTEX
  5
2AD1
  8
LAYER_1
 10
-10.29130927799269
 20
7.6461949913014351
 30
0.0
  0
VERTEX
  5
2AD2
  8
LAYER_1
 10
-10.184938281892819
 20
7.5396073536616264
 30
0.0
  0
VERTEX
  5
2AD3
  8
LAYER_1
 10
-10.184938281892819
 20
7.4330197160218461
 30
0.0
  0
SEQEND
  5
2AD4
  8
LAYER_1
  0
LINE
  5
2AD5
  8
LAYER_1
 10
-10.184938281892819
 20
7.5396073536616264
 30
0.0
 11
-10.184938281892819
 21
7.4330197160218461
 31
0.0
  0
LINE
  5
2AD6
  8
LAYER_1
 10
-10.184938281892819
 20
7.5396073536616264
 30
0.0
 11
-10.184938281892819
 21
7.4330197160218461
 31
0.0
  0
LINE
  5
2AD7
  8
LAYER_1
 10
-10.184938281892819
 20
7.5396073536616264
 30
0.0
 11
-10.184938281892819
 21
7.3264320783820507
 31
0.0
  0
POLYLINE
  5
2AD8
  8
LAYER_1
 66
     1
 10
0.0
 20
0.0
 30
0.0
  0
VERTEX
  5
2AD9
  8
LAYER_1
 10
-12.314524619289431
 20
8.0721122587807628
 30
0.0
  0
VERTEX
  5
2ADA
  8
LAYER_1
 10
-11.995194989449899
 20
7.8589369835011773
 30
0.0
  0
VERTEX
  5
2ADB
  8
LAYER_1
 10
-11.995194989449899
 20
7.752349345861389
 30
0.0
  0
SEQEND
  5
2ADC
  8
LAYER_1
  0
POLYLINE
  5
2ADD
  8
LAYER_1
 66
     1
 10
0.0
 20
0.0
 30
0.0
  0
VERTEX
  5
2ADE
  8
LAYER_1
 10
-11.995194989449899
 20
7.8589369835011773
 30
0.0
  0
VERTEX
  5
2ADF
  8
LAYER_1
 10
-11.88860735181011
 20
7.752349345861389
 30
0.0
  0
VERTEX
  5
2AE0
  8
LAYER_1
 10
-11.78223635571023
 20
7.752349345861389
 30
0.0
  0
VERTEX
  5
2AE1
  8
LAYER_1
 10
-11.78223635571023
 20
7.6461949913014351
 30
0.0
  0
SEQEND
  5
2AE2
  8
LAYER_1
  0
POLYLINE
  5
2AE3
  8
LAYER_1
 66
     1
 10
0.0
 20
0.0
 30
0.0
  0
VERTEX
  5
2AE4
  8
LAYER_1
 10
-11.78223635571023
 20
7.752349345861389
 30
0.0
  0
VERTEX
  5
2AE5
  8
LAYER_1
 10
-11.67564871807045
 20
7.752349345861389
 30
0.0
  0
VERTEX
  5
2AE6
  8
LAYER_1
 10
-11.67564871807045
 20
7.6461949913014351
 30
0.0
  0
SEQEND
  5
2AE7
  8
LAYER_1
  0
POLYLINE
  5
2AE8
  8
LAYER_1
 66
     1
 10
0.0
 20
0.0
 30
0.0
  0
VERTEX
  5
2AE9
  8
LAYER_1
 10
-11.67564871807045
 20
7.752349345861389
 30
0.0
  0
VERTEX
  5
2AEA
  8
LAYER_1
 10
-11.569277721970559
 20
7.6461949913014351
 30
0.0
  0
VERTEX
  5
2AEB
  8
LAYER_1
 10
-11.462690084330781
 20
7.6461949913014351
 30
0.0
  0
VERTEX
  5
2AEC
  8
LAYER_1
 10
-11.462690084330781
 20
7.5396073536616264
 30
0.0
  0
SEQEND
  5
2AED
  8
LAYER_1
  0
POLYLINE
  5
2AEE
  8
LAYER_1
 66
     1
 10
0.0
 20
0.0
 30
0.0
  0
VERTEX
  5
2AEF
  8
LAYER_1
 10
-11.462690084330781
 20
7.6461949913014351
 30
0.0
  0
VERTEX
  5
2AF0
  8
LAYER_1
 10
-11.35631908823091
 20
7.6461949913014351
 30
0.0
  0
VERTEX
  5
2AF1
  8
LAYER_1
 10
-11.35631908823091
 20
7.5396073536616264
 30
0.0
  0
SEQEND
  5
2AF2
  8
LAYER_1
  0
POLYLINE
  5
2AF3
  8
LAYER_1
 66
     1
 10
0.0
 20
0.0
 30
0.0
  0
VERTEX
  5
2AF4
  8
LAYER_1
 10
-11.35631908823091
 20
7.6461949913014351
 30
0.0
  0
VERTEX
  5
2AF5
  8
LAYER_1
 10
-11.249731450591121
 20
7.6461949913014351
 30
0.0
  0
VERTEX
  5
2AF6
  8
LAYER_1
 10
-11.249731450591121
 20
7.5396073536616264
 30
0.0
  0
SEQEND
  5
2AF7
  8
LAYER_1
  0
POLYLINE
  5
2AF8
  8
LAYER_1
 66
     1
 10
0.0
 20
0.0
 30
0.0
  0
VERTEX
  5
2AF9
  8
LAYER_1
 10
-11.249731450591121
 20
7.6461949913014351
 30
0.0
  0
VERTEX
  5
2AFA
  8
LAYER_1
 10
-11.143360454491241
 20
7.5396073536616264
 30
0.0
  0
VERTEX
  5
2AFB
  8
LAYER_1
 10
-11.143360454491241
 20
7.4330197160218461
 30
0.0
  0
SEQEND
  5
2AFC
  8
LAYER_1
  0
POLYLINE
  5
2AFD
  8
LAYER_1
 66
     1
 10
0.0
 20
0.0
 30
0.0
  0
VERTEX
  5
2AFE
  8
LAYER_1
 10
-11.143360454491241
 20
7.5396073536616264
 30
0.0
  0
VERTEX
  5
2AFF
  8
LAYER_1
 10
-11.03677281685146
 20
7.5396073536616264
 30
0.0
  0
VERTEX
  5
2B00
  8
LAYER_1
 10
-11.03677281685146
 20
7.4330197160218461
 30
0.0
  0
SEQEND
  5
2B01
  8
LAYER_1
  0
POLYLINE
  5
2B02
  8
LAYER_1
 66
     1
 10
0.0
 20
0.0
 30
0.0
  0
VERTEX
  5
2B03
  8
LAYER_1
 10
-11.03677281685146
 20
7.5396073536616264
 30
0.0
  0
VERTEX
  5
2B04
  8
LAYER_1
 10
-10.93040182075157
 20
7.5396073536616264
 30
0.0
  0
VERTEX
  5
2B05
  8
LAYER_1
 10
-10.93040182075157
 20
7.4330197160218461
 30
0.0
  0
SEQEND
  5
2B06
  8
LAYER_1
  0
POLYLINE
  5
2B07
  8
LAYER_1
 66
     1
 10
0.0
 20
0.0
 30
0.0
  0
VERTEX
  5
2B08
  8
LAYER_1
 10
-10.93040182075157
 20
7.5396073536616264
 30
0.0
  0
VERTEX
  5
2B09
  8
LAYER_1
 10
-10.71744318701194
 20
7.5396073536616264
 30
0.0
  0
VERTEX
  5
2B0A
  8
LAYER_1
 10
-10.71744318701194
 20
7.4330197160218461
 30
0.0
  0
SEQEND
  5
2B0B
  8
LAYER_1
  0
POLYLINE
  5
2B0C
  8
LAYER_1
 66
     1
 10
0.0
 20
0.0
 30
0.0
  0
VERTEX
  5
2B0D
  8
LAYER_1
 10
-10.71744318701194
 20
7.5396073536616264
 30
0.0
  0
VERTEX
  5
2B0E
  8
LAYER_1
 10
-10.50448455327227
 20
7.5396073536616264
 30
0.0
  0
VERTEX
  5
2B0F
  8
LAYER_1
 10
-10.50448455327227
 20
7.4330197160218461
 30
0.0
  0
VERTEX
  5
2B10
  8
LAYER_1
 10
-10.29130927799269
 20
7.4330197160218461
 30
0.0
  0
VERTEX
  5
2B11
  8
LAYER_1
 10
-10.29130927799269
 20
7.3264320783820507
 30
0.0
  0
SEQEND
  5
2B12
  8
LAYER_1
  0
LINE
  5
2B13
  8
LAYER_1
 10
-10.29130927799269
 20
7.4330197160218461
 30
0.0
 11
-10.184938281892819
 21
7.4330197160218461
 31
0.0
  0
LINE
  5
2B14
  8
LAYER_1
 10
19.84352892463918
 20
27.98450275882896
 30
0.0
 11
19.84352892463918
 21
27.877915121189162
 31
0.0
  0
LINE
  5
2B15
  8
LAYER_1
 10
19.84352892463918
 20
27.98450275882896
 30
0.0
 11
19.84352892463918
 21
27.877915121189162
 31
0.0
  0
LINE
  5
2B16
  8
LAYER_1
 10
19.84352892463918
 20
27.98450275882896
 30
0.0
 11
19.84352892463918
 21
27.877915121189162
 31
0.0
  0
POLYLINE
  5
2B17
  8
LAYER_1
 66
     1
 10
0.0
 20
0.0
 30
0.0
  0
VERTEX
  5
2B18
  8
LAYER_1
 10
19.84352892463918
 20
27.98450275882896
 30
0.0
  0
VERTEX
  5
2B19
  8
LAYER_1
 10
19.736941286999372
 20
27.98450275882896
 30
0.0
  0
VERTEX
  5
2B1A
  8
LAYER_1
 10
19.736941286999372
 20
27.771327483549371
 30
0.0
  0
SEQEND
  5
2B1B
  8
LAYER_1
  0
LINE
  5
2B1C
  8
LAYER_1
 10
19.736941286999372
 20
27.877915121189162
 30
0.0
 11
19.736941286999372
 21
27.771327483549371
 31
0.0
  0
LINE
  5
2B1D
  8
LAYER_1
 10
19.736941286999372
 20
27.877915121189162
 30
0.0
 11
19.736941286999372
 21
27.771327483549371
 31
0.0
  0
POLYLINE
  5
2B1E
  8
LAYER_1
 66
     1
 10
0.0
 20
0.0
 30
0.0
  0
VERTEX
  5
2B1F
  8
LAYER_1
 10
19.736941286999372
 20
27.877915121189162
 30
0.0
  0
VERTEX
  5
2B20
  8
LAYER_1
 10
19.630570290899531
 20
27.877915121189162
 30
0.0
  0
VERTEX
  5
2B21
  8
LAYER_1
 10
19.630570290899531
 20
27.771327483549371
 30
0.0
  0
SEQEND
  5
2B22
  8
LAYER_1
  0
LINE
  5
2B23
  8
LAYER_1
 10
19.630570290899531
 20
27.877915121189162
 30
0.0
 11
19.630570290899531
 21
27.771327483549371
 31
0.0
  0
LINE
  5
2B24
  8
LAYER_1
 10
19.630570290899531
 20
27.877915121189162
 30
0.0
 11
19.630570290899531
 21
27.66517312898943
 31
0.0
  0
POLYLINE
  5
2B25
  8
LAYER_1
 66
     1
 10
0.0
 20
0.0
 30
0.0
  0
VERTEX
  5
2B26
  8
LAYER_1
 10
19.630570290899531
 20
27.771327483549371
 30
0.0
  0
VERTEX
  5
2B27
  8
LAYER_1
 10
19.523982653259729
 20
27.771327483549371
 30
0.0
  0
VERTEX
  5
2B28
  8
LAYER_1
 10
19.523982653259729
 20
27.66517312898943
 30
0.0
  0
SEQEND
  5
2B29
  8
LAYER_1
  0
LINE
  5
2B2A
  8
LAYER_1
 10
19.523982653259729
 20
27.771327483549371
 30
0.0
 11
19.523982653259729
 21
27.66517312898943
 31
0.0
  0
LINE
  5
2B2B
  8
LAYER_1
 10
19.523982653259729
 20
27.771327483549371
 30
0.0
 11
19.523982653259729
 21
27.66517312898943
 31
0.0
  0
LINE
  5
2B2C
  8
LAYER_1
 10
19.523982653259729
 20
27.771327483549371
 30
0.0
 11
19.523982653259729
 21
27.66517312898943
 31
0.0
  0
LINE
  5
2B2D
  8
LAYER_1
 10
19.523982653259729
 20
27.771327483549371
 30
0.0
 11
19.523982653259729
 21
27.66517312898943
 31
0.0
  0
POLYLINE
  5
2B2E
  8
LAYER_1
 66
     1
 10
0.0
 20
0.0
 30
0.0
  0
VERTEX
  5
2B2F
  8
LAYER_1
 10
19.523982653259729
 20
27.771327483549371
 30
0.0
  0
VERTEX
  5
2B30
  8
LAYER_1
 10
19.41761165715987
 20
27.771327483549371
 30
0.0
  0
VERTEX
  5
2B31
  8
LAYER_1
 10
19.41761165715987
 20
27.66517312898943
 30
0.0
  0
SEQEND
  5
2B32
  8
LAYER_1
  0
LINE
  5
2B33
  8
LAYER_1
 10
19.41761165715987
 20
27.771327483549371
 30
0.0
 11
19.41761165715987
 21
27.66517312898943
 31
0.0
  0
LINE
  5
2B34
  8
LAYER_1
 10
19.41761165715987
 20
27.771327483549371
 30
0.0
 11
19.41761165715987
 21
27.558585491349628
 31
0.0
  0
LINE
  5
2B35
  8
LAYER_1
 10
19.41761165715987
 20
27.66517312898943
 30
0.0
 11
19.41761165715987
 21
27.558585491349628
 31
0.0
  0
LINE
  5
2B36
  8
LAYER_1
 10
19.41761165715987
 20
27.66517312898943
 30
0.0
 11
19.41761165715987
 21
27.558585491349628
 31
0.0
  0
LINE
  5
2B37
  8
LAYER_1
 10
19.41761165715987
 20
27.66517312898943
 30
0.0
 11
19.41761165715987
 21
27.558585491349628
 31
0.0
  0
LINE
  5
2B38
  8
LAYER_1
 10
19.41761165715987
 20
27.66517312898943
 30
0.0
 11
19.41761165715987
 21
27.558585491349628
 31
0.0
  0
LINE
  5
2B39
  8
LAYER_1
 10
19.41761165715987
 20
27.66517312898943
 30
0.0
 11
19.41761165715987
 21
27.558585491349628
 31
0.0
  0
LINE
  5
2B3A
  8
LAYER_1
 10
20.375817188218409
 20
28.3038323886685
 30
0.0
 11
20.375817188218409
 21
28.197244751028698
 31
0.0
  0
LINE
  5
2B3B
  8
LAYER_1
 10
20.375817188218409
 20
28.3038323886685
 30
0.0
 11
20.375817188218409
 21
28.197244751028698
 31
0.0
  0
LINE
  5
2B3C
  8
LAYER_1
 10
20.375817188218409
 20
28.3038323886685
 30
0.0
 11
20.375817188218409
 21
28.197244751028698
 31
0.0
  0
LINE
  5
2B3D
  8
LAYER_1
 10
20.375817188218409
 20
28.3038323886685
 30
0.0
 11
20.375817188218409
 21
28.197244751028698
 31
0.0
  0
LINE
  5
2B3E
  8
LAYER_1
 10
20.375817188218409
 20
28.3038323886685
 30
0.0
 11
20.375817188218409
 21
28.197244751028698
 31
0.0
  0
LINE
  5
2B3F
  8
LAYER_1
 10
20.375817188218409
 20
28.3038323886685
 30
0.0
 11
20.375817188218409
 21
28.197244751028698
 31
0.0
  0
LINE
  5
2B40
  8
LAYER_1
 10
20.375817188218409
 20
28.3038323886685
 30
0.0
 11
20.375817188218409
 21
28.197244751028698
 31
0.0
  0
LINE
  5
2B41
  8
LAYER_1
 10
20.375817188218409
 20
28.3038323886685
 30
0.0
 11
20.375817188218409
 21
28.197244751028698
 31
0.0
  0
POLYLINE
  5
2B42
  8
LAYER_1
 66
     1
 10
0.0
 20
0.0
 30
0.0
  0
VERTEX
  5
2B43
  8
LAYER_1
 10
20.375817188218409
 20
28.3038323886685
 30
0.0
  0
VERTEX
  5
2B44
  8
LAYER_1
 10
20.26944619211854
 20
28.3038323886685
 30
0.0
  0
VERTEX
  5
2B45
  8
LAYER_1
 10
20.26944619211854
 20
28.197244751028698
 30
0.0
  0
SEQEND
  5
2B46
  8
LAYER_1
  0
LINE
  5
2B47
  8
LAYER_1
 10
20.26944619211854
 20
28.3038323886685
 30
0.0
 11
20.26944619211854
 21
28.197244751028698
 31
0.0
  0
LINE
  5
2B48
  8
LAYER_1
 10
20.26944619211854
 20
28.3038323886685
 30
0.0
 11
20.26944619211854
 21
28.197244751028698
 31
0.0
  0
LINE
  5
2B49
  8
LAYER_1
 10
20.26944619211854
 20
28.3038323886685
 30
0.0
 11
20.26944619211854
 21
28.197244751028698
 31
0.0
  0
POLYLINE
  5
2B4A
  8
LAYER_1
 66
     1
 10
0.0
 20
0.0
 30
0.0
  0
VERTEX
  5
2B4B
  8
LAYER_1
 10
20.26944619211854
 20
28.3038323886685
 30
0.0
  0
VERTEX
  5
2B4C
  8
LAYER_1
 10
20.26944619211854
 20
28.197244751028698
 30
0.0
  0
VERTEX
  5
2B4D
  8
LAYER_1
 10
20.16285855447871
 20
28.197244751028698
 30
0.0
  0
VERTEX
  5
2B4E
  8
LAYER_1
 10
20.16285855447871
 20
28.091090396468761
 30
0.0
  0
SEQEND
  5
2B4F
  8
LAYER_1
  0
LINE
  5
2B50
  8
LAYER_1
 10
20.16285855447871
 20
28.197244751028698
 30
0.0
 11
20.16285855447871
 21
28.091090396468761
 31
0.0
  0
LINE
  5
2B51
  8
LAYER_1
 10
20.16285855447871
 20
28.197244751028698
 30
0.0
 11
20.16285855447871
 21
28.091090396468761
 31
0.0
  0
LINE
  5
2B52
  8
LAYER_1
 10
20.16285855447871
 20
28.197244751028698
 30
0.0
 11
20.16285855447871
 21
28.091090396468761
 31
0.0
  0
POLYLINE
  5
2B53
  8
LAYER_1
 66
     1
 10
0.0
 20
0.0
 30
0.0
  0
VERTEX
  5
2B54
  8
LAYER_1
 10
20.16285855447871
 20
28.197244751028698
 30
0.0
  0
VERTEX
  5
2B55
  8
LAYER_1
 10
20.056487558378841
 20
28.197244751028698
 30
0.0
  0
VERTEX
  5
2B56
  8
LAYER_1
 10
20.056487558378841
 20
27.98450275882896
 30
0.0
  0
SEQEND
  5
2B57
  8
LAYER_1
  0
LINE
  5
2B58
  8
LAYER_1
 10
20.056487558378841
 20
28.091090396468761
 30
0.0
 11
20.056487558378841
 21
27.98450275882896
 31
0.0
  0
POLYLINE
  5
2B59
  8
LAYER_1
 66
     1
 10
0.0
 20
0.0
 30
0.0
  0
VERTEX
  5
2B5A
  8
LAYER_1
 10
20.056487558378841
 20
28.091090396468761
 30
0.0
  0
VERTEX
  5
2B5B
  8
LAYER_1
 10
19.94989992073911
 20
28.091090396468761
 30
0.0
  0
VERTEX
  5
2B5C
  8
LAYER_1
 10
19.94989992073911
 20
27.98450275882896
 30
0.0
  0
SEQEND
  5
2B5D
  8
LAYER_1
  0
LINE
  5
2B5E
  8
LAYER_1
 10
19.94989992073911
 20
28.091090396468761
 30
0.0
 11
19.94989992073911
 21
27.98450275882896
 31
0.0
  0
POLYLINE
  5
2B5F
  8
LAYER_1
 66
     1
 10
0.0
 20
0.0
 30
0.0
  0
VERTEX
  5
2B60
  8
LAYER_1
 10
19.94989992073911
 20
28.091090396468761
 30
0.0
  0
VERTEX
  5
2B61
  8
LAYER_1
 10
19.94989992073911
 20
27.98450275882896
 30
0.0
  0
VERTEX
  5
2B62
  8
LAYER_1
 10
19.84352892463918
 20
27.98450275882896
 30
0.0
  0
VERTEX
  5
2B63
  8
LAYER_1
 10
19.84352892463918
 20
27.877915121189162
 30
0.0
  0
SEQEND
  5
2B64
  8
LAYER_1
  0
LINE
  5
2B65
  8
LAYER_1
 10
19.84352892463918
 20
27.98450275882896
 30
0.0
 11
19.84352892463918
 21
27.877915121189162
 31
0.0
  0
LINE
  5
2B66
  8
LAYER_1
 10
19.84352892463918
 20
27.98450275882896
 30
0.0
 11
19.84352892463918
 21
27.877915121189162
 31
0.0
  0
POLYLINE
  5
2B67
  8
LAYER_1
 66
     1
 10
0.0
 20
0.0
 30
0.0
  0
VERTEX
  5
2B68
  8
LAYER_1
 10
19.84352892463918
 20
27.98450275882896
 30
0.0
  0
VERTEX
  5
2B69
  8
LAYER_1
 10
19.736941286999372
 20
27.877915121189162
 30
0.0
  0
VERTEX
  5
2B6A
  8
LAYER_1
 10
19.736941286999372
 20
27.771327483549371
 30
0.0
  0
SEQEND
  5
2B6B
  8
LAYER_1
  0
LINE
  5
2B6C
  8
LAYER_1
 10
19.736941286999372
 20
27.877915121189162
 30
0.0
 11
19.736941286999372
 21
27.771327483549371
 31
0.0
  0
LINE
  5
2B6D
  8
LAYER_1
 10
19.736941286999372
 20
27.877915121189162
 30
0.0
 11
19.736941286999372
 21
27.771327483549371
 31
0.0
  0
POLYLINE
  5
2B6E
  8
LAYER_1
 66
     1
 10
0.0
 20
0.0
 30
0.0
  0
VERTEX
  5
2B6F
  8
LAYER_1
 10
19.736941286999372
 20
27.877915121189162
 30
0.0
  0
VERTEX
  5
2B70
  8
LAYER_1
 10
19.630570290899531
 20
27.877915121189162
 30
0.0
  0
VERTEX
  5
2B71
  8
LAYER_1
 10
19.630570290899531
 20
27.771327483549371
 30
0.0
  0
SEQEND
  5
2B72
  8
LAYER_1
  0
LINE
  5
2B73
  8
LAYER_1
 10
19.630570290899531
 20
27.877915121189162
 30
0.0
 11
19.630570290899531
 21
27.771327483549371
 31
0.0
  0
POLYLINE
  5
2B74
  8
LAYER_1
 66
     1
 10
0.0
 20
0.0
 30
0.0
  0
VERTEX
  5
2B75
  8
LAYER_1
 10
19.630570290899531
 20
27.877915121189162
 30
0.0
  0
VERTEX
  5
2B76
  8
LAYER_1
 10
19.630570290899531
 20
27.771327483549371
 30
0.0
  0
VERTEX
  5
2B77
  8
LAYER_1
 10
19.523982653259729
 20
27.771327483549371
 30
0.0
  0
VERTEX
  5
2B78
  8
LAYER_1
 10
19.523982653259729
 20
27.66517312898943
 30
0.0
  0
SEQEND
  5
2B79
  8
LAYER_1
  0
LINE
  5
2B7A
  8
LAYER_1
 10
19.523982653259729
 20
27.771327483549371
 30
0.0
 11
19.523982653259729
 21
27.66517312898943
 31
0.0
  0
LINE
  5
2B7B
  8
LAYER_1
 10
19.523982653259729
 20
27.771327483549371
 30
0.0
 11
19.523982653259729
 21
27.66517312898943
 31
0.0
  0
LINE
  5
2B7C
  8
LAYER_1
 10
19.523982653259729
 20
27.771327483549371
 30
0.0
 11
19.523982653259729
 21
27.66517312898943
 31
0.0
  0
POLYLINE
  5
2B7D
  8
LAYER_1
 66
     1
 10
0.0
 20
0.0
 30
0.0
  0
VERTEX
  5
2B7E
  8
LAYER_1
 10
19.523982653259729
 20
27.771327483549371
 30
0.0
  0
VERTEX
  5
2B7F
  8
LAYER_1
 10
19.41761165715987
 20
27.771327483549371
 30
0.0
  0
VERTEX
  5
2B80
  8
LAYER_1
 10
19.41761165715987
 20
27.66517312898943
 30
0.0
  0
SEQEND
  5
2B81
  8
LAYER_1
  0
LINE
  5
2B82
  8
LAYER_1
 10
19.41761165715987
 20
27.771327483549371
 30
0.0
 11
19.41761165715987
 21
27.66517312898943
 31
0.0
  0
LINE
  5
2B83
  8
LAYER_1
 10
-16.68050157326239
 20
28.197244751028698
 30
0.0
 11
-16.68050157326239
 21
28.091090396468761
 31
0.0
  0
POLYLINE
  5
2B84
  8
LAYER_1
 66
     1
 10
0.0
 20
0.0
 30
0.0
  0
VERTEX
  5
2B85
  8
LAYER_1
 10
-16.68050157326239
 20
28.197244751028698
 30
0.0
  0
VERTEX
  5
2B86
  8
LAYER_1
 10
-16.786872569362281
 20
28.3038323886685
 30
0.0
  0
VERTEX
  5
2B87
  8
LAYER_1
 10
-16.786872569362281
 20
28.197244751028698
 30
0.0
  0
SEQEND
  5
2B88
  8
LAYER_1
  0
LINE
  5
2B89
  8
LAYER_1
 10
-16.786872569362281
 20
28.3038323886685
 30
0.0
 11
-16.786872569362281
 21
28.197244751028698
 31
0.0
  0
LINE
  5
2B8A
  8
LAYER_1
 10
-16.786872569362281
 20
28.3038323886685
 30
0.0
 11
-16.786872569362281
 21
28.197244751028698
 31
0.0
  0
LINE
  5
2B8B
  8
LAYER_1
 10
11.750667559452131
 20
7.5396073536616264
 30
0.0
 11
11.750667559452131
 21
7.4330197160218461
 31
0.0
  0
LINE
  5
2B8C
  8
LAYER_1
 10
11.750667559452131
 20
7.5396073536616264
 30
0.0
 11
11.750667559452131
 21
7.4330197160218461
 31
0.0
  0
POLYLINE
  5
2B8D
  8
LAYER_1
 66
     1
 10
0.0
 20
0.0
 30
0.0
  0
VERTEX
  5
2B8E
  8
LAYER_1
 10
11.750667559452131
 20
7.5396073536616264
 30
0.0
  0
VERTEX
  5
2B8F
  8
LAYER_1
 10
11.750667559452131
 20
7.6461949913014351
 30
0.0
  0
VERTEX
  5
2B90
  8
LAYER_1
 10
11.750667559452131
 20
7.5396073536616264
 30
0.0
  0
SEQEND
  5
2B91
  8
LAYER_1
  0
LINE
  5
2B92
  8
LAYER_1
 10
11.750667559452131
 20
7.6461949913014351
 30
0.0
 11
11.750667559452131
 21
7.5396073536616264
 31
0.0
  0
LINE
  5
2B93
  8
LAYER_1
 10
10.792245386853709
 20
5.6227630084647577
 30
0.0
 11
10.792245386853709
 21
7.4330197160218461
 31
0.0
  0
LINE
  5
2B94
  8
LAYER_1
 10
18.246230850821739
 20
28.3038323886685
 30
0.0
 11
18.246230850821739
 21
28.197244751028698
 31
0.0
  0
LINE
  5
2B95
  8
LAYER_1
 10
18.246230850821739
 20
28.3038323886685
 30
0.0
 11
18.246230850821739
 21
28.197244751028698
 31
0.0
  0
LINE
  5
2B96
  8
LAYER_1
 10
18.246230850821739
 20
28.3038323886685
 30
0.0
 11
18.246230850821739
 21
28.197244751028698
 31
0.0
  0
LINE
  5
2B97
  8
LAYER_1
 10
18.246230850821739
 20
28.3038323886685
 30
0.0
 11
18.246230850821739
 21
28.197244751028698
 31
0.0
  0
LINE
  5
2B98
  8
LAYER_1
 10
18.246230850821739
 20
28.3038323886685
 30
0.0
 11
18.246230850821739
 21
28.197244751028698
 31
0.0
  0
LINE
  5
2B99
  8
LAYER_1
 10
18.246230850821739
 20
28.3038323886685
 30
0.0
 11
18.246230850821739
 21
28.197244751028698
 31
0.0
  0
LINE
  5
2B9A
  8
LAYER_1
 10
18.246230850821739
 20
28.3038323886685
 30
0.0
 11
18.246230850821739
 21
28.197244751028698
 31
0.0
  0
LINE
  5
2B9B
  8
LAYER_1
 10
18.246230850821739
 20
28.3038323886685
 30
0.0
 11
18.246230850821739
 21
28.197244751028698
 31
0.0
  0
LINE
  5
2B9C
  8
LAYER_1
 10
18.246230850821739
 20
28.3038323886685
 30
0.0
 11
18.246230850821739
 21
28.197244751028698
 31
0.0
  0
LINE
  5
2B9D
  8
LAYER_1
 10
18.246230850821739
 20
28.3038323886685
 30
0.0
 11
18.246230850821739
 21
28.197244751028698
 31
0.0
  0
LINE
  5
2B9E
  8
LAYER_1
 10
18.246230850821739
 20
28.3038323886685
 30
0.0
 11
18.246230850821739
 21
28.197244751028698
 31
0.0
  0
LINE
  5
2B9F
  8
LAYER_1
 10
18.246230850821739
 20
28.3038323886685
 30
0.0
 11
18.246230850821739
 21
28.197244751028698
 31
0.0
  0
LINE
  5
2BA0
  8
LAYER_1
 10
18.246230850821739
 20
28.3038323886685
 30
0.0
 11
18.246230850821739
 21
28.197244751028698
 31
0.0
  0
LINE
  5
2BA1
  8
LAYER_1
 10
18.246230850821739
 20
28.3038323886685
 30
0.0
 11
18.246230850821739
 21
28.197244751028698
 31
0.0
  0
POLYLINE
  5
2BA2
  8
LAYER_1
 66
     1
 10
0.0
 20
0.0
 30
0.0
  0
VERTEX
  5
2BA3
  8
LAYER_1
 10
18.246230850821739
 20
28.3038323886685
 30
0.0
  0
VERTEX
  5
2BA4
  8
LAYER_1
 10
18.352601846921608
 20
28.3038323886685
 30
0.0
  0
VERTEX
  5
2BA5
  8
LAYER_1
 10
18.352601846921608
 20
28.41042002630827
 30
0.0
  0
VERTEX
  5
2BA6
  8
LAYER_1
 10
18.352601846921608
 20
28.3038323886685
 30
0.0
  0
SEQEND
  5
2BA7
  8
LAYER_1
  0
LINE
  5
2BA8
  8
LAYER_1
 10
18.352601846921608
 20
28.41042002630827
 30
0.0
 11
18.352601846921608
 21
28.3038323886685
 31
0.0
  0
LINE
  5
2BA9
  8
LAYER_1
 10
18.352601846921608
 20
28.41042002630827
 30
0.0
 11
18.352601846921608
 21
28.3038323886685
 31
0.0
  0
LINE
  5
2BAA
  8
LAYER_1
 10
18.352601846921608
 20
28.41042002630827
 30
0.0
 11
18.352601846921608
 21
28.3038323886685
 31
0.0
  0
POLYLINE
  5
2BAB
  8
LAYER_1
 66
     1
 10
0.0
 20
0.0
 30
0.0
  0
VERTEX
  5
2BAC
  8
LAYER_1
 10
18.352601846921608
 20
28.41042002630827
 30
0.0
  0
VERTEX
  5
2BAD
  8
LAYER_1
 10
18.459189484561431
 20
28.517007663948078
 30
0.0
  0
VERTEX
  5
2BAE
  8
LAYER_1
 10
18.459189484561431
 20
28.41042002630827
 30
0.0
  0
SEQEND
  5
2BAF
  8
LAYER_1
  0
LINE
  5
2BB0
  8
LAYER_1
 10
18.459189484561431
 20
28.517007663948078
 30
0.0
 11
18.459189484561431
 21
28.41042002630827
 31
0.0
  0
LINE
  5
2BB1
  8
LAYER_1
 10
18.459189484561431
 20
28.517007663948078
 30
0.0
 11
18.459189484561431
 21
28.41042002630827
 31
0.0
  0
POLYLINE
  5
2BB2
  8
LAYER_1
 66
     1
 10
0.0
 20
0.0
 30
0.0
  0
VERTEX
  5
2BB3
  8
LAYER_1
 10
18.459189484561431
 20
28.517007663948078
 30
0.0
  0
VERTEX
  5
2BB4
  8
LAYER_1
 10
18.459189484561431
 20
28.62316201850804
 30
0.0
  0
VERTEX
  5
2BB5
  8
LAYER_1
 10
18.565560480661301
 20
28.62316201850804
 30
0.0
  0
VERTEX
  5
2BB6
  8
LAYER_1
 10
18.565560480661301
 20
28.517007663948078
 30
0.0
  0
SEQEND
  5
2BB7
  8
LAYER_1
  0
LINE
  5
2BB8
  8
LAYER_1
 10
18.565560480661301
 20
28.62316201850804
 30
0.0
 11
18.565560480661301
 21
28.729749656147821
 31
0.0
  0
LINE
  5
2BB9
  8
LAYER_1
 10
18.246230850821739
 20
28.197244751028698
 30
0.0
 11
18.246230850821739
 21
28.091090396468761
 31
0.0
  0
LINE
  5
2BBA
  8
LAYER_1
 10
18.246230850821739
 20
28.197244751028698
 30
0.0
 11
18.246230850821739
 21
28.091090396468761
 31
0.0
  0
LINE
  5
2BBB
  8
LAYER_1
 10
18.246230850821739
 20
28.197244751028698
 30
0.0
 11
18.246230850821739
 21
28.091090396468761
 31
0.0
  0
LINE
  5
2BBC
  8
LAYER_1
 10
18.246230850821739
 20
28.197244751028698
 30
0.0
 11
18.246230850821739
 21
28.091090396468761
 31
0.0
  0
LINE
  5
2BBD
  8
LAYER_1
 10
18.246230850821739
 20
28.197244751028698
 30
0.0
 11
18.246230850821739
 21
28.091090396468761
 31
0.0
  0
LINE
  5
2BBE
  8
LAYER_1
 10
18.246230850821739
 20
28.197244751028698
 30
0.0
 11
18.246230850821739
 21
28.3038323886685
 31
0.0
  0
LINE
  5
2BBF
  8
LAYER_1
 10
20.375817188218409
 20
28.3038323886685
 30
0.0
 11
20.375817188218409
 21
28.197244751028698
 31
0.0
  0
LINE
  5
2BC0
  8
LAYER_1
 10
20.375817188218409
 20
28.3038323886685
 30
0.0
 11
20.375817188218409
 21
28.197244751028698
 31
0.0
  0
POLYLINE
  5
2BC1
  8
LAYER_1
 66
     1
 10
0.0
 20
0.0
 30
0.0
  0
VERTEX
  5
2BC2
  8
LAYER_1
 10
20.375817188218409
 20
28.3038323886685
 30
0.0
  0
VERTEX
  5
2BC3
  8
LAYER_1
 10
20.26944619211854
 20
28.3038323886685
 30
0.0
  0
VERTEX
  5
2BC4
  8
LAYER_1
 10
20.26944619211854
 20
28.197244751028698
 30
0.0
  0
SEQEND
  5
2BC5
  8
LAYER_1
  0
LINE
  5
2BC6
  8
LAYER_1
 10
20.26944619211854
 20
28.3038323886685
 30
0.0
 11
20.26944619211854
 21
28.197244751028698
 31
0.0
  0
LINE
  5
2BC7
  8
LAYER_1
 10
20.26944619211854
 20
28.3038323886685
 30
0.0
 11
20.26944619211854
 21
28.197244751028698
 31
0.0
  0
LINE
  5
2BC8
  8
LAYER_1
 10
20.26944619211854
 20
28.3038323886685
 30
0.0
 11
20.26944619211854
 21
28.197244751028698
 31
0.0
  0
LINE
  5
2BC9
  8
LAYER_1
 10
20.26944619211854
 20
28.3038323886685
 30
0.0
 11
20.26944619211854
 21
28.197244751028698
 31
0.0
  0
LINE
  5
2BCA
  8
LAYER_1
 10
20.26944619211854
 20
28.3038323886685
 30
0.0
 11
20.26944619211854
 21
28.197244751028698
 31
0.0
  0
LINE
  5
2BCB
  8
LAYER_1
 10
20.26944619211854
 20
28.3038323886685
 30
0.0
 11
20.26944619211854
 21
28.197244751028698
 31
0.0
  0
LINE
  5
2BCC
  8
LAYER_1
 10
20.26944619211854
 20
28.3038323886685
 30
0.0
 11
20.26944619211854
 21
28.197244751028698
 31
0.0
  0
LINE
  5
2BCD
  8
LAYER_1
 10
20.26944619211854
 20
28.3038323886685
 30
0.0
 11
20.26944619211854
 21
28.091090396468761
 31
0.0
  0
POLYLINE
  5
2BCE
  8
LAYER_1
 66
     1
 10
0.0
 20
0.0
 30
0.0
  0
VERTEX
  5
2BCF
  8
LAYER_1
 10
20.26944619211854
 20
28.197244751028698
 30
0.0
  0
VERTEX
  5
2BD0
  8
LAYER_1
 10
20.16285855447871
 20
28.197244751028698
 30
0.0
  0
VERTEX
  5
2BD1
  8
LAYER_1
 10
20.16285855447871
 20
28.091090396468761
 30
0.0
  0
SEQEND
  5
2BD2
  8
LAYER_1
  0
LINE
  5
2BD3
  8
LAYER_1
 10
20.16285855447871
 20
28.197244751028698
 30
0.0
 11
20.16285855447871
 21
28.091090396468761
 31
0.0
  0
LINE
  5
2BD4
  8
LAYER_1
 10
20.16285855447871
 20
28.197244751028698
 30
0.0
 11
20.16285855447871
 21
28.091090396468761
 31
0.0
  0
LINE
  5
2BD5
  8
LAYER_1
 10
20.16285855447871
 20
28.197244751028698
 30
0.0
 11
20.16285855447871
 21
28.091090396468761
 31
0.0
  0
POLYLINE
  5
2BD6
  8
LAYER_1
 66
     1
 10
0.0
 20
0.0
 30
0.0
  0
VERTEX
  5
2BD7
  8
LAYER_1
 10
20.16285855447871
 20
28.197244751028698
 30
0.0
  0
VERTEX
  5
2BD8
  8
LAYER_1
 10
20.056487558378841
 20
28.197244751028698
 30
0.0
  0
VERTEX
  5
2BD9
  8
LAYER_1
 10
20.056487558378841
 20
27.98450275882896
 30
0.0
  0
SEQEND
  5
2BDA
  8
LAYER_1
  0
LINE
  5
2BDB
  8
LAYER_1
 10
20.056487558378841
 20
28.091090396468761
 30
0.0
 11
20.056487558378841
 21
27.98450275882896
 31
0.0
  0
LINE
  5
2BDC
  8
LAYER_1
 10
20.056487558378841
 20
28.091090396468761
 30
0.0
 11
20.056487558378841
 21
27.98450275882896
 31
0.0
  0
POLYLINE
  5
2BDD
  8
LAYER_1
 66
     1
 10
0.0
 20
0.0
 30
0.0
  0
VERTEX
  5
2BDE
  8
LAYER_1
 10
20.056487558378841
 20
28.091090396468761
 30
0.0
  0
VERTEX
  5
2BDF
  8
LAYER_1
 10
19.94989992073911
 20
28.091090396468761
 30
0.0
  0
VERTEX
  5
2BE0
  8
LAYER_1
 10
19.94989992073911
 20
27.98450275882896
 30
0.0
  0
SEQEND
  5
2BE1
  8
LAYER_1
  0
LINE
  5
2BE2
  8
LAYER_1
 10
19.94989992073911
 20
28.091090396468761
 30
0.0
 11
19.94989992073911
 21
27.877915121189162
 31
0.0
  0
LINE
  5
2BE3
  8
LAYER_1
 10
19.94989992073911
 20
27.98450275882896
 30
0.0
 11
19.84352892463918
 21
27.98450275882896
 31
0.0
  0
LINE
  5
2BE4
  8
LAYER_1
 10
-16.68050157326239
 20
28.197244751028698
 30
0.0
 11
-16.68050157326239
 21
28.091090396468761
 31
0.0
  0
LINE
  5
2BE5
  8
LAYER_1
 10
-16.68050157326239
 20
28.197244751028698
 30
0.0
 11
-16.68050157326239
 21
28.091090396468761
 31
0.0
  0
LINE
  5
2BE6
  8
LAYER_1
 10
-16.68050157326239
 20
28.197244751028698
 30
0.0
 11
-16.68050157326239
 21
28.091090396468761
 31
0.0
  0
LINE
  5
2BE7
  8
LAYER_1
 10
-16.68050157326239
 20
28.197244751028698
 30
0.0
 11
-16.68050157326239
 21
28.091090396468761
 31
0.0
  0
LINE
  5
2BE8
  8
LAYER_1
 10
-16.68050157326239
 20
28.197244751028698
 30
0.0
 11
-16.68050157326239
 21
28.091090396468761
 31
0.0
  0
LINE
  5
2BE9
  8
LAYER_1
 10
-16.68050157326239
 20
28.197244751028698
 30
0.0
 11
-16.68050157326239
 21
28.091090396468761
 31
0.0
  0
LINE
  5
2BEA
  8
LAYER_1
 10
20.375817188218409
 20
28.41042002630827
 30
0.0
 11
20.375817188218409
 21
28.197244751028698
 31
0.0
  0
LINE
  5
2BEB
  8
LAYER_1
 10
22.505620167154941
 20
28.747763008464759
 30
0.0
 11
22.505620167154941
 21
28.62316201850804
 31
0.0
  0
LINE
  5
2BEC
  8
LAYER_1
 10
19.41761165715987
 20
27.66517312898943
 30
0.0
 11
19.41761165715987
 21
27.558585491349628
 31
0.0
  0
LINE
  5
2BED
  8
LAYER_1
 10
17.394396315863101
 20
26.280833688911638
 30
0.0
 11
17.394396315863101
 21
26.174246051271851
 31
0.0
  0
POLYLINE
  5
2BEE
  8
LAYER_1
 66
     1
 10
0.0
 20
0.0
 30
0.0
  0
VERTEX
  5
2BEF
  8
LAYER_1
 10
17.394396315863101
 20
26.280833688911638
 30
0.0
  0
VERTEX
  5
2BF0
  8
LAYER_1
 10
17.394396315863101
 20
26.386988043471611
 30
0.0
  0
VERTEX
  5
2BF1
  8
LAYER_1
 10
17.394396315863101
 20
26.280833688911638
 30
0.0
  0
SEQEND
  5
2BF2
  8
LAYER_1
  0
LINE
  5
2BF3
  8
LAYER_1
 10
17.394396315863101
 20
26.386988043471611
 30
0.0
 11
17.394396315863101
 21
26.280833688911638
 31
0.0
  0
POLYLINE
  5
2BF4
  8
LAYER_1
 66
     1
 10
0.0
 20
0.0
 30
0.0
  0
VERTEX
  5
2BF5
  8
LAYER_1
 10
17.394396315863101
 20
26.386988043471611
 30
0.0
  0
VERTEX
  5
2BF6
  8
LAYER_1
 10
17.394396315863101
 20
26.493575681111391
 30
0.0
  0
VERTEX
  5
2BF7
  8
LAYER_1
 10
17.394396315863101
 20
26.386988043471611
 30
0.0
  0
SEQEND
  5
2BF8
  8
LAYER_1
  0
LINE
  5
2BF9
  8
LAYER_1
 10
17.394396315863101
 20
26.493575681111391
 30
0.0
 11
17.394396315863101
 21
26.386988043471611
 31
0.0
  0
POLYLINE
  5
2BFA
  8
LAYER_1
 66
     1
 10
0.0
 20
0.0
 30
0.0
  0
VERTEX
  5
2BFB
  8
LAYER_1
 10
17.394396315863101
 20
26.493575681111391
 30
0.0
  0
VERTEX
  5
2BFC
  8
LAYER_1
 10
17.394396315863101
 20
26.6001633187512
 30
0.0
  0
VERTEX
  5
2BFD
  8
LAYER_1
 10
17.394396315863101
 20
26.493575681111391
 30
0.0
  0
SEQEND
  5
2BFE
  8
LAYER_1
  0
LINE
  5
2BFF
  8
LAYER_1
 10
17.394396315863101
 20
26.6001633187512
 30
0.0
 11
17.394396315863101
 21
26.493575681111391
 31
0.0
  0
LINE
  5
2C00
  8
LAYER_1
 10
17.394396315863101
 20
26.6001633187512
 30
0.0
 11
17.394396315863101
 21
26.493575681111391
 31
0.0
  0
POLYLINE
  5
2C01
  8
LAYER_1
 66
     1
 10
0.0
 20
0.0
 30
0.0
  0
VERTEX
  5
2C02
  8
LAYER_1
 10
17.394396315863101
 20
26.6001633187512
 30
0.0
  0
VERTEX
  5
2C03
  8
LAYER_1
 10
17.394396315863101
 20
26.70675095639098
 30
0.0
  0
VERTEX
  5
2C04
  8
LAYER_1
 10
17.394396315863101
 20
26.6001633187512
 30
0.0
  0
SEQEND
  5
2C05
  8
LAYER_1
  0
POLYLINE
  5
2C06
  8
LAYER_1
 66
     1
 10
0.0
 20
0.0
 30
0.0
  0
VERTEX
  5
2C07
  8
LAYER_1
 10
17.394396315863101
 20
26.70675095639098
 30
0.0
  0
VERTEX
  5
2C08
  8
LAYER_1
 10
17.500767311962981
 20
26.70675095639098
 30
0.0
  0
VERTEX
  5
2C09
  8
LAYER_1
 10
17.500767311962981
 20
26.6001633187512
 30
0.0
  0
SEQEND
  5
2C0A
  8
LAYER_1
  0
POLYLINE
  5
2C0B
  8
LAYER_1
 66
     1
 10
0.0
 20
0.0
 30
0.0
  0
VERTEX
  5
2C0C
  8
LAYER_1
 10
17.500767311962981
 20
26.70675095639098
 30
0.0
  0
VERTEX
  5
2C0D
  8
LAYER_1
 10
17.500767311962981
 20
26.812905310950931
 30
0.0
  0
VERTEX
  5
2C0E
  8
LAYER_1
 10
17.500767311962981
 20
26.70675095639098
 30
0.0
  0
SEQEND
  5
2C0F
  8
LAYER_1
  0
LINE
  5
2C10
  8
LAYER_1
 10
17.500767311962981
 20
26.812905310950931
 30
0.0
 11
17.500767311962981
 21
26.70675095639098
 31
0.0
  0
LINE
  5
2C11
  8
LAYER_1
 10
17.500767311962981
 20
26.812905310950931
 30
0.0
 11
17.500767311962981
 21
26.70675095639098
 31
0.0
  0
POLYLINE
  5
2C12
  8
LAYER_1
 66
     1
 10
0.0
 20
0.0
 30
0.0
  0
VERTEX
  5
2C13
  8
LAYER_1
 10
17.500767311962981
 20
26.812905310950931
 30
0.0
  0
VERTEX
  5
2C14
  8
LAYER_1
 10
17.500767311962981
 20
26.919492948590719
 30
0.0
  0
VERTEX
  5
2C15
  8
LAYER_1
 10
17.500767311962981
 20
26.812905310950931
 30
0.0
  0
SEQEND
  5
2C16
  8
LAYER_1
  0
LINE
  5
2C17
  8
LAYER_1
 10
17.500767311962981
 20
26.919492948590719
 30
0.0
 11
17.500767311962981
 21
26.812905310950931
 31
0.0
  0
POLYLINE
  5
2C18
  8
LAYER_1
 66
     1
 10
0.0
 20
0.0
 30
0.0
  0
VERTEX
  5
2C19
  8
LAYER_1
 10
17.500767311962981
 20
26.919492948590719
 30
0.0
  0
VERTEX
  5
2C1A
  8
LAYER_1
 10
17.500767311962981
 20
27.026080586230531
 30
0.0
  0
VERTEX
  5
2C1B
  8
LAYER_1
 10
17.500767311962981
 20
26.919492948590719
 30
0.0
  0
SEQEND
  5
2C1C
  8
LAYER_1
  0
POLYLINE
  5
2C1D
  8
LAYER_1
 66
     1
 10
0.0
 20
0.0
 30
0.0
  0
VERTEX
  5
2C1E
  8
LAYER_1
 10
17.500767311962981
 20
27.026080586230531
 30
0.0
  0
VERTEX
  5
2C1F
  8
LAYER_1
 10
17.60735494960273
 20
27.026080586230531
 30
0.0
  0
VERTEX
  5
2C20
  8
LAYER_1
 10
17.60735494960273
 20
27.132668223870301
 30
0.0
  0
VERTEX
  5
2C21
  8
LAYER_1
 10
17.60735494960273
 20
27.026080586230531
 30
0.0
  0
SEQEND
  5
2C22
  8
LAYER_1
  0
LINE
  5
2C23
  8
LAYER_1
 10
17.60735494960273
 20
27.132668223870301
 30
0.0
 11
17.60735494960273
 21
27.026080586230531
 31
0.0
  0
POLYLINE
  5
2C24
  8
LAYER_1
 66
     1
 10
0.0
 20
0.0
 30
0.0
  0
VERTEX
  5
2C25
  8
LAYER_1
 10
17.60735494960273
 20
27.132668223870301
 30
0.0
  0
VERTEX
  5
2C26
  8
LAYER_1
 10
17.60735494960273
 20
27.23882257843027
 30
0.0
  0
VERTEX
  5
2C27
  8
LAYER_1
 10
17.60735494960273
 20
27.132668223870301
 30
0.0
  0
SEQEND
  5
2C28
  8
LAYER_1
  0
LINE
  5
2C29
  8
LAYER_1
 10
17.60735494960273
 20
27.23882257843027
 30
0.0
 11
17.60735494960273
 21
27.132668223870301
 31
0.0
  0
POLYLINE
  5
2C2A
  8
LAYER_1
 66
     1
 10
0.0
 20
0.0
 30
0.0
  0
VERTEX
  5
2C2B
  8
LAYER_1
 10
17.60735494960273
 20
27.23882257843027
 30
0.0
  0
VERTEX
  5
2C2C
  8
LAYER_1
 10
17.60735494960273
 20
27.34541021607005
 30
0.0
  0
VERTEX
  5
2C2D
  8
LAYER_1
 10
17.713725945702599
 20
27.34541021607005
 30
0.0
  0
VERTEX
  5
2C2E
  8
LAYER_1
 10
17.713725945702599
 20
27.23882257843027
 30
0.0
  0
SEQEND
  5
2C2F
  8
LAYER_1
  0
LINE
  5
2C30
  8
LAYER_1
 10
17.713725945702599
 20
27.34541021607005
 30
0.0
 11
17.713725945702599
 21
27.23882257843027
 31
0.0
  0
POLYLINE
  5
2C31
  8
LAYER_1
 66
     1
 10
0.0
 20
0.0
 30
0.0
  0
VERTEX
  5
2C32
  8
LAYER_1
 10
17.713725945702599
 20
27.34541021607005
 30
0.0
  0
VERTEX
  5
2C33
  8
LAYER_1
 10
17.713725945702599
 20
27.451997853709841
 30
0.0
  0
VERTEX
  5
2C34
  8
LAYER_1
 10
17.713725945702599
 20
27.34541021607005
 30
0.0
  0
SEQEND
  5
2C35
  8
LAYER_1
  0
LINE
  5
2C36
  8
LAYER_1
 10
17.713725945702599
 20
27.451997853709841
 30
0.0
 11
17.713725945702599
 21
27.34541021607005
 31
0.0
  0
POLYLINE
  5
2C37
  8
LAYER_1
 66
     1
 10
0.0
 20
0.0
 30
0.0
  0
VERTEX
  5
2C38
  8
LAYER_1
 10
17.713725945702599
 20
27.451997853709841
 30
0.0
  0
VERTEX
  5
2C39
  8
LAYER_1
 10
17.820313583342418
 20
27.558585491349628
 30
0.0
  0
VERTEX
  5
2C3A
  8
LAYER_1
 10
17.820313583342418
 20
27.451997853709841
 30
0.0
  0
SEQEND
  5
2C3B
  8
LAYER_1
  0
LINE
  5
2C3C
  8
LAYER_1
 10
17.820313583342418
 20
27.558585491349628
 30
0.0
 11
17.820313583342418
 21
27.451997853709841
 31
0.0
  0
POLYLINE
  5
2C3D
  8
LAYER_1
 66
     1
 10
0.0
 20
0.0
 30
0.0
  0
VERTEX
  5
2C3E
  8
LAYER_1
 10
17.820313583342418
 20
27.558585491349628
 30
0.0
  0
VERTEX
  5
2C3F
  8
LAYER_1
 10
17.820313583342418
 20
27.66517312898943
 30
0.0
  0
VERTEX
  5
2C40
  8
LAYER_1
 10
17.820313583342418
 20
27.558585491349628
 30
0.0
  0
SEQEND
  5
2C41
  8
LAYER_1
  0
LINE
  5
2C42
  8
LAYER_1
 10
17.820313583342418
 20
27.66517312898943
 30
0.0
 11
17.820313583342418
 21
27.558585491349628
 31
0.0
  0
POLYLINE
  5
2C43
  8
LAYER_1
 66
     1
 10
0.0
 20
0.0
 30
0.0
  0
VERTEX
  5
2C44
  8
LAYER_1
 10
17.820313583342418
 20
27.66517312898943
 30
0.0
  0
VERTEX
  5
2C45
  8
LAYER_1
 10
17.926684579442298
 20
27.771327483549371
 30
0.0
  0
VERTEX
  5
2C46
  8
LAYER_1
 10
17.926684579442298
 20
27.66517312898943
 30
0.0
  0
SEQEND
  5
2C47
  8
LAYER_1
  0
LINE
  5
2C48
  8
LAYER_1
 10
17.926684579442298
 20
27.771327483549371
 30
0.0
 11
17.926684579442298
 21
27.66517312898943
 31
0.0
  0
POLYLINE
  5
2C49
  8
LAYER_1
 66
     1
 10
0.0
 20
0.0
 30
0.0
  0
VERTEX
  5
2C4A
  8
LAYER_1
 10
17.926684579442298
 20
27.771327483549371
 30
0.0
  0
VERTEX
  5
2C4B
  8
LAYER_1
 10
17.926684579442298
 20
27.877915121189162
 30
0.0
  0
VERTEX
  5
2C4C
  8
LAYER_1
 10
17.926684579442298
 20
27.771327483549371
 30
0.0
  0
SEQEND
  5
2C4D
  8
LAYER_1
  0
POLYLINE
  5
2C4E
  8
LAYER_1
 66
     1
 10
0.0
 20
0.0
 30
0.0
  0
VERTEX
  5
2C4F
  8
LAYER_1
 10
17.926684579442298
 20
27.877915121189162
 30
0.0
  0
VERTEX
  5
2C50
  8
LAYER_1
 10
18.033272217082079
 20
27.877915121189162
 30
0.0
  0
VERTEX
  5
2C51
  8
LAYER_1
 10
18.033272217082079
 20
27.98450275882896
 30
0.0
  0
VERTEX
  5
2C52
  8
LAYER_1
 10
18.033272217082079
 20
27.877915121189162
 30
0.0
  0
SEQEND
  5
2C53
  8
LAYER_1
  0
LINE
  5
2C54
  8
LAYER_1
 10
18.033272217082079
 20
27.98450275882896
 30
0.0
 11
18.033272217082079
 21
27.877915121189162
 31
0.0
  0
POLYLINE
  5
2C55
  8
LAYER_1
 66
     1
 10
0.0
 20
0.0
 30
0.0
  0
VERTEX
  5
2C56
  8
LAYER_1
 10
18.033272217082079
 20
27.98450275882896
 30
0.0
  0
VERTEX
  5
2C57
  8
LAYER_1
 10
18.13964321318198
 20
28.091090396468761
 30
0.0
  0
VERTEX
  5
2C58
  8
LAYER_1
 10
18.13964321318198
 20
27.98450275882896
 30
0.0
  0
SEQEND
  5
2C59
  8
LAYER_1
  0
LINE
  5
2C5A
  8
LAYER_1
 10
18.13964321318198
 20
28.091090396468761
 30
0.0
 11
18.13964321318198
 21
27.98450275882896
 31
0.0
  0
POLYLINE
  5
2C5B
  8
LAYER_1
 66
     1
 10
0.0
 20
0.0
 30
0.0
  0
VERTEX
  5
2C5C
  8
LAYER_1
 10
18.13964321318198
 20
28.091090396468761
 30
0.0
  0
VERTEX
  5
2C5D
  8
LAYER_1
 10
18.13964321318198
 20
28.197244751028698
 30
0.0
  0
VERTEX
  5
2C5E
  8
LAYER_1
 10
18.246230850821739
 20
28.197244751028698
 30
0.0
  0
VERTEX
  5
2C5F
  8
LAYER_1
 10
18.246230850821739
 20
28.091090396468761
 30
0.0
  0
SEQEND
  5
2C60
  8
LAYER_1
  0
LINE
  5
2C61
  8
LAYER_1
 10
18.246230850821739
 20
28.197244751028698
 30
0.0
 11
18.246230850821739
 21
28.091090396468761
 31
0.0
  0
LINE
  5
2C62
  8
LAYER_1
 10
18.246230850821739
 20
28.197244751028698
 30
0.0
 11
18.246230850821739
 21
28.3038323886685
 31
0.0
  0
LINE
  5
2C63
  8
LAYER_1
 10
20.375817188218409
 20
28.41042002630827
 30
0.0
 11
20.375817188218409
 21
28.3038323886685
 31
0.0
  0
LINE
  5
2C64
  8
LAYER_1
 10
0.0375094206908386
 20
0.0858385312335131
 30
0.0
 11
1.528219856868503
 21
0.0858385312335131
 31
0.0
  0
LINE
  5
2C65
  8
LAYER_1
 10
-16.68050157326239
 20
28.197244751028698
 30
0.0
 11
-16.68050157326239
 21
28.091090396468761
 31
0.0
  0
LINE
  5
2C66
  8
LAYER_1
 10
-16.68050157326239
 20
28.197244751028698
 30
0.0
 11
-16.68050157326239
 21
28.091090396468761
 31
0.0
  0
LINE
  5
2C67
  8
LAYER_1
 10
-16.68050157326239
 20
28.197244751028698
 30
0.0
 11
-16.68050157326239
 21
28.091090396468761
 31
0.0
  0
LINE
  5
2C68
  8
0
 10
23.782357307966461
 20
28.747763008464759
 30
0.0
 11
-22.217642692033539
 21
28.747763008464759
 31
0.0
  0
POLYLINE
  5
2C69
  8
LAYER_1
 66
     1
 10
0.0
 20
0.0
 30
0.0
  0
VERTEX
  5
2C6A
  8
LAYER_1
 10
-22.217642692033539
 20
29.803433378625218
 30
0.0
  0
VERTEX
  5
2C6B
  8
LAYER_1
 10
-22.111055054393699
 20
30.016175370824978
 30
0.0
  0
VERTEX
  5
2C6C
  8
LAYER_1
 10
-21.791725424554169
 20
30.122763008464759
 30
0.0
  0
SEQEND
  5
2C6D
  8
LAYER_1
  0
LINE
  5
2C6E
  8
0
 10
5.2551042680825191
 20
31.310263008464759
 30
0.0
 11
-3.6893749905232052
 21
31.310263008464759
 31
0.0
  0
LINE
  5
2C6F
  8
0
 10
23.783371969592942
 20
29.803433378625218
 30
0.0
 11
23.782357307966461
 21
28.747763008464759
 31
0.0
  0
LINE
  5
2C70
  8
0
 10
-22.217642692033539
 20
29.803433378625218
 30
0.0
 11
-22.217642692033539
 21
28.747763008464759
 31
0.0
  0
LINE
  5
2C71
  8
0
 10
18.565560480661301
 20
28.729749656147821
 30
0.0
 11
18.565560480661301
 21
28.747763008464759
 31
0.0
  0
ENDBLK
  5
1ED3
  8
0
 62
     1
  0
ENDSEC
  0
SECTION
  2
ENTITIES
  0
INSERT
  5
2C72
  8
0
 62
     1
  2
1190FRT
 10
0.0
 20
0.0
 30
0.0
  0
ATTDEF
  5
2C73
  8
0
 62
     7
 10
0.0
 20
0.0
 30
0.0
 40
0.001
  1
K-1190
  3

  2
MODELNUMBER
 70
     8
1001
ACDBATTR
1070
     0
1070
     1
  0
ATTDEF
  5
2C74
  8
0
 62
     7
 10
0.0
 20
-0.0016666666666667
 30
0.0
 40
0.001
  1
PURIST
  3

  2
TRADENAME
 70
     8
1001
ACDBATTR
1070
     0
1070
     1
  0
ATTDEF
  5
2C75
  8
0
 62
     7
 10
0.0
 20
-0.0033333333333333
 30
0.0
 40
0.001
  1
BATH
  3

  2
PRODUCT
 70
     8
1001
ACDBATTR
1070
     0
1070
     1
  0
ATTDEF
  5
2C76
  8
0
 62
     7
 10
0.0
 20
-0.005
 30
0.0
 40
0.001
  1
ACRYLIC
  3

  2
MATERIAL
 70
     8
1001
ACDBATTR
1070
     0
1070
     1
  0
ENDSEC
  0
EOF
