  0
SECTION
  2
HEADER
  9
$ACADVER
  1
AC1015
  9
$ACADMAINTVER
 70
    20
  9
$DWGCODEPAGE
  3
ANSI_936
  9
$INSBASE
 10
0.0
 20
0.0
 30
0.0
  9
$EXTMIN
 10
-456.7302185807607
 20
-27.77186662502845
 30
-0.0000000349181948
  9
$EXTMAX
 10
323.3345563293237
 20
452.3324901721216
 30
0.0000000814935746
  9
$LIMMIN
 10
0.0
 20
0.0
  9
$LIMMAX
 10
34.0
 20
22.0
  9
$ORTHOMODE
 70
     0
  9
$REGENMODE
 70
     1
  9
$FILLMODE
 70
     1
  9
$QTEXTMODE
 70
     0
  9
$MIRRTEXT
 70
     0
  9
$LTSCALE
 40
1.87
  9
$ATTMODE
 70
     1
  9
$TEXTSIZE
 40
0.2
  9
$TRACEWID
 40
0.05
  9
$TEXTSTYLE
  7
STANDARD
  9
$CLAYER
  8
0
  9
$CELTYPE
  6
BYLAYER
  9
$CECOLOR
 62
   256
  9
$CELTSCALE
 40
1.0
  9
$DISPSILH
 70
     0
  9
$DIMSCALE
 40
1.0
  9
$DIMASZ
 40
0.1875
  9
$DIMEXO
 40
0.2125
  9
$DIMDLI
 40
1.291999999999999
  9
$DIMRND
 40
0.0
  9
$DIMDLE
 40
0.0
  9
$DIMEXE
 40
0.612
  9
$DIMTP
 40
0.1
  9
$DIMTM
 40
0.1
  9
$DIMTXT
 40
0.3
  9
$DIMCEN
 40
0.306
  9
$DIMTSZ
 40
0.0
  9
$DIMTOL
 70
     1
  9
$DIMLIM
 70
     0
  9
$DIMTIH
 70
     1
  9
$DIMTOH
 70
     1
  9
$DIMSE1
 70
     0
  9
$DIMSE2
 70
     0
  9
$DIMTAD
 70
     0
  9
$DIMZIN
 70
     0
  9
$DIMBLK
  1

  9
$DIMASO
 70
     1
  9
$DIMSHO
 70
     1
  9
$DIMPOST
  1

  9
$DIMAPOST
  1

  9
$DIMALT
 70
     0
  9
$DIMALTD
 70
     2
  9
$DIMALTF
 40
25.4
  9
$DIMLFAC
 40
1.0
  9
$DIMTOFL
 70
     0
  9
$DIMTVP
 40
0.0
  9
$DIMTIX
 70
     0
  9
$DIMSOXD
 70
     0
  9
$DIMSAH
 70
     0
  9
$DIMBLK1
  1

  9
$DIMBLK2
  1

  9
$DIMSTYLE
  2
STANDARD
  9
$DIMCLRD
 70
     0
  9
$DIMCLRE
 70
     0
  9
$DIMCLRT
 70
     0
  9
$DIMTFAC
 40
1.0
  9
$DIMGAP
 40
0.09
  9
$DIMJUST
 70
     0
  9
$DIMSD1
 70
     0
  9
$DIMSD2
 70
     0
  9
$DIMTOLJ
 70
     1
  9
$DIMTZIN
 70
     0
  9
$DIMALTZ
 70
     0
  9
$DIMALTTZ
 70
     0
  9
$DIMUPT
 70
     0
  9
$DIMDEC
 70
     4
  9
$DIMTDEC
 70
     4
  9
$DIMALTU
 70
     2
  9
$DIMALTTD
 70
     2
  9
$DIMTXSTY
  7
STANDARD
  9
$DIMAUNIT
 70
     0
  9
$DIMADEC
 70
     0
  9
$DIMALTRND
 40
0.0
  9
$DIMAZIN
 70
     0
  9
$DIMDSEP
 70
    46
  9
$DIMATFIT
 70
     3
  9
$DIMFRAC
 70
     0
  9
$DIMLDRBLK
  1

  9
$DIMLUNIT
 70
     2
  9
$DIMLWD
 70
    -2
  9
$DIMLWE
 70
    -2
  9
$DIMTMOVE
 70
     0
  9
$LUNITS
 70
     2
  9
$LUPREC
 70
     4
  9
$SKETCHINC
 40
0.1
  9
$FILLETRAD
 40
0.0
  9
$AUNITS
 70
     0
  9
$AUPREC
 70
     0
  9
$MENU
  1
.
  9
$ELEVATION
 40
0.0
  9
$PELEVATION
 40
0.0
  9
$THICKNESS
 40
0.0
  9
$LIMCHECK
 70
     0
  9
$CHAMFERA
 40
0.0
  9
$CHAMFERB
 40
0.0
  9
$CHAMFERC
 40
0.0
  9
$CHAMFERD
 40
0.0
  9
$SKPOLY
 70
     0
  9
$TDCREATE
 40
2455636.660455185
  9
$TDUCREATE
 40
2455636.327121852
  9
$TDUPDATE
 40
2455636.676499630
  9
$TDUUPDATE
 40
2455636.343166296
  9
$TDINDWG
 40
0.0014757986
  9
$TDUSRTIMER
 40
0.0014757986
  9
$USRTIMER
 70
     1
  9
$ANGBASE
 50
0.0
  9
$ANGDIR
 70
     0
  9
$PDMODE
 70
     3
  9
$PDSIZE
 40
0.3125
  9
$PLINEWID
 40
0.0
  9
$SPLFRAME
 70
     0
  9
$SPLINETYPE
 70
     6
  9
$SPLINESEGS
 70
     8
  9
$HANDSEED
  5
737
  9
$SURFTAB1
 70
     6
  9
$SURFTAB2
 70
     6
  9
$SURFTYPE
 70
     6
  9
$SURFU
 70
     6
  9
$SURFV
 70
     6
  9
$UCSBASE
  2

  9
$UCSNAME
  2

  9
$UCSORG
 10
0.0
 20
0.0
 30
0.0
  9
$UCSXDIR
 10
1.0
 20
0.0
 30
0.0
  9
$UCSYDIR
 10
0.0
 20
1.0
 30
0.0
  9
$UCSORTHOREF
  2

  9
$UCSORTHOVIEW
 70
     0
  9
$UCSORGTOP
 10
0.0
 20
0.0
 30
0.0
  9
$UCSORGBOTTOM
 10
0.0
 20
0.0
 30
0.0
  9
$UCSORGLEFT
 10
0.0
 20
0.0
 30
0.0
  9
$UCSORGRIGHT
 10
0.0
 20
0.0
 30
0.0
  9
$UCSORGFRONT
 10
0.0
 20
0.0
 30
0.0
  9
$UCSORGBACK
 10
0.0
 20
0.0
 30
0.0
  9
$PUCSBASE
  2

  9
$PUCSNAME
  2

  9
$PUCSORG
 10
0.0
 20
0.0
 30
0.0
  9
$PUCSXDIR
 10
1.0
 20
0.0
 30
0.0
  9
$PUCSYDIR
 10
0.0
 20
1.0
 30
0.0
  9
$PUCSORTHOREF
  2

  9
$PUCSORTHOVIEW
 70
     0
  9
$PUCSORGTOP
 10
0.0
 20
0.0
 30
0.0
  9
$PUCSORGBOTTOM
 10
0.0
 20
0.0
 30
0.0
  9
$PUCSORGLEFT
 10
0.0
 20
0.0
 30
0.0
  9
$PUCSORGRIGHT
 10
0.0
 20
0.0
 30
0.0
  9
$PUCSORGFRONT
 10
0.0
 20
0.0
 30
0.0
  9
$PUCSORGBACK
 10
0.0
 20
0.0
 30
0.0
  9
$USERI1
 70
     0
  9
$USERI2
 70
     0
  9
$USERI3
 70
     0
  9
$USERI4
 70
     0
  9
$USERI5
 70
     0
  9
$USERR1
 40
0.0
  9
$USERR2
 40
0.0
  9
$USERR3
 40
0.0
  9
$USERR4
 40
0.0
  9
$USERR5
 40
0.0
  9
$WORLDVIEW
 70
     1
  9
$SHADEDGE
 70
     3
  9
$SHADEDIF
 70
    70
  9
$TILEMODE
 70
     1
  9
$MAXACTVP
 70
    64
  9
$PINSBASE
 10
0.0
 20
0.0
 30
0.0
  9
$PLIMCHECK
 70
     0
  9
$PEXTMIN
 10
1.000000000000000E+20
 20
1.000000000000000E+20
 30
1.000000000000000E+20
  9
$PEXTMAX
 10
-1.000000000000000E+20
 20
-1.000000000000000E+20
 30
-1.000000000000000E+20
  9
$PLIMMIN
 10
0.0
 20
0.0
  9
$PLIMMAX
 10
12.0
 20
9.0
  9
$UNITMODE
 70
     0
  9
$VISRETAIN
 70
     1
  9
$PLINEGEN
 70
     0
  9
$PSLTSCALE
 70
     1
  9
$TREEDEPTH
 70
  3020
  9
$CMLSTYLE
  2
Standard
  9
$CMLJUST
 70
     0
  9
$CMLSCALE
 40
1.0
  9
$PROXYGRAPHICS
 70
     1
  9
$MEASUREMENT
 70
     0
  9
$CELWEIGHT
370
    -1
  9
$ENDCAPS
280
     0
  9
$JOINSTYLE
280
     0
  9
$LWDISPLAY
290
     0
  9
$INSUNITS
 70
     1
  9
$HYPERLINKBASE
  1

  9
$STYLESHEET
  1

  9
$XEDIT
290
     1
  9
$CEPSNTYPE
380
     0
  9
$PSTYLEMODE
290
     1
  9
$FINGERPRINTGUID
  2
{5E95FA70-1F5E-4921-A441-317A078008F4}
  9
$VERSIONGUID
  2
{5277EC9F-3B91-4384-8BE9-3C2E75D0A24E}
  9
$EXTNAMES
290
     1
  9
$PSVPSCALE
 40
0.0
  9
$OLESTARTUP
290
     0
  0
ENDSEC
  0
SECTION
  2
CLASSES
  0
CLASS
  1
ACDBDICTIONARYWDFLT
  2
AcDbDictionaryWithDefault
  3
ObjectDBX Classes
 90
        0
280
     0
281
     0
  0
CLASS
  1
ACDBPLACEHOLDER
  2
AcDbPlaceHolder
  3
ObjectDBX Classes
 90
        0
280
     0
281
     0
  0
CLASS
  1
LAYOUT
  2
AcDbLayout
  3
ObjectDBX Classes
 90
        0
280
     0
281
     0
  0
CLASS
  1
TABLESTYLE
  2
AcDbTableStyle
  3
ObjectDBX Classes
 90
     4095
280
     0
281
     0
  0
CLASS
  1
ACAD_TABLE
  2
AcDbTable
  3
ObjectDBX Classes
 90
    33793
280
     0
281
     1
  0
CLASS
  1
MATERIAL
  2
AcDbMaterial
  3
ObjectDBX Classes
 90
     1153
280
     0
281
     0
  0
CLASS
  1
VISUALSTYLE
  2
AcDbVisualStyle
  3
ObjectDBX Classes
 90
     4095
280
     0
281
     0
  0
CLASS
  1
SCALE
  2
AcDbScale
  3
ObjectDBX Classes
 90
     1153
280
     0
281
     0
  0
CLASS
  1
MLEADERSTYLE
  2
AcDbMLeaderStyle
  3
ACDB_MLEADERSTYLE_CLASS
 90
     4095
280
     0
281
     0
  0
CLASS
  1
TABLECONTENT
  2
AcDbTableContent
  3
ObjectDBX Classes
 90
    33920
280
     0
281
     0
  0
CLASS
  1
TABLEGEOMETRY
  2
AcDbTableGeometry
  3
ObjectDBX Classes
 90
    33920
280
     0
281
     0
  0
CLASS
  1
CELLSTYLEMAP
  2
AcDbCellStyleMap
  3
ObjectDBX Classes
 90
     1152
280
     0
281
     0
  0
CLASS
  1
DICTIONARYVAR
  2
AcDbDictionaryVar
  3
ObjectDBX Classes
 90
        0
280
     0
281
     0
  0
CLASS
  1
EXACXREFPANELOBJECT
  2
ExAcXREFPanelObject
  3
EXAC_ESW
 90
     1025
280
     0
281
     0
  0
CLASS
  1
NPOCOLLECTION
  2
AcDbImpNonPersistentObjectsCollection
  3
ObjectDBX Classes
 90
     1153
280
     0
281
     0
  0
CLASS
  1
DIMASSOC
  2
AcDbDimAssoc
  3
"AcDbDimAssoc|Product Desc:     AcDim ARX App For Dimension|Company:          Autodesk, Inc.|WEB Address:      www.autodesk.com"
 90
    32768
280
     0
281
     0
  0
ENDSEC
  0
SECTION
  2
TABLES
  0
TABLE
  2
VPORT
  5
8
102
{ACAD_XDICTIONARY
360
701
102
}
330
0
100
AcDbSymbolTable
 70
     1
  0
VPORT
  5
1F4
330
8
100
AcDbSymbolTableRecord
100
AcDbViewportTableRecord
  2
*ACTIVE
 70
     0
 10
0.0
 20
0.0
 11
1.0
 21
1.0
 12
-66.69783112571849
 22
212.2803117735466
 13
0.0
 23
0.0
 14
1.0
 24
1.0
 15
0.0
 25
0.0
 16
0.0
 26
0.0
 36
1.0
 17
0.0
 27
0.0
 37
0.0
 40
493.1817876388754
 41
1.589743589743589
 42
50.0
 43
0.0
 44
0.0
 50
0.0
 51
0.0
 71
     0
 72
   100
 73
     1
 74
     1
 75
     0
 76
     0
 77
     0
 78
     0
281
     0
 65
     1
110
0.0
120
0.0
130
0.0
111
1.0
121
0.0
131
0.0
112
0.0
122
1.0
132
0.0
 79
     0
146
0.0
  0
ENDTAB
  0
TABLE
  2
LTYPE
  5
5
330
0
100
AcDbSymbolTable
 70
     6
  0
LTYPE
  5
14
330
5
100
AcDbSymbolTableRecord
100
AcDbLinetypeTableRecord
  2
BYBLOCK
 70
     0
  3

 72
    65
 73
     0
 40
0.0
  0
LTYPE
  5
15
330
5
100
AcDbSymbolTableRecord
100
AcDbLinetypeTableRecord
  2
BYLAYER
 70
     0
  3

 72
    65
 73
     0
 40
0.0
  0
LTYPE
  5
16
330
5
100
AcDbSymbolTableRecord
100
AcDbLinetypeTableRecord
  2
CONTINUOUS
 70
     0
  3
Solid line
 72
    65
 73
     0
 40
0.0
  0
LTYPE
  5
1F5
330
5
100
AcDbSymbolTableRecord
100
AcDbLinetypeTableRecord
  2
CENTER
 70
     0
  3
____ _ ____ _ ____ _ ____ _ ____ _ ____ _ ____
 72
    65
 73
     4
 40
0.6
 49
0.375
 74
     0
 49
-0.075
 74
     0
 49
0.075
 74
     0
 49
-0.075
 74
     0
  0
LTYPE
  5
1F6
330
5
100
AcDbSymbolTableRecord
100
AcDbLinetypeTableRecord
  2
HIDDEN
 70
     0
  3
- - - - - - - - - - - - - - - - - - - -
 72
    65
 73
     2
 40
0.2
 49
0.1
 74
     0
 49
-0.1
 74
     0
  0
LTYPE
  5
1F7
330
5
100
AcDbSymbolTableRecord
100
AcDbLinetypeTableRecord
  2
PHANTOM
 70
     0
  3
_____ _ _ _____ _ _ _____ _ _ _____
 72
    65
 73
     6
 40
0.8
 49
0.45
 74
     0
 49
-0.05
 74
     0
 49
0.1
 74
     0
 49
-0.05
 74
     0
 49
0.1
 74
     0
 49
-0.05
 74
     0
  0
LTYPE
  5
1F8
330
5
100
AcDbSymbolTableRecord
100
AcDbLinetypeTableRecord
  2
DOT
 70
     0
  3
. . . . . . . . . . . . . . . . . . . .
 72
    65
 73
     2
 40
0.2
 49
0.1
 74
     0
 49
-0.1
 74
     0
  0
LTYPE
  5
1F9
330
5
100
AcDbSymbolTableRecord
100
AcDbLinetypeTableRecord
  2
DASHED
 70
     0
  3
- - - - - - - - - - - - - - - - - - - -
 72
    65
 73
     2
 40
0.2
 49
0.1
 74
     0
 49
-0.1
 74
     0
  0
ENDTAB
  0
TABLE
  2
LAYER
  5
2
330
0
100
AcDbSymbolTable
 70
    16
  0
LAYER
  5
10
102
{ACAD_XDICTIONARY
360
6DC
102
}
330
2
100
AcDbSymbolTableRecord
100
AcDbLayerTableRecord
  2
0
 70
     0
 62
     7
  6
CONTINUOUS
370
    -3
390
F
  0
LAYER
  5
1FA
102
{ACAD_XDICTIONARY
360
6DE
102
}
330
2
100
AcDbSymbolTableRecord
100
AcDbLayerTableRecord
  2
DEFAULT_1
 70
     0
 62
     7
  6
CENTER
370
    -3
390
F
  0
LAYER
  5
1FB
102
{ACAD_XDICTIONARY
360
6E0
102
}
330
2
100
AcDbSymbolTableRecord
100
AcDbLayerTableRecord
  2
DEFAULT_2
 70
     0
 62
     8
  6
HIDDEN
370
    -3
390
F
  0
LAYER
  5
1FC
102
{ACAD_XDICTIONARY
360
6E2
102
}
330
2
100
AcDbSymbolTableRecord
100
AcDbLayerTableRecord
  2
DEFAULT_3
 70
     0
 62
     7
  6
PHANTOM
370
    -3
390
F
  0
LAYER
  5
1FD
102
{ACAD_XDICTIONARY
360
6E4
102
}
330
2
100
AcDbSymbolTableRecord
100
AcDbLayerTableRecord
  2
COSM_SKETCH
 70
     0
 62
     7
  6
CONTINUOUS
370
    -3
390
F
  0
LAYER
  5
1FE
102
{ACAD_XDICTIONARY
360
6E6
102
}
330
2
100
AcDbSymbolTableRecord
100
AcDbLayerTableRecord
  2
DATUM_AXIS
 70
     0
 62
     7
  6
CONTINUOUS
370
    -3
390
F
  0
LAYER
  5
1FF
102
{ACAD_XDICTIONARY
360
6E8
102
}
330
2
100
AcDbSymbolTableRecord
100
AcDbLayerTableRecord
  2
DATUM_CSYS
 70
     0
 62
     7
  6
CONTINUOUS
370
    -3
390
F
  0
LAYER
  5
200
102
{ACAD_XDICTIONARY
360
6EA
102
}
330
2
100
AcDbSymbolTableRecord
100
AcDbLayerTableRecord
  2
DATUM_PLANE
 70
     0
 62
     7
  6
CONTINUOUS
370
    -3
390
F
  0
LAYER
  5
201
102
{ACAD_XDICTIONARY
360
6EC
102
}
330
2
100
AcDbSymbolTableRecord
100
AcDbLayerTableRecord
  2
DATUM_PLN
 70
     0
 62
     7
  6
CONTINUOUS
370
    -3
390
F
  0
LAYER
  5
202
102
{ACAD_XDICTIONARY
360
6EE
102
}
330
2
100
AcDbSymbolTableRecord
100
AcDbLayerTableRecord
  2
GEO_TOL_DATUMS
 70
     0
 62
     7
  6
CONTINUOUS
370
    -3
390
F
  0
LAYER
  5
203
102
{ACAD_XDICTIONARY
360
6F0
102
}
330
2
100
AcDbSymbolTableRecord
100
AcDbLayerTableRecord
  2
_CURVE
 70
     0
 62
     7
  6
CONTINUOUS
370
    -3
390
F
  0
LAYER
  5
204
102
{ACAD_XDICTIONARY
360
6F2
102
}
330
2
100
AcDbSymbolTableRecord
100
AcDbLayerTableRecord
  2
_SURFACE
 70
     0
 62
     7
  6
CONTINUOUS
370
    -3
390
F
  0
LAYER
  5
205
102
{ACAD_XDICTIONARY
360
6F4
102
}
330
2
100
AcDbSymbolTableRecord
100
AcDbLayerTableRecord
  2
___COSMETIC_SKETCH
 70
     0
 62
     7
  6
CONTINUOUS
370
    -3
390
F
  0
LAYER
  5
206
102
{ACAD_XDICTIONARY
360
6F6
102
}
330
2
100
AcDbSymbolTableRecord
100
AcDbLayerTableRecord
  2
___NOTE
 70
     0
 62
     7
  6
CONTINUOUS
370
    -3
390
F
  0
LAYER
  5
207
102
{ACAD_XDICTIONARY
360
6F8
102
}
330
2
100
AcDbSymbolTableRecord
100
AcDbLayerTableRecord
  2
___SYMBOL
 70
     0
 62
     7
  6
CONTINUOUS
370
    -3
390
F
  0
LAYER
  5
6AE
330
2
100
AcDbSymbolTableRecord
100
AcDbLayerTableRecord
  2
Defpoints
 70
     0
 62
     7
  6
CONTINUOUS
290
     0
370
    -3
390
F
  0
ENDTAB
  0
TABLE
  2
STYLE
  5
3
330
0
100
AcDbSymbolTable
 70
    16
  0
STYLE
  5
11
330
3
100
AcDbSymbolTableRecord
100
AcDbTextStyleTableRecord
  2
STANDARD
 70
     0
 40
0.0
 41
0.8
 50
0.0
 71
     0
 42
0.2
  3
txt
  4

  0
STYLE
  5
208
330
3
100
AcDbSymbolTableRecord
100
AcDbTextStyleTableRecord
  2
TEXTSTYLE_1
 70
     0
 40
0.0
 41
0.8
 50
0.0
 71
     0
 42
0.2
  3
gdt
  4

  0
STYLE
  5
209
330
3
100
AcDbSymbolTableRecord
100
AcDbTextStyleTableRecord
  2
TEXTSTYLE_2
 70
     0
 40
0.0
 41
1.04
 50
0.0
 71
     0
 42
0.2
  3
txt
  4

  0
STYLE
  5
20A
330
3
100
AcDbSymbolTableRecord
100
AcDbTextStyleTableRecord
  2
TEXTSTYLE_3
 70
     0
 40
0.0
 41
0.9399999999999998
 50
0.0
 71
     0
 42
0.2
  3
txt
  4

  0
STYLE
  5
20B
330
3
100
AcDbSymbolTableRecord
100
AcDbTextStyleTableRecord
  2
TEXTSTYLE_4
 70
     0
 40
0.0
 41
1.0
 50
0.0
 71
     0
 42
0.2
  3
txt
  4

  0
STYLE
  5
20C
330
3
100
AcDbSymbolTableRecord
100
AcDbTextStyleTableRecord
  2
TEXTSTYLE_5
 70
     0
 40
0.0
 41
1.199999999999999
 50
0.0
 71
     0
 42
0.2
  3
txt
  4

  0
STYLE
  5
20D
330
3
100
AcDbSymbolTableRecord
100
AcDbTextStyleTableRecord
  2
TEXTSTYLE_6
 70
     0
 40
0.0
 41
1.02
 50
0.0
 71
     0
 42
0.2
  3
txt
  4

  0
STYLE
  5
20E
330
3
100
AcDbSymbolTableRecord
100
AcDbTextStyleTableRecord
  2
TEXTSTYLE_7
 70
     0
 40
0.0
 41
0.925
 50
0.0
 71
     0
 42
0.2
  3
txt
  4

  0
STYLE
  5
20F
330
3
100
AcDbSymbolTableRecord
100
AcDbTextStyleTableRecord
  2
TEXTSTYLE_8
 70
     0
 40
0.0
 41
1.0500002909
 50
0.0
 71
     0
 42
0.2
  3
txt
  4

  0
STYLE
  5
210
330
3
100
AcDbSymbolTableRecord
100
AcDbTextStyleTableRecord
  2
TEXTSTYLE_9
 70
     0
 40
0.0
 41
1.09
 50
0.0
 71
     0
 42
0.2
  3
txt
  4

  0
STYLE
  5
211
330
3
100
AcDbSymbolTableRecord
100
AcDbTextStyleTableRecord
  2
TEXTSTYLE_10
 70
     0
 40
0.0
 41
0.9899995429
 50
0.0
 71
     0
 42
0.2
  3
txt
  4

  0
STYLE
  5
212
330
3
100
AcDbSymbolTableRecord
100
AcDbTextStyleTableRecord
  2
TEXTSTYLE_11
 70
     0
 40
0.0
 41
1.07
 50
0.0
 71
     0
 42
0.2
  3
txt
  4

  0
STYLE
  5
213
330
3
100
AcDbSymbolTableRecord
100
AcDbTextStyleTableRecord
  2
TEXTSTYLE_12
 70
     0
 40
0.0
 41
1.229999999999999
 50
0.0
 71
     0
 42
0.2
  3
txt
  4

  0
STYLE
  5
214
330
3
100
AcDbSymbolTableRecord
100
AcDbTextStyleTableRecord
  2
TEXTSTYLE_13
 70
     0
 40
0.0
 41
0.9700032
 50
0.0
 71
     0
 42
0.2
  3
txt
  4

  0
STYLE
  5
215
330
3
100
AcDbSymbolTableRecord
100
AcDbTextStyleTableRecord
  2
TEXTSTYLE_14
 70
     0
 40
0.0
 41
1.379999999999999
 50
0.0
 71
     0
 42
0.2
  3
txt
  4

  0
STYLE
  5
216
330
3
100
AcDbSymbolTableRecord
100
AcDbTextStyleTableRecord
  2
TEXTSTYLE_15
 70
     0
 40
0.0
 41
0.95
 50
0.0
 71
     0
 42
0.2
  3
txt
  4

  0
ENDTAB
  0
TABLE
  2
VIEW
  5
6
330
0
100
AcDbSymbolTable
 70
     0
  0
ENDTAB
  0
TABLE
  2
UCS
  5
7
330
0
100
AcDbSymbolTable
 70
     0
  0
ENDTAB
  0
TABLE
  2
APPID
  5
9
330
0
100
AcDbSymbolTable
 70
     3
  0
APPID
  5
217
330
9
100
AcDbSymbolTableRecord
100
AcDbRegAppTableRecord
  2
ACAD
 70
     0
  0
APPID
  5
68A
330
9
100
AcDbSymbolTableRecord
100
AcDbRegAppTableRecord
  2
ACAD_MLEADERVER
 70
     0
  0
APPID
  5
6FC
330
9
100
AcDbSymbolTableRecord
100
AcDbRegAppTableRecord
  2
DCO15
 70
     0
  0
ENDTAB
  0
TABLE
  2
DIMSTYLE
  5
A
330
0
100
AcDbSymbolTable
 70
     1
100
AcDbDimStyleTable
 71
     1
340
225
  0
DIMSTYLE
105
225
330
A
100
AcDbSymbolTableRecord
100
AcDbDimStyleTableRecord
  2
STANDARD
 70
     0
 41
0.1875
 47
0.1
 48
0.1
 71
     1
 78
     4
140
0.3
271
     1
272
     1
284
     4
340
11
  0
ENDTAB
  0
TABLE
  2
BLOCK_RECORD
  5
1
330
0
100
AcDbSymbolTable
 70
     8
  0
BLOCK_RECORD
  5
218
330
1
100
AcDbSymbolTableRecord
100
AcDbBlockTableRecord
  2
*Model_Space
340
635
  0
BLOCK_RECORD
  5
219
330
1
100
AcDbSymbolTableRecord
100
AcDbBlockTableRecord
  2
*Paper_Space
340
636
  0
BLOCK_RECORD
  5
21A
330
1
100
AcDbSymbolTableRecord
100
AcDbBlockTableRecord
  2
REVISION_BL6
340
0
  0
BLOCK_RECORD
  5
21B
330
1
100
AcDbSymbolTableRecord
100
AcDbBlockTableRecord
  2
REVISION_BL5
340
0
  0
BLOCK_RECORD
  5
21C
330
1
100
AcDbSymbolTableRecord
100
AcDbBlockTableRecord
  2
C_ARROW_BL4
340
0
  0
BLOCK_RECORD
  5
21D
330
1
100
AcDbSymbolTableRecord
100
AcDbBlockTableRecord
  2
C_ARROW_BL3
340
0
  0
BLOCK_RECORD
  5
21E
330
1
100
AcDbSymbolTableRecord
100
AcDbBlockTableRecord
  2
C_ARROW_BL2
340
0
  0
BLOCK_RECORD
  5
21F
330
1
100
AcDbSymbolTableRecord
100
AcDbBlockTableRecord
  2
C_ARROW_BL1
340
0
  0
BLOCK_RECORD
  5
220
330
1
100
AcDbSymbolTableRecord
100
AcDbBlockTableRecord
  2
KOHLER_BL0
340
0
  0
ENDTAB
  0
ENDSEC
  0
SECTION
  2
BLOCKS
  0
BLOCK
  5
20
330
218
100
AcDbEntity
  8
0
100
AcDbBlockBegin
  2
*Model_Space
 70
     0
 10
0.0
 20
0.0
 30
0.0
  3
*Model_Space
  1

  0
ENDBLK
  5
21
330
218
100
AcDbEntity
  8
0
100
AcDbBlockEnd
  0
BLOCK
  5
1C
330
219
100
AcDbEntity
 67
     1
  8
0
100
AcDbBlockBegin
  2
*Paper_Space
 70
     0
 10
0.0
 20
0.0
 30
0.0
  3
*Paper_Space
  1

  0
ENDBLK
  5
1D
330
219
100
AcDbEntity
 67
     1
  8
0
100
AcDbBlockEnd
  0
BLOCK
  5
226
330
21A
100
AcDbEntity
  8
___SYMBOL
  6
Continuous
 62
     2
100
AcDbBlockBegin
  2
REVISION_BL6
 70
     0
 10
24.4078433814
 20
6.9656666724
 30
0.0
  3
REVISION_BL6
  1

  0
LINE
  5
227
330
21A
100
AcDbEntity
  8
___SYMBOL
  6
Continuous
 62
     7
100
AcDbLine
 10
24.2688970977
 20
6.8506666724
 30
0.0
 11
24.2103433814
 21
6.909220388799999
 31
0.0
  0
LINE
  5
228
330
21A
100
AcDbEntity
  8
___SYMBOL
  6
Continuous
 62
     7
100
AcDbLine
 10
24.2103433814
 20
7.022112955999999
 30
0.0
 11
24.2103433814
 21
6.909220388799999
 31
0.0
  0
LINE
  5
229
330
21A
100
AcDbEntity
  8
___SYMBOL
  6
Continuous
 62
     7
100
AcDbLine
 10
24.2688970977
 20
7.0806666724
 30
0.0
 11
24.2103433814
 21
7.022112955999999
 31
0.0
  0
LINE
  5
22A
330
21A
100
AcDbEntity
  8
___SYMBOL
  6
Continuous
 62
     7
100
AcDbLine
 10
24.546789665
 20
6.8506666724
 30
0.0
 11
24.6053433814
 21
6.909220388799999
 31
0.0
  0
LINE
  5
22B
330
21A
100
AcDbEntity
  8
___SYMBOL
  6
Continuous
 62
     7
100
AcDbLine
 10
24.6053433814
 20
7.022112955999999
 30
0.0
 11
24.6053433814
 21
6.909220388799999
 31
0.0
  0
LINE
  5
22C
330
21A
100
AcDbEntity
  8
___SYMBOL
  6
Continuous
 62
     7
100
AcDbLine
 10
24.546789665
 20
7.0806666724
 30
0.0
 11
24.6053433814
 21
7.022112955999999
 31
0.0
  0
LINE
  5
22D
330
21A
100
AcDbEntity
  8
___SYMBOL
  6
Continuous
 62
     7
100
AcDbLine
 10
24.2688970977
 20
7.0806666724
 30
0.0
 11
24.546789665
 21
7.0806666724
 31
0.0
  0
LINE
  5
22E
330
21A
100
AcDbEntity
  8
___SYMBOL
  6
Continuous
 62
     7
100
AcDbLine
 10
24.546789665
 20
6.8506666724
 30
0.0
 11
24.2688970977
 21
6.8506666724
 31
0.0
  0
MTEXT
  5
22F
330
21A
100
AcDbEntity
  8
___SYMBOL
  6
Continuous
 62
     2
100
AcDbMText
 10
24.289197082
 20
7.042842465099999
 30
0.0
 40
0.15625
 41
0.25
 71
     1
 72
     1
  1
D1
 73
     1
 44
0.9
1001
ACAD
1000
MTEXTBEGIN
1070
    73
1070
     1
1070
    44
1040
0.9
1070
    74
1070
     0
1000
MTEXTEND
  0
ENDBLK
  5
230
330
21A
100
AcDbEntity
  8
0
  6
ByBlock
 62
     0
100
AcDbBlockEnd
  0
BLOCK
  5
231
330
21B
100
AcDbEntity
  8
___SYMBOL
  6
Continuous
 62
     2
100
AcDbBlockBegin
  2
REVISION_BL5
 70
     0
 10
0.9633591435999999
 20
5.5597167494
 30
0.0
  3
REVISION_BL5
  1

  0
LINE
  5
232
330
21B
100
AcDbEntity
  8
___SYMBOL
  6
Continuous
 62
     7
100
AcDbLine
 10
0.8244128598999999
 20
5.4447167494
 30
0.0
 11
0.7658591436
 21
5.5032704658
 31
0.0
  0
LINE
  5
233
330
21B
100
AcDbEntity
  8
___SYMBOL
  6
Continuous
 62
     7
100
AcDbLine
 10
0.7658591436
 20
5.616163032999999
 30
0.0
 11
0.7658591436
 21
5.5032704658
 31
0.0
  0
LINE
  5
234
330
21B
100
AcDbEntity
  8
___SYMBOL
  6
Continuous
 62
     7
100
AcDbLine
 10
0.8244128598999999
 20
5.6747167494
 30
0.0
 11
0.7658591436
 21
5.616163032999999
 31
0.0
  0
LINE
  5
235
330
21B
100
AcDbEntity
  8
___SYMBOL
  6
Continuous
 62
     7
100
AcDbLine
 10
1.102305427199999
 20
5.4447167494
 30
0.0
 11
1.160859143599999
 21
5.5032704658
 31
0.0
  0
LINE
  5
236
330
21B
100
AcDbEntity
  8
___SYMBOL
  6
Continuous
 62
     7
100
AcDbLine
 10
1.160859143599999
 20
5.616163032999999
 30
0.0
 11
1.160859143599999
 21
5.5032704658
 31
0.0
  0
LINE
  5
237
330
21B
100
AcDbEntity
  8
___SYMBOL
  6
Continuous
 62
     7
100
AcDbLine
 10
1.102305427199999
 20
5.6747167494
 30
0.0
 11
1.160859143599999
 21
5.616163032999999
 31
0.0
  0
LINE
  5
238
330
21B
100
AcDbEntity
  8
___SYMBOL
  6
Continuous
 62
     7
100
AcDbLine
 10
0.8244128598999999
 20
5.6747167494
 30
0.0
 11
1.102305427199999
 21
5.6747167494
 31
0.0
  0
LINE
  5
239
330
21B
100
AcDbEntity
  8
___SYMBOL
  6
Continuous
 62
     7
100
AcDbLine
 10
1.102305427199999
 20
5.4447167494
 30
0.0
 11
0.8244128598999999
 21
5.4447167494
 31
0.0
  0
MTEXT
  5
23A
330
21B
100
AcDbEntity
  8
___SYMBOL
  6
Continuous
 62
     2
100
AcDbMText
 10
0.8447128442
 20
5.6368925421
 30
0.0
 40
0.15625
 41
0.25
 71
     1
 72
     1
  1
C1
 73
     1
 44
0.9
1001
ACAD
1000
MTEXTBEGIN
1070
    73
1070
     1
1070
    44
1040
0.9
1070
    74
1070
     0
1000
MTEXTEND
  0
ENDBLK
  5
23B
330
21B
100
AcDbEntity
  8
0
  6
ByBlock
 62
     0
100
AcDbBlockEnd
  0
BLOCK
  5
23C
330
21C
100
AcDbEntity
  8
0
  6
Continuous
 62
     2
100
AcDbBlockBegin
  2
C_ARROW_BL4
 70
     0
 10
33.6875
 20
11.0
 30
0.0
  3
C_ARROW_BL4
  1

  0
LINE
  5
23D
330
21C
100
AcDbEntity
  8
0
  6
Continuous
 62
    30
100
AcDbLine
 10
33.5
 20
11.0
 30
0.0
 11
33.6875
 21
10.90625
 31
0.0
  0
LINE
  5
23E
330
21C
100
AcDbEntity
  8
0
  6
Continuous
 62
    30
100
AcDbLine
 10
33.5
 20
11.0
 30
0.0
 11
33.6875
 21
11.09375
 31
0.0
  0
LINE
  5
23F
330
21C
100
AcDbEntity
  8
0
  6
Continuous
 62
    30
100
AcDbLine
 10
33.6875
 20
11.0234375
 30
0.0
 11
33.6875
 21
11.09375
 31
0.0
  0
LINE
  5
240
330
21C
100
AcDbEntity
  8
0
  6
Continuous
 62
    30
100
AcDbLine
 10
33.875
 20
11.0234375
 30
0.0
 11
33.6875
 21
11.0234375
 31
0.0
  0
LINE
  5
241
330
21C
100
AcDbEntity
  8
0
  6
Continuous
 62
    30
100
AcDbLine
 10
33.875
 20
11.0234375
 30
0.0
 11
33.875
 21
10.9765625
 31
0.0
  0
LINE
  5
242
330
21C
100
AcDbEntity
  8
0
  6
Continuous
 62
    30
100
AcDbLine
 10
33.6875
 20
10.9765625
 30
0.0
 11
33.875
 21
10.9765625
 31
0.0
  0
LINE
  5
243
330
21C
100
AcDbEntity
  8
0
  6
Continuous
 62
    30
100
AcDbLine
 10
33.6875
 20
10.90625
 30
0.0
 11
33.6875
 21
10.9765625
 31
0.0
  0
LWPOLYLINE
  5
244
330
21C
100
AcDbEntity
  8
0
  6
Continuous
 62
     7
100
AcDbPolyline
 90
        8
 70
     0
 43
0.0
 10
33.5
 20
11.0
 10
33.6875
 20
11.09375
 10
33.6875
 20
11.0234375
 10
33.875
 20
11.0234375
 10
33.875
 20
10.9765625
 10
33.6875
 20
10.9765625
 10
33.6875
 20
10.90625
 10
33.5
 20
11.0
  0
HATCH
  5
245
330
21C
100
AcDbEntity
  8
0
  6
Continuous
 62
     7
100
AcDbHatch
 10
0.0
 20
0.0
 30
0.0
210
0.0
220
0.0
230
1.0
  2
SOLID
 70
     1
 71
     1
 91
        1
 92
        1
 93
        7
 72
     1
 10
33.5
 20
11.0
 11
33.6875
 21
11.09375
 72
     1
 10
33.6875
 20
11.09375
 11
33.6875
 21
11.0234375
 72
     1
 10
33.6875
 20
11.0234375
 11
33.875
 21
11.0234375
 72
     1
 10
33.875
 20
11.0234375
 11
33.875
 21
10.9765625
 72
     1
 10
33.875
 20
10.9765625
 11
33.6875
 21
10.9765625
 72
     1
 10
33.6875
 20
10.9765625
 11
33.6875
 21
10.90625
 72
     1
 10
33.6875
 20
10.90625
 11
33.5
 21
11.0
 97
        1
330
244
 75
     0
 76
     1
 98
        1
 10
0.0
 20
0.0
  0
ENDBLK
  5
246
330
21C
100
AcDbEntity
  8
0
  6
ByBlock
 62
     0
100
AcDbBlockEnd
  0
BLOCK
  5
247
330
21D
100
AcDbEntity
  8
0
  6
Continuous
 62
     2
100
AcDbBlockBegin
  2
C_ARROW_BL3
 70
     0
 10
0.3125
 20
11.0
 30
0.0
  3
C_ARROW_BL3
  1

  0
LINE
  5
248
330
21D
100
AcDbEntity
  8
0
  6
Continuous
 62
    30
100
AcDbLine
 10
0.5
 20
11.0
 30
0.0
 11
0.3125
 21
11.09375
 31
0.0
  0
LINE
  5
249
330
21D
100
AcDbEntity
  8
0
  6
Continuous
 62
    30
100
AcDbLine
 10
0.5
 20
11.0
 30
0.0
 11
0.3125
 21
10.90625
 31
0.0
  0
LINE
  5
24A
330
21D
100
AcDbEntity
  8
0
  6
Continuous
 62
    30
100
AcDbLine
 10
0.3125
 20
10.9765625
 30
0.0
 11
0.3125
 21
10.90625
 31
0.0
  0
LINE
  5
24B
330
21D
100
AcDbEntity
  8
0
  6
Continuous
 62
    30
100
AcDbLine
 10
0.125
 20
10.9765625
 30
0.0
 11
0.3125
 21
10.9765625
 31
0.0
  0
LINE
  5
24C
330
21D
100
AcDbEntity
  8
0
  6
Continuous
 62
    30
100
AcDbLine
 10
0.125
 20
10.9765625
 30
0.0
 11
0.125
 21
11.0234375
 31
0.0
  0
LINE
  5
24D
330
21D
100
AcDbEntity
  8
0
  6
Continuous
 62
    30
100
AcDbLine
 10
0.3125
 20
11.0234375
 30
0.0
 11
0.125
 21
11.0234375
 31
0.0
  0
LINE
  5
24E
330
21D
100
AcDbEntity
  8
0
  6
Continuous
 62
    30
100
AcDbLine
 10
0.3125
 20
11.09375
 30
0.0
 11
0.3125
 21
11.0234375
 31
0.0
  0
LWPOLYLINE
  5
24F
330
21D
100
AcDbEntity
  8
0
  6
Continuous
 62
     7
100
AcDbPolyline
 90
        8
 70
     0
 43
0.0
 10
0.5
 20
11.0
 10
0.3125
 20
10.90625
 10
0.3125
 20
10.9765625
 10
0.125
 20
10.9765625
 10
0.125
 20
11.0234375
 10
0.3125
 20
11.0234375
 10
0.3125
 20
11.09375
 10
0.5
 20
11.0
  0
HATCH
  5
250
330
21D
100
AcDbEntity
  8
0
  6
Continuous
 62
     7
100
AcDbHatch
 10
0.0
 20
0.0
 30
0.0
210
0.0
220
0.0
230
1.0
  2
SOLID
 70
     1
 71
     1
 91
        1
 92
        1
 93
        7
 72
     1
 10
0.5
 20
11.0
 11
0.3125
 21
10.90625
 72
     1
 10
0.3125
 20
10.90625
 11
0.3125
 21
10.9765625
 72
     1
 10
0.3125
 20
10.9765625
 11
0.125
 21
10.9765625
 72
     1
 10
0.125
 20
10.9765625
 11
0.125
 21
11.0234375
 72
     1
 10
0.125
 20
11.0234375
 11
0.3125
 21
11.0234375
 72
     1
 10
0.3125
 20
11.0234375
 11
0.3125
 21
11.09375
 72
     1
 10
0.3125
 20
11.09375
 11
0.5
 21
11.0
 97
        1
330
24F
 75
     0
 76
     1
 98
        1
 10
0.0
 20
0.0
  0
ENDBLK
  5
251
330
21D
100
AcDbEntity
  8
0
  6
ByBlock
 62
     0
100
AcDbBlockEnd
  0
BLOCK
  5
252
330
21E
100
AcDbEntity
  8
0
  6
Continuous
 62
     2
100
AcDbBlockBegin
  2
C_ARROW_BL2
 70
     0
 10
17.0
 20
21.6875
 30
0.0
  3
C_ARROW_BL2
  1

  0
LINE
  5
253
330
21E
100
AcDbEntity
  8
0
  6
Continuous
 62
    30
100
AcDbLine
 10
17.0
 20
21.5
 30
0.0
 11
17.09375
 21
21.6875
 31
0.0
  0
LINE
  5
254
330
21E
100
AcDbEntity
  8
0
  6
Continuous
 62
    30
100
AcDbLine
 10
17.0
 20
21.5
 30
0.0
 11
16.90625
 21
21.6875
 31
0.0
  0
LINE
  5
255
330
21E
100
AcDbEntity
  8
0
  6
Continuous
 62
    30
100
AcDbLine
 10
16.9765625
 20
21.6875
 30
0.0
 11
16.90625
 21
21.6875
 31
0.0
  0
LINE
  5
256
330
21E
100
AcDbEntity
  8
0
  6
Continuous
 62
    30
100
AcDbLine
 10
16.9765625
 20
21.875
 30
0.0
 11
16.9765625
 21
21.6875
 31
0.0
  0
LINE
  5
257
330
21E
100
AcDbEntity
  8
0
  6
Continuous
 62
    30
100
AcDbLine
 10
16.9765625
 20
21.875
 30
0.0
 11
17.0234375
 21
21.875
 31
0.0
  0
LINE
  5
258
330
21E
100
AcDbEntity
  8
0
  6
Continuous
 62
    30
100
AcDbLine
 10
17.0234375
 20
21.6875
 30
0.0
 11
17.0234375
 21
21.875
 31
0.0
  0
LINE
  5
259
330
21E
100
AcDbEntity
  8
0
  6
Continuous
 62
    30
100
AcDbLine
 10
17.09375
 20
21.6875
 30
0.0
 11
17.0234375
 21
21.6875
 31
0.0
  0
LWPOLYLINE
  5
25A
330
21E
100
AcDbEntity
  8
0
  6
Continuous
 62
     7
100
AcDbPolyline
 90
        8
 70
     0
 43
0.0
 10
17.0
 20
21.5
 10
16.90625
 20
21.6875
 10
16.9765625
 20
21.6875
 10
16.9765625
 20
21.875
 10
17.0234375
 20
21.875
 10
17.0234375
 20
21.6875
 10
17.09375
 20
21.6875
 10
17.0
 20
21.5
  0
HATCH
  5
25B
330
21E
100
AcDbEntity
  8
0
  6
Continuous
 62
     7
100
AcDbHatch
 10
0.0
 20
0.0
 30
0.0
210
0.0
220
0.0
230
1.0
  2
SOLID
 70
     1
 71
     1
 91
        1
 92
        1
 93
        7
 72
     1
 10
17.0
 20
21.5
 11
16.90625
 21
21.6875
 72
     1
 10
16.90625
 20
21.6875
 11
16.9765625
 21
21.6875
 72
     1
 10
16.9765625
 20
21.6875
 11
16.9765625
 21
21.875
 72
     1
 10
16.9765625
 20
21.875
 11
17.0234375
 21
21.875
 72
     1
 10
17.0234375
 20
21.875
 11
17.0234375
 21
21.6875
 72
     1
 10
17.0234375
 20
21.6875
 11
17.09375
 21
21.6875
 72
     1
 10
17.09375
 20
21.6875
 11
17.0
 21
21.5
 97
        1
330
25A
 75
     0
 76
     1
 98
        1
 10
0.0
 20
0.0
  0
ENDBLK
  5
25C
330
21E
100
AcDbEntity
  8
0
  6
ByBlock
 62
     0
100
AcDbBlockEnd
  0
BLOCK
  5
25D
330
21F
100
AcDbEntity
  8
0
  6
Continuous
 62
     2
100
AcDbBlockBegin
  2
C_ARROW_BL1
 70
     0
 10
17.0
 20
0.3125
 30
0.0
  3
C_ARROW_BL1
  1

  0
LINE
  5
25E
330
21F
100
AcDbEntity
  8
0
  6
Continuous
 62
    30
100
AcDbLine
 10
17.0
 20
0.5
 30
0.0
 11
16.90625
 21
0.3125
 31
0.0
  0
LINE
  5
25F
330
21F
100
AcDbEntity
  8
0
  6
Continuous
 62
    30
100
AcDbLine
 10
17.0
 20
0.5
 30
0.0
 11
17.09375
 21
0.3125
 31
0.0
  0
LINE
  5
260
330
21F
100
AcDbEntity
  8
0
  6
Continuous
 62
    30
100
AcDbLine
 10
17.0234375
 20
0.3125
 30
0.0
 11
17.09375
 21
0.3125
 31
0.0
  0
LINE
  5
261
330
21F
100
AcDbEntity
  8
0
  6
Continuous
 62
    30
100
AcDbLine
 10
17.0234375
 20
0.125
 30
0.0
 11
17.0234375
 21
0.3125
 31
0.0
  0
LINE
  5
262
330
21F
100
AcDbEntity
  8
0
  6
Continuous
 62
    30
100
AcDbLine
 10
17.0234375
 20
0.125
 30
0.0
 11
16.9765625
 21
0.125
 31
0.0
  0
LINE
  5
263
330
21F
100
AcDbEntity
  8
0
  6
Continuous
 62
    30
100
AcDbLine
 10
16.9765625
 20
0.3125
 30
0.0
 11
16.9765625
 21
0.125
 31
0.0
  0
LINE
  5
264
330
21F
100
AcDbEntity
  8
0
  6
Continuous
 62
    30
100
AcDbLine
 10
16.90625
 20
0.3125
 30
0.0
 11
16.9765625
 21
0.3125
 31
0.0
  0
LWPOLYLINE
  5
265
330
21F
100
AcDbEntity
  8
0
  6
Continuous
 62
     7
100
AcDbPolyline
 90
        8
 70
     0
 43
0.0
 10
17.0
 20
0.5
 10
17.09375
 20
0.3125
 10
17.0234375
 20
0.3125
 10
17.0234375
 20
0.125
 10
16.9765625
 20
0.125
 10
16.9765625
 20
0.3125
 10
16.90625
 20
0.3125
 10
17.0
 20
0.5
  0
HATCH
  5
266
330
21F
100
AcDbEntity
  8
0
  6
Continuous
 62
     7
100
AcDbHatch
 10
0.0
 20
0.0
 30
0.0
210
0.0
220
0.0
230
1.0
  2
SOLID
 70
     1
 71
     1
 91
        1
 92
        1
 93
        7
 72
     1
 10
17.0
 20
0.5
 11
17.09375
 21
0.3125
 72
     1
 10
17.09375
 20
0.3125
 11
17.0234375
 21
0.3125
 72
     1
 10
17.0234375
 20
0.3125
 11
17.0234375
 21
0.125
 72
     1
 10
17.0234375
 20
0.125
 11
16.9765625
 21
0.125
 72
     1
 10
16.9765625
 20
0.125
 11
16.9765625
 21
0.3125
 72
     1
 10
16.9765625
 20
0.3125
 11
16.90625
 21
0.3125
 72
     1
 10
16.90625
 20
0.3125
 11
17.0
 21
0.5
 97
        1
330
265
 75
     0
 76
     1
 98
        1
 10
0.0
 20
0.0
  0
ENDBLK
  5
267
330
21F
100
AcDbEntity
  8
0
  6
ByBlock
 62
     0
100
AcDbBlockEnd
  0
BLOCK
  5
268
330
220
100
AcDbEntity
  8
0
  6
Continuous
 62
     2
100
AcDbBlockBegin
  2
KOHLER_BL0
 70
     0
 10
30.1873715
 20
2.174145999999999
 30
0.0
  3
KOHLER_BL0
  1

  0
ARC
  5
269
330
220
100
AcDbEntity
  8
0
  6
Continuous
 62
     2
100
AcDbCircle
 10
30.753184
 20
2.22961475
 30
0.0
 40
0.03065625
100
AcDbArc
 50
270.0
 51
90.0
  0
LINE
  5
26A
330
220
100
AcDbEntity
  8
0
  6
Continuous
 62
     2
100
AcDbLine
 10
29.503184
 20
2.033520999999999
 30
0.0
 11
29.503184
 21
2.314770999999999
 31
0.0
  0
LINE
  5
26B
330
220
100
AcDbEntity
  8
0
  6
Continuous
 62
     2
100
AcDbLine
 10
29.503184
 20
2.314770999999999
 30
0.0
 11
29.570184
 21
2.314770999999999
 31
0.0
  0
LINE
  5
26C
330
220
100
AcDbEntity
  8
0
  6
Continuous
 62
     2
100
AcDbLine
 10
29.503184
 20
2.033520999999999
 30
0.0
 11
29.570184
 21
2.033520999999999
 31
0.0
  0
LINE
  5
26D
330
220
100
AcDbEntity
  8
0
  6
Continuous
 62
     2
100
AcDbLine
 10
29.753184
 20
2.314770999999999
 30
0.0
 11
29.628184
 21
2.189770999999999
 31
0.0
  0
LINE
  5
26E
330
220
100
AcDbEntity
  8
0
  6
Continuous
 62
     2
100
AcDbLine
 10
29.628184
 20
2.189770999999999
 30
0.0
 11
29.753184
 21
2.033520999999999
 31
0.0
  0
CIRCLE
  5
26F
330
220
100
AcDbEntity
  8
0
  6
Continuous
 62
     2
100
AcDbCircle
 10
29.862559
 20
2.174145999999999
 30
0.0
 40
0.073625
  0
LINE
  5
270
330
220
100
AcDbEntity
  8
0
  6
Continuous
 62
     2
100
AcDbLine
 10
29.6673821352
 20
2.033520999999999
 30
0.0
 11
29.753184
 21
2.033520999999999
 31
0.0
  0
CIRCLE
  5
271
330
220
100
AcDbEntity
  8
0
  6
Continuous
 62
     2
100
AcDbCircle
 10
29.862559
 20
2.174145999999999
 30
0.0
 40
0.140625
  0
LINE
  5
272
330
220
100
AcDbEntity
  8
0
  6
Continuous
 62
     2
100
AcDbLine
 10
29.570184
 20
2.033520999999999
 30
0.0
 11
29.570184
 21
2.155018668999999
 31
0.0
  0
LINE
  5
273
330
220
100
AcDbEntity
  8
0
  6
Continuous
 62
     2
100
AcDbLine
 10
29.6584316913
 20
2.314770999999999
 30
0.0
 11
29.570184
 21
2.2265233087
 31
0.0
  0
LINE
  5
274
330
220
100
AcDbEntity
  8
0
  6
Continuous
 62
     2
100
AcDbLine
 10
29.570184
 20
2.155018668999999
 30
0.0
 11
29.6673821352
 21
2.033520999999999
 31
0.0
  0
LINE
  5
275
330
220
100
AcDbEntity
  8
0
  6
Continuous
 62
     2
100
AcDbLine
 10
29.6584316913
 20
2.314770999999999
 30
0.0
 11
29.753184
 21
2.314770999999999
 31
0.0
  0
LINE
  5
276
330
220
100
AcDbEntity
  8
0
  6
Continuous
 62
     2
100
AcDbLine
 10
29.570184
 20
2.314770999999999
 30
0.0
 11
29.570184
 21
2.2265233087
 31
0.0
  0
LINE
  5
277
330
220
100
AcDbEntity
  8
0
  6
Continuous
 62
     2
100
AcDbLine
 10
30.034434
 20
2.314770999999999
 30
0.0
 11
30.034434
 21
2.033520999999999
 31
0.0
  0
LINE
  5
278
330
220
100
AcDbEntity
  8
0
  6
Continuous
 62
     2
100
AcDbLine
 10
30.101434
 20
2.033520999999999
 30
0.0
 11
30.101434
 21
2.156270999999999
 31
0.0
  0
LINE
  5
279
330
220
100
AcDbEntity
  8
0
  6
Continuous
 62
     2
100
AcDbLine
 10
30.101434
 20
2.223270999999999
 30
0.0
 11
30.101434
 21
2.314770999999999
 31
0.0
  0
LINE
  5
27A
330
220
100
AcDbEntity
  8
0
  6
Continuous
 62
     2
100
AcDbLine
 10
30.179559
 20
2.033520999999999
 30
0.0
 11
30.179559
 21
2.156270999999999
 31
0.0
  0
LINE
  5
27B
330
220
100
AcDbEntity
  8
0
  6
Continuous
 62
     2
100
AcDbLine
 10
30.179559
 20
2.223270999999999
 30
0.0
 11
30.179559
 21
2.314770999999999
 31
0.0
  0
LINE
  5
27C
330
220
100
AcDbEntity
  8
0
  6
Continuous
 62
     2
100
AcDbLine
 10
30.246559
 20
2.314770999999999
 30
0.0
 11
30.246559
 21
2.033520999999999
 31
0.0
  0
LINE
  5
27D
330
220
100
AcDbEntity
  8
0
  6
Continuous
 62
     2
100
AcDbLine
 10
30.101434
 20
2.223270999999999
 30
0.0
 11
30.179559
 21
2.223270999999999
 31
0.0
  0
LINE
  5
27E
330
220
100
AcDbEntity
  8
0
  6
Continuous
 62
     2
100
AcDbLine
 10
30.101434
 20
2.156270999999999
 30
0.0
 11
30.179559
 21
2.156270999999999
 31
0.0
  0
LINE
  5
27F
330
220
100
AcDbEntity
  8
0
  6
Continuous
 62
     2
100
AcDbLine
 10
30.179559
 20
2.033520999999999
 30
0.0
 11
30.246559
 21
2.033520999999999
 31
0.0
  0
LINE
  5
280
330
220
100
AcDbEntity
  8
0
  6
Continuous
 62
     2
100
AcDbLine
 10
30.034434
 20
2.033520999999999
 30
0.0
 11
30.101434
 21
2.033520999999999
 31
0.0
  0
LINE
  5
281
330
220
100
AcDbEntity
  8
0
  6
Continuous
 62
     2
100
AcDbLine
 10
30.179559
 20
2.314770999999999
 30
0.0
 11
30.246559
 21
2.314770999999999
 31
0.0
  0
LINE
  5
282
330
220
100
AcDbEntity
  8
0
  6
Continuous
 62
     2
100
AcDbLine
 10
30.034434
 20
2.314770999999999
 30
0.0
 11
30.101434
 21
2.314770999999999
 31
0.0
  0
LINE
  5
283
330
220
100
AcDbEntity
  8
0
  6
Continuous
 62
     2
100
AcDbLine
 10
30.277809
 20
2.314770999999999
 30
0.0
 11
30.277809
 21
2.033520999999999
 31
0.0
  0
LINE
  5
284
330
220
100
AcDbEntity
  8
0
  6
Continuous
 62
     2
100
AcDbLine
 10
30.434059
 20
2.100521
 30
0.0
 11
30.434059
 21
2.033520999999999
 31
0.0
  0
LINE
  5
285
330
220
100
AcDbEntity
  8
0
  6
Continuous
 62
     2
100
AcDbLine
 10
30.277809
 20
2.033520999999999
 30
0.0
 11
30.434059
 21
2.033520999999999
 31
0.0
  0
LINE
  5
286
330
220
100
AcDbEntity
  8
0
  6
Continuous
 62
     2
100
AcDbLine
 10
30.344809
 20
2.100521
 30
0.0
 11
30.344809
 21
2.314770999999999
 31
0.0
  0
LINE
  5
287
330
220
100
AcDbEntity
  8
0
  6
Continuous
 62
     2
100
AcDbLine
 10
30.344809
 20
2.100521
 30
0.0
 11
30.434059
 21
2.100521
 31
0.0
  0
LINE
  5
288
330
220
100
AcDbEntity
  8
0
  6
Continuous
 62
     2
100
AcDbLine
 10
30.277809
 20
2.314770999999999
 30
0.0
 11
30.344809
 21
2.314770999999999
 31
0.0
  0
LINE
  5
289
330
220
100
AcDbEntity
  8
0
  6
Continuous
 62
     2
100
AcDbLine
 10
30.465309
 20
2.033520999999999
 30
0.0
 11
30.621559
 21
2.033520999999999
 31
0.0
  0
LINE
  5
28A
330
220
100
AcDbEntity
  8
0
  6
Continuous
 62
     2
100
AcDbLine
 10
30.621559
 20
2.100521
 30
0.0
 11
30.621559
 21
2.033520999999999
 31
0.0
  0
LINE
  5
28B
330
220
100
AcDbEntity
  8
0
  6
Continuous
 62
     2
100
AcDbLine
 10
30.532309
 20
2.100521
 30
0.0
 11
30.621559
 21
2.100521
 31
0.0
  0
LINE
  5
28C
330
220
100
AcDbEntity
  8
0
  6
Continuous
 62
     2
100
AcDbLine
 10
30.532309
 20
2.148458499999999
 30
0.0
 11
30.532309
 21
2.100521
 31
0.0
  0
LINE
  5
28D
330
220
100
AcDbEntity
  8
0
  6
Continuous
 62
     2
100
AcDbLine
 10
30.532309
 20
2.247770999999999
 30
0.0
 11
30.621559
 21
2.247770999999999
 31
0.0
  0
LINE
  5
28E
330
220
100
AcDbEntity
  8
0
  6
Continuous
 62
     2
100
AcDbLine
 10
30.465309
 20
2.314770999999999
 30
0.0
 11
30.465309
 21
2.033520999999999
 31
0.0
  0
LINE
  5
28F
330
220
100
AcDbEntity
  8
0
  6
Continuous
 62
     2
100
AcDbLine
 10
30.621559
 20
2.247770999999999
 30
0.0
 11
30.621559
 21
2.314770999999999
 31
0.0
  0
LINE
  5
290
330
220
100
AcDbEntity
  8
0
  6
Continuous
 62
     2
100
AcDbLine
 10
30.465309
 20
2.314770999999999
 30
0.0
 11
30.621559
 21
2.314770999999999
 31
0.0
  0
LINE
  5
291
330
220
100
AcDbEntity
  8
0
  6
Continuous
 62
     2
100
AcDbLine
 10
30.532309
 20
2.199833499999999
 30
0.0
 11
30.621559
 21
2.199833499999999
 31
0.0
  0
LINE
  5
292
330
220
100
AcDbEntity
  8
0
  6
Continuous
 62
     2
100
AcDbLine
 10
30.621559
 20
2.199833499999999
 30
0.0
 11
30.621559
 21
2.148458499999999
 31
0.0
  0
LINE
  5
293
330
220
100
AcDbEntity
  8
0
  6
Continuous
 62
     2
100
AcDbLine
 10
30.532309
 20
2.148458499999999
 30
0.0
 11
30.621559
 21
2.148458499999999
 31
0.0
  0
LINE
  5
294
330
220
100
AcDbEntity
  8
0
  6
Continuous
 62
     2
100
AcDbLine
 10
30.532309
 20
2.199833499999999
 30
0.0
 11
30.532309
 21
2.247770999999999
 31
0.0
  0
LINE
  5
295
330
220
100
AcDbEntity
  8
0
  6
Continuous
 62
     2
100
AcDbLine
 10
30.652809
 20
2.033520999999999
 30
0.0
 11
30.652809
 21
2.314770999999999
 31
0.0
  0
LINE
  5
296
330
220
100
AcDbEntity
  8
0
  6
Continuous
 62
     2
100
AcDbLine
 10
30.719809
 20
2.142895999999999
 30
0.0
 11
30.719809
 21
2.033520999999999
 31
0.0
  0
ARC
  5
297
330
220
100
AcDbEntity
  8
0
  6
Continuous
 62
     2
100
AcDbCircle
 10
30.7543715
 20
2.228833499999999
 30
0.0
 40
0.0859375
100
AcDbArc
 50
304.1679402531
 51
90.0
  0
LINE
  5
298
330
220
100
AcDbEntity
  8
0
  6
Continuous
 62
     2
100
AcDbLine
 10
30.7543715
 20
2.314770999999999
 30
0.0
 11
30.652809
 21
2.314770999999999
 31
0.0
  0
LINE
  5
299
330
220
100
AcDbEntity
  8
0
  6
Continuous
 62
     2
100
AcDbLine
 10
30.753184
 20
2.260270999999999
 30
0.0
 11
30.719809
 21
2.260270999999999
 31
0.0
  0
LINE
  5
29A
330
220
100
AcDbEntity
  8
0
  6
Continuous
 62
     2
100
AcDbLine
 10
30.8026357616
 20
2.1577292458
 30
0.0
 11
30.871559
 21
2.033520999999999
 31
0.0
  0
LINE
  5
29B
330
220
100
AcDbEntity
  8
0
  6
Continuous
 62
     2
100
AcDbLine
 10
30.7949350526
 20
2.033520999999999
 30
0.0
 11
30.7342427922
 21
2.142895999999999
 31
0.0
  0
LINE
  5
29C
330
220
100
AcDbEntity
  8
0
  6
Continuous
 62
     2
100
AcDbLine
 10
30.652809
 20
2.033520999999999
 30
0.0
 11
30.719809
 21
2.033520999999999
 31
0.0
  0
LINE
  5
29D
330
220
100
AcDbEntity
  8
0
  6
Continuous
 62
     2
100
AcDbLine
 10
30.7949350526
 20
2.033520999999999
 30
0.0
 11
30.871559
 21
2.033520999999999
 31
0.0
  0
LINE
  5
29E
330
220
100
AcDbEntity
  8
0
  6
Continuous
 62
     2
100
AcDbLine
 10
30.753184
 20
2.198958499999999
 30
0.0
 11
30.719809
 21
2.198958499999999
 31
0.0
  0
LINE
  5
29F
330
220
100
AcDbEntity
  8
0
  6
Continuous
 62
     2
100
AcDbLine
 10
30.719809
 20
2.260270999999999
 30
0.0
 11
30.719809
 21
2.198958499999999
 31
0.0
  0
LINE
  5
2A0
330
220
100
AcDbEntity
  8
0
  6
Continuous
 62
     2
100
AcDbLine
 10
30.719809
 20
2.142895999999999
 30
0.0
 11
30.7342427922
 21
2.142895999999999
 31
0.0
  0
LWPOLYLINE
  5
2A1
330
220
100
AcDbEntity
  8
0
  6
Continuous
 62
     2
100
AcDbPolyline
 90
       14
 70
     0
 43
0.0
 10
30.871559
 20
2.033520999999999
 10
30.7949350526
 20
2.033520999999999
 10
30.7342427922
 20
2.142895999999999
 10
30.719809
 20
2.142895999999999
 10
30.719809
 20
2.033520999999999
 10
30.652809
 20
2.033520999999999
 10
30.652809
 20
2.260270999999999
 10
30.719809
 20
2.260270999999999
 10
30.719809
 20
2.198958499999999
 10
30.753184
 20
2.198958499999999
 10
30.833650134
 20
2.198958499999999
 10
30.8247683179
 20
2.1795431162
 10
30.8026357616
 20
2.1577292458
 10
30.871559
 20
2.033520999999999
  0
HATCH
  5
2A2
330
220
100
AcDbEntity
  8
0
  6
Continuous
 62
     2
100
AcDbHatch
 10
0.0
 20
0.0
 30
0.0
210
0.0
220
0.0
230
1.0
  2
SOLID
 70
     1
 71
     1
 91
        1
 92
        1
 93
       13
 72
     1
 10
30.871559
 20
2.033520999999999
 11
30.7949350526
 21
2.033520999999999
 72
     1
 10
30.7949350526
 20
2.033520999999999
 11
30.7342427922
 21
2.142895999999999
 72
     1
 10
30.7342427922
 20
2.142895999999999
 11
30.719809
 21
2.142895999999999
 72
     1
 10
30.719809
 20
2.142895999999999
 11
30.719809
 21
2.033520999999999
 72
     1
 10
30.719809
 20
2.033520999999999
 11
30.652809
 21
2.033520999999999
 72
     1
 10
30.652809
 20
2.033520999999999
 11
30.652809
 21
2.260270999999999
 72
     1
 10
30.652809
 20
2.260270999999999
 11
30.719809
 21
2.260270999999999
 72
     1
 10
30.719809
 20
2.260270999999999
 11
30.719809
 21
2.198958499999999
 72
     1
 10
30.719809
 20
2.198958499999999
 11
30.753184
 21
2.198958499999999
 72
     1
 10
30.753184
 20
2.198958499999999
 11
30.833650134
 21
2.198958499999999
 72
     1
 10
30.833650134
 20
2.198958499999999
 11
30.8247683179
 21
2.1795431162
 72
     1
 10
30.8247683179
 20
2.1795431162
 11
30.8026357616
 21
2.1577292458
 72
     1
 10
30.8026357616
 20
2.1577292458
 11
30.871559
 21
2.033520999999999
 97
        1
330
2A1
 75
     0
 76
     1
 98
        1
 10
0.0
 20
0.0
  0
LWPOLYLINE
  5
2A3
330
220
100
AcDbEntity
  8
0
  6
Continuous
 62
     2
100
AcDbPolyline
 90
       18
 70
     0
 43
0.0
 10
30.652809
 20
2.260270999999999
 10
30.652809
 20
2.314770999999999
 10
30.7543715
 20
2.314770999999999
 10
30.7849349823
 20
2.309152410999999
 10
30.811501987
 20
2.2930313299
 10
30.8305986155
 20
2.268515747599999
 10
30.8397277946
 20
2.238811318999999
 10
30.8376957941
 20
2.207802191799999
 10
30.833650134
 20
2.198958499999999
 10
30.753184
 20
2.198958499999999
 10
30.768512125
 20
2.203065658699999
 10
30.7797330913
 20
2.214286625
 10
30.78384025
 20
2.22961475
 10
30.7797330913
 20
2.244942875
 10
30.768512125
 20
2.256163841299999
 10
30.753184
 20
2.260270999999999
 10
30.719809
 20
2.260270999999999
 10
30.652809
 20
2.260270999999999
  0
HATCH
  5
2A4
330
220
100
AcDbEntity
  8
0
  6
Continuous
 62
     2
100
AcDbHatch
 10
0.0
 20
0.0
 30
0.0
210
0.0
220
0.0
230
1.0
  2
SOLID
 70
     1
 71
     1
 91
        1
 92
        1
 93
       17
 72
     1
 10
30.652809
 20
2.260270999999999
 11
30.652809
 21
2.314770999999999
 72
     1
 10
30.652809
 20
2.314770999999999
 11
30.7543715
 21
2.314770999999999
 72
     1
 10
30.7543715
 20
2.314770999999999
 11
30.7849349823
 21
2.309152410999999
 72
     1
 10
30.7849349823
 20
2.309152410999999
 11
30.811501987
 21
2.2930313299
 72
     1
 10
30.811501987
 20
2.2930313299
 11
30.8305986155
 21
2.268515747599999
 72
     1
 10
30.8305986155
 20
2.268515747599999
 11
30.8397277946
 21
2.238811318999999
 72
     1
 10
30.8397277946
 20
2.238811318999999
 11
30.8376957941
 21
2.207802191799999
 72
     1
 10
30.8376957941
 20
2.207802191799999
 11
30.833650134
 21
2.198958499999999
 72
     1
 10
30.833650134
 20
2.198958499999999
 11
30.753184
 21
2.198958499999999
 72
     1
 10
30.753184
 20
2.198958499999999
 11
30.768512125
 21
2.203065658699999
 72
     1
 10
30.768512125
 20
2.203065658699999
 11
30.7797330913
 21
2.214286625
 72
     1
 10
30.7797330913
 20
2.214286625
 11
30.78384025
 21
2.22961475
 72
     1
 10
30.78384025
 20
2.22961475
 11
30.7797330913
 21
2.244942875
 72
     1
 10
30.7797330913
 20
2.244942875
 11
30.768512125
 21
2.256163841299999
 72
     1
 10
30.768512125
 20
2.256163841299999
 11
30.753184
 21
2.260270999999999
 72
     1
 10
30.753184
 20
2.260270999999999
 11
30.719809
 21
2.260270999999999
 72
     1
 10
30.719809
 20
2.260270999999999
 11
30.652809
 21
2.260270999999999
 97
        1
330
2A3
 75
     0
 76
     1
 98
        1
 10
0.0
 20
0.0
  0
LWPOLYLINE
  5
2A5
330
220
100
AcDbEntity
  8
0
  6
Continuous
 62
     2
100
AcDbPolyline
 90
       12
 70
     0
 43
0.0
 10
29.570184
 20
2.033520999999999
 10
29.503184
 20
2.033520999999999
 10
29.503184
 20
2.314770999999999
 10
29.570184
 20
2.314770999999999
 10
29.570184
 20
2.2265233087
 10
29.6584316913
 20
2.314770999999999
 10
29.753184
 20
2.314770999999999
 10
29.628184
 20
2.189770999999999
 10
29.753184
 20
2.033520999999999
 10
29.6673821352
 20
2.033520999999999
 10
29.570184
 20
2.155018668999999
 10
29.570184
 20
2.033520999999999
  0
HATCH
  5
2A6
330
220
100
AcDbEntity
  8
0
  6
Continuous
 62
     2
100
AcDbHatch
 10
0.0
 20
0.0
 30
0.0
210
0.0
220
0.0
230
1.0
  2
SOLID
 70
     1
 71
     1
 91
        1
 92
        1
 93
       11
 72
     1
 10
29.570184
 20
2.033520999999999
 11
29.503184
 21
2.033520999999999
 72
     1
 10
29.503184
 20
2.033520999999999
 11
29.503184
 21
2.314770999999999
 72
     1
 10
29.503184
 20
2.314770999999999
 11
29.570184
 21
2.314770999999999
 72
     1
 10
29.570184
 20
2.314770999999999
 11
29.570184
 21
2.2265233087
 72
     1
 10
29.570184
 20
2.2265233087
 11
29.6584316913
 21
2.314770999999999
 72
     1
 10
29.6584316913
 20
2.314770999999999
 11
29.753184
 21
2.314770999999999
 72
     1
 10
29.753184
 20
2.314770999999999
 11
29.628184
 21
2.189770999999999
 72
     1
 10
29.628184
 20
2.189770999999999
 11
29.753184
 21
2.033520999999999
 72
     1
 10
29.753184
 20
2.033520999999999
 11
29.6673821352
 21
2.033520999999999
 72
     1
 10
29.6673821352
 20
2.033520999999999
 11
29.570184
 21
2.155018668999999
 72
     1
 10
29.570184
 20
2.155018668999999
 11
29.570184
 21
2.033520999999999
 97
        1
330
2A5
 75
     0
 76
     1
 98
        1
 10
0.0
 20
0.0
  0
LWPOLYLINE
  5
2A7
330
220
100
AcDbEntity
  8
0
  6
Continuous
 62
     2
100
AcDbPolyline
 90
       23
 70
     0
 43
0.0
 10
29.862559
 20
2.033520999999999
 10
29.8191034852
 20
2.0404036774
 10
29.7799016989
 20
2.0603779852
 10
29.7487909852
 20
2.091488698899999
 10
29.7288166774
 20
2.1306904852
 10
29.721934
 20
2.174145999999999
 10
29.7288166774
 20
2.217601514799999
 10
29.7440287706
 20
2.2474569287
 10
29.869352258
 20
2.2474569287
 10
29.8424105624
 20
2.244960413
 10
29.8181900249
 20
2.2329000184
 10
29.7999617634
 20
2.212904567999999
 10
29.7901876055
 20
2.187674558199999
 10
29.7901876055
 20
2.160617441799999
 10
29.7999617634
 20
2.135387431999999
 10
29.8181900249
 20
2.115391981599999
 10
29.8424105624
 20
2.103331587
 10
29.869352258
 20
2.1008350713
 10
29.9810892294
 20
2.1008350713
 10
29.9763270148
 20
2.091488698899999
 10
29.9452163011
 20
2.0603779852
 10
29.9060145148
 20
2.0404036774
 10
29.862559
 20
2.033520999999999
  0
HATCH
  5
2A8
330
220
100
AcDbEntity
  8
0
  6
Continuous
 62
     2
100
AcDbHatch
 10
0.0
 20
0.0
 30
0.0
210
0.0
220
0.0
230
1.0
  2
SOLID
 70
     1
 71
     1
 91
        1
 92
        1
 93
       22
 72
     1
 10
29.862559
 20
2.033520999999999
 11
29.8191034852
 21
2.0404036774
 72
     1
 10
29.8191034852
 20
2.0404036774
 11
29.7799016989
 21
2.0603779852
 72
     1
 10
29.7799016989
 20
2.0603779852
 11
29.7487909852
 21
2.091488698899999
 72
     1
 10
29.7487909852
 20
2.091488698899999
 11
29.7288166774
 21
2.1306904852
 72
     1
 10
29.7288166774
 20
2.1306904852
 11
29.721934
 21
2.174145999999999
 72
     1
 10
29.721934
 20
2.174145999999999
 11
29.7288166774
 21
2.217601514799999
 72
     1
 10
29.7288166774
 20
2.217601514799999
 11
29.7440287706
 21
2.2474569287
 72
     1
 10
29.7440287706
 20
2.2474569287
 11
29.869352258
 21
2.2474569287
 72
     1
 10
29.869352258
 20
2.2474569287
 11
29.8424105624
 21
2.244960413
 72
     1
 10
29.8424105624
 20
2.244960413
 11
29.8181900249
 21
2.2329000184
 72
     1
 10
29.8181900249
 20
2.2329000184
 11
29.7999617634
 21
2.212904567999999
 72
     1
 10
29.7999617634
 20
2.212904567999999
 11
29.7901876055
 21
2.187674558199999
 72
     1
 10
29.7901876055
 20
2.187674558199999
 11
29.7901876055
 21
2.160617441799999
 72
     1
 10
29.7901876055
 20
2.160617441799999
 11
29.7999617634
 21
2.135387431999999
 72
     1
 10
29.7999617634
 20
2.135387431999999
 11
29.8181900249
 21
2.115391981599999
 72
     1
 10
29.8181900249
 20
2.115391981599999
 11
29.8424105624
 21
2.103331587
 72
     1
 10
29.8424105624
 20
2.103331587
 11
29.869352258
 21
2.1008350713
 72
     1
 10
29.869352258
 20
2.1008350713
 11
29.9810892294
 21
2.1008350713
 72
     1
 10
29.9810892294
 20
2.1008350713
 11
29.9763270148
 21
2.091488698899999
 72
     1
 10
29.9763270148
 20
2.091488698899999
 11
29.9452163011
 21
2.0603779852
 72
     1
 10
29.9452163011
 20
2.0603779852
 11
29.9060145148
 21
2.0404036774
 72
     1
 10
29.9060145148
 20
2.0404036774
 11
29.862559
 21
2.033520999999999
 97
        1
330
2A7
 75
     0
 76
     1
 98
        1
 10
0.0
 20
0.0
  0
LWPOLYLINE
  5
2A9
330
220
100
AcDbEntity
  8
0
  6
Continuous
 62
     2
100
AcDbPolyline
 90
       22
 70
     0
 43
0.0
 10
29.7440287706
 20
2.2474569287
 10
29.7487909852
 20
2.2568033011
 10
29.7799016989
 20
2.287914014799999
 10
29.8191034852
 20
2.307888322599999
 10
29.862559
 20
2.314770999999999
 10
29.9060145148
 20
2.307888322599999
 10
29.9452163011
 20
2.287914014799999
 10
29.9763270148
 20
2.2568033011
 10
29.9963013226
 20
2.217601514799999
 10
30.003184
 20
2.174145999999999
 10
29.9963013226
 20
2.1306904852
 10
29.9810892294
 20
2.1008350713
 10
29.869352258
 20
2.1008350713
 10
29.8953764864
 20
2.1082396027
 10
29.9169685315
 20
2.1245451582
 10
29.9312122679
 20
2.147549582299999
 10
29.936184
 20
2.174145999999999
 10
29.9312122679
 20
2.200742417699999
 10
29.9169685315
 20
2.2237468418
 10
29.8953764864
 20
2.240052397299999
 10
29.869352258
 20
2.2474569287
 10
29.7440287706
 20
2.2474569287
  0
HATCH
  5
2AA
330
220
100
AcDbEntity
  8
0
  6
Continuous
 62
     2
100
AcDbHatch
 10
0.0
 20
0.0
 30
0.0
210
0.0
220
0.0
230
1.0
  2
SOLID
 70
     1
 71
     1
 91
        1
 92
        1
 93
       21
 72
     1
 10
29.7440287706
 20
2.2474569287
 11
29.7487909852
 21
2.2568033011
 72
     1
 10
29.7487909852
 20
2.2568033011
 11
29.7799016989
 21
2.287914014799999
 72
     1
 10
29.7799016989
 20
2.287914014799999
 11
29.8191034852
 21
2.307888322599999
 72
     1
 10
29.8191034852
 20
2.307888322599999
 11
29.862559
 21
2.314770999999999
 72
     1
 10
29.862559
 20
2.314770999999999
 11
29.9060145148
 21
2.307888322599999
 72
     1
 10
29.9060145148
 20
2.307888322599999
 11
29.9452163011
 21
2.287914014799999
 72
     1
 10
29.9452163011
 20
2.287914014799999
 11
29.9763270148
 21
2.2568033011
 72
     1
 10
29.9763270148
 20
2.2568033011
 11
29.9963013226
 21
2.217601514799999
 72
     1
 10
29.9963013226
 20
2.217601514799999
 11
30.003184
 21
2.174145999999999
 72
     1
 10
30.003184
 20
2.174145999999999
 11
29.9963013226
 21
2.1306904852
 72
     1
 10
29.9963013226
 20
2.1306904852
 11
29.9810892294
 21
2.1008350713
 72
     1
 10
29.9810892294
 20
2.1008350713
 11
29.869352258
 21
2.1008350713
 72
     1
 10
29.869352258
 20
2.1008350713
 11
29.8953764864
 21
2.1082396027
 72
     1
 10
29.8953764864
 20
2.1082396027
 11
29.9169685315
 21
2.1245451582
 72
     1
 10
29.9169685315
 20
2.1245451582
 11
29.9312122679
 21
2.147549582299999
 72
     1
 10
29.9312122679
 20
2.147549582299999
 11
29.936184
 21
2.174145999999999
 72
     1
 10
29.936184
 20
2.174145999999999
 11
29.9312122679
 21
2.200742417699999
 72
     1
 10
29.9312122679
 20
2.200742417699999
 11
29.9169685315
 21
2.2237468418
 72
     1
 10
29.9169685315
 20
2.2237468418
 11
29.8953764864
 21
2.240052397299999
 72
     1
 10
29.8953764864
 20
2.240052397299999
 11
29.869352258
 21
2.2474569287
 72
     1
 10
29.869352258
 20
2.2474569287
 11
29.7440287706
 21
2.2474569287
 97
        1
330
2A9
 75
     0
 76
     1
 98
        1
 10
0.0
 20
0.0
  0
LWPOLYLINE
  5
2AB
330
220
100
AcDbEntity
  8
0
  6
Continuous
 62
     2
100
AcDbPolyline
 90
       13
 70
     0
 43
0.0
 10
30.101434
 20
2.033520999999999
 10
30.034434
 20
2.033520999999999
 10
30.034434
 20
2.314770999999999
 10
30.101434
 20
2.314770999999999
 10
30.101434
 20
2.223270999999999
 10
30.179559
 20
2.223270999999999
 10
30.179559
 20
2.314770999999999
 10
30.246559
 20
2.314770999999999
 10
30.246559
 20
2.033520999999999
 10
30.179559
 20
2.033520999999999
 10
30.179559
 20
2.156270999999999
 10
30.101434
 20
2.156270999999999
 10
30.101434
 20
2.033520999999999
  0
HATCH
  5
2AC
330
220
100
AcDbEntity
  8
0
  6
Continuous
 62
     2
100
AcDbHatch
 10
0.0
 20
0.0
 30
0.0
210
0.0
220
0.0
230
1.0
  2
SOLID
 70
     1
 71
     1
 91
        1
 92
        1
 93
       12
 72
     1
 10
30.101434
 20
2.033520999999999
 11
30.034434
 21
2.033520999999999
 72
     1
 10
30.034434
 20
2.033520999999999
 11
30.034434
 21
2.314770999999999
 72
     1
 10
30.034434
 20
2.314770999999999
 11
30.101434
 21
2.314770999999999
 72
     1
 10
30.101434
 20
2.314770999999999
 11
30.101434
 21
2.223270999999999
 72
     1
 10
30.101434
 20
2.223270999999999
 11
30.179559
 21
2.223270999999999
 72
     1
 10
30.179559
 20
2.223270999999999
 11
30.179559
 21
2.314770999999999
 72
     1
 10
30.179559
 20
2.314770999999999
 11
30.246559
 21
2.314770999999999
 72
     1
 10
30.246559
 20
2.314770999999999
 11
30.246559
 21
2.033520999999999
 72
     1
 10
30.246559
 20
2.033520999999999
 11
30.179559
 21
2.033520999999999
 72
     1
 10
30.179559
 20
2.033520999999999
 11
30.179559
 21
2.156270999999999
 72
     1
 10
30.179559
 20
2.156270999999999
 11
30.101434
 21
2.156270999999999
 72
     1
 10
30.101434
 20
2.156270999999999
 11
30.101434
 21
2.033520999999999
 97
        1
330
2AB
 75
     0
 76
     1
 98
        1
 10
0.0
 20
0.0
  0
LWPOLYLINE
  5
2AD
330
220
100
AcDbEntity
  8
0
  6
Continuous
 62
     2
100
AcDbPolyline
 90
        7
 70
     0
 43
0.0
 10
30.434059
 20
2.033520999999999
 10
30.277809
 20
2.033520999999999
 10
30.277809
 20
2.314770999999999
 10
30.344809
 20
2.314770999999999
 10
30.344809
 20
2.100521
 10
30.434059
 20
2.100521
 10
30.434059
 20
2.033520999999999
  0
HATCH
  5
2AE
330
220
100
AcDbEntity
  8
0
  6
Continuous
 62
     2
100
AcDbHatch
 10
0.0
 20
0.0
 30
0.0
210
0.0
220
0.0
230
1.0
  2
SOLID
 70
     1
 71
     1
 91
        1
 92
        1
 93
        6
 72
     1
 10
30.434059
 20
2.033520999999999
 11
30.277809
 21
2.033520999999999
 72
     1
 10
30.277809
 20
2.033520999999999
 11
30.277809
 21
2.314770999999999
 72
     1
 10
30.277809
 20
2.314770999999999
 11
30.344809
 21
2.314770999999999
 72
     1
 10
30.344809
 20
2.314770999999999
 11
30.344809
 21
2.100521
 72
     1
 10
30.344809
 20
2.100521
 11
30.434059
 21
2.100521
 72
     1
 10
30.434059
 20
2.100521
 11
30.434059
 21
2.033520999999999
 97
        1
330
2AD
 75
     0
 76
     1
 98
        1
 10
0.0
 20
0.0
  0
LWPOLYLINE
  5
2AF
330
220
100
AcDbEntity
  8
0
  6
Continuous
 62
     2
100
AcDbPolyline
 90
       13
 70
     0
 43
0.0
 10
30.621559
 20
2.033520999999999
 10
30.465309
 20
2.033520999999999
 10
30.465309
 20
2.314770999999999
 10
30.621559
 20
2.314770999999999
 10
30.621559
 20
2.247770999999999
 10
30.532309
 20
2.247770999999999
 10
30.532309
 20
2.199833499999999
 10
30.621559
 20
2.199833499999999
 10
30.621559
 20
2.148458499999999
 10
30.532309
 20
2.148458499999999
 10
30.532309
 20
2.100521
 10
30.621559
 20
2.100521
 10
30.621559
 20
2.033520999999999
  0
HATCH
  5
2B0
330
220
100
AcDbEntity
  8
0
  6
Continuous
 62
     2
100
AcDbHatch
 10
0.0
 20
0.0
 30
0.0
210
0.0
220
0.0
230
1.0
  2
SOLID
 70
     1
 71
     1
 91
        1
 92
        1
 93
       12
 72
     1
 10
30.621559
 20
2.033520999999999
 11
30.465309
 21
2.033520999999999
 72
     1
 10
30.465309
 20
2.033520999999999
 11
30.465309
 21
2.314770999999999
 72
     1
 10
30.465309
 20
2.314770999999999
 11
30.621559
 21
2.314770999999999
 72
     1
 10
30.621559
 20
2.314770999999999
 11
30.621559
 21
2.247770999999999
 72
     1
 10
30.621559
 20
2.247770999999999
 11
30.532309
 21
2.247770999999999
 72
     1
 10
30.532309
 20
2.247770999999999
 11
30.532309
 21
2.199833499999999
 72
     1
 10
30.532309
 20
2.199833499999999
 11
30.621559
 21
2.199833499999999
 72
     1
 10
30.621559
 20
2.199833499999999
 11
30.621559
 21
2.148458499999999
 72
     1
 10
30.621559
 20
2.148458499999999
 11
30.532309
 21
2.148458499999999
 72
     1
 10
30.532309
 20
2.148458499999999
 11
30.532309
 21
2.100521
 72
     1
 10
30.532309
 20
2.100521
 11
30.621559
 21
2.100521
 72
     1
 10
30.621559
 20
2.100521
 11
30.621559
 21
2.033520999999999
 97
        1
330
2AF
 75
     0
 76
     1
 98
        1
 10
0.0
 20
0.0
  0
ENDBLK
  5
2B1
330
220
100
AcDbEntity
  8
0
  6
ByBlock
 62
     0
100
AcDbBlockEnd
  0
ENDSEC
  0
SECTION
  2
ENTITIES
  0
LINE
  5
3CD
330
218
100
AcDbEntity
  8
0
  6
Continuous
 62
     7
100
AcDbLine
 10
-416.143012198681
 20
425.6631283679166
 30
0.0
 11
-430.076385966422
 21
411.7297546001757
 31
0.0
  0
LINE
  5
3CE
330
218
100
AcDbEntity
  8
0
  6
Continuous
 62
     7
100
AcDbLine
 10
-414.5530595970885
 20
424.0730809662671
 30
0.0
 11
-428.4863399146009
 21
410.1398006487547
 31
0.0
  0
LINE
  5
3CF
330
218
100
AcDbEntity
  8
0
  6
Continuous
 62
     7
100
AcDbLine
 10
-456.6782986286956
 20
-2.734958782724083
 30
0.0
 11
-456.6782986286956
 21
427.2650410457331
 31
0.0
  0
LINE
  5
3D0
330
218
100
AcDbEntity
  8
_SURFACE
  6
Continuous
 62
     7
100
AcDbLine
 10
-450.7213911937069
 20
-2.734958782724083
 30
0.0
 11
-450.7213911937069
 21
427.2650410457331
 31
0.0
  0
LINE
  5
3D1
330
218
100
AcDbEntity
  8
0
  6
Continuous
 62
     7
100
AcDbLine
 10
-448.3964384222939
 20
-2.734958782724083
 30
0.0
 11
-448.3964384222939
 21
427.2650410457331
 31
0.0
  0
LINE
  5
3D3
330
218
100
AcDbEntity
  8
0
  6
Continuous
 62
     7
100
AcDbLine
 10
-435.9954977659973
 20
397.4397546072634
 30
0.0
 11
-435.9954977659973
 21
39.09032765031728
 31
0.0
  0
LINE
  5
3D4
330
218
100
AcDbEntity
  8
0
  6
Continuous
 62
     7
100
AcDbLine
 10
-433.7468982073538
 20
397.4396875657776
 30
0.0
 11
-433.7468982073538
 21
39.09039276866014
 31
0.0
  0
LINE
  5
3D5
330
218
100
AcDbEntity
  8
0
  6
Continuous
 62
     7
100
AcDbLine
 10
-431.6782986442383
 20
452.2650410301904
 30
0.0
 11
-431.6782986442383
 21
443.9831808237887
 31
0.0
  0
LINE
  5
3D6
330
218
100
AcDbEntity
  8
0
  6
Continuous
 62
     7
100
AcDbLine
 10
-431.6782986442383
 20
-27.73495877443816
 30
0.0
 11
-431.6782986442383
 21
-19.45309856077965
 31
0.0
  0
LINE
  5
3D7
330
218
100
AcDbEntity
  8
0
  6
Continuous
 62
     7
100
AcDbLine
 10
-422.3549792344819
 20
407.6001353637133
 30
0.0
 11
-412.0133847689042
 21
417.9417298292911
 31
0.0
  0
LINE
  5
3D8
330
218
100
AcDbEntity
  8
0
  6
Continuous
 62
     7
100
AcDbLine
 10
-420.7550447014076
 20
406.0000698972679
 30
0.0
 11
-410.413327495773
 21
416.3417871029024
 31
0.0
  0
LINE
  5
3D9
330
218
100
AcDbEntity
  8
0
  6
Continuous
 62
     7
100
AcDbLine
 10
-430.076385966422
 20
24.80032765740494
 30
0.0
 11
-404.1430122041096
 21
-1.133046104907604
 31
0.0
  0
LINE
  5
3DA
330
218
100
AcDbEntity
  8
0
  6
Continuous
 62
     7
100
AcDbLine
 10
-428.4863385647723
 20
26.39028025174026
 30
0.0
 11
-402.5530582526884
 21
0.4569999396563445
 31
0.0
  0
LINE
  5
3DB
330
218
100
AcDbEntity
  8
0
  6
Continuous
 62
     7
100
AcDbLine
 10
-400.013392967647
 20
6.588360627032361
 30
0.0
 11
-422.3549874277963
 21
28.9299550871816
 31
0.0
  0
LINE
  5
3DC
330
218
100
AcDbEntity
  8
0
  6
Continuous
 62
     7
100
AcDbLine
 10
-398.4133274939443
 20
8.188295152849606
 30
0.0
 11
-420.7550447014076
 21
30.53001236031288
 31
0.0
  0
LINE
  5
3DD
330
218
100
AcDbEntity
  8
0
  6
Continuous
 62
     7
100
AcDbLine
 10
-427.615556940092
 20
41.63010494210149
 30
0.0
 11
-427.615556940092
 21
394.8999888978791
 31
0.0
  0
LINE
  5
3DE
330
218
100
AcDbEntity
  8
0
  6
Continuous
 62
     7
100
AcDbLine
 10
-425.3528152420257
 20
41.63001235547283
 30
0.0
 11
-425.3528152420257
 21
394.9000699021077
 31
0.0
  0
LINE
  5
3DF
330
218
100
AcDbEntity
  8
0
  6
Continuous
 62
     7
100
AcDbLine
 10
-421.6464897558512
 20
89.26504117807596
 30
0.0
 11
-421.6464897558512
 21
335.265041077676
 31
0.0
  0
LINE
  5
3E0
330
218
100
AcDbEntity
  8
0
  6
Continuous
 62
     7
100
AcDbLine
 10
-414.66354140373
 20
89.26504117807596
 30
0.0
 11
-414.66354140373
 21
335.265041077676
 31
0.0
  0
LINE
  5
3E2
330
218
100
AcDbEntity
  8
0
  6
Continuous
 62
     7
100
AcDbLine
 10
-401.8530122057685
 20
429.3336406088485
 30
0.0
 11
-401.8530122057685
 21
431.582240167492
 31
0.0
  0
LINE
  5
3E3
330
218
100
AcDbEntity
  8
0
  6
Continuous
 62
     7
100
AcDbLine
 10
-399.3133274933557
 20
420.9395576435204
 30
0.0
 11
-399.3133274933557
 21
423.202299348844
 31
0.0
  0
LINE
  5
3E4
330
218
100
AcDbEntity
  8
0
  6
Continuous
 62
     7
100
AcDbLine
 10
-389.8530122039399
 20
-4.803558345839467
 30
0.0
 11
-389.8530122039399
 21
-7.052157911740096
 31
0.0
  0
LINE
  5
3E5
330
218
100
AcDbEntity
  8
0
  6
Continuous
 62
     7
100
AcDbLine
 10
-387.3133274987844
 20
3.590524612231495
 30
0.0
 11
-387.3133274987844
 21
1.327782914165189
 31
0.0
  0
LINE
  5
3E6
330
218
100
AcDbEntity
  8
0
  6
Continuous
 62
     7
100
AcDbLine
 10
-339.6782986761813
 20
7.296850105663411
 30
0.0
 11
-339.6782724053241
 21
24.10574364825409
 31
0.0
  0
LINE
  5
3E7
330
218
100
AcDbEntity
  8
0
  6
Continuous
 62
     7
100
AcDbLine
 10
-339.6782986761813
 20
417.2332321573458
 30
0.0
 11
-339.6782701193241
 21
400.3752793566034
 31
0.0
  0
LINE
  5
3E8
330
218
100
AcDbEntity
  8
0
  6
Continuous
 62
     7
100
AcDbLine
 10
-402.5530582526884
 20
0.4569999396563445
 30
0.0
 11
-400.013392967647
 21
6.588360627032361
 31
0.0
  0
LINE
  5
3E9
330
218
100
AcDbEntity
  8
0
  6
Continuous
 62
     7
100
AcDbLine
 10
298.3217010702759
 20
-27.73495877443816
 30
0.0
 11
-431.6782986442383
 21
-27.73495877443816
 31
0.0
  0
LINE
  5
3EA
330
218
100
AcDbEntity
  8
0
  6
Continuous
 62
     7
100
AcDbLine
 10
-414.5530595970885
 20
424.0730809662671
 30
0.0
 11
-412.0133847689042
 21
417.9417298292911
 31
0.0
  0
LINE
  5
3EB
330
218
100
AcDbEntity
  8
0
  6
Continuous
 62
     7
100
AcDbLine
 10
-389.8529451697114
 20
-4.803558345839467
 30
0.0
 11
-387.313246501813
 21
1.327782914165189
 31
0.0
  0
LINE
  5
3EC
330
218
100
AcDbEntity
  8
_SURFACE
  6
Continuous
 62
     7
100
AcDbLine
 10
298.3217010702759
 20
-21.77805133944953
 30
0.0
 11
-431.6782986442383
 21
-21.77805133944953
 31
0.0
  0
LINE
  5
3ED
330
218
100
AcDbEntity
  8
0
  6
Continuous
 62
     7
100
AcDbLine
 10
298.3217010702759
 20
-19.45309856077965
 30
0.0
 11
-431.6782986442383
 21
-19.45309856077965
 31
0.0
  0
LINE
  5
3EF
330
218
100
AcDbEntity
  8
0
  6
Continuous
 62
     7
100
AcDbLine
 10
-389.8530122039399
 20
-7.052157911740096
 30
0.0
 11
256.4964146299775
 21
-7.052157911740096
 31
0.0
  0
LINE
  5
3F0
330
218
100
AcDbEntity
  8
0
  6
Continuous
 62
     7
100
AcDbLine
 10
-389.8529451697114
 20
-4.803558345839467
 30
0.0
 11
256.4963495116346
 21
-4.803558345839467
 31
0.0
  0
LINE
  5
3F2
330
218
100
AcDbEntity
  8
0
  6
Continuous
 62
     7
100
AcDbLine
 10
323.3217010547333
 20
-2.734958782724083
 30
0.0
 11
315.0398408483316
 21
-2.734958782724083
 31
0.0
  0
LINE
  5
3F3
330
218
100
AcDbEntity
  8
0
  6
Continuous
 62
     7
100
AcDbLine
 10
-448.3964384222939
 20
-2.734958782724083
 30
0.0
 11
-456.6782986286956
 21
-2.734958782724083
 31
0.0
  0
LINE
  5
3F4
330
218
100
AcDbEntity
  8
0
  6
Continuous
 62
     7
100
AcDbLine
 10
253.9566373381936
 20
1.327782914165189
 30
0.0
 11
-387.313246501813
 21
1.327782914165189
 31
0.0
  0
LINE
  5
3F5
330
218
100
AcDbEntity
  8
0
  6
Continuous
 62
     7
100
AcDbLine
 10
253.9567299248219
 20
3.590524612231495
 30
0.0
 11
-387.3133274987844
 21
3.590524612231495
 31
0.0
  0
LINE
  5
3F6
330
218
100
AcDbEntity
  8
0
  6
Continuous
 62
     7
100
AcDbLine
 10
206.321701102219
 20
6.737435607315633
 30
0.0
 11
58.32170116433302
 21
6.737435607315633
 31
0.0
  0
LINE
  5
3F7
330
218
100
AcDbEntity
  8
0
  6
Continuous
 62
     7
100
AcDbLine
 10
-123.6782987666384
 20
7.296850105663411
 30
0.0
 11
-339.6782986761813
 21
7.296850105663411
 31
0.0
  0
LINE
  5
3F8
330
218
100
AcDbEntity
  8
0
  6
Continuous
 62
     7
100
AcDbLine
 10
-401.8529470801684
 20
429.3336406088485
 30
0.0
 11
-399.3132349067272
 21
423.202299348844
 31
0.0
  0
LINE
  5
3F9
330
218
100
AcDbEntity
  8
0
  6
Continuous
 62
     7
100
AcDbLine
 10
-261.3799056692719
 20
219.4780089081052
 30
0.0
 11
-260.1828923230081
 21
221.6043378669689
 31
0.0
  0
LINE
  5
3FA
330
218
100
AcDbEntity
  8
0
  6
Continuous
 62
     7
100
AcDbLine
 10
-201.4040265669194
 20
324.6821476499663
 30
0.0
 11
-202.5987064224417
 21
322.6208685918195
 31
0.0
  0
LINE
  5
3FB
330
218
100
AcDbEntity
  8
0
  6
Continuous
 62
     7
100
AcDbLine
 10
-37.87611521861646
 20
412.2795096889845
 30
0.0
 11
-40.00161833639467
 21
411.3991253620794
 31
0.0
  0
LINE
  5
3FC
330
218
100
AcDbEntity
  8
0
  6
Continuous
 62
     7
100
AcDbLine
 10
-32.61555710003469
 20
399.5793965189219
 30
0.0
 11
-34.74104050015615
 21
398.6989790196169
 31
0.0
  0
LINE
  5
3FD
330
218
100
AcDbEntity
  8
0
  6
Continuous
 62
     7
100
AcDbLine
 10
206.321701102219
 20
13.72038395943669
 30
0.0
 11
58.32170116433302
 21
13.72038395943669
 31
0.0
  0
LINE
  5
3FE
330
218
100
AcDbEntity
  8
0
  6
Continuous
 62
     7
100
AcDbLine
 10
-123.6782987666384
 20
14.27979845052736
 30
0.0
 11
-339.6782986761813
 21
14.27979845052736
 31
0.0
  0
LINE
  5
3FF
330
218
100
AcDbEntity
  8
0
  6
Continuous
 62
     7
100
AcDbLine
 10
-433.7468982073538
 20
39.09032765031728
 30
0.0
 11
-435.9954977659973
 21
39.09032765031728
 31
0.0
  0
LINE
  5
400
330
218
100
AcDbEntity
  8
0
  6
Continuous
 62
     7
100
AcDbLine
 10
300.3903006333914
 20
39.09032765031728
 30
0.0
 11
302.6389001920347
 21
39.09032765031728
 31
0.0
  0
LINE
  5
401
330
218
100
AcDbEntity
  8
0
  6
Continuous
 62
     7
100
AcDbLine
 10
-425.3528152420257
 20
41.63001235547283
 30
0.0
 11
-427.615556940092
 21
41.63001235547283
 31
0.0
  0
LINE
  5
402
330
218
100
AcDbEntity
  8
0
  6
Continuous
 62
     7
100
AcDbLine
 10
291.9962176680633
 20
41.63001235547283
 30
0.0
 11
294.2589593661294
 21
41.63001235547283
 31
0.0
  0
LINE
  5
403
330
218
100
AcDbEntity
  8
0
  6
Continuous
 62
     7
100
AcDbLine
 10
-45.6638760324156
 20
420.0672705027836
 30
0.0
 11
-44.06387603265559
 21
421.6672705025438
 31
0.0
  0
LINE
  5
404
330
218
100
AcDbEntity
  8
0
  6
Continuous
 62
     7
100
AcDbLine
 10
-48.14428007673777
 20
416.3417871029024
 30
0.0
 11
-46.54428007697757
 21
417.9417871026624
 31
0.0
  0
LINE
  5
405
330
218
100
AcDbEntity
  8
0
  6
Continuous
 62
     7
100
AcDbLine
 10
-428.4863859611722
 20
26.39032765539747
 30
0.0
 11
-430.076385966422
 21
24.80032765740494
 31
0.0
  0
LINE
  5
406
330
218
100
AcDbEntity
  8
0
  6
Continuous
 62
     7
100
AcDbLine
 10
-281.8122408985278
 20
238.285178078868
 30
0.0
 11
-279.7994703829899
 21
239.6512041499214
 31
0.0
  0
LINE
  5
407
330
218
100
AcDbEntity
  8
0
  6
Continuous
 62
     7
100
AcDbLine
 10
-180.9863305115436
 20
305.3664108692355
 30
0.0
 11
-182.993320654741
 21
304.0540636559321
 31
0.0
  0
LINE
  5
408
330
218
100
AcDbEntity
  8
0
  6
Continuous
 62
     7
100
AcDbLine
 10
-32.61555710003469
 20
379.4585180852558
 30
0.0
 11
-34.74104050015615
 21
378.5781101798936
 31
0.0
  0
LINE
  5
409
330
218
100
AcDbEntity
  8
0
  6
Continuous
 62
     7
100
AcDbLine
 10
-27.35498690556784
 20
366.7583813947929
 30
0.0
 11
-29.48048130751749
 21
365.8779883448022
 31
0.0
  0
LINE
  5
40A
330
218
100
AcDbEntity
  8
0
  6
Continuous
 62
     7
100
AcDbLine
 10
-41.60155273884041
 20
409.7990597650053
 30
0.0
 11
-40.00155273908055
 21
411.3990597647653
 31
0.0
  0
LINE
  5
40B
330
218
100
AcDbEntity
  8
0
  6
Continuous
 62
     7
100
AcDbLine
 10
-420.7550447014076
 20
30.53001236031288
 30
0.0
 11
-422.3550447011676
 21
28.93001236055286
 31
0.0
  0
LINE
  5
40C
330
218
100
AcDbEntity
  8
0
  6
Continuous
 62
     7
100
AcDbLine
 10
-37.87606933895941
 20
412.2794638165844
 30
0.0
 11
-36.27606933919924
 21
413.8794638163446
 31
0.0
  0
LINE
  5
40D
330
218
100
AcDbEntity
  8
0
  6
Continuous
 62
     7
100
AcDbLine
 10
-24.20590440642732
 20
89.26504117807596
 30
0.0
 11
-8.707709834855165
 21
89.26507097590462
 31
0.0
  0
LINE
  5
40E
330
218
100
AcDbEntity
  8
0
  6
Continuous
 62
     7
100
AcDbLine
 10
-41.71010768696859
 20
89.26504117807596
 30
0.0
 11
-58.52640694064189
 21
89.2650676085903
 31
0.0
  0
LINE
  5
40F
330
218
100
AcDbEntity
  8
0
  6
Continuous
 62
     7
100
AcDbLine
 10
-421.6464897558512
 20
89.26504117807596
 30
0.0
 11
-404.8301904949204
 21
89.26506957527612
 31
0.0
  0
LINE
  5
410
330
218
100
AcDbEntity
  8
0
  6
Continuous
 62
     7
100
AcDbLine
 10
288.849306672979
 20
89.26504117807596
 30
0.0
 11
273.3511121014069
 21
89.26506899470457
 31
0.0
  0
LINE
  5
411
330
218
100
AcDbEntity
  8
0
  6
Continuous
 62
     7
100
AcDbLine
 10
-428.4863859611722
 20
410.1397546021831
 30
0.0
 11
-430.076385966422
 21
411.7297546001757
 31
0.0
  0
LINE
  5
412
330
218
100
AcDbEntity
  8
0
  6
Continuous
 62
     7
100
AcDbLine
 10
-420.7550447014076
 20
406.0000698972679
 30
0.0
 11
-422.3550447011676
 21
407.6000698970276
 31
0.0
  0
LINE
  5
413
330
218
100
AcDbEntity
  8
0
  6
Continuous
 62
     7
100
AcDbLine
 10
-261.9525708759
 20
324.6821476499663
 30
0.0
 11
-260.757891020378
 21
322.6208685918195
 31
0.0
  0
LINE
  5
414
330
218
100
AcDbEntity
  8
0
  6
Continuous
 62
     7
100
AcDbLine
 10
-201.9766917735476
 20
219.4780089081052
 30
0.0
 11
-203.1737051198116
 21
221.6043378669689
 31
0.0
  0
LINE
  5
415
330
218
100
AcDbEntity
  8
0
  6
Continuous
 62
     7
100
AcDbLine
 10
-59.24436107612613
 20
423.202299348844
 30
0.0
 11
-57.58742582250338
 21
427.2022993446153
 31
0.0
  0
LINE
  5
416
330
218
100
AcDbEntity
  8
0
  6
Continuous
 62
     7
100
AcDbLine
 10
-45.66382779418705
 20
420.0672222718122
 30
0.0
 11
-46.5442146102919
 21
417.9417216359769
 31
0.0
  0
LINE
  5
417
330
218
100
AcDbEntity
  8
0
  6
Continuous
 62
     7
100
AcDbLine
 10
-49.39484467115178
 20
423.0515923605042
 30
0.0
 11
-48.30134369810344
 21
424.9395576465491
 31
0.0
  0
LINE
  5
418
330
218
100
AcDbEntity
  8
0
  6
Continuous
 62
     7
100
AcDbLine
 10
-398.4133274939443
 20
8.188295152849606
 30
0.0
 11
-400.0133274937043
 21
6.588295153089584
 31
0.0
  0
LINE
  5
419
330
218
100
AcDbEntity
  8
0
  6
Continuous
 62
     7
100
AcDbLine
 10
-402.5530121988599
 20
0.456953893084926
 30
0.0
 11
-404.1430122041096
 21
-1.133046104907604
 31
0.0
  0
LINE
  5
41A
330
218
100
AcDbEntity
  8
0
  6
Continuous
 62
     7
100
AcDbLine
 10
-31.08052826099194
 20
364.2780352987568
 30
0.0
 11
-29.48052826123177
 21
365.8780352985165
 31
0.0
  0
LINE
  5
41B
330
218
100
AcDbEntity
  8
0
  6
Continuous
 62
     7
100
AcDbLine
 10
-27.35504486111063
 20
366.7584393503359
 30
0.0
 11
-25.75504486135043
 21
368.358439350096
 31
0.0
  0
LINE
  5
41C
330
218
100
AcDbEntity
  8
0
  6
Continuous
 62
     7
100
AcDbLine
 10
-23.18490051975004
 20
362.5882950089753
 30
0.0
 11
-21.58490051999002
 21
364.1882950087355
 31
0.0
  0
LINE
  5
41D
330
218
100
AcDbEntity
  8
0
  6
Continuous
 62
     7
100
AcDbLine
 10
-25.66530457132933
 20
358.8628116163511
 30
0.0
 11
-24.0653045715693
 21
360.4628116088542
 31
0.0
  0
LINE
  5
41E
330
218
100
AcDbEntity
  8
0
  6
Continuous
 62
     7
100
AcDbLine
 10
-410.413327495773
 20
416.3417871029024
 30
0.0
 11
-412.0133274882758
 21
417.9417871026624
 31
0.0
  0
LINE
  5
41F
330
218
100
AcDbEntity
  8
0
  6
Continuous
 62
     7
100
AcDbLine
 10
-414.5530122006885
 20
424.0731283699243
 30
0.0
 11
-416.143012198681
 21
425.6631283679166
 31
0.0
  0
LINE
  5
420
330
218
100
AcDbEntity
  8
0
  6
Continuous
 62
     7
100
AcDbLine
 10
-123.6782987666384
 20
417.2332321573458
 30
0.0
 11
-123.6783253495528
 21
400.3752793566034
 31
0.0
  0
LINE
  5
421
330
218
100
AcDbEntity
  8
0
  6
Continuous
 62
     7
100
AcDbLine
 10
-123.6782987666384
 20
7.296850105663411
 30
0.0
 11
-123.6783269824098
 21
24.10574364825409
 31
0.0
  0
LINE
  5
422
330
218
100
AcDbEntity
  8
0
  6
Continuous
 62
     7
100
AcDbLine
 10
292.9983914534337
 20
409.2569798159648
 30
0.0
 11
295.1297425293241
 21
410.1398004600691
 31
0.0
  0
LINE
  5
423
330
218
100
AcDbEntity
  8
0
  6
Continuous
 62
     7
100
AcDbLine
 10
298.2589593691583
 20
396.5568421893306
 30
0.0
 11
300.3903006333914
 21
397.439687326292
 31
0.0
  0
LINE
  5
424
330
218
100
AcDbEntity
  8
0
  6
Continuous
 62
     7
100
AcDbLine
 10
-282.3702669312759
 20
305.3664108692355
 30
0.0
 11
-280.3632767880787
 21
304.0540636559321
 31
0.0
  0
LINE
  5
425
330
218
100
AcDbEntity
  8
0
  6
Continuous
 62
     7
100
AcDbLine
 10
-181.544356544292
 20
238.285178078868
 30
0.0
 11
-183.5571270598297
 21
239.6512041499214
 31
0.0
  0
LINE
  5
426
330
218
100
AcDbEntity
  8
0
  6
Continuous
 62
     7
100
AcDbLine
 10
-23.18495619654996
 20
362.5883506857752
 30
0.0
 11
-24.06535751968355
 21
360.4628645642255
 31
0.0
  0
LINE
  5
427
330
218
100
AcDbEntity
  8
0
  6
Continuous
 62
     7
100
AcDbLine
 10
-10.48481856991577
 20
357.3277827700509
 30
0.0
 11
-11.36523817379216
 21
355.2022993699298
 31
0.0
  0
LINE
  5
428
330
218
100
AcDbEntity
  8
DATUM_AXIS
  6
Continuous
 62
     7
100
AcDbLine
 10
-50.82500532852254
 20
189.2650411376761
 30
0.0
 11
-49.84602996548559
 21
189.2650411376761
 31
0.0
  0
LINE
  5
429
330
218
100
AcDbEntity
  8
DATUM_AXIS
  6
Continuous
 62
     7
100
AcDbLine
 10
-49.84602996548559
 20
195.2650411385903
 30
0.0
 11
-50.82500532852254
 21
195.2650411385903
 31
0.0
  0
LINE
  5
42A
330
218
100
AcDbEntity
  8
DATUM_AXIS
  6
Continuous
 62
     7
100
AcDbLine
 10
-50.82500532852254
 20
199.2650411343618
 30
0.0
 11
-49.84602996548559
 21
199.2650411343618
 31
0.0
  0
LINE
  5
42B
330
218
100
AcDbEntity
  8
DATUM_AXIS
  6
Continuous
 62
     7
100
AcDbLine
 10
-49.84602996548559
 20
205.265041135276
 30
0.0
 11
-50.82500532852254
 21
205.265041135276
 31
0.0
  0
LINE
  5
42C
330
218
100
AcDbEntity
  8
0
  6
Continuous
 62
     7
100
AcDbLine
 10
295.1297423406386
 20
26.39028160882589
 30
0.0
 11
288.9983816605193
 21
28.92994688660992
 31
0.0
  0
LINE
  5
42D
330
218
100
AcDbEntity
  8
0
  6
Continuous
 62
     7
100
AcDbLine
 10
300.3903006333914
 20
39.09039468454597
 30
0.0
 11
294.2589593661294
 21
41.63009335244429
 31
0.0
  0
LINE
  5
42E
330
218
100
AcDbEntity
  8
0
  6
Continuous
 62
     7
100
AcDbLine
 10
-59.24428007189772
 20
420.9395576435204
 30
0.0
 11
-59.24428007189772
 21
423.202299348844
 31
0.0
  0
LINE
  5
42F
330
218
100
AcDbEntity
  8
0
  6
Continuous
 62
     7
100
AcDbLine
 10
-48.6930560390895
 20
335.265041077676
 30
0.0
 11
-48.6930560390895
 21
89.26504117807596
 31
0.0
  0
LINE
  5
430
330
218
100
AcDbEntity
  8
0
  6
Continuous
 62
     7
100
AcDbLine
 10
-41.71010768696859
 20
335.265041077676
 30
0.0
 11
-41.71010768696859
 21
89.26504117807596
 31
0.0
  0
LINE
  5
431
330
218
100
AcDbEntity
  8
0
  6
Continuous
 62
     7
100
AcDbLine
 10
-37.00378219822247
 20
398.6990597698453
 30
0.0
 11
-37.00378219822247
 21
378.5780352934366
 31
0.0
  0
LINE
  5
432
330
218
100
AcDbEntity
  8
0
  6
Continuous
 62
     7
100
AcDbLine
 10
-34.74104050015615
 20
398.6989790196169
 30
0.0
 11
-34.74104050015615
 21
378.5781101798936
 31
0.0
  0
LINE
  5
433
330
218
100
AcDbEntity
  8
0
  6
Continuous
 62
     7
100
AcDbLine
 10
-32.61555710003469
 20
379.4585180852558
 30
0.0
 11
-32.61555710003469
 21
399.5793965189219
 31
0.0
  0
LINE
  5
434
330
218
100
AcDbEntity
  8
0
  6
Continuous
 62
     7
100
AcDbLine
 10
-30.35281540196854
 20
379.458439345256
 30
0.0
 11
-30.35281540196854
 21
399.5794638216644
 31
0.0
  0
LINE
  5
435
330
218
100
AcDbEntity
  8
0
  6
Continuous
 62
     7
100
AcDbLine
 10
-433.7468982073538
 20
39.09039276866014
 30
0.0
 11
-427.615556940092
 21
41.63010494210149
 31
0.0
  0
LINE
  5
436
330
218
100
AcDbEntity
  8
0
  6
Continuous
 62
     7
100
AcDbLine
 10
-428.4863385647723
 20
26.39028025174026
 30
0.0
 11
-422.3549874277963
 21
28.9299550871816
 31
0.0
  0
LINE
  5
437
330
218
100
AcDbEntity
  8
0
  6
Continuous
 62
     7
100
AcDbLine
 10
291.9962176680633
 20
293.6205374463911
 30
0.0
 11
294.1313724447518
 21
294.3696129246056
 31
0.0
  0
LINE
  5
438
330
218
100
AcDbEntity
  8
0
  6
Continuous
 62
     7
100
AcDbLine
 10
71.7838275420911
 20
212.2650411315046
 30
0.0
 11
74.17527998090594
 21
212.2650411315046
 31
0.0
  0
LINE
  5
439
330
218
100
AcDbEntity
  8
0
  6
Continuous
 62
     7
100
AcDbLine
 10
190.4681222783887
 20
212.2650411315046
 30
0.0
 11
192.8595747244607
 21
212.2650411315046
 31
0.0
  0
LINE
  5
43A
330
218
100
AcDbEntity
  8
DATUM_AXIS
  6
Continuous
 62
     7
100
AcDbLine
 10
-50.82500532852254
 20
219.265041127733
 30
0.0
 11
-49.84602996548559
 21
219.265041127733
 31
0.0
  0
LINE
  5
43B
330
218
100
AcDbEntity
  8
DATUM_AXIS
  6
Continuous
 62
     7
100
AcDbLine
 10
-49.84602996548559
 20
225.2650411213903
 30
0.0
 11
-50.82500532852254
 21
225.2650411213903
 31
0.0
  0
LINE
  5
43C
330
218
100
AcDbEntity
  8
DATUM_AXIS
  6
Continuous
 62
     7
100
AcDbLine
 10
-50.82500532852254
 20
229.2650411244189
 30
0.0
 11
-49.84602996548559
 21
229.2650411244189
 31
0.0
  0
LINE
  5
43D
330
218
100
AcDbEntity
  8
DATUM_AXIS
  6
Continuous
 62
     7
100
AcDbLine
 10
-49.84602996548559
 20
235.265041118076
 30
0.0
 11
-50.82500532852254
 21
235.265041118076
 31
0.0
  0
LINE
  5
43E
330
218
100
AcDbEntity
  8
0
  6
Continuous
 62
     7
100
AcDbLine
 10
-433.7468982073538
 20
397.4396875657776
 30
0.0
 11
-427.615556940092
 21
394.8999888978791
 31
0.0
  0
LINE
  5
43F
330
218
100
AcDbEntity
  8
0
  6
Continuous
 62
     7
100
AcDbLine
 10
-24.20590440642732
 20
89.26504117807596
 30
0.0
 11
-24.20590440642732
 21
264.2650411055616
 31
0.0
  0
LINE
  5
440
330
218
100
AcDbEntity
  8
0
  6
Continuous
 62
     7
100
AcDbLine
 10
-17.22295606156319
 20
89.26504117807596
 30
0.0
 11
-17.22295606156319
 21
264.2650411055616
 31
0.0
  0
LINE
  5
441
330
218
100
AcDbEntity
  8
0
  6
Continuous
 62
     7
100
AcDbLine
 10
-11.36530457664915
 20
352.9395576718633
 30
0.0
 11
-11.36530457664915
 21
355.2022993699298
 31
0.0
  0
LINE
  5
442
330
218
100
AcDbEntity
  8
0
  6
Continuous
 62
     7
100
AcDbLine
 10
-10.48490052483006
 20
357.3277827700509
 30
0.0
 11
-10.48490052483006
 21
359.5905244681174
 31
0.0
  0
LINE
  5
443
330
218
100
AcDbEntity
  8
0
  6
Continuous
 62
     7
100
AcDbLine
 10
188.982441118126
 20
233.6021540421125
 30
0.0
 11
186.7344315071392
 21
232.7541977137661
 31
0.0
  0
LINE
  5
444
330
218
100
AcDbEntity
  8
0
  6
Continuous
 62
     7
100
AcDbLine
 10
-292.2104120352827
 20
271.4390029730351
 30
0.0
 11
-289.8191912226963
 21
271.4730041750215
 31
0.0
  0
LINE
  5
445
330
218
100
AcDbEntity
  8
0
  6
Continuous
 62
     7
100
AcDbLine
 10
288.849306672979
 20
264.2650411055616
 30
0.0
 11
273.3262158269598
 21
264.2650112641902
 31
0.0
  0
LINE
  5
446
330
218
100
AcDbEntity
  8
0
  6
Continuous
 62
     7
100
AcDbLine
 10
-24.20590440642732
 20
264.2650411055616
 30
0.0
 11
-8.682813567665249
 21
264.2650132163618
 31
0.0
  0
LINE
  5
447
330
218
100
AcDbEntity
  8
0
  6
Continuous
 62
     7
100
AcDbLine
 10
-171.1461854075369
 20
271.4390029730351
 30
0.0
 11
-173.5374062709232
 21
271.4730041750215
 31
0.0
  0
LINE
  5
448
330
218
100
AcDbEntity
  8
0
  6
Continuous
 62
     7
100
AcDbLine
 10
-428.4863399146009
 20
410.1398006487547
 30
0.0
 11
-422.3549792344819
 21
407.6001353637133
 31
0.0
  0
LINE
  5
449
330
218
100
AcDbEntity
  8
0
  6
Continuous
 62
     7
100
AcDbLine
 10
281.1964146267261
 20
424.0731283699243
 30
0.0
 11
282.7864146247185
 21
425.6631283679166
 31
0.0
  0
LINE
  5
44A
330
218
100
AcDbEntity
  8
0
  6
Continuous
 62
     7
100
AcDbLine
 10
280.3135841637078
 20
421.9417871056913
 30
0.0
 11
278.7135841639476
 21
420.3417871059311
 31
0.0
  0
LINE
  5
44B
330
218
100
AcDbEntity
  8
0
  6
Continuous
 62
     7
100
AcDbLine
 10
294.2589593661294
 20
293.6205374463911
 30
0.0
 11
291.9962176680633
 21
293.6205374463911
 31
0.0
  0
LINE
  5
44C
330
218
100
AcDbEntity
  8
0
  6
Continuous
 62
     7
100
AcDbLine
 10
295.9962176710919
 20
301.6833110196802
 30
0.0
 11
298.2589593691583
 21
301.6833110196802
 31
0.0
  0
LINE
  5
44D
330
218
100
AcDbEntity
  8
0
  6
Continuous
 62
     7
100
AcDbLine
 10
77.90897077392667
 20
232.7541977065088
 30
0.0
 11
75.66096114842594
 21
233.6021540421125
 31
0.0
  0
LINE
  5
44E
330
218
100
AcDbEntity
  8
0
  6
Continuous
 62
     7
100
AcDbLine
 10
269.1964146248976
 20
0.456953893084926
 30
0.0
 11
270.7864146301472
 21
-1.133046104907604
 31
0.0
  0
LINE
  5
44F
330
218
100
AcDbEntity
  8
0
  6
Continuous
 62
     7
100
AcDbLine
 10
265.0567299199819
 20
8.188295152849606
 30
0.0
 11
266.6567299197421
 21
6.588295153089584
 31
0.0
  0
LINE
  5
450
330
218
100
AcDbEntity
  8
0
  6
Continuous
 62
     7
100
AcDbLine
 10
58.32170116433302
 20
346.7926466763223
 30
0.0
 11
58.32173075170445
 21
331.2617140302487
 31
0.0
  0
LINE
  5
451
330
218
100
AcDbEntity
  8
0
  6
Continuous
 62
     7
100
AcDbLine
 10
58.32170116433302
 20
6.737435607315633
 30
0.0
 11
58.32172871244728
 21
22.22845678346198
 31
0.0
  0
LINE
  5
452
330
218
100
AcDbEntity
  8
0
  6
Continuous
 62
     7
100
AcDbLine
 10
292.9984471302338
 20
409.2569241391649
 30
0.0
 11
291.3984471304738
 21
407.6569241466621
 31
0.0
  0
LINE
  5
453
330
218
100
AcDbEntity
  8
0
  6
Continuous
 62
     7
100
AcDbLine
 10
295.1297883872098
 20
410.1397546021831
 30
0.0
 11
296.7197883924596
 21
411.7297546001757
 31
0.0
  0
LINE
  5
454
330
218
100
AcDbEntity
  8
0
  6
Continuous
 62
     7
100
AcDbLine
 10
84.17439937410614
 20
175.5270621457999
 30
0.0
 11
86.10510524013388
 21
177.0023904620096
 31
0.0
  0
LINE
  5
455
330
218
100
AcDbEntity
  8
0
  6
Continuous
 62
     7
100
AcDbLine
 10
-41.71010768696859
 20
335.265041077676
 30
0.0
 11
-58.55367112645956
 21
335.2650129344761
 31
0.0
  0
LINE
  5
456
330
218
100
AcDbEntity
  8
0
  6
Continuous
 62
     7
100
AcDbLine
 10
-421.6464897558512
 20
335.265041077676
 30
0.0
 11
-404.8029263163601
 21
335.2650148793904
 31
0.0
  0
LINE
  5
457
330
218
100
AcDbEntity
  8
0
  6
Continuous
 62
     7
100
AcDbLine
 10
58.32170116433302
 20
339.8096983314583
 30
0.0
 11
206.321701102219
 21
339.8096983314583
 31
0.0
  0
LINE
  5
458
330
218
100
AcDbEntity
  8
0
  6
Continuous
 62
     7
100
AcDbLine
 10
180.4690028924455
 20
175.5270621457999
 30
0.0
 11
178.5382970264181
 21
177.0023904620096
 31
0.0
  0
LINE
  5
459
330
218
100
AcDbEntity
  8
0
  6
Continuous
 62
     7
100
AcDbLine
 10
287.3984471274452
 20
30.53001236031288
 30
0.0
 11
288.9984471272052
 21
28.93001236055286
 31
0.0
  0
LINE
  5
45A
330
218
100
AcDbEntity
  8
0
  6
Continuous
 62
     7
100
AcDbLine
 10
295.1297883872098
 20
26.39032765539747
 30
0.0
 11
296.7197883924596
 21
24.80032765740494
 31
0.0
  0
LINE
  5
45B
330
218
100
AcDbEntity
  8
0
  6
Continuous
 62
     7
100
AcDbLine
 10
-31.08052826099194
 20
364.2780352987568
 30
0.0
 11
-25.66530457132933
 21
358.8628116163511
 31
0.0
  0
LINE
  5
45C
330
218
100
AcDbEntity
  8
0
  6
Continuous
 62
     7
100
AcDbLine
 10
162.1367018526357
 20
264.9509521323159
 30
0.0
 11
160.9571794035645
 21
262.8718579205761
 31
0.0
  0
LINE
  5
45D
330
218
100
AcDbEntity
  8
0
  6
Continuous
 62
     7
100
AcDbLine
 10
58.32170116433302
 20
346.7926466763223
 30
0.0
 11
206.321701102219
 21
346.7926466763223
 31
0.0
  0
LINE
  5
45E
330
218
100
AcDbEntity
  8
0
  6
Continuous
 62
     7
100
AcDbLine
 10
-11.36530457664915
 20
352.9395576718633
 30
0.0
 11
208.3217011001045
 21
352.9395576718633
 31
0.0
  0
LINE
  5
45F
330
218
100
AcDbEntity
  8
0
  6
Continuous
 62
     7
100
AcDbLine
 10
-11.36523817379216
 20
355.2022993699298
 30
0.0
 11
208.3217011001045
 21
355.2022993699298
 31
0.0
  0
LINE
  5
460
330
218
100
AcDbEntity
  8
0
  6
Continuous
 62
     7
100
AcDbLine
 10
208.3217011001045
 20
357.3277827700509
 30
0.0
 11
-10.48481856991577
 21
357.3277827700509
 31
0.0
  0
LINE
  5
461
330
218
100
AcDbEntity
  8
0
  6
Continuous
 62
     7
100
AcDbLine
 10
208.3217011001045
 20
359.5905244681174
 30
0.0
 11
-10.48490052483006
 21
359.5905244681174
 31
0.0
  0
LINE
  5
462
330
218
100
AcDbEntity
  8
0
  6
Continuous
 62
     7
100
AcDbLine
 10
-29.48048130751749
 20
365.8779883448022
 30
0.0
 11
-24.06535751968355
 21
360.4628645642255
 31
0.0
  0
LINE
  5
463
330
218
100
AcDbEntity
  8
0
  6
Continuous
 62
     7
100
AcDbLine
 10
-23.18495619654996
 20
362.5883506857752
 30
0.0
 11
-27.35498690556784
 21
366.7583813947929
 31
0.0
  0
LINE
  5
464
330
218
100
AcDbEntity
  8
0
  6
Continuous
 62
     7
100
AcDbLine
 10
-21.58490051999002
 20
364.1882950087355
 30
0.0
 11
-25.75504486135043
 21
368.358439350096
 31
0.0
  0
LINE
  5
465
330
218
100
AcDbEntity
  8
0
  6
Continuous
 62
     7
100
AcDbLine
 10
-48.14428007673777
 20
416.3417871029024
 30
0.0
 11
-41.60155273884041
 21
409.7990597650053
 31
0.0
  0
LINE
  5
466
330
218
100
AcDbEntity
  8
0
  6
Continuous
 62
     7
100
AcDbLine
 10
-46.5442146102919
 20
417.9417216359769
 30
0.0
 11
-40.00161833639467
 21
411.3991253620794
 31
0.0
  0
LINE
  5
467
330
218
100
AcDbEntity
  8
0
  6
Continuous
 62
     7
100
AcDbLine
 10
-37.87611521861646
 20
412.2795096889845
 30
0.0
 11
-45.66382779418705
 21
420.0672222718122
 31
0.0
  0
LINE
  5
468
330
218
100
AcDbEntity
  8
0
  6
Continuous
 62
     7
100
AcDbLine
 10
-36.27606933919924
 20
413.8794638163446
 30
0.0
 11
-44.06387603265559
 21
421.6672705025438
 31
0.0
  0
LINE
  5
469
330
218
100
AcDbEntity
  8
0
  6
Continuous
 62
     7
100
AcDbLine
 10
109.3039812104545
 20
156.2412701144854
 30
0.0
 11
110.2311041136265
 21
158.495967480155
 31
0.0
  0
LINE
  5
46A
330
218
100
AcDbEntity
  8
0
  6
Continuous
 62
     7
100
AcDbLine
 10
-37.00378219822247
 20
378.5780352934366
 30
0.0
 11
-34.74104050015615
 21
378.5780352934366
 31
0.0
  0
LINE
  5
46B
330
218
100
AcDbEntity
  8
0
  6
Continuous
 62
     7
100
AcDbLine
 10
-32.61555710003469
 20
379.458439345256
 30
0.0
 11
-30.35281540196854
 21
379.458439345256
 31
0.0
  0
LINE
  5
46C
330
218
100
AcDbEntity
  8
0
  6
Continuous
 62
     7
100
AcDbLine
 10
-425.3528152420257
 20
394.9000699021077
 30
0.0
 11
-427.615556940092
 21
394.9000699021077
 31
0.0
  0
LINE
  5
46D
330
218
100
AcDbEntity
  8
0
  6
Continuous
 62
     7
100
AcDbLine
 10
298.2589593691583
 20
396.556924144245
 30
0.0
 11
295.9962176710919
 21
396.556924144245
 31
0.0
  0
LINE
  5
46E
330
218
100
AcDbEntity
  8
0
  6
Continuous
 62
     7
100
AcDbLine
 10
-433.7468982073538
 20
397.4397546072634
 30
0.0
 11
-435.9954977659973
 21
397.4397546072634
 31
0.0
  0
LINE
  5
46F
330
218
100
AcDbEntity
  8
0
  6
Continuous
 62
     7
100
AcDbLine
 10
300.3903006333914
 20
397.4397546072634
 30
0.0
 11
302.6389001920347
 21
397.4397546072634
 31
0.0
  0
LINE
  5
470
330
218
100
AcDbEntity
  8
0
  6
Continuous
 62
     7
100
AcDbLine
 10
-37.00378219822247
 20
398.6990597698453
 30
0.0
 11
-34.74104050015615
 21
398.6990597698453
 31
0.0
  0
LINE
  5
471
330
218
100
AcDbEntity
  8
0
  6
Continuous
 62
     7
100
AcDbLine
 10
-32.61555710003469
 20
399.5794638216644
 30
0.0
 11
-30.35281540196854
 21
399.5794638216644
 31
0.0
  0
LINE
  5
472
330
218
100
AcDbEntity
  8
0
  6
Continuous
 62
     7
100
AcDbLine
 10
102.5067004139161
 20
264.9509521323159
 30
0.0
 11
103.6862228557302
 21
262.8718579278334
 31
0.0
  0
LINE
  5
473
330
218
100
AcDbEntity
  8
0
  6
Continuous
 62
     7
100
AcDbLine
 10
155.3394210560974
 20
156.2412701144854
 30
0.0
 11
154.4122981529254
 21
158.4959674728979
 31
0.0
  0
LINE
  5
474
330
218
100
AcDbEntity
  8
0
  6
Continuous
 62
     7
100
AcDbLine
 10
268.4963475903206
 20
429.3336406088485
 30
0.0
 11
267.6135024533591
 21
427.2022993446153
 31
0.0
  0
LINE
  5
475
330
218
100
AcDbEntity
  8
0
  6
Continuous
 62
     7
100
AcDbLine
 10
281.1964606732973
 20
424.0730823233526
 30
0.0
 11
280.3136400219365
 21
421.9417312474626
 31
0.0
  0
LINE
  5
476
330
218
100
AcDbEntity
  8
0
  6
Continuous
 62
     7
100
AcDbLine
 10
-339.6782986761813
 20
410.2502838052249
 30
0.0
 11
-123.6782987666384
 21
410.2502838052249
 31
0.0
  0
LINE
  5
477
330
218
100
AcDbEntity
  8
0
  6
Continuous
 62
     7
100
AcDbLine
 10
-339.6782986761813
 20
417.2332321573458
 30
0.0
 11
-123.6782987666384
 21
417.2332321573458
 31
0.0
  0
LINE
  5
478
330
218
100
AcDbEntity
  8
0
  6
Continuous
 62
     7
100
AcDbLine
 10
-399.3133274933557
 20
420.9395576435204
 30
0.0
 11
-59.24428007189772
 21
420.9395576435204
 31
0.0
  0
LINE
  5
479
330
218
100
AcDbEntity
  8
0
  6
Continuous
 62
     7
100
AcDbLine
 10
-399.3132349067272
 20
423.202299348844
 30
0.0
 11
-59.24436107612613
 21
423.202299348844
 31
0.0
  0
LINE
  5
47A
330
218
100
AcDbEntity
  8
0
  6
Continuous
 62
     7
100
AcDbLine
 10
267.6135841687877
 20
424.9395576465491
 30
0.0
 11
-48.30134369810344
 21
424.9395576465491
 31
0.0
  0
LINE
  5
47B
330
218
100
AcDbEntity
  8
0
  6
Continuous
 62
     7
100
AcDbLine
 10
267.6135024533591
 20
427.2022993446153
 30
0.0
 11
-57.58742582250338
 21
427.2022993446153
 31
0.0
  0
LINE
  5
47C
330
218
100
AcDbEntity
  8
0
  6
Continuous
 62
     7
100
AcDbLine
 10
323.3217010547333
 20
427.2650410457331
 30
0.0
 11
315.0398408483316
 21
427.2650410457331
 31
0.0
  0
LINE
  5
47D
330
218
100
AcDbEntity
  8
0
  6
Continuous
 62
     7
100
AcDbLine
 10
-456.6782986286956
 20
427.2650410457331
 30
0.0
 11
-448.3964384222939
 21
427.2650410457331
 31
0.0
  0
LINE
  5
47E
330
218
100
AcDbEntity
  8
0
  6
Continuous
 62
     7
100
AcDbLine
 10
268.4963475903206
 20
429.3336406088485
 30
0.0
 11
-401.8529470801684
 21
429.3336406088485
 31
0.0
  0
LINE
  5
47F
330
218
100
AcDbEntity
  8
0
  6
Continuous
 62
     7
100
AcDbLine
 10
268.496414631806
 20
431.582240167492
 30
0.0
 11
-401.8530122057685
 21
431.582240167492
 31
0.0
  0
LINE
  5
480
330
218
100
AcDbEntity
  8
0
  6
Continuous
 62
     7
100
AcDbLine
 10
256.4963495116346
 20
-4.803558345839467
 30
0.0
 11
253.9566373381936
 21
1.327782914165189
 31
0.0
  0
LINE
  5
481
330
218
100
AcDbEntity
  8
0
  6
Continuous
 62
     7
100
AcDbLine
 10
269.1964620285545
 20
0.4570012967421349
 30
0.0
 11
266.6567872003706
 21
6.58835242646116
 31
0.0
  0
LINE
  5
482
330
218
100
AcDbEntity
  8
0
  6
Continuous
 62
     7
100
AcDbLine
 10
-431.6782986442383
 20
443.9831808237887
 30
0.0
 11
298.3217010702759
 21
443.9831808237887
 31
0.0
  0
LINE
  5
483
330
218
100
AcDbEntity
  8
_SURFACE
  6
Continuous
 62
     7
100
AcDbLine
 10
-431.6782986442383
 20
446.3081335952018
 30
0.0
 11
298.3217010702759
 21
446.3081335952018
 31
0.0
  0
LINE
  5
484
330
218
100
AcDbEntity
  8
0
  6
Continuous
 62
     7
100
AcDbLine
 10
-431.6782986442383
 20
452.2650410301904
 30
0.0
 11
298.3217010702759
 21
452.2650410301904
 31
0.0
  0
LINE
  5
485
330
218
100
AcDbEntity
  8
0
  6
Continuous
 62
     7
100
AcDbLine
 10
206.321701102219
 20
346.7926466763223
 30
0.0
 11
206.321673583133
 21
331.2617140302487
 31
0.0
  0
LINE
  5
486
330
218
100
AcDbEntity
  8
0
  6
Continuous
 62
     7
100
AcDbLine
 10
206.321701102219
 20
6.737435607315633
 30
0.0
 11
206.3216715874189
 21
22.22845678346198
 31
0.0
  0
LINE
  5
487
330
218
100
AcDbEntity
  8
0
  6
Continuous
 62
     7
100
AcDbLine
 10
208.3217011001045
 20
352.9395576718633
 30
0.0
 11
208.3217011001045
 21
359.5905244681174
 31
0.0
  0
LINE
  5
488
330
218
100
AcDbEntity
  8
0
  6
Continuous
 62
     7
100
AcDbLine
 10
253.9567299248219
 20
3.590524612231495
 30
0.0
 11
253.9567299248219
 21
1.327782914165189
 31
0.0
  0
LINE
  5
489
330
218
100
AcDbEntity
  8
0
  6
Continuous
 62
     7
100
AcDbLine
 10
256.4964146299775
 20
-4.803558345839467
 30
0.0
 11
256.4964146299775
 21
-7.052157911740096
 31
0.0
  0
LINE
  5
48A
330
218
100
AcDbEntity
  8
0
  6
Continuous
 62
     7
100
AcDbLine
 10
267.6135841687877
 20
427.2022993446153
 30
0.0
 11
267.6135841687877
 21
424.9395576465491
 31
0.0
  0
LINE
  5
48B
330
218
100
AcDbEntity
  8
0
  6
Continuous
 62
     7
100
AcDbLine
 10
268.496414631806
 20
429.3336406088485
 30
0.0
 11
268.496414631806
 21
431.582240167492
 31
0.0
  0
LINE
  5
48C
330
218
100
AcDbEntity
  8
0
  6
Continuous
 62
     7
100
AcDbLine
 10
281.866358328115
 20
264.2650411055616
 30
0.0
 11
281.866358328115
 21
89.26504117807596
 31
0.0
  0
LINE
  5
48D
330
218
100
AcDbEntity
  8
0
  6
Continuous
 62
     7
100
AcDbLine
 10
288.849306672979
 20
264.2650411055616
 30
0.0
 11
288.849306672979
 21
89.26504117807596
 31
0.0
  0
LINE
  5
48E
330
218
100
AcDbEntity
  8
0
  6
Continuous
 62
     7
100
AcDbLine
 10
291.9962176680633
 20
293.6205076630767
 30
0.0
 11
291.9962176680633
 21
41.63001235547283
 31
0.0
  0
LINE
  5
48F
330
218
100
AcDbEntity
  8
0
  6
Continuous
 62
     7
100
AcDbLine
 10
294.2589593661294
 20
293.6205451171911
 30
0.0
 11
294.2589593661294
 21
41.63009335244429
 31
0.0
  0
LINE
  5
490
330
218
100
AcDbEntity
  8
0
  6
Continuous
 62
     7
100
AcDbLine
 10
295.9962176710919
 20
301.6832178669946
 30
0.0
 11
295.9962176710919
 21
396.556924144245
 31
0.0
  0
LINE
  5
491
330
218
100
AcDbEntity
  8
0
  6
Continuous
 62
     7
100
AcDbLine
 10
298.2589593691583
 20
301.6833110196802
 30
0.0
 11
298.2589593691583
 21
396.5568421893306
 31
0.0
  0
LINE
  5
492
330
218
100
AcDbEntity
  8
0
  6
Continuous
 62
     7
100
AcDbLine
 10
298.3217010702759
 20
452.2650410301904
 30
0.0
 11
298.3217010702759
 21
443.9831808237887
 31
0.0
  0
LINE
  5
493
330
218
100
AcDbEntity
  8
0
  6
Continuous
 62
     7
100
AcDbLine
 10
298.3217010702759
 20
-27.73495877443816
 30
0.0
 11
298.3217010702759
 21
-19.45309856077965
 31
0.0
  0
LINE
  5
494
330
218
100
AcDbEntity
  8
0
  6
Continuous
 62
     7
100
AcDbLine
 10
300.3903006333914
 20
39.09039468454597
 30
0.0
 11
300.3903006333914
 21
397.439687326292
 31
0.0
  0
LINE
  5
495
330
218
100
AcDbEntity
  8
0
  6
Continuous
 62
     7
100
AcDbLine
 10
302.6389001920347
 20
39.09032765031728
 30
0.0
 11
302.6389001920347
 21
397.4397546072634
 31
0.0
  0
LINE
  5
496
330
218
100
AcDbEntity
  8
0
  6
Continuous
 62
     7
100
AcDbLine
 10
315.0398408483316
 20
427.2650410457331
 30
0.0
 11
315.0398408483316
 21
-2.734958782724083
 31
0.0
  0
LINE
  5
497
330
218
100
AcDbEntity
  8
_SURFACE
  6
Continuous
 62
     7
100
AcDbLine
 10
317.3647936197444
 20
427.2650410457331
 30
0.0
 11
317.3647936197444
 21
-2.734958782724083
 31
0.0
  0
LINE
  5
498
330
218
100
AcDbEntity
  8
0
  6
Continuous
 62
     7
100
AcDbLine
 10
323.3217010547333
 20
427.2650410457331
 30
0.0
 11
323.3217010547333
 21
-2.734958782724083
 31
0.0
  0
LINE
  5
499
330
218
100
AcDbEntity
  8
0
  6
Continuous
 62
     7
100
AcDbLine
 10
287.3984471274452
 20
30.53001236031288
 30
0.0
 11
265.0567299199819
 21
8.188295152849606
 31
0.0
  0
LINE
  5
49A
330
218
100
AcDbEntity
  8
0
  6
Continuous
 62
     7
100
AcDbLine
 10
288.9983816605193
 20
28.92994688660992
 30
0.0
 11
266.6567872003706
 21
6.58835242646116
 31
0.0
  0
LINE
  5
49B
330
218
100
AcDbEntity
  8
0
  6
Continuous
 62
     7
100
AcDbLine
 10
269.1964620285545
 20
0.4570012967421349
 30
0.0
 11
295.1297423406386
 21
26.39028160882589
 31
0.0
  0
LINE
  5
49C
330
218
100
AcDbEntity
  8
0
  6
Continuous
 62
     7
100
AcDbLine
 10
270.7864146301472
 20
-1.133046104907604
 30
0.0
 11
296.7197883924596
 21
24.80032765740494
 31
0.0
  0
LINE
  5
49D
330
218
100
AcDbEntity
  8
0
  6
Continuous
 62
     7
100
AcDbLine
 10
291.3984471304738
 20
407.6569241466621
 30
0.0
 11
278.7135841639476
 21
420.3417871059311
 31
0.0
  0
LINE
  5
49E
330
218
100
AcDbEntity
  8
0
  6
Continuous
 62
     7
100
AcDbLine
 10
292.9983914534337
 20
409.2569798159648
 30
0.0
 11
280.3136400219365
 21
421.9417312474626
 31
0.0
  0
LINE
  5
49F
330
218
100
AcDbEntity
  8
0
  6
Continuous
 62
     7
100
AcDbLine
 10
295.1297425293241
 20
410.1398004600691
 30
0.0
 11
281.1964606732973
 21
424.0730823233526
 31
0.0
  0
LINE
  5
4A0
330
218
100
AcDbEntity
  8
0
  6
Continuous
 62
     7
100
AcDbLine
 10
296.7197883924596
 20
411.7297546001757
 30
0.0
 11
282.7864146247185
 21
425.6631283679166
 31
0.0
  0
ARC
  5
535
330
218
100
AcDbEntity
  8
0
  6
Continuous
 62
     7
100
AcDbCircle
 10
-339.6782986761813
 20
89.26504117807596
 30
0.0
 40
81.96819107241273
100
AcDbArc
 50
180.0
 51
270.0
  0
ARC
  5
536
330
218
100
AcDbEntity
  8
0
  6
Continuous
 62
     7
100
AcDbCircle
 10
-339.6782986761813
 20
89.26504117807596
 30
0.0
 40
74.98524272754877
100
AcDbArc
 50
180.0
 51
270.0
  0
ARC
  5
537
330
218
100
AcDbEntity
  8
0
  6
Continuous
 62
     7
100
AcDbCircle
 10
-339.6870810745206
 20
89.24919914002522
 30
0.0
 40
65.14332363674268
100
AcDbArc
 50
179.9860413664999
 51
270.0077475074995
  0
ARC
  5
538
330
218
100
AcDbEntity
  8
0
  6
Continuous
 62
     7
100
AcDbCircle
 10
-431.6782986442383
 20
-2.734958782724083
 30
0.0
 40
24.99999999171429
100
AcDbArc
 50
180.0
 51
270.0
  0
ARC
  5
539
330
218
100
AcDbEntity
  8
_SURFACE
  6
Continuous
 62
     7
100
AcDbCircle
 10
-431.6782986442383
 20
-2.734958782724083
 30
0.0
 40
19.04309255672561
100
AcDbArc
 50
180.0
 51
270.0
  0
ARC
  5
53A
330
218
100
AcDbEntity
  8
0
  6
Continuous
 62
     7
100
AcDbCircle
 10
-431.6782986442383
 20
-2.734958782724083
 30
0.0
 40
16.7181397780556
100
AcDbArc
 50
180.0
 51
270.0
  0
ARC
  5
53B
330
218
100
AcDbEntity
  8
0
  6
Continuous
 62
     7
100
AcDbCircle
 10
-339.6782986761813
 20
335.265041077676
 30
0.0
 40
81.96819107241273
100
AcDbArc
 50
90.0
 51
180.0
  0
ARC
  5
53C
330
218
100
AcDbEntity
  8
0
  6
Continuous
 62
     7
100
AcDbCircle
 10
-339.6782986761813
 20
335.265041077676
 30
0.0
 40
74.98524272754877
100
AcDbArc
 50
90.0
 51
180.0
  0
ARC
  5
53D
330
218
100
AcDbEntity
  8
0
  6
Continuous
 62
     7
100
AcDbCircle
 10
-339.7047993379991
 20
335.2778489115565
 30
0.0
 40
65.09785030704657
100
AcDbArc
 50
89.9766501966002
 51
180.0112958109
  0
ARC
  5
53E
330
218
100
AcDbEntity
  8
0
  6
Continuous
 62
     7
100
AcDbCircle
 10
-431.6782986442383
 20
427.2650410457331
 30
0.0
 40
24.99999999171429
100
AcDbArc
 50
90.0
 51
180.0
  0
ARC
  5
53F
330
218
100
AcDbEntity
  8
_SURFACE
  6
Continuous
 62
     7
100
AcDbCircle
 10
-431.6782986442383
 20
427.2650410457331
 30
0.0
 40
19.04309255672561
100
AcDbArc
 50
90.0
 51
180.0
  0
ARC
  5
540
330
218
100
AcDbEntity
  8
0
  6
Continuous
 62
     7
100
AcDbCircle
 10
-431.6782986442383
 20
427.2650410457331
 30
0.0
 40
16.7181397780556
100
AcDbArc
 50
90.0
 51
180.0
  0
ARC
  5
541
330
218
100
AcDbEntity
  8
0
  6
Continuous
 62
     7
100
AcDbCircle
 10
-123.6782987666384
 20
89.26504117807596
 30
0.0
 40
81.96819107241273
100
AcDbArc
 50
270.0
 51
0.0
  0
ARC
  5
542
330
218
100
AcDbEntity
  8
0
  6
Continuous
 62
     7
100
AcDbCircle
 10
-123.6782987666384
 20
89.26504117807596
 30
0.0
 40
74.98524272754877
100
AcDbArc
 50
270.0
 51
0.0
  0
ARC
  5
543
330
218
100
AcDbEntity
  8
0
  6
Continuous
 62
     7
100
AcDbCircle
 10
-123.6694425776702
 20
89.2491253493967
 30
0.0
 40
65.14323402554271
100
AcDbArc
 50
269.9921858651002
 51
0.0140218201999587
  0
ARC
  5
544
330
218
100
AcDbEntity
  8
0
  6
Continuous
 62
     7
100
AcDbCircle
 10
-123.6782987666384
 20
335.265041077676
 30
0.0
 40
81.96819107241273
100
AcDbArc
 50
0.0
 51
90.0
  0
ARC
  5
545
330
218
100
AcDbEntity
  8
0
  6
Continuous
 62
     7
100
AcDbCircle
 10
-71.61204207980754
 20
351.7462244735406
 30
0.0
 40
76.74834913930066
100
AcDbArc
 50
77.09662801899948
 51
79.47088840920023
  0
ARC
  5
546
330
218
100
AcDbEntity
  8
0
  6
Continuous
 62
     7
100
AcDbCircle
 10
-123.6782987666384
 20
335.265041077676
 30
0.0
 40
74.98524272754877
100
AcDbArc
 50
0.0
 51
90.0
  0
ARC
  5
547
330
218
100
AcDbEntity
  8
0
  6
Continuous
 62
     7
100
AcDbCircle
 10
-123.6516491592204
 20
335.2779828276138
 30
0.0
 40
65.09766964773236
100
AcDbArc
 50
359.9885845894999
 51
90.02347920600007
  0
ARC
  5
548
330
218
100
AcDbEntity
  8
0
  6
Continuous
 62
     7
100
AcDbCircle
 10
-231.5435062881208
 20
272.2349643910593
 30
0.0
 40
60.67193737830265
100
AcDbArc
 50
146.9016628565003
 51
179.9728859365
  0
ARC
  5
549
330
218
100
AcDbEntity
  8
0
  6
Continuous
 62
     7
100
AcDbCircle
 10
-231.8130909587559
 20
272.2349644563737
 30
0.0
 40
60.67193720413122
100
AcDbArc
 50
0.0271140026000343
 51
33.09833719099971
  0
ARC
  5
54A
330
218
100
AcDbEntity
  8
0
  6
Continuous
 62
     7
100
AcDbCircle
 10
-231.5561229688587
 20
272.2326305810034
 30
0.0
 40
60.65948092802193
100
AcDbArc
 50
179.9706759031
 51
180.7496406034999
  0
ARC
  5
54B
330
218
100
AcDbEntity
  8
0
  6
Continuous
 62
     7
100
AcDbCircle
 10
-231.7999447896184
 20
272.2326272499747
 30
0.0
 40
60.65895124367927
100
AcDbArc
 50
359.2503559954
 51
0.02932749799998
  0
ARC
  5
54C
330
218
100
AcDbEntity
  8
0
  6
Continuous
 62
     7
100
AcDbCircle
 10
-231.6782987177813
 20
272.2980421486913
 30
0.0
 40
60.59827396747499
100
AcDbArc
 50
240.6502084873005
 51
299.3497915126995
  0
ARC
  5
54D
330
218
100
AcDbEntity
  8
0
  6
Continuous
 62
     7
100
AcDbCircle
 10
-231.6600647254457
 20
272.2209925985509
 30
0.0
 40
60.55504889337798
100
AcDbArc
 50
180.7399167207
 51
214.0845169798998
  0
ARC
  5
54E
330
218
100
AcDbEntity
  8
0
  6
Continuous
 62
     7
100
AcDbCircle
 10
-231.6965325794882
 20
272.220992605808
 30
0.0
 40
60.55504871920655
100
AcDbArc
 50
325.9154829394999
 51
359.2600832696001
  0
ARC
  5
54F
330
218
100
AcDbEntity
  8
0
  6
Continuous
 62
     7
100
AcDbCircle
 10
-231.6107840155796
 20
272.1760581334828
 30
0.0
 40
60.4586995088451
100
AcDbArc
 50
299.3506828036002
 51
325.9052104525998
  0
ARC
  5
550
330
218
100
AcDbEntity
  8
0
  6
Continuous
 62
     7
100
AcDbCircle
 10
-231.7458132820972
 20
272.1760578069115
 30
0.0
 40
60.45869947981652
100
AcDbArc
 50
214.0947892148998
 51
240.6493169277996
  0
ARC
  5
551
330
218
100
AcDbEntity
  8
0
  6
Continuous
 62
     7
100
AcDbCircle
 10
-231.479398393575
 20
272.4438264501189
 30
0.0
 40
60.27784572497458
100
AcDbArc
 50
33.1052295757002
 51
60.06950743219956
  0
ARC
  5
552
330
218
100
AcDbEntity
  8
0
  6
Continuous
 62
     7
100
AcDbCircle
 10
-231.8771991435874
 20
272.4438265734903
 30
0.0
 40
60.27784557257458
100
AcDbArc
 50
119.9304925463001
 51
146.8947704705002
  0
ARC
  5
553
330
218
100
AcDbEntity
  8
0
  6
Continuous
 62
     7
100
AcDbCircle
 10
-231.5726330849663
 20
272.167750134572
 30
0.0
 40
58.28615004662839
100
AcDbArc
 50
120.0477893635003
 51
146.8340444970999
  0
ARC
  5
554
330
218
100
AcDbEntity
  8
0
  6
Continuous
 62
     7
100
AcDbCircle
 10
-231.7839643070532
 20
272.1677501853719
 30
0.0
 40
58.28614997405697
100
AcDbArc
 50
33.16595548919999
 51
59.95221065500039
  0
ARC
  5
555
330
218
100
AcDbEntity
  8
0
  6
Continuous
 62
     7
100
AcDbCircle
 10
-231.6426000047669
 20
272.3115952766288
 30
0.0
 40
58.18744256238217
100
AcDbArc
 50
214.1454476974001
 51
240.6272619131
  0
ARC
  5
556
330
218
100
AcDbEntity
  8
0
  6
Continuous
 62
     7
100
AcDbCircle
 10
-231.7139974235383
 20
272.3115952693717
 30
0.0
 40
58.18744254786787
100
AcDbArc
 50
299.3727380799004
 51
325.8545523016001
  0
ARC
  5
557
330
218
100
AcDbEntity
  8
0
  6
Continuous
 62
     7
100
AcDbCircle
 10
-231.6782987177813
 20
272.2650411043618
 30
0.0
 40
58.14641958119857
100
AcDbArc
 50
180.0
 51
180.7804759197999
  0
ARC
  5
558
330
218
100
AcDbEntity
  8
0
  6
Continuous
 62
     7
100
AcDbCircle
 10
-231.6782987177813
 20
272.2650411043618
 30
0.0
 40
58.14641958119857
100
AcDbArc
 50
359.2195240801999
 51
0.0
  0
ARC
  5
559
330
218
100
AcDbEntity
  8
0
  6
Continuous
 62
     7
100
AcDbCircle
 10
-231.6715751853839
 20
272.2899023848661
 30
0.0
 40
58.14008162805825
100
AcDbArc
 50
325.8487793328002
 51
359.1949357751999
  0
ARC
  5
55A
330
218
100
AcDbEntity
  8
0
  6
Continuous
 62
     7
100
AcDbCircle
 10
-231.6850223300073
 20
272.2899023340661
 30
0.0
 40
58.14008154097255
100
AcDbArc
 50
180.8050641732999
 51
214.1512206663998
  0
ARC
  5
55B
330
218
100
AcDbEntity
  8
0
  6
Continuous
 62
     7
100
AcDbCircle
 10
-231.6782987177813
 20
272.2473805206545
 30
0.0
 40
58.11389448932587
100
AcDbArc
 50
240.6268802682002
 51
299.3731197313995
  0
ARC
  5
55C
330
218
100
AcDbEntity
  8
0
  6
Continuous
 62
     7
100
AcDbCircle
 10
-231.7537835045511
 20
272.2831660000688
 30
0.0
 40
58.07113798717154
100
AcDbArc
 50
146.8315899072002
 51
180.0178829141
  0
ARC
  5
55D
330
218
100
AcDbEntity
  8
0
  6
Continuous
 62
     7
100
AcDbCircle
 10
-231.6028139672972
 20
272.2831659928119
 30
0.0
 40
58.07113797265725
100
AcDbArc
 50
359.9821170927999
 51
33.16841008210009
  0
CIRCLE
  5
55E
330
218
100
AcDbEntity
  8
0
  6
Continuous
 62
     7
100
AcDbCircle
 10
-231.6782987177813
 20
272.2650411043618
 30
0.0
 40
57.72322333062501
  0
CIRCLE
  5
55F
330
218
100
AcDbEntity
  8
0
  6
Continuous
 62
     7
100
AcDbCircle
 10
-231.6782987177813
 20
272.2650411043618
 30
0.0
 40
55.76309772592334
  0
CIRCLE
  5
560
330
218
100
AcDbEntity
  8
0
  6
Continuous
 62
     7
100
AcDbCircle
 10
-231.6782987177813
 20
272.2650411043618
 30
0.0
 40
44.99999998508571
  0
ARC
  5
561
330
218
100
AcDbEntity
  8
0
  6
Continuous
 62
     7
100
AcDbCircle
 10
475.8188314137914
 20
-772.4374800849001
 30
0.0
 40
1081.408202405836
100
AcDbArc
 50
99.55106758240049
 51
99.66528266830028
  0
ARC
  5
562
330
218
100
AcDbEntity
  8
0
  6
Continuous
 62
     7
100
AcDbCircle
 10
58.32170116433302
 20
89.26504117807596
 30
0.0
 40
82.52760557076038
100
AcDbArc
 50
180.0
 51
270.0
  0
ARC
  5
563
330
218
100
AcDbEntity
  8
0
  6
Continuous
 62
     7
100
AcDbCircle
 10
58.32170116433302
 20
89.26504117807596
 30
0.0
 40
75.54465721863929
100
AcDbArc
 50
180.0
 51
270.0
  0
ARC
  5
564
330
218
100
AcDbEntity
  8
0
  6
Continuous
 62
     7
100
AcDbCircle
 10
58.31185402702272
 20
89.24839014276839
 30
0.0
 40
67.01979699033493
100
AcDbArc
 50
179.9857393653
 51
270.0084419313
  0
ARC
  5
565
330
218
100
AcDbEntity
  8
0
  6
Continuous
 62
     7
100
AcDbCircle
 10
132.3811110692235
 20
212.171974377656
 30
0.0
 40
60.45924030387345
100
AcDbArc
 50
292.3170593671001
 51
322.6911380151001
  0
ARC
  5
566
330
218
100
AcDbEntity
  8
0
  6
Continuous
 62
     7
100
AcDbCircle
 10
132.260523204929
 20
212.1696707065142
 30
0.0
 40
60.45637732473174
100
AcDbArc
 50
217.3081410612997
 51
247.6836616465003
  0
ARC
  5
567
330
218
100
AcDbEntity
  8
0
  6
Continuous
 62
     7
100
AcDbCircle
 10
132.2632010906422
 20
212.2224880543218
 30
0.0
 40
58.21234658020078
100
AcDbArc
 50
20.65281039109991
 51
60.46749565790049
  0
ARC
  5
568
330
218
100
AcDbEntity
  8
0
  6
Continuous
 62
     7
100
AcDbCircle
 10
132.3802011033382
 20
212.2224881414072
 30
0.0
 40
58.2123465511722
100
AcDbArc
 50
119.5325043188
 51
159.3471896641998
  0
ARC
  5
569
330
218
100
AcDbEntity
  8
0
  6
Continuous
 62
     7
100
AcDbCircle
 10
132.3217011369044
 20
212.2349732864309
 30
0.0
 40
58.10224926424481
100
AcDbArc
 50
247.6538118603002
 51
292.3461881396998
  0
ARC
  5
56A
330
218
100
AcDbEntity
  8
0
  6
Continuous
 62
     7
100
AcDbCircle
 10
132.2677350486976
 20
212.2635897972766
 30
0.0
 40
58.09249316053444
100
AcDbArc
 50
159.3459992099001
 51
179.9985685716
  0
ARC
  5
56B
330
218
100
AcDbEntity
  8
0
  6
Continuous
 62
     7
100
AcDbCircle
 10
132.3777981472249
 20
212.2639663413906
 30
0.0
 40
58.09034418990673
100
AcDbArc
 50
0.0010600877000464
 51
20.65439461670005
  0
ARC
  5
56C
330
218
100
AcDbEntity
  8
0
  6
Continuous
 62
     7
100
AcDbCircle
 10
58.32170116433302
 20
264.2650411055616
 30
0.0
 40
82.52760557076038
100
AcDbArc
 50
90.0
 51
180.0
  0
ARC
  5
56D
330
218
100
AcDbEntity
  8
0
  6
Continuous
 62
     7
100
AcDbCircle
 10
58.32170116433302
 20
264.2650411055616
 30
0.0
 40
75.54465721863929
100
AcDbArc
 50
90.0
 51
180.0
  0
ARC
  5
56E
330
218
100
AcDbEntity
  8
0
  6
Continuous
 62
     7
100
AcDbCircle
 10
58.29771619108555
 20
264.2816034585838
 30
0.0
 40
66.98039452189355
100
AcDbArc
 50
89.97945759129969
 51
180.0141914473
  0
ARC
  5
56F
330
218
100
AcDbEntity
  8
0
  6
Continuous
 62
     7
100
AcDbCircle
 10
132.2173256789462
 20
212.2669349845323
 30
0.0
 40
60.64221916060025
100
AcDbArc
 50
359.9982106528
 51
20.59877500070013
  0
ARC
  5
570
330
218
100
AcDbEntity
  8
0
  6
Continuous
 62
     7
100
AcDbCircle
 10
132.4222373630929
 20
212.2676324685321
 30
0.0
 40
60.63834392614466
100
AcDbArc
 50
159.4005656327999
 51
180.0024484936
  0
ARC
  5
571
330
218
100
AcDbEntity
  8
0
  6
Continuous
 62
     7
100
AcDbCircle
 10
132.3217011296474
 20
212.3204153739396
 30
0.0
 40
60.61924729175231
100
AcDbArc
 50
247.6842712570999
 51
292.3157287429
  0
ARC
  5
572
330
218
100
AcDbEntity
  8
0
  6
Continuous
 62
     7
100
AcDbCircle
 10
132.2123656250052
 20
212.3443606723872
 30
0.0
 40
60.41467325343414
100
AcDbArc
 50
119.4523626353997
 51
159.3986525356001
  0
ARC
  5
573
330
218
100
AcDbEntity
  8
0
  6
Continuous
 62
     7
100
AcDbCircle
 10
132.4310367649178
 20
212.3443607304444
 30
0.0
 40
60.41467320989127
100
AcDbArc
 50
20.60134745570007
 51
60.54763743950002
  0
ARC
  5
574
330
218
100
AcDbEntity
  8
0
  6
Continuous
 62
     7
100
AcDbCircle
 10
132.3545915678629
 20
212.3161565994841
 30
0.0
 40
58.18993672626687
100
AcDbArc
 50
217.3635208687999
 51
247.6542505832996
  0
ARC
  5
575
330
218
100
AcDbEntity
  8
0
  6
Continuous
 62
     7
100
AcDbCircle
 10
132.289696106403
 20
212.3150023581704
 30
0.0
 40
58.1885024100389
100
AcDbArc
 50
292.3453751663004
 51
322.636853368
  0
ARC
  5
576
330
218
100
AcDbEntity
  8
0
  6
Continuous
 62
     7
100
AcDbCircle
 10
132.3602401795176
 20
212.2757528122432
 30
0.0
 40
58.10839660127092
100
AcDbArc
 50
322.6254008872997
 51
359.9894380183
  0
ARC
  5
577
330
218
100
AcDbEntity
  8
0
  6
Continuous
 62
     7
100
AcDbCircle
 10
132.2784924784646
 20
212.2741733241297
 30
0.0
 40
58.10356803950143
100
AcDbArc
 50
180.0090052922
 51
217.3761565145997
  0
ARC
  5
578
330
218
100
AcDbEntity
  8
0
  6
Continuous
 62
     7
100
AcDbCircle
 10
132.3217011296474
 20
212.3703269617482
 30
0.0
 40
58.05456194717818
100
AcDbArc
 50
60.4458102002
 51
119.5541897998
  0
CIRCLE
  5
579
330
218
100
AcDbEntity
  8
0
  6
Continuous
 62
     7
100
AcDbCircle
 10
132.3217011296474
 20
212.2650411315046
 30
0.0
 40
57.72322333062501
  0
CIRCLE
  5
57A
330
218
100
AcDbEntity
  8
0
  6
Continuous
 62
     7
100
AcDbCircle
 10
132.3217011296474
 20
212.2650411315046
 30
0.0
 40
55.76309772592334
  0
CIRCLE
  5
57B
330
218
100
AcDbEntity
  8
0
  6
Continuous
 62
     7
100
AcDbCircle
 10
132.3217011296474
 20
212.2650411315046
 30
0.0
 40
44.99999998508571
  0
CIRCLE
  5
57E
330
218
100
AcDbEntity
  8
0
  6
Continuous
 62
     7
100
AcDbCircle
 10
23.32170117593293
 20
392.2650410573331
 30
0.0
 40
17.4999999942
  0
CIRCLE
  5
57F
330
218
100
AcDbEntity
  8
0
  6
Continuous
 62
     7
100
AcDbCircle
 10
133.3217011322187
 20
392.2650410573331
 30
0.0
 40
17.4999999942
  0
ARC
  5
580
330
218
100
AcDbEntity
  8
0
  6
Continuous
 62
     7
100
AcDbCircle
 10
206.321701102219
 20
89.26504117807596
 30
0.0
 40
82.52760557076038
100
AcDbArc
 50
270.0
 51
0.0
  0
ARC
  5
581
330
218
100
AcDbEntity
  8
0
  6
Continuous
 62
     7
100
AcDbCircle
 10
206.321701102219
 20
89.26504117807596
 30
0.0
 40
75.54465721863929
100
AcDbArc
 50
270.0
 51
0.0
  0
ARC
  5
582
330
218
100
AcDbEntity
  8
0
  6
Continuous
 62
     7
100
AcDbCircle
 10
206.3316225454149
 20
89.24831584413983
 30
0.0
 40
67.01970172582069
100
AcDbArc
 50
269.9914928533002
 51
0.0143224757999915
  0
ARC
  5
583
330
218
100
AcDbEntity
  8
0
  6
Continuous
 62
     7
100
AcDbCircle
 10
298.3217010702759
 20
-2.734958782724083
 30
0.0
 40
24.99999999171429
100
AcDbArc
 50
270.0
 51
0.0
  0
ARC
  5
584
330
218
100
AcDbEntity
  8
_SURFACE
  6
Continuous
 62
     7
100
AcDbCircle
 10
298.3217010702759
 20
-2.734958782724083
 30
0.0
 40
19.04309255672561
100
AcDbArc
 50
270.0
 51
0.0
  0
ARC
  5
585
330
218
100
AcDbEntity
  8
0
  6
Continuous
 62
     7
100
AcDbCircle
 10
298.3217010702759
 20
-2.734958782724083
 30
0.0
 40
16.7181397780556
100
AcDbArc
 50
270.0
 51
0.0
  0
ARC
  5
586
330
218
100
AcDbEntity
  8
0
  6
Continuous
 62
     7
100
AcDbCircle
 10
208.3217011001045
 20
264.2650411055616
 30
0.0
 40
95.32548336255555
100
AcDbArc
 50
23.11206697369987
 51
90.0
  0
ARC
  5
587
330
218
100
AcDbEntity
  8
0
  6
Continuous
 62
     7
100
AcDbCircle
 10
208.3217011001045
 20
264.2650411055616
 30
0.0
 40
93.0627416644892
100
AcDbArc
 50
19.10262172360005
 51
90.0
  0
ARC
  5
588
330
218
100
AcDbEntity
  8
0
  6
Continuous
 62
     7
100
AcDbCircle
 10
208.3217011001045
 20
264.2650411055616
 30
0.0
 40
90.93725826436795
100
AcDbArc
 50
19.33238462109983
 51
90.0
  0
ARC
  5
589
330
218
100
AcDbEntity
  8
0
  6
Continuous
 62
     7
100
AcDbCircle
 10
208.3217011001045
 20
264.2650411055616
 30
0.0
 40
88.67451656630164
100
AcDbArc
 50
19.33236187290011
 51
90.0
  0
ARC
  5
58A
330
218
100
AcDbEntity
  8
0
  6
Continuous
 62
     7
100
AcDbCircle
 10
206.321701102219
 20
264.2650411055616
 30
0.0
 40
82.52760557076038
100
AcDbArc
 50
0.0
 51
90.0
  0
ARC
  5
58B
330
218
100
AcDbEntity
  8
0
  6
Continuous
 62
     7
100
AcDbCircle
 10
206.321701102219
 20
264.2650411055616
 30
0.0
 40
75.54465721863929
100
AcDbArc
 50
0.0
 51
90.0
  0
ARC
  5
58C
330
218
100
AcDbEntity
  8
0
  6
Continuous
 62
     7
100
AcDbCircle
 10
206.345778008952
 20
264.2816799633836
 30
0.0
 40
66.98028693475075
100
AcDbArc
 50
359.9857414145999
 51
90.02061930729974
  0
ARC
  5
58D
330
218
100
AcDbEntity
  8
0
  6
Continuous
 62
     7
100
AcDbCircle
 10
298.3217010702759
 20
427.2650410457331
 30
0.0
 40
24.99999999171429
100
AcDbArc
 50
0.0
 51
90.0
  0
ARC
  5
58F
330
218
100
AcDbEntity
  8
_SURFACE
  6
Continuous
 62
     7
100
AcDbCircle
 10
298.3217010702759
 20
427.2650410457331
 30
0.0
 40
19.04309255672561
100
AcDbArc
 50
0.0
 51
90.0
  0
ARC
  5
590
330
218
100
AcDbEntity
  8
0
  6
Continuous
 62
     7
100
AcDbCircle
 10
298.3217010702759
 20
427.2650410457331
 30
0.0
 40
16.7181397780556
100
AcDbArc
 50
0.0
 51
90.0
  0
CIRCLE
  5
591
330
218
100
AcDbEntity
  8
0
  6
Continuous
 62
     7
100
AcDbCircle
 10
243.3217010885046
 20
382.2650410606474
 30
0.0
 40
12.49999999585714
  0
ARC
  5
592
330
218
100
AcDbEntity
  8
0
  6
Continuous
 62
     7
100
AcDbCircle
 10
289.7263129450284
 20
293.2339139881456
 30
0.0
 40
4.549105548523215
100
AcDbArc
 50
4.875386390800023
 51
14.45699364050008
  0
ARC
  5
593
330
218
100
AcDbEntity
  8
0
  6
Continuous
 62
     7
100
AcDbCircle
 10
291.8519659228067
 20
293.598442958857
 30
0.0
 40
4.548538889037728
100
AcDbArc
 50
4.816460825599992
 51
14.28618223490018
  0
SPLINE
  5
5CA
330
218
100
AcDbEntity
  8
0
  6
Continuous
 62
     7
100
AcDbSpline
210
0.0
220
0.0
230
1.0
 70
     8
 71
     3
 72
    28
 73
    24
 74
    22
 42
0.0000000001
 43
0.0000000001
 44
0.0000000001
 12
0.999999512040938
 22
0.0009878855629059
 32
0.0
 13
-0.1919386080037637
 23
0.9814069343333464
 33
0.0
 40
0.0
 40
0.0
 40
0.0
 40
0.0
 40
0.0568033500050016
 40
0.1134579967206845
 40
0.1770535751123686
 40
0.2559053739708861
 40
0.3564578730897649
 40
0.4831752776679757
 40
0.6382978148509251
 40
0.8229514097586145
 40
1.039826695153702
 40
1.291489090522139
 40
1.581007843365832
 40
1.910919213784668
 40
2.28141837452583
 40
2.694173066041707
 40
3.1547971378522
 40
3.668955635628798
 40
4.240783853774154
 40
4.873198680286779
 40
5.568993781657879
 40
6.330657276992626
 40
7.160052168918924
 40
7.160052168918924
 40
7.160052168918924
 40
7.160052168918924
 10
296.2598341037294
 20
294.7208633776652
 30
0.0
 10
296.2787685444919
 20
294.720882082735
 30
0.0
 10
296.3168595249296
 20
294.7261454807325
 30
0.0
 10
296.371064214349
 20
294.7513696835896
 30
0.0
 10
296.4221023054924
 20
294.7948356281518
 30
0.0
 10
296.4709151084349
 20
294.8601297719697
 30
0.0
 10
296.5170590884928
 20
294.9515760542192
 30
0.0
 10
296.5591192700423
 20
295.0721875512087
 30
0.0
 10
296.59567947819
 20
295.2235174238123
 30
0.0
 10
296.6257551074717
 20
295.4067447849427
 30
0.0
 10
296.648602483547
 20
295.6233678013575
 30
0.0
 10
296.6635378323689
 20
295.8756831843572
 30
0.0
 10
296.6697620501718
 20
296.1660376207523
 30
0.0
 10
296.6663818403836
 20
296.4960435742962
 30
0.0
 10
296.6525190807546
 20
296.8668788813292
 30
0.0
 10
296.6272284321491
 20
297.280766995472
 30
0.0
 10
296.5892573742532
 20
297.7417495059659
 30
0.0
 10
296.5369835810216
 20
298.2546594887327
 30
0.0
 10
296.4685947855894
 20
298.8233925458791
 30
0.0
 10
296.3821823462627
 20
299.4508460087051
 30
0.0
 10
296.2757320458944
 20
300.1393207882286
 30
0.0
 10
296.1471037890519
 20
300.8907060338532
 30
0.0
 10
296.0492819714391
 20
301.4119863869345
 30
0.0
 10
295.9962176710919
 20
301.6833110196802
 30
0.0
 11
296.2598341037294
 21
294.7208633776652
 31
0.0
 11
296.3160682522781
 21
294.7288846686332
 31
0.0
 11
296.3676097943719
 21
294.7524052645668
 31
0.0
 11
296.4166167140094
 21
294.7929357397506
 31
0.0
 11
296.4648183157616
 21
294.8553393596115
 31
0.0
 11
296.5113023840287
 21
294.9445023366613
 31
0.0
 11
296.5541934481257
 21
295.0637401546708
 31
0.0
 11
296.5916410962821
 21
295.2142747858679
 31
0.0
 11
296.6223963742129
 21
295.3963491195663
 31
0.0
 11
296.6458522001462
 21
295.6119522587944
 31
0.0
 11
296.6613224620259
 21
295.8631387079511
 31
0.0
 11
296.668044470423
 21
296.152579414921
 31
0.0
 11
296.6651158213957
 21
296.4824777861606
 31
0.0
 11
296.651664532944
 21
296.8527326861267
 31
0.0
 11
296.6268296829538
 21
297.2647395617906
 31
0.0
 11
296.5893221270832
 21
297.7238340169781
 31
0.0
 11
296.5374724394467
 21
298.2353714747736
 31
0.0
 11
296.4694633371311
 21
298.8031410346035
 31
0.0
 11
296.3834216572227
 21
299.4296754248101
 31
0.0
 11
296.2773230922937
 21
300.1173337103066
 31
0.0
 11
296.1490045348021
 21
300.8681103934347
 31
0.0
 11
295.9962176710919
 21
301.6833110196802
 31
0.0
  0
SPLINE
  5
5CB
330
218
100
AcDbEntity
  8
0
  6
Continuous
 62
     7
100
AcDbSpline
210
0.0
220
0.0
230
1.0
 70
     8
 71
     3
 72
     9
 73
     5
 74
     3
 42
0.0000000001
 43
0.0000000001
 44
0.0000000001
 12
-0.9021374671462517
 22
0.4314487111708014
 32
0.0
 13
-0.9309376177178926
 23
0.3651782467750987
 33
0.0
 40
0.0
 40
0.0
 40
0.0
 40
0.0
 40
1.502104026103616
 40
2.994935836807754
 40
2.994935836807754
 40
2.994935836807754
 40
2.994935836807754
 10
-54.84328818622955
 20
426.0037890457234
 30
0.0
 10
-55.29498962672932
 20
426.2198159944257
 30
0.0
 10
-56.20232718824402
 20
426.6366615595365
 30
0.0
 10
-57.12418139266658
 20
427.0205827768276
 30
0.0
 10
-57.58742582250338
 20
427.2022993446153
 30
0.0
 11
-54.84328818622955
 21
426.0037890457234
 31
0.0
 11
-56.20878794025466
 21
426.6296699665016
 31
0.0
 11
-57.58742582250338
 21
427.2022993446153
 31
0.0
  0
SPLINE
  5
5CC
330
218
100
AcDbEntity
  8
0
  6
Continuous
 62
     7
100
AcDbSpline
210
0.0
220
0.0
230
1.0
 70
     8
 71
     3
 72
    11
 73
     7
 74
     5
 42
0.0000000001
 43
0.0000000001
 44
0.0000000001
 12
-0.9605329742932052
 22
0.2781661469256255
 32
0.0
 13
-0.974904358965364
 23
0.2226241021774883
 33
0.0
 40
0.0
 40
0.0
 40
0.0
 40
0.0
 40
1.498573339002877
 40
3.071744594967967
 40
4.702408646962265
 40
6.381322410553996
 40
6.381322410553996
 40
6.381322410553996
 40
6.381322410553996
 10
-48.30135652147493
 20
424.9395613041491
 30
0.0
 10
-48.78116622364458
 20
425.078512094681
 30
0.0
 10
-49.76595209839778
 20
425.3589369719594
 30
0.0
 10
-51.27839970262465
 20
425.7707644632654
 30
0.0
 10
-52.8548544343783
 20
426.1757571660265
 30
0.0
 10
-53.92796800504563
 20
426.4319395415799
 30
0.0
 10
-54.47356145386314
 20
426.5565284313309
 30
0.0
 11
-48.30135652147493
 21
424.9395613041491
 31
0.0
 11
-49.74279493124129
 21
425.3494117198137
 31
0.0
 11
-51.26085797091954
 21
425.7621494187916
 31
0.0
 11
-52.84038737771627
 21
426.1673063063437
 31
0.0
 11
-54.47356145386314
 21
426.5565284313309
 31
0.0
  0
LINE
  5
5CD
330
218
100
AcDbEntity
  8
0
  6
Continuous
 62
     7
100
AcDbLine
 10
273.3511121014069
 20
89.26506899470457
 30
0.0
 11
273.3270397086166
 21
128.5502063452762
 31
0.0
  0
LINE
  5
5CE
330
218
100
AcDbEntity
  8
0
  6
Continuous
 62
     7
100
AcDbLine
 10
273.3270397086166
 20
128.5502063452762
 30
0.0
 11
273.3140099875933
 21
212.2650411315046
 31
0.0
  0
LINE
  5
5CF
330
218
100
AcDbEntity
  8
0
  6
Continuous
 62
     7
100
AcDbLine
 10
273.3140099875933
 20
212.2650411315046
 30
0.0
 11
273.3185179433058
 21
248.8392306919605
 31
0.0
  0
LINE
  5
5D0
330
218
100
AcDbEntity
  8
0
  6
Continuous
 62
     7
100
AcDbLine
 10
273.3185179433058
 20
248.8392306919605
 30
0.0
 11
273.3262158269598
 21
264.2650112641902
 31
0.0
  0
LINE
  5
5D1
330
218
100
AcDbEntity
  8
0
  6
Continuous
 62
     7
100
AcDbLine
 10
206.321673583133
 20
331.2617140302487
 30
0.0
 11
177.8439870977813
 21
331.2352171131166
 31
0.0
  0
SPLINE
  5
5D2
330
218
100
AcDbEntity
  8
0
  6
Continuous
 62
     7
100
AcDbSpline
210
0.0
220
0.0
230
1.0
 70
     8
 71
     3
 72
    17
 73
    13
 74
    11
 42
0.0000000001
 43
0.0000000001
 44
0.0000000001
 12
-0.9999998507169404
 22
-0.0005464120208131
 32
0.0
 13
-0.9999998507195973
 23
0.0005464071585183
 33
0.0
 40
0.0
 40
0.0
 40
0.0
 40
0.0
 40
10.99476484092513
 40
20.73428892029459
 40
29.4712276871334
 40
37.61809966178847
 40
45.52244451787255
 40
53.42686002950351
 40
61.57381879960295
 40
70.31062658953337
 40
80.04978855195988
 40
91.04457855340362
 40
91.04457855340362
 40
91.04457855340362
 40
91.04457855340362
 10
177.8439870977813
 20
331.2352171131166
 30
0.0
 10
174.1790660312503
 20
331.2332145558916
 30
0.0
 10
167.2676373683412
 20
331.2295340145386
 30
0.0
 10
157.4438958545421
 20
331.2249695151359
 30
0.0
 10
148.5694514717396
 20
331.2217663225774
 30
0.0
 10
140.3067331285362
 20
331.2198724755736
 30
0.0
 10
132.321522340255
 20
331.2192441682276
 30
0.0
 10
124.3362826201621
 20
331.2198725311414
 30
0.0
 10
116.0735554522804
 20
331.2217664472602
 30
0.0
 10
107.1992465022848
 20
331.2249696225679
 30
0.0
 10
97.37566096625295
 20
331.2295340634606
 30
0.0
 10
90.46434462214948
 20
331.2332145691289
 30
0.0
 10
86.79941516877047
 20
331.2352171131166
 30
0.0
 11
177.8439870977813
 21
331.2352171131166
 31
0.0
 11
166.8492237729793
 21
331.2294431343188
 31
0.0
 11
157.109700710875
 21
331.2249916899776
 31
0.0
 11
148.3727624932269
 21
331.2218938696935
 31
0.0
 11
140.2258907246571
 21
331.2200614120941
 31
0.0
 11
132.3215458921045
 21
331.2194514927799
 31
0.0
 11
124.4171304040093
 21
331.220061470151
 31
0.0
 11
116.2701718400108
 21
331.2218940075787
 31
0.0
 11
107.5333645992768
 21
331.2249918206064
 31
0.0
 11
97.79420365408698
 21
331.2294431198046
 31
0.0
 11
86.79941516877047
 21
331.2352171131166
 31
0.0
  0
LINE
  5
5D3
330
218
100
AcDbEntity
  8
0
  6
Continuous
 62
     7
100
AcDbLine
 10
86.79941516877047
 20
331.2352171131166
 30
0.0
 11
58.32173075170445
 21
331.2617140302487
 31
0.0
  0
LINE
  5
5D4
330
218
100
AcDbEntity
  8
0
  6
Continuous
 62
     7
100
AcDbLine
 10
-8.682813567665249
 20
264.2650132163618
 30
0.0
 11
-8.675115676753847
 21
248.8392306919605
 31
0.0
  0
LINE
  5
5D5
330
218
100
AcDbEntity
  8
0
  6
Continuous
 62
     7
100
AcDbLine
 10
-8.675115676753847
 20
248.8392306919605
 30
0.0
 11
-8.670607721041363
 21
212.2650411315046
 31
0.0
  0
LINE
  5
5D6
330
218
100
AcDbEntity
  8
0
  6
Continuous
 62
     7
100
AcDbLine
 10
-8.670607721041363
 20
212.2650411315046
 30
0.0
 11
-8.683637442064821
 21
128.5502063452762
 31
0.0
  0
LINE
  5
5D7
330
218
100
AcDbEntity
  8
0
  6
Continuous
 62
     7
100
AcDbLine
 10
-8.683637442064821
 20
128.5502063452762
 30
0.0
 11
-8.707709834855165
 21
89.26507097590462
 31
0.0
  0
LINE
  5
5D8
330
218
100
AcDbEntity
  8
0
  6
Continuous
 62
     7
100
AcDbLine
 10
58.32172871244728
 20
22.22845678346198
 30
0.0
 11
74.34399111335284
 21
22.23251621146045
 31
0.0
  0
LINE
  5
5D9
330
218
100
AcDbEntity
  8
0
  6
Continuous
 62
     7
100
AcDbLine
 10
74.34399111335284
 20
22.23251621146045
 30
0.0
 11
190.299411153199
 21
22.23251621146045
 31
0.0
  0
LINE
  5
5DA
330
218
100
AcDbEntity
  8
0
  6
Continuous
 62
     7
100
AcDbLine
 10
190.299411153199
 20
22.23251621146045
 30
0.0
 11
206.3216715874189
 21
22.22845678346198
 31
0.0
  0
SPLINE
  5
5DB
330
218
100
AcDbEntity
  8
0
  6
Continuous
 62
     7
100
AcDbSpline
210
0.0
220
0.0
230
1.0
 70
     8
 71
     3
 72
    18
 73
    14
 74
    12
 42
0.0000000001
 43
0.0000000001
 44
0.0000000001
 12
0.9999999999704108
 22
0.000007692751357
 32
0.0
 13
0.7071123956025024
 23
0.707101166726014
 33
0.0
 40
0.0
 40
0.0
 40
0.0
 40
0.0
 40
1.489599850530343
 40
2.95241429382017
 40
4.393773972132693
 40
5.819309814222759
 40
7.234981635976403
 40
8.647245426295569
 40
10.06293854162246
 40
11.48852367093647
 40
12.9299658581748
 40
14.39289804780507
 40
15.88264737750492
 40
15.88264737750492
 40
15.88264737750492
 40
15.88264737750492
 10
256.4964146299775
 20
-7.052157911740096
 30
0.0
 10
256.9929479134729
 20
-7.052154092033005
 30
0.0
 10
257.977448451053
 20
-7.018717743503287
 30
0.0
 10
259.4352839094676
 20
-6.866571417918002
 30
0.0
 10
260.8576705105869
 20
-6.614870606039604
 30
0.0
 10
262.243008919549
 20
-6.265292975729392
 30
0.0
 10
263.5901394129425
 20
-5.819179434452488
 30
0.0
 10
264.8981700516565
 20
-5.27739202055446
 30
0.0
 10
266.1662195508941
 20
-4.640292908968646
 30
0.0
 10
267.3930483086719
 20
-3.907896528981017
 30
0.0
 10
268.5768878502106
 20
-3.080066927436277
 30
0.0
 10
269.7154170011636
 20
-2.156743188138674
 30
0.0
 10
270.4352745576902
 20
-1.484180601294291
 30
0.0
 10
270.7864146301472
 20
-1.133046104907604
 30
0.0
 11
256.4964146299775
 21
-7.052157911740096
 31
0.0
 11
257.985132352982
 21
-7.00090114718907
 31
0.0
 11
259.4399872604573
 21
-6.848509238964322
 31
0.0
 11
260.8592205620609
 21
-6.596925141922056
 31
0.0
 11
262.2413575918508
 21
-6.247855424004475
 31
0.0
 11
263.5852096733706
 21
-5.802671990011043
 31
0.0
 11
264.8899771347914
 21
-5.262236161198741
 31
0.0
 11
266.1550486634284
 21
-4.626798497681587
 31
0.0
 11
267.3792528838529
 21
-3.896307575345151
 31
0.0
 11
268.5607794654946
 21
-3.0706257261898
 31
0.0
 11
269.697375370297
 21
-2.149582654100961
 31
0.0
 11
270.7864146301472
 21
-1.133046104907604
 31
0.0
  0
SPLINE
  5
5DC
330
218
100
AcDbEntity
  8
0
  6
Continuous
 62
     7
100
AcDbSpline
210
0.0
220
0.0
230
1.0
 70
     8
 71
     3
 72
    18
 73
    14
 74
    12
 42
0.0000000001
 43
0.0000000001
 44
0.0000000001
 12
-0.0000017529141884
 22
-0.9999999999984636
 32
0.0
 13
-0.6060156229310043
 23
-0.7954527420051721
 33
0.0
 40
0.0
 40
0.0
 40
0.0
 40
0.0
 40
3.590537006563852
 40
7.182021320039015
 40
10.772607785934
 40
14.36209303838795
 40
17.95045564872967
 40
21.53756170665142
 40
25.12339075982598
 40
28.70837469645622
 40
32.29228036240713
 40
35.8758231336434
 40
39.45876472826643
 40
39.45876472826643
 40
39.45876472826643
 40
39.45876472826643
 10
192.8595747244607
 20
212.2650411315046
 30
0.0
 10
192.8595726264929
 20
211.0681954626519
 30
0.0
 10
192.7887659981905
 20
208.6735845261567
 30
0.0
 10
192.4704564872729
 20
205.094850234428
 30
0.0
 10
191.9411606485084
 20
201.5414131666128
 30
0.0
 10
191.2028863897795
 20
198.0265450515286
 30
0.0
 10
190.2583345215191
 20
194.5626016624746
 30
0.0
 10
189.1109260479644
 20
191.1617541206682
 30
0.0
 10
187.7647508090876
 20
187.8357866862389
 30
0.0
 10
186.2246020086058
 20
184.5962698583256
 30
0.0
 10
184.4957995652895
 20
181.4542090588568
 30
0.0
 10
182.5845279310907
 20
178.4206407614818
 30
0.0
 10
181.1927757532425
 20
176.477082384429
 30
0.0
 10
180.4690028924455
 20
175.5270621457999
 30
0.0
 11
192.8595747244607
 21
212.2650411315046
 31
0.0
 11
192.7534326457031
 21
208.6760733335686
 31
0.0
 11
192.4352465337733
 21
205.0987115721426
 31
0.0
 11
191.9062351242134
 21
201.5473093001346
 31
0.0
 11
191.1683734702228
 21
198.0344807308539
 31
0.0
 11
190.2243435070005
 21
194.5725226646958
 31
0.0
 11
189.0775856572876
 21
191.1736586919983
 31
0.0
 11
187.7322372254832
 21
187.8497742782992
 31
0.0
 11
186.1929386319274
 21
184.6120791620515
 31
0.0
 11
184.4652696542757
 21
181.4720887598218
 31
0.0
 11
182.5550036834969
 21
178.4401483392059
 31
0.0
 11
180.4690028924455
 21
175.5270621457999
 31
0.0
  0
SPLINE
  5
5DD
330
218
100
AcDbEntity
  8
0
  6
Continuous
 62
     7
100
AcDbSpline
210
0.0
220
0.0
230
1.0
 70
     8
 71
     3
 72
    18
 73
    14
 74
    12
 42
0.0000000001
 43
0.0000000001
 44
0.0000000001
 12
-0.6060156492360708
 22
0.7954527219646581
 32
0.0
 13
-0.0000017887780292
 23
0.9999999999984002
 33
0.0
 40
0.0
 40
0.0
 40
0.0
 40
0.0
 40
3.583120086171188
 40
7.167417872262239
 40
10.75208757835532
 40
14.33759516268002
 40
17.92387003560791
 40
21.51164991793168
 40
25.10000400769802
 40
28.68956511604433
 40
32.27982415739992
 40
35.87160107105152
 40
39.45876472529894
 40
39.45876472529894
 40
39.45876472529894
 40
39.45876472529894
 10
84.17439937410614
 20
175.5270621457999
 30
0.0
 10
83.45059042566886
 20
176.4771296876903
 30
0.0
 10
82.05865982194515
 20
178.4209434169965
 30
0.0
 10
80.14711373526361
 20
181.4550090523677
 30
0.0
 10
78.41805076179236
 20
184.5977051578363
 30
0.0
 10
76.87775834209789
 20
187.8377945666519
 30
0.0
 10
75.53151155409093
 20
191.1643248234818
 30
0.0
 10
74.38415297497048
 20
194.5655812518985
 30
0.0
 10
73.43972680177365
 20
198.0298150010048
 30
0.0
 10
72.70166565823562
 20
201.5446394566424
 30
0.0
 10
72.17255791709002
 20
205.0981177115183
 30
0.0
 10
71.8545392387427
 20
208.6757376759406
 30
0.0
 10
71.78382968097095
 20
211.0693199134241
 30
0.0
 10
71.7838275420911
 20
212.2650411315046
 30
0.0
 11
84.17439937410614
 21
175.5270621457999
 31
0.0
 11
82.08829897151208
 21
178.4402965445774
 31
0.0
 11
80.17765838701924
 21
181.472893315707
 31
0.0
 11
78.44968937005329
 21
184.6135906870224
 31
0.0
 11
76.91027075786905
 21
187.8518085570414
 31
0.0
 11
75.56488923349281
 21
191.1761605266832
 31
0.0
 11
74.41808452440878
 21
194.5757198280089
 31
0.0
 11
73.4742473689579
 21
198.037721632967
 31
0.0
 11
72.73656534376714
 21
201.5506654384189
 31
0.0
 11
72.2077920773501
 21
205.1017721415127
 31
0.0
 11
71.88977025987714
 21
208.6794422661961
 31
0.0
 11
71.7838275420911
 21
212.2650411315046
 31
0.0
  0
SPLINE
  5
5DE
330
218
100
AcDbEntity
  8
0
  6
Continuous
 62
     7
100
AcDbSpline
210
0.0
220
0.0
230
1.0
 70
     8
 71
     3
 72
    25
 73
    21
 74
    19
 42
0.0000000001
 43
0.0000000001
 44
0.0000000001
 12
0.8708723735004959
 22
0.4915092156548166
 32
0.0
 13
0.8708723556895876
 23
-0.4915092472127748
 33
0.0
 40
0.0
 40
0.0
 40
0.0
 40
0.0
 40
3.457535138177593
 40
6.91540947916083
 40
10.37499932349645
 40
13.83598231617249
 40
17.29873646758041
 40
20.76300828552249
 40
24.22854439734379
 40
27.69524863992833
 40
31.16244051967872
 40
34.62962383130658
 40
38.09632373982471
 40
41.56185407505379
 40
45.02612092576044
 40
48.48887455068698
 40
51.94984910304114
 40
55.40943753275977
 40
58.86732233055278
 40
62.32482852651077
 40
62.32482852651077
 40
62.32482852651077
 40
62.32482852651077
 10
102.5067004139161
 20
264.9509521323159
 30
0.0
 10
103.5103910246648
 20
265.5174222602708
 30
0.0
 10
105.5507292232629
 20
266.5933027330684
 30
0.0
 10
108.6985769388483
 20
268.0297918974613
 30
0.0
 10
111.9244728042063
 20
269.2847044754972
 30
0.0
 10
115.2182577945184
 20
270.3539275646602
 30
0.0
 10
118.5692086501191
 20
271.2338455015516
 30
0.0
 10
121.9663887113805
 20
271.9214482524007
 30
0.0
 10
125.3985616245058
 20
272.414348581458
 30
0.0
 10
128.8542279246367
 20
272.7107992661294
 30
0.0
 10
132.3217245592067
 20
272.8097347314674
 30
0.0
 10
135.7892196581145
 20
272.710796546681
 30
0.0
 10
139.2448795451861
 20
272.4143440352257
 30
0.0
 10
142.6770471763428
 20
271.9214423430075
 30
0.0
 10
146.0742231885041
 20
271.2338385673036
 30
0.0
 10
149.425169141308
 20
270.3539202529619
 30
0.0
 10
152.718950395795
 20
269.2846969040052
 30
0.0
 10
155.9448460630152
 20
268.0297832675884
 30
0.0
 10
159.0926871590128
 20
266.5932955466121
 30
0.0
 10
161.1330196640739
 20
265.5174175548522
 30
0.0
 10
162.1367018526357
 20
264.9509521323159
 30
0.0
 11
102.5067004139161
 21
264.9509521323159
 31
0.0
 11
105.5650891360643
 21
266.5636541060139
 31
0.0
 11
108.710880970863
 21
267.9992336719537
 31
0.0
 11
111.9350947540876
 21
269.2535093079663
 31
0.0
 11
115.2269691661423
 21
270.3221374616533
 31
0.0
 11
118.5761744406883
 21
271.2016204586727
 31
0.0
 11
121.9715893473875
 21
271.8888881211977
 31
0.0
 11
125.401929239558
 21
272.3815429359724
 31
0.0
 11
128.8559460755478
 21
272.6778637119109
 31
0.0
 11
132.3217274005045
 21
272.7767542503285
 31
0.0
 11
135.7875000822038
 21
272.6778612009395
 31
0.0
 11
139.2415123969936
 21
272.3815384292866
 31
0.0
 11
142.671846272993
 21
271.8888823590267
 31
0.0
 11
146.0672559545492
 21
271.2016139199872
 31
0.0
 11
149.416460307438
 21
270.3221294860532
 31
0.0
 11
152.7083262649211
 21
269.2535026241377
 31
0.0
 11
155.9325383354601
 21
267.9992264873826
 31
0.0
 11
159.0783391110588
 21
266.5636413261851
 31
0.0
 11
162.1367018526357
 21
264.9509521323159
 31
0.0
  0
LINE
  5
5DF
330
218
100
AcDbEntity
  8
0
  6
Continuous
 62
     7
100
AcDbLine
 10
-404.8029263163601
 20
335.2650148793904
 30
0.0
 11
-404.7991878355043
 21
325.00551616018
 31
0.0
  0
LINE
  5
5E0
330
218
100
AcDbEntity
  8
0
  6
Continuous
 62
     7
100
AcDbLine
 10
-404.7991878355043
 20
325.00551616018
 30
0.0
 11
-404.7910917814504
 21
234.0970909888289
 31
0.0
  0
LINE
  5
5E1
330
218
100
AcDbEntity
  8
0
  6
Continuous
 62
     7
100
AcDbLine
 10
-404.7910917814504
 20
234.0970909888289
 30
0.0
 11
-404.7991787277901
 21
139.8741378348609
 31
0.0
  0
LINE
  5
5E2
330
218
100
AcDbEntity
  8
0
  6
Continuous
 62
     7
100
AcDbLine
 10
-404.7991787277901
 20
139.8741378348609
 30
0.0
 11
-404.8301904949204
 21
89.26506957527612
 31
0.0
  0
LINE
  5
5E3
330
218
100
AcDbEntity
  8
0
  6
Continuous
 62
     7
100
AcDbLine
 10
-123.6783253495528
 20
400.3752793566034
 30
0.0
 11
-166.6451339375659
 21
400.3281292059939
 31
0.0
  0
SPLINE
  5
5E4
330
218
100
AcDbEntity
  8
0
  6
Continuous
 62
     7
100
AcDbSpline
210
0.0
220
0.0
230
1.0
 70
     8
 71
     3
 72
    15
 73
    11
 74
     9
 42
0.0000000001
 43
0.0000000001
 44
0.0000000001
 12
-0.9999999147403913
 22
-0.0004129397167575
 32
0.0
 13
-0.9999999147382025
 23
0.0004129450173486
 33
0.0
 40
0.0
 40
0.0
 40
0.0
 40
0.0
 40
17.93098118291578
 40
34.19173152926403
 40
49.69341468178129
 40
65.03307602574105
 40
80.37260876586925
 40
95.87396301013745
 40
112.1346755394952
 40
130.0663348371382
 40
130.0663348371382
 40
130.0663348371382
 40
130.0663348371382
 10
-166.6451339375659
 20
400.3281292059939
 30
0.0
 10
-172.6221271556084
 20
400.3256610678969
 30
0.0
 10
-184.0193700953199
 20
400.321111866477
 30
0.0
 10
-200.5838407680725
 20
400.3156268715976
 30
0.0
 10
-216.2845387015409
 20
400.3121301400202
 30
0.0
 10
-231.6781644606374
 20
400.3109105815237
 30
0.0
 10
-247.0716805836511
 20
400.3121300983801
 30
0.0
 10
-262.7722134074494
 20
400.3156267188134
 30
0.0
 10
-279.3367878767019
 20
400.3211117186602
 30
0.0
 10
-290.7342442490012
 20
400.3256609428739
 30
0.0
 10
-296.7114635052537
 20
400.3281292059939
 30
0.0
 11
-166.6451339375659
 21
400.3281292059939
 31
0.0
 11
-184.5761137438221
 21
400.3211028475394
 31
0.0
 11
-200.8368632397749
 21
400.3158439371986
 31
0.0
 11
-216.3385460296315
 21
400.3124907743427
 31
0.0
 11
-231.6782073285813
 21
400.3113156687431
 31
0.0
 11
-247.0177400237026
 21
400.3124907307999
 31
0.0
 11
-262.5190939053307
 21
400.3158437630272
 31
0.0
 11
-278.7798055843121
 21
400.3211026080536
 31
0.0
 11
-296.7114635052537
 21
400.3281292059939
 31
0.0
  0
LINE
  5
5E5
330
218
100
AcDbEntity
  8
0
  6
Continuous
 62
     7
100
AcDbLine
 10
-296.7114635052537
 20
400.3281292059939
 30
0.0
 11
-339.6782701193241
 21
400.3752793566034
 31
0.0
  0
LINE
  5
5E6
330
218
100
AcDbEntity
  8
0
  6
Continuous
 62
     7
100
AcDbLine
 10
-339.6782724053241
 20
24.10574364825409
 30
0.0
 11
-322.9165364809432
 21
24.10969262979524
 31
0.0
  0
LINE
  5
5E7
330
218
100
AcDbEntity
  8
0
  6
Continuous
 62
     7
100
AcDbLine
 10
-322.9165364809432
 20
24.10969262979524
 30
0.0
 11
-140.4400609618766
 21
24.10969262979524
 31
0.0
  0
LINE
  5
5E8
330
218
100
AcDbEntity
  8
0
  6
Continuous
 62
     7
100
AcDbLine
 10
-140.4400609618766
 20
24.10969262979524
 30
0.0
 11
-123.6783269824098
 21
24.10574364825409
 31
0.0
  0
LINE
  5
5E9
330
218
100
AcDbEntity
  8
0
  6
Continuous
 62
     7
100
AcDbLine
 10
-58.52640694064189
 20
89.2650676085903
 30
0.0
 11
-58.5574187150296
 21
139.8741378348609
 31
0.0
  0
LINE
  5
5EA
330
218
100
AcDbEntity
  8
0
  6
Continuous
 62
     7
100
AcDbLine
 10
-58.5574187150296
 20
139.8741378348609
 30
0.0
 11
-58.5655056613692
 21
234.0970909888289
 31
0.0
  0
LINE
  5
5EB
330
218
100
AcDbEntity
  8
0
  6
Continuous
 62
     7
100
AcDbLine
 10
-58.5655056613692
 20
234.0970909888289
 30
0.0
 11
-58.55740960731523
 21
325.00551616018
 31
0.0
  0
LINE
  5
5EC
330
218
100
AcDbEntity
  8
0
  6
Continuous
 62
     7
100
AcDbLine
 10
-58.55740960731523
 20
325.00551616018
 30
0.0
 11
-58.55367112645956
 21
335.2650129344761
 31
0.0
  0
SPLINE
  5
5ED
330
218
100
AcDbEntity
  8
0
  6
Continuous
 62
     7
100
AcDbSpline
210
0.0
220
0.0
230
1.0
 70
     8
 71
     3
 72
    18
 73
    14
 74
    12
 42
0.0000000001
 43
0.0000000001
 44
0.0000000001
 12
0.7071013417287937
 22
0.7071122206024586
 32
0.0
 13
0.0000079404034855
 23
0.9999999999684748
 33
0.0
 40
0.0
 40
0.0
 40
0.0
 40
0.0
 40
1.489599839423536
 40
2.95241428032891
 40
4.393773961306676
 40
5.819309809061568
 40
7.234981627125663
 40
8.647245414316627
 40
10.06293853078684
 40
11.48852366177345
 40
12.92996584807864
 40
14.39289804124478
 40
15.88264736787649
 40
15.88264736787649
 40
15.88264736787649
 40
15.88264736787649
 10
296.7197883924596
 20
24.80032765740494
 30
0.0
 10
297.0708877408248
 20
25.15143240749289
 30
0.0
 10
297.7433916702057
 20
25.87122248355822
 30
0.0
 10
298.6666533173324
 20
27.00965151018755
 30
0.0
 10
299.4944531699809
 20
28.19341008023125
 30
0.0
 10
300.2268466427044
 20
29.42018097631934
 30
0.0
 10
300.8639618432347
 20
30.68819599136732
 30
0.0
 10
301.4057776237698
 20
31.9962148782018
 30
0.0
 10
301.8519269230359
 20
33.3433583794868
 30
0.0
 10
302.2015434093586
 20
34.7287397611539
 30
0.0
 10
302.4532804528397
 20
36.15120465503478
 30
0.0
 10
302.6054536569256
 20
37.60915481565991
 30
0.0
 10
302.6388962489645
 20
38.5937445414557
 30
0.0
 10
302.6389001920347
 20
39.09032765031728
 30
0.0
 11
296.7197883924596
 21
24.80032765740494
 31
0.0
 11
297.7362267742815
 21
25.88925405416916
 31
0.0
 11
298.6572071954561
 21
27.02574917177168
 31
0.0
 11
299.48285986364
 21
28.20719548941341
 31
0.0
 11
300.2133487684909
 21
29.43134352503817
 31
0.0
 11
300.8488034645222
 21
30.69638266504638
 31
0.0
 11
301.3892675453918
 21
32.00113842069595
 31
0.0
 11
301.834485922528
 21
33.34500135890111
 31
0.0
 11
302.1835939436456
 21
34.72717955120535
 31
0.0
 11
302.4352141667447
 21
36.14649024298072
 31
0.0
 11
302.5876330352553
 21
37.60146072045572
 31
0.0
 11
302.6389001920347
 21
39.09032765031728
 31
0.0
  0
SPLINE
  5
5EE
330
218
100
AcDbEntity
  8
0
  6
Continuous
 62
     7
100
AcDbSpline
210
0.0
220
0.0
230
1.0
 70
     8
 71
     3
 72
    18
 73
    14
 74
    12
 42
0.0000000001
 43
0.0000000001
 44
0.0000000001
 12
-0.0000079650773138
 22
0.9999999999682787
 32
0.0
 13
-0.7071013609196962
 23
0.7071122014118505
 33
0.0
 40
0.0
 40
0.0
 40
0.0
 40
0.0
 40
1.489748788672548
 40
2.952680985275813
 40
4.394123172392618
 40
5.819708306788403
 40
7.235401418736232
 40
8.647665208227472
 40
10.06333701971644
 40
11.48887285510922
 40
12.93023252719837
 40
14.39304695760428
 40
15.88264736753126
 40
15.88264736753126
 40
15.88264736753126
 40
15.88264736753126
 10
302.6389001920347
 20
397.4397546072634
 30
0.0
 10
302.6388962367133
 20
397.9363375368052
 30
0.0
 10
302.6054536793051
 20
398.9209270839241
 30
0.0
 10
302.4532805247408
 20
400.3788770716591
 30
0.0
 10
302.2015435153108
 20
401.8013419735481
 30
0.0
 10
301.851927078625
 20
403.1867233676197
 30
0.0
 10
301.4057778132247
 20
404.5338668811295
 30
0.0
 10
300.8639620581272
 20
405.8418857748233
 30
0.0
 10
300.2268469088785
 20
407.109900809386
 30
0.0
 10
299.4944534658941
 20
408.3366717128619
 30
0.0
 10
298.6666536505926
 20
409.5204302958007
 30
0.0
 10
297.7433919252628
 20
410.6588594948459
 30
0.0
 10
297.0708878848216
 20
411.3786497251465
 30
0.0
 10
296.7197883924596
 20
411.7297546001757
 30
0.0
 11
302.6389001920347
 21
397.4397546072634
 31
0.0
 11
302.5876330715409
 21
398.9286210000964
 31
0.0
 11
302.4352142393162
 21
400.3835914848285
 31
0.0
 11
302.1835940525026
 21
401.802902183861
 31
0.0
 11
301.8344860749279
 21
403.1850803906794
 31
0.0
 11
301.3892677340775
 21
404.5289433361419
 31
0.0
 11
300.8488036822365
 21
405.8336991063057
 31
0.0
 11
300.2133490297478
 21
407.0987382608282
 31
0.0
 11
299.4828601611828
 21
408.3228863037101
 31
0.0
 11
298.6572075292847
 21
409.504332635866
 31
0.0
 11
297.7362271516528
 21
410.64082777524
 31
0.0
 11
296.7197883924596
 21
411.7297546001757
 31
0.0
  0
SPLINE
  5
5EF
330
218
100
AcDbEntity
  8
0
  6
Continuous
 62
     7
100
AcDbSpline
210
0.0
220
0.0
230
1.0
 70
     8
 71
     3
 72
    18
 73
    14
 74
    12
 42
0.0000000001
 43
0.0000000001
 44
0.0000000001
 12
-0.7071122206024586
 22
0.7071013417287937
 32
0.0
 13
-0.9999999999684748
 23
0.0000079404034855
 33
0.0
 40
0.0
 40
0.0
 40
0.0
 40
0.0
 40
1.489599839424106
 40
2.952414285967268
 40
4.393773971102419
 40
5.81930980890621
 40
7.234981633455395
 40
8.647245423423536
 40
10.06293853761182
 40
11.48852366859836
 40
12.92996585490334
 40
14.39289804806974
 40
15.88264736744849
 40
15.88264736744849
 40
15.88264736744849
 40
15.88264736744849
 10
282.7864146247185
 20
425.6631283679166
 30
0.0
 10
282.4353098746304
 20
426.0142277162819
 30
0.0
 10
281.7155197987167
 20
426.6867316489068
 30
0.0
 10
280.5770907626894
 20
427.6099932893002
 30
0.0
 10
279.393332200337
 20
428.4377931525384
 30
0.0
 10
278.1665613009836
 20
429.1701866213138
 30
0.0
 10
276.8985462831726
 20
429.8073018145766
 30
0.0
 10
275.5905274000663
 20
430.3491176107598
 30
0.0
 10
274.2433838935709
 20
430.7952668956221
 30
0.0
 10
272.8580025140031
 20
431.1448833856424
 30
0.0
 10
271.4355376197517
 20
431.3966204280882
 30
0.0
 10
269.977587461635
 20
431.5487936321238
 30
0.0
 10
268.99299773825
 20
431.5822362244218
 30
0.0
 10
268.496414631806
 20
431.582240167492
 30
0.0
 11
282.7864146247185
 21
425.6631283679166
 31
0.0
 11
281.697488227954
 21
426.679566749739
 31
0.0
 11
280.5609931030945
 21
427.6005471709131
 31
0.0
 11
279.3795467854526
 21
428.4261998463544
 31
0.0
 11
278.1553987570853
 21
429.1566887439479
 31
0.0
 11
276.89035960982
 21
429.7921434399795
 31
0.0
 11
275.5856038541704
 21
430.3326075281061
 31
0.0
 11
274.2417409159649
 21
430.7778258979851
 31
0.0
 11
272.8595627236607
 21
431.1269339191027
 31
0.0
 11
271.4402520318856
 21
431.3785541422022
 31
0.0
 11
269.9852815544103
 21
431.5309730107125
 31
0.0
 11
268.496414631806
 21
431.582240167492
 31
0.0
  0
SPLINE
  5
5F0
330
218
100
AcDbEntity
  8
0
  6
Continuous
 62
     7
100
AcDbSpline
210
0.0
220
0.0
230
1.0
 70
     8
 71
     3
 72
    18
 73
    14
 74
    12
 42
0.0000000001
 43
0.0000000001
 44
0.0000000001
 12
-0.9999999999704108
 22
-0.000007692751357
 32
0.0
 13
-0.7071123956025024
 23
-0.707101166726014
 33
0.0
 40
0.0
 40
0.0
 40
0.0
 40
0.0
 40
1.48959984327739
 40
2.9524142858111
 40
4.393773965390611
 40
5.819309807480679
 40
7.234981629234099
 40
8.647245416776337
 40
10.06293853210329
 40
11.48852366141723
 40
12.92996585281261
 40
14.39289804244281
 40
15.88264736719074
 40
15.88264736719074
 40
15.88264736719074
 40
15.88264736719074
 10
-401.8530122057685
 20
431.582240167492
 30
0.0
 10
-402.3495454868462
 20
431.582236347785
 30
0.0
 10
-403.3340460212973
 20
431.5487999952855
 30
0.0
 10
-404.7918814794309
 20
431.3966536861641
 30
0.0
 10
-406.2142680781152
 20
431.1449528584757
 30
0.0
 10
-407.5996064884797
 20
430.7953752329587
 30
0.0
 10
-408.9467369796058
 20
430.3492616879847
 30
0.0
 10
-410.2547676220557
 20
429.8074742856148
 30
0.0
 10
-411.5228171188766
 20
429.1703751709137
 30
0.0
 10
-412.7496458795693
 20
428.4379787930689
 30
0.0
 10
-413.9334854167812
 20
427.6101491826211
 30
0.0
 10
-415.0720145671673
 20
426.6868254437406
 30
0.0
 10
-415.791872127391
 20
426.0142628631362
 30
0.0
 10
-416.143012198681
 20
425.6631283679166
 30
0.0
 11
-401.8530122057685
 21
431.582240167492
 31
0.0
 11
-403.3417299215157
 21
431.5309834029409
 31
0.0
 11
-404.7965848289909
 21
431.3785915019735
 31
0.0
 11
-406.2158181305949
 21
431.1270073976741
 31
0.0
 11
-407.5979551603847
 21
430.7779376797565
 31
0.0
 11
-408.9418072419044
 21
430.3327542457635
 31
0.0
 11
-410.2465747033254
 21
429.7923184242081
 31
0.0
 11
-411.5116462319622
 21
429.1568807606905
 31
0.0
 11
-412.7358504523868
 21
428.4263898383543
 31
0.0
 11
-413.9173770340284
 21
427.6007079819417
 31
0.0
 11
-415.0539729388309
 21
426.679664909853
 31
0.0
 11
-416.143012198681
 21
425.6631283679166
 31
0.0
  0
SPLINE
  5
5F1
330
218
100
AcDbEntity
  8
0
  6
Continuous
 62
     7
100
AcDbSpline
210
0.0
220
0.0
230
1.0
 70
     8
 71
     3
 72
    25
 73
    21
 74
    19
 42
0.0000000001
 43
0.0000000001
 44
0.0000000001
 12
0.8667531647334673
 22
0.4987373571575713
 32
0.0
 13
0.8667531778105214
 23
-0.4987373344310237
 33
0.0
 40
0.0
 40
0.0
 40
0.0
 40
0.0
 40
3.514711287360916
 40
7.027068090539618
 40
10.54468178836033
 40
14.06390920516089
 40
17.58678982051106
 40
21.11092137513525
 40
24.63625117532925
 40
28.16176449685338
 40
31.68687947332104
 40
35.21192835829309
 40
38.73736593635441
 40
42.26264262318602
 40
45.78681096939238
 40
49.30974012550803
 40
52.82905713680548
 40
56.34675421078282
 40
59.85912956049752
 40
63.3738181328453
 40
63.3738181328453
 40
63.3738181328453
 40
63.3738181328453
 10
-261.9525708759
 20
324.6821476499663
 30
0.0
 10
-260.9371084987518
 20
325.2664535895097
 30
0.0
 10
-258.8723832169429
 20
326.3758960627255
 30
0.0
 10
-255.6830427722202
 20
327.8577190095352
 30
0.0
 10
-252.4115334447558
 20
329.1524781832505
 30
0.0
 10
-249.0670712316933
 20
330.2562004342719
 30
0.0
 10
-245.6620900618016
 20
331.1645545608428
 30
0.0
 10
-242.2081765770942
 20
331.8743346572355
 30
0.0
 10
-238.7180778558118
 20
332.3829511970304
 30
0.0
 10
-235.204067653627
 20
332.6887290231022
 30
0.0
 10
-231.6783503720081
 20
332.7907463212135
 30
0.0
 10
-228.152658272648
 20
332.6887350992114
 30
0.0
 10
-224.6387121089753
 20
332.3829723169888
 30
0.0
 10
-221.1486419331968
 20
331.8743732916447
 30
0.0
 10
-217.6947151235789
 20
331.1646044060408
 30
0.0
 10
-214.2896746434189
 20
330.2562460741915
 30
0.0
 10
-210.9451399104047
 20
329.1525074954985
 30
0.0
 10
-207.6735703043914
 20
327.8577267910995
 30
0.0
 10
-204.4842061926413
 20
326.3758920368764
 30
0.0
 10
-202.4194823966183
 20
325.266449786609
 30
0.0
 10
-201.4040265669194
 20
324.6821476499663
 30
0.0
 11
-261.9525708759
 21
324.6821476499663
 31
0.0
 11
-258.8565114790814
 21
326.3457616811868
 31
0.0
 11
-255.6711911555554
 21
327.8257565289373
 31
0.0
 11
-252.4004292452639
 21
329.1202535947054
 31
0.0
 11
-249.0584987702006
 21
330.2231870972356
 31
0.0
 11
-245.6546696708193
 21
331.1312814162438
 31
0.0
 11
-242.2026829479715
 21
331.8407113843031
 31
0.0
 11
-238.7142073616526
 21
332.3491288149568
 31
0.0
 11
-235.201968290086
 21
332.6547771167773
 31
0.0
 11
-231.678328326924
 21
332.7567428331935
 31
0.0
 11
-228.1547542731336
 21
332.654784366663
 31
0.0
 11
-224.6425898412812
 21
332.3491520378138
 31
0.0
 11
-221.1541649098195
 21
331.8407553263029
 31
0.0
 11
-217.7021393975431
 21
331.1313313381296
 31
0.0
 11
-214.2982605069047
 21
330.2232353427214
 31
0.0
 11
-210.9562426921272
 21
329.1202806057912
 31
0.0
 11
-207.6854024554925
 21
327.825754881566
 31
0.0
 11
-204.5000656364812
 21
326.3457515211867
 31
0.0
 11
-201.4040265669194
 21
324.6821476499663
 31
0.0
  0
SPLINE
  5
5F2
330
218
100
AcDbEntity
  8
0
  6
Continuous
 62
     7
100
AcDbSpline
210
0.0
220
0.0
230
1.0
 70
     8
 71
     3
 72
    25
 73
    21
 74
    19
 42
0.0000000001
 43
0.0000000001
 44
0.0000000001
 12
0.8655301506287607
 22
0.5008568242048368
 32
0.0
 13
0.8655301588373951
 23
-0.5008568100195041
 33
0.0
 40
0.0
 40
0.0
 40
0.0
 40
0.0
 40
3.37680564291319
 40
6.751777660693145
 40
10.13219975197235
 40
13.51453093848506
 40
16.90067417516894
 40
20.28825516486374
 40
23.67715611809163
 40
27.06633907165869
 40
30.45518929870296
 40
33.84397597734992
 40
37.23308612395364
 40
40.62193602952431
 40
44.00955239807525
 40
47.39574231013295
 40
50.7781596323524
 40
54.15866180801079
 40
57.53365178592833
 40
60.91043549841839
 40
60.91043549841839
 40
60.91043549841839
 40
60.91043549841839
 10
-260.7578910421494
 20
322.6208686353624
 30
0.0
 10
-259.7836486765645
 20
323.1846340187845
 30
0.0
 10
-257.802504477588
 20
324.2555983555171
 30
0.0
 10
-254.7416524991162
 20
325.6874470493126
 30
0.0
 10
-251.6010272850913
 20
326.939960938596
 30
0.0
 10
-248.3893837947241
 20
328.0089265997801
 30
0.0
 10
-245.1186236824213
 20
328.8896926280768
 30
0.0
 10
-241.7999146808048
 20
329.5786454741939
 30
0.0
 10
-238.4456291196006
 20
330.0727748228299
 30
0.0
 10
-235.0677715796691
 20
330.3700324342948
 30
0.0
 10
-231.6783483773656
 20
330.4692402150317
 30
0.0
 10
-228.2889493800084
 20
330.3700383382077
 30
0.0
 10
-224.911153378419
 20
330.0727953562671
 30
0.0
 10
-221.556895208595
 20
329.5786829927553
 30
0.0
 10
-218.2381733404915
 20
328.8897410046208
 30
0.0
 10
-214.9673562056969
 20
328.008970816091
 30
0.0
 10
-211.7556430486067
 20
326.9399893070933
 30
0.0
 10
-208.6149599195
 20
325.6874545581103
 30
0.0
 10
-205.5540852401537
 20
324.2555944354092
 30
0.0
 10
-203.5729424410901
 20
323.1846303414836
 30
0.0
 10
-202.5987063934131
 20
322.6208686353624
 30
0.0
 11
-260.7578910421494
 21
322.6208686353624
 31
0.0
 11
-257.7873307955662
 21
324.2266669326057
 31
0.0
 11
-254.7303085208462
 21
325.6567197052906
 31
0.0
 11
-251.590370776445
 21
326.9089355319328
 31
0.0
 11
-248.3811287184145
 21
327.9770786254482
 31
0.0
 11
-245.1114526363509
 21
328.8575241590963
 31
0.0
 11
-241.794584522706
 21
329.5460667347064
 31
0.0
 11
-238.441863554333
 21
330.0399409889662
 31
0.0
 11
-235.0657268629976
 21
330.3370304269618
 31
0.0
 11
-231.6783271802957
 21
330.4361730059504
 31
0.0
 11
-228.2909908669648
 21
330.3370374736472
 31
0.0
 11
-224.9149258979723
 21
330.0399635586803
 31
0.0
 11
-221.5622535669705
 21
329.5461094067063
 31
0.0
 11
-218.245348122583
 21
328.8575726005248
 31
0.0
 11
-214.9756241578909
 21
327.9771253759625
 31
0.0
 11
-211.7662981782603
 21
326.9089616721613
 31
0.0
 11
-208.6262852716307
 21
325.6567181232337
 31
0.0
 11
-205.5692470457107
 21
324.2266570628914
 31
0.0
 11
-202.5987063934131
 21
322.6208686353624
 31
0.0
  0
SPLINE
  5
5F3
330
218
100
AcDbEntity
  8
0
  6
Continuous
 62
     7
100
AcDbSpline
210
0.0
220
0.0
230
1.0
 70
     8
 71
     3
 72
    17
 73
    13
 74
    11
 42
0.0000000001
 43
0.0000000001
 44
0.0000000001
 12
0.7071125873169773
 22
0.7071009750084427
 32
0.0
 13
0.9999999999565702
 23
0.0000093198482292
 33
0.0
 40
0.0
 40
0.0
 40
0.0
 40
0.0
 40
1.265985613481807
 40
2.510785603590701
 40
3.739171848028583
 40
4.956252412189887
 40
6.167471773512994
 40
7.378730794169661
 40
8.595959625023979
 40
9.824644381287241
 40
11.06992277178018
 40
12.33656508749123
 40
12.33656508749123
 40
12.33656508749123
 40
12.33656508749123
 10
-410.413327495773
 20
416.3417871029024
 30
0.0
 10
-410.1149293748879
 20
416.640180323449
 30
0.0
 10
-409.5008645732272
 20
417.2102370405802
 30
0.0
 10
-408.5239825501408
 20
417.9862407479304
 30
0.0
 10
-407.502730434028
 20
418.6742477823831
 30
0.0
 10
-406.4397645340656
 20
419.2733885907383
 30
0.0
 10
-405.3373538254289
 20
419.7829850477726
 30
0.0
 10
-404.1974906666901
 20
420.2023062840704
 30
0.0
 10
-403.0220795676225
 20
420.5304404348972
 30
0.0
 10
-401.8131665297379
 20
420.7662389311972
 30
0.0
 10
-400.573220925763
 20
420.9084056450659
 30
0.0
 10
-399.7355415985745
 20
420.939553708549
 30
0.0
 10
-399.3133274933557
 20
420.9395576435204
 30
0.0
 11
-410.413327495773
 21
416.3417871029024
 31
0.0
 11
-409.4850322882585
 21
417.2025934581582
 31
0.0
 11
-408.5099920093343
 21
417.9764303077916
 31
0.0
 11
-407.490994715399
 21
418.6624166636885
 31
0.0
 11
-406.430615117366
 21
419.2598111796781
 31
0.0
 11
-405.3311417116915
 21
419.7679554224463
 31
0.0
 11
-404.1943915345461
 21
420.1862226215931
 31
0.0
 11
-403.0220578152436
 21
420.5137583864335
 31
0.0
 11
-401.8161787731545
 21
420.7493893821109
 31
0.0
 11
-400.5790686240494
 21
420.8917858315395
 31
0.0
 11
-399.3133274933557
 21
420.9395576435204
 31
0.0
  0
SPLINE
  5
5F4
330
218
100
AcDbEntity
  8
0
  6
Continuous
 62
     7
100
AcDbSpline
210
0.0
220
0.0
230
1.0
 70
     8
 71
     3
 72
    17
 73
    13
 74
    11
 42
0.0000000001
 43
0.0000000001
 44
0.0000000001
 12
0.9999999999662898
 22
-0.0000082109727694
 32
0.0
 13
0.7071133711703427
 23
-0.7071001911413357
 33
0.0
 40
0.0
 40
0.0
 40
0.0
 40
0.0
 40
1.265985605931945
 40
2.510785594285356
 40
3.739171836696869
 40
4.956252400891784
 40
6.167471768656906
 40
7.378730787958826
 40
8.595959618749811
 40
9.824644372134066
 40
11.06992276638431
 40
12.3365650804456
 40
12.3365650804456
 40
12.3365650804456
 40
12.3365650804456
 10
-59.24428007189772
 20
420.9395576435204
 30
0.0
 10
-58.82228486993462
 20
420.9395541785293
 30
0.0
 10
-57.98498451765573
 20
420.9084357606593
 30
0.0
 10
-56.74550713344114
 20
420.7663933545273
 30
0.0
 10
-55.53687839818183
 20
420.5307534966161
 30
0.0
 10
-54.36159147490008
 20
420.2027796202123
 30
0.0
 10
-53.2217302730104
 20
419.78359664792
 30
0.0
 10
-52.11922041611229
 20
419.2740965601139
 30
0.0
 10
-51.05605337231466
 20
418.6749812911346
 30
0.0
 10
-50.03448804879752
 20
417.9868853999153
 30
0.0
 10
-49.05718706145556
 20
417.2106384971315
 30
0.0
 10
-48.44283331565873
 20
416.6403347770293
 30
0.0
 10
-48.14428007673777
 20
416.3417871029024
 30
0.0
 11
-59.24428007189772
 21
420.9395576435204
 31
0.0
 11
-57.97919423217519
 21
420.8918358187395
 31
0.0
 11
-56.74255135598395
 21
420.7495635172536
 31
0.0
 11
-55.53694585738054
 21
420.5140892250621
 31
0.0
 11
-54.36472254099223
 21
420.1867093291359
 31
0.0
 11
-53.22796519379003
 21
419.7685764669603
 31
0.0
 11
-52.12840186485826
 21
419.2605322784208
 31
0.0
 11
-51.06783398025396
 21
418.663169918831
 31
0.0
 11
-50.04853245963309
 21
417.9771009476197
 31
0.0
 11
-49.07307398785175
 21
417.2030214626722
 31
0.0
 11
-48.14428007673777
 21
416.3417871029024
 31
0.0
  0
SPLINE
  5
5F5
330
218
100
AcDbEntity
  8
0
  6
Continuous
 62
     7
100
AcDbSpline
210
0.0
220
0.0
230
1.0
 70
     8
 71
     3
 72
    17
 73
    13
 74
    11
 42
0.0000000001
 43
0.0000000001
 44
0.0000000001
 12
0.7071001761404903
 22
-0.7071133861709081
 32
0.0
 13
0.00000818214789
 23
-0.9999999999665263
 33
0.0
 40
0.0
 40
0.0
 40
0.0
 40
0.0
 40
1.266641990034365
 40
2.51192036605709
 40
3.740605119556955
 40
4.957833935740016
 40
6.169092947953655
 40
7.38031229849608
 40
8.597392847578333
 40
9.825779081309375
 40
11.07057904414193
 40
12.33656507930883
 40
12.33656507930883
 40
12.33656507930883
 40
12.33656507930883
 10
-41.60155273884041
 20
409.7990597650053
 30
0.0
 10
-41.30300514742033
 20
409.5005065961254
 30
0.0
 10
-40.73270148883654
 20
408.8861529504955
 30
0.0
 10
-39.95645464244476
 20
407.9088520630082
 30
0.0
 10
-39.26835873779594
 20
406.8872867627386
 30
0.0
 10
-38.66924343499609
 20
405.82411974555
 30
0.0
 10
-38.15974334730878
 20
404.7216099031599
 30
0.0
 10
-37.74056033276835
 20
403.5817487311239
 30
0.0
 10
-37.41258644203286
 20
402.4064618257124
 30
0.0
 10
-37.17694655106484
 20
401.1978331135793
 30
0.0
 10
-37.03490410785298
 20
399.9583556018752
 30
0.0
 10
-37.00378565105079
 20
399.1210551148869
 30
0.0
 10
-37.00378219822247
 20
398.6990597698453
 30
0.0
 11
-41.60155273884041
 21
409.7990597650053
 31
0.0
 11
-40.74031858952785
 21
408.8702661006341
 31
0.0
 11
-39.96623909732327
 21
407.8948076578811
 31
0.0
 11
-39.2801701043405
 21
406.8755061517747
 31
0.0
 11
-38.68280772297942
 21
405.8149382961988
 31
0.0
 11
-38.17476351992556
 21
404.7153749817816
 31
0.0
 11
-37.7566306287213
 21
403.5786176636078
 31
0.0
 11
-37.42925071102368
 21
402.4063943689909
 31
0.0
 11
-37.19377638980365
 21
401.2007888849017
 31
0.0
 11
-37.0515040592891
 21
399.9641460377393
 31
0.0
 11
-37.00378219822247
 21
398.6990597698453
 31
0.0
  0
SPLINE
  5
5F6
330
218
100
AcDbEntity
  8
0
  6
Continuous
 62
     7
100
AcDbSpline
210
0.0
220
0.0
230
1.0
 70
     8
 71
     3
 72
    18
 73
    14
 74
    12
 42
0.0000000001
 43
0.0000000001
 44
0.0000000001
 12
0.000008927049586
 22
-0.9999999999601538
 32
0.0
 13
0.7071012224770773
 23
-0.70711233985232
 33
0.0
 40
0.0
 40
0.0
 40
0.0
 40
0.0
 40
1.491061132181115
 40
2.955243287154591
 40
4.397858915963351
 40
5.824543816771142
 40
7.241274784921043
 40
8.65453175664807
 40
10.07115944040933
 40
11.49760519161696
 40
12.93982003217505
 40
14.40342964659586
 40
15.89376182327299
 40
15.89376182327299
 40
15.89376182327299
 40
15.89376182327299
 10
-37.00378219822247
 20
378.5780352934366
 30
0.0
 10
-37.00377776129691
 20
378.0810149160627
 30
0.0
 10
-36.9703005851514
 20
377.0955708132621
 30
0.0
 10
-36.81797068073168
 20
375.6363837820892
 30
0.0
 10
-36.56598829934635
 20
374.2127683307668
 30
0.0
 10
-36.21605142298339
 20
372.8263283093412
 30
0.0
 10
-35.76951938110771
 20
371.4782111544217
 30
0.0
 10
-35.22726741596625
 20
370.1692943106499
 30
0.0
 10
-34.58967209128065
 20
368.9004531594648
 30
0.0
 10
-33.85676755320315
 20
367.6729303430743
 30
0.0
 10
-33.02844222497056
 20
366.4884973228437
 30
0.0
 10
-32.1046569260122
 20
365.3494700678096
 30
0.0
 10
-31.43180016233372
 20
364.6293127229593
 30
0.0
 10
-31.08052826099194
 20
364.2780352987568
 30
0.0
 11
-37.00378219822247
 21
378.5780352934366
 31
0.0
 11
-36.95246030081435
 21
377.0878576655185
 31
0.0
 11
-36.79988415550395
 21
375.6316468625009
 31
0.0
 11
-36.5480184813191
 21
374.2111879455833
 31
0.0
 11
-36.19859132734462
 21
372.8279560524222
 31
0.0
 11
-35.75299239289424
 21
371.4831258677031
 31
0.0
 11
-35.21209363819631
 21
370.1774751466826
 31
0.0
 11
-34.57615813467919
 21
368.9116078433031
 31
0.0
 11
-33.84515728194302
 21
367.6867057107075
 31
0.0
 11
-33.0189786378163
 21
366.5045836804945
 31
0.0
 11
-32.09747426544226
 21
365.3674896671778
 31
0.0
 11
-31.08052826099194
 21
364.2780352987568
 31
0.0
  0
SPLINE
  5
5F7
330
218
100
AcDbEntity
  8
0
  6
Continuous
 62
     7
100
AcDbSpline
210
0.0
220
0.0
230
1.0
 70
     8
 71
     3
 72
    18
 73
    14
 74
    12
 42
0.0000000001
 43
0.0000000001
 44
0.0000000001
 12
0.7071130932413118
 22
-0.7071004690754375
 32
0.0
 13
0.9999999999690995
 23
-0.0000078613376668
 33
0.0
 40
0.0
 40
0.0
 40
0.0
 40
0.0
 40
1.491061133547631
 40
2.955243292476203
 40
4.397858922400393
 40
5.824543817810591
 40
7.241274788744052
 40
8.65453175632065
 40
10.07115943800781
 40
11.49760518832463
 40
12.9398200300316
 40
14.40342964815204
 40
15.89376182775288
 40
15.89376182775288
 40
15.89376182775288
 40
15.89376182775288
 10
-25.66530457132933
 20
358.8628116163511
 30
0.0
 10
-25.31385495454441
 20
358.5113682740339
 30
0.0
 10
-24.59336881477744
 20
357.8382259952477
 30
0.0
 10
-23.45385424935765
 20
356.9141384704852
 30
0.0
 10
-22.26902766508812
 20
356.0856687739794
 30
0.0
 10
-21.04122378341614
 20
355.3527503764863
 30
0.0
 10
-19.77221517152882
 20
354.7152334241048
 30
0.0
 10
-18.46324115139134
 20
354.1731194982292
 30
0.0
 10
-17.11518699754948
 20
353.7267612827558
 30
0.0
 10
-15.72895551993668
 20
353.3770133512405
 30
0.0
 10
-14.30572044333884
 20
353.1252071771839
 30
0.0
 10
-12.84709169419457
 20
352.9730081405765
 30
0.0
 10
-11.86208196983408
 20
352.9395615771981
 30
0.0
 10
-11.36530457664915
 20
352.9395576718633
 30
0.0
 11
-25.66530457132933
 21
358.8628116163511
 31
0.0
 11
-24.57529980667974
 21
357.8453869670441
 31
0.0
 11
-23.43771563867747
 21
356.9235780631842
 31
0.0
 11
-22.25520358057904
 21
356.0972578539715
 31
0.0
 11
-21.03002862295483
 21
355.3662475161498
 31
0.0
 11
-19.76400405003272
 21
354.7303949980614
 31
0.0
 11
-18.45829639672635
 21
354.1896337009061
 31
0.0
 11
-17.11351873920716
 21
353.7442046489129
 31
0.0
 11
-15.73048647553176
 21
353.394963705967
 31
0.0
 11
-14.31040344958563
 21
353.1432737199533
 31
0.0
 11
-12.85475456713928
 21
352.9908288273287
 31
0.0
 11
-11.36530457664915
 21
352.9395576718633
 31
0.0
  0
SPLINE
  5
5F8
330
218
100
AcDbEntity
  8
0
  6
Continuous
 62
     7
100
AcDbSpline
210
0.0
220
0.0
230
1.0
 70
     8
 71
     3
 72
    17
 73
    13
 74
    11
 42
0.0000000001
 43
0.0000000001
 44
0.0000000001
 12
-0.0000082109727694
 22
-0.9999999999662898
 32
0.0
 13
-0.7071001911413357
 23
-0.7071133711703427
 33
0.0
 40
0.0
 40
0.0
 40
0.0
 40
0.0
 40
1.265985605931938
 40
2.510785595114642
 40
3.739171843257544
 40
4.956252407452414
 40
6.167471768406713
 40
7.378730794296485
 40
8.595959622325889
 40
9.824644381730637
 40
11.06992276578475
 40
12.33656507984641
 40
12.33656507984641
 40
12.33656507984641
 40
12.33656507984641
 10
291.9962176680633
 20
41.63001235547283
 30
0.0
 10
291.9962142030722
 20
41.20801715350975
 30
0.0
 10
291.9650957889447
 20
40.370716800458
 30
0.0
 10
291.8230533659522
 20
39.13123941626372
 30
0.0
 10
291.5874135249537
 20
37.92261067584696
 30
0.0
 10
291.2594396458454
 20
36.74732375297134
 30
0.0
 10
290.840256668217
 20
35.60746255372692
 30
0.0
 10
290.3307565907024
 20
34.50495269268616
 30
0.0
 10
289.7316413022637
 20
33.4417856560856
 30
0.0
 10
289.0435454222437
 20
32.42022032838608
 30
0.0
 10
288.2672985191632
 20
31.44291934258049
 30
0.0
 10
287.696994801572
 20
30.82856559923393
 30
0.0
 10
287.3984471274452
 20
30.53001236031288
 30
0.0
 11
291.9962176680633
 21
41.63001235547283
 31
0.0
 11
291.9484958432824
 21
40.36492651575031
 31
0.0
 11
291.8062235345392
 21
39.12828363955924
 31
0.0
 11
291.5707492496047
 21
37.92267813369872
 31
0.0
 11
291.2433693536788
 21
36.75045481731041
 31
0.0
 11
290.8252364915032
 21
35.61369747736516
 31
0.0
 11
290.3171923029635
 21
34.51413414117642
 31
0.0
 11
289.7198299361167
 21
33.4535662638291
 31
0.0
 11
289.0337609649053
 21
32.43426473595109
 31
0.0
 11
288.2596814872153
 21
31.45880627142706
 31
0.0
 11
287.3984471274452
 21
30.53001236031288
 31
0.0
  0
SPLINE
  5
5F9
330
218
100
AcDbEntity
  8
0
  6
Continuous
 62
     7
100
AcDbSpline
210
0.0
220
0.0
230
1.0
 70
     8
 71
     3
 72
    17
 73
    13
 74
    11
 42
0.0000000001
 43
0.0000000001
 44
0.0000000001
 12
-0.7071125873169773
 22
-0.7071009750084427
 32
0.0
 13
-0.9999999999565702
 23
-0.0000093198482292
 33
0.0
 40
0.0
 40
0.0
 40
0.0
 40
0.0
 40
1.265985603225721
 40
2.51078559333469
 40
3.73917184182541
 40
4.956252402424607
 40
6.16747176374762
 40
7.378730786910233
 40
8.595959622801309
 40
9.824644373334049
 40
11.06992276299713
 40
12.33656507898186
 40
12.33656507898186
 40
12.33656507898186
 40
12.33656507898186
 10
265.0567299199819
 20
8.188295152849606
 30
0.0
 10
264.7583318015142
 20
7.88990193472042
 30
0.0
 10
264.1442670023932
 20
7.319845219684608
 30
0.0
 10
263.1673849789978
 20
6.543841516605226
 30
0.0
 10
262.1461328699321
 20
5.855834471111204
 30
0.0
 10
261.08316696333
 20
5.256693673288364
 30
0.0
 10
259.9807562553729
 20
4.747097217691276
 30
0.0
 10
258.8408930991799
 20
4.327775965044729
 30
0.0
 10
257.6654819935478
 20
3.999641836663067
 30
0.0
 10
256.4565689608336
 20
3.76384331667363
 30
0.0
 10
255.2166233561383
 20
3.621676625321029
 30
0.0
 10
254.3789440301318
 20
3.590528547202877
 30
0.0
 10
253.9567299248219
 20
3.590524612231495
 30
0.0
 11
265.0567299199819
 21
8.188295152849606
 31
0.0
 11
264.1284347197249
 21
7.327488804851016
 31
0.0
 11
263.1533944408006
 21
6.55365195521767
 31
0.0
 11
262.1343971468653
 21
5.867665592063449
 31
0.0
 11
261.0740175488321
 21
5.270271083331023
 31
0.0
 11
259.9745441431578
 21
4.762126840562738
 31
0.0
 11
258.8377939660124
 21
4.343859634158935
 31
0.0
 11
257.6654602394529
 21
4.016323876575496
 31
0.0
 11
256.4595812046207
 21
3.780692873641151
 31
0.0
 11
255.2224710555156
 21
3.638296431469504
 31
0.0
 11
253.9567299248219
 21
3.590524612231495
 31
0.0
  0
SPLINE
  5
5FA
330
218
100
AcDbEntity
  8
0
  6
Continuous
 62
     7
100
AcDbSpline
210
0.0
220
0.0
230
1.0
 70
     8
 71
     3
 72
    17
 73
    13
 74
    11
 42
0.0000000001
 43
0.0000000001
 44
0.0000000001
 12
-0.9999999999662898
 22
0.0000082109727694
 32
0.0
 13
-0.7071133711703427
 23
0.7071001911413357
 33
0.0
 40
0.0
 40
0.0
 40
0.0
 40
0.0
 40
1.265985613183936
 40
2.510785595156914
 40
3.739171844691157
 40
4.956252406933796
 40
6.167471777204527
 40
7.378730793462533
 40
8.595959627814888
 40
9.824644381199098
 40
11.0699227709382
 40
12.33656507967815
 40
12.33656507967815
 40
12.33656507967815
 40
12.33656507967815
 10
-387.3133274987844
 20
3.590524612231495
 30
0.0
 10
-387.7353227031648
 20
3.590528077222627
 30
0.0
 10
-388.5726230560766
 20
3.621646491503879
 30
0.0
 10
-389.8121004415299
 20
3.763688911726792
 30
0.0
 10
-391.0207291759832
 20
3.999328767727235
 30
0.0
 10
-392.1960161062976
 20
4.327302630799392
 30
0.0
 10
-393.3358773009107
 20
4.746485619971783
 30
0.0
 10
-394.4383871660946
 20
5.255985691790099
 30
0.0
 10
-395.5015542035643
 20
5.85510097355227
 30
0.0
 10
-396.5231195266276
 20
6.543196863507573
 30
0.0
 10
-397.5004205190649
 20
7.319443755285013
 30
0.0
 10
-398.1147742562777
 20
7.889747479977033
 30
0.0
 10
-398.4133274939443
 20
8.188295152849606
 30
0.0
 11
-387.3133274987844
 21
3.590524612231495
 31
0.0
 11
-388.5784133457641
 21
3.638246437012533
 31
0.0
 11
-389.8150562146979
 21
3.780518745755564
 31
0.0
 11
-391.0206617205586
 21
4.015993037947151
 31
0.0
 11
-392.1928850369468
 21
4.343372926616128
 31
0.0
 11
-393.3296423841493
 21
4.761505796048865
 31
0.0
 11
-394.4292057130809
 21
5.269549977331539
 31
0.0
 11
-395.4897735976853
 21
5.866912344178047
 31
0.0
 11
-396.5090751183061
 21
6.552981315389457
 31
0.0
 11
-397.4845335900873
 21
7.327060793079802
 31
0.0
 11
-398.4133274939443
 21
8.188295152849606
 31
0.0
  0
SPLINE
  5
5FB
330
218
100
AcDbEntity
  8
0
  6
Continuous
 62
     7
100
AcDbSpline
210
0.0
220
0.0
230
1.0
 70
     8
 71
     3
 72
    17
 73
    13
 74
    11
 42
0.0000000001
 43
0.0000000001
 44
0.0000000001
 12
-0.7071009750084427
 22
0.7071125873169773
 32
0.0
 13
-0.0000093198482292
 23
0.9999999999565702
 33
0.0
 40
0.0
 40
0.0
 40
0.0
 40
0.0
 40
1.265985608160361
 40
2.510785598269177
 40
3.739171842707209
 40
4.956252406868514
 40
6.167471774778936
 40
7.378730795435975
 40
8.595959626290314
 40
9.824644382553392
 40
11.06992276583683
 40
12.33656508154783
 40
12.33656508154783
 40
12.33656508154783
 40
12.33656508154783
 10
-420.7550447014076
 20
30.53001236031288
 30
0.0
 10
-421.0534379207
 20
30.82841047994365
 30
0.0
 10
-421.6234946418436
 20
31.44247527545021
 30
0.0
 10
-422.399498346068
 20
32.41935729906179
 30
0.0
 10
-423.0875053807428
 20
33.44060941481386
 30
0.0
 10
-423.6866461912567
 20
34.50357531626153
 30
0.0
 10
-424.1962426444697
 20
35.6059860290752
 30
0.0
 10
-424.6155638828423
 20
36.74584918926772
 30
0.0
 10
-424.9436980333904
 20
37.9212602884915
 30
0.0
 10
-425.1794965290176
 20
39.13017332400391
 30
0.0
 10
-425.321663244048
 20
40.3701189254286
 30
0.0
 10
-425.3528113070543
 20
41.20779825025417
 30
0.0
 10
-425.3528152420257
 20
41.63001235547283
 30
0.0
 11
-420.7550447014076
 21
30.53001236031288
 31
0.0
 11
-421.6158510566633
 21
31.45830756057018
 31
0.0
 11
-422.3896879062966
 21
32.43334783949434
 31
0.0
 11
-423.0756742621937
 21
33.45234513342965
 31
0.0
 11
-423.6730687781833
 21
34.51272473146274
 31
0.0
 11
-424.1812130209514
 21
35.6121981443941
 31
0.0
 11
-424.5994802200985
 21
36.74894832153976
 31
0.0
 11
-424.9270159849388
 21
37.92128204084219
 31
0.0
 11
-425.162646980616
 21
39.12716108293117
 31
0.0
 11
-425.3050434300448
 21
40.36427122477912
 31
0.0
 11
-425.3528152420257
 21
41.63001235547283
 31
0.0
  0
SPLINE
  5
5FC
330
218
100
AcDbEntity
  8
0
  6
Continuous
 62
     7
100
AcDbSpline
210
0.0
220
0.0
230
1.0
 70
     8
 71
     3
 72
    17
 73
    13
 74
    11
 42
0.0000000001
 43
0.0000000001
 44
0.0000000001
 12
0.0000082109727694
 22
0.9999999999662898
 32
0.0
 13
0.7071001911413357
 23
0.7071133711703427
 33
0.0
 40
0.0
 40
0.0
 40
0.0
 40
0.0
 40
1.265985605932063
 40
2.510785595114572
 40
3.739171836135101
 40
4.956252400330044
 40
6.167471768095385
 40
7.37873078739702
 40
8.595959618188016
 40
9.824644371572359
 40
11.06992276582257
 40
12.3365650798841
 40
12.3365650798841
 40
12.3365650798841
 40
12.3365650798841
 10
-425.3528152420257
 20
394.9000699021077
 30
0.0
 10
-425.3528117770346
 20
395.3220651040708
 30
0.0
 10
-425.3216933627721
 20
396.1593654571038
 30
0.0
 10
-425.1796509406463
 20
397.39884283902
 30
0.0
 10
-424.9440110982355
 20
398.6074715768477
 30
0.0
 10
-424.6160372178577
 20
399.7827584989522
 30
0.0
 10
-424.1968542466552
 20
400.9226197010359
 30
0.0
 10
-423.6873541585567
 20
402.0251295578819
 30
0.0
 10
-423.0882388896567
 20
403.0882966016937
 30
0.0
 10
-422.4001429984158
 20
404.109861925207
 30
0.0
 10
-421.6238960956379
 20
405.08716291255
 30
0.0
 10
-421.0535923755346
 20
405.7015166583469
 30
0.0
 10
-420.7550447014076
 20
406.0000698972679
 30
0.0
 11
-425.3528152420257
 21
394.9000699021077
 31
0.0
 11
-425.3050934172447
 21
396.1651557418304
 31
0.0
 11
-425.1628211085018
 21
397.4017986180212
 31
0.0
 11
-424.9273468235673
 21
398.6074041166248
 31
0.0
 11
-424.5999669276412
 21
399.7796274330132
 31
0.0
 11
-424.1818340654655
 21
400.9163847802155
 31
0.0
 11
-423.6737898769259
 21
402.0159481091469
 31
0.0
 11
-423.0764275173362
 21
403.0765159937514
 31
0.0
 11
-422.3903585461249
 21
404.0958175143723
 31
0.0
 11
-421.6162790611774
 21
405.0712759861536
 31
0.0
 11
-420.7550447014076
 21
406.0000698972679
 31
0.0
  0
SPLINE
  5
5FD
330
218
100
AcDbEntity
  8
0
  6
Continuous
 62
     7
100
AcDbSpline
210
0.0
220
0.0
230
1.0
 70
     8
 71
     3
 72
    23
 73
    19
 74
    17
 42
0.0000000001
 43
0.0000000001
 44
0.0000000001
 12
0.9861272268079432
 22
0.1659912423836725
 32
0.0
 13
0.0000071397574319
 23
0.9999999999745117
 33
0.0
 40
0.0
 40
0.0
 40
0.0
 40
0.0
 40
0.1569470771922409
 40
0.3229472239276187
 40
0.5067427031764207
 40
0.7210512984659344
 40
0.9773486677393478
 40
1.283053794196451
 40
1.643369481880527
 40
2.063094983159838
 40
2.546827767453972
 40
3.099562387373834
 40
3.726940272952994
 40
4.435432005805767
 40
5.232526449403388
 40
6.126951627145946
 40
7.128925374502681
 40
8.250452359504818
 40
8.250452359504818
 40
8.250452359504818
 40
8.250452359504818
 10
296.3844300081936
 20
293.9803535124186
 30
0.0
 10
296.436019936856
 20
293.9890374591957
 30
0.0
 10
296.5406181401124
 20
294.0179168397068
 30
0.0
 10
296.6921824979205
 20
294.0946650508367
 30
0.0
 10
296.8426230070209
 20
294.2089734314659
 30
0.0
 10
296.9938048596461
 20
294.3672963411092
 30
0.0
 10
297.145883406666
 20
294.577487882794
 30
0.0
 10
297.2969792197664
 20
294.8458564626816
 30
0.0
 10
297.4444993453732
 20
295.1768110086668
 30
0.0
 10
297.5861581794063
 20
295.5738934749273
 30
0.0
 10
297.7200779112385
 20
296.0407315288724
 30
0.0
 10
297.8444634196134
 20
296.5814459986252
 30
0.0
 10
297.9575430990669
 20
297.2009323898442
 30
0.0
 10
298.0573330721759
 20
297.9050498969873
 30
0.0
 10
298.1414009863814
 20
298.700777053003
 30
0.0
 10
298.2067207935672
 20
299.5963766262108
 30
0.0
 10
298.249446881235
 20
300.6015840778713
 30
0.0
 10
298.2589567000148
 20
301.3094686913557
 30
0.0
 10
298.2589593691583
 20
301.6833110196802
 30
0.0
 11
296.3844300081936
 21
293.9803535124186
 31
0.0
 11
296.5357950669904
 21
294.0218384978304
 31
0.0
 11
296.6843071252166
 21
294.0960019475721
 31
0.0
 11
296.8314590715006
 21
294.2061249828423
 31
0.0
 11
296.9806765893265
 21
294.3599505541523
 31
0.0
 11
297.1324552109231
 21
294.5664731716127
 31
0.0
 11
297.2841106134907
 21
294.8319091586495
 31
0.0
 11
297.4324698362888
 21
295.160264051718
 31
0.0
 11
297.5750589701174
 21
295.5550270633315
 31
0.0
 11
297.7098472051491
 21
296.0196016410884
 31
0.0
 11
297.8350302052133
 21
296.5579739811588
 31
0.0
 11
297.9488295421395
 21
297.1749445819405
 31
0.0
 11
298.0492682178136
 21
297.8762808835459
 31
0.0
 11
298.133943609951
 21
298.6688650304859
 31
0.0
 11
298.1998546795247
 21
299.5608583765863
 31
0.0
 11
298.2431782330502
 21
300.5618950692715
 31
0.0
 11
298.2589593691583
 21
301.6833110196802
 31
0.0
  0
SPLINE
  5
5FE
330
218
100
AcDbEntity
  8
0
  6
Continuous
 62
     7
100
AcDbSpline
210
0.0
220
0.0
230
1.0
 70
     8
 71
     3
 72
    17
 73
    13
 74
    11
 42
0.0000000001
 43
0.0000000001
 44
0.0000000001
 12
-0.9999999999655663
 22
0.0000082986239086
 32
0.0
 13
-0.7071124281931503
 23
0.707101134134847
 33
0.0
 40
0.0
 40
0.0
 40
0.0
 40
0.0
 40
1.266398309503089
 40
2.511485317347387
 40
3.740046437094034
 40
4.957210682609126
 40
6.168449131856117
 40
7.379679421322317
 40
8.596812963230011
 40
9.825312384166942
 40
11.07030065298899
 40
12.3365651164578
 40
12.3365651164578
 40
12.3365651164578
 40
12.3365651164578
 10
-10.48490052483006
 20
359.5905244681174
 30
0.0
 10
-10.90703329464989
 20
359.5905279712385
 30
0.0
 10
-11.74456726675661
 20
359.6216651874369
 30
0.0
 10
-12.98433021182635
 20
359.7637839309442
 30
0.0
 10
-14.19312613183635
 20
359.999519784307
 30
0.0
 10
-15.36848272625936
 20
360.3275894423204
 30
0.0
 10
-16.50834022391233
 20
360.7468541866875
 30
0.0
 10
-17.61078569362032
 20
361.2564099699654
 30
0.0
 10
-18.6738270843614
 20
361.8555374524374
 30
0.0
 10
-19.69520067962045
 20
362.5435763331197
 30
0.0
 10
-20.67225260461293
 20
363.3196780451643
 30
0.0
 10
-21.28643674015731
 20
363.889835995991
 30
0.0
 10
-21.58490051999002
 20
364.1882950087355
 30
0.0
 11
-10.48490052483006
 21
359.5905244681174
 31
0.0
 11
-11.75039817838086
 21
359.6382776582696
 31
0.0
 11
-12.98732123834347
 21
359.780625825927
 31
0.0
 11
-14.1930864521469
 21
360.0161946569185
 31
0.0
 11
-15.36537067047786
 21
360.3436675749017
 31
0.0
 11
-16.50211910590886
 21
360.7618799318204
 31
0.0
 11
-17.60162394226898
 21
361.2699822137884
 31
0.0
 11
-18.66207349190199
 21
361.8673604955495
 31
0.0
 11
-19.68118777823721
 21
362.5533757276179
 31
0.0
 11
-20.65639358533295
 21
363.3273068765654
 31
0.0
 11
-21.58490051999002
 21
364.1882950087355
 31
0.0
  0
SPLINE
  5
5FF
330
218
100
AcDbEntity
  8
0
  6
Continuous
 62
     7
100
AcDbSpline
210
0.0
220
0.0
230
1.0
 70
     8
 71
     3
 72
    17
 73
    13
 74
    11
 42
0.0000000001
 43
0.0000000001
 44
0.0000000001
 12
-0.7071009129462177
 22
0.7071126493781779
 32
0.0
 13
-0.0000079862563397
 23
0.9999999999681097
 33
0.0
 40
0.0
 40
0.0
 40
0.0
 40
0.0
 40
1.266398306749612
 40
2.511485316457087
 40
3.740046433171995
 40
4.957210682661647
 40
6.168449129865791
 40
7.379679416612153
 40
8.596812957351241
 40
9.825312377787069
 40
11.07030064958955
 40
12.33656511667909
 40
12.33656511667909
 40
12.33656511667909
 40
12.33656511667909
 10
-25.75504486135043
 20
368.358439350096
 30
0.0
 10
-26.05353532763583
 20
368.656934770714
 30
0.0
 10
-26.6237439500151
 20
369.2711780509653
 30
0.0
 10
-27.3998955972037
 20
370.2483159715021
 30
0.0
 10
-28.08795296722868
 20
371.2697541854349
 30
0.0
 10
-28.68707531815127
 20
372.3328370762289
 30
0.0
 10
-29.19661133433246
 20
373.4353029893148
 30
0.0
 10
-29.61584764482163
 20
374.5751600068311
 30
0.0
 10
-29.94388431761275
 20
375.7504908863376
 30
0.0
 10
-30.17958755500398
 20
376.959228040172
 30
0.0
 10
-30.3216808220394
 20
378.1988948665558
 30
0.0
 10
-30.35281203106433
 20
379.0363511895729
 30
0.0
 10
-30.35281540196854
 20
379.458439345256
 30
0.0
 11
-25.75504486135043
 21
368.358439350096
 31
0.0
 11
-26.61612023163463
 21
369.2870479210387
 31
0.0
 11
-27.3901015564679
 21
370.2623399647629
 31
0.0
 11
-28.076133995222
 21
371.2815170398979
 31
0.0
 11
-28.67350580361179
 21
372.3420054805595
 31
0.0
 11
-29.18158753335138
 21
373.4415288008626
 31
0.0
 11
-29.59977228409826
 21
374.5782786949793
 31
0.0
 11
-29.92721311825309
 21
375.7505399952533
 31
0.0
 11
-30.16274972027324
 21
376.9562486396281
 31
0.0
 11
-30.3050724008447
 21
378.193075244905
 31
0.0
 11
-30.35281540196854
 21
379.458439345256
 31
0.0
  0
SPLINE
  5
600
330
218
100
AcDbEntity
  8
0
  6
Continuous
 62
     7
100
AcDbSpline
210
0.0
220
0.0
230
1.0
 70
     8
 71
     3
 72
    18
 73
    14
 74
    12
 42
0.0000000001
 43
0.0000000001
 44
0.0000000001
 12
-0.0000079727488201
 22
0.9999999999682176
 32
0.0
 13
-0.7071013555779731
 23
0.7071122067534919
 33
0.0
 40
0.0
 40
0.0
 40
0.0
 40
0.0
 40
1.490875590279071
 40
2.954865624899536
 40
4.397311258016593
 40
5.823860195149212
 40
7.24049282853866
 40
8.653687867846718
 40
10.07029921138696
 40
11.49679889165947
 40
12.93916208494301
 40
14.40303449580517
 40
15.89376189120384
 40
15.89376189120384
 40
15.89376189120384
 40
15.89376189120384
 10
-30.35281540196854
 20
399.5794638216644
 30
0.0
 10
-30.35281936409408
 20
400.0764223517416
 30
0.0
 10
-30.38628856398997
 20
401.0617404293277
 30
0.0
 10
-30.53857925138273
 20
402.5207475207244
 30
0.0
 10
-30.79050031333262
 20
403.9442047649661
 30
0.0
 10
-31.14036081536847
 20
405.3305246773677
 30
0.0
 10
-31.58681108964041
 20
406.6785646124456
 30
0.0
 10
-32.12898558638141
 20
407.9874496483751
 30
0.0
 10
-32.76652174009478
 20
409.2563114223024
 30
0.0
 10
-33.49940623108059
 20
410.4839185909876
 30
0.0
 10
-34.32777761903242
 20
411.6685090990704
 30
0.0
 10
-35.25170379364412
 20
412.8077690059321
 30
0.0
 10
-35.9247042185047
 20
413.5280933036018
 30
0.0
 10
-36.27606933919924
 20
413.8794638163446
 30
0.0
 11
-30.35281540196854
 21
399.5794638216644
 31
0.0
 11
-30.40412424377658
 21
401.0694562472969
 31
0.0
 11
-30.55666040948708
 21
402.5254780670573
 31
0.0
 11
-30.80846391172924
 21
403.9457753601467
 31
0.0
 11
-31.15781465524662
 21
405.328886320279
 31
0.0
 11
-31.6033321645541
 21
406.6736398913411
 31
0.0
 11
-32.14415257113782
 21
407.979256032076
 31
0.0
 11
-32.78002542374049
 21
409.2451365216839
 31
0.0
 11
-33.51100218276247
 21
410.4701158339938
 31
0.0
 11
-34.33722283848914
 21
411.6523894949495
 31
0.0
 11
-35.2588637322346
 21
412.7897111285517
 31
0.0
 11
-36.27606933919924
 21
413.8794638163446
 31
0.0
  0
SPLINE
  5
601
330
218
100
AcDbEntity
  8
0
  6
Continuous
 62
     7
100
AcDbSpline
210
0.0
220
0.0
230
1.0
 70
     8
 71
     3
 72
    11
 73
     7
 74
     5
 42
0.0000000001
 43
0.0000000001
 44
0.0000000001
 12
-0.7071124989974741
 22
0.7071010633293854
 32
0.0
 13
-0.8653277990693371
 23
0.5012063448898238
 33
0.0
 40
0.0
 40
0.0
 40
0.0
 40
0.0
 40
1.372483470598333
 40
2.721845770105683
 40
4.052281696394329
 40
5.368131613943692
 40
5.368131613943692
 40
5.368131613943692
 40
5.368131613943692
 10
-44.06387603265559
 20
421.6672705025438
 30
0.0
 10
-44.3873761048981
 20
421.9907653430311
 30
0.0
 10
-45.04918241261022
 20
422.6124428199258
 30
0.0
 10
-46.09181953540248
 20
423.4726390292872
 30
0.0
 10
-47.17305025687891
 20
424.2519394390306
 30
0.0
 10
-47.92179652708392
 20
424.7197202040162
 30
0.0
 10
-48.30134369810344
 20
424.9395576465491
 30
0.0
 11
-44.06387603265559
 21
421.6672705025438
 31
0.0
 11
-45.06459715574098
 21
422.6065617837108
 31
0.0
 11
-46.10572978041014
 21
423.4649448410817
 31
0.0
 11
-47.18525145706417
 21
424.2425647376851
 31
0.0
 11
-48.30134369810344
 21
424.9395576465491
 31
0.0
  0
SPLINE
  5
602
330
218
100
AcDbEntity
  8
0
  6
Continuous
 62
     7
100
AcDbSpline
210
0.0
220
0.0
230
1.0
 70
     8
 71
     3
 72
    17
 73
    13
 74
    11
 42
0.0000000001
 43
0.0000000001
 44
0.0000000001
 12
-0.7071124487821851
 22
0.707101113545483
 32
0.0
 13
-0.9999999999657955
 23
0.0000082709755551
 33
0.0
 40
0.0
 40
0.0
 40
0.0
 40
0.0
 40
1.266264015984647
 40
2.511252301678744
 40
3.739751732805451
 40
4.956885276314697
 40
6.168115567826864
 40
7.379354022791849
 40
8.596518267174838
 40
9.825079379634303
 40
11.0701663844172
 40
12.33656511563001
 40
12.33656511563001
 40
12.33656511563001
 40
12.33656511563001
 10
278.7135841639476
 20
420.3417871059311
 30
0.0
 10
278.4151204808984
 20
420.6402460045128
 30
0.0
 10
277.8009364732963
 20
421.2104038797787
 30
0.0
 10
276.8238846736551
 20
421.9865055259746
 30
0.0
 10
275.8025110863615
 20
422.6745444349144
 30
0.0
 10
274.7394697072718
 20
423.273671947309
 30
0.0
 10
273.6370242519643
 20
423.7832277683343
 30
0.0
 10
272.4971667660065
 20
424.2024925529323
 30
0.0
 10
271.3218101760083
 20
424.5305622227179
 30
0.0
 10
270.1130142689768
 20
424.7662981212981
 30
0.0
 10
268.8732511913901
 20
424.9084169114575
 30
0.0
 10
268.0357170791776
 20
424.939554155098
 30
0.0
 10
267.6135841687877
 20
424.9395576465491
 30
0.0
 11
278.7135841639476
 21
420.3417871059311
 31
0.0
 11
277.7850775703763
 21
421.2027749478151
 31
0.0
 11
276.8098717705378
 21
421.9767061330486
 31
0.0
 11
275.7907574914597
 21
422.6627213941454
 31
0.0
 11
274.730307956341
 21
423.2600997049351
 31
0.0
 11
273.6308031344953
 21
423.7682020231888
 31
0.0
 11
272.4940547063213
 21
424.1864144163933
 31
0.0
 11
271.3217704952475
 21
424.5138873561478
 31
0.0
 11
270.1160052959581
 21
424.749456223425
 31
0.0
 11
268.879082243253
 21
424.8918044273682
 31
0.0
 11
267.6135841687877
 21
424.9395576465491
 31
0.0
  0
SPLINE
  5
603
330
218
100
AcDbEntity
  8
0
  6
Continuous
 62
     7
100
AcDbSpline
210
0.0
220
0.0
230
1.0
 70
     8
 71
     3
 72
    17
 73
    13
 74
    11
 42
0.0000000001
 43
0.0000000001
 44
0.0000000001
 12
-0.0000082986239086
 22
0.9999999999655663
 32
0.0
 13
-0.707101134134847
 23
0.7071124281931503
 33
0.0
 40
0.0
 40
0.0
 40
0.0
 40
0.0
 40
1.266398309503414
 40
2.511485317347381
 40
3.740046438485529
 40
4.957210682048178
 40
6.168449131295318
 40
7.379679423805933
 40
8.596812962151618
 40
9.825312383088288
 40
11.07030065759524
 40
12.33656512106384
 40
12.33656512106384
 40
12.33656512106384
 40
12.33656512106384
 10
295.9962176710919
 20
396.556924144245
 30
0.0
 10
295.9962141679708
 20
396.9790569140649
 30
0.0
 10
295.9650769508288
 20
397.8165908859751
 30
0.0
 10
295.8229582114352
 20
399.0563538323738
 30
0.0
 10
295.5872223430758
 20
400.2651497490721
 30
0.0
 10
295.2591526990705
 20
401.4405063467513
 30
0.0
 10
294.8398879540487
 20
402.5803638453795
 30
0.0
 10
294.3303321589172
 20
403.6828093089146
 30
0.0
 10
293.7312046890647
 20
404.7458507064668
 30
0.0
 10
293.0431658029819
 20
405.7672242991608
 30
0.0
 10
292.2670640969192
 20
406.7442762310985
 30
0.0
 10
291.6969061432182
 20
407.3584603668295
 30
0.0
 10
291.3984471304738
 20
407.6569241466621
 30
0.0
 11
295.9962176710919
 21
396.556924144245
 31
0.0
 11
295.9484644809393
 21
397.822421797796
 31
0.0
 11
295.8061163132821
 21
399.0593448577584
 31
0.0
 11
295.5705474750335
 21
400.2651100715617
 31
0.0
 11
295.2430745643072
 21
401.4373942898926
 31
0.0
 11
294.8248622073889
 21
402.5741427253239
 31
0.0
 11
294.3167599181636
 21
403.6736475616841
 31
0.0
 11
293.7193816436596
 21
404.734097111317
 31
0.0
 11
293.0333664115914
 21
405.7532113976519
 31
0.0
 11
292.2594352626435
 21
406.728417212005
 31
0.0
 11
291.3984471304738
 21
407.6569241466621
 31
0.0
  0
SPLINE
  5
604
330
218
100
AcDbEntity
  8
0
  6
Continuous
 62
     7
100
AcDbSpline
210
0.0
220
0.0
230
1.0
 70
     8
 71
     3
 72
    18
 73
    14
 74
    12
 42
0.0000000001
 43
0.0000000001
 44
0.0000000001
 12
-0.7071013417287937
 22
-0.7071122206024586
 32
0.0
 13
-0.0000079404034855
 23
-0.9999999999684748
 33
0.0
 40
0.0
 40
0.0
 40
0.0
 40
0.0
 40
1.489599839423632
 40
2.952414285967178
 40
4.393773966945067
 40
5.819309808467799
 40
7.234981633016933
 40
8.647245420207678
 40
10.06293853667827
 40
11.48852366766503
 40
12.92996585396992
 40
14.39289803991822
 40
15.8826473665501
 40
15.8826473665501
 40
15.8826473665501
 40
15.8826473665501
 10
-430.076385966422
 20
411.7297546001757
 30
0.0
 10
-430.4274853147871
 20
411.3786498500877
 30
0.0
 10
-431.099989246725
 20
410.6588597737047
 30
0.0
 10
-432.0232508892742
 20
409.5204307408235
 30
0.0
 10
-432.8510507416795
 20
408.3366721712589
 30
0.0
 10
-433.5834442208454
 20
407.1099012787011
 30
0.0
 10
-434.2205594149668
 20
405.8418862602302
 30
0.0
 10
-434.7623751981122
 20
404.5338673723167
 30
0.0
 10
-435.2085244968813
 20
403.1867238707826
 30
0.0
 10
-435.5581409834072
 20
401.8013424891895
 30
0.0
 10
-435.8098780261517
 20
400.3788775976336
 30
0.0
 10
-435.962051231331
 20
398.9209274395518
 30
0.0
 10
-435.9954938229271
 20
397.936337716125
 30
0.0
 10
-435.9954977659973
 20
397.4397546072634
 30
0.0
 11
-430.076385966422
 21
411.7297546001757
 31
0.0
 11
-431.0928243482439
 21
410.6408282034114
 31
0.0
 11
-432.0138047694184
 21
409.5043330785517
 31
0.0
 11
-432.8394574376024
 21
408.3228867609099
 31
0.0
 11
-433.5699463424531
 21
407.0987387325425
 31
0.0
 11
-434.2054010384846
 21
405.8336995852772
 31
0.0
 11
-434.7458651193541
 21
404.5289438296277
 31
0.0
 11
-435.1910834964904
 21
403.1850808914223
 31
0.0
 11
-435.540191517608
 21
401.8029026991178
 31
0.0
 11
-435.7918117407073
 21
400.3835920073428
 31
0.0
 11
-435.9442306092176
 21
398.9286215371251
 31
0.0
 11
-435.9954977659973
 21
397.4397546072634
 31
0.0
  0
SPLINE
  5
605
330
218
100
AcDbEntity
  8
0
  6
Continuous
 62
     7
100
AcDbSpline
210
0.0
220
0.0
230
1.0
 70
     8
 71
     3
 72
    18
 73
    14
 74
    12
 42
0.0000000001
 43
0.0000000001
 44
0.0000000001
 12
0.000007692751357
 22
-0.9999999999704108
 32
0.0
 13
0.707101166726014
 23
-0.7071123956025024
 33
0.0
 40
0.0
 40
0.0
 40
0.0
 40
0.0
 40
1.489599843277554
 40
2.952414285811167
 40
4.393773972536294
 40
5.819309814626513
 40
7.234981636379994
 40
8.647245423922042
 40
10.06293853924897
 40
11.48852366856294
 40
12.92996585400983
 40
14.39289804927844
 40
15.88264736872085
 40
15.88264736872085
 40
15.88264736872085
 40
15.88264736872085
 10
-435.9954977659973
 20
39.09032765031728
 30
0.0
 10
-435.9954939462902
 20
38.59379436923946
 30
0.0
 10
-435.9620575939434
 20
37.60929383476188
 30
0.0
 10
-435.8099112839018
 20
36.15145837437446
 30
0.0
 10
-435.55821045796
 20
34.72907177295712
 30
0.0
 10
-435.2086328313675
 20
33.34373336036064
 30
0.0
 10
-434.7625192864848
 20
31.99660286924207
 30
0.0
 10
-434.2207318842343
 20
30.68857222668438
 30
0.0
 10
-433.5836327689624
 20
29.42052273028932
 30
0.0
 10
-432.8512363943254
 20
28.19369396968652
 30
0.0
 10
-432.0234067757901
 20
27.00985443857273
 30
0.0
 10
-431.1000830480661
 20
25.8713252814756
 30
0.0
 10
-430.427520460391
 20
25.15146772744431
 30
0.0
 10
-430.076385966422
 20
24.80032765740494
 30
0.0
 11
-435.9954977659973
 21
39.09032765031728
 31
0.0
 11
-435.9442410014462
 21
37.60160993456985
 31
0.0
 11
-435.7918491004787
 21
36.14675502709474
 31
0.0
 11
-435.5402649961793
 21
34.72752171823384
 31
0.0
 11
-435.1911952782617
 21
33.34538468844381
 31
0.0
 11
-434.7460118442683
 21
32.00153260692417
 31
0.0
 11
-434.2055760227132
 21
30.69676514550334
 31
0.0
 11
-433.5701383591959
 21
29.43169361686639
 31
0.0
 11
-432.8396474368595
 21
28.20748939644182
 31
0.0
 11
-432.0139655804469
 21
27.02596282205728
 31
0.0
 11
-431.0929225083581
 21
25.88936690999763
 31
0.0
 11
-430.076385966422
 21
24.80032765740494
 31
0.0
  0
SPLINE
  5
606
330
218
100
AcDbEntity
  8
0
  6
Continuous
 62
     7
100
AcDbSpline
210
0.0
220
0.0
230
1.0
 70
     8
 71
     3
 72
    18
 73
    14
 74
    12
 42
0.0000000001
 43
0.0000000001
 44
0.0000000001
 12
0.7071122206024586
 22
-0.7071013417287937
 32
0.0
 13
0.9999999999684748
 23
-0.0000079404034855
 33
0.0
 40
0.0
 40
0.0
 40
0.0
 40
0.0
 40
1.489599849680729
 40
2.95241429058599
 40
4.393773971564047
 40
5.819309813086768
 40
7.234981637636093
 40
8.647245424826987
 40
10.06293854129723
 40
11.48852367228381
 40
12.92996585732206
 40
14.39289805124446
 40
15.88264737787623
 40
15.88264737787623
 40
15.88264737787623
 40
15.88264737787623
 10
-404.1430122041096
 20
-1.133046104907604
 30
0.0
 10
-403.791907451604
 20
-1.484145455690355
 30
0.0
 10
-403.0721173733642
 20
-2.156649387716443
 30
0.0
 10
-401.9336883442761
 20
-3.07991103740959
 30
0.0
 10
-400.7499297749131
 20
-3.907710887072548
 30
0.0
 10
-399.5231588827114
 20
-4.64010436669602
 30
0.0
 10
-398.2551438641343
 20
-5.277219560625012
 30
0.0
 10
-396.9471249762922
 20
-5.819035344086394
 30
0.0
 10
-395.5999814745774
 20
-6.265184641778529
 30
0.0
 10
-394.2146000940531
 20
-6.614801132234696
 30
0.0
 10
-392.7921351978083
 20
-6.86653816010925
 30
0.0
 10
-391.3341850392876
 20
-7.018711380263178
 30
0.0
 10
-390.3495953128015
 20
-7.052153968669847
 30
0.0
 10
-389.8530122039399
 20
-7.052157911740096
 30
0.0
 11
-404.1430122041096
 21
-1.133046104907604
 31
0.0
 11
-403.0540858000881
 21
-2.149484493986622
 31
0.0
 11
-401.9175906824855
 21
-3.070464915161036
 31
0.0
 11
-400.7361443648438
 21
-3.896117583345363
 31
0.0
 11
-399.5119963364763
 21
-4.626606488195989
 31
0.0
 11
-398.2469571892108
 21
-5.262061184227578
 31
0.0
 11
-396.9422014335613
 21
-5.802525265097029
 31
0.0
 11
-395.598338495356
 21
-6.247743642233054
 31
0.0
 11
-394.2161603030518
 21
-6.596851663350754
 31
0.0
 11
-392.7968496112766
 21
-6.848471879192963
 31
0.0
 11
-391.3418791338015
 21
-7.000890754960577
 31
0.0
 11
-389.8530122039399
 21
-7.052157911740096
 31
0.0
  0
LINE
  5
607
330
218
100
AcDbEntity
  8
0
  6
Continuous
 62
     7
100
AcDbLine
 10
294.1313700353806
 20
294.3696197971199
 30
0.0
 11
296.2598441040721
 21
294.7208597853795
 31
0.0
  0
SPLINE
  5
608
330
218
100
AcDbEntity
  8
0
  6
Continuous
 62
     7
100
AcDbSpline
210
0.0
220
0.0
230
1.0
 70
     8
 71
     3
 72
    17
 73
    13
 74
    11
 42
0.0000000001
 43
0.0000000001
 44
0.0000000001
 12
0.6897349488203628
 22
-0.7240619451233239
 32
0.0
 13
0.024272584367538
 23
-0.9997053774228287
 33
0.0
 40
0.0
 40
0.0
 40
0.0
 40
0.0
 40
1.437822595506343
 40
2.855524933768227
 40
4.257670227414257
 40
5.64902817742195
 40
7.034724525773129
 40
8.420373107266922
 40
9.811556655160071
 40
11.21335568255111
 40
12.63050809935988
 40
14.06755888173637
 40
14.06755888173637
 40
14.06755888173637
 40
14.06755888173637
 10
-40.00161457719466
 20
411.3991269151082
 30
0.0
 10
-39.67104241241988
 20
411.0521027066933
 30
0.0
 10
-39.03866251030763
 20
410.3393984911233
 30
0.0
 10
-38.17555697874608
 20
409.2112682716127
 30
0.0
 10
-37.40625158323677
 20
408.0355599889858
 30
0.0
 10
-36.73165310630326
 20
406.8152532059673
 30
0.0
 10
-36.15248915988968
 20
405.5529053331714
 30
0.0
 10
-35.66955593445312
 20
404.2507660812023
 30
0.0
 10
-35.28385980821513
 20
402.9110122279437
 30
0.0
 10
-34.9966702131462
 20
401.5360077473748
 30
0.0
 10
-34.80941823112556
 20
400.1285340096567
 30
0.0
 10
-34.75266421322704
 20
399.1778561749595
 30
0.0
 10
-34.74103723444182
 20
398.6989803767024
 30
0.0
 11
-40.00161457719466
 21
411.3991269151082
 31
0.0
 11
-39.04777445180477
 21
410.3232445649672
 31
0.0
 11
-38.18668506797783
 21
409.1970096902747
 31
0.0
 11
-37.4192450341707
 21
408.023533137887
 31
0.0
 11
-36.74627500986839
 21
406.8057530709454
 31
0.0
 11
-36.16849624621372
 21
405.5462587001349
 31
0.0
 11
-35.68659717754932
 21
404.2471069464832
 31
0.0
 11
-35.30153147953195
 21
402.9102763393609
 31
0.0
 11
-35.01459856536104
 21
401.5381575340238
 31
0.0
 11
-34.8272603356645
 21
400.1334421321857
 31
0.0
 11
-34.74103723444182
 21
398.6989803767024
 31
0.0
  0
SPLINE
  5
609
330
218
100
AcDbEntity
  8
0
  6
Continuous
 62
     7
100
AcDbSpline
210
0.0
220
0.0
230
1.0
 70
     8
 71
     3
 72
    18
 73
    14
 74
    12
 42
0.0000000001
 43
0.0000000001
 44
0.0000000001
 12
0.0237812723776968
 22
0.9997171855500424
 32
0.0
 13
-0.7237227397834739
 23
0.6900908606265571
 33
0.0
 40
0.0
 40
0.0
 40
0.0
 40
0.0
 40
1.335558846718089
 40
2.643106577347942
 40
3.928328454879438
 40
5.197121327175491
 40
6.455709197983018
 40
7.710775971018827
 40
8.969344828859245
 40
10.23809401999612
 40
11.52324268785515
 40
12.83068554161851
 40
14.16610682013741
 40
14.16610682013741
 40
14.16610682013741
 40
14.16610682013741
 10
-32.61555741934919
 20
399.5793963882931
 30
0.0
 10
-32.60497032311244
 20
400.0244567654188
 30
0.0
 10
-32.61527538001773
 20
400.9063494748767
 30
0.0
 10
-32.72714067009665
 20
402.2121695248118
 30
0.0
 10
-32.93344087544015
 20
403.4839874790671
 30
0.0
 10
-33.23263052021561
 20
404.7204256907684
 30
0.0
 10
-33.6234686453033
 20
405.9204691176423
 30
0.0
 10
-34.10515771792646
 20
407.0833310683544
 30
0.0
 10
-34.67736821728333
 20
408.2082225708598
 30
0.0
 10
-35.34010143397788
 20
409.2940231749445
 30
0.0
 10
-36.09350996057901
 20
410.3391380931856
 30
0.0
 10
-36.93770619161116
 20
411.3415033017036
 30
0.0
 10
-37.55395727459796
 20
411.9723222258158
 30
0.0
 10
-37.87611552341625
 20
412.2795095656131
 30
0.0
 11
-32.61555741934919
 21
399.5793963882931
 31
0.0
 11
-32.631971022714
 21
400.9148543721591
 31
0.0
 11
-32.74422687421202
 21
402.2175744847235
 31
0.0
 11
-32.9505194257294
 21
403.4861321923876
 31
0.0
 11
-33.24926329635289
 21
404.7192532134371
 31
0.0
 11
-33.63918622911118
 21
405.9159167146157
 31
0.0
 11
-34.11949298629048
 21
407.0754416275806
 31
0.0
 11
-34.68996142674789
 21
408.1972978253029
 31
0.0
 11
-35.35066510888359
 21
409.2804391616126
 31
0.0
 11
-36.10177427075476
 21
410.3232440932528
 31
0.0
 11
-36.94350283116071
 21
411.3236939153098
 31
0.0
 11
-37.87611552341625
 21
412.2795095656131
 31
0.0
  0
SPLINE
  5
60A
330
218
100
AcDbEntity
  8
0
  6
Continuous
 62
     7
100
AcDbSpline
210
0.0
220
0.0
230
1.0
 70
     8
 71
     3
 72
    18
 73
    14
 74
    12
 42
0.0000000001
 43
0.0000000001
 44
0.0000000001
 12
0.6901973577460359
 22
-0.7236211766942635
 32
0.0
 13
0.9997206740503548
 23
0.0236341675610491
 33
0.0
 40
0.0
 40
0.0
 40
0.0
 40
0.0
 40
1.335272149397947
 40
2.64263720254407
 40
3.927763766265655
 40
5.196531055983607
 40
6.455142369380621
 40
7.710259807871366
 40
8.968890151371397
 40
10.23770118370676
 40
11.52290106263349
 40
12.83037117373449
 40
14.16578161639399
 40
14.16578161639399
 40
14.16578161639399
 40
14.16578161639399
 10
-402.5530581293169
 20
0.4570002371991602
 30
0.0
 10
-402.2458576928548
 20
0.1349231692143532
 30
0.0
 10
-401.615009577674
 20
-0.4811887489557911
 30
0.0
 10
-400.6126156053873
 20
-1.325220565548239
 30
0.0
 10
-399.5674607662845
 20
-2.078525506314531
 30
0.0
 10
-398.4816129586905
 20
-2.741204283626833
 30
0.0
 10
-397.356673157575
 20
-3.313399676374847
 30
0.0
 10
-396.1937702743932
 20
-3.795105772895934
 30
0.0
 10
-394.9937033814038
 20
-4.185988825281359
 30
0.0
 10
-393.7572702636037
 20
-4.485250505629304
 30
0.0
 10
-392.4854972246587
 20
-4.691652271160816
 30
0.0
 10
-391.1797727726611
 20
-4.803654324434728
 30
0.0
 10
-390.2979575222964
 20
-4.814078479094236
 30
0.0
 10
-389.8529450463399
 20
-4.803558041039373
 30
0.0
 11
-402.5530581293169
 21
0.4570002371991602
 31
0.0
 11
-401.5972232911279
 21
-0.4753792322562381
 31
0.0
 11
-400.5967410151281
 21
-1.316948360491207
 31
0.0
 11
-399.5538919165166
 21
-2.067958375276574
 31
0.0
 11
-398.4706985102071
 21
-2.728611446098005
 31
0.0
 11
-397.3487886168845
 21
-3.299067955812672
 31
0.0
 11
-396.1892169171197
 21
-3.779394154877586
 31
0.0
 11
-394.9925239011413
 21
-4.169363598664444
 31
0.0
 11
-393.7594018205488
 21
-4.468180214887897
 31
0.0
 11
-392.4908829023132
 21
-4.674574214005321
 31
0.0
 11
-391.1882524082059
 21
-4.786965882931838
 31
0.0
 11
-389.8529450463399
 21
-4.803558041039373
 31
0.0
  0
SPLINE
  5
60B
330
218
100
AcDbEntity
  8
0
  6
Continuous
 62
     7
100
AcDbSpline
210
0.0
220
0.0
230
1.0
 70
     8
 71
     3
 72
    17
 73
    13
 74
    11
 42
0.0000000001
 43
0.0000000001
 44
0.0000000001
 12
-0.9997053772506161
 22
0.0242725914603936
 32
0.0
 13
-0.7240619430256011
 23
0.689734951022486
 33
0.0
 40
0.0
 40
0.0
 40
0.0
 40
0.0
 40
1.437050548824546
 40
2.854202982417017
 40
4.256002032279849
 40
5.64718559305919
 40
7.032834196721739
 40
8.418530552757717
 40
9.809888521152267
 40
11.21203382110296
 40
12.62973616784445
 40
14.06755895984704
 40
14.06755895984704
 40
14.06755895984704
 40
14.06755895984704
 10
-387.3132478588987
 20
1.327779633936611
 30
0.0
 10
-387.7921235792456
 20
1.339406614229796
 30
0.0
 10
-388.742801341502
 20
1.39616061511013
 30
0.0
 10
-390.150275020947
 20
1.583412545479471
 30
0.0
 10
-391.525279524788
 20
1.870602113786185
 30
0.0
 10
-392.8650334077856
 20
2.256298207369324
 30
0.0
 10
-394.1671726780994
 20
2.739231423935502
 30
0.0
 10
-395.4295205840154
 20
3.318395336450458
 30
0.0
 10
-396.6498273864381
 20
3.992993801053133
 30
0.0
 10
-397.8255356978883
 20
4.76229917274688
 30
0.0
 10
-398.9536659844882
 20
5.625404732375549
 30
0.0
 10
-399.6663702658411
 20
6.257784664082509
 30
0.0
 10
-400.0133945206757
 20
6.588356875089484
 30
0.0
 11
-387.3132478588987
 21
1.327779633936611
 31
0.0
 11
-388.7477093821535
 21
1.414002706130669
 31
0.0
 11
-390.152424805763
 21
1.601340899541623
 31
0.0
 11
-391.5245436401285
 21
1.888273784683724
 31
0.0
 11
-392.8613742690223
 21
2.273339453672793
 31
0.0
 11
-394.1605260517026
 21
2.755238507822779
 31
0.0
 11
-395.4200204442845
 21
3.333017242448817
 31
0.0
 11
-396.6378005402546
 21
4.005987252236899
 31
0.0
 11
-397.8112771144137
 21
4.773427264272689
 31
0.0
 11
-398.9375120108776
 21
5.634516633585384
 31
0.0
 11
-400.0133945206757
 21
6.588356875089484
 31
0.0
  0
SPLINE
  5
60C
330
218
100
AcDbEntity
  8
0
  6
Continuous
 62
     7
100
AcDbSpline
210
0.0
220
0.0
230
1.0
 70
     8
 71
     3
 72
    18
 73
    14
 74
    12
 42
0.0000000001
 43
0.0000000001
 44
0.0000000001
 12
0.999720673081428
 22
-0.0236342085464383
 32
0.0
 13
0.6901973879014751
 23
0.7236211479316929
 33
0.0
 40
0.0
 40
0.0
 40
0.0
 40
0.0
 40
1.335272150389315
 40
2.642637200405999
 40
3.927763760479921
 40
5.196531052198773
 40
6.455142369950813
 40
7.710259801149415
 40
8.968890152226034
 40
10.2377011806972
 40
11.52290105963921
 40
12.8303711729053
 40
14.16578161912301
 40
14.16578161912301
 40
14.16578161912301
 40
14.16578161912301
 10
256.4963493882633
 20
-4.803558048296491
 30
0.0
 10
256.9413157792413
 20
-4.814077415119341
 30
0.0
 10
257.8230496738829
 20
-4.803657356533692
 30
0.0
 10
259.1286698689994
 20
-4.691678405880617
 30
0.0
 10
260.4003729716106
 20
-4.485309353491816
 30
0.0
 10
261.6367679790566
 20
-4.186083667975763
 30
0.0
 10
262.8368237809287
 20
-3.795234342089856
 30
0.0
 10
263.9997379460004
 20
-3.313555479532158
 30
0.0
 10
265.1247094429712
 20
-2.741376104063114
 30
0.0
 10
266.21060964276
 20
-2.078695814420506
 30
0.0
 10
267.2558370815458
 20
-1.325364578095439
 30
0.0
 10
268.2583210961325
 20
-0.481275358573884
 30
0.0
 10
268.8892296379312
 20
0.1348911881915522
 30
0.0
 10
269.1964619051832
 20
0.4570016015422312
 30
0.0
 11
256.4963493882633
 21
-4.803558048296491
 31
0.0
 11
257.8315185305862
 21
-4.786972603045915
 31
0.0
 11
259.1340455668652
 21
-4.674604040862291
 31
0.0
 11
260.402495505958
 21
-4.468242640830688
 31
0.0
 11
261.6355811774647
 21
-4.169461504778675
 31
0.0
 11
262.832264940586
 21
-3.779525073734668
 31
0.0
 11
263.9918478598938
 21
-3.299225980098187
 31
0.0
 11
265.1137876526448
 21
-2.728786270669365
 31
0.0
 11
266.1970318879828
 21
-2.068132539447915
 31
0.0
 11
267.2399528177944
 21
-1.317096812605494
 31
0.0
 11
268.2405245816226
 21
-0.4754708609418943
 31
0.0
 11
269.1964619051832
 21
0.4570016015422312
 31
0.0
  0
SPLINE
  5
60D
330
218
100
AcDbEntity
  8
0
  6
Continuous
 62
     7
100
AcDbSpline
210
0.0
220
0.0
230
1.0
 70
     8
 71
     3
 72
    17
 73
    13
 74
    11
 42
0.0000000001
 43
0.0000000001
 44
0.0000000001
 12
-0.7240617655945771
 22
-0.689735137283917
 32
0.0
 13
-0.9997053710004514
 23
-0.0242728488820208
 33
0.0
 40
0.0
 40
0.0
 40
0.0
 40
0.0
 40
1.437050549208568
 40
2.854202985646472
 40
4.25600203307011
 40
5.647185597314066
 40
7.032834197862722
 40
8.418530558438613
 40
9.80988852056547
 40
11.21203382297117
 40
12.62973616904059
 40
14.06755896145894
 40
14.06755896145894
 40
14.06755896145894
 40
14.06755896145894
 10
266.6567885574563
 20
6.588349153489701
 30
0.0
 10
266.3099507714867
 20
6.257954400875601
 30
0.0
 10
265.5975889446182
 20
5.625854840763389
 30
0.0
 10
264.4699476490651
 20
4.763027769973697
 30
0.0
 10
263.2945989445234
 20
3.993826457002624
 30
0.0
 10
262.0745215662118
 20
3.319205725234482
 30
0.0
 10
260.8122847083842
 20
2.739939559655573
 30
0.0
 10
259.5101392134585
 20
2.256855530612189
 30
0.0
 10
258.1702388495689
 20
1.870981463264346
 30
0.0
 10
256.7949064860585
 20
1.583611190704522
 30
0.0
 10
255.386890116441
 20
1.396210399170796
 30
0.0
 10
254.4357719472643
 20
1.339412521265929
 30
0.0
 10
253.9566388912219
 20
1.32777916947943
 30
0.0
 11
266.6567885574563
 21
6.588349153489701
 31
0.0
 11
265.5815021711436
 21
5.635000597928138
 31
0.0
 11
264.455750259308
 21
4.774184902729471
 31
0.0
 11
263.2826235374915
 21
4.006842564579159
 31
0.0
 11
262.0650589859215
 21
3.333843105305547
 31
0.0
 11
260.8056658667681
 21
2.755958155136817
 31
0.0
 11
259.5065175747734
 21
2.273912390586729
 31
0.0
 11
258.1695553593653
 21
1.888673486340683
 31
0.0
 11
256.7971200772859
 21
1.601562278684291
 31
0.0
 11
255.3918696135621
 21
1.414076075845037
 31
0.0
 11
253.9566388912219
 21
1.32777916947943
 31
0.0
  0
SPLINE
  5
60E
330
218
100
AcDbEntity
  8
0
  6
Continuous
 62
     7
100
AcDbSpline
210
0.0
220
0.0
230
1.0
 70
     8
 71
     3
 72
    18
 73
    14
 74
    12
 42
0.0000000001
 43
0.0000000001
 44
0.0000000001
 12
0.7236211766942635
 22
0.6901973577460359
 32
0.0
 13
-0.0236341675610491
 23
0.9997206740503548
 33
0.0
 40
0.0
 40
0.0
 40
0.0
 40
0.0
 40
1.335272144203186
 40
2.642637197349229
 40
3.927763761070749
 40
5.196531050788848
 40
6.455142370654717
 40
7.710259802440758
 40
8.968890155089344
 40
10.23770117866257
 40
11.52290105875445
 40
12.83037116923187
 40
14.16578161914791
 40
14.16578161914791
 40
14.16578161914791
 40
14.16578161914791
 10
295.1297420430956
 20
26.39028173219738
 30
0.0
 10
295.4518191098274
 20
26.69748216746436
 30
0.0
 10
296.0679310320125
 20
27.32833027629418
 30
0.0
 10
296.9119628454904
 20
28.33072424925112
 30
0.0
 10
297.6652677864236
 20
29.37587908801775
 30
0.0
 10
298.327946566116
 20
30.46172689686561
 30
0.0
 10
298.9001419534824
 20
31.58666670068676
 30
0.0
 10
299.381848053912
 20
32.74956958496153
 30
0.0
 10
299.7727311152299
 20
33.9496364734049
 30
0.0
 10
300.0719927810436
 20
35.18606959494377
 30
0.0
 10
300.2783945645297
 20
36.45784262819562
 30
0.0
 10
300.3903966010926
 20
37.76356708463876
 30
0.0
 10
300.4008207594463
 20
38.64538233679977
 30
0.0
 10
300.3903003213343
 20
39.09039481517442
 30
0.0
 11
295.1297420430956
 21
26.39028173219738
 31
0.0
 11
296.0621215125511
 21
27.34611656312936
 31
0.0
 11
296.9036906407859
 21
28.3465988391291
 31
0.0
 11
297.6547006555713
 21
29.38944793774057
 31
0.0
 11
298.3153537263929
 21
30.47264134405018
 31
0.0
 11
298.8858102361074
 21
31.59455124462992
 31
0.0
 11
299.3661364351725
 21
32.75412293713749
 31
0.0
 11
299.7561058862164
 21
33.95081596037314
 31
0.0
 11
300.0549224951826
 21
35.18393803370848
 31
0.0
 11
300.2613165015572
 21
36.45245695194377
 31
0.0
 11
300.3737081632266
 21
37.75508744605138
 31
0.0
 11
300.3903003213343
 21
39.09039481517442
 31
0.0
  0
SPLINE
  5
60F
330
218
100
AcDbEntity
  8
0
  6
Continuous
 62
     7
100
AcDbSpline
210
0.0
220
0.0
230
1.0
 70
     8
 71
     3
 72
    17
 73
    13
 74
    11
 42
0.0000000001
 43
0.0000000001
 44
0.0000000001
 12
-0.0242725914603936
 22
-0.9997053772506161
 32
0.0
 13
-0.689734951022486
 23
-0.7240619430256011
 33
0.0
 40
0.0
 40
0.0
 40
0.0
 40
0.0
 40
1.437050548389166
 40
2.854202982940994
 40
4.256002025700293
 40
5.647185593453237
 40
7.032834194591845
 40
8.418530553653891
 40
9.809888515696371
 40
11.21203381564726
 40
12.62973616374602
 40
14.06755895513279
 40
14.06755895513279
 40
14.06755895513279
 40
14.06755895513279
 10
294.2589626463583
 20
41.63009199535849
 30
0.0
 10
294.2473356660687
 20
41.15121627515663
 30
0.0
 10
294.1905816783754
 20
40.20053851174411
 30
0.0
 10
294.0033297322852
 20
38.79306483627416
 30
0.0
 10
293.716140165834
 20
37.41806033208405
 30
0.0
 10
293.3304440716522
 20
36.07830645037912
 30
0.0
 10
292.8475108670573
 20
34.77616717273907
 30
0.0
 10
292.2683469432848
 20
33.51381927387125
 30
0.0
 10
291.593748478787
 20
32.29351247274848
 30
0.0
 10
290.8244431034826
 20
31.11780416627425
 30
0.0
 10
289.961337562299
 20
29.98967386472391
 30
0.0
 10
289.3289576160705
 20
29.27696959552457
 30
0.0
 10
288.9983854052051
 20
28.92994534083857
 30
0.0
 11
294.2589626463583
 21
41.63009199535849
 31
0.0
 11
294.1727395814211
 21
40.19563047210371
 31
0.0
 11
293.9854013807533
 21
38.79091504849411
 31
0.0
 11
293.6984684956109
 21
37.41879622138592
 31
0.0
 11
293.3134028266221
 21
36.08196558523486
 31
0.0
 11
292.8315037797291
 21
34.78281380255473
 31
0.0
 11
292.2537250378459
 21
33.52331940997264
 31
0.0
 11
291.580755028058
 21
32.30553932125995
 31
0.0
 11
290.8133150160221
 21
31.13206274710067
 31
0.0
 11
289.9522256539665
 21
30.00582784337967
 31
0.0
 11
288.9983854052051
 21
28.92994534083857
 31
0.0
  0
SPLINE
  5
610
330
218
100
AcDbEntity
  8
0
  6
Continuous
 62
     7
100
AcDbSpline
210
0.0
220
0.0
230
1.0
 70
     8
 71
     3
 72
    18
 73
    14
 74
    12
 42
0.0000000001
 43
0.0000000001
 44
0.0000000001
 12
0.0236341594051263
 22
0.9997206742431673
 32
0.0
 13
-0.7236211827168236
 23
0.6901973514318243
 33
0.0
 40
0.0
 40
0.0
 40
0.0
 40
0.0
 40
1.335410217435008
 40
2.642880332023396
 40
3.928080213451097
 40
5.196891244293778
 40
6.455521592599812
 40
7.7106390239088
 40
8.96925033379766
 40
10.23801761701281
 40
11.52314417130748
 40
12.83050920664972
 40
14.16578159753192
 40
14.16578159753192
 40
14.16578159753192
 40
14.16578159753192
 10
300.3903003213343
 20
397.4396871956633
 30
0.0
 10
300.4008207539843
 20
397.8846995966518
 30
0.0
 10
300.3903966163181
 20
398.7665147719795
 30
0.0
 10
300.2783946218307
 20
400.0722391561867
 30
0.0
 10
300.0719928767764
 20
401.344012200034
 30
0.0
 10
299.7727312380783
 20
402.5804453296852
 30
0.0
 10
299.3818482127932
 20
403.7805122303926
 30
0.0
 10
298.9001421520353
 20
404.9434151259204
 30
0.0
 10
298.3279467972005
 20
406.0683549400186
 30
0.0
 10
297.6652680556648
 20
407.1542027616918
 30
0.0
 10
296.9119631546115
 20
408.199357616012
 30
0.0
 10
296.0679313121419
 20
409.2017516593891
 30
0.0
 10
295.4518193606944
 20
409.8325998474887
 30
0.0
 10
295.1297422317813
 20
410.1398003366977
 30
0.0
 11
300.3903003213343
 21
397.4396871956633
 31
0.0
 11
300.373708184998
 21
398.7749943325579
 31
0.0
 11
300.2613165596143
 21
400.0776248339224
 31
0.0
 11
300.0549225895253
 21
401.3461437594149
 31
0.0
 11
299.7561060095879
 21
402.5792658472646
 31
0.0
 11
299.3661365948296
 21
403.7759588777573
 31
0.0
 11
298.8858104320503
 21
404.9355305847791
 31
0.0
 11
298.3153539586215
 21
406.0574404926163
 31
0.0
 11
297.6547009240856
 21
407.14063391344
 31
0.0
 11
296.903690945586
 21
408.1834830265659
 31
0.0
 11
296.0621218536367
 21
409.1839653098228
 31
0.0
 11
295.1297422317813
 21
410.1398003366977
 31
0.0
  0
SPLINE
  5
611
330
218
100
AcDbEntity
  8
0
  6
Continuous
 62
     7
100
AcDbSpline
210
0.0
220
0.0
230
1.0
 70
     8
 71
     3
 72
    17
 73
    13
 74
    11
 42
0.0000000001
 43
0.0000000001
 44
0.0000000001
 12
-0.0242725766359561
 22
0.9997053776105497
 32
0.0
 13
-0.6897352171361135
 23
0.724061689528039
 33
0.0
 40
0.0
 40
0.0
 40
0.0
 40
0.0
 40
1.437523779988956
 40
2.855007042572192
 40
4.257010331507738
 40
5.648294272378226
 40
7.033967877658869
 40
8.419631548863002
 40
9.810879470300715
 40
11.21281128249497
 40
12.63018113505402
 40
14.06754632167691
 40
14.06754632167691
 40
14.06754632167691
 40
14.06754632167691
 10
298.2589626856725
 20
396.5568435609307
 30
0.0
 10
298.2473318836339
 20
397.0358769786967
 30
0.0
 10
298.1905507735175
 20
397.9868225623604
 30
0.0
 10
298.0032081138208
 20
399.3946241063274
 30
0.0
 10
297.7159094236959
 20
400.7698228292171
 30
0.0
 10
297.3301068001116
 20
402.1096606979154
 30
0.0
 10
296.8470839735791
 20
403.4117997724707
 30
0.0
 10
296.2678603263969
 20
404.6740769804871
 30
0.0
 10
295.5932510669344
 20
405.8942417496949
 30
0.0
 10
294.8240111535818
 20
407.0697308106156
 30
0.0
 10
293.9610737935467
 20
408.1975674668259
 30
0.0
 10
293.3288617690191
 20
408.9100674482667
 30
0.0
 10
292.9983946393194
 20
409.256981136765
 30
0.0
 11
298.2589626856725
 21
396.5568435609307
 31
0.0
 11
298.172694132964
 21
397.9917764356141
 31
0.0
 11
297.9852658711535
 21
399.3968136046521
 31
0.0
 11
297.6982255875539
 21
400.7691186355315
 31
0.0
 11
297.3130563446222
 21
402.1060238896253
 31
0.0
 11
296.8310700305863
 21
403.4051699681914
 31
0.0
 11
296.253229036932
 21
404.6645998375161
 31
0.0
 11
295.5802440919439
 21
405.8822459448578
 31
0.0
 11
294.8128663026511
 21
407.0555081212456
 31
0.0
 11
293.9519433178522
 21
408.1814516869664
 31
0.0
 11
292.9983946393194
 21
409.256981136765
 31
0.0
  0
SPLINE
  5
612
330
218
100
AcDbEntity
  8
0
  6
Continuous
 62
     7
100
AcDbSpline
210
0.0
220
0.0
230
1.0
 70
     8
 71
     3
 72
    18
 73
    14
 74
    12
 42
0.0000000001
 43
0.0000000001
 44
0.0000000001
 12
-0.6901973577460359
 22
0.7236211766942635
 32
0.0
 13
-0.9997206740503548
 23
-0.0236341675610491
 33
0.0
 40
0.0
 40
0.0
 40
0.0
 40
0.0
 40
1.335272144330779
 40
2.642637197476808
 40
3.927763761198209
 40
5.196531050916101
 40
6.455142364313276
 40
7.710259796099403
 40
8.968890148747803
 40
10.23770117937418
 40
11.52290105946621
 40
12.83037116994366
 40
14.1657816126931
 40
14.1657816126931
 40
14.1657816126931
 40
14.1657816126931
 10
281.1964605499261
 20
424.07308202581
 30
0.0
 10
280.8892601146297
 20
424.3951590925727
 30
0.0
 10
280.25841199536
 20
425.0112710041274
 30
0.0
 10
279.2560180264242
 20
425.8553028217391
 30
0.0
 10
278.2108631867698
 20
426.608607761938
 30
0.0
 10
277.1250153793741
 20
427.2712865394618
 30
0.0
 10
276.0000755800025
 20
427.8434819309091
 30
0.0
 10
274.837172696979
 20
428.3251880289127
 30
0.0
 10
273.6371058066526
 20
428.7160710921019
 30
0.0
 10
272.4006726820698
 20
429.0153327552032
 30
0.0
 10
271.1288996467284
 20
429.2217345410381
 30
0.0
 10
269.8231751925561
 20
429.3337365729923
 30
0.0
 10
268.9413599429354
 20
429.344160742104
 30
0.0
 10
268.4963474669489
 20
429.3336403040484
 30
0.0
 11
281.1964605499261
 21
424.07308202581
 31
0.0
 11
280.2406257117368
 21
425.0054614880085
 31
0.0
 11
279.2401434357371
 21
425.8470306162433
 31
0.0
 11
278.1972943371256
 21
426.5980406310285
 31
0.0
 11
277.1141009308162
 21
427.2586937018499
 31
0.0
 11
275.9921910374934
 21
427.8291502115646
 31
0.0
 11
274.8326193449858
 21
428.3094764106299
 31
0.0
 11
273.6359263217504
 21
428.6994458616736
 31
0.0
 11
272.4028042411577
 21
428.9982624706398
 31
0.0
 11
271.1342853229222
 21
429.2046564770145
 31
0.0
 11
269.8316548288147
 21
429.3170481386839
 31
0.0
 11
268.4963474669489
 21
429.3336403040484
 31
0.0
  0
SPLINE
  5
613
330
218
100
AcDbEntity
  8
0
  6
Continuous
 62
     7
100
AcDbSpline
210
0.0
220
0.0
230
1.0
 70
     8
 71
     3
 72
    17
 73
    13
 74
    11
 42
0.0000000001
 43
0.0000000001
 44
0.0000000001
 12
-0.7240616945463899
 22
0.6897352118680116
 32
0.0
 13
-0.9997053777738916
 23
0.0242725699084524
 33
0.0
 40
0.0
 40
0.0
 40
0.0
 40
0.0
 40
1.437364943717965
 40
2.854734806787124
 40
4.256666626696379
 40
5.647914559334982
 40
7.033578229452233
 40
8.419251831222366
 40
9.81053577516492
 40
11.21253905732265
 40
12.63002232470364
 40
14.06754633868006
 40
14.06754633868006
 40
14.06754633868006
 40
14.06754633868006
 10
280.3136413499935
 20
421.9417344406054
 30
0.0
 10
279.9667277177169
 20
422.2722015119344
 30
0.0
 10
279.2542278101661
 20
422.9044135015622
 30
0.0
 10
278.1263912349225
 20
423.7673508445991
 30
0.0
 10
276.9509021877381
 20
424.5365907966534
 30
0.0
 10
275.7307374301577
 20
425.2112000897591
 30
0.0
 10
274.4684602336191
 20
425.7904237673508
 30
0.0
 10
273.16632117037
 20
426.2734466227258
 30
0.0
 10
271.8264833146138
 20
426.6592492818205
 30
0.0
 10
270.451284599372
 20
426.9465480114964
 30
0.0
 10
269.0434829833249
 20
427.1338907135989
 30
0.0
 10
268.0925373207763
 20
427.1906718531645
 30
0.0
 10
267.6135038249591
 20
427.2023026538725
 30
0.0
 11
280.3136413499935
 21
421.9417344406054
 31
0.0
 11
279.2381120961379
 21
422.8952829739953
 31
0.0
 11
278.1121685449313
 21
423.7562059950796
 31
0.0
 11
276.9389063830577
 21
424.5235838206582
 31
0.0
 11
275.7212602829731
 21
425.1965688019321
 31
0.0
 11
274.4618304281629
 21
425.7744098246152
 31
0.0
 11
273.1626843641107
 21
426.2563961676794
 31
0.0
 11
271.8257791172741
 21
426.641565446897
 31
0.0
 11
270.4534741009088
 21
426.9286057667822
 31
0.0
 11
269.048436931871
 21
427.1160340648785
 31
0.0
 11
267.6135038249591
 21
427.2023026538725
 31
0.0
  0
SPLINE
  5
614
330
218
100
AcDbEntity
  8
0
  6
Continuous
 62
     7
100
AcDbSpline
210
0.0
220
0.0
230
1.0
 70
     8
 71
     3
 72
    11
 73
     7
 74
     5
 42
0.0000000001
 43
0.0000000001
 44
0.0000000001
 12
0.9021354302394486
 22
-0.4314529702142339
 32
0.0
 13
0.86085535066196
 23
-0.5088497472109754
 33
0.0
 40
0.0
 40
0.0
 40
0.0
 40
0.0
 40
1.608429962133751
 40
3.187186756652364
 40
4.724078160094135
 40
6.198542843935982
 40
6.198542843935982
 40
6.198542843935982
 40
6.198542843935982
 10
-54.84328818622955
 20
426.0037890457234
 30
0.0
 10
-54.3596143009297
 20
425.772468417542
 30
0.0
 10
-53.40872541784882
 20
425.2982158502205
 30
0.0
 10
-52.01920137757551
 20
424.5570478736518
 30
0.0
 10
-50.68513241196153
 20
423.8076727580764
 30
0.0
 10
-49.81810784305316
 20
423.3017862639667
 30
0.0
 10
-49.39500757223737
 20
423.0516926034185
 30
0.0
 11
-54.84328818622955
 21
426.0037890457234
 31
0.0
 11
-53.40329046446268
 21
425.287232345667
 31
0.0
 11
-52.00968467427731
 21
424.5453860557925
 31
0.0
 11
-50.66912330789915
 21
423.7937675295789
 31
0.0
 11
-49.39500757223737
 21
423.0516926034185
 31
0.0
  0
SPLINE
  5
615
330
218
100
AcDbEntity
  8
0
  6
Continuous
 62
     7
100
AcDbSpline
210
0.0
220
0.0
230
1.0
 70
     8
 71
     3
 72
    11
 73
     7
 74
     5
 42
0.0000000001
 43
0.0000000001
 44
0.0000000001
 12
-0.6900909316837875
 22
0.7237226720283139
 32
0.0
 13
-0.8608485914851179
 23
0.5088611819917968
 33
0.0
 40
0.0
 40
0.0
 40
0.0
 40
0.0
 40
1.229681812889809
 40
2.435229543104577
 40
3.621147551056109
 40
4.792179039219729
 40
4.792179039219729
 40
4.792179039219729
 40
4.792179039219729
 10
-45.66382796835853
 20
420.0672218436408
 30
0.0
 10
-45.94669205766911
 20
420.3638713794306
 30
0.0
 10
-46.5262560351451
 20
420.9332456381665
 30
0.0
 10
-47.44326496999713
 20
421.7195449045212
 30
0.0
 10
-48.39668221901515
 20
422.4290124046548
 30
0.0
 10
-49.05898063651392
 20
422.8530617810131
 30
0.0
 10
-49.39500757223737
 20
423.0516926034185
 30
0.0
 11
-45.66382796835853
 21
420.0672218436408
 31
0.0
 11
-46.5414662504645
 21
420.9285396750678
 31
0.0
 11
-47.45698044649839
 21
421.7128732053254
 31
0.0
 11
-48.40864538846052
 21
422.4204997733851
 31
0.0
 11
-49.39500757223737
 21
423.0516926034185
 31
0.0
  0
SPLINE
  5
616
330
218
100
AcDbEntity
  8
0
  6
Continuous
 62
     7
100
AcDbSpline
210
0.0
220
0.0
230
1.0
 70
     8
 71
     3
 72
    17
 73
    13
 74
    11
 42
0.0000000001
 43
0.0000000001
 44
0.0000000001
 12
0.9997053772506161
 22
-0.0242725914603936
 32
0.0
 13
0.7240619430256011
 23
-0.689734951022486
 33
0.0
 40
0.0
 40
0.0
 40
0.0
 40
0.0
 40
1.437050548389288
 40
2.854202981981481
 40
4.256002033329869
 40
5.647185601082776
 40
7.032834195417498
 40
8.418530554479323
 40
9.809888519363717
 40
11.21203382328651
 40
12.62973616562004
 40
14.06755896243699
 40
14.06755896243699
 40
14.06755896243699
 40
14.06755896243699
 10
-59.24435971904049
 20
423.2023026218154
 30
0.0
 10
-58.76548399883859
 20
423.1906756415257
 30
0.0
 10
-57.81480623624925
 20
423.1339216504261
 30
0.0
 10
-56.40733255602067
 20
422.9466697192194
 30
0.0
 10
-55.03232805184207
 20
422.6594801391457
 30
0.0
 10
-53.69257416864687
 20
422.273784049138
 30
0.0
 10
-52.39043489417086
 20
421.7908508414981
 30
0.0
 10
-51.12808699856501
 20
421.2116869150976
 30
0.0
 10
-49.90778018626169
 20
420.5370884658255
 30
0.0
 10
-48.73207188568791
 20
419.7677830797973
 30
0.0
 10
-47.60394158754277
 20
418.9046775331544
 30
0.0
 10
-46.89123731326004
 20
418.2722975927765
 30
0.0
 10
-46.54421305726344
 20
417.9417253806626
 30
0.0
 11
-59.24435971904049
 21
423.2023026218154
 31
0.0
 11
-57.80989819578556
 21
423.1160795568785
 31
0.0
 11
-56.40518277217626
 21
422.9287413634677
 31
0.0
 11
-55.03306393781079
 21
422.6418084710681
 31
0.0
 11
-53.69623330165976
 21
422.2567428020794
 31
0.0
 11
-52.39708152623657
 21
421.7748437551862
 31
0.0
 11
-51.13758713365465
 21
421.1970650133032
 31
0.0
 11
-49.91980703768465
 21
420.5240950107723
 31
0.0
 11
-48.74633046352554
 21
419.7566549914792
 31
0.0
 11
-47.62009556706167
 21
418.8955656294238
 31
0.0
 11
-46.54421305726344
 21
417.9417253806626
 31
0.0
  0
SPLINE
  5
617
330
218
100
AcDbEntity
  8
0
  6
Continuous
 62
     7
100
AcDbSpline
210
0.0
220
0.0
230
1.0
 70
     8
 71
     3
 72
    18
 73
    14
 74
    12
 42
0.0000000001
 43
0.0000000001
 44
0.0000000001
 12
-0.999720673081428
 22
0.0236342085464383
 32
0.0
 13
-0.6901973879014751
 23
-0.7236211479316929
 33
0.0
 40
0.0
 40
0.0
 40
0.0
 40
0.0
 40
1.33527215047974
 40
2.642637200496382
 40
3.927763759404612
 40
5.196531052832649
 40
6.455142368336378
 40
7.71025980231182
 40
8.968890153388707
 40
10.23770117808123
 40
11.52290106126408
 40
12.83037116985858
 40
14.16578161607627
 40
14.16578161607627
 40
14.16578161607627
 40
14.16578161607627
 10
-401.8529469567971
 20
429.3336403113057
 30
0.0
 10
-402.2979133478052
 20
429.3441596781293
 30
0.0
 10
-403.1796472425446
 20
429.3337396100405
 30
0.0
 10
-404.4852674364816
 20
429.221760658961
 30
0.0
 10
-405.7569705423873
 20
429.0153916219932
 30
0.0
 10
-406.9933655445984
 20
428.7161659180016
 30
0.0
 10
-408.1934213528334
 20
428.3253166098386
 30
0.0
 10
-409.3563355129127
 20
427.8436377331924
 30
0.0
 10
-410.4813070091442
 20
427.271458358799
 30
0.0
 10
-411.5672072162089
 20
426.6087780798087
 30
0.0
 10
-412.6124346448269
 20
425.8554468318401
 30
0.0
 10
-413.6149186677226
 20
425.0113576229111
 30
0.0
 10
-414.2458272064651
 20
424.3951910748177
 30
0.0
 10
-414.553059473717
 20
424.073080661467
 30
0.0
 11
-401.8529469567971
 21
429.3336403113057
 31
0.0
 11
-403.1881160991202
 21
429.317054858798
 31
0.0
 11
-404.4906431353992
 21
429.2046862966142
 31
0.0
 11
-405.7590930744916
 21
428.9983249038399
 31
0.0
 11
-406.9921787459985
 21
428.6995437605305
 31
0.0
 11
-408.1888625091199
 21
428.3096073367438
 31
0.0
 11
-409.3484454284275
 21
427.8293082358502
 31
0.0
 11
-410.4703852211787
 21
427.2588685264213
 31
0.0
 11
-411.5536294565168
 21
426.5982148024569
 31
0.0
 11
-412.5965503863282
 21
425.8471790683574
 31
0.0
 11
-413.5971221501566
 21
425.0055531239513
 31
0.0
 11
-414.553059473717
 21
424.073080661467
 31
0.0
  0
SPLINE
  5
618
330
218
100
AcDbEntity
  8
0
  6
Continuous
 62
     7
100
AcDbSpline
210
0.0
220
0.0
230
1.0
 70
     8
 71
     3
 72
    17
 73
    13
 74
    11
 42
0.0000000001
 43
0.0000000001
 44
0.0000000001
 12
0.7240617655945771
 22
0.689735137283917
 32
0.0
 13
0.9997053710004514
 23
0.0242728488820208
 33
0.0
 40
0.0
 40
0.0
 40
0.0
 40
0.0
 40
1.437050549208444
 40
2.854202981237956
 40
4.256002032634081
 40
5.647185596878125
 40
7.032834197426915
 40
8.418530548674381
 40
9.809888517774496
 40
11.21203382018037
 40
12.62973616624973
 40
14.06755895910364
 40
14.06755895910364
 40
14.06755895910364
 40
14.06755895910364
 10
-412.01338612599
 20
417.9417331095197
 30
0.0
 10
-411.6665483400205
 20
418.2721278621338
 30
0.0
 10
-410.9541865160399
 20
418.9042274236906
 30
0.0
 10
-409.8265452127802
 20
419.7670544837844
 30
0.0
 10
-408.6511965157812
 20
420.5362558077204
 30
0.0
 10
-407.4311191341998
 20
421.210876536812
 30
0.0
 10
-406.1688822803761
 20
421.790142703562
 30
0.0
 10
-404.8667367837151
 20
422.2732267260742
 30
0.0
 10
-403.5268364202962
 20
422.6591007914067
 30
0.0
 10
-402.1515040546639
 20
422.9464710660212
 30
0.0
 10
-400.743487684626
 20
423.1338718532597
 30
0.0
 10
-399.7923695159434
 20
423.1906697417396
 30
0.0
 10
-399.3132364597557
 20
423.2023030935295
 30
0.0
 11
-412.01338612599
 21
417.9417331095197
 31
0.0
 11
-410.9380997396773
 21
418.8950816650811
 31
0.0
 11
-409.8123478278419
 21
419.7558973530225
 31
0.0
 11
-408.6392211060254
 21
420.5232396984297
 31
0.0
 11
-407.4216565544554
 21
421.1962391577035
 31
0.0
 11
-406.1622634353019
 21
421.7741241078726
 31
0.0
 11
-404.8631151505643
 21
422.2561698651652
 31
0.0
 11
-403.5261529278992
 21
422.641408769411
 31
0.0
 11
-402.1537176458196
 21
422.9285199770678
 31
0.0
 11
-400.748467182096
 21
423.116006179907
 31
0.0
 11
-399.3132364597557
 21
423.2023030935295
 31
0.0
  0
SPLINE
  5
619
330
218
100
AcDbEntity
  8
0
  6
Continuous
 62
     7
100
AcDbSpline
210
0.0
220
0.0
230
1.0
 70
     8
 71
     3
 72
    18
 73
    14
 74
    12
 42
0.0000000001
 43
0.0000000001
 44
0.0000000001
 12
-0.7236211766942635
 22
-0.6901973577460359
 32
0.0
 13
0.0236341675610491
 23
-0.9997206740503548
 33
0.0
 40
0.0
 40
0.0
 40
0.0
 40
0.0
 40
1.335272149398219
 40
2.642637202544044
 40
3.927763760376872
 40
5.196531056290435
 40
6.455142369687433
 40
7.71025980147345
 40
8.9688901541221
 40
10.23770118474846
 40
11.52290105767742
 40
12.83037117538491
 40
14.16578161804459
 40
14.16578161804459
 40
14.16578161804459
 40
14.16578161804459
 10
-428.4863396170581
 20
410.1398005253834
 30
0.0
 10
-428.808416685043
 20
409.8326000889213
 30
0.0
 10
-429.4245286036747
 20
409.2017519740618
 30
0.0
 10
-430.2685604169725
 20
408.1993580018649
 30
0.0
 10
-431.0218653652254
 20
407.1542031678653
 30
0.0
 10
-431.6845441354484
 20
406.0683553556629
 30
0.0
 10
-432.2567395298385
 20
404.94341555573
 30
0.0
 10
-432.7384456272922
 20
403.7805126723599
 30
0.0
 10
-433.1293286906849
 20
402.5804457821447
 30
0.0
 10
-433.4285903529596
 20
401.3440126597869
 30
0.0
 10
-433.6349921399378
 20
400.0722396247631
 30
0.0
 10
-433.7469941743073
 20
398.7665151704477
 30
0.0
 10
-433.7574183333516
 20
397.8846999183626
 30
0.0
 10
-433.7468978952967
 20
397.4396874424061
 30
0.0
 11
-428.4863396170581
 21
410.1398005253834
 31
0.0
 11
-429.4187190865137
 21
409.1839656871941
 31
0.0
 11
-430.2602882147484
 21
408.1834834111946
 31
0.0
 11
-431.0112982295337
 21
407.1406343198399
 31
0.0
 11
-431.6719513003552
 21
406.0574409062733
 31
0.0
 11
-432.2424078100699
 21
404.9355310129508
 31
0.0
 11
-432.7227340091348
 21
403.7759593204431
 31
0.0
 11
-433.1127034601789
 21
402.5792662972075
 31
0.0
 11
-433.411520069145
 21
401.3461442166149
 31
0.0
 11
-433.6179140755196
 21
400.0776253056367
 31
0.0
 11
-433.7303057371889
 21
398.7749948042722
 31
0.0
 11
-433.7468978952967
 21
397.4396874424061
 31
0.0
  0
SPLINE
  5
61A
330
218
100
AcDbEntity
  8
0
  6
Continuous
 62
     7
100
AcDbSpline
210
0.0
220
0.0
230
1.0
 70
     8
 71
     3
 72
    17
 73
    13
 74
    11
 42
0.0000000001
 43
0.0000000001
 44
0.0000000001
 12
0.0242725914603936
 22
0.9997053772506161
 32
0.0
 13
0.689734951022486
 23
0.7240619430256011
 33
0.0
 40
0.0
 40
0.0
 40
0.0
 40
0.0
 40
1.437050548389124
 40
2.85420298294079
 40
4.256002032803904
 40
5.647185600556858
 40
7.032834194891341
 40
8.418530553953416
 40
9.809888518837606
 40
11.21203382276069
 40
12.62973616509414
 40
14.06755896191103
 40
14.06755896191103
 40
14.06755896191103
 40
14.06755896191103
 10
-427.6155602203206
 20
394.8999902549649
 30
0.0
 10
-427.603933240031
 20
395.3788659751668
 30
0.0
 10
-427.5471792524975
 20
396.3295437386109
 30
0.0
 10
-427.3599273053878
 20
397.7370174162895
 30
0.0
 10
-427.0727377407454
 20
399.1120219232631
 30
0.0
 10
-426.6870416467837
 20
400.4517758051927
 30
0.0
 10
-426.2041084402333
 20
401.753915079879
 30
0.0
 10
-425.6249445135407
 20
403.0162629754284
 30
0.0
 10
-424.9503460643475
 20
404.236569787747
 30
0.0
 10
-424.1810406782978
 20
405.4122780883169
 30
0.0
 10
-423.3179351316609
 20
406.540408386463
 30
0.0
 10
-422.6855551912815
 20
407.2531126607453
 30
0.0
 10
-422.3549829791677
 20
407.6001369167419
 30
0.0
 11
-427.6155602203206
 21
394.8999902549649
 31
0.0
 11
-427.5293371553836
 21
396.3344517782197
 31
0.0
 11
-427.3419989547158
 21
397.7391672018291
 31
0.0
 11
-427.0550660695734
 21
399.1112860361948
 31
0.0
 11
-426.6700004005845
 21
400.4481166723458
 31
0.0
 11
-426.1881013536916
 21
401.7472684477688
 31
0.0
 11
-425.6103226118083
 21
403.0067628403509
 31
0.0
 11
-424.9373526092774
 21
404.2245429363207
 31
0.0
 11
-424.1699125899844
 21
405.3980195104801
 31
0.0
 11
-423.3088232279289
 21
406.5242544069438
 31
0.0
 11
-422.3549829791677
 21
407.6001369167419
 31
0.0
  0
SPLINE
  5
61B
330
218
100
AcDbEntity
  8
0
  6
Continuous
 62
     7
100
AcDbSpline
210
0.0
220
0.0
230
1.0
 70
     8
 71
     3
 72
    18
 73
    14
 74
    12
 42
0.0000000001
 43
0.0000000001
 44
0.0000000001
 12
-0.0236342085464383
 22
-0.999720673081428
 32
0.0
 13
0.7236211479316929
 23
-0.6901973879014751
 33
0.0
 40
0.0
 40
0.0
 40
0.0
 40
0.0
 40
1.335272143223085
 40
2.64263720047002
 40
3.927763759378482
 40
5.196531052806452
 40
6.455142370558531
 40
7.710259801756832
 40
8.968890152833775
 40
10.23770118130494
 40
11.52290106024696
 40
12.83037116884151
 40
14.16578162012658
 40
14.16578162012658
 40
14.16578162012658
 40
14.16578162012658
 10
-433.7468979098109
 20
39.09039289203163
 30
0.0
 10
-433.7574172765773
 20
38.64542650344168
 30
0.0
 10
-433.7469972079335
 20
37.76369260876313
 30
0.0
 10
-433.635018258248
 20
36.45807241463937
 30
0.0
 10
-433.4286492196439
 20
35.18636930671984
 30
0.0
 10
-433.1294235193111
 20
33.94997430249167
 30
0.0
 10
-432.7385741971628
 20
32.74991849918463
 30
0.0
 10
-432.256895333604
 20
31.58700433431386
 30
0.0
 10
-431.6847159582444
 20
30.46203283742818
 30
0.0
 10
-431.0220356691755
 20
29.37613263709037
 30
0.0
 10
-430.2687044313086
 20
28.3309052017209
 30
0.0
 10
-429.4246152213158
 20
27.32842117866177
 30
0.0
 10
-428.8084486672881
 20
26.69751264352936
 30
0.0
 10
-428.4863382527151
 20
26.39028037511159
 30
0.0
 11
-433.7468979098109
 21
39.09039289203163
 31
0.0
 11
-433.7303124573033
 21
37.75522375696571
 31
0.0
 11
-433.6179438951197
 21
36.45269671342954
 31
0.0
 11
-433.4115825023451
 21
35.18424677433692
 31
0.0
 11
-433.112801359036
 21
33.95116110283011
 31
0.0
 11
-432.7228649279919
 21
32.75447733970879
 31
0.0
 11
-432.2425658343554
 21
31.59489442040122
 31
0.0
 11
-431.6721261249266
 21
30.47295462764997
 31
0.0
 11
-431.0114723937051
 21
29.38971039231188
 31
0.0
 11
-430.2604366668626
 21
28.34678946250044
 31
0.0
 11
-429.4188107224565
 21
27.34621769867201
 31
0.0
 11
-428.4863382527151
 21
26.39028037511159
 31
0.0
  0
SPLINE
  5
61C
330
218
100
AcDbEntity
  8
0
  6
Continuous
 62
     7
100
AcDbSpline
210
0.0
220
0.0
230
1.0
 70
     8
 71
     3
 72
    17
 73
    13
 74
    11
 42
0.0000000001
 43
0.0000000001
 44
0.0000000001
 12
-0.689735137283917
 22
0.7240617655945771
 32
0.0
 13
-0.0242728488820208
 23
0.9997053710004514
 33
0.0
 40
0.0
 40
0.0
 40
0.0
 40
0.0
 40
1.437050543778434
 40
2.854202975807949
 40
4.256002027204033
 40
5.647185591448048
 40
7.032834188970249
 40
8.418530549545996
 40
9.80988851167295
 40
11.21203381407855
 40
12.62973616014795
 40
14.06755895300186
 40
14.06755895300186
 40
14.06755895300186
 40
14.06755895300186
 10
-422.3549907080249
 20
28.92995373009565
 30
0.0
 10
-422.6853854593905
 20
29.2767915147546
 30
0.0
 10
-423.3174850249129
 20
29.98915333277168
 30
0.0
 10
-424.1803120820412
 20
31.1167946363524
 30
0.0
 10
-424.9495134056409
 20
32.29214333325868
 30
0.0
 10
-425.6241341373889
 20
33.51222071261078
 30
0.0
 10
-426.2034002929346
 20
34.77445757373921
 30
0.0
 10
-426.6864843242451
 20
36.07660306659554
 30
0.0
 10
-427.0723583906161
 20
37.416503430804
 30
0.0
 10
-427.3597286644641
 20
38.79183579416631
 30
0.0
 10
-427.5471294517831
 20
40.19985216420207
 30
0.0
 10
-427.6039273402449
 20
41.15097033288521
 30
0.0
 10
-427.6155606920349
 20
41.63010338907286
 30
0.0
 11
-422.3549907080249
 21
28.92995373009565
 31
0.0
 11
-423.3083392635864
 21
30.0052401091513
 31
0.0
 11
-424.1691549515278
 21
31.13099202098678
 31
0.0
 11
-424.9364972969351
 21
32.30411874280321
 31
0.0
 11
-425.6094967562088
 21
33.52168329437328
 31
0.0
 11
-426.1873816991204
 21
34.78107641352681
 31
0.0
 11
-426.6694274636704
 21
36.0802247055213
 31
0.0
 11
-427.0546663679163
 21
37.41718692092962
 31
0.0
 11
-427.341777575573
 21
38.78962220300891
 31
0.0
 11
-427.5292637784122
 21
40.19487266673257
 31
0.0
 11
-427.6155606920349
 21
41.63010338907286
 31
0.0
  0
SPLINE
  5
61D
330
218
100
AcDbEntity
  8
0
  6
Continuous
 62
     7
100
AcDbSpline
210
0.0
220
0.0
230
1.0
 70
     8
 71
     3
 72
    18
 73
    14
 74
    12
 42
0.0000000001
 43
0.0000000001
 44
0.0000000001
 12
-0.0237811500603356
 22
-0.99971718845972
 32
0.0
 13
0.7237226902513428
 23
-0.6900909125726544
 33
0.0
 40
0.0
 40
0.0
 40
0.0
 40
0.0
 40
1.335741231182048
 40
2.643460077885665
 40
3.928832473681493
 40
5.197745119812849
 40
6.456419255857743
 40
7.71154007179978
 40
8.970121830874685
 40
10.23882208714034
 40
11.52383826698369
 40
12.83104630709798
 40
14.1661159072606
 40
14.1661159072606
 40
14.1661159072606
 40
14.1661159072606
 10
-34.74104014455608
 20
378.5781103250364
 30
0.0
 10
-34.75162863210959
 20
378.1329891689874
 30
0.0
 10
-34.74131829702714
 20
377.2509783095827
 30
0.0
 10
-34.62941920878985
 20
375.9449920561481
 30
0.0
 10
-34.42306389702773
 20
374.6730335134357
 30
0.0
 10
-34.12380443979377
 20
373.4364895205207
 30
0.0
 10
-33.73289061018726
 20
372.2363792855692
 30
0.0
 10
-33.25112927217944
 20
371.0734918158672
 30
0.0
 10
-32.67886307642363
 20
369.948621892723
 30
0.0
 10
-32.01611006806665
 20
368.86289939315
 30
0.0
 10
-31.26274254133222
 20
367.8179265024393
 30
0.0
 10
-30.41867433531111
 20
366.8157676574828
 30
0.0
 10
-29.80255437577066
 20
366.1850949416722
 30
0.0
 10
-29.48048098820317
 20
365.8779884754308
 30
0.0
 11
-34.74104014455608
 21
378.5781103250364
 31
0.0
 11
-34.72461791244845
 21
377.2424700489994
 31
0.0
 11
-34.61232792335042
 21
375.9395811280348
 31
0.0
 11
-34.40597967326159
 21
374.6708799829422
 31
0.0
 11
-34.10716598892407
 21
373.4376526374926
 31
0.0
 11
-33.71716773428003
 21
372.2409229511712
 31
0.0
 11
-33.23678789767203
 21
371.0813698151781
 31
0.0
 11
-32.66626087030031
 21
369.9595289372838
 31
0.0
 11
-32.00553371130755
 21
368.8764592434885
 31
0.0
 11
-31.25446164795082
 21
367.8337908695056
 31
0.0
 11
-30.41285737337316
 21
366.8335433475631
 31
0.0
 11
-29.48048098820317
 21
365.8779884754308
 31
0.0
  0
SPLINE
  5
61E
330
218
100
AcDbEntity
  8
0
  6
Continuous
 62
     7
100
AcDbSpline
210
0.0
220
0.0
230
1.0
 70
     8
 71
     3
 72
    17
 73
    13
 74
    11
 42
0.0000000001
 43
0.0000000001
 44
0.0000000001
 12
-0.689735148175176
 22
0.7240617552196552
 32
0.0
 13
-0.0242724817201879
 23
0.9997053799150743
 33
0.0
 40
0.0
 40
0.0
 40
0.0
 40
0.0
 40
1.437523779535413
 40
2.855007044969899
 40
4.257010332046587
 40
5.648294275105143
 40
7.033967877882052
 40
8.419631544610869
 40
9.81087946844064
 40
11.21281128058529
 40
12.63018113222844
 40
14.06754632309517
 40
14.06754632309517
 40
14.06754632309517
 40
14.06754632309517
 10
-27.354990222082
 20
366.7583800231929
 30
0.0
 10
-27.68549378110973
 20
367.1053320201864
 30
0.0
 10
-28.31776355227871
 20
367.8179023929591
 30
0.0
 10
-29.18075829043936
 20
368.9458396880703
 30
0.0
 10
-29.95001979320167
 20
370.1214028752797
 30
0.0
 10
-30.62462457962343
 20
371.3416149716839
 30
0.0
 10
-31.20382722962184
 20
372.6039150570378
 30
0.0
 10
-31.68681903782584
 20
373.9060527962676
 30
0.0
 10
-32.07258504092048
 20
375.2458603596094
 30
0.0
 10
-32.35984655908098
 20
376.620991407013
 30
0.0
 10
-32.54715865899695
 20
378.0286812132703
 30
0.0
 10
-32.60393081248039
 20
378.9795361930519
 30
0.0
 10
-32.61556028592057
 20
379.4585167644559
 30
0.0
 11
-27.354990222082
 21
366.7583800231929
 31
0.0
 11
-28.30863991278628
 21
367.8340318647055
 31
0.0
 11
-29.16961942347032
 21
368.9600749766551
 31
0.0
 11
-29.93701748922055
 21
370.1334092963
 31
0.0
 11
-30.60999647609424
 21
371.3510998536416
 31
0.0
 11
-31.18781568380601
 21
372.6105506453092
 31
0.0
 11
-31.66977180087034
 21
373.9096973262181
 31
0.0
 11
-32.05490540397332
 21
375.2465753660264
 31
0.0
 11
-32.3419090027158
 21
376.6188150463345
 31
0.0
 11
-32.52930685709797
 21
378.023741856001
 31
0.0
 11
-32.61556028592057
 21
379.4585167644559
 31
0.0
  0
SPLINE
  5
61F
330
218
100
AcDbEntity
  8
0
  6
Continuous
 62
     7
100
AcDbSpline
210
0.0
220
0.0
230
1.0
 70
     8
 71
     3
 72
    18
 73
    14
 74
    12
 42
0.0000000001
 43
0.0000000001
 44
0.0000000001
 12
0.6900909909809822
 22
-0.7237226154866836
 32
0.0
 13
0.9997171858884183
 23
0.0237812581530429
 33
0.0
 40
0.0
 40
0.0
 40
0.0
 40
0.0
 40
1.3357412263486
 40
2.643460070045527
 40
3.928832470757707
 40
5.197745116381116
 40
6.456419249461122
 40
7.711540064609993
 40
8.970121822201875
 40
10.23882208339395
 40
11.52383826167824
 40
12.83104630507402
 40
14.1661159012457
 40
14.1661159012457
 40
14.1661159012457
 40
14.1661159012457
 10
-24.06535737454055
 20
360.4628649125684
 30
0.0
 10
-23.7580963790122
 20
360.1406295345863
 30
0.0
 10
-23.12713000991935
 20
359.5242441880589
 30
0.0
 10
-22.12453367218751
 20
358.6798970547312
 30
0.0
 10
-21.07920791569808
 20
357.9264017912351
 30
0.0
 10
-19.99323089055736
 20
357.2636415241662
 30
0.0
 10
-18.86820698088431
 20
356.6914532704815
 30
0.0
 10
-17.70526466149074
 20
356.2098243560583
 30
0.0
 10
-16.50520819777723
 20
355.8190745263022
 30
0.0
 10
-15.26884931154606
 20
355.5199899223409
 30
0.0
 10
-13.99723060596148
 20
355.3137937818491
 30
0.0
 10
-12.69175093772828
 20
355.2020068437487
 30
0.0
 10
-11.81013538304702
 20
355.1917164704138
 30
0.0
 10
-11.36523804316371
 20
355.2022996819868
 30
0.0
 11
-24.06535737454055
 21
360.4628649125684
 31
0.0
 11
-23.10930480755169
 21
359.5300368936274
 31
0.0
 11
-22.10862220538061
 21
358.6881563178495
 31
0.0
 11
-21.06560477008341
 21
357.9369593808359
 31
0.0
 11
-19.98228817377378
 21
357.2762291375572
 31
0.0
 11
-18.86030208770845
 21
356.7057838764142
 31
0.0
 11
-17.70069436348666
 21
356.2255358295206
 31
0.0
 11
-16.50400954082238
 21
355.8356980738478
 31
0.0
 11
-15.27095895760118
 21
355.537056797453
 31
0.0
 11
-14.00259293285154
 21
355.3308670651355
 31
0.0
 11
-12.70020703348675
 21
355.2186893585518
 31
0.0
 11
-11.36523804316371
 21
355.2022996819868
 31
0.0
  0
SPLINE
  5
620
330
218
100
AcDbEntity
  8
0
  6
Continuous
 62
     7
100
AcDbSpline
210
0.0
220
0.0
230
1.0
 70
     8
 71
     3
 72
    17
 73
    13
 74
    11
 42
0.0000000001
 43
0.0000000001
 44
0.0000000001
 12
-0.9997053776105497
 22
0.0242725766359561
 32
0.0
 13
-0.724061689528039
 23
0.6897352171361135
 33
0.0
 40
0.0
 40
0.0
 40
0.0
 40
0.0
 40
1.437523779988786
 40
2.855007042572001
 40
4.257010331507909
 40
5.648294272378397
 40
7.033967877658762
 40
8.419631542267071
 40
9.810879470056155
 40
11.21281128225048
 40
12.63018112904469
 40
14.06754632109769
 40
14.06754632109769
 40
14.06754632109769
 40
14.06754632109769
 10
-10.48481994151564
 20
357.3277794535367
 30
0.0
 10
-10.96385335928158
 20
357.3394102555753
 30
0.0
 10
-11.91479894294892
 20
357.3961913656841
 30
0.0
 10
-13.32260048689991
 20
357.5835340254149
 30
0.0
 10
-14.69779920984774
 20
357.8708327154163
 30
0.0
 10
-16.03763707833156
 20
358.2566353394561
 30
0.0
 10
-17.33977615162012
 20
358.7396581635325
 30
0.0
 10
-18.60205335668294
 20
359.3188818167639
 30
0.0
 10
-19.82221812885752
 20
359.9934910702285
 30
0.0
 10
-20.9977071907951
 20
360.7627309831796
 30
0.0
 10
-22.12554384057086
 20
361.6256683509623
 30
0.0
 10
-22.83804382754111
 20
362.2578803689415
 30
0.0
 10
-23.18495751735
 20
362.5883474998897
 30
0.0
 11
-10.48481994151564
 21
357.3277794535367
 31
0.0
 11
-11.91975281619892
 21
357.4140480062452
 31
0.0
 11
-13.32478998523689
 21
357.6014762680558
 31
0.0
 11
-14.69709501611674
 21
357.8885165516553
 31
0.0
 11
-16.03400027021052
 21
358.273685794587
 31
0.0
 11
-17.33314634877638
 21
358.7556721086226
 31
0.0
 11
-18.59257621084413
 21
359.3335131022773
 31
0.0
 11
-19.81022232544279
 21
360.006498047265
 31
0.0
 11
-20.98348450183053
 21
360.7738758365581
 31
0.0
 11
-22.10942806029459
 21
361.6347988213569
 31
0.0
 11
-23.18495751735
 21
362.5883474998897
 31
0.0
  0
ELLIPSE
  5
627
330
218
100
AcDbEntity
  8
DATUM_AXIS
  6
Continuous
 62
     7
100
AcDbEllipse
 10
-49.82256343526646
 20
232.265041124876
 30
0.0
 11
0.0
 21
3.000000000457142
 31
0.0
210
0.0
220
0.0
230
0.9999999999999998
 40
0.0699268119
 41
0.0559714055
 42
3.085621262799999
  0
ELLIPSE
  5
628
330
218
100
AcDbEntity
  8
DATUM_AXIS
  6
Continuous
 62
     7
100
AcDbEllipse
 10
-49.84602996548559
 20
232.265041124876
 30
0.0
 11
0.0
 21
3.000000000457142
 31
0.0
210
0.0
220
0.0
230
0.9999999999999998
 40
0.0699268119
 41
-3.1415926536
 42
0.0
  0
ELLIPSE
  5
629
330
218
100
AcDbEntity
  8
DATUM_AXIS
  6
Continuous
 62
     7
100
AcDbEllipse
 10
-49.82256343526646
 20
222.2650411281902
 30
0.0
 11
0.0
 21
3.000000000457142
 31
0.0
210
0.0
220
0.0
230
0.9999999999999998
 40
0.0699268119
 41
0.0559714055
 42
3.085621262799999
  0
ELLIPSE
  5
62A
330
218
100
AcDbEntity
  8
DATUM_AXIS
  6
Continuous
 62
     7
100
AcDbEllipse
 10
-49.84602996548559
 20
222.2650411281902
 30
0.0
 11
0.0
 21
3.000000000457142
 31
0.0
210
0.0
220
0.0
230
0.9999999999999998
 40
0.0699268119
 41
-3.1415926536
 42
0.0
  0
ELLIPSE
  5
62B
330
218
100
AcDbEntity
  8
DATUM_AXIS
  6
Continuous
 62
     7
100
AcDbEllipse
 10
-49.82256343526646
 20
192.2650411381332
 30
0.0
 11
0.0
 21
3.000000000457142
 31
0.0
210
0.0
220
0.0
230
0.9999999999999998
 40
0.0699268119
 41
0.0559714055
 42
3.085621262799999
  0
ELLIPSE
  5
62C
330
218
100
AcDbEntity
  8
DATUM_AXIS
  6
Continuous
 62
     7
100
AcDbEllipse
 10
-49.84602996548559
 20
192.2650411381332
 30
0.0
 11
0.0
 21
3.000000000457142
 31
0.0
210
0.0
220
0.0
230
0.9999999999999998
 40
0.0699268119
 41
-3.1415926536
 42
0.0
  0
ELLIPSE
  5
62D
330
218
100
AcDbEntity
  8
DATUM_AXIS
  6
Continuous
 62
     7
100
AcDbEllipse
 10
-49.82256343526646
 20
202.2650411348189
 30
0.0
 11
0.0
 21
3.000000000457142
 31
0.0
210
0.0
220
0.0
230
0.9999999999999998
 40
0.0699268119
 41
0.0559714055
 42
3.085621262799999
  0
ELLIPSE
  5
62E
330
218
100
AcDbEntity
  8
DATUM_AXIS
  6
Continuous
 62
     7
100
AcDbEllipse
 10
-49.84602996548559
 20
202.2650411348189
 30
0.0
 11
0.0
 21
3.000000000457142
 31
0.0
210
0.0
220
0.0
230
0.9999999999999998
 40
0.0699268119
 41
-3.1415926536
 42
0.0
  0
ELLIPSE
  5
62F
330
218
100
AcDbEntity
  8
DATUM_AXIS
  6
Continuous
 62
     7
100
AcDbEllipse
 10
-50.82500532852254
 20
232.265041124876
 30
0.0
 11
0.0
 21
3.000000000457142
 31
0.0
210
0.0
220
0.0
230
0.9999999999999998
 40
0.0699268119
 41
0.0
 42
3.1415926536
  0
ELLIPSE
  5
630
330
218
100
AcDbEntity
  8
DATUM_AXIS
  6
Continuous
 62
     7
100
AcDbEllipse
 10
-50.82500532852254
 20
222.2650411281902
 30
0.0
 11
0.0
 21
3.000000000457142
 31
0.0
210
0.0
220
0.0
230
0.9999999999999998
 40
0.0699268119
 41
0.0
 42
3.1415926536
  0
ELLIPSE
  5
631
330
218
100
AcDbEntity
  8
DATUM_AXIS
  6
Continuous
 62
     7
100
AcDbEllipse
 10
-50.82500532852254
 20
192.2650411381332
 30
0.0
 11
0.0
 21
3.000000000457142
 31
0.0
210
0.0
220
0.0
230
0.9999999999999998
 40
0.0699268119
 41
0.0
 42
3.1415926536
  0
ELLIPSE
  5
632
330
218
100
AcDbEntity
  8
DATUM_AXIS
  6
Continuous
 62
     7
100
AcDbEllipse
 10
-50.82500532852254
 20
202.2650411348189
 30
0.0
 11
0.0
 21
3.000000000457142
 31
0.0
210
0.0
220
0.0
230
0.9999999999999998
 40
0.0699268119
 41
0.0
 42
3.1415926536
  0
ELLIPSE
  5
633
330
218
100
AcDbEntity
  8
DATUM_AXIS
  6
Continuous
 62
     7
100
AcDbEllipse
 10
-50.33551764700399
 20
212.2650411315046
 30
0.0
 11
0.0
 21
2.499999999171428
 31
0.0
210
0.0
220
0.0
230
1.0
 40
0.0699268119
 41
0.0
 42
6.283185307179586
  0
ENDSEC
  0
SECTION
  2
OBJECTS
  0
DICTIONARY
  5
C
330
0
100
AcDbDictionary
281
     1
  3
ACAD_COLOR
350
665
  3
ACAD_GROUP
350
D
  3
ACAD_LAYOUT
350
1A
  3
ACAD_MATERIAL
350
63B
  3
ACAD_MLEADERSTYLE
350
688
  3
ACAD_MLINESTYLE
350
17
  3
ACAD_PLOTSETTINGS
350
19
  3
ACAD_PLOTSTYLENAME
350
E
  3
ACAD_SCALELIST
350
666
  3
ACAD_TABLESTYLE
350
634
  3
ACAD_VISUALSTYLE
350
654
  3
ACDB_RECOMPOSE_DATA
350
6A1
  3
AcDbVariableDictionary
350
6A2
  3
ASE_INDEX_DICTIONARY
350
6FB
  3
DWGPROPS
350
72B
  0
DICTIONARY
  5
701
330
8
100
AcDbDictionary
280
     1
281
     1
  0
DICTIONARY
  5
6DC
330
10
100
AcDbDictionary
280
     1
281
     1
  3
ADSK_XREC_LAYER_RECONCILED
360
6DD
  0
DICTIONARY
  5
6DE
330
1FA
100
AcDbDictionary
280
     1
281
     1
  3
ADSK_XREC_LAYER_RECONCILED
360
6DF
  0
DICTIONARY
  5
6E0
330
1FB
100
AcDbDictionary
280
     1
281
     1
  3
ADSK_XREC_LAYER_RECONCILED
360
6E1
  0
DICTIONARY
  5
6E2
330
1FC
100
AcDbDictionary
280
     1
281
     1
  3
ADSK_XREC_LAYER_RECONCILED
360
6E3
  0
DICTIONARY
  5
6E4
330
1FD
100
AcDbDictionary
280
     1
281
     1
  3
ADSK_XREC_LAYER_RECONCILED
360
6E5
  0
DICTIONARY
  5
6E6
330
1FE
100
AcDbDictionary
280
     1
281
     1
  3
ADSK_XREC_LAYER_RECONCILED
360
6E7
  0
DICTIONARY
  5
6E8
330
1FF
100
AcDbDictionary
280
     1
281
     1
  3
ADSK_XREC_LAYER_RECONCILED
360
6E9
  0
DICTIONARY
  5
6EA
330
200
100
AcDbDictionary
280
     1
281
     1
  3
ADSK_XREC_LAYER_RECONCILED
360
6EB
  0
DICTIONARY
  5
6EC
330
201
100
AcDbDictionary
280
     1
281
     1
  3
ADSK_XREC_LAYER_RECONCILED
360
6ED
  0
DICTIONARY
  5
6EE
330
202
100
AcDbDictionary
280
     1
281
     1
  3
ADSK_XREC_LAYER_RECONCILED
360
6EF
  0
DICTIONARY
  5
6F0
330
203
100
AcDbDictionary
280
     1
281
     1
  3
ADSK_XREC_LAYER_RECONCILED
360
6F1
  0
DICTIONARY
  5
6F2
330
204
100
AcDbDictionary
280
     1
281
     1
  3
ADSK_XREC_LAYER_RECONCILED
360
6F3
  0
DICTIONARY
  5
6F4
330
205
100
AcDbDictionary
280
     1
281
     1
  3
ADSK_XREC_LAYER_RECONCILED
360
6F5
  0
DICTIONARY
  5
6F6
330
206
100
AcDbDictionary
280
     1
281
     1
  3
ADSK_XREC_LAYER_RECONCILED
360
6F7
  0
DICTIONARY
  5
6F8
330
207
100
AcDbDictionary
280
     1
281
     1
  3
ADSK_XREC_LAYER_RECONCILED
360
6F9
  0
DICTIONARY
  5
665
102
{ACAD_REACTORS
330
C
102
}
330
C
100
AcDbDictionary
281
     1
  0
DICTIONARY
  5
D
102
{ACAD_REACTORS
330
C
102
}
330
C
100
AcDbDictionary
281
     1
  0
DICTIONARY
  5
1A
102
{ACAD_REACTORS
330
C
102
}
330
C
100
AcDbDictionary
281
     1
  3
Layout1
350
636
  3
Model
350
635
  0
DICTIONARY
  5
63B
102
{ACAD_REACTORS
330
C
102
}
330
C
100
AcDbDictionary
281
     1
  3
ByBlock
350
644
  3
ByLayer
350
63C
  3
Global
350
64C
  0
DICTIONARY
  5
688
102
{ACAD_REACTORS
330
C
102
}
330
C
100
AcDbDictionary
281
     1
  3
Standard
350
689
  0
DICTIONARY
  5
17
102
{ACAD_REACTORS
330
C
102
}
330
C
100
AcDbDictionary
281
     1
  3
Standard
350
18
  0
DICTIONARY
  5
19
102
{ACAD_REACTORS
330
C
102
}
330
C
100
AcDbDictionary
281
     1
  0
ACDBDICTIONARYWDFLT
  5
E
102
{ACAD_REACTORS
330
C
102
}
330
C
100
AcDbDictionary
281
     1
  3
Normal
350
F
100
AcDbDictionaryWithDefault
340
F
  0
DICTIONARY
  5
666
102
{ACAD_REACTORS
330
C
102
}
330
C
100
AcDbDictionary
281
     1
  3
A0
350
667
  3
A1
350
668
  3
A2
350
669
  3
A3
350
66A
  3
A4
350
66B
  3
A5
350
66C
  3
A6
350
66D
  3
A7
350
66E
  3
A8
350
66F
  3
A9
350
670
  3
B0
350
671
  3
B1
350
672
  3
B2
350
673
  3
B3
350
674
  3
B4
350
675
  3
B5
350
676
  3
B6
350
677
  3
B7
350
678
  3
B8
350
679
  3
B9
350
67A
  3
C0
350
67B
  3
C1
350
67C
  3
C2
350
67D
  3
C3
350
67E
  3
C4
350
67F
  3
C5
350
680
  3
C6
350
681
  3
C7
350
682
  3
C8
350
683
  3
C9
350
684
  3
D0
350
685
  3
D1
350
686
  3
D2
350
687
  0
DICTIONARY
  5
634
330
C
100
AcDbDictionary
281
     1
  3
Standard
350
637
  3
Standard1
350
638
  0
DICTIONARY
  5
654
102
{ACAD_REACTORS
330
C
102
}
330
C
100
AcDbDictionary
281
     1
  3
2dWireframe
350
65A
  3
3D Hidden
350
65C
  3
3dWireframe
350
65B
  3
Basic
350
659
  3
Brighten
350
660
  3
ColorChange
350
664
  3
Conceptual
350
65D
  3
Dim
350
65F
  3
Facepattern
350
663
  3
Flat
350
655
  3
FlatWithEdges
350
656
  3
Gouraud
350
657
  3
GouraudWithEdges
350
658
  3
Linepattern
350
662
  3
Realistic
350
65E
  3
Thicken
350
661
  0
XRECORD
  5
6A1
102
{ACAD_REACTORS
330
C
102
}
330
C
100
AcDbXrecord
280
     1
 90
        1
330
637
330
638
  0
DICTIONARY
  5
6A2
102
{ACAD_REACTORS
330
C
102
}
330
C
100
AcDbDictionary
281
     1
  3
CANNOSCALE
350
6A5
  3
CMLEADERSTYLE
350
6A4
  3
CTABLESTYLE
350
6A3
  3
DIMASSOC
350
713
  3
HIDETEXT
350
712
  3
INDEXCTL
350
711
  3
LIGHTINGUNITS
350
70F
  3
MSLTSCALE
350
70E
  3
SORTENTS
350
710
  0
DICTIONARY
  5
6FB
102
{ACAD_REACTORS
330
C
102
}
330
C
100
AcDbDictionary
281
     1
  3
ASEBlockHierarchyIndexRecord
350
6FD
1001
DCO15
1040
1713611345.568
  0
XRECORD
  5
72B
102
{ACAD_REACTORS
330
C
102
}
330
C
100
AcDbXrecord
280
     1
  1
DWGPROPS COOKIE
  2

  3

  4

  6

  7

  8
ko58941
  9

300
=
301
=
302
=
303
=
304
=
305
=
306
=
307
=
308
=
309
=
 40
0.0014757986111111
 41
2455636.660455185
 42
2455636.67649963
  1

 90
        0
  0
XRECORD
  5
6DD
102
{ACAD_REACTORS
330
6DC
102
}
330
6DC
100
AcDbXrecord
280
     1
290
     1
  0
XRECORD
  5
6DF
102
{ACAD_REACTORS
330
6DE
102
}
330
6DE
100
AcDbXrecord
280
     1
290
     1
  0
XRECORD
  5
6E1
102
{ACAD_REACTORS
330
6E0
102
}
330
6E0
100
AcDbXrecord
280
     1
290
     1
  0
XRECORD
  5
6E3
102
{ACAD_REACTORS
330
6E2
102
}
330
6E2
100
AcDbXrecord
280
     1
290
     1
  0
XRECORD
  5
6E5
102
{ACAD_REACTORS
330
6E4
102
}
330
6E4
100
AcDbXrecord
280
     1
290
     1
  0
XRECORD
  5
6E7
102
{ACAD_REACTORS
330
6E6
102
}
330
6E6
100
AcDbXrecord
280
     1
290
     1
  0
XRECORD
  5
6E9
102
{ACAD_REACTORS
330
6E8
102
}
330
6E8
100
AcDbXrecord
280
     1
290
     1
  0
XRECORD
  5
6EB
102
{ACAD_REACTORS
330
6EA
102
}
330
6EA
100
AcDbXrecord
280
     1
290
     1
  0
XRECORD
  5
6ED
102
{ACAD_REACTORS
330
6EC
102
}
330
6EC
100
AcDbXrecord
280
     1
290
     1
  0
XRECORD
  5
6EF
102
{ACAD_REACTORS
330
6EE
102
}
330
6EE
100
AcDbXrecord
280
     1
290
     1
  0
XRECORD
  5
6F1
102
{ACAD_REACTORS
330
6F0
102
}
330
6F0
100
AcDbXrecord
280
     1
290
     1
  0
XRECORD
  5
6F3
102
{ACAD_REACTORS
330
6F2
102
}
330
6F2
100
AcDbXrecord
280
     1
290
     1
  0
XRECORD
  5
6F5
102
{ACAD_REACTORS
330
6F4
102
}
330
6F4
100
AcDbXrecord
280
     1
290
     1
  0
XRECORD
  5
6F7
102
{ACAD_REACTORS
330
6F6
102
}
330
6F6
100
AcDbXrecord
280
     1
290
     1
  0
XRECORD
  5
6F9
102
{ACAD_REACTORS
330
6F8
102
}
330
6F8
100
AcDbXrecord
280
     1
290
     1
  0
LAYOUT
  5
636
102
{ACAD_XDICTIONARY
360
72E
102
}
102
{ACAD_REACTORS
330
1A
102
}
330
1A
100
AcDbPlotSettings
  1

  2
none_device
  4
ANSI_D_(34.00_x_22.00_Inches)
  6

 40
0.0
 41
0.0
 42
0.0
 43
0.0
 44
863.6000000000001
 45
558.8
 46
0.0
 47
0.0
 48
0.0
 49
0.0
140
0.0
141
0.0
142
1.0
143
1.0
 70
     0
 72
     0
 73
     0
 74
     0
  7

 75
     0
147
1.0
148
0.0
149
0.0
100
AcDbLayout
  1
Layout1
 70
     1
 71
     1
 10
0.0
 20
0.0
 11
12.0
 21
9.0
 12
0.0
 22
0.0
 32
0.0
 14
1.000000000000000E+20
 24
1.000000000000000E+20
 34
1.000000000000000E+20
 15
-1.000000000000000E+20
 25
-1.000000000000000E+20
 35
-1.000000000000000E+20
146
0.0
 13
0.0
 23
0.0
 33
0.0
 16
1.0
 26
0.0
 36
0.0
 17
0.0
 27
1.0
 37
0.0
 76
     0
330
219
  0
LAYOUT
  5
635
102
{ACAD_XDICTIONARY
360
72C
102
}
102
{ACAD_REACTORS
330
1A
102
}
330
1A
100
AcDbPlotSettings
  1

  2
none_device
  4
ANSI_D_(34.00_x_22.00_Inches)
  6

 40
0.0
 41
0.0
 42
0.0
 43
0.0
 44
863.6000000000001
 45
558.8
 46
0.0
 47
0.0
 48
0.0
 49
0.0
140
0.0
141
0.0
142
1.0
143
1.0
 70
  1024
 72
     0
 73
     0
 74
     0
  7

 75
     0
147
1.0
148
0.0
149
0.0
100
AcDbLayout
  1
Model
 70
     0
 71
     0
 10
0.0
 20
0.0
 11
34.0
 21
22.0
 12
0.0
 22
0.0
 32
0.0
 14
0.0
 24
0.0
 34
0.0
 15
0.0
 25
0.0
 35
0.0
146
0.0
 13
0.0
 23
0.0
 33
0.0
 16
1.0
 26
0.0
 36
0.0
 17
0.0
 27
1.0
 37
0.0
 76
     0
330
218
331
1F4
  0
MATERIAL
  5
644
102
{ACAD_XDICTIONARY
360
645
102
}
102
{ACAD_REACTORS
330
63B
102
}
330
63B
100
AcDbMaterial
  1
ByBlock
 72
     0
 43
0.0208333333333333
 43
0.0
 43
0.0
 43
0.0
 43
0.0
 43
0.0208333333333333
 43
0.0
 43
0.0
 43
0.0
 43
0.0
 43
1.0
 43
0.0
 43
0.0
 43
0.0
 43
0.0
 43
1.0
 77
     0
 47
0.0208333333333333
 47
0.0
 47
0.0
 47
0.0
 47
0.0
 47
0.0208333333333333
 47
0.0
 47
0.0
 47
0.0
 47
0.0
 47
1.0
 47
0.0
 47
0.0
 47
0.0
 47
0.0
 47
1.0
171
     0
 49
0.0208333333333333
 49
0.0
 49
0.0
 49
0.0
 49
0.0
 49
0.0208333333333333
 49
0.0
 49
0.0
 49
0.0
 49
0.0
 49
1.0
 49
0.0
 49
0.0
 49
0.0
 49
0.0
 49
1.0
175
     0
142
0.0208333333333333
142
0.0
142
0.0
142
0.0
142
0.0
142
0.0208333333333333
142
0.0
142
0.0
142
0.0
142
0.0
142
1.0
142
0.0
142
0.0
142
0.0
142
0.0
142
1.0
179
     0
144
0.0208333333333333
144
0.0
144
0.0
144
0.0
144
0.0
144
0.0208333333333333
144
0.0
144
0.0
144
0.0
144
0.0
144
1.0
144
0.0
144
0.0
144
0.0
144
0.0
144
1.0
147
0.0208333333333333
147
0.0
147
0.0
147
0.0
147
0.0
147
0.0208333333333333
147
0.0
147
0.0
147
0.0
147
0.0
147
1.0
147
0.0
147
0.0
147
0.0
147
0.0
147
1.0
  0
MATERIAL
  5
63C
102
{ACAD_XDICTIONARY
360
63D
102
}
102
{ACAD_REACTORS
330
63B
102
}
330
63B
100
AcDbMaterial
  1
ByLayer
 72
     0
 43
0.0208333333333333
 43
0.0
 43
0.0
 43
0.0
 43
0.0
 43
0.0208333333333333
 43
0.0
 43
0.0
 43
0.0
 43
0.0
 43
1.0
 43
0.0
 43
0.0
 43
0.0
 43
0.0
 43
1.0
 77
     0
 47
0.0208333333333333
 47
0.0
 47
0.0
 47
0.0
 47
0.0
 47
0.0208333333333333
 47
0.0
 47
0.0
 47
0.0
 47
0.0
 47
1.0
 47
0.0
 47
0.0
 47
0.0
 47
0.0
 47
1.0
171
     0
 49
0.0208333333333333
 49
0.0
 49
0.0
 49
0.0
 49
0.0
 49
0.0208333333333333
 49
0.0
 49
0.0
 49
0.0
 49
0.0
 49
1.0
 49
0.0
 49
0.0
 49
0.0
 49
0.0
 49
1.0
175
     0
142
0.0208333333333333
142
0.0
142
0.0
142
0.0
142
0.0
142
0.0208333333333333
142
0.0
142
0.0
142
0.0
142
0.0
142
1.0
142
0.0
142
0.0
142
0.0
142
0.0
142
1.0
179
     0
144
0.0208333333333333
144
0.0
144
0.0
144
0.0
144
0.0
144
0.0208333333333333
144
0.0
144
0.0
144
0.0
144
0.0
144
1.0
144
0.0
144
0.0
144
0.0
144
0.0
144
1.0
147
0.0208333333333333
147
0.0
147
0.0
147
0.0
147
0.0
147
0.0208333333333333
147
0.0
147
0.0
147
0.0
147
0.0
147
1.0
147
0.0
147
0.0
147
0.0
147
0.0
147
1.0
  0
MATERIAL
  5
64C
102
{ACAD_XDICTIONARY
360
64D
102
}
102
{ACAD_REACTORS
330
63B
102
}
330
63B
100
AcDbMaterial
  1
Global
 72
     0
 43
0.0208333333333333
 43
0.0
 43
0.0
 43
0.0
 43
0.0
 43
0.0208333333333333
 43
0.0
 43
0.0
 43
0.0
 43
0.0
 43
1.0
 43
0.0
 43
0.0
 43
0.0
 43
0.0
 43
1.0
 77
     0
 47
0.0208333333333333
 47
0.0
 47
0.0
 47
0.0
 47
0.0
 47
0.0208333333333333
 47
0.0
 47
0.0
 47
0.0
 47
0.0
 47
1.0
 47
0.0
 47
0.0
 47
0.0
 47
0.0
 47
1.0
171
     0
 49
0.0208333333333333
 49
0.0
 49
0.0
 49
0.0
 49
0.0
 49
0.0208333333333333
 49
0.0
 49
0.0
 49
0.0
 49
0.0
 49
1.0
 49
0.0
 49
0.0
 49
0.0
 49
0.0
 49
1.0
175
     0
142
0.0208333333333333
142
0.0
142
0.0
142
0.0
142
0.0
142
0.0208333333333333
142
0.0
142
0.0
142
0.0
142
0.0
142
1.0
142
0.0
142
0.0
142
0.0
142
0.0
142
1.0
179
     0
144
0.0208333333333333
144
0.0
144
0.0
144
0.0
144
0.0
144
0.0208333333333333
144
0.0
144
0.0
144
0.0
144
0.0
144
1.0
144
0.0
144
0.0
144
0.0
144
0.0
144
1.0
147
0.0208333333333333
147
0.0
147
0.0
147
0.0
147
0.0
147
0.0208333333333333
147
0.0
147
0.0
147
0.0
147
0.0
147
1.0
147
0.0
147
0.0
147
0.0
147
0.0
147
1.0
  0
MLEADERSTYLE
  5
689
102
{ACAD_REACTORS
330
688
102
}
330
688
100
AcDbMLeaderStyle
170
     2
171
     1
172
     0
 90
        2
 40
0.0
 41
0.0
173
     1
 91
-1056964608
340
14
 92
       -2
290
     1
 42
0.09
291
     1
 43
0.36
  3
Standard
 44
0.18
300

342
11
174
     1
178
     6
175
     1
176
     0
 93
-1056964608
 45
0.18
292
     0
297
     0
 46
0.18
 94
-1056964608
 47
1.0
 49
1.0
140
1.0
293
     1
141
0.0
294
     1
177
     0
142
1.0
295
     0
296
     0
143
0.125
1001
ACAD_MLEADERVER
1070
     2
  0
MLINESTYLE
  5
18
102
{ACAD_REACTORS
330
17
102
}
330
17
100
AcDbMlineStyle
  2
STANDARD
 70
     0
  3

 62
   256
 51
90.0
 52
90.0
 71
     2
 49
0.5
 62
   256
  6
BYLAYER
 49
-0.5
 62
   256
  6
BYLAYER
  0
ACDBPLACEHOLDER
  5
F
102
{ACAD_REACTORS
330
E
102
}
330
E
  0
SCALE
  5
667
102
{ACAD_REACTORS
330
666
102
}
330
666
100
AcDbScale
 70
     0
300
1:1
140
1.0
141
1.0
290
     1
  0
SCALE
  5
668
102
{ACAD_REACTORS
330
666
102
}
330
666
100
AcDbScale
 70
     0
300
1:2
140
1.0
141
2.0
290
     0
  0
SCALE
  5
669
102
{ACAD_REACTORS
330
666
102
}
330
666
100
AcDbScale
 70
     0
300
1:4
140
1.0
141
4.0
290
     0
  0
SCALE
  5
66A
102
{ACAD_REACTORS
330
666
102
}
330
666
100
AcDbScale
 70
     0
300
1:5
140
1.0
141
5.0
290
     0
  0
SCALE
  5
66B
102
{ACAD_REACTORS
330
666
102
}
330
666
100
AcDbScale
 70
     0
300
1:8
140
1.0
141
8.0
290
     0
  0
SCALE
  5
66C
102
{ACAD_REACTORS
330
666
102
}
330
666
100
AcDbScale
 70
     0
300
1:10
140
1.0
141
10.0
290
     0
  0
SCALE
  5
66D
102
{ACAD_REACTORS
330
666
102
}
330
666
100
AcDbScale
 70
     0
300
1:16
140
1.0
141
16.0
290
     0
  0
SCALE
  5
66E
102
{ACAD_REACTORS
330
666
102
}
330
666
100
AcDbScale
 70
     0
300
1:20
140
1.0
141
20.0
290
     0
  0
SCALE
  5
66F
102
{ACAD_REACTORS
330
666
102
}
330
666
100
AcDbScale
 70
     0
300
1:30
140
1.0
141
30.0
290
     0
  0
SCALE
  5
670
102
{ACAD_REACTORS
330
666
102
}
330
666
100
AcDbScale
 70
     0
300
1:40
140
1.0
141
40.0
290
     0
  0
SCALE
  5
671
102
{ACAD_REACTORS
330
666
102
}
330
666
100
AcDbScale
 70
     0
300
1:50
140
1.0
141
50.0
290
     0
  0
SCALE
  5
672
102
{ACAD_REACTORS
330
666
102
}
330
666
100
AcDbScale
 70
     0
300
1:100
140
1.0
141
100.0
290
     0
  0
SCALE
  5
673
102
{ACAD_REACTORS
330
666
102
}
330
666
100
AcDbScale
 70
     0
300
2:1
140
2.0
141
1.0
290
     0
  0
SCALE
  5
674
102
{ACAD_REACTORS
330
666
102
}
330
666
100
AcDbScale
 70
     0
300
4:1
140
4.0
141
1.0
290
     0
  0
SCALE
  5
675
102
{ACAD_REACTORS
330
666
102
}
330
666
100
AcDbScale
 70
     0
300
8:1
140
8.0
141
1.0
290
     0
  0
SCALE
  5
676
102
{ACAD_REACTORS
330
666
102
}
330
666
100
AcDbScale
 70
     0
300
10:1
140
10.0
141
1.0
290
     0
  0
SCALE
  5
677
102
{ACAD_REACTORS
330
666
102
}
330
666
100
AcDbScale
 70
     0
300
100:1
140
100.0
141
1.0
290
     0
  0
SCALE
  5
678
102
{ACAD_REACTORS
330
666
102
}
330
666
100
AcDbScale
 70
     0
300
1/128" = 1'-0"
140
0.0078125
141
12.0
290
     0
  0
SCALE
  5
679
102
{ACAD_REACTORS
330
666
102
}
330
666
100
AcDbScale
 70
     0
300
1/64" = 1'-0"
140
0.015625
141
12.0
290
     0
  0
SCALE
  5
67A
102
{ACAD_REACTORS
330
666
102
}
330
666
100
AcDbScale
 70
     0
300
1/32" = 1'-0"
140
0.03125
141
12.0
290
     0
  0
SCALE
  5
67B
102
{ACAD_REACTORS
330
666
102
}
330
666
100
AcDbScale
 70
     0
300
1/16" = 1'-0"
140
0.0625
141
12.0
290
     0
  0
SCALE
  5
67C
102
{ACAD_REACTORS
330
666
102
}
330
666
100
AcDbScale
 70
     0
300
3/32" = 1'-0"
140
0.09375
141
12.0
290
     0
  0
SCALE
  5
67D
102
{ACAD_REACTORS
330
666
102
}
330
666
100
AcDbScale
 70
     0
300
1/8" = 1'-0"
140
0.125
141
12.0
290
     0
  0
SCALE
  5
67E
102
{ACAD_REACTORS
330
666
102
}
330
666
100
AcDbScale
 70
     0
300
3/16" = 1'-0"
140
0.1875
141
12.0
290
     0
  0
SCALE
  5
67F
102
{ACAD_REACTORS
330
666
102
}
330
666
100
AcDbScale
 70
     0
300
1/4" = 1'-0"
140
0.25
141
12.0
290
     0
  0
SCALE
  5
680
102
{ACAD_REACTORS
330
666
102
}
330
666
100
AcDbScale
 70
     0
300
3/8" = 1'-0"
140
0.375
141
12.0
290
     0
  0
SCALE
  5
681
102
{ACAD_REACTORS
330
666
102
}
330
666
100
AcDbScale
 70
     0
300
1/2" = 1'-0"
140
0.5
141
12.0
290
     0
  0
SCALE
  5
682
102
{ACAD_REACTORS
330
666
102
}
330
666
100
AcDbScale
 70
     0
300
3/4" = 1'-0"
140
0.75
141
12.0
290
     0
  0
SCALE
  5
683
102
{ACAD_REACTORS
330
666
102
}
330
666
100
AcDbScale
 70
     0
300
1" = 1'-0"
140
1.0
141
12.0
290
     0
  0
SCALE
  5
684
102
{ACAD_REACTORS
330
666
102
}
330
666
100
AcDbScale
 70
     0
300
1-1/2" = 1'-0"
140
1.5
141
12.0
290
     0
  0
SCALE
  5
685
102
{ACAD_REACTORS
330
666
102
}
330
666
100
AcDbScale
 70
     0
300
3" = 1'-0"
140
3.0
141
12.0
290
     0
  0
SCALE
  5
686
102
{ACAD_REACTORS
330
666
102
}
330
666
100
AcDbScale
 70
     0
300
6" = 1'-0"
140
6.0
141
12.0
290
     0
  0
SCALE
  5
687
102
{ACAD_REACTORS
330
666
102
}
330
666
100
AcDbScale
 70
     0
300
1'-0" = 1'-0"
140
12.0
141
12.0
290
     0
  0
TABLESTYLE
  5
637
102
{ACAD_XDICTIONARY
360
69D
102
}
102
{ACAD_REACTORS
330
634
102
}
330
634
100
AcDbTableStyle
  3
Standard
 70
     0
 71
     0
 40
0.06
 41
0.06
280
     1
281
     1
  7
STANDARD
140
0.18
170
     1
 62
     0
 63
     7
283
     0
274
    -2
284
     1
 64
     0
275
    -2
285
     1
 65
     0
276
    -2
286
     1
 66
     0
277
    -2
287
     1
 67
     0
278
    -2
288
     1
 68
     0
279
    -2
289
     1
 69
     0
  7
STANDARD
140
0.18
170
     1
 62
     0
 63
     7
283
     0
274
    -2
284
     1
 64
     0
275
    -2
285
     1
 65
     0
276
    -2
286
     1
 66
     0
277
    -2
287
     1
 67
     0
278
    -2
288
     1
 68
     0
279
    -2
289
     1
 69
     0
  7
STANDARD
140
0.18
170
     1
 62
     0
 63
     7
283
     0
274
    -2
284
     1
 64
     0
275
    -2
285
     1
 65
     0
276
    -2
286
     1
 66
     0
277
    -2
287
     1
 67
     0
278
    -2
288
     1
 68
     0
279
    -2
289
     1
 69
     0
  0
TABLESTYLE
  5
638
102
{ACAD_XDICTIONARY
360
69F
102
}
102
{ACAD_REACTORS
330
634
102
}
330
634
100
AcDbTableStyle
  3
Standard1
 70
     1
 71
     0
 40
0.06
 41
0.06
280
     1
281
     1
  7
STANDARD
140
0.18
170
     1
 62
     0
 63
     7
283
     0
274
    -2
284
     1
 64
     0
275
    -2
285
     1
 65
     0
276
    -2
286
     1
 66
     0
277
    -2
287
     1
 67
     0
278
    -2
288
     1
 68
     0
279
    -2
289
     1
 69
     0
  7
STANDARD
140
0.18
170
     1
 62
     0
 63
     7
283
     0
274
    -2
284
     1
 64
     0
275
    -2
285
     1
 65
     0
276
    -2
286
     1
 66
     0
277
    -2
287
     1
 67
     0
278
    -2
288
     1
 68
     0
279
    -2
289
     1
 69
     0
  7
STANDARD
140
0.18
170
     1
 62
     0
 63
     7
283
     0
274
    -2
284
     1
 64
     0
275
    -2
285
     1
 65
     0
276
    -2
286
     1
 66
     0
277
    -2
287
     1
 67
     0
278
    -2
288
     1
 68
     0
279
    -2
289
     1
 69
     0
  0
VISUALSTYLE
  5
65A
102
{ACAD_REACTORS
330
654
102
}
330
654
100
AcDbVisualStyle
  2
2dWireframe
 70
     4
 71
     0
 72
     2
 73
     0
 90
        0
 40
-0.6
 41
-30.0
 62
     5
 63
     7
 74
     1
 91
        4
 64
     7
 65
   257
 75
     1
175
     1
 42
1.0
 92
        0
 66
   257
 43
1.0
 76
     1
 77
     6
 78
     2
 67
     7
 79
     5
170
     0
171
     0
290
     0
174
     0
 93
        1
 44
0.0
173
     0
291
     0
 45
0.0
1001
ACAD
1000
AcDbSavedByObjectVersion
1070
     0
  0
VISUALSTYLE
  5
65C
102
{ACAD_REACTORS
330
654
102
}
330
654
100
AcDbVisualStyle
  2
3D Hidden
 70
     6
 71
     1
 72
     2
 73
     2
 90
        0
 40
-0.6
 41
-30.0
 62
     5
 63
     7
 74
     2
 91
        2
 64
     7
 65
   257
 75
     2
175
     1
 42
40.0
 92
        0
 66
   257
 43
1.0
 76
     1
 77
     6
 78
     2
 67
     7
 79
     3
170
     0
171
     0
290
     0
174
     0
 93
        1
 44
0.0
173
     0
291
     0
 45
0.0
1001
ACAD
1000
AcDbSavedByObjectVersion
1070
     0
  0
VISUALSTYLE
  5
65B
102
{ACAD_REACTORS
330
654
102
}
330
654
100
AcDbVisualStyle
  2
3dWireframe
 70
     5
 71
     0
 72
     2
 73
     0
 90
        0
 40
-0.6
 41
-30.0
 62
     5
 63
     7
 74
     1
 91
        4
 64
     7
 65
   257
 75
     1
175
     1
 42
1.0
 92
        0
 66
   257
 43
1.0
 76
     1
 77
     6
 78
     2
 67
     7
 79
     5
170
     0
171
     0
290
     0
174
     0
 93
        1
 44
0.0
173
     0
291
     0
 45
0.0
1001
ACAD
1000
AcDbSavedByObjectVersion
1070
     0
  0
VISUALSTYLE
  5
659
102
{ACAD_REACTORS
330
654
102
}
330
654
100
AcDbVisualStyle
  2
Basic
 70
     7
 71
     1
 72
     0
 73
     1
 90
        0
 40
-0.6
 41
-30.0
 62
     5
 63
     7
 74
     0
 91
        4
 64
     7
 65
   257
 75
     1
175
     1
 42
1.0
 92
        8
 66
     7
 43
1.0
 76
     1
 77
     6
 78
     2
 67
     7
 79
     5
170
     0
171
     0
290
     0
174
     0
 93
        1
 44
0.0
173
     0
291
     1
 45
0.0
1001
ACAD
1000
AcDbSavedByObjectVersion
1070
     0
  0
VISUALSTYLE
  5
660
102
{ACAD_REACTORS
330
654
102
}
330
654
100
AcDbVisualStyle
  2
Brighten
 70
    12
 71
     2
 72
     2
 73
     0
 90
        0
 40
-0.6
 41
-30.0
 62
     5
 63
     7
 74
     1
 91
        4
 64
     7
 65
   257
 75
     1
175
     1
 42
1.0
 92
        8
 66
     7
 43
1.0
 76
     1
 77
     6
 78
     2
 67
     7
 79
     5
170
     0
171
     0
290
     0
174
     0
 93
        1
 44
50.0
173
     0
291
     1
 45
0.0
1001
ACAD
1000
AcDbSavedByObjectVersion
1070
     0
  0
VISUALSTYLE
  5
664
102
{ACAD_REACTORS
330
654
102
}
330
654
100
AcDbVisualStyle
  2
ColorChange
 70
    16
 71
     2
 72
     2
 73
     3
 90
        0
 40
-0.6
 41
-30.0
 62
     5
 63
     8
 74
     1
 91
        4
 64
     7
 65
   257
 75
     1
175
     1
 42
1.0
 92
        8
 66
     8
 43
1.0
 76
     1
 77
     6
 78
     2
 67
     7
 79
     5
170
     0
171
     0
290
     0
174
     0
 93
        1
 44
0.0
173
     0
291
     1
 45
0.0
1001
ACAD
1000
AcDbSavedByObjectVersion
1070
     0
  0
VISUALSTYLE
  5
65D
102
{ACAD_REACTORS
330
654
102
}
330
654
100
AcDbVisualStyle
  2
Conceptual
 70
     9
 71
     3
 72
     2
 73
     0
 90
        0
 40
-0.6
 41
-30.0
 62
     5
 63
     7
 74
     2
 91
        2
 64
     7
 65
   257
 75
     1
175
     1
 42
40.0
 92
        8
 66
     7
 43
1.0
 76
     1
 77
     6
 78
     2
 67
     7
 79
     3
170
     0
171
     0
290
     0
174
     0
 93
        1
 44
0.0
173
     0
291
     0
 45
0.0
1001
ACAD
1000
AcDbSavedByObjectVersion
1070
     0
  0
VISUALSTYLE
  5
65F
102
{ACAD_REACTORS
330
654
102
}
330
654
100
AcDbVisualStyle
  2
Dim
 70
    11
 71
     2
 72
     2
 73
     0
 90
        0
 40
-0.6
 41
-30.0
 62
     5
 63
     7
 74
     1
 91
        4
 64
     7
 65
   257
 75
     1
175
     1
 42
1.0
 92
        8
 66
     7
 43
1.0
 76
     1
 77
     6
 78
     2
 67
     7
 79
     5
170
     0
171
     0
290
     0
174
     0
 93
        1
 44
-50.0
173
     0
291
     1
 45
0.0
1001
ACAD
1000
AcDbSavedByObjectVersion
1070
     0
  0
VISUALSTYLE
  5
663
102
{ACAD_REACTORS
330
654
102
}
330
654
100
AcDbVisualStyle
  2
Facepattern
 70
    15
 71
     2
 72
     2
 73
     0
 90
        0
 40
-0.6
 41
-30.0
 62
     5
 63
     7
 74
     1
 91
        4
 64
     7
 65
   257
 75
     1
175
     1
 42
1.0
 92
        8
 66
     7
 43
1.0
 76
     1
 77
     6
 78
     2
 67
     7
 79
     5
170
     0
171
     0
290
     0
174
     0
 93
        1
 44
0.0
173
     0
291
     1
 45
0.0
1001
ACAD
1000
AcDbSavedByObjectVersion
1070
     0
  0
VISUALSTYLE
  5
655
102
{ACAD_REACTORS
330
654
102
}
330
654
100
AcDbVisualStyle
  2
Flat
 70
     0
 71
     2
 72
     1
 73
     1
 90
        2
 40
-0.6
 41
30.0
 62
     5
 63
     7
 74
     0
 91
        4
 64
     7
 65
   257
 75
     1
175
     1
 42
1.0
 92
        8
 66
     7
 43
1.0
 76
     1
 77
     6
 78
     2
 67
     7
 79
     5
170
     0
171
     0
290
     0
174
     0
 93
       13
 44
0.0
173
     0
291
     1
 45
0.0
1001
ACAD
1000
AcDbSavedByObjectVersion
1070
     0
  0
VISUALSTYLE
  5
656
102
{ACAD_REACTORS
330
654
102
}
330
654
100
AcDbVisualStyle
  2
FlatWithEdges
 70
     1
 71
     2
 72
     1
 73
     1
 90
        2
 40
-0.6
 41
30.0
 62
     5
 63
     7
 74
     1
 91
        4
 64
     7
 65
   257
 75
     1
175
     1
 42
1.0
 92
        0
 66
   257
 43
1.0
 76
     1
 77
     6
 78
     2
 67
     7
 79
     5
170
     0
171
     0
290
     0
174
     0
 93
       13
 44
0.0
173
     0
291
     1
 45
0.0
1001
ACAD
1000
AcDbSavedByObjectVersion
1070
     0
  0
VISUALSTYLE
  5
657
102
{ACAD_REACTORS
330
654
102
}
330
654
100
AcDbVisualStyle
  2
Gouraud
 70
     2
 71
     2
 72
     2
 73
     1
 90
        2
 40
-0.6
 41
30.0
 62
     5
 63
     7
 74
     0
 91
        4
 64
     7
 65
   257
 75
     1
175
     1
 42
1.0
 92
        0
 66
     7
 43
1.0
 76
     1
 77
     6
 78
     2
 67
     7
 79
     5
170
     0
171
     0
290
     0
174
     0
 93
       13
 44
0.0
173
     0
291
     1
 45
0.0
1001
ACAD
1000
AcDbSavedByObjectVersion
1070
     0
  0
VISUALSTYLE
  5
658
102
{ACAD_REACTORS
330
654
102
}
330
654
100
AcDbVisualStyle
  2
GouraudWithEdges
 70
     3
 71
     2
 72
     2
 73
     1
 90
        2
 40
-0.6
 41
30.0
 62
     5
 63
     7
 74
     1
 91
        4
 64
     7
 65
   257
 75
     1
175
     1
 42
1.0
 92
        0
 66
   257
 43
1.0
 76
     1
 77
     6
 78
     2
 67
     7
 79
     5
170
     0
171
     0
290
     0
174
     0
 93
       13
 44
0.0
173
     0
291
     1
 45
0.0
1001
ACAD
1000
AcDbSavedByObjectVersion
1070
     0
  0
VISUALSTYLE
  5
662
102
{ACAD_REACTORS
330
654
102
}
330
654
100
AcDbVisualStyle
  2
Linepattern
 70
    14
 71
     2
 72
     2
 73
     0
 90
        0
 40
-0.6
 41
-30.0
 62
     5
 63
     7
 74
     1
 91
        4
 64
     7
 65
   257
 75
     7
175
     7
 42
1.0
 92
        8
 66
     7
 43
1.0
 76
     1
 77
     6
 78
     2
 67
     7
 79
     5
170
     0
171
     0
290
     0
174
     0
 93
        1
 44
0.0
173
     0
291
     1
 45
0.0
1001
ACAD
1000
AcDbSavedByObjectVersion
1070
     0
  0
VISUALSTYLE
  5
65E
102
{ACAD_REACTORS
330
654
102
}
330
654
100
AcDbVisualStyle
  2
Realistic
 70
     8
 71
     2
 72
     2
 73
     0
 90
        0
 40
-0.6
 41
-30.0
 62
     5
 63
     7
 74
     1
 91
        0
 64
     7
 65
   257
 75
     1
175
     1
 42
1.0
 92
        8
 66
     8
 43
1.0
 76
     1
 77
     6
 78
     2
 67
     7
 79
     5
170
     0
171
     0
290
     0
174
     0
 93
       13
 44
0.0
173
     0
291
     0
 45
0.0
1001
ACAD
1000
AcDbSavedByObjectVersion
1070
     0
  0
VISUALSTYLE
  5
661
102
{ACAD_REACTORS
330
654
102
}
330
654
100
AcDbVisualStyle
  2
Thicken
 70
    13
 71
     2
 72
     2
 73
     0
 90
        0
 40
-0.6
 41
-30.0
 62
     5
 63
     7
 74
     1
 91
        4
 64
     7
 65
   257
 75
     1
175
     1
 42
1.0
 92
       12
 66
     7
 43
1.0
 76
     1
 77
     6
 78
     2
 67
     7
 79
     5
170
     0
171
     0
290
     0
174
     0
 93
        1
 44
0.0
173
     0
291
     1
 45
0.0
1001
ACAD
1000
AcDbSavedByObjectVersion
1070
     0
  0
DICTIONARYVAR
  5
6A5
102
{ACAD_REACTORS
330
6A2
102
}
330
6A2
100
DictionaryVariables
280
     0
  1
1:1
  0
DICTIONARYVAR
  5
6A4
102
{ACAD_REACTORS
330
6A2
102
}
330
6A2
100
DictionaryVariables
280
     0
  1
STANDARD
  0
DICTIONARYVAR
  5
6A3
102
{ACAD_REACTORS
330
6A2
102
}
330
6A2
100
DictionaryVariables
280
     0
  1
STANDARD
  0
DICTIONARYVAR
  5
713
102
{ACAD_REACTORS
330
6A2
102
}
330
6A2
100
DictionaryVariables
280
     0
  1
2
  0
DICTIONARYVAR
  5
712
102
{ACAD_REACTORS
330
6A2
102
}
330
6A2
100
DictionaryVariables
280
     0
  1
1
  0
DICTIONARYVAR
  5
711
102
{ACAD_REACTORS
330
6A2
102
}
330
6A2
100
DictionaryVariables
280
     0
  1
0
  0
DICTIONARYVAR
  5
70F
102
{ACAD_REACTORS
330
6A2
102
}
330
6A2
100
DictionaryVariables
280
     0
  1
2
  0
DICTIONARYVAR
  5
70E
102
{ACAD_REACTORS
330
6A2
102
}
330
6A2
100
DictionaryVariables
280
     0
  1
1
  0
DICTIONARYVAR
  5
710
102
{ACAD_REACTORS
330
6A2
102
}
330
6A2
100
DictionaryVariables
280
     0
  1
127
  0
XRECORD
  5
6FD
102
{ACAD_REACTORS
330
6FB
102
}
330
6FB
100
AcDbXrecord
280
     1
  0
DICTIONARY
  5
72E
330
636
100
AcDbDictionary
280
     1
281
     1
  3
ACAD_XREC_ROUNDTRIP
360
72F
  0
DICTIONARY
  5
72C
330
635
100
AcDbDictionary
280
     1
281
     1
  3
ACAD_XREC_ROUNDTRIP
360
72D
  0
DICTIONARY
  5
645
330
644
100
AcDbDictionary
280
     1
281
     1
  3
ACAD_XREC_ROUNDTRIP
360
733
  3
BUMPTILE
360
647
  3
DIFFUSETILE
360
646
  3
OPACITYTILE
360
64A
  3
REFLECTIONTILE
360
649
  3
REFRACTIONTILE
360
64B
  3
SPECULARTILE
360
648
  0
DICTIONARY
  5
63D
330
63C
100
AcDbDictionary
280
     1
281
     1
  3
ACAD_XREC_ROUNDTRIP
360
732
  3
BUMPTILE
360
63F
  3
DIFFUSETILE
360
63E
  3
OPACITYTILE
360
642
  3
REFLECTIONTILE
360
641
  3
REFRACTIONTILE
360
643
  3
SPECULARTILE
360
640
  0
DICTIONARY
  5
64D
330
64C
100
AcDbDictionary
280
     1
281
     1
  3
ACAD_XREC_ROUNDTRIP
360
734
  3
BUMPTILE
360
64F
  3
DIFFUSETILE
360
64E
  3
OPACITYTILE
360
652
  3
REFLECTIONTILE
360
651
  3
REFRACTIONTILE
360
653
  3
SPECULARTILE
360
650
  0
DICTIONARY
  5
69D
330
637
100
AcDbDictionary
280
     1
281
     1
  3
ACAD_ROUNDTRIP_2008_TABLESTYLE_CELLSTYLEMAP
360
729
  3
ACAD_XREC_ROUNDTRIP
360
730
  0
DICTIONARY
  5
69F
330
638
100
AcDbDictionary
280
     1
281
     1
  3
ACAD_ROUNDTRIP_2008_TABLESTYLE_CELLSTYLEMAP
360
72A
  3
ACAD_XREC_ROUNDTRIP
360
731
  0
XRECORD
  5
72F
102
{ACAD_REACTORS
330
72E
102
}
330
72E
100
AcDbXrecord
280
     1
102
SHADEPLOT
 70
     0
102
SHADEPLOTRESLEVEL
 70
     2
102
SHADEPLOTCUSTOMDPI
 70
   300
  0
XRECORD
  5
72D
102
{ACAD_REACTORS
330
72C
102
}
330
72C
100
AcDbXrecord
280
     1
102
SHADEPLOT
 70
     0
102
SHADEPLOTRESLEVEL
 70
     2
102
SHADEPLOTCUSTOMDPI
 70
   300
  0
XRECORD
  5
733
102
{ACAD_REACTORS
330
645
102
}
330
645
100
AcDbXrecord
280
     1
102
MATERIAL
148
0.0
149
0.0
149
0.0
 93
        0
 94
      127
282
     0
 72
     0
 77
     0
171
     0
175
     0
179
     0
273
     0
  0
XRECORD
  5
647
102
{ACAD_REACTORS
330
645
102
}
330
645
100
AcDbXrecord
280
     1
270
     1
271
     1
  0
XRECORD
  5
646
102
{ACAD_REACTORS
330
645
102
}
330
645
100
AcDbXrecord
280
     1
270
     1
271
     1
  0
XRECORD
  5
64A
102
{ACAD_REACTORS
330
645
102
}
330
645
100
AcDbXrecord
280
     1
270
     1
271
     1
  0
XRECORD
  5
649
102
{ACAD_REACTORS
330
645
102
}
330
645
100
AcDbXrecord
280
     1
270
     1
271
     1
  0
XRECORD
  5
64B
102
{ACAD_REACTORS
330
645
102
}
330
645
100
AcDbXrecord
280
     1
270
     1
271
     1
  0
XRECORD
  5
648
102
{ACAD_REACTORS
330
645
102
}
330
645
100
AcDbXrecord
280
     1
270
     1
271
     1
  0
XRECORD
  5
732
102
{ACAD_REACTORS
330
63D
102
}
330
63D
100
AcDbXrecord
280
     1
102
MATERIAL
148
0.0
149
0.0
149
0.0
 93
        0
 94
      127
282
     0
 72
     0
 77
     0
171
     0
175
     0
179
     0
273
     0
  0
XRECORD
  5
63F
102
{ACAD_REACTORS
330
63D
102
}
330
63D
100
AcDbXrecord
280
     1
270
     1
271
     1
  0
XRECORD
  5
63E
102
{ACAD_REACTORS
330
63D
102
}
330
63D
100
AcDbXrecord
280
     1
270
     1
271
     1
  0
XRECORD
  5
642
102
{ACAD_REACTORS
330
63D
102
}
330
63D
100
AcDbXrecord
280
     1
270
     1
271
     1
  0
XRECORD
  5
641
102
{ACAD_REACTORS
330
63D
102
}
330
63D
100
AcDbXrecord
280
     1
270
     1
271
     1
  0
XRECORD
  5
643
102
{ACAD_REACTORS
330
63D
102
}
330
63D
100
AcDbXrecord
280
     1
270
     1
271
     1
  0
XRECORD
  5
640
102
{ACAD_REACTORS
330
63D
102
}
330
63D
100
AcDbXrecord
280
     1
270
     1
271
     1
  0
XRECORD
  5
734
102
{ACAD_REACTORS
330
64D
102
}
330
64D
100
AcDbXrecord
280
     1
102
MATERIAL
148
0.0
149
0.0
149
0.0
 93
        0
 94
      127
282
     0
 72
     0
 77
     0
171
     0
175
     0
179
     0
273
     0
  0
XRECORD
  5
64F
102
{ACAD_REACTORS
330
64D
102
}
330
64D
100
AcDbXrecord
280
     1
270
     1
271
     1
  0
XRECORD
  5
64E
102
{ACAD_REACTORS
330
64D
102
}
330
64D
100
AcDbXrecord
280
     1
270
     1
271
     1
  0
XRECORD
  5
652
102
{ACAD_REACTORS
330
64D
102
}
330
64D
100
AcDbXrecord
280
     1
270
     1
271
     1
  0
XRECORD
  5
651
102
{ACAD_REACTORS
330
64D
102
}
330
64D
100
AcDbXrecord
280
     1
270
     1
271
     1
  0
XRECORD
  5
653
102
{ACAD_REACTORS
330
64D
102
}
330
64D
100
AcDbXrecord
280
     1
270
     1
271
     1
  0
XRECORD
  5
650
102
{ACAD_REACTORS
330
64D
102
}
330
64D
100
AcDbXrecord
280
     1
270
     1
271
     1
  0
CELLSTYLEMAP
  5
729
102
{ACAD_REACTORS
330
69D
102
}
330
69D
100
AcDbCellStyleMap
 90
        3
300
CELLSTYLE
  1
TABLEFORMAT_BEGIN
 90
        5
170
     1
 91
        0
 92
    32768
 62
   257
 93
        1
300
CONTENTFORMAT
  1
CONTENTFORMAT_BEGIN
 90
        0
 91
        0
 92
      512
 93
        0
300

 40
0.0
140
1.0
 94
        1
 62
     0
340
11
144
0.18
309
CONTENTFORMAT_END
171
     0
 94
        0
309
TABLEFORMAT_END
  1
CELLSTYLE_BEGIN
 90
        1
 91
        1
300
_TITLE
309
CELLSTYLE_END
300
CELLSTYLE
  1
TABLEFORMAT_BEGIN
 90
        5
170
     1
 91
        0
 92
        0
 62
   257
 93
        1
300
CONTENTFORMAT
  1
CONTENTFORMAT_BEGIN
 90
        0
 91
        0
 92
      512
 93
        0
300

 40
0.0
140
1.0
 94
        1
 62
     0
340
11
144
0.18
309
CONTENTFORMAT_END
171
     0
 94
        0
309
TABLEFORMAT_END
  1
CELLSTYLE_BEGIN
 90
        2
 91
        1
300
_HEADER
309
CELLSTYLE_END
300
CELLSTYLE
  1
TABLEFORMAT_BEGIN
 90
        5
170
     1
 91
        0
 92
        0
 62
   257
 93
        1
300
CONTENTFORMAT
  1
CONTENTFORMAT_BEGIN
 90
        0
 91
        0
 92
      512
 93
        0
300

 40
0.0
140
1.0
 94
        1
 62
     0
340
11
144
0.18
309
CONTENTFORMAT_END
171
     0
 94
        0
309
TABLEFORMAT_END
  1
CELLSTYLE_BEGIN
 90
        3
 91
        2
300
_DATA
309
CELLSTYLE_END
  0
XRECORD
  5
730
102
{ACAD_REACTORS
330
69D
102
}
330
69D
100
AcDbXrecord
280
     1
102
ACAD_ROUNDTRIP_PRE2007_TABLESTYLE
 90
      512
 91
        0
  1

 92
      512
 93
        0
  2

 94
      512
 95
        0
  3

  0
CELLSTYLEMAP
  5
72A
102
{ACAD_REACTORS
330
69F
102
}
330
69F
100
AcDbCellStyleMap
 90
        3
300
CELLSTYLE
  1
TABLEFORMAT_BEGIN
 90
        5
170
     1
 91
        0
 92
    32768
 62
   257
 93
        1
300
CONTENTFORMAT
  1
CONTENTFORMAT_BEGIN
 90
        0
 91
        0
 92
      512
 93
        0
300

 40
0.0
140
1.0
 94
        1
 62
     0
340
11
144
0.18
309
CONTENTFORMAT_END
171
     0
 94
        0
309
TABLEFORMAT_END
  1
CELLSTYLE_BEGIN
 90
        1
 91
        1
300
_TITLE
309
CELLSTYLE_END
300
CELLSTYLE
  1
TABLEFORMAT_BEGIN
 90
        5
170
     1
 91
        0
 92
        0
 62
   257
 93
        1
300
CONTENTFORMAT
  1
CONTENTFORMAT_BEGIN
 90
        0
 91
        0
 92
      512
 93
        0
300

 40
0.0
140
1.0
 94
        1
 62
     0
340
11
144
0.18
309
CONTENTFORMAT_END
171
     0
 94
        0
309
TABLEFORMAT_END
  1
CELLSTYLE_BEGIN
 90
        2
 91
        1
300
_HEADER
309
CELLSTYLE_END
300
CELLSTYLE
  1
TABLEFORMAT_BEGIN
 90
        5
170
     1
 91
        0
 92
        0
 62
   257
 93
        1
300
CONTENTFORMAT
  1
CONTENTFORMAT_BEGIN
 90
        0
 91
        0
 92
      512
 93
        0
300

 40
0.0
140
1.0
 94
        1
 62
     0
340
11
144
0.18
309
CONTENTFORMAT_END
171
     0
 94
        0
309
TABLEFORMAT_END
  1
CELLSTYLE_BEGIN
 90
        3
 91
        2
300
_DATA
309
CELLSTYLE_END
  0
XRECORD
  5
731
102
{ACAD_REACTORS
330
69F
102
}
330
69F
100
AcDbXrecord
280
     1
102
ACAD_ROUNDTRIP_PRE2007_TABLESTYLE
 90
      512
 91
        0
  1

 92
      512
 93
        0
  2

 94
      512
 95
        0
  3

  0
ENDSEC
  0
EOF
