  0
SECTION
  2
HEADER
  9
$ACADVER
  1
AC1009
  9
$INSBASE
 10
0.0
 20
0.0
 30
0.0
  9
$EXTMIN
 10
-36.000937859645028
 20
-0.1570511112548161
 30
-0.0000000349181948
  9
$EXTMAX
 10
36.001632526406127
 20
24.227621076323551
 30
0.0000000814935746
  9
$LIMMIN
 10
0.0
 20
0.0
  9
$LIMMAX
 10
144.0
 20
108.0
  9
$ORTHOMODE
 70
     1
  9
$REGENMODE
 70
     1
  9
$FILLMODE
 70
     1
  9
$QTEXTMODE
 70
     0
  9
$MIRRTEXT
 70
     1
  9
$DRAGMODE
 70
     2
  9
$LTSCALE
 40
4.0
  9
$OSMODE
 70
     1
  9
$ATTMODE
 70
     1
  9
$TEXTSIZE
 40
0.003
  9
$TRACEWID
 40
0.05
  9
$TEXTSTYLE
  7
STANDARD
  9
$CLAYER
  8
0
  9
$CELTYPE
  6
CONTINUOUS
  9
$CECOLOR
 62
   256
  9
$DIMSCALE
 40
1.0
  9
$DIMASZ
 40
0.18
  9
$DIMEXO
 40
0.0625
  9
$DIMDLI
 40
0.38
  9
$DIMRND
 40
0.0
  9
$DIMDLE
 40
0.0
  9
$DIMEXE
 40
0.18
  9
$DIMTP
 40
0.0
  9
$DIMTM
 40
0.0
  9
$DIMTXT
 40
0.18
  9
$DIMCEN
 40
0.09
  9
$DIMTSZ
 40
0.0
  9
$DIMTOL
 70
     0
  9
$DIMLIM
 70
     0
  9
$DIMTIH
 70
     1
  9
$DIMTOH
 70
     1
  9
$DIMSE1
 70
     0
  9
$DIMSE2
 70
     0
  9
$DIMTAD
 70
     0
  9
$DIMZIN
 70
     0
  9
$DIMBLK
  1

  9
$DIMASO
 70
     1
  9
$DIMSHO
 70
     1
  9
$DIMPOST
  1

  9
$DIMAPOST
  1

  9
$DIMALT
 70
     0
  9
$DIMALTD
 70
     2
  9
$DIMALTF
 40
25.399999999999999
  9
$DIMLFAC
 40
1.0
  9
$DIMTOFL
 70
     0
  9
$DIMTVP
 40
0.0
  9
$DIMTIX
 70
     0
  9
$DIMSOXD
 70
     0
  9
$DIMSAH
 70
     0
  9
$DIMBLK1
  1

  9
$DIMBLK2
  1

  9
$DIMSTYLE
  2
STANDARD
  9
$DIMCLRD
 70
     0
  9
$DIMCLRE
 70
     0
  9
$DIMCLRT
 70
     0
  9
$DIMTFAC
 40
1.0
  9
$DIMGAP
 40
0.09
  9
$LUNITS
 70
     2
  9
$LUPREC
 70
     4
  9
$SKETCHINC
 40
0.1
  9
$FILLETRAD
 40
0.0
  9
$AUNITS
 70
     0
  9
$AUPREC
 70
     0
  9
$MENU
  1
acad
  9
$ELEVATION
 40
0.0
  9
$PELEVATION
 40
0.0
  9
$THICKNESS
 40
0.0
  9
$LIMCHECK
 70
     0
  9
$BLIPMODE
 70
     0
  9
$CHAMFERA
 40
0.0
  9
$CHAMFERB
 40
0.0
  9
$SKPOLY
 70
     0
  9
$TDCREATE
 40
2453711.3693350689
  9
$TDUPDATE
 40
2453916.7377840509
  9
$TDINDWG
 40
0.0089813426
  9
$TDUSRTIMER
 40
0.0089813426
  9
$USRTIMER
 70
     1
  9
$ANGBASE
 50
0.0
  9
$ANGDIR
 70
     0
  9
$PDMODE
 70
     3
  9
$PDSIZE
 40
-2.0
  9
$PLINEWID
 40
0.0
  9
$COORDS
 70
     1
  9
$SPLFRAME
 70
     0
  9
$SPLINETYPE
 70
     6
  9
$SPLINESEGS
 70
     8
  9
$ATTDIA
 70
     0
  9
$ATTREQ
 70
     1
  9
$HANDLING
 70
     1
  9
$HANDSEED
  5
15C
  9
$SURFTAB1
 70
     6
  9
$SURFTAB2
 70
     6
  9
$SURFTYPE
 70
     6
  9
$SURFU
 70
     6
  9
$SURFV
 70
     6
  9
$UCSNAME
  2

  9
$UCSORG
 10
0.0
 20
0.0
 30
0.0
  9
$UCSXDIR
 10
1.0
 20
0.0
 30
0.0
  9
$UCSYDIR
 10
0.0
 20
1.0
 30
0.0
  9
$PUCSNAME
  2

  9
$PUCSORG
 10
0.0
 20
0.0
 30
0.0
  9
$PUCSXDIR
 10
1.0
 20
0.0
 30
0.0
  9
$PUCSYDIR
 10
0.0
 20
1.0
 30
0.0
  9
$USERI1
 70
     0
  9
$USERI2
 70
     0
  9
$USERI3
 70
     0
  9
$USERI4
 70
     0
  9
$USERI5
 70
     0
  9
$USERR1
 40
0.0
  9
$USERR2
 40
0.0
  9
$USERR3
 40
0.0
  9
$USERR4
 40
0.0
  9
$USERR5
 40
0.0
  9
$WORLDVIEW
 70
     1
  9
$SHADEDGE
 70
     3
  9
$SHADEDIF
 70
    70
  9
$TILEMODE
 70
     1
  9
$MAXACTVP
 70
    16
  9
$PLIMCHECK
 70
     0
  9
$PEXTMIN
 10
1.0000000000000000E+020
 20
1.0000000000000000E+020
 30
1.0000000000000000E+020
  9
$PEXTMAX
 10
-1.0000000000000000E+020
 20
-1.0000000000000000E+020
 30
-1.0000000000000000E+020
  9
$PLIMMIN
 10
0.0
 20
0.0
  9
$PLIMMAX
 10
12.0
 20
9.0
  9
$UNITMODE
 70
     0
  9
$VISRETAIN
 70
     0
  9
$PLINEGEN
 70
     1
  9
$PSLTSCALE
 70
     0
  0
ENDSEC
  0
SECTION
  2
TABLES
  0
TABLE
  2
VPORT
 70
     4
  0
VPORT
  2
*ACTIVE
 70
     0
 10
0.0
 20
0.0
 11
1.0
 21
1.0
 12
0.0003473333805459
 22
12.03528498253436
 13
0.0
 23
0.0
 14
1.0
 24
1.0
 15
0.0
 25
0.0
 16
0.0
 26
0.0
 36
1.0
 17
0.0
 27
0.0
 37
0.0
 40
48.240231422207358
 41
1.5
 42
50.0
 43
0.0
 44
0.0
 50
0.0
 51
0.0
 71
     0
 72
   100
 73
     1
 74
     1
 75
     0
 76
     0
 77
     0
 78
     0
  0
ENDTAB
  0
TABLE
  2
LTYPE
 70
     1
  0
LTYPE
  2
CONTINUOUS
 70
     0
  3
Solid line
 72
    65
 73
     0
 40
0.0
  0
ENDTAB
  0
TABLE
  2
LAYER
 70
     2
  0
LAYER
  2
0
 70
     0
 62
     7
  6
CONTINUOUS
  0
ENDTAB
  0
TABLE
  2
STYLE
 70
     1
  0
STYLE
  2
STANDARD
 70
     0
 40
0.0
 41
1.0
 50
0.0
 71
     0
 42
0.003
  3
txt
  4

  0
ENDTAB
  0
TABLE
  2
VIEW
 70
     0
  0
ENDTAB
  0
TABLE
  2
UCS
 70
     0
  0
ENDTAB
  0
TABLE
  2
APPID
 70
     3
  0
APPID
  2
ACAD
 70
     0
  0
APPID
  2
ACAECLAYERSTANDARD
 70
     0
  0
APPID
  2
DCO15
 70
     0
  0
ENDTAB
  0
TABLE
  2
DIMSTYLE
 70
     1
  0
DIMSTYLE
  2
STANDARD
 70
     0
  3

  4

  5

  6

  7

 40
1.0
 41
0.18
 42
0.0625
 43
0.38
 44
0.18
 45
0.0
 46
0.0
 47
0.0
 48
0.0
140
0.18
141
0.09
142
0.0
143
25.399999999999999
144
1.0
145
0.0
146
1.0
147
0.09
 71
     0
 72
     0
 73
     1
 74
     1
 75
     0
 76
     0
 77
     0
 78
     0
170
     0
171
     2
172
     0
173
     0
174
     0
175
     0
176
     0
177
     0
178
     0
  0
ENDTAB
  0
ENDSEC
  0
SECTION
  2
BLOCKS
  0
BLOCK
  8
0
  2
$MODEL_SPACE
 70
     2
 10
0.0
 20
0.0
 30
0.0
  3
$MODEL_SPACE
  1

  0
ENDBLK
  5
9
  8
0
  0
BLOCK
 67
     1
  8
0
  2
$PAPER_SPACE
 70
     0
 10
0.0
 20
0.0
 30
0.0
  3
$PAPER_SPACE
  1

  0
ENDBLK
  5
E
 67
     1
  8
0
  0
ENDSEC
  0
SECTION
  2
ENTITIES
  0
ATTDEF
  5
4D
  8
0
  6
CONTINUOUS
 10
-0.0018
 20
-0.0165
 30
0.0
 40
0.003
  1
ACRYLIC
  3

  2
MATERIAL
 70
     2
  0
ATTDEF
  5
4E
  8
0
  6
CONTINUOUS
 10
-0.0018
 20
-0.0132
 30
0.0
 40
0.003
  1
BATH
  3

  2
PRODUCT
 70
     2
  0
ATTDEF
  5
4F
  8
0
  6
CONTINUOUS
 10
-0.0018
 20
-0.0098
 30
0.0
 40
0.003
  1
ESCALE
  3

  2
TRADENAME
 70
     2
  0
ATTDEF
  5
50
  8
0
  6
CONTINUOUS
 10
-0.0018
 20
-0.0065
 30
0.0
 40
0.003
  1
K-11344
  3

  2
MODELNUMBER
 70
     2
  0
ARC
  5
113
  8
0
 10
0.000000015268127
 20
-83959.553098998775
 30
0.0
 40
83959.660721156295
 50
89.98542887408108
 51
90.014571125938375
  0
ARC
  5
114
  8
0
 10
-0.0000309701767378
 20
655.00752238622022
 30
0.0
 40
631.8035102217209
 50
267.0458110405811
 51
272.95413659935372
  0
ARC
  5
115
  8
0
 10
-0.0000000000004547
 20
642.5239154617401
 30
0.0
 40
621.32596182033365
 50
266.76639138004708
 51
273.2336086199528
  0
LINE
  5
116
  8
0
 10
-36.0
 20
21.2345191589
 30
0.0
 11
-35.738932844401411
 21
22.71510487595954
 31
0.0
  0
LINE
  5
117
  8
0
 10
-36.0
 20
21.2345191589
 30
0.0
 11
-35.047234067100021
 21
22.187198656899991
 31
0.0
  0
LINE
  5
118
  8
0
 10
-35.80303844819997
 20
21.199789530299991
 30
0.0
 11
-36.0
 21
21.2345191589
 31
0.0
  0
LINE
  5
119
  8
0
 10
-35.80303844819997
 20
21.199789530299991
 30
0.0
 11
-34.851101225800001
 21
22.15246892579999
 31
0.0
  0
LINE
  5
11A
  8
0
 10
-35.047234067100021
 20
22.187198656900009
 30
0.0
 11
-34.802109205850741
 21
23.704639112511071
 31
0.0
  0
LINE
  5
11B
  8
0
 10
-32.561592922099983
 20
24.043640526299999
 30
0.0
 11
-34.285117681672212
 21
24.124356159868459
 31
0.0
  0
ARC
  5
11C
  8
0
 10
-34.308507907218313
 20
23.624903562168839
 30
0.0
 40
0.5
 50
87.318699017040714
 51
170.8238016430368
  0
LINE
  5
11D
  8
0
 10
-34.672603679329768
 20
23.967590399865561
 30
0.0
 11
-35.610624736960013
 21
22.970967642101741
 31
0.0
  0
ARC
  5
11E
  8
0
 10
-35.246528964848551
 20
22.628280804405019
 30
0.0
 40
0.5
 50
136.7349983102105
 51
170.00000201056631
  0
ARC
  5
11F
  8
0
 10
-198.10543405679539
 20
-83.142609462340943
 30
0.0
 40
194.2363134675156
 50
25.747919137331341
 51
29.704819821861861
  0
ARC
  5
120
  8
0
 10
-21.352635897689542
 20
2.1049070190641208
 30
0.0
 40
2.0
 50
205.74791913733159
 51
270.01457112602492
  0
ARC
  5
121
  8
0
 10
-59.49270778004756
 20
-3.41767160963711
 30
0.0
 40
34.337059252146076
 50
28.768235057298291
 51
46.09487866919595
  0
LINE
  5
122
  8
0
 10
-8.5824999999999818
 20
0.1071834985987721
 30
0.0
 11
-8.5824999999999818
 21
0.0
 31
0.0
  0
LINE
  5
123
  8
0
 10
-8.5824999999999818
 20
0.0
 30
0.0
 11
-7.9339999999999691
 21
0.0
 31
0.0
  0
LINE
  5
124
  8
0
 10
-6.4174999999999036
 20
0.1073768950510043
 30
0.0
 11
-6.4174999999999613
 21
0.0
 31
0.0
  0
LINE
  5
125
  8
0
 10
-6.4174999999999613
 20
0.0
 30
0.0
 11
-7.0659999999999741
 21
0.0
 31
0.0
  0
LINE
  5
126
  8
0
 10
-7.0274999999999741
 20
0.0589999999999975
 30
0.0
 11
-7.9724999999999682
 21
0.0589999999999975
 31
0.0
  0
LINE
  5
127
  8
0
 10
-7.9724999999999682
 20
0.0589999999999975
 30
0.0
 11
-7.9724999999999682
 21
0.1072436378954649
 31
0.0
  0
LINE
  5
128
  8
0
 10
-7.0274999999999741
 20
0.0589999999999975
 30
0.0
 11
-7.0274999999999741
 21
0.1073280534392893
 31
0.0
  0
LINE
  5
129
  8
0
 10
-7.6294981663999693
 20
0.0589999999999975
 30
0.0
 11
-7.617494803399949
 21
0.0469999999999971
 31
0.0
  0
LINE
  5
12A
  8
0
 10
-7.617494803399949
 20
0.0469999999999971
 30
0.0
 11
-7.3825051965000048
 21
0.0469999999999971
 31
0.0
  0
LINE
  5
12B
  8
0
 10
-7.3825051965000048
 20
0.0469999999999971
 30
0.0
 11
-7.370501833599973
 21
0.0589999999999975
 31
0.0
  0
ARC
  5
12C
  8
0
 10
-7.9339999999999691
 20
0.0600000000000023
 30
0.0
 40
0.06
 50
270.00000000001631
 51
359.03219544829881
  0
ARC
  5
12D
  8
0
 10
-7.0659999999999741
 20
0.0600000000000023
 30
0.0
 40
0.06
 50
180.9678045517166
 51
270.0
  0
LINE
  5
12E
  8
0
 10
-20.080438251200011
 20
0.1049993996999916
 30
0.0
 11
-20.0844209851
 21
-0.0090511780000071
 31
0.0
  0
LINE
  5
12F
  8
0
 10
-20.0844209851
 20
-0.0090511780000071
 30
0.0
 11
-21.06807337390001
 21
0.0252987202999933
 31
0.0
  0
LINE
  5
130
  8
0
 10
-21.06807337390001
 20
0.0252987202999933
 30
0.0
 11
-21.065287921899991
 21
0.1050636279999892
 31
0.0
  0
LINE
  5
131
  8
0
 10
36.0
 20
21.2345191589
 30
0.0
 11
35.738932844401411
 21
22.71510487595954
 31
0.0
  0
LINE
  5
132
  8
0
 10
36.0
 20
21.2345191589
 30
0.0
 11
35.047234067100021
 21
22.187198656899991
 31
0.0
  0
LINE
  5
133
  8
0
 10
35.80303844819997
 20
21.199789530299991
 30
0.0
 11
36.0
 21
21.2345191589
 31
0.0
  0
LINE
  5
134
  8
0
 10
35.80303844819997
 20
21.199789530299991
 30
0.0
 11
34.828697056305892
 21
22.174890562593021
 31
0.0
  0
LINE
  5
135
  8
0
 10
35.047234067100021
 20
22.187198656900009
 30
0.0
 11
34.802109205850741
 21
23.704639112511071
 31
0.0
  0
LINE
  5
136
  8
0
 10
32.561592922099983
 20
24.043640526299999
 30
0.0
 11
34.285117681672212
 21
24.124356159868459
 31
0.0
  0
ARC
  5
137
  8
0
 10
34.308507907218313
 20
23.624903562168839
 30
0.0
 40
0.5
 50
9.1761983569631251
 51
92.681300982959272
  0
LINE
  5
138
  8
0
 10
34.672603679329768
 20
23.967590399865561
 30
0.0
 11
35.610624736960013
 21
22.970967642101741
 31
0.0
  0
ARC
  5
139
  8
0
 10
35.246528964848551
 20
22.628280804405019
 30
0.0
 40
0.5
 50
9.9999979894336484
 51
43.265001689789443
  0
ARC
  5
13A
  8
0
 10
198.10543405679539
 20
-83.142609462340943
 30
0.0
 40
194.2363134675156
 50
150.29518017813811
 51
154.25208086266861
  0
ARC
  5
13B
  8
0
 10
21.352635897689542
 20
2.1049070190641208
 30
0.0
 40
2.0
 50
269.98542887397508
 51
334.25208086266838
  0
ARC
  5
13C
  8
0
 10
59.49270778004756
 20
-3.41767160963711
 30
0.0
 40
34.337059252146076
 50
133.90512133080401
 51
151.23176494270169
  0
LINE
  5
13D
  8
0
 10
8.5825000000000387
 20
0.1071834985987721
 30
0.0
 11
8.5824999999999818
 21
0.0
 31
0.0
  0
LINE
  5
13E
  8
0
 10
8.5824999999999818
 20
0.0
 30
0.0
 11
7.9339999999999691
 21
0.0
 31
0.0
  0
LINE
  5
13F
  8
0
 10
6.4174999999999613
 20
0.1073768950510043
 30
0.0
 11
6.4174999999999613
 21
0.0
 31
0.0
  0
LINE
  5
140
  8
0
 10
6.4174999999999613
 20
0.0
 30
0.0
 11
7.0659999999999741
 21
0.0
 31
0.0
  0
LINE
  5
141
  8
0
 10
7.0274999999999741
 20
0.0589999999999975
 30
0.0
 11
7.9724999999999682
 21
0.0589999999999975
 31
0.0
  0
LINE
  5
142
  8
0
 10
7.9724999999999682
 20
0.0589999999999975
 30
0.0
 11
7.9724999999999682
 21
0.1072436378954649
 31
0.0
  0
LINE
  5
143
  8
0
 10
7.0274999999999741
 20
0.0589999999999975
 30
0.0
 11
7.0274999999999741
 21
0.1073280534392893
 31
0.0
  0
LINE
  5
144
  8
0
 10
7.6294981663999693
 20
0.0589999999999975
 30
0.0
 11
7.617494803399949
 21
0.0469999999999971
 31
0.0
  0
LINE
  5
145
  8
0
 10
7.617494803399949
 20
0.0469999999999971
 30
0.0
 11
7.3825051965000048
 21
0.0469999999999971
 31
0.0
  0
LINE
  5
146
  8
0
 10
7.3825051965000048
 20
0.0469999999999971
 30
0.0
 11
7.370501833599973
 21
0.0589999999999975
 31
0.0
  0
ARC
  5
147
  8
0
 10
7.9339999999999691
 20
0.0600000000000023
 30
0.0
 40
0.06
 50
180.96780455170111
 51
269.9999999999838
  0
ARC
  5
148
  8
0
 10
7.0659999999999741
 20
0.0600000000000023
 30
0.0
 40
0.06
 50
270.0
 51
359.03219544828329
  0
LINE
  5
149
  8
0
 10
20.080438251200011
 20
0.1049993996999916
 30
0.0
 11
20.0844209851
 21
-0.0090511780000071
 31
0.0
  0
LINE
  5
14A
  8
0
 10
20.0844209851
 20
-0.0090511780000071
 30
0.0
 11
21.06807337390001
 21
0.0252987202999933
 31
0.0
  0
LINE
  5
14B
  8
0
 10
21.06807337390001
 20
0.0252987202999933
 30
0.0
 11
21.065287921899991
 21
0.1050636279999892
 31
0.0
  0
ENDSEC
  0
EOF
