  0
SECTION
  2
HEADER
  9
$ACADVER
  1
AC1018
  9
$ACADMAINTVER
 70
    76
  9
$DWGCODEPAGE
  3
ANSI_936
  9
$INSBASE
 10
0.0
 20
0.0
 30
0.0
  9
$EXTMIN
 10
166.0545272631025
 20
112.5057104330417
 30
0.0
  9
$EXTMAX
 10
247.3991187565644
 20
192.9199130947865
 30
0.0
  9
$LIMMIN
 10
0.0
 20
0.0
  9
$LIMMAX
 10
420.0
 20
297.0
  9
$ORTHOMODE
 70
     0
  9
$REGENMODE
 70
     1
  9
$FILLMODE
 70
     1
  9
$QTEXTMODE
 70
     0
  9
$MIRRTEXT
 70
     0
  9
$LTSCALE
 40
1.0
  9
$ATTMODE
 70
     1
  9
$TEXTSIZE
 40
2.5
  9
$TRACEWID
 40
1.0
  9
$TEXTSTYLE
  7
STANDARD
  9
$CLAYER
  8
0
  9
$CELTYPE
  6
ByLayer
  9
$CECOLOR
 62
   256
  9
$CELTSCALE
 40
1.0
  9
$DISPSILH
 70
     0
  9
$DIMSCALE
 40
1.0
  9
$DIMASZ
 40
2.5
  9
$DIMEXO
 40
1.0
  9
$DIMDLI
 40
10.0
  9
$DIMRND
 40
0.0
  9
$DIMDLE
 40
0.0
  9
$DIMEXE
 40
1.0
  9
$DIMTP
 40
0.1
  9
$DIMTM
 40
0.1
  9
$DIMTXT
 40
3.5
  9
$DIMCEN
 40
0.0
  9
$DIMTSZ
 40
0.0
  9
$DIMTOL
 70
     0
  9
$DIMLIM
 70
     0
  9
$DIMTIH
 70
     0
  9
$DIMTOH
 70
     0
  9
$DIMSE1
 70
     0
  9
$DIMSE2
 70
     0
  9
$DIMTAD
 70
     1
  9
$DIMZIN
 70
     8
  9
$DIMBLK
  1

  9
$DIMASO
 70
     1
  9
$DIMSHO
 70
     1
  9
$DIMPOST
  1

  9
$DIMAPOST
  1
"
  9
$DIMALT
 70
     0
  9
$DIMALTD
 70
     2
  9
$DIMALTF
 40
0.0393701
  9
$DIMLFAC
 40
1.0
  9
$DIMTOFL
 70
     1
  9
$DIMTVP
 40
0.0
  9
$DIMTIX
 70
     0
  9
$DIMSOXD
 70
     0
  9
$DIMSAH
 70
     0
  9
$DIMBLK1
  1

  9
$DIMBLK2
  1

  9
$DIMSTYLE
  2
AM_ISO
  9
$DIMCLRD
 70
   256
  9
$DIMCLRE
 70
   256
  9
$DIMCLRT
 70
     2
  9
$DIMTFAC
 40
0.71
  9
$DIMGAP
 40
1.5
  9
$DIMJUST
 70
     0
  9
$DIMSD1
 70
     0
  9
$DIMSD2
 70
     0
  9
$DIMTOLJ
 70
     0
  9
$DIMTZIN
 70
     8
  9
$DIMALTZ
 70
     0
  9
$DIMALTTZ
 70
     0
  9
$DIMUPT
 70
     0
  9
$DIMDEC
 70
     2
  9
$DIMTDEC
 70
     3
  9
$DIMALTU
 70
     2
  9
$DIMALTTD
 70
     4
  9
$DIMTXSTY
  7
STANDARD
  9
$DIMAUNIT
 70
     0
  9
$DIMADEC
 70
     0
  9
$DIMALTRND
 40
0.0
  9
$DIMAZIN
 70
     2
  9
$DIMDSEP
 70
    46
  9
$DIMATFIT
 70
     3
  9
$DIMFRAC
 70
     0
  9
$DIMLDRBLK
  1

  9
$DIMLUNIT
 70
     2
  9
$DIMLWD
 70
    -1
  9
$DIMLWE
 70
    -1
  9
$DIMTMOVE
 70
     0
  9
$LUNITS
 70
     2
  9
$LUPREC
 70
     2
  9
$SKETCHINC
 40
1.0
  9
$FILLETRAD
 40
2.5
  9
$AUNITS
 70
     0
  9
$AUPREC
 70
     0
  9
$MENU
  1
.
  9
$ELEVATION
 40
0.0
  9
$PELEVATION
 40
0.0
  9
$THICKNESS
 40
0.0
  9
$LIMCHECK
 70
     0
  9
$CHAMFERA
 40
2.5
  9
$CHAMFERB
 40
2.5
  9
$CHAMFERC
 40
0.0
  9
$CHAMFERD
 40
0.0
  9
$SKPOLY
 70
     0
  9
$TDCREATE
 40
2454792.398144618
  9
$TDUCREATE
 40
2454792.064811285
  9
$TDUPDATE
 40
2454792.399196968
  9
$TDUUPDATE
 40
2454792.065863635
  9
$TDINDWG
 40
0.0010523495
  9
$TDUSRTIMER
 40
0.0010523495
  9
$USRTIMER
 70
     1
  9
$ANGBASE
 50
0.0
  9
$ANGDIR
 70
     0
  9
$PDMODE
 70
     0
  9
$PDSIZE
 40
0.0
  9
$PLINEWID
 40
0.0
  9
$SPLFRAME
 70
     0
  9
$SPLINETYPE
 70
     6
  9
$SPLINESEGS
 70
     8
  9
$HANDSEED
  5
2AB
  9
$SURFTAB1
 70
     6
  9
$SURFTAB2
 70
     6
  9
$SURFTYPE
 70
     6
  9
$SURFU
 70
     6
  9
$SURFV
 70
     6
  9
$UCSBASE
  2

  9
$UCSNAME
  2

  9
$UCSORG
 10
0.0
 20
0.0
 30
0.0
  9
$UCSXDIR
 10
1.0
 20
0.0
 30
0.0
  9
$UCSYDIR
 10
0.0
 20
1.0
 30
0.0
  9
$UCSORTHOREF
  2

  9
$UCSORTHOVIEW
 70
     0
  9
$UCSORGTOP
 10
0.0
 20
0.0
 30
0.0
  9
$UCSORGBOTTOM
 10
0.0
 20
0.0
 30
0.0
  9
$UCSORGLEFT
 10
0.0
 20
0.0
 30
0.0
  9
$UCSORGRIGHT
 10
0.0
 20
0.0
 30
0.0
  9
$UCSORGFRONT
 10
0.0
 20
0.0
 30
0.0
  9
$UCSORGBACK
 10
0.0
 20
0.0
 30
0.0
  9
$PUCSBASE
  2

  9
$PUCSNAME
  2

  9
$PUCSORG
 10
0.0
 20
0.0
 30
0.0
  9
$PUCSXDIR
 10
1.0
 20
0.0
 30
0.0
  9
$PUCSYDIR
 10
0.0
 20
1.0
 30
0.0
  9
$PUCSORTHOREF
  2

  9
$PUCSORTHOVIEW
 70
     0
  9
$PUCSORGTOP
 10
0.0
 20
0.0
 30
0.0
  9
$PUCSORGBOTTOM
 10
0.0
 20
0.0
 30
0.0
  9
$PUCSORGLEFT
 10
0.0
 20
0.0
 30
0.0
  9
$PUCSORGRIGHT
 10
0.0
 20
0.0
 30
0.0
  9
$PUCSORGFRONT
 10
0.0
 20
0.0
 30
0.0
  9
$PUCSORGBACK
 10
0.0
 20
0.0
 30
0.0
  9
$USERI1
 70
     0
  9
$USERI2
 70
     0
  9
$USERI3
 70
     0
  9
$USERI4
 70
     0
  9
$USERI5
 70
     0
  9
$USERR1
 40
0.0
  9
$USERR2
 40
0.0
  9
$USERR3
 40
0.0
  9
$USERR4
 40
0.0
  9
$USERR5
 40
0.0
  9
$WORLDVIEW
 70
     1
  9
$SHADEDGE
 70
     3
  9
$SHADEDIF
 70
    70
  9
$TILEMODE
 70
     1
  9
$MAXACTVP
 70
    64
  9
$PINSBASE
 10
0.0
 20
0.0
 30
0.0
  9
$PLIMCHECK
 70
     0
  9
$PEXTMIN
 10
1.000000000000000E+20
 20
1.000000000000000E+20
 30
1.000000000000000E+20
  9
$PEXTMAX
 10
-1.000000000000000E+20
 20
-1.000000000000000E+20
 30
-1.000000000000000E+20
  9
$PLIMMIN
 10
0.0
 20
0.0
  9
$PLIMMAX
 10
420.0
 20
297.0
  9
$UNITMODE
 70
     0
  9
$VISRETAIN
 70
     1
  9
$PLINEGEN
 70
     0
  9
$PSLTSCALE
 70
     1
  9
$TREEDEPTH
 70
  3020
  9
$CMLSTYLE
  2
Standard
  9
$CMLJUST
 70
     0
  9
$CMLSCALE
 40
20.0
  9
$PROXYGRAPHICS
 70
     1
  9
$MEASUREMENT
 70
     1
  9
$CELWEIGHT
370
    -1
  9
$ENDCAPS
280
     0
  9
$JOINSTYLE
280
     0
  9
$LWDISPLAY
290
     0
  9
$INSUNITS
 70
     4
  9
$HYPERLINKBASE
  1

  9
$STYLESHEET
  1

  9
$XEDIT
290
     1
  9
$CEPSNTYPE
380
     0
  9
$PSTYLEMODE
290
     1
  9
$FINGERPRINTGUID
  2
{DAF6AE4C-B071-4C30-B8F3-1A0A111ECDB6}
  9
$VERSIONGUID
  2
{91287179-BE1F-4634-BB0A-A7A586C92825}
  9
$EXTNAMES
290
     1
  9
$PSVPSCALE
 40
0.0
  9
$OLESTARTUP
290
     0
  9
$SORTENTS
280
   127
  9
$INDEXCTL
280
     0
  9
$HIDETEXT
280
     1
  9
$XCLIPFRAME
290
     0
  9
$HALOGAP
280
     0
  9
$OBSCOLOR
 70
   257
  9
$OBSLTYPE
280
     0
  9
$INTERSECTIONDISPLAY
280
     0
  9
$INTERSECTIONCOLOR
 70
   257
  9
$DIMASSOC
280
     2
  9
$PROJECTNAME
  1

  0
ENDSEC
  0
SECTION
  2
CLASSES
  0
CLASS
  1
ACDBDICTIONARYWDFLT
  2
AcDbDictionaryWithDefault
  3
ObjectDBX Classes
 90
        0
 91
        1
280
     0
281
     0
  0
CLASS
  1
TABLESTYLE
  2
AcDbTableStyle
  3
ObjectDBX Classes
 90
     2047
 91
        1
280
     0
281
     0
  0
CLASS
  1
AMGSETTINGSOBJ
  2
AmgSettingsObj
  3
"AcadM|Product Description: AutoCAD Mechanical 2000|Company: Autodesk"
 90
        0
 91
        2
280
     0
281
     0
  0
CLASS
  1
ACME_DOCUMENT
  2
AcMeDbDoc
  3
AcMeServices
 90
        0
 91
        1
280
     0
281
     0
  0
CLASS
  1
ACMESCOPE
  2
AcMeScope
  3
AcMeServices
 90
        0
 91
        1
280
     0
281
     0
  0
CLASS
  1
ACMECOMMANDHISTORY
  2
AcMeCommandHistory
  3
AcMeServices
 90
        0
 91
        1
280
     0
281
     0
  0
CLASS
  1
ACIMSYSVARMAN
  2
AcImSysVarManager
  3
AcMeServices
 90
        0
 91
        5
280
     0
281
     0
  0
CLASS
  1
ACIMINTSYSVAR
  2
AcImIntSysVar
  3
AcMeServices
 90
        0
 91
       26
280
     0
281
     0
  0
CLASS
  1
ACMEDRAWINGMAN
  2
AcMeDrawingMan
  3
AcMeServices
 90
        0
 91
        1
280
     0
281
     0
  0
CLASS
  1
ACMEVIEW
  2
AcMeView
  3
AcMeServices
 90
        0
 91
        1
280
     0
281
     0
  0
CLASS
  1
ACDBENTITYCACHE
  2
AcMeEntityCache
  3
AcMeServices
 90
        0
 91
        1
280
     0
281
     0
  0
CLASS
  1
GSMANAGER
  2
AcMeGSManager
  3
AcMeServices
 90
        0
 91
        1
280
     0
281
     0
  0
CLASS
  1
AMDTINTERNALREACTOR
  2
AmdtInternalReactor
  3
AcMeServices
 90
        0
 91
        2
280
     0
281
     0
  0
CLASS
  1
ACMESTATEMGR
  2
AcMeStateMgr
  3
AcMeServices
 90
        0
 91
        1
280
     0
281
     0
  0
CLASS
  1
ACGREFMASTER
  2
AcGrefMaster
  3
AcAttribServices
 90
        0
 91
        1
280
     0
281
     0
  0
CLASS
  1
AM_DRAWING_MGR
  2
AcDmDwgMgr
  3
AcMechDwgViewMgmt
 90
        0
 91
        1
280
     0
281
     0
  0
CLASS
  1
AM_DWG_DOCUMENT
  2
AcDmDwgDocument
  3
AcMechDwgViewMgmt
 90
        0
 91
        1
280
     0
281
     0
  0
CLASS
  1
AM_DWG_SHEET
  2
AcDmSheet
  3
AcMechDwgViewMgmt
 90
        0
 91
        2
280
     0
281
     0
  0
CLASS
  1
AM_VIEWDIMPARMAP
  2
AcDmViewDimParMap
  3
AcMechDwgViewMgmt
 90
        0
 91
        2
280
     0
281
     0
  0
CLASS
  1
ACIMREALSYSVAR
  2
AcImRealSysVar
  3
AcMeServices
 90
        0
 91
        1
280
     0
281
     0
  0
CLASS
  1
AM_DWGMGR_NAME
  2
AcDmDwgMgrName
  3
AcMechDwgViewMgmt
 90
        0
 91
        1
280
     0
281
     0
  0
CLASS
  1
ACME_DATABASE
  2
AcMeDbDatabase
  3
AcMeServices
 90
        0
 91
        3
280
     0
281
     0
  0
CLASS
  1
ACRFINSADJUSTERMGR
  2
AcRfInsAdjusterMgr
  3
AcMeServices
 90
        0
 91
        1
280
     0
281
     0
  0
CLASS
  1
ACGREFACADMASTER
  2
AcGrefacadMaster
  3
AcGrefServices
 90
        0
 91
        1
280
     0
281
     0
  0
CLASS
  1
AMDTMENUSTATEMGR
  2
AmdtMenuStateMgr
  3
McadcomServices
 90
        0
 91
        1
280
     0
281
     0
  0
CLASS
  1
AMDTMCOMMENUSTATE
  2
AmdtMcomMenuState
  3
McadcomServices
 90
        0
 91
        1
280
     0
281
     0
  0
CLASS
  1
AMIMASTER
  2
AmiMaster
  3
AmiServices
 90
        0
 91
        1
280
     0
281
     0
  0
CLASS
  1
MAPIAMMOUDLE
  2
MApiAmModule
  3
MApiAmServices
 90
        0
 91
        1
280
     0
281
     0
  0
CLASS
  1
ACIMSTRSYSVAR
  2
AcImStrSysVar
  3
AcMeServices
 90
        0
 91
        5
280
     0
281
     0
  0
CLASS
  1
AMDTADMENUSTATE
  2
AmdtAdMenuState
  3
DesignerServices
 90
        0
 91
        1
280
     0
281
     0
  0
CLASS
  1
ADAPPL
  2
AcAdAppl
  3
DesignerServices
 90
        0
 91
        1
280
     0
281
     0
  0
CLASS
  1
DEPMGR
  2
AcAdDepMgr
  3
DesignerServices
 90
        0
 91
        1
280
     0
281
     0
  0
CLASS
  1
PARAMMGR
  2
AcAdParamMgr
  3
DesignerServices
 90
        0
 91
        1
280
     0
281
     0
  0
CLASS
  1
PARAMSCOPE
  2
AcAdParamScope
  3
DesignerServices
 90
        0
 91
        1
280
     0
281
     0
  0
CLASS
  1
NAMEDAPPL
  2
AcAdNamedAppl
  3
DesignerServices
 90
        0
 91
        1
280
     0
281
     0
  0
CLASS
  1
AMDTDMMENUSTATE
  2
AmdtDmMenuState
  3
AcMechDwgViewMgmt
 90
        0
 91
        1
280
     0
281
     0
  0
CLASS
  1
AMDTAMMENUSTATE
  2
AmdtAmMenuState
  3
DesignerAssemblies
 90
        0
 91
        1
280
     0
281
     0
  0
CLASS
  1
ACAMPROJECT
  2
AcAmProject
  3
DesignerAssemblies
 90
        0
 91
        1
280
     0
281
     0
  0
CLASS
  1
ACAMGRCOMPDEF
  2
AcAmGrCompDef
  3
DesignerAssemblies
 90
        0
 91
        1
280
     0
281
     0
  0
CLASS
  1
ACCMCONTEXT
  2
AcCmContext
  3
DesignerAssemblies
 90
        0
 91
        1
280
     0
281
     0
  0
CLASS
  1
ACAMCOMPDEF
  2
AcAmCompDef
  3
DesignerAssemblies
 90
        0
 91
        1
280
     0
281
     0
  0
CLASS
  1
ACAMCOMPDEFMGR
  2
AcAmCompDefMgr
  3
DesignerAssemblies
 90
        0
 91
        1
280
     0
281
     0
  0
CLASS
  1
AMCONTEXTMGR
  2
AcAmContextMgr
  3
DesignerAssemblies
 90
        0
 91
        1
280
     0
281
     0
  0
CLASS
  1
ACAMCONTEXTMODELER
  2
AcAmContextModeler
  3
DesignerAssemblies
 90
        0
 91
        1
280
     0
281
     0
  0
CLASS
  1
ACMDATADICTIONARY
  2
AcmDataDictionary
  3
"AcmSymBB|Product Description: AutoCAD Mechanical 2004 DX|Company: Autodesk"
 90
        0
 91
        1
280
     0
281
     0
  0
CLASS
  1
ACMSTANDARDISO
  2
AcmStandardISO
  3
"Amdt_StdImp|Product Description: AutoCAD Mechanical 2004 DX|Company: Autodesk"
 90
        0
 91
        1
280
     0
281
     0
  0
CLASS
  1
AMGOBJPROPCFG
  2
AmgObjPropCfg
  3
"AmgLay|Product Description: AutoCAD Mechanical 2000|Company: Autodesk"
 90
        1
 91
        1
280
     0
281
     0
  0
CLASS
  1
AMDTEDGESTANDARDISO13715
  2
AmdtEdgeStdISO13715
  3
"Amdt_StdImp|Product Description: AutoCAD Mechanical 2004 DX|Company: Autodesk"
 90
        0
 91
        1
280
     0
281
     0
  0
CLASS
  1
ACMSURFSTANDARDISO
  2
AcmSurfTextStdISO
  3
"Amdt_StdImp|Product Description: AutoCAD Mechanical 2004 DX|Company: Autodesk"
 90
        0
 91
        1
280
     0
281
     0
  0
CLASS
  1
ACMFCFSTANDARDISO
  2
AcmFCFStdISO
  3
"Amdt_StdImp|Product Description: AutoCAD Mechanical 2004 DX|Company: Autodesk"
 90
        0
 91
        1
280
     0
281
     0
  0
CLASS
  1
ACMWELDSTANDARDISO
  2
AcmWeldingStdISO
  3
"Amdt_StdImp|Product Description: AutoCAD Mechanical 2004 DX|Company: Autodesk"
 90
        0
 91
        1
280
     0
281
     0
  0
CLASS
  1
ACMIDSTANDARDISO
  2
AcmIdStdISO
  3
"Amdt_StdImp|Product Description: AutoCAD Mechanical 2004 DX|Company: Autodesk"
 90
        0
 91
        1
280
     0
281
     0
  0
CLASS
  1
ACMDATUMSTANDARDISO
  2
AcmDatumStdISO
  3
"Amdt_StdImp|Product Description: AutoCAD Mechanical 2004 DX|Company: Autodesk"
 90
        0
 91
        1
280
     0
281
     0
  0
CLASS
  1
ACMBOMSTANDARDISO
  2
AcmBOMStdISO
  3
"Amdt_StdImp|Product Description: AutoCAD Mechanical 2004 DX|Company: Autodesk"
 90
        0
 91
        1
280
     0
281
     0
  0
CLASS
  1
ACMDETAILSTANDARDISO
  2
AmdtDetailSymStdISO
  3
"Amdt_StdImp|Product Description: AutoCAD Mechanical 2004 DX|Company: Autodesk"
 90
        0
 91
        1
280
     0
281
     0
  0
CLASS
  1
ACMSECTIONSTANDARDISO
  2
AmdtSectionSymStdISO
  3
"Amdt_StdImp|Product Description: AutoCAD Mechanical 2004 DX|Company: Autodesk"
 90
        0
 91
        1
280
     0
281
     0
  0
CLASS
  1
ACMCENTERLINESTANDARDISO
  2
AmdtCenterLineStdISO
  3
"Amdt_StdImp|Product Description: AutoCAD Mechanical 2004 DX|Company: Autodesk"
 90
        0
 91
        1
280
     0
281
     0
  0
CLASS
  1
ACMTHREADLINESTANDARDISO
  2
AmdtThreadLineStdISO
  3
"Amdt_StdImp|Product Description: AutoCAD Mechanical 2004 DX|Company: Autodesk"
 90
        0
 91
        1
280
     0
281
     0
  0
CLASS
  1
ACMNOTESTANDARDISO
  2
AmdtNoteStdISO
  3
"Amdt_StdImp|Product Description: AutoCAD Mechanical 2004 DX|Company: Autodesk"
 90
        0
 91
        1
280
     0
281
     0
  0
CLASS
  1
AMDTNOTETEMPLATEDB
  2
AmdtNoteTemplateDB
  3
AMDT_STDIMP_MODULE_NAME
 90
        0
 91
       12
280
     0
281
     0
  0
CLASS
  1
ACAMGLAYSTD
  2
AcAmgLayStd
  3
"AcAmgLayStd|Product Description: AutoCAD Mechanical 2000|Company: Autodesk"
 90
        0
 91
        2
280
     0
281
     0
  0
CLASS
  1
ACAMGDIMSTD
  2
AcAmgDimStd
  3
"AcAmgDimStd|Product Description: AutoCAD Mechanical 2000|Company: Autodesk"
 90
        0
 91
        2
280
     0
281
     0
  0
CLASS
  1
ACAMGHOLECHARTSTDISO
  2
AcAmgHoleChartStdISO
  3
ACMSYMBB_MODULE_NAME
 90
        0
 91
        1
280
     0
281
     0
  0
CLASS
  1
ACAMGTITLESTD
  2
AcAmgTitleStd
  3
"TITLEAPP"
 90
        0
 91
        2
280
     0
281
     0
  0
CLASS
  1
CATALOGSTATE
  2
AcAmCatalogState
  3
DesignerAssemblies
 90
        0
 91
        1
280
     0
281
     0
  0
CLASS
  1
ACAMGRCOMPDEFSET
  2
AcAmGrCompDefSet
  3
DesignerAssemblies
 90
        0
 91
        1
280
     0
281
     0
  0
CLASS
  1
AMDTBROWSERDBTAB
  2
AmdtBrowserDbTab
  3
McadcomServices
 90
        0
 91
        1
280
     0
281
     0
  0
CLASS
  1
CBROWSERAPPOBJECT
  2
CBrowserAppObject
  3
McadcomServices
 90
        0
 91
        3
280
     0
281
     0
  0
CLASS
  1
DM_PLACEHOLDER
  2
AcDmSelsetPlaceholder
  3
AcMechDwgViewMgmt
 90
        0
 91
        1
280
     0
281
     0
  0
CLASS
  1
SORTENTSTABLE
  2
AcDbSortentsTable
  3
ObjectDBX Classes
 90
        0
 91
        2
280
     0
281
     0
  0
CLASS
  1
ACMSTANDARDANSI
  2
AcmStandardANSI
  3
"Amdt_StdImp|Product Description: AutoCAD Mechanical 2004 DX|Company: Autodesk"
 90
        0
 91
        1
280
     0
281
     0
  0
CLASS
  1
ACMSURFSTANDARDANSI
  2
AcmSurfTextStdANSI
  3
"Amdt_StdImp|Product Description: AutoCAD Mechanical 2004 DX|Company: Autodesk"
 90
        0
 91
        1
280
     0
281
     0
  0
CLASS
  1
ACMFCFSTANDARDANSI
  2
AcmFCFStdANSI
  3
"Amdt_StdImp|Product Description: AutoCAD Mechanical 2004 DX|Company: Autodesk"
 90
        0
 91
        1
280
     0
281
     0
  0
CLASS
  1
ACMWELDSTANDARDANSI
  2
AcmWeldingStdANSI
  3
"Amdt_StdImp|Product Description: AutoCAD Mechanical 2004 DX|Company: Autodesk"
 90
        0
 91
        1
280
     0
281
     0
  0
CLASS
  1
ACMIDSTANDARDANSI
  2
AcmIdStdANSI
  3
"Amdt_StdImp|Product Description: AutoCAD Mechanical 2004 DX|Company: Autodesk"
 90
        0
 91
        1
280
     0
281
     0
  0
CLASS
  1
ACMDATUMSTANDARDANSI
  2
AcmDatumStdANSI
  3
"Amdt_StdImp|Product Description: AutoCAD Mechanical 2004 DX|Company: Autodesk"
 90
        0
 91
        1
280
     0
281
     0
  0
CLASS
  1
ACMBOMSTANDARDANSI
  2
AcmBOMStdANSI
  3
"Amdt_StdImp|Product Description: AutoCAD Mechanical 2004 DX|Company: Autodesk"
 90
        0
 91
        1
280
     0
281
     0
  0
CLASS
  1
ACMDETAILSTANDARDANSI
  2
AmdtDetailSymStdANSI
  3
"Amdt_StdImp|Product Description: AutoCAD Mechanical 2004 DX|Company: Autodesk"
 90
        0
 91
        1
280
     0
281
     0
  0
CLASS
  1
ACMSECTIONSTANDARDANSI
  2
AmdtSectionSymStdANSI
  3
"Amdt_StdImp|Product Description: AutoCAD Mechanical 2004 DX|Company: Autodesk"
 90
        0
 91
        1
280
     0
281
     0
  0
CLASS
  1
ACMCENTERLINESTANDARDANSI
  2
AmdtCenterLineStdANSI
  3
"Amdt_StdImp|Product Description: AutoCAD Mechanical 2004 DX|Company: Autodesk"
 90
        0
 91
        1
280
     0
281
     0
  0
CLASS
  1
ACMTHREADLINESTANDARDANSI
  2
AmdtThreadLineStdANSI
  3
"Amdt_StdImp|Product Description: AutoCAD Mechanical 2004 DX|Company: Autodesk"
 90
        0
 91
        1
280
     0
281
     0
  0
CLASS
  1
ACMNOTESTANDARDANSI
  2
AmdtNoteStdANSI
  3
"Amdt_StdImp|Product Description: AutoCAD Mechanical 2004 DX|Company: Autodesk"
 90
        0
 91
        1
280
     0
281
     0
  0
CLASS
  1
ACAMGHOLECHARTSTDANSI
  2
AcAmgHoleChartStdANSI
  3
ACMSYMBB_MODULE_NAME
 90
        0
 91
        1
280
     0
281
     0
  0
CLASS
  1
ACMDATAENTRYBLOCK
  2
AcmDataEntryBlock
  3
"AcmSymBB|Product Description: AutoCAD Mechanical 2004 DX|Company: Autodesk"
 90
        0
 91
        2
280
     0
281
     0
  0
CLASS
  1
ACAMGFILTERDAT
  2
AcAmgFilterDat
  3
"AcadM|Product Description: AutoCAD Mechanical 2000|Company: Autodesk"
 90
        0
 91
        6
280
     0
281
     0
  0
CLASS
  1
ACRFATTGENMGR
  2
AcRfAttGeneralMgr
  3
AcAttribServices
 90
        0
 91
        3
280
     0
281
     0
  0
CLASS
  1
DICTIONARYVAR
  2
AcDbDictionaryVar
  3
ObjectDBX Classes
 90
        0
 91
        3
280
     0
281
     0
  0
ENDSEC
  0
SECTION
  2
TABLES
  0
TABLE
  2
VPORT
  5
8
330
0
100
AcDbSymbolTable
 70
     4
  0
VPORT
  5
2AA
330
8
100
AcDbSymbolTableRecord
100
AcDbViewportTableRecord
  2
*Active
 70
     0
 10
0.0
 20
0.0
 11
1.0
 21
1.0
 12
196.0489548808514
 22
150.250728064683
 13
0.0
 23
0.0
 14
2.5
 24
2.5
 15
10.0
 25
10.0
 16
0.0
 26
0.0
 36
1.0
 17
0.0
 27
0.0
 37
0.0
 40
34.42587999107877
 41
1.499364675984752
 42
50.0
 43
0.0
 44
0.0
 50
0.0
 51
0.0
 71
     0
 72
  1000
 73
     1
 74
     3
 75
     0
 76
     0
 77
     0
 78
     0
281
     0
 65
     0
110
0.0
120
0.0
130
0.0
111
1.0
121
0.0
131
0.0
112
0.0
122
1.0
132
0.0
 79
     0
146
0.0
  0
ENDTAB
  0
TABLE
  2
LTYPE
  5
5
330
0
100
AcDbSymbolTable
 70
    19
  0
LTYPE
  5
14
330
5
100
AcDbSymbolTableRecord
100
AcDbLinetypeTableRecord
  2
ByBlock
 70
     0
  3

 72
    65
 73
     0
 40
0.0
  0
LTYPE
  5
15
330
5
100
AcDbSymbolTableRecord
100
AcDbLinetypeTableRecord
  2
ByLayer
 70
     0
  3

 72
    65
 73
     0
 40
0.0
  0
LTYPE
  5
16
330
5
100
AcDbSymbolTableRecord
100
AcDbLinetypeTableRecord
  2
Continuous
 70
     0
  3
Solid line
 72
    65
 73
     0
 40
0.0
  0
LTYPE
  5
63
330
5
100
AcDbSymbolTableRecord
100
AcDbLinetypeTableRecord
  2
HIDDEN
 70
     0
  3
Hidden __ __ __ __ __ __ __ __ __ __ __ __ __ _
 72
    65
 73
     2
 40
9.524999999999998
 49
6.349999999999999
 74
     0
 49
-3.174999999999999
 74
     0
  0
LTYPE
  5
64
330
5
100
AcDbSymbolTableRecord
100
AcDbLinetypeTableRecord
  2
PHANTOM2
 70
     0
  3
Phantom (.5x) ___ _ _ ___ _ _ ___ _ _ ___ _ _
 72
    65
 73
     6
 40
31.75
 49
15.875
 74
     0
 49
-3.174999999999999
 74
     0
 49
3.174999999999999
 74
     0
 49
-3.174999999999999
 74
     0
 49
3.174999999999999
 74
     0
 49
-3.174999999999999
 74
     0
  0
LTYPE
  5
65
330
5
100
AcDbSymbolTableRecord
100
AcDbLinetypeTableRecord
  2
CENTER
 70
     0
  3
Center ____ _ ____ _ ____ _ ____ _ ____ _ ____
 72
    65
 73
     4
 40
50.8
 49
31.75
 74
     0
 49
-6.349999999999999
 74
     0
 49
6.349999999999999
 74
     0
 49
-6.349999999999999
 74
     0
  0
LTYPE
  5
90
330
5
100
AcDbSymbolTableRecord
100
AcDbLinetypeTableRecord
  2
AM_ISO02W050
 70
     0
  3
__ __ __ __ __ __ __ __ __ __ __ __ __ __ __
 72
    65
 73
     2
 40
7.5
 49
6.0
 74
     0
 49
-1.5
 74
     0
  0
LTYPE
  5
91
330
5
100
AcDbSymbolTableRecord
100
AcDbLinetypeTableRecord
  2
AM_ISO08W050
 70
     0
  3
____ . ____ . ____ . ____ . ____ . ____ . ____
 72
    65
 73
     4
 40
18.0
 49
12.0
 74
     0
 49
-1.5
 74
     0
 49
3.0
 74
     0
 49
-1.5
 74
     0
  0
LTYPE
  5
92
330
5
100
AcDbSymbolTableRecord
100
AcDbLinetypeTableRecord
  2
AM_ISO09W050
 70
     0
  3
_____ . . _____ . . _____ . . ____ .. ____
 72
    65
 73
     6
 40
22.5
 49
12.0
 74
     0
 49
-1.5
 74
     0
 49
3.0
 74
     0
 49
-1.5
 74
     0
 49
3.0
 74
     0
 49
-1.5
 74
     0
  0
LTYPE
  5
93
330
5
100
AcDbSymbolTableRecord
100
AcDbLinetypeTableRecord
  2
Amconstr
 70
     0
  3
_______________________
 72
    65
 73
     2
 40
9999.0
 49
9999.0
 74
     0
 49
0.0
 74
     0
  0
LTYPE
  5
94
330
5
100
AcDbSymbolTableRecord
100
AcDbLinetypeTableRecord
  2
AM_ISO08W050x2
 70
     0
  3
__ . __ . __ . __ . __ . __
 72
    65
 73
     4
 40
9.0
 49
6.0
 74
     0
 49
-0.75
 74
     0
 49
1.5
 74
     0
 49
-0.75
 74
     0
  0
LTYPE
  5
95
330
5
100
AcDbSymbolTableRecord
100
AcDbLinetypeTableRecord
  2
AM_ISO02W050x2
 70
     0
  3
 _ _ _ _ _ _ _ _ _ _ _ _
 72
    65
 73
     2
 40
3.75
 49
3.0
 74
     0
 49
-0.75
 74
     0
  0
LTYPE
  5
98
330
5
100
AcDbSymbolTableRecord
100
AcDbLinetypeTableRecord
  2
Amzigzag
 70
     0
  3
/\/-/\/-/\/-/\/-/\/-/\/
 72
    65
 73
     2
 40
11.0001
 49
0.0001
 74
     4
 75
   136
340
97
 46
0.04
 50
0.0
 44
0.0
 45
0.0
 49
-11.0
 74
     0
  0
LTYPE
  5
A7
330
5
100
AcDbSymbolTableRecord
100
AcDbLinetypeTableRecord
  2
ACISOWELD
 70
     0
  3
_ _ _ _ _
 72
    65
 73
     2
 40
2.0
 49
2.0
 74
     0
 49
-1.0
 74
     0
  0
LTYPE
  5
A8
330
5
100
AcDbSymbolTableRecord
100
AcDbLinetypeTableRecord
  2
ACISOTGB
 70
     0
  3
__ . . __ . .
 72
    65
 73
     6
 40
9.0
 49
4.0
 74
     0
 49
-1.0
 74
     0
 49
1.0
 74
     0
 49
-1.0
 74
     0
 49
1.0
 74
     0
 49
-1.0
 74
     0
  0
LTYPE
  5
A9
330
5
100
AcDbSymbolTableRecord
100
AcDbLinetypeTableRecord
  2
ACISOTGL
 70
     0
  3
_ _ _ _ _
 72
    65
 73
     2
 40
3.0
 49
2.0
 74
     0
 49
-1.0
 74
     0
  0
LTYPE
  5
134
330
5
100
AcDbSymbolTableRecord
100
AcDbLinetypeTableRecord
  2
CENTER2
 70
     0
  3
Center (.5x) ___ _ ___ _ ___ _ ___ _ ___ _ ___
 72
    65
 73
     4
 40
1.125
 49
0.75
 74
     0
 49
-0.125
 74
     0
 49
0.125
 74
     0
 49
-0.125
 74
     0
  0
LTYPE
  5
135
330
5
100
AcDbSymbolTableRecord
100
AcDbLinetypeTableRecord
  2
HIDDEN2
 70
     0
  3
Hidden (.5x) _ _ _ _ _ _ _ _ _ _ _ _ _ _ _ _ _
 72
    65
 73
     2
 40
0.1875
 49
0.125
 74
     0
 49
-0.0625
 74
     0
  0
LTYPE
  5
136
330
5
100
AcDbSymbolTableRecord
100
AcDbLinetypeTableRecord
  2
Amzigzag2
 70
     0
  3
/\/-/\/-/\/-/\/-/\/-/\/
 72
    65
 73
     2
 40
0.4401
 49
0.0001
 74
     4
 75
   136
340
97
 46
0.0016
 50
0.0
 44
0.0
 45
0.0
 49
-0.4400000000000001
 74
     0
  0
LTYPE
  5
137
330
5
100
AcDbSymbolTableRecord
100
AcDbLinetypeTableRecord
  2
ACANSTGB
 70
     0
  3
__ . . __ . .
 72
    65
 73
     6
 40
0.35433070866
 49
0.15748031496
 74
     0
 49
-0.03937007874
 74
     0
 49
0.03937007874
 74
     0
 49
-0.03937007874
 74
     0
 49
0.03937007874
 74
     0
 49
-0.03937007874
 74
     0
  0
LTYPE
  5
138
330
5
100
AcDbSymbolTableRecord
100
AcDbLinetypeTableRecord
  2
ACANSTGL
 70
     0
  3
_ _ _ _ _
 72
    65
 73
     2
 40
0.11811023622
 49
0.07874015748
 74
     0
 49
-0.03937007874
 74
     0
  0
ENDTAB
  0
TABLE
  2
LAYER
  5
2
330
0
100
AcDbSymbolTable
 70
     7
  0
LAYER
  5
10
330
2
100
AcDbSymbolTableRecord
100
AcDbLayerTableRecord
  2
0
 70
     0
 62
     7
  6
Continuous
370
    -3
390
F
  0
LAYER
  5
139
330
2
100
AcDbSymbolTableRecord
100
AcDbLayerTableRecord
  2
2018-1
 70
     0
 62
     7
  6
Continuous
370
    -3
390
F
  0
LAYER
  5
13A
330
2
100
AcDbSymbolTableRecord
100
AcDbLayerTableRecord
  2
SA
 70
     0
 62
     7
  6
Continuous
370
    -3
390
F
  0
LAYER
  5
13B
330
2
100
AcDbSymbolTableRecord
100
AcDbLayerTableRecord
  2
SB
 70
     0
 62
     7
  6
Continuous
370
    -3
390
F
  0
LAYER
  5
13C
330
2
100
AcDbSymbolTableRecord
100
AcDbLayerTableRecord
  2
TOP
 70
     0
 62
     7
  6
Continuous
370
    -3
390
F
  0
LAYER
  5
13D
330
2
100
AcDbSymbolTableRecord
100
AcDbLayerTableRecord
  2
02___PRT_ALL_AXES
 70
     0
 62
     7
  6
Continuous
370
    -3
390
F
  0
LAYER
  5
13E
330
2
100
AcDbSymbolTableRecord
100
AcDbLayerTableRecord
  2
06___PRT_ALL_SURFS
 70
     0
 62
     7
  6
Continuous
370
    -3
390
F
  0
ENDTAB
  0
TABLE
  2
STYLE
  5
3
330
0
100
AcDbSymbolTable
 70
     9
  0
STYLE
  5
11
330
3
100
AcDbSymbolTableRecord
100
AcDbTextStyleTableRecord
  2
STANDARD
 70
     0
 40
0.0
 41
1.0
 50
0.0
 71
     0
 42
2.5
  3
ISOCP.SHX
  4

  0
STYLE
  5
97
330
3
100
AcDbSymbolTableRecord
100
AcDbTextStyleTableRecord
  2

 70
     1
 40
0.0
 41
1.0
 50
0.0
 71
     0
 42
2.5
  3
genltshp.shx
  4

  0
STYLE
  5
99
330
3
100
AcDbSymbolTableRecord
100
AcDbTextStyleTableRecord
  2
ACISOTS
 70
     0
 40
1.0
 41
1.0
 50
0.0
 71
     0
 42
2.5
  3
isocp.shx
  4

  0
STYLE
  5
A6
330
3
100
AcDbSymbolTableRecord
100
AcDbTextStyleTableRecord
  2
ACISOGDT
 70
     0
 40
0.0
 41
1.0
 50
0.0
 71
     0
 42
2.5
  3
AMGDT
  4

  0
STYLE
  5
DE
330
3
100
AcDbSymbolTableRecord
100
AcDbTextStyleTableRecord
  2
USER1
 70
     0
 40
0.0
 41
1.0
 50
0.0
 71
     0
 42
2.5
  3
TXT.SHX
  4

  0
STYLE
  5
DF
330
3
100
AcDbSymbolTableRecord
100
AcDbTextStyleTableRecord
  2
USER2
 70
     0
 40
0.0
 41
1.0
 50
0.0
 71
     0
 42
2.5
  3
SIMPLEX.SHX
  4

  0
STYLE
  5
E0
330
3
100
AcDbSymbolTableRecord
100
AcDbTextStyleTableRecord
  2
USER3
 70
     0
 40
0.0
 41
1.0
 50
0.0
 71
     0
 42
2.5
  3
ITALIC.SHX
  4

  0
STYLE
  5
13F
330
3
100
AcDbSymbolTableRecord
100
AcDbTextStyleTableRecord
  2
ACANSTS
 70
     0
 40
1.0
 41
1.0
 50
0.0
 71
     0
 42
0.2
  3
romans.shx
  4

  0
STYLE
  5
140
330
3
100
AcDbSymbolTableRecord
100
AcDbTextStyleTableRecord
  2
ACANSGDT
 70
     0
 40
0.0
 41
1.0
 50
0.0
 71
     0
 42
0.2
  3
AMGDT
  4

  0
ENDTAB
  0
TABLE
  2
VIEW
  5
6
330
0
100
AcDbSymbolTable
 70
     0
  0
ENDTAB
  0
TABLE
  2
UCS
  5
7
330
0
100
AcDbSymbolTable
 70
     0
  0
ENDTAB
  0
TABLE
  2
APPID
  5
9
330
0
100
AcDbSymbolTable
 70
    10
  0
APPID
  5
12
330
9
100
AcDbSymbolTableRecord
100
AcDbRegAppTableRecord
  2
ACAD
 70
     0
  0
APPID
  5
34
330
9
100
AcDbSymbolTableRecord
100
AcDbRegAppTableRecord
  2
MCAD_NO_VIS
 70
     0
  0
APPID
  5
35
330
9
100
AcDbSymbolTableRecord
100
AcDbRegAppTableRecord
  2
ACAD_TEMP_GRAPHIC
 70
     0
  0
APPID
  5
67
330
9
100
AcDbSymbolTableRecord
100
AcDbRegAppTableRecord
  2
AD_DRAW
 70
     0
  0
APPID
  5
6A
330
9
100
AcDbSymbolTableRecord
100
AcDbRegAppTableRecord
  2
ACATTRIBSERVICES
 70
     0
  0
APPID
  5
8A
330
9
100
AcDbSymbolTableRecord
100
AcDbRegAppTableRecord
  2
DESIGNERASSEMBLIES
 70
     0
  0
APPID
  5
B5
330
9
100
AcDbSymbolTableRecord
100
AcDbRegAppTableRecord
  2
ACAD_DSTYLE_DIMARC_LENGTH_SYMBOL
 70
     0
  0
APPID
  5
B6
330
9
100
AcDbSymbolTableRecord
100
AcDbRegAppTableRecord
  2
ACAD_DSTYLE_DIMJOGGED_JOGANGLE_SYMBOL
 70
     0
  0
APPID
  5
D8
330
9
100
AcDbSymbolTableRecord
100
AcDbRegAppTableRecord
  2
ACADM_DIM_EDIT
 70
     0
  0
APPID
  5
D9
330
9
100
AcDbSymbolTableRecord
100
AcDbRegAppTableRecord
  2
AMDT_DM_ADJ
 70
     0
  0
ENDTAB
  0
TABLE
  2
DIMSTYLE
  5
A
330
0
100
AcDbSymbolTable
 70
    15
100
AcDbDimStyleTable
 71
     1
340
B4
  0
DIMSTYLE
105
2B
330
A
100
AcDbSymbolTableRecord
100
AcDbDimStyleTableRecord
  2
ISO-25
 70
     0
 41
2.5
 42
0.625
 43
3.75
 44
1.25
 73
     0
 74
     0
 77
     1
 78
     8
140
2.5
141
2.5
143
0.03937007874016
147
0.625
171
     3
172
     1
271
     2
272
     2
274
     3
278
    44
283
     0
284
     8
340
11
  0
DIMSTYLE
105
B4
330
A
100
AcDbSymbolTableRecord
100
AcDbDimStyleTableRecord
  2
AM_ISO
 70
     0
  4
"
 41
2.5
 42
1.0
 43
10.0
 44
1.0
 47
0.1
 48
0.1
 73
     0
 74
     0
 77
     1
 78
     8
 79
     2
140
3.5
141
0.0
143
0.0393701
146
0.71
147
1.5
172
     1
176
   256
177
   256
178
     2
271
     2
272
     3
274
     4
283
     0
284
     8
340
11
371
    -1
372
    -1
1001
ACAD_DSTYLE_DIMARC_LENGTH_SYMBOL
1070
   379
1070
     1
1001
ACAD_DSTYLE_DIMJOGGED_JOGANGLE_SYMBOL
1070
   384
1040
0.7853981633974483
  0
DIMSTYLE
105
BD
330
A
100
AcDbSymbolTableRecord
100
AcDbDimStyleTableRecord
  2
AM_ISO$3
 70
     0
  4
"
 41
2.5
 42
1.0
 43
10.0
 44
1.0
 47
0.1
 48
0.1
 73
     0
 77
     1
 78
     8
 79
     2
140
3.5
141
0.0
143
0.0393701
146
0.71
147
1.5
176
   256
177
   256
178
     2
271
     2
272
     3
274
     4
283
     0
284
     8
288
     1
289
     0
340
11
371
    -1
372
    -1
1001
ACAD_DSTYLE_DIMARC_LENGTH_SYMBOL
1070
   379
1070
     1
1001
ACAD_DSTYLE_DIMJOGGED_JOGANGLE_SYMBOL
1070
   384
1040
0.7853981633974483
  0
DIMSTYLE
105
C0
330
A
100
AcDbSymbolTableRecord
100
AcDbDimStyleTableRecord
  2
AM_ISO$4
 70
     0
  4
"
 41
2.5
 42
1.0
 43
10.0
 44
1.0
 47
0.1
 48
0.1
 73
     0
 77
     1
 78
     8
 79
     2
140
3.5
141
0.0
143
0.0393701
146
0.71
147
1.5
176
   256
177
   256
178
     2
271
     2
272
     3
274
     4
283
     0
284
     8
288
     1
289
     0
340
11
371
    -1
372
    -1
1001
ACAD_DSTYLE_DIMARC_LENGTH_SYMBOL
1070
   379
1070
     1
1001
ACAD_DSTYLE_DIMJOGGED_JOGANGLE_SYMBOL
1070
   384
1040
0.7853981633974483
  0
DIMSTYLE
105
C3
330
A
100
AcDbSymbolTableRecord
100
AcDbDimStyleTableRecord
  2
AM_ISO$6
 70
     0
  4
"
 41
2.5
 42
1.0
 43
10.0
 44
1.0
 47
0.1
 48
0.1
 73
     0
 74
     0
 78
     8
 79
     2
140
3.5
141
0.0
143
0.0393701
146
0.71
147
1.5
172
     1
176
   256
177
   256
178
     2
271
     2
272
     3
274
     4
283
     0
284
     8
340
11
371
    -1
372
    -1
1001
ACAD_DSTYLE_DIMARC_LENGTH_SYMBOL
1070
   379
1070
     1
1001
ACAD_DSTYLE_DIMJOGGED_JOGANGLE_SYMBOL
1070
   384
1040
0.7853981633974483
  0
DIMSTYLE
105
C6
330
A
100
AcDbSymbolTableRecord
100
AcDbDimStyleTableRecord
  2
AM_ISO$7
 70
     0
  4
"
 41
2.5
 42
1.0
 43
10.0
 44
1.0
 47
0.1
 48
0.1
 73
     0
 74
     0
 77
     1
 78
     8
 79
     2
140
5.0
141
0.0
143
0.0393701
146
0.71
147
1.5
172
     1
176
   256
177
   256
178
     2
271
     2
272
     3
274
     4
283
     0
284
     8
340
11
371
    -1
372
    -1
1001
ACAD_DSTYLE_DIMARC_LENGTH_SYMBOL
1070
   379
1070
     1
1001
ACAD_DSTYLE_DIMJOGGED_JOGANGLE_SYMBOL
1070
   384
1040
0.7853981633974483
  0
DIMSTYLE
105
C9
330
A
100
AcDbSymbolTableRecord
100
AcDbDimStyleTableRecord
  2
AM_ISO$SF
 70
     0
  4
"
 41
2.5
 42
1.0
 43
10.0
 44
1.0
 47
0.1
 48
0.1
 73
     0
 74
     0
 75
     1
 76
     1
 77
     1
 78
     8
 79
     2
140
3.5
141
0.0
143
0.0393701
146
0.71
147
1.5
172
     1
176
   256
177
   256
178
     2
271
     2
272
     3
274
     4
283
     0
284
     8
340
11
371
    -1
372
    -1
1001
ACAD_DSTYLE_DIMARC_LENGTH_SYMBOL
1070
   379
1070
     1
1001
ACAD_DSTYLE_DIMJOGGED_JOGANGLE_SYMBOL
1070
   384
1040
0.7853981633974483
  0
DIMSTYLE
105
D0
330
A
100
AcDbSymbolTableRecord
100
AcDbDimStyleTableRecord
  2
AM_ISO$SH
 70
     0
  4
"
 41
2.5
 42
1.0
 43
10.0
 44
1.0
 47
0.1
 48
0.1
 73
     0
 74
     0
 75
     1
 76
     1
 77
     1
 78
     8
 79
     2
140
3.5
141
0.0
143
0.0393701
144
2.0
146
0.71
147
1.5
172
     1
173
     1
176
   256
177
   256
178
     2
271
     2
272
     3
274
     4
283
     0
284
     8
340
11
343
CA
371
    -1
372
    -1
1001
ACAD_DSTYLE_DIMARC_LENGTH_SYMBOL
1070
   379
1070
     1
1001
ACAD_DSTYLE_DIMJOGGED_JOGANGLE_SYMBOL
1070
   384
1040
0.7853981633974483
  0
DIMSTYLE
105
141
330
A
100
AcDbSymbolTableRecord
100
AcDbDimStyleTableRecord
  2
STANDARD
 70
     0
 41
0.1875
 47
0.1
 48
0.1
 71
     1
 78
     4
140
0.15625
271
     1
272
     1
284
     4
340
11
341
E3
342
E3
343
E3
344
E3
  0
DIMSTYLE
105
142
330
A
100
AcDbSymbolTableRecord
100
AcDbDimStyleTableRecord
  2
AM_ANSI
 70
     0
  4
mm
 41
0.1
 42
0.05
 43
0.5
 44
0.1
 47
0.1
 48
0.1
 78
     7
 79
     2
140
0.12
141
0.0
146
0.71
147
0.06
176
   256
177
   256
178
     2
274
     4
284
     7
340
11
371
    -1
372
    -1
1001
ACAD_DSTYLE_DIMARC_LENGTH_SYMBOL
1070
   379
1070
     1
1001
ACAD_DSTYLE_DIMJOGGED_JOGANGLE_SYMBOL
1070
   384
1040
0.7853981633974483
  0
DIMSTYLE
105
143
330
A
100
AcDbSymbolTableRecord
100
AcDbDimStyleTableRecord
  2
AM_ANSI$3
 70
     0
  4
mm
 41
0.1
 42
0.05
 43
0.5
 44
0.1
 47
0.1
 48
0.1
 78
     7
 79
     2
140
0.12
141
0.0
146
0.71
147
0.06
176
   256
177
   256
178
     2
274
     4
284
     7
288
     1
289
     0
340
11
371
    -1
372
    -1
1001
ACAD_DSTYLE_DIMARC_LENGTH_SYMBOL
1070
   379
1070
     1
1001
ACAD_DSTYLE_DIMJOGGED_JOGANGLE_SYMBOL
1070
   384
1040
0.7853981633974483
  0
DIMSTYLE
105
144
330
A
100
AcDbSymbolTableRecord
100
AcDbDimStyleTableRecord
  2
AM_ANSI$4
 70
     0
  4
mm
 41
0.1
 42
0.05
 43
0.5
 44
0.1
 47
0.1
 48
0.1
 78
     7
 79
     2
140
0.12
141
0.0
146
0.71
147
0.06
176
   256
177
   256
178
     2
274
     4
284
     7
288
     1
289
     0
340
11
371
    -1
372
    -1
1001
ACAD_DSTYLE_DIMARC_LENGTH_SYMBOL
1070
   379
1070
     1
1001
ACAD_DSTYLE_DIMJOGGED_JOGANGLE_SYMBOL
1070
   384
1040
0.7853981633974483
  0
DIMSTYLE
105
145
330
A
100
AcDbSymbolTableRecord
100
AcDbDimStyleTableRecord
  2
AM_ANSI$7
 70
     0
  4
mm
 41
0.1
 42
0.05
 43
0.5
 44
0.1
 47
0.1
 48
0.1
 78
     7
 79
     2
140
0.24
141
0.0
146
0.71
147
0.06
176
   256
177
   256
178
     2
274
     4
284
     7
340
11
371
    -1
372
    -1
1001
ACAD_DSTYLE_DIMARC_LENGTH_SYMBOL
1070
   379
1070
     1
1001
ACAD_DSTYLE_DIMJOGGED_JOGANGLE_SYMBOL
1070
   384
1040
0.7853981633974483
  0
DIMSTYLE
105
146
330
A
100
AcDbSymbolTableRecord
100
AcDbDimStyleTableRecord
  2
AM_ANSI$SF
 70
     0
  4
mm
 41
0.1
 42
0.05
 43
0.5
 44
0.1
 47
0.1
 48
0.1
 75
     1
 76
     1
 78
     7
 79
     2
140
0.12
141
0.0
146
0.71
147
0.06
176
   256
177
   256
178
     2
274
     4
284
     7
340
11
371
    -1
372
    -1
1001
ACAD_DSTYLE_DIMARC_LENGTH_SYMBOL
1070
   379
1070
     1
1001
ACAD_DSTYLE_DIMJOGGED_JOGANGLE_SYMBOL
1070
   384
1040
0.7853981633974483
  0
DIMSTYLE
105
147
330
A
100
AcDbSymbolTableRecord
100
AcDbDimStyleTableRecord
  2
AM_ANSI$SH
 70
     0
  4
mm
 41
0.1
 42
0.05
 43
0.5
 44
0.1
 47
0.1
 48
0.1
 75
     1
 76
     1
 78
     7
 79
     2
140
0.12
141
0.0
146
0.71
147
0.06
173
     1
176
   256
177
   256
178
     2
274
     4
284
     7
340
11
343
CA
371
    -1
372
    -1
1001
ACAD_DSTYLE_DIMARC_LENGTH_SYMBOL
1070
   379
1070
     1
1001
ACAD_DSTYLE_DIMJOGGED_JOGANGLE_SYMBOL
1070
   384
1040
0.7853981633974483
  0
ENDTAB
  0
TABLE
  2
BLOCK_RECORD
  5
1
330
0
100
AcDbSymbolTable
 70
     8
  0
BLOCK_RECORD
  5
23
330
1
100
AcDbSymbolTableRecord
100
AcDbBlockTableRecord
  2
*Model_Space
340
26
  0
BLOCK_RECORD
  5
1F
330
1
100
AcDbSymbolTableRecord
100
AcDbBlockTableRecord
  2
*Paper_Space
340
22
  0
BLOCK_RECORD
  5
27
330
1
100
AcDbSymbolTableRecord
100
AcDbBlockTableRecord
  2
*Paper_Space0
340
2A
  0
BLOCK_RECORD
  5
CA
330
1
100
AcDbSymbolTableRecord
100
AcDbBlockTableRecord
  2
GENAXEH
340
0
  0
BLOCK_RECORD
  5
E3
330
1
100
AcDbSymbolTableRecord
100
AcDbBlockTableRecord
  2
_FILLED
340
0
  0
BLOCK_RECORD
  5
E7
330
1
100
AcDbSymbolTableRecord
100
AcDbBlockTableRecord
  2
a
340
0
310
2800000020000000200000000100080000000000000400000000000000000000000000000000000000000000000080000080000000808000800000008000800080800000C0C0C000C0DCC000F0CAA6000020400000206000002080000020A0000020C0000020E00000400000004020000040400000406000004080000040A0
310
000040C0000040E00000600000006020000060400000606000006080000060A0000060C0000060E00000800000008020000080400000806000008080000080A0000080C0000080E00000A0000000A0200000A0400000A0600000A0800000A0A00000A0C00000A0E00000C0000000C0200000C0400000C0600000C0800000C0
310
A00000C0C00000C0E00000E0000000E0200000E0400000E0600000E0800000E0A00000E0C00000E0E00040000000400020004000400040006000400080004000A0004000C0004000E00040200000402020004020400040206000402080004020A0004020C0004020E000404000004040200040404000404060004040800040
310
40A0004040C0004040E00040600000406020004060400040606000406080004060A0004060C0004060E00040800000408020004080400040806000408080004080A0004080C0004080E00040A0000040A0200040A0400040A0600040A0800040A0A00040A0C00040A0E00040C0000040C0200040C0400040C0600040C08000
310
40C0A00040C0C00040C0E00040E0000040E0200040E0400040E0600040E0800040E0A00040E0C00040E0E00080000000800020008000400080006000800080008000A0008000C0008000E00080200000802020008020400080206000802080008020A0008020C0008020E00080400000804020008040400080406000804080
310
008040A0008040C0008040E00080600000806020008060400080606000806080008060A0008060C0008060E00080800000808020008080400080806000808080008080A0008080C0008080E00080A0000080A0200080A0400080A0600080A0800080A0A00080A0C00080A0E00080C0000080C0200080C0400080C0600080C0
310
800080C0A00080C0C00080C0E00080E0000080E0200080E0400080E0600080E0800080E0A00080E0C00080E0E000C0000000C0002000C0004000C0006000C0008000C000A000C000C000C000E000C0200000C0202000C0204000C0206000C0208000C020A000C020C000C020E000C0400000C0402000C0404000C0406000C0
310
408000C040A000C040C000C040E000C0600000C0602000C0604000C0606000C0608000C060A000C060C000C060E000C0800000C0802000C0804000C0806000C0808000C080A000C080C000C080E000C0A00000C0A02000C0A04000C0A06000C0A08000C0A0A000C0A0C000C0A0E000C0C00000C0C02000C0C04000C0C06000
310
C0C08000C0C0A000F0FBFF00A4A0A000808080000000FF0000FF000000FFFF00FF000000FF00FF00FFFF0000FFFFFF0000000000000000000000000000000000000000000000000000000000000000000000000000000000000000000000000000000000000000000000000000000000000000000000000000000000000000
310
0000000000000000000000000000000000000000FFFFFFFFFFFFFFFFFFFFFFFFFFFF0000000000000000000000000000000000FFFF00000000000000000000000000FFFFFFFFFF0000000000000000000000FF0000000000000000000000000000000000000000FFFFFFFFFF000000000000FF000000000000000000000000
310
00000000000000000000000000FFFFFF000000FF000000000000000000000000000000000000000000000000000000FF000000FF000000000000000000000000000000000000000000000000000000FF000000FF000000000000000000000000000000000000000000000000000000FF000000FF0000000000000000000000
310
00000000000000000000000000000000FF000000FF000000000000000000000000000000000000000000000000000000FF000000FF000000000000000000000000000000000000000000000000000000FF000000FF000000000000000000000000000000000000000000000000000000FF000000FF00000000000000000000
310
0000000000000000000000000000000000FF000000FF000000000000000000000000000000000000000000000000000000FF000000FF000000000000000000000000000000000000000000000000000000FF000000FF000000000000000000000000000000000000000000000000000000FF000000FF000000000000000000
310
00000000000000000000000000000000000000FF0000FF00000000000000000000000000000000000000000000000000000000FF0000FF00000000000000000000000000000000000000000000000000000000FF0000FF00000000000000000000000000000000000000000000000000000000FF0000FF0000000000000000
310
0000000000000000000000000000000000000000FF0000FFFFFF0000000000000000000000000000000000000000000000000000FF0000FF00FF0000000000000000000000000000000000000000000000000000FF0000FF00FF0000000000000000000000000000000000000000000000000000FF0000FF00FF0000000000
310
000000000000000000000000000000000000000000FF0000FF00FF0000000000000000000000000000000000000000000000000000FF0000FFFFFFFFFFFFFFFFFFFFFFFFFFFFFFFFFFFFFFFFFFFFFFFFFFFFFFFFFFFF0000000000000000000000000000000000000000000000000000000000000000000000000000000000
310
0000000000000000000000000000000000000000000000000000000000000000000000000000000000000000000000000000000000000000
102
{BLKREFS
331
18D
331
251
102
}
1001
ACAD
1000
DesignCenter Data
1002
{
1070
     1
1070
     1
1002
}
  0
BLOCK_RECORD
  5
10D
330
1
100
AcDbSymbolTableRecord
100
AcDbBlockTableRecord
  2
b
340
0
310
2800000020000000200000000100080000000000000400000000000000000000000000000000000000000000000080000080000000808000800000008000800080800000C0C0C000C0DCC000F0CAA6000020400000206000002080000020A0000020C0000020E00000400000004020000040400000406000004080000040A0
310
000040C0000040E00000600000006020000060400000606000006080000060A0000060C0000060E00000800000008020000080400000806000008080000080A0000080C0000080E00000A0000000A0200000A0400000A0600000A0800000A0A00000A0C00000A0E00000C0000000C0200000C0400000C0600000C0800000C0
310
A00000C0C00000C0E00000E0000000E0200000E0400000E0600000E0800000E0A00000E0C00000E0E00040000000400020004000400040006000400080004000A0004000C0004000E00040200000402020004020400040206000402080004020A0004020C0004020E000404000004040200040404000404060004040800040
310
40A0004040C0004040E00040600000406020004060400040606000406080004060A0004060C0004060E00040800000408020004080400040806000408080004080A0004080C0004080E00040A0000040A0200040A0400040A0600040A0800040A0A00040A0C00040A0E00040C0000040C0200040C0400040C0600040C08000
310
40C0A00040C0C00040C0E00040E0000040E0200040E0400040E0600040E0800040E0A00040E0C00040E0E00080000000800020008000400080006000800080008000A0008000C0008000E00080200000802020008020400080206000802080008020A0008020C0008020E00080400000804020008040400080406000804080
310
008040A0008040C0008040E00080600000806020008060400080606000806080008060A0008060C0008060E00080800000808020008080400080806000808080008080A0008080C0008080E00080A0000080A0200080A0400080A0600080A0800080A0A00080A0C00080A0E00080C0000080C0200080C0400080C0600080C0
310
800080C0A00080C0C00080C0E00080E0000080E0200080E0400080E0600080E0800080E0A00080E0C00080E0E000C0000000C0002000C0004000C0006000C0008000C000A000C000C000C000E000C0200000C0202000C0204000C0206000C0208000C020A000C020C000C020E000C0400000C0402000C0404000C0406000C0
310
408000C040A000C040C000C040E000C0600000C0602000C0604000C0606000C0608000C060A000C060C000C060E000C0800000C0802000C0804000C0806000C0808000C080A000C080C000C080E000C0A00000C0A02000C0A04000C0A06000C0A08000C0A0A000C0A0C000C0A0E000C0C00000C0C02000C0C04000C0C06000
310
C0C08000C0C0A000F0FBFF00A4A0A000808080000000FF0000FF000000FFFF00FF000000FF00FF00FFFF0000FFFFFF000000000000000000000000000000000000000000000000000000000000000000000000000000000000000000000000FFFF00000000000000000000000000000000000000000000000000FFFFFFFFFF
310
0000FFFFFFFFFF00000000000000000000000000000000000000FFFF00000000000000000000FFFF0000000000000000000000000000000000FF0000000000000000000000000000FFFF0000000000000000000000000000FF00000000000000000000000000000000FF0000000000000000000000000000FF000000000000
310
00000000000000000000FF0000000000000000000000000000FF00000000000000000000000000000000FF0000000000000000000000000000FF00000000000000000000000000000000FF0000000000000000000000000000FF00000000000000000000000000000000FF0000000000000000000000000000FF0000000000
310
0000000000000000000000FF0000000000000000000000000000FF00000000000000000000000000000000FF0000000000000000000000000000FF00000000000000000000000000000000FF0000000000000000000000000000FF00000000000000000000000000000000FF0000000000000000000000000000FF00000000
310
000000000000000000000000FF0000000000000000000000000000FF00000000000000000000000000000000FF0000000000000000000000000000FF00000000000000000000000000000000FF00000000000000000000000000FF0000000000000000000000000000000000FF00000000000000000000000000FF00000000
310
0000000000000000000000000000FF000000000000000000000000FF000000000000000000000000000000000000FF000000000000000000000000FF000000000000000000000000000000000000FF000000000000000000000000FF000000000000000000000000000000000000FF000000000000000000000000FF000000
310
000000000000000000000000000000FF000000000000000000000000FFFF00000000000000000000000000000000FFFF000000000000000000000000FF000000000000000000000000000000000000FF0000000000000000000000FFFF000000000000000000000000000000000000FFFF000000000000000000FF00FF0000
310
00000000000000000000000000000000FF00FF00000000000000FF0000FF000000000000000000000000000000000000FFFF00FF000000000000FF0000FF000000000000000000000000000000000000FF0000FF000000000000FF0000FF000000000000000000000000000000000000FF0000FF000000000000FFFFFFFFFF
310
FFFFFFFFFFFFFFFFFFFFFFFFFFFFFFFFFFFFFFFFFF0000000000000000000000000000000000000000000000000000000000000000000000
102
{BLKREFS
331
18F
331
253
331
2A3
102
}
1001
ACAD
1000
DesignCenter Data
1002
{
1070
     1
1070
     1
1002
}
  0
ENDTAB
  0
ENDSEC
  0
SECTION
  2
BLOCKS
  0
BLOCK
  5
24
330
23
100
AcDbEntity
  8
0
100
AcDbBlockBegin
  2
*Model_Space
 70
     0
 10
0.0
 20
0.0
 30
0.0
  3
*Model_Space
  1

  0
ENDBLK
  5
25
330
23
100
AcDbEntity
  8
0
100
AcDbBlockEnd
  0
BLOCK
  5
20
330
1F
100
AcDbEntity
 67
     1
  8
0
100
AcDbBlockBegin
  2
*Paper_Space
 70
     0
 10
0.0
 20
0.0
 30
0.0
  3
*Paper_Space
  1

  0
ENDBLK
  5
21
330
1F
100
AcDbEntity
 67
     1
  8
0
100
AcDbBlockEnd
  0
BLOCK
  5
28
330
27
100
AcDbEntity
 67
     1
  8
0
100
AcDbBlockBegin
  2
*Paper_Space0
 70
     0
 10
0.0
 20
0.0
 30
0.0
  3
*Paper_Space0
  1

  0
ENDBLK
  5
29
330
27
100
AcDbEntity
 67
     1
  8
0
100
AcDbBlockEnd
  0
BLOCK
  5
CC
330
CA
100
AcDbEntity
  8
0
100
AcDbBlockBegin
  2
GENAXEH
 70
     0
 10
0.0
 20
0.0
 30
0.0
  3
GENAXEH
  1

  0
LINE
  5
CB
330
CA
100
AcDbEntity
  8
0
100
AcDbLine
 10
-1.0
 20
0.0
 30
0.0
 11
1.0
 21
0.0
 31
0.0
  0
ENDBLK
  5
CD
330
CA
100
AcDbEntity
  8
0
100
AcDbBlockEnd
  0
BLOCK
  5
E4
330
E3
100
AcDbEntity
  8
0
100
AcDbBlockBegin
  2
_FILLED
 70
     0
 10
0.0
 20
0.0
 30
0.0
  3
_FILLED
  1

  0
SOLID
  5
E5
330
E3
100
AcDbEntity
  8
0
  6
ByBlock
 62
     0
100
AcDbTrace
 10
0.0
 20
0.0
 30
0.0
 11
-1.0
 21
0.1666666667
 31
0.0
 12
-1.0
 22
-0.1666666667
 32
0.0
 13
-1.0
 23
-0.1666666667
 33
0.0
  0
ENDBLK
  5
E6
330
E3
100
AcDbEntity
  8
0
  6
ByBlock
 62
     0
100
AcDbBlockEnd
  0
BLOCK
  5
E8
330
E7
100
AcDbEntity
  8
0
370
     0
100
AcDbBlockBegin
  2
a
 70
     0
 10
0.0
 20
0.0
 30
0.0
  3
a
  1

  0
LINE
  5
E9
330
E7
100
AcDbEntity
  8
06___PRT_ALL_SURFS
  6
Continuous
 62
     7
100
AcDbLine
 10
3.28131774651422
 20
-34.79382900456272
 30
0.0
 11
3.28131774651422
 21
-34.52465475328725
 31
0.0
  0
LINE
  5
EA
330
E7
100
AcDbEntity
  8
0
  6
Continuous
 62
     7
100
AcDbLine
 10
3.28131774651422
 20
-34.79382900456272
 30
0.0
 11
3.28131774651422
 21
-25.49271508129082
 31
0.0
  0
LINE
  5
EB
330
E7
100
AcDbEntity
  8
0
  6
Continuous
 62
     7
100
AcDbLine
 10
3.7537468802906
 20
-25.49271508129082
 30
0.0
 11
3.7537468802906
 21
-27.13447749980422
 31
0.0
  0
LINE
  5
EC
330
E7
100
AcDbEntity
  8
0
  6
Continuous
 62
     7
100
AcDbLine
 10
3.7537468802906
 20
-35.23806778271562
 30
0.0
 11
3.7537468802906
 21
-34.99119481936066
 31
0.0
  0
LINE
  5
ED
330
E7
100
AcDbEntity
  8
0
  6
Continuous
 62
     7
100
AcDbLine
 10
3.98291437935989
 20
-35.3014690771103
 30
0.0
 11
3.98291437935989
 21
-35.33853296648989
 31
0.0
  0
LWPOLYLINE
  5
EE
330
E7
100
AcDbEntity
  8
0
  6
Continuous
 62
     7
100
AcDbPolyline
 90
       19
 70
     0
 43
0.0
 10
13.9191090092172
 20
-34.4669279944923
 10
13.93358428932615
 20
-34.46303074165938
 10
13.97494138363961
 20
-34.44966890278037
 10
14.01557722878475
 20
-34.43313328218123
 10
14.05527786917726
 20
-34.41340640523215
 10
14.09373077663054
 20
-34.39053439438005
 10
14.13054627328678
 20
-34.36466113909427
 10
14.16546981470975
 20
-34.3358951677282
 10
14.19826682089743
 20
-34.30435470079292
 10
14.22862244892109
 20
-34.2702801881437
 10
14.25633352612684
 20
-34.23385319204137
 10
14.28120780825424
 20
-34.19527518558231
 10
14.3030119140713
 20
-34.15487898564589
 10
14.32161346622087
 20
-34.11290835080465
 10
14.33689939606307
 20
-34.06961664432438
 10
14.34874796304149
 20
-34.02539182970572
 10
14.3571100735835
 20
-33.9805501435759
 10
14.36197743962964
 20
-33.9353231965445
 10
14.36280776700427
 20
-33.9205534737968
  0
LINE
  5
EF
330
E7
100
AcDbEntity
  8
0
  6
Continuous
 62
     7
100
AcDbLine
 10
12.97110267050152
 20
-34.69465501130788
 30
0.0
 11
12.98798606613941
 21
-34.69085229597813
 31
0.0
  0
LINE
  5
F0
330
E7
100
AcDbEntity
  8
06___PRT_ALL_SURFS
  6
Continuous
 62
     7
100
AcDbLine
 10
12.90746416537059
 20
-34.70900704676469
 30
0.0
 11
12.97077208836628
 21
-34.69480526861801
 31
0.0
  0
LINE
  5
F1
330
E7
100
AcDbEntity
  8
06___PRT_ALL_SURFS
  6
Continuous
 62
     7
100
AcDbLine
 10
3.59627050236514
 20
-25.33523870323203
 30
0.0
 11
3.722251604758841
 21
-25.33523870323203
 31
0.0
  0
LINE
  5
F2
330
E7
100
AcDbEntity
  8
0
  6
Continuous
 62
     7
100
AcDbLine
 10
14.57314841195668
 20
-25.33523870323203
 30
0.0
 11
3.43879412443968
 21
-25.33523870323203
 31
0.0
  0
LINE
  5
F3
330
E7
100
AcDbEntity
  8
0
  6
Continuous
 62
     7
100
AcDbLine
 10
14.73047490736262
 20
-25.49958410436094
 30
0.0
 11
14.36280744514565
 21
-33.92055345646391
 31
0.0
  0
ARC
  5
F4
330
E7
100
AcDbEntity
  8
0
  6
Continuous
 62
     7
100
AcDbCircle
 10
3.168052728343801
 20
-82.14787241508044
 30
0.0
 40
47.16031466705739
100
AcDbArc
 50
89.28841302409999
 51
89.67190372560001
  0
ARC
  5
F5
330
E7
100
AcDbEntity
  8
0
  6
Continuous
 62
     7
100
AcDbCircle
 10
5.444442880767209
 20
4.278865668182747
 30
0.0
 40
39.81087979525603
100
AcDbArc
 50
271.3424680519
 51
272.4919682015
  0
ARC
  5
F6
330
E7
100
AcDbEntity
  8
0
  6
Continuous
 62
     7
100
AcDbCircle
 10
5.563667463011469
 20
-1.771156526681034
 30
0.0
 40
33.7465090975138
100
AcDbArc
 50
282.7091837221999
 51
284.3351947063
  0
ARC
  5
F7
330
E7
100
AcDbEntity
  8
0
  6
Continuous
 62
     7
100
AcDbCircle
 10
3.21318687209533
 20
-9.945590504589096
 30
0.0
 40
17.39838422765338
100
AcDbArc
 50
270.7429836164
 51
271.3102300895999
  0
ARC
  5
F8
330
E7
100
AcDbEntity
  8
0
  6
Continuous
 62
     7
100
AcDbCircle
 10
10.2970371032787
 20
-22.79517116264145
 30
0.0
 40
12.19624334469354
100
AcDbArc
 50
282.4906522374
 51
282.6651749285998
  0
ARC
  5
F9
330
E7
100
AcDbEntity
  8
0
  6
Continuous
 62
     7
100
AcDbCircle
 10
10.98064020104066
 20
-25.88498112466123
 30
0.0
 40
9.031715285206239
100
AcDbArc
 50
282.1368420080001
 51
282.495993817
  0
ARC
  5
FA
330
E7
100
AcDbEntity
  8
0
  6
Continuous
 62
     7
100
AcDbCircle
 10
4.08687528773887
 20
-27.13463766033345
 30
0.0
 40
0.33312844584731
100
AcDbArc
 50
179.9724775799998
 51
193.2342956451
  0
ARC
  5
FB
330
E7
100
AcDbEntity
  8
0
  6
Continuous
 62
     7
100
AcDbCircle
 10
14.57314837009106
 20
-25.49271508129082
 30
0.0
 40
0.15747637792546
100
AcDbArc
 50
357.5000006660998
 51
89.99998466990003
  0
ARC
  5
FC
330
E7
100
AcDbEntity
  8
0
  6
Continuous
 62
     7
100
AcDbCircle
 10
3.59627050236514
 20
-25.49271508129082
 30
0.0
 40
0.15747637792546
100
AcDbArc
 50
0.0
 51
90.0
  0
ARC
  5
FD
330
E7
100
AcDbEntity
  8
0
  6
Continuous
 62
     7
100
AcDbCircle
 10
3.43879412443968
 20
-25.49271508129082
 30
0.0
 40
0.15747637792546
100
AcDbArc
 50
90.0
 51
180.0
  0
LINE
  5
FE
330
E7
100
AcDbEntity
  8
0
  6
Continuous
 62
     7
100
AcDbLine
 10
12.98800102176551
 20
-34.69091851978916
 30
0.0
 11
12.97077200876827
 21
-34.69480486356147
 31
0.0
  0
LINE
  5
FF
330
E7
100
AcDbEntity
  8
0
  6
Continuous
 62
     7
100
AcDbLine
 10
12.97077200876827
 20
-34.69480486356147
 30
0.0
 11
12.90718067512469
 21
-34.70907036798162
 31
0.0
  0
SPLINE
  5
100
330
E7
100
AcDbEntity
  8
0
  6
Continuous
 62
     7
100
AcDbSpline
210
0.0
220
0.0
230
1.0
 70
     8
 71
     3
 72
    15
 73
    11
 74
     9
 42
0.0000000001
 43
0.0000000001
 44
0.0000000001
 12
0.981646894018316
 22
-0.1907075653040358
 32
0.0
 13
0.9888102526220796
 23
-0.1491786992484484
 33
0.0
 40
0.0
 40
0.0
 40
0.0
 40
0.0
 40
0.0647035643578028
 40
0.121104097273632
 40
0.1689961164025609
 40
0.20823276982597
 40
0.2387477845665054
 40
0.2605681859824688
 40
0.2736965925454897
 40
0.2780918496736586
 40
0.2780918496736586
 40
0.2780918496736586
 40
0.2780918496736586
 10
6.103758047609291
 20
-35.47022236723924
 30
0.0
 10
6.124930065270541
 20
-35.47433552031429
 30
0.0
 10
6.164554888063623
 20
-35.48204599279258
 30
0.0
 10
6.219863524234071
 20
-35.49273512507421
 30
0.0
 10
6.266865484311876
 20
-35.50166751200179
 30
0.0
 10
6.30542506566333
 20
-35.50880572657192
 30
0.0
 10
6.33547246031491
 20
-35.51418039875648
 30
0.0
 10
6.356981097413918
 20
-35.51786180917595
 30
0.0
 10
6.369923825957534
 20
-35.51998007324308
 30
0.0
 10
6.375697168839347
 20
-35.52086822468328
 30
0.0
 10
6.377145860609761
 20
-35.52108678426369
 30
0.0
 11
6.103758047609291
 21
-35.47022236723924
 31
0.0
 11
6.167274416060379
 21
-35.48256020251898
 31
0.0
 11
6.22265413539945
 21
-35.49324228092701
 31
0.0
 11
6.26970758916703
 21
-35.50216517198248
 31
0.0
 11
6.30829172267291
 21
-35.50929115356183
 31
0.0
 11
6.338333046687699
 21
-35.51464698926259
 31
0.0
 11
6.35984243680617
 21
-35.51831796388593
 31
0.0
 11
6.372801595752429
 21
-35.52041921548666
 31
0.0
 11
6.377145860609761
 21
-35.52108678426369
 31
0.0
  0
SPLINE
  5
101
330
E7
100
AcDbEntity
  8
02___PRT_ALL_AXES
  6
Continuous
 62
     7
100
AcDbSpline
210
0.0
220
0.0
230
1.0
 70
     8
 71
     3
 72
    15
 73
    11
 74
     9
 42
0.0000000001
 43
0.0000000001
 44
0.0000000001
 12
0.9997813168623103
 22
-0.020912160411228
 32
0.0
 13
0.9816468940032462
 23
-0.1907075653816065
 33
0.0
 40
0.0
 40
0.0
 40
0.0
 40
0.0
 40
0.0940242356458522
 40
0.1856860989928294
 40
0.2739198545144355
 40
0.3577308077209789
 40
0.4361920885075251
 40
0.5084791392366516
 40
0.5738267724284169
 40
0.6315177950343492
 40
0.6315177950343492
 40
0.6315177950343492
 40
0.6315177950343492
 10
5.47620488589723
 20
-35.40617902036294
 30
0.0
 10
5.50753944394089
 20
-35.40683443699573
 30
0.0
 10
5.569408389899176
 20
-35.40886614759263
 30
0.0
 10
5.660578296962206
 20
-35.41399909843975
 30
0.0
 10
5.748214844325745
 20
-35.42092081971882
 30
0.0
 10
5.831302475879864
 20
-35.42929104335579
 30
0.0
 10
5.908922682872072
 20
-35.43872735276675
 30
0.0
 10
5.98024721425091
 20
-35.4488313676177
 30
0.0
 10
6.044526687793005
 20
-35.45921255686272
 30
0.0
 10
6.084880643224963
 20
-35.46655499575072
 30
0.0
 10
6.103758047609291
 20
-35.47022236723924
 30
0.0
 11
5.47620488589723
 21
-35.40617902036294
 31
0.0
 11
5.570178523564221
 21
-35.40926322405591
 31
0.0
 11
5.661695551048
 21
-35.41441403688238
 31
0.0
 11
5.749655389597061
 21
-35.42136115253347
 31
0.0
 11
5.833043958697381
 21
-35.42976486723535
 31
0.0
 11
5.91093074187912
 21
-35.43924229242714
 31
0.0
 11
5.982500775116889
 21
-35.44939847504956
 31
0.0
 11
6.04700783919997
 21
-35.45984605118696
 31
0.0
 11
6.103758047609291
 21
-35.47022236723924
 31
0.0
  0
SPLINE
  5
102
330
E7
100
AcDbEntity
  8
02___PRT_ALL_AXES
  6
Continuous
 62
     7
100
AcDbSpline
210
0.0
220
0.0
230
1.0
 70
     8
 71
     3
 72
    10
 73
     6
 74
     4
 42
0.0000000001
 43
0.0000000001
 44
0.0000000001
 12
0.9999649678110682
 22
-0.0083703733852912
 32
0.0
 13
0.9997813168612859
 23
-0.0209121604601934
 33
0.0
 40
0.0
 40
0.0
 40
0.0
 40
0.0
 40
0.3971216385086161
 40
0.7949028001826879
 40
1.192835164723184
 40
1.192835164723184
 40
1.192835164723184
 40
1.192835164723184
 10
4.283536784811859
 20
-35.38664579603909
 30
0.0
 10
4.415906026967975
 20
-35.38775381483699
 30
0.0
 10
4.68085617257237
 20
-35.39098930764496
 30
0.0
 10
5.078407858640215
 20
-35.39794939745646
 30
0.0
 10
5.343589771416556
 20
-35.40340514520975
 30
0.0
 10
5.47620488589723
 20
-35.40617902036294
 30
0.0
 11
4.283536784811859
 21
-35.38664579603909
 31
0.0
 11
4.68063071708203
 21
-35.39133671556316
 31
0.0
 11
5.078353496563959
 21
-35.39815164505234
 31
0.0
 11
5.47620488589723
 21
-35.40617902036294
 31
0.0
  0
LINE
  5
103
330
E7
100
AcDbEntity
  8
0
  6
Continuous
 62
     7
100
AcDbLine
 10
4.13739968486403
 20
-35.38537776320737
 30
0.0
 11
4.283536784811859
 21
-35.38664579603909
 31
0.0
  0
SPLINE
  5
104
330
E7
100
AcDbEntity
  8
0
  6
Continuous
 62
     7
100
AcDbSpline
210
0.0
220
0.0
230
1.0
 70
     8
 71
     3
 72
    12
 73
     8
 74
     6
 42
0.0000000001
 43
0.0000000001
 44
0.0000000001
 12
0.0
 22
-1.0
 32
0.0
 13
0.9999600174330403
 23
-0.0089422332397275
 33
0.0
 40
0.0
 40
0.0
 40
0.0
 40
0.0
 40
0.0171001541774137
 40
0.0429711465397338
 40
0.0785300245428637
 40
0.1220655325644108
 40
0.1692948034622093
 40
0.1692948034622093
 40
0.1692948034622093
 40
0.1692948034622093
 10
3.98291437935989
 20
-35.33853296648989
 30
0.0
 10
3.98291437935989
 20
-35.34423301788237
 30
0.0
 10
3.991802663581506
 20
-35.35770389141821
 30
0.0
 10
4.015755484938965
 20
-35.36877065817245
 30
0.0
 10
4.049581296284501
 20
-35.37812846025003
 30
0.0
 10
4.091408505404206
 20
-35.3837485091258
 30
0.0
 10
4.121657224013926
 20
-35.385236984822
 30
0.0
 10
4.13739968486403
 20
-35.38537776320737
 30
0.0
 11
3.98291437935989
 21
-35.33853296648989
 31
0.0
 11
3.99065652740135
 21
-35.35378007823591
 31
0.0
 11
4.012988396424
 21
-35.36684131369686
 31
0.0
 11
4.04715232590441
 21
-35.37670334833983
 31
0.0
 11
4.09023042719162
 21
-35.38299760351284
 31
0.0
 11
4.13739968486403
 21
-35.38537776320737
 31
0.0
  0
SPLINE
  5
105
330
E7
100
AcDbEntity
  8
0
  6
Continuous
 62
     7
100
AcDbSpline
210
0.0
220
0.0
230
1.0
 70
     8
 71
     3
 72
    16
 73
    12
 74
    10
 42
0.0000000001
 43
0.0000000001
 44
0.0000000001
 12
-0.975951611823223
 22
-0.2179872734350625
 32
0.0
 13
-0.9967607287221039
 23
-0.0804241858981501
 33
0.0
 40
0.0
 40
0.0
 40
0.0
 40
0.0
 40
0.2605735666088894
 40
0.6096731361783725
 40
1.308039482581317
 40
2.006657215977782
 40
2.356005096793325
 40
2.705339696144538
 40
3.403881407888821
 40
4.10219752235516
 40
4.68832683851248
 40
4.68832683851248
 40
4.68832683851248
 40
4.68832683851248
 10
12.90718067512469
 20
-34.70907036798162
 30
0.0
 10
12.82241161101453
 20
-34.72800427508639
 30
0.0
 10
12.62390999707833
 20
-34.77157166711673
 30
0.0
 10
12.19725009893524
 20
-34.86142713975724
 30
0.0
 10
11.62603503535246
 20
-34.97327435077406
 30
0.0
 10
11.05282136501299
 20
-35.07486307256939
 30
0.0
 10
10.59305444186158
 20
-35.14942714816076
 30
0.0
 10
10.13258026636621
 20
-35.21931890758626
 30
0.0
 10
9.555749299277501
 20
-35.29756297210214
 30
0.0
 10
8.898882160393378
 20
-35.37182156961525
 30
0.0
 10
8.472471827627847
 20
-35.41073821558462
 30
0.0
 10
8.27772826619506
 20
-35.42645120661228
 30
0.0
 11
12.90718067512469
 21
-34.70907036798162
 31
0.0
 11
12.65266655533676
 21
-34.76493758953283
 31
0.0
 11
12.31106343256167
 21
-34.83689463216179
 31
0.0
 11
11.62573395982683
 21
-34.9712042282046
 31
0.0
 11
10.93780453715903
 21
-35.09294102150869
 31
0.0
 11
10.59295852572485
 21
-35.1488442434932
 31
0.0
 11
10.24757619703227
 21
-35.20124376000587
 31
0.0
 11
9.55535517392383
 21
-35.29500184346185
 31
0.0
 11
8.86144345188392
 21
-35.37330840601551
 31
0.0
 11
8.27772826619506
 21
-35.42645120661228
 31
0.0
  0
SPLINE
  5
106
330
E7
100
AcDbEntity
  8
0
  6
Continuous
 62
     7
100
AcDbSpline
210
0.0
220
0.0
230
1.0
 70
     8
 71
     3
 72
    20
 73
    16
 74
    14
 42
0.0000000001
 43
0.0000000001
 44
0.0000000001
 12
0.9947187256963012
 22
0.1026384759684536
 32
0.0
 13
0.9997492274058615
 23
0.0223938005122622
 33
0.0
 40
0.0
 40
0.0
 40
0.0
 40
0.0
 40
0.0156387731014882
 40
0.0610419848907026
 40
0.1333967428338534
 40
0.2288529203215611
 40
0.3426276618242424
 40
0.4695088064247321
 40
0.603622038714118
 40
0.736088917556406
 40
0.8575947752318073
 40
0.960679241753205
 40
1.039129295353577
 40
1.088183568814419
 40
1.104868898104092
 40
1.104868898104092
 40
1.104868898104092
 40
1.104868898104092
 10
7.175393620450179
 20
-35.49436602856594
 30
0.0
 10
7.180579013933835
 20
-35.49383098195356
 30
0.0
 10
7.200817706467895
 20
-35.49173115881906
 30
0.0
 10
7.245039849737493
 20
-35.48708462335827
 30
0.0
 10
7.315740549591179
 20
-35.47983371033758
 30
0.0
 10
7.409164490267601
 20
-35.47076880089873
 30
0.0
 10
7.520771931261653
 20
-35.46094024023564
 30
0.0
 10
7.645335377626539
 20
-35.45142414000556
 30
0.0
 10
7.776234352295633
 20
-35.44318496006318
 30
0.0
 10
7.905444047728886
 20
-35.43683052877131
 30
0.0
 10
8.024384720690454
 20
-35.43244452003007
 30
0.0
 10
8.12536114136351
 20
-35.42967463397749
 30
0.0
 10
8.20220586053624
 20
-35.42799463645592
 30
0.0
 10
8.250259799999286
 20
-35.42704967698178
 30
0.0
 10
8.272167884506272
 20
-35.42657575592414
 30
0.0
 10
8.27772826619506
 20
-35.42645120661228
 30
0.0
 11
7.175393620450179
 21
-35.49436602856594
 31
0.0
 11
7.19094901715554
 21
-35.49275331115155
 31
0.0
 11
7.23610669725198
 21
-35.48803785050768
 31
0.0
 11
7.30808595585886
 21
-35.4806759670927
 31
0.0
 11
7.403098822744469
 21
-35.47148700922239
 31
0.0
 11
7.51643708388377
 21
-35.46153058587254
 31
0.0
 11
7.64295086456018
 21
-35.4518823656174
 31
0.0
 11
7.7767992827994
 21
-35.44345858915042
 31
0.0
 11
7.909105363731351
 21
-35.43693364174484
 31
0.0
 11
8.03052753823443
 21
-35.4324248738002
 31
0.0
 11
8.133572132721829
 21
-35.42955803147305
 31
0.0
 11
8.212002838171839
 21
-35.42781580516313
 31
0.0
 11
8.261046871773679
 21
-35.42681355128677
 31
0.0
 11
8.27772826619506
 21
-35.42645120661228
 31
0.0
  0
LINE
  5
107
330
E7
100
AcDbEntity
  8
0
  6
Continuous
 62
     7
100
AcDbLine
 10
3.7537468802906
 20
-35.23806778271562
 30
0.0
 11
3.82543800143443
 21
-35.23854765858509
 31
0.0
  0
SPLINE
  5
108
330
E7
100
AcDbEntity
  8
0
  6
Continuous
 62
     7
100
AcDbSpline
210
0.0
220
0.0
230
1.0
 70
     8
 71
     3
 72
    12
 73
     8
 74
     6
 42
0.0000000001
 43
0.0000000001
 44
0.0000000001
 12
-0.9999860487783077
 22
0.0052822579213387
 32
0.0
 13
-0.0000041325708953
 23
0.9999999999914608
 33
0.0
 40
0.0
 40
0.0
 40
0.0
 40
0.0
 40
0.0455473622717642
 40
0.0956347443313984
 40
0.1499531974034866
 40
0.2101080785257215
 40
0.2756891240425748
 40
0.2756891240425748
 40
0.2756891240425748
 40
0.2756891240425748
 10
3.43810820385479
 20
-34.98833096749208
 30
0.0
 10
3.422925961577985
 20
-34.9882507698537
 30
0.0
 10
3.390826591512337
 20
-34.98228989166816
 30
0.0
 10
3.347074993477917
 20
-34.9561698933001
 30
0.0
 10
3.310984709502823
 20
-34.91367263271339
 30
0.0
 10
3.286889808413798
 20
-34.85785362472675
 30
0.0
 10
3.28131783685366
 20
-34.81568935306816
 30
0.0
 10
3.28131774651422
 20
-34.79382900456272
 30
0.0
 11
3.43810820385479
 21
-34.98833096749208
 31
0.0
 11
3.39330223576533
 21
-34.9801463823785
 31
0.0
 11
3.350050503619
 21
-34.95488705721075
 31
0.0
 11
3.31446824706432
 21
-34.91384564687166
 31
0.0
 11
3.29019184985609
 21
-34.85880687634198
 31
0.0
 11
3.28131774651422
 21
-34.79382900456272
 31
0.0
  0
SPLINE
  5
109
330
E7
100
AcDbEntity
  8
0
  6
Continuous
 62
     7
100
AcDbSpline
210
0.0
220
0.0
230
1.0
 70
     8
 71
     3
 72
    12
 73
     8
 74
     6
 42
0.0000000001
 43
0.0000000001
 44
0.0000000001
 12
0.9999763823416397
 22
-0.0068727548280672
 32
0.0
 13
0.0
 23
-1.0
 33
0.0
 40
0.0
 40
0.0
 40
0.0
 40
0.0
 40
0.0472530371051356
 40
0.0923019728474265
 40
0.1303185126876815
 40
0.1592120469165877
 40
0.1792834497692677
 40
0.1792834497692677
 40
0.1792834497692677
 40
0.1792834497692677
 10
3.82543800143443
 20
-35.23854765858509
 30
0.0
 10
3.841188641800779
 20
-35.23865591143139
 30
0.0
 10
3.871974149836262
 20
-35.24083812344687
 30
0.0
 10
3.914682910390872
 20
-35.24959222109696
 30
0.0
 10
3.949666471436592
 20
-35.26321599090233
 30
0.0
 10
3.974201663141152
 20
-35.27910701730898
 30
0.0
 10
3.98291437935989
 20
-35.29477860949274
 30
0.0
 10
3.98291437935989
 20
-35.3014690771103
 30
0.0
 11
3.82543800143443
 21
-35.23854765858509
 31
0.0
 11
3.872568872733189
 21
-35.24194331555821
 31
0.0
 11
3.91661482529018
 21
-35.25139639309202
 31
0.0
 11
3.95186060839024
 21
-35.26564392182824
 31
0.0
 11
3.97491467162425
 21
-35.28306076679623
 31
0.0
 11
3.98291437935989
 21
-35.3014690771103
 31
0.0
  0
SPLINE
  5
10A
330
E7
100
AcDbEntity
  8
0
  6
Continuous
 62
     7
100
AcDbSpline
210
0.0
220
0.0
230
1.0
 70
     8
 71
     3
 72
    12
 73
     8
 74
     6
 42
0.0000000001
 43
0.0000000001
 44
0.0000000001
 12
0.0000000035450751
 22
-1.0
 32
0.0
 13
0.9999999999996699
 23
0.0000008124130446
 33
0.0
 40
0.0
 40
0.0
 40
0.0
 40
0.0
 40
0.0410231299422807
 40
0.0837025635756464
 40
0.128933657776858
 40
0.1765799542310933
 40
0.225659535406837
 40
0.225659535406837
 40
0.225659535406837
 40
0.225659535406837
 10
3.28131774651422
 20
-27.21212019788825
 30
0.0
 10
3.281317746562697
 20
-27.22579457453567
 30
0.0
 10
3.286813189489375
 20
-27.25395187601908
 30
0.0
 10
3.310160748963315
 20
-27.29102795231971
 30
0.0
 10
3.345792783059332
 20
-27.31997972603912
 30
0.0
 10
3.390028401351129
 20
-27.33833514373432
 30
0.0
 10
3.422434416977281
 20
-27.34250970202711
 30
0.0
 10
3.43879427736919
 20
-27.34250968873614
 30
0.0
 11
3.28131774651422
 21
-27.21212019788825
 31
0.0
 11
3.28902519542318
 21
-27.25241278308177
 31
0.0
 11
3.3113930900785
 21
-27.2887612540806
 31
0.0
 11
3.34623190215309
 21
-27.31760755463839
 31
0.0
 11
3.390131361439171
 21
-27.33612800388226
 31
0.0
 11
3.43879427736919
 21
-27.34250968873614
 31
0.0
  0
SPLINE
  5
10B
330
E7
100
AcDbEntity
  8
0
  6
Continuous
 62
     7
100
AcDbSpline
210
0.0
220
0.0
230
1.0
 70
     8
 71
     3
 72
    11
 73
     7
 74
     5
 42
0.0000000001
 43
0.0000000001
 44
0.0000000001
 12
-0.1850838017339506
 22
-0.9827227413343539
 32
0.0
 13
-0.9920615633138387
 23
-0.1257531494448636
 33
0.0
 40
0.0
 40
0.0
 40
0.0
 40
0.0
 40
0.0487412052474563
 40
0.1010788194234013
 40
0.1558103698251313
 40
0.2107896638635757
 40
0.2107896638635757
 40
0.2107896638635757
 40
0.2107896638635757
 10
3.7625956203999
 20
-27.21090196927805
 30
0.0
 10
3.759588551210469
 20
-27.22686833289029
 30
0.0
 10
3.746497210494611
 20
-27.25887930485346
 30
0.0
 10
3.711534826411195
 20
-27.29835757476045
 30
0.0
 10
3.664979272166119
 20
-27.32711698999811
 30
0.0
 10
3.629196998515113
 20
-27.33712971316244
 30
0.0
 10
3.61101605038389
 20
-27.3394343196223
 30
0.0
 11
3.7625956203999
 21
-27.21090196927805
 31
0.0
 11
3.744733122840171
 21
-27.25625212109591
 31
0.0
 11
3.71046270082214
 21
-27.29580921947706
 31
0.0
 11
3.663989504414431
 21
-27.32471915937717
 31
0.0
 11
3.61101605038389
 21
-27.3394343196223
 31
0.0
  0
ENDBLK
  5
10C
330
E7
100
AcDbEntity
  8
0
370
     0
100
AcDbBlockEnd
  0
BLOCK
  5
10E
330
10D
100
AcDbEntity
  8
0
370
     0
100
AcDbBlockBegin
  2
b
 70
     0
 10
0.0
 20
0.0
 30
0.0
  3
b
  1

  0
LWPOLYLINE
  5
10F
330
10D
100
AcDbEntity
  8
06___PRT_ALL_SURFS
  6
Continuous
 62
     7
100
AcDbPolyline
 90
       12
 70
     0
 43
0.0
 10
24.18651271570725
 20
-35.39230025467409
 10
24.32055120479458
 20
-35.35489212790063
 10
24.44572280302639
 20
-35.31453509725163
 10
24.57093127700295
 20
-35.26840098050005
 10
24.69595531412388
 20
-35.21602786746061
 10
24.82226186958105
 20
-35.15608492673826
 10
24.94946914251972
 20
-35.08783908119371
 10
25.07713442054131
 20
-35.01087397070291
 10
25.20634932102137
 20
-34.92393238843015
 10
25.33703343117027
 20
-34.82626957859476
 10
25.46818964631625
 20
-34.71789467190183
 10
25.56574804036209
 20
-34.63021929264111
  0
LWPOLYLINE
  5
110
330
10D
100
AcDbEntity
  8
06___PRT_ALL_SURFS
  6
Continuous
 62
     7
100
AcDbPolyline
 90
       12
 70
     0
 43
0.0
 10
20.07165660848178
 20
-34.63021929264111
 10
20.16921500252762
 20
-34.71789467190183
 10
20.30037121780693
 20
-34.82626957859476
 10
20.4310553278225
 20
-34.92393238843015
 10
20.56027022830256
 20
-35.01087397070291
 10
20.68793550645748
 20
-35.08783908119371
 10
20.81514277926283
 20
-35.15608492673826
 10
20.94144933471999
 20
-35.21602786746061
 10
21.06647337197425
 20
-35.26840098050005
 10
21.19168184581748
 20
-35.31453509725163
 10
21.31685344418262
 20
-35.35489212790063
 10
21.45089193313662
 20
-35.39230025467409
  0
LINE
  5
111
330
10D
100
AcDbEntity
  8
0
  6
Continuous
 62
     7
100
AcDbLine
 10
20.07165482425972
 20
-34.63021763228262
 30
0.0
 11
20.07166175968633
 21
-34.6302240862546
 31
0.0
  0
LINE
  5
112
330
10D
100
AcDbEntity
  8
0
  6
Continuous
 62
     7
100
AcDbLine
 10
18.22838754202718
 20
-25.60259199056608
 30
0.0
 11
18.3327742234949
 21
-26.38754625128562
 31
0.0
  0
LWPOLYLINE
  5
113
330
10D
100
AcDbEntity
  8
0
  6
Continuous
 62
     7
100
AcDbPolyline
 90
       11
 70
     0
 43
0.0
 10
19.88337555255919
 20
-34.22243484217392
 10
19.8858298414671
 20
-34.25631325079253
 10
19.89301635166652
 20
-34.30606219650446
 10
19.90439715513932
 20
-34.35502615344159
 10
19.91991207485663
 20
-34.40290938246427
 10
19.93946603292879
 20
-34.44936467705287
 10
19.96293126828324
 20
-34.49404569773277
 10
19.99018041703749
 20
-34.53666135324808
 10
20.021050358203
 20
-34.57689878822038
 10
20.05533050797783
 20
-34.61443225292698
 10
20.0716636141733
 20
-34.63022574754641
  0
LINE
  5
114
330
10D
100
AcDbEntity
  8
0
  6
Continuous
 62
     7
100
AcDbLine
 10
19.50252244825817
 20
-25.49958422955781
 30
0.0
 11
19.88337519043491
 21
-34.22243954605632
 31
0.0
  0
LINE
  5
115
330
10D
100
AcDbEntity
  8
06___PRT_ALL_SURFS
  6
Continuous
 62
     7
100
AcDbLine
 10
26.24670745501778
 20
-27.34297878994166
 30
0.0
 11
26.25192581282224
 21
-27.33940415757636
 31
0.0
  0
LINE
  5
116
330
10D
100
AcDbEntity
  8
06___PRT_ALL_SURFS
  6
Continuous
 62
     7
100
AcDbLine
 10
27.05038314128998
 20
-26.7986600482504
 30
0.0
 11
26.2518790449248
 21
-27.33942579570207
 31
0.0
  0
LINE
  5
117
330
10D
100
AcDbEntity
  8
0
  6
Continuous
 62
     7
100
AcDbLine
 10
22.8187023244886
 20
-35.49436602856594
 30
0.0
 11
22.8187023244886
 21
-35.52108678426369
 31
0.0
  0
LWPOLYLINE
  5
118
330
10D
100
AcDbEntity
  8
0
  6
Continuous
 62
     7
100
AcDbPolyline
 90
       11
 70
     0
 43
0.0
 10
19.39082358079967
 20
-27.34306639521814
 10
19.41897976021092
 20
-27.36388250800231
 10
19.44549619181689
 20
-27.38612917142182
 10
19.47001334287279
 20
-27.40935423411406
 10
19.49277000940857
 20
-27.43365840809453
 10
19.51440421573989
 20
-27.45978541823627
 10
19.53480622554356
 20
-27.48780817404986
 10
19.5536628818487
 20
-27.51754581019037
 10
19.57106330642721
 20
-27.54947750827797
 10
19.58682892054367
 20
-27.58384768846865
 10
19.59440728067993
 20
-27.60406712737004
  0
LINE
  5
119
330
10D
100
AcDbEntity
  8
0
  6
Continuous
 62
     7
100
AcDbLine
 10
18.58702150755389
 20
-26.7986600482504
 30
0.0
 11
19.38552560391907
 21
-27.33942579570207
 31
0.0
  0
LINE
  5
11A
330
10D
100
AcDbEntity
  8
0
  6
Continuous
 62
     7
100
AcDbLine
 10
19.38547835816691
 20
-27.33940382905124
 30
0.0
 11
19.39082358079967
 21
-27.34306639521814
 31
0.0
  0
LWPOLYLINE
  5
11B
330
10D
100
AcDbEntity
  8
06___PRT_ALL_SURFS
  6
Continuous
 62
     7
100
AcDbPolyline
 90
       11
 70
     0
 43
0.0
 10
26.0429980110812
 20
-27.60405240400479
 10
26.05086696715238
 20
-27.58315030537032
 10
26.06666170227413
 20
-27.54884035434054
 10
26.08408972216274
 20
-27.51695632346125
 10
26.10297415364015
 20
-27.4872568532999
 10
26.12339025002498
 20
-27.45928464702254
 10
26.14501513312272
 20
-27.4332270707449
 10
26.16774168187813
 20
-27.40900215851617
 10
26.192207542483
 20
-27.38586247102283
 10
26.21865052872514
 20
-27.36370480897823
 10
26.24670745501778
 20
-27.34297878994166
  0
LINE
  5
11C
330
10D
100
AcDbEntity
  8
06___PRT_ALL_SURFS
  6
Continuous
 62
     7
100
AcDbLine
 10
25.75402945840896
 20
-34.22243954605632
 30
0.0
 11
26.1348822005857
 21
-25.49958422955781
 31
0.0
  0
LINE
  5
11D
330
10D
100
AcDbEntity
  8
06___PRT_ALL_SURFS
  6
Continuous
 62
     7
100
AcDbLine
 10
27.40901710681669
 20
-25.60259199056608
 30
0.0
 11
27.30463042534897
 21
-26.38754625128562
 31
0.0
  0
LWPOLYLINE
  5
11E
330
10D
100
AcDbEntity
  8
06___PRT_ALL_SURFS
  6
Continuous
 62
     7
100
AcDbPolyline
 90
       11
 70
     0
 43
0.0
 10
25.56574079787649
 20
-34.6302259675409
 10
25.58025719602413
 20
-34.61624993975033
 10
25.61468965932436
 20
-34.57887749075159
 10
25.64572991076534
 20
-34.53878222275835
 10
25.67316580578415
 20
-34.49628566879876
 10
25.69682982110231
 20
-34.45170076451589
 10
25.7165891995055
 20
-34.40532386076748
 10
25.73231396490987
 20
-34.35750307711695
 10
25.74390844944051
 20
-34.30858324600997
 10
25.75131112036912
 20
-34.25886008778668
 10
25.75402909561804
 20
-34.22243485950681
  0
LINE
  5
11F
330
10D
100
AcDbEntity
  8
06___PRT_ALL_SURFS
  6
Continuous
 62
     7
100
AcDbLine
 10
25.56574982458415
 20
-34.63021763228262
 30
0.0
 11
25.56574265356343
 21
-34.6302243053158
 31
0.0
  0
LINE
  5
120
330
10D
100
AcDbEntity
  8
0
  6
Continuous
 62
     7
100
AcDbLine
 10
18.46254070071853
 20
-25.33523870323203
 30
0.0
 11
25.97755510892799
 21
-25.33523870323203
 31
0.0
  0
LINE
  5
121
330
10D
100
AcDbEntity
  8
06___PRT_ALL_SURFS
  6
Continuous
 62
     7
100
AcDbLine
 10
25.70070155203995
 20
-25.33523870323203
 30
0.0
 11
27.17486394812534
 21
-25.33523870323203
 31
0.0
  0
ARC
  5
122
330
10D
100
AcDbEntity
  8
0
  6
Continuous
 62
     7
100
AcDbCircle
 10
19.05864193208184
 20
-27.83190453795903
 30
0.0
 40
0.59106522393331
100
AcDbArc
 50
52.03463277339981
 51
55.89221399520007
  0
ARC
  5
123
330
10D
100
AcDbEntity
  8
0
  6
Continuous
 62
     7
100
AcDbCircle
 10
18.91815712015661
 20
-26.30969945043763
 30
0.0
 40
0.5905364172871401
100
AcDbArc
 50
187.575
 51
235.8932192112999
  0
ARC
  5
124
330
10D
100
AcDbEntity
  8
06___PRT_ALL_SURFS
  6
Continuous
 62
     7
100
AcDbCircle
 10
26.71924752868726
 20
-26.30969945043763
 30
0.0
 40
0.5905364172871401
100
AcDbArc
 50
304.1067807887001
 51
352.4249999999999
  0
ARC
  5
125
330
10D
100
AcDbEntity
  8
0
  6
Continuous
 62
     7
100
AcDbCircle
 10
18.46254070071853
 20
-25.57145327025355
 30
0.0
 40
0.23621456688819
100
AcDbArc
 50
90.0
 51
187.575
  0
ARC
  5
126
330
10D
100
AcDbEntity
  8
06___PRT_ALL_SURFS
  6
Continuous
 62
     7
100
AcDbCircle
 10
27.17486394812534
 20
-25.57145327025355
 30
0.0
 40
0.23621456688819
100
AcDbArc
 50
352.4249999999999
 51
90.0
  0
CIRCLE
  5
127
330
10D
100
AcDbEntity
  8
02___PRT_ALL_AXES
  6
Continuous
 62
     7
100
AcDbCircle
 10
19.05519405228099
 20
-26.25411336865774
 30
0.0
 40
0.16123612646273
  0
CIRCLE
  5
128
330
10D
100
AcDbEntity
  8
06___PRT_ALL_SURFS
  6
Continuous
 62
     7
100
AcDbCircle
 10
26.58221059656288
 20
-26.25411336865774
 30
0.0
 40
0.16123612646273
  0
ARC
  5
129
330
10D
100
AcDbEntity
  8
06___PRT_ALL_SURFS
  6
Continuous
 62
     7
100
AcDbCircle
 10
25.97755478373612
 20
-25.49271508129082
 30
0.0
 40
0.15747637792546
100
AcDbArc
 50
357.4999690511999
 51
90.0
  0
ARC
  5
12A
330
10D
100
AcDbEntity
  8
0
  6
Continuous
 62
     7
100
AcDbCircle
 10
19.65984986524108
 20
-25.49271508129082
 30
0.0
 40
0.15747637792546
100
AcDbArc
 50
90.0
 51
182.5000309488001
  0
SPLINE
  5
12B
330
10D
100
AcDbEntity
  8
0
  6
Continuous
 62
     7
100
AcDbSpline
210
0.0
220
0.0
230
1.0
 70
     8
 71
     3
 72
    15
 73
    11
 74
     9
 42
0.0000000001
 43
0.0000000001
 44
0.0000000001
 12
0.9918328889630366
 22
-0.1275441898764369
 32
0.0
 13
0.9999999999973752
 23
0.0000022912008743
 33
0.0
 40
0.0
 40
0.0
 40
0.0
 40
0.0
 40
0.10487673664618
 40
0.2134416675755118
 40
0.3250717248899758
 40
0.4391200027470372
 40
0.5549829768262083
 40
0.6723243002385649
 40
0.7908611026711338
 40
0.910358643627079
 40
0.910358643627079
 40
0.910358643627079
 40
0.910358643627079
 10
21.91038053923428
 20
-35.47022236723924
 30
0.0
 10
21.94505393813188
 20
-35.47468117337671
 30
0.0
 10
22.01571450416831
 20
-35.48303531302537
 30
0.0
 10
22.12355458606191
 20
-35.493672233644
 30
0.0
 10
22.23462086707009
 20
-35.50255075579878
 30
0.0
 10
22.34825273421659
 20
-35.50963545347689
 30
0.0
 10
22.46388594744668
 20
-35.51495635453705
 30
0.0
 10
22.58108053547914
 20
-35.51859410032934
 30
0.0
 10
22.69952415699824
 20
-35.5206635918586
 30
0.0
 10
22.77886981083673
 20
-35.52108687552798
 30
0.0
 10
22.8187023244886
 20
-35.52108678426369
 30
0.0
 11
21.91038053923428
 21
-35.47022236723924
 31
0.0
 11
22.0145290279903
 21
-35.48256020251898
 31
0.0
 11
22.12256715750287
 21
-35.49324228092701
 31
0.0
 11
22.23384002801156
 21
-35.50216517198248
 31
0.0
 11
22.34766546483783
 21
-35.50929115356183
 31
0.0
 11
22.46340458435417
 21
-35.51464698926259
 31
0.0
 11
22.58068847125036
 21
-35.51831796388593
 31
0.0
 11
22.69920664822186
 21
-35.52041921548666
 31
0.0
 11
22.8187023244886
 21
-35.52108678426369
 31
0.0
  0
SPLINE
  5
12C
330
10D
100
AcDbEntity
  8
02___PRT_ALL_AXES
  6
Continuous
 62
     7
100
AcDbSpline
210
0.0
220
0.0
230
1.0
 70
     8
 71
     3
 72
    15
 73
    11
 74
     9
 42
0.0000000001
 43
0.0000000001
 44
0.0000000001
 12
0.9868820007686561
 22
-0.1614432301425304
 32
0.0
 13
0.9918328889827103
 23
-0.1275441897234472
 33
0.0
 40
0.0
 40
0.0
 40
0.0
 40
0.0
 40
0.0174732470976554
 40
0.0451338260791348
 40
0.0825800870573129
 40
0.1292887267288949
 40
0.1846415422001033
 40
0.2479800786172974
 40
0.3186075111544909
 40
0.3957867596633786
 40
0.3957867596633786
 40
0.3957867596633786
 40
0.3957867596633786
 10
21.51987886868678
 20
-35.40617902036294
 30
0.0
 10
21.52562687970533
 20
-35.40711933284711
 30
0.0
 10
21.54041839380131
 20
-35.40987712117655
 30
0.0
 10
21.56745786316673
 20
-35.41502763701345
 30
0.0
 10
21.60407786166307
 20
-35.42197047138808
 30
0.0
 10
21.64982019891169
 20
-35.43034642367346
 30
0.0
 10
21.70413924026425
 20
-35.43979282632849
 30
0.0
 10
21.76643035159762
 20
-35.44991260891172
 30
0.0
 10
21.83604015867322
 20
-35.4603211566512
 30
0.0
 10
21.88486423356159
 20
-35.4669411123344
 30
0.0
 10
21.91038053923428
 20
-35.47022236723924
 30
0.0
 11
21.51987886868678
 21
-35.40617902036294
 31
0.0
 11
21.53707776550361
 21
-35.40926322405591
 31
0.0
 11
21.56425453420074
 21
-35.41441403688238
 31
0.0
 11
21.60105073027283
 21
-35.42136115253347
 31
0.0
 11
21.64699716211666
 21
-35.42976486723535
 31
0.0
 11
21.70153258723028
 21
-35.43924229242714
 31
0.0
 11
21.76405156155018
 21
-35.44939847504956
 31
0.0
 11
21.83390199017914
 21
-35.45984605118696
 31
0.0
 11
21.91038053923428
 21
-35.47022236723924
 31
0.0
  0
SPLINE
  5
12D
330
10D
100
AcDbEntity
  8
06___PRT_ALL_SURFS
  6
Continuous
 62
     7
100
AcDbSpline
210
0.0
220
0.0
230
1.0
 70
     8
 71
     3
 72
     9
 73
     5
 74
     3
 42
0.0000000001
 43
0.0000000001
 44
0.0000000001
 12
-0.9698533274899844
 22
-0.2436893989417777
 32
0.0
 13
-0.9868820008904894
 23
-0.1614432293977791
 33
0.0
 40
0.0
 40
0.0
 40
0.0
 40
0.0
 40
0.026085184622834
 40
0.0703878548609889
 40
0.0703878548609889
 40
0.0703878548609889
 40
0.0703878548609889
 10
24.18650742943941
 20
-35.39226507942016
 30
0.0
 10
24.17807449507119
 20
-35.39438397374083
 30
0.0
 10
24.1552125804718
 20
-35.39968976285074
 30
0.0
 10
24.1320996161069
 20
-35.40379489831154
 30
0.0
 10
24.11752578015709
 20
-35.40617902036294
 30
0.0
 11
24.18650742943941
 21
-35.39226507942016
 31
0.0
 11
24.16109512529623
 21
-35.39815164505234
 31
0.0
 11
24.11752578015709
 21
-35.40617902036294
 31
0.0
  0
SPLINE
  5
12E
330
10D
100
AcDbEntity
  8
02___PRT_ALL_AXES
  6
Continuous
 62
     7
100
AcDbSpline
210
0.0
220
0.0
230
1.0
 70
     8
 71
     3
 72
     9
 73
     5
 74
     3
 42
0.0000000001
 43
0.0000000001
 44
0.0000000001
 12
0.9698533274899844
 22
-0.2436893989417777
 32
0.0
 13
0.9868820008904894
 23
-0.1614432293977791
 33
0.0
 40
0.0
 40
0.0
 40
0.0
 40
0.0
 40
0.0260851844929436
 40
0.070387854731095
 40
0.070387854731095
 40
0.070387854731095
 40
0.070387854731095
 10
21.45089721953779
 20
-35.39226507942016
 30
0.0
 10
21.45933015386402
 20
-35.39438397373028
 30
0.0
 10
21.48219206840882
 20
-35.39968976288391
 30
0.0
 10
21.50530503273697
 20
-35.40379489831154
 30
0.0
 10
21.51987886868678
 20
-35.40617902036294
 30
0.0
 11
21.45089721953779
 21
-35.39226507942016
 31
0.0
 11
21.47630952354764
 21
-35.39815164505234
 31
0.0
 11
21.51987886868678
 21
-35.40617902036294
 31
0.0
  0
SPLINE
  5
12F
330
10D
100
AcDbEntity
  8
0
  6
Continuous
 62
     7
100
AcDbSpline
210
0.0
220
0.0
230
1.0
 70
     8
 71
     3
 72
    15
 73
    11
 74
     9
 42
0.0000000001
 43
0.0000000001
 44
0.0000000001
 12
-0.9918328889630366
 22
-0.1275441898764369
 32
0.0
 13
-0.9999999999973752
 23
0.0000022912008743
 33
0.0
 40
0.0
 40
0.0
 40
0.0
 40
0.0
 40
0.10487673664618
 40
0.2134416675755118
 40
0.3250717247570762
 40
0.4391200027472033
 40
0.5549829768263744
 40
0.6723243002387309
 40
0.7908611026712999
 40
0.9103586434939138
 40
0.9103586434939138
 40
0.9103586434939138
 40
0.9103586434939138
 10
23.72702410960959
 20
-35.47022236723924
 30
0.0
 10
23.69235071071199
 20
-35.47468117337671
 30
0.0
 10
23.62169014467565
 20
-35.48303531302651
 30
0.0
 10
23.51385006282573
 20
-35.49367223363541
 30
0.0
 10
23.40278378181917
 20
-35.50255075581207
 30
0.0
 10
23.28915191467129
 20
-35.50963545347034
 30
0.0
 10
23.17351870139729
 20
-35.51495635453827
 30
0.0
 10
23.0563241133647
 20
-35.51859410032904
 30
0.0
 10
22.93788049189008
 20
-35.52066359185769
 30
0.0
 10
22.85853483809603
 20
-35.52108687552798
 30
0.0
 10
22.8187023244886
 20
-35.52108678426369
 30
0.0
 11
23.72702410960959
 21
-35.47022236723924
 31
0.0
 11
23.62287562085357
 21
-35.48256020251898
 31
0.0
 11
23.514837491341
 21
-35.49324228092701
 31
0.0
 11
23.40356462096564
 21
-35.50216517198248
 31
0.0
 11
23.28973918400604
 21
-35.50929115356183
 31
0.0
 11
23.1740000644897
 21
-35.51464698926259
 31
0.0
 11
23.05671617759351
 21
-35.51831796388593
 31
0.0
 11
22.93819800062201
 21
-35.52041921548666
 31
0.0
 11
22.8187023244886
 21
-35.52108678426369
 31
0.0
  0
SPLINE
  5
130
330
10D
100
AcDbEntity
  8
06___PRT_ALL_SURFS
  6
Continuous
 62
     7
100
AcDbSpline
210
0.0
220
0.0
230
1.0
 70
     8
 71
     3
 72
    15
 73
    11
 74
     9
 42
0.0000000001
 43
0.0000000001
 44
0.0000000001
 12
-0.9868820007686561
 22
-0.1614432301425304
 32
0.0
 13
-0.9918328889827103
 23
-0.1275441897234472
 33
0.0
 40
0.0
 40
0.0
 40
0.0
 40
0.0
 40
0.0174732470976554
 40
0.0451338260791348
 40
0.0825800869263012
 40
0.1292887267290373
 40
0.1846415420688777
 40
0.2479800786176799
 40
0.3186075110230139
 40
0.3957867596640174
 40
0.3957867596640174
 40
0.3957867596640174
 40
0.3957867596640174
 10
24.11752578015709
 20
-35.40617902036294
 30
0.0
 10
24.11177776913854
 20
-35.40711933284711
 30
0.0
 10
24.09698625504278
 20
-35.40987712117774
 30
0.0
 10
24.06994678571858
 20
-35.41502763699745
 30
0.0
 10
24.03332678723194
 20
-35.4219704714242
 30
0.0
 10
23.98758445001412
 20
-35.43034642363476
 30
0.0
 10
23.93326540863046
 20
-35.43979282636612
 30
0.0
 10
23.87097429732953
 20
-35.4499126088764
 30
0.0
 10
23.80136449021994
 20
-35.46032115668433
 30
0.0
 10
23.75254041532596
 20
-35.46694111232878
 30
0.0
 10
23.72702410960959
 20
-35.47022236723924
 30
0.0
 11
24.11752578015709
 21
-35.40617902036294
 31
0.0
 11
24.10032688334026
 21
-35.40926322405591
 31
0.0
 11
24.07315011464313
 21
-35.41441403688238
 31
0.0
 11
24.03635391870436
 21
-35.42136115253347
 31
0.0
 11
23.99040748672721
 21
-35.42976486723535
 31
0.0
 11
23.93587206174692
 21
-35.43924229242714
 31
0.0
 11
23.87335308729369
 21
-35.44939847504956
 31
0.0
 11
23.80350265879806
 21
-35.45984605118696
 31
0.0
 11
23.72702410960959
 21
-35.47022236723924
 31
0.0
  0
LINE
  5
131
330
10D
100
AcDbEntity
  8
0
  6
Continuous
 62
     7
100
AcDbLine
 10
19.50253096844516
 20
-25.4988305647999
 30
0.0
 11
19.49121900738459
 21
-25.49850194808219
 31
0.0
  0
LINE
  5
132
330
10D
100
AcDbEntity
  8
0
370
     0
100
AcDbLine
 10
27.17486394812534
 20
-25.33523870323203
 30
0.0
 11
18.46254070071853
 21
-25.33523870336536
 31
0.0
  0
ENDBLK
  5
133
330
10D
100
AcDbEntity
  8
0
370
     0
100
AcDbBlockEnd
  0
ENDSEC
  0
SECTION
  2
ENTITIES
  0
LINE
  5
28E
330
23
100
AcDbEntity
  8
SB
  6
Continuous
 62
     7
100
AcDbLine
 10
197.1200505307011
 20
148.9483259474492
 30
0.0
 11
198.3900587797011
 21
148.9483259474492
 31
0.0
  0
LINE
  5
28F
330
23
100
AcDbEntity
  8
SB
  6
Continuous
 62
     7
100
AcDbLine
 10
206.7203465173011
 20
155.8124963388993
 30
0.0
 11
194.9507987633511
 21
155.8170362538078
 31
0.0
  0
ARC
  5
290
330
23
100
AcDbEntity
  8
SB
  6
Continuous
 62
     7
100
AcDbCircle
 10
194.8807515145761
 20
-23.42964049565072
 30
0.0
 40
179.633462051175
100
AcDbArc
 50
86.21812199999974
 51
93.7384359999997
  0
ARC
  5
291
330
23
100
AcDbEntity
  8
SB
  6
Continuous
 62
     7
100
AcDbCircle
 10
196.6118262366261
 20
180.7604266250493
 30
0.0
 40
31.9992
100
AcDbArc
 50
273.5768950000001
 51
277.9415799999989
  0
ARC
  5
292
330
23
100
AcDbEntity
  8
SB
  6
Continuous
 62
     7
100
AcDbCircle
 10
197.3397740374761
 20
157.8024675883743
 30
0.0
 40
9.999749999999998
100
AcDbArc
 50
315.7309780000003
 51
342.8361629999989
  0
ARC
  5
293
330
23
100
AcDbEntity
  8
SB
  6
Continuous
 62
     7
100
AcDbCircle
 10
198.6007075133511
 20
148.9433260724493
 30
0.0
 40
0.119997
100
AcDbArc
 50
227.7884475000011
 51
273.5768950000001
  0
ARC
  5
294
330
23
100
AcDbEntity
  8
SB
  6
Continuous
 62
     7
100
AcDbCircle
 10
198.3900587797011
 20
148.8283289474493
 30
0.0
 40
0.119997
100
AcDbArc
 50
28.63098999999973
 51
90.0
  0
ARC
  5
295
330
23
100
AcDbEntity
  8
SB
  6
Continuous
 62
     7
100
AcDbCircle
 10
200.2039834304511
 20
155.0104253911742
 30
0.0
 40
5.999849999999999
100
AcDbArc
 50
277.9415799999989
 51
315.7309780000003
  0
ARC
  5
296
330
23
100
AcDbEntity
  8
SB
  6
Continuous
 62
     7
100
AcDbCircle
 10
204.9833009445261
 20
155.4416866093742
 30
0.0
 40
1.999949999999999
100
AcDbArc
 50
342.8361629999989
 51
3.963812999999058
  0
ARC
  5
297
330
23
100
AcDbEntity
  8
SB
  6
Continuous
 62
     7
100
AcDbCircle
 10
206.7290712991761
 20
155.5626545850993
 30
0.0
 40
0.24999375
100
AcDbArc
 50
3.963812999999058
 51
91.99999999999876
  0
LINE
  5
298
330
23
100
AcDbEntity
  8
SB
  6
Continuous
 62
     7
100
AcDbLine
 10
192.7815469960011
 20
148.9483259474493
 30
0.0
 11
191.5115387470011
 21
148.9483259474493
 31
0.0
  0
LINE
  5
299
330
23
100
AcDbEntity
  8
SB
  6
Continuous
 62
     7
100
AcDbLine
 10
183.1812510094011
 20
155.8124963388993
 30
0.0
 11
194.9507987633511
 21
155.8170362538078
 31
0.0
  0
ARC
  5
29A
330
23
100
AcDbEntity
  8
SB
  6
Continuous
 62
     7
100
AcDbCircle
 10
195.0208460121246
 20
-23.42964049565072
 30
0.0
 40
179.633462051175
100
AcDbArc
 50
86.26156400000029
 51
93.78187800000025
  0
ARC
  5
29B
330
23
100
AcDbEntity
  8
SB
  6
Continuous
 62
     7
100
AcDbCircle
 10
193.2897712900764
 20
180.7604266250493
 30
0.0
 40
31.9992
100
AcDbArc
 50
262.0584199999996
 51
266.4231049999998
  0
ARC
  5
29C
330
23
100
AcDbEntity
  8
SB
  6
Continuous
 62
     7
100
AcDbCircle
 10
192.5618234892262
 20
157.8024675883743
 30
0.0
 40
9.999749999999998
100
AcDbArc
 50
197.1638369999994
 51
224.2690219999996
  0
ARC
  5
29D
330
23
100
AcDbEntity
  8
SB
  6
Continuous
 62
     7
100
AcDbCircle
 10
191.5115387470011
 20
148.8283289474493
 30
0.0
 40
0.119997
100
AcDbArc
 50
90.0
 51
151.3690099999988
  0
ARC
  5
29E
330
23
100
AcDbEntity
  8
SB
  6
Continuous
 62
     7
100
AcDbCircle
 10
189.6976140962511
 20
155.0104253911743
 30
0.0
 40
5.999849999999999
100
AcDbArc
 50
224.2690219999996
 51
262.0584199999996
  0
ARC
  5
29F
330
23
100
AcDbEntity
  8
SB
  6
Continuous
 62
     7
100
AcDbCircle
 10
184.9182965821761
 20
155.4416866093743
 30
0.0
 40
1.999949999999999
100
AcDbArc
 50
176.0361869999993
 51
197.1638369999994
  0
ARC
  5
2A0
330
23
100
AcDbEntity
  8
SB
  6
Continuous
 62
     7
100
AcDbCircle
 10
183.1725262275261
 20
155.5626545850993
 30
0.0
 40
0.24999375
100
AcDbArc
 50
87.99999999999959
 51
176.0361869999993
  0
INSERT
  5
2A3
330
23
100
AcDbEntity
  8
0
370
     0
100
AcDbBlockReference
  2
b
 10
172.1276143587535
 20
174.2835646506813
 30
0.0
  0
ARC
  5
2A4
330
23
100
AcDbEntity
  8
0
370
     0
100
AcDbCircle
 10
198.6069013341423
 20
148.9482027388022
 30
0.0
 40
0.127777164837806
100
AcDbArc
 50
209.2194726737621
 51
227.2005409287743
  0
ARC
  5
2A5
330
23
100
AcDbEntity
  8
SB
  6
Continuous
 62
     7
100
AcDbCircle
 10
191.3008900133511
 20
148.9433260724493
 30
0.0
 40
0.119997
100
AcDbArc
 50
266.4231049999998
 51
312.2115524999988
  0
ARC
  5
2A6
330
23
100
AcDbEntity
  8
0
370
     0
100
AcDbCircle
 10
191.3322160357671
 20
148.918666921374
 30
0.0
 40
0.0809580190053566
100
AcDbArc
 50
307.5109159633972
 51
336.069070434087
  0
ENDSEC
  0
SECTION
  2
OBJECTS
  0
DICTIONARY
  5
C
330
0
100
AcDbDictionary
281
     1
  3
ACAD_COLOR
350
1C
  3
ACAD_GROUP
350
D
  3
ACAD_LAYOUT
350
1A
  3
ACAD_MATERIAL
350
1B
  3
ACAD_MLINESTYLE
350
17
  3
ACAD_PLOTSETTINGS
350
19
  3
ACAD_PLOTSTYLENAME
350
E
  3
ACAD_TABLESTYLE
350
1D
  3
AcDbVariableDictionary
350
2A8
  3
AcmDictionary
350
8B
  3
AMG
350
2F
  3
AMGSNAPSETTINGS
350
1B1
  0
DICTIONARY
  5
1C
102
{ACAD_REACTORS
330
C
102
}
330
C
100
AcDbDictionary
281
     1
  0
DICTIONARY
  5
D
102
{ACAD_REACTORS
330
C
102
}
330
C
100
AcDbDictionary
281
     1
  0
DICTIONARY
  5
1A
102
{ACAD_REACTORS
330
C
102
}
330
C
100
AcDbDictionary
281
     1
  3
Layout1
350
22
  3
Layout2
350
2A
  3
Model
350
26
  0
DICTIONARY
  5
1B
102
{ACAD_REACTORS
330
C
102
}
330
C
100
AcDbDictionary
281
     1
  0
DICTIONARY
  5
17
102
{ACAD_REACTORS
330
C
102
}
330
C
100
AcDbDictionary
281
     1
  3
Standard
350
18
  0
DICTIONARY
  5
19
102
{ACAD_REACTORS
330
C
102
}
330
C
100
AcDbDictionary
281
     1
  0
ACDBDICTIONARYWDFLT
  5
E
102
{ACAD_REACTORS
330
C
102
}
330
C
100
AcDbDictionary
281
     1
  3
Normal
350
F
100
AcDbDictionaryWithDefault
340
F
  0
DICTIONARY
  5
1D
102
{ACAD_REACTORS
330
C
102
}
330
C
100
AcDbDictionary
281
     1
  3
Standard
350
1E
  0
DICTIONARY
  5
2A8
102
{ACAD_REACTORS
330
C
102
}
330
C
100
AcDbDictionary
281
     1
  3
CTABLESTYLE
350
2A9
  0
DICTIONARY
  5
8B
102
{ACAD_REACTORS
330
C
102
}
330
C
100
AcDbDictionary
281
     1
  3
AcmStdDictionary
350
8D
  3
AMDTSECTSYM_ARROWCOLOR
350
AB
  0
DICTIONARY
  5
2F
102
{ACAD_REACTORS
330
C
102
}
330
C
100
AcDbDictionary
281
     1
  0
DICTIONARY
  5
1B1
102
{ACAD_REACTORS
330
C
102
}
330
C
100
AcDbDictionary
281
     1
  0
LAYOUT
  5
22
102
{ACAD_REACTORS
330
1A
102
}
330
1A
100
AcDbPlotSettings
  1

  2
PDF995
  4

  6

 40
0.0
 41
0.0
 42
0.0
 43
0.0
 44
0.0
 45
0.0
 46
0.0
 47
0.0
 48
0.0
 49
0.0
140
0.0
141
0.0
142
1.0
143
1.0
 70
   688
 72
     0
 73
     0
 74
     5
  7

 75
    16
147
1.0
 76
     0
 77
     2
 78
   300
148
0.0
149
0.0
100
AcDbLayout
  1
Layout1
 70
     1
 71
     1
 10
0.0
 20
0.0
 11
420.0
 21
297.0
 12
0.0
 22
0.0
 32
0.0
 14
1.000000000000000E+20
 24
1.000000000000000E+20
 34
1.000000000000000E+20
 15
-1.000000000000000E+20
 25
-1.000000000000000E+20
 35
-1.000000000000000E+20
146
0.0
 13
0.0
 23
0.0
 33
0.0
 16
1.0
 26
0.0
 36
0.0
 17
0.0
 27
1.0
 37
0.0
 76
     0
330
1F
  0
LAYOUT
  5
2A
102
{ACAD_REACTORS
330
1A
102
}
330
1A
100
AcDbPlotSettings
  1

  2
PDF995
  4

  6

 40
0.0
 41
0.0
 42
0.0
 43
0.0
 44
0.0
 45
0.0
 46
0.0
 47
0.0
 48
0.0
 49
0.0
140
0.0
141
0.0
142
1.0
143
1.0
 70
   688
 72
     0
 73
     0
 74
     5
  7

 75
    16
147
1.0
 76
     0
 77
     2
 78
   300
148
0.0
149
0.0
100
AcDbLayout
  1
Layout2
 70
     1
 71
     2
 10
0.0
 20
0.0
 11
12.0
 21
9.0
 12
0.0
 22
0.0
 32
0.0
 14
0.0
 24
0.0
 34
0.0
 15
0.0
 25
0.0
 35
0.0
146
0.0
 13
0.0
 23
0.0
 33
0.0
 16
1.0
 26
0.0
 36
0.0
 17
0.0
 27
1.0
 37
0.0
 76
     0
330
27
  0
LAYOUT
  5
26
102
{ACAD_REACTORS
330
1A
102
}
330
1A
100
AcDbPlotSettings
  1

  2
PDF995
  4

  6

 40
0.0
 41
0.0
 42
0.0
 43
0.0
 44
0.0
 45
0.0
 46
0.0
 47
0.0
 48
0.0
 49
0.0
140
0.0
141
0.0
142
1.0
143
1.0
 70
  1712
 72
     0
 73
     0
 74
     0
  7

 75
     0
147
1.0
 76
     0
 77
     2
 78
   300
148
0.0
149
0.0
100
AcDbLayout
  1
Model
 70
     1
 71
     0
 10
0.0
 20
0.0
 11
12.0
 21
9.0
 12
0.0
 22
0.0
 32
0.0
 14
0.0
 24
0.0
 34
0.0
 15
0.0
 25
0.0
 35
0.0
146
0.0
 13
0.0
 23
0.0
 33
0.0
 16
1.0
 26
0.0
 36
0.0
 17
0.0
 27
1.0
 37
0.0
 76
     0
330
23
  0
MLINESTYLE
  5
18
102
{ACAD_REACTORS
330
17
102
}
330
17
100
AcDbMlineStyle
  2
STANDARD
 70
     0
  3

 62
   256
 51
90.0
 52
90.0
 71
     2
 49
0.5
 62
   256
  6
BYLAYER
 49
-0.5
 62
   256
  6
BYLAYER
  0
ACDBPLACEHOLDER
  5
F
102
{ACAD_REACTORS
330
E
102
}
330
E
  0
TABLESTYLE
  5
1E
102
{ACAD_REACTORS
330
1D
102
}
330
1D
100
AcDbTableStyle
  3
Standard
 70
     0
 71
     0
 40
1.5
 41
1.5
280
     0
281
     0
  7
STANDARD
140
4.5
170
     2
 62
     0
 63
     7
283
     0
274
    -2
284
     1
 64
     0
275
    -2
285
     1
 65
     0
276
    -2
286
     1
 66
     0
277
    -2
287
     1
 67
     0
278
    -2
288
     1
 68
     0
279
    -2
289
     1
 69
     0
  7
STANDARD
140
6.0
170
     5
 62
     0
 63
     7
283
     0
274
    -2
284
     1
 64
     0
275
    -2
285
     1
 65
     0
276
    -2
286
     1
 66
     0
277
    -2
287
     1
 67
     0
278
    -2
288
     1
 68
     0
279
    -2
289
     1
 69
     0
  7
STANDARD
140
4.5
170
     5
 62
     0
 63
     7
283
     0
274
    -2
284
     1
 64
     0
275
    -2
285
     1
 65
     0
276
    -2
286
     1
 66
     0
277
    -2
287
     1
 67
     0
278
    -2
288
     1
 68
     0
279
    -2
289
     1
 69
     0
  0
DICTIONARYVAR
  5
2A9
102
{ACAD_REACTORS
330
2A8
102
}
330
2A8
100
DictionaryVariables
280
     0
  1
STANDARD
  0
DICTIONARY
  5
8D
102
{ACAD_REACTORS
330
8B
102
}
330
8B
100
AcDbDictionary
281
     1
  0
XRECORD
  5
AB
102
{ACAD_REACTORS
330
8B
102
}
330
8B
100
AcDbXrecord
280
     1
 90
-1023410169
  0
ENDSEC
  0
EOF
