  0
SECTION
  2
HEADER
  9
$ACADVER
  1
AC1021
  9
$ACADMAINTVER
 70
    50
  9
$DWGCODEPAGE
  3
ANSI_936
  9
$LASTSAVEDBY
  1
ko69185
  9
$CUSTOMPROPERTYTAG
  1
AmdtFileType
  9
$CUSTOMPROPERTY
  1
84
  9
$INSBASE
 10
0.0
 20
0.0
 30
0.0
  9
$EXTMIN
 10
25.24329218890894
 20
28.53966126384069
 30
0.0
  9
$EXTMAX
 10
86.27970218890894
 20
63.93422726384068
 30
0.0
  9
$LIMMIN
 10
0.0
 20
0.0
  9
$LIMMAX
 10
17.0
 20
11.0
  9
$ORTHOMODE
 70
     0
  9
$REGENMODE
 70
     1
  9
$FILLMODE
 70
     1
  9
$QTEXTMODE
 70
     0
  9
$MIRRTEXT
 70
     1
  9
$LTSCALE
 40
1.0
  9
$ATTMODE
 70
     1
  9
$TEXTSIZE
 40
0.2
  9
$TRACEWID
 40
0.05
  9
$TEXTSTYLE
  7
STANDARD
  9
$CLAYER
  8
0
  9
$CELTYPE
  6
ByLayer
  9
$CECOLOR
 62
   256
  9
$CELTSCALE
 40
1.0
  9
$DISPSILH
 70
     0
  9
$DIMSCALE
 40
1.0
  9
$DIMASZ
 40
0.12
  9
$DIMEXO
 40
0.05
  9
$DIMDLI
 40
0.5
  9
$DIMRND
 40
0.0
  9
$DIMDLE
 40
0.0
  9
$DIMEXE
 40
0.1
  9
$DIMTP
 40
0.1
  9
$DIMTM
 40
0.1
  9
$DIMTXT
 40
0.12
  9
$DIMCEN
 40
0.0
  9
$DIMTSZ
 40
0.0
  9
$DIMTOL
 70
     0
  9
$DIMLIM
 70
     0
  9
$DIMTIH
 70
     1
  9
$DIMTOH
 70
     1
  9
$DIMSE1
 70
     0
  9
$DIMSE2
 70
     0
  9
$DIMTAD
 70
     0
  9
$DIMZIN
 70
     7
  9
$DIMBLK
  1

  9
$DIMASO
 70
     1
  9
$DIMSHO
 70
     1
  9
$DIMPOST
  1

  9
$DIMAPOST
  1
mm
  9
$DIMALT
 70
     0
  9
$DIMALTD
 70
     2
  9
$DIMALTF
 40
25.4
  9
$DIMLFAC
 40
1.0
  9
$DIMTOFL
 70
     0
  9
$DIMTVP
 40
0.0
  9
$DIMTIX
 70
     0
  9
$DIMSOXD
 70
     0
  9
$DIMSAH
 70
     0
  9
$DIMBLK1
  1

  9
$DIMBLK2
  1

  9
$DIMSTYLE
  2
AM_ANSI
  9
$DIMCLRD
 70
   256
  9
$DIMCLRE
 70
   256
  9
$DIMCLRT
 70
   140
  9
$DIMTFAC
 40
0.71
  9
$DIMGAP
 40
0.06
  9
$DIMJUST
 70
     0
  9
$DIMSD1
 70
     0
  9
$DIMSD2
 70
     0
  9
$DIMTOLJ
 70
     1
  9
$DIMTZIN
 70
     7
  9
$DIMALTZ
 70
     0
  9
$DIMALTTZ
 70
     0
  9
$DIMUPT
 70
     0
  9
$DIMDEC
 70
     4
  9
$DIMTDEC
 70
     4
  9
$DIMALTU
 70
     2
  9
$DIMALTTD
 70
     4
  9
$DIMTXSTY
  7
STANDARD
  9
$DIMAUNIT
 70
     0
  9
$DIMADEC
 70
     0
  9
$DIMALTRND
 40
0.0
  9
$DIMAZIN
 70
     2
  9
$DIMDSEP
 70
    46
  9
$DIMATFIT
 70
     3
  9
$DIMFRAC
 70
     0
  9
$DIMLDRBLK
  1

  9
$DIMLUNIT
 70
     2
  9
$DIMLWD
 70
    -1
  9
$DIMLWE
 70
    -1
  9
$DIMTMOVE
 70
     0
  9
$DIMFXL
 40
1.0
  9
$DIMFXLON
 70
     0
  9
$DIMJOGANG
 40
0.7853981633974483
  9
$DIMTFILL
 70
     0
  9
$DIMTFILLCLR
 70
     0
  9
$DIMARCSYM
 70
     1
  9
$DIMLTYPE
  6
ByBlock
  9
$DIMLTEX1
  6
ByBlock
  9
$DIMLTEX2
  6
ByBlock
  9
$LUNITS
 70
     2
  9
$LUPREC
 70
     4
  9
$SKETCHINC
 40
0.1
  9
$FILLETRAD
 40
0.125
  9
$AUNITS
 70
     0
  9
$AUPREC
 70
     0
  9
$MENU
  1
.
  9
$ELEVATION
 40
0.0
  9
$PELEVATION
 40
0.0
  9
$THICKNESS
 40
0.0
  9
$LIMCHECK
 70
     0
  9
$CHAMFERA
 40
0.125
  9
$CHAMFERB
 40
0.125
  9
$CHAMFERC
 40
1.0
  9
$CHAMFERD
 40
0.0
  9
$SKPOLY
 70
     0
  9
$TDCREATE
 40
2455352.702648889
  9
$TDUCREATE
 40
2455352.369315556
  9
$TDUPDATE
 40
2455352.707947176
  9
$TDUUPDATE
 40
2455352.374613843
  9
$TDINDWG
 40
0.0052988194
  9
$TDUSRTIMER
 40
0.0052986458
  9
$USRTIMER
 70
     1
  9
$ANGBASE
 50
0.0
  9
$ANGDIR
 70
     0
  9
$PDMODE
 70
     0
  9
$PDSIZE
 40
0.0
  9
$PLINEWID
 40
0.0
  9
$SPLFRAME
 70
     0
  9
$SPLINETYPE
 70
     6
  9
$SPLINESEGS
 70
     8
  9
$HANDSEED
  5
DF0
  9
$SURFTAB1
 70
     6
  9
$SURFTAB2
 70
     6
  9
$SURFTYPE
 70
     6
  9
$SURFU
 70
     6
  9
$SURFV
 70
     6
  9
$UCSBASE
  2

  9
$UCSNAME
  2

  9
$UCSORG
 10
0.0
 20
0.0
 30
0.0
  9
$UCSXDIR
 10
1.0
 20
0.0
 30
0.0
  9
$UCSYDIR
 10
0.0
 20
1.0
 30
0.0
  9
$UCSORTHOREF
  2

  9
$UCSORTHOVIEW
 70
     0
  9
$UCSORGTOP
 10
0.0
 20
0.0
 30
0.0
  9
$UCSORGBOTTOM
 10
0.0
 20
0.0
 30
0.0
  9
$UCSORGLEFT
 10
0.0
 20
0.0
 30
0.0
  9
$UCSORGRIGHT
 10
0.0
 20
0.0
 30
0.0
  9
$UCSORGFRONT
 10
0.0
 20
0.0
 30
0.0
  9
$UCSORGBACK
 10
0.0
 20
0.0
 30
0.0
  9
$PUCSBASE
  2

  9
$PUCSNAME
  2

  9
$PUCSORG
 10
0.0
 20
0.0
 30
0.0
  9
$PUCSXDIR
 10
1.0
 20
0.0
 30
0.0
  9
$PUCSYDIR
 10
0.0
 20
1.0
 30
0.0
  9
$PUCSORTHOREF
  2

  9
$PUCSORTHOVIEW
 70
     0
  9
$PUCSORGTOP
 10
0.0
 20
0.0
 30
0.0
  9
$PUCSORGBOTTOM
 10
0.0
 20
0.0
 30
0.0
  9
$PUCSORGLEFT
 10
0.0
 20
0.0
 30
0.0
  9
$PUCSORGRIGHT
 10
0.0
 20
0.0
 30
0.0
  9
$PUCSORGFRONT
 10
0.0
 20
0.0
 30
0.0
  9
$PUCSORGBACK
 10
0.0
 20
0.0
 30
0.0
  9
$USERI1
 70
     0
  9
$USERI2
 70
     0
  9
$USERI3
 70
     0
  9
$USERI4
 70
     0
  9
$USERI5
 70
     0
  9
$USERR1
 40
0.0
  9
$USERR2
 40
0.0
  9
$USERR3
 40
0.0
  9
$USERR4
 40
0.0
  9
$USERR5
 40
0.0
  9
$WORLDVIEW
 70
     1
  9
$SHADEDGE
 70
     3
  9
$SHADEDIF
 70
    70
  9
$TILEMODE
 70
     1
  9
$MAXACTVP
 70
    64
  9
$PINSBASE
 10
0.0
 20
0.0
 30
0.0
  9
$PLIMCHECK
 70
     0
  9
$PEXTMIN
 10
1.000000000000000E+20
 20
1.000000000000000E+20
 30
1.000000000000000E+20
  9
$PEXTMAX
 10
-1.000000000000000E+20
 20
-1.000000000000000E+20
 30
-1.000000000000000E+20
  9
$PLIMMIN
 10
0.0
 20
0.0
  9
$PLIMMAX
 10
12.0
 20
9.0
  9
$UNITMODE
 70
     0
  9
$VISRETAIN
 70
     1
  9
$PLINEGEN
 70
     0
  9
$PSLTSCALE
 70
     1
  9
$TREEDEPTH
 70
  3020
  9
$CMLSTYLE
  2
Standard
  9
$CMLJUST
 70
     0
  9
$CMLSCALE
 40
1.0
  9
$PROXYGRAPHICS
 70
     1
  9
$MEASUREMENT
 70
     0
  9
$CELWEIGHT
370
    -1
  9
$ENDCAPS
280
     0
  9
$JOINSTYLE
280
     0
  9
$LWDISPLAY
290
     0
  9
$INSUNITS
 70
     1
  9
$HYPERLINKBASE
  1

  9
$STYLESHEET
  1

  9
$XEDIT
290
     1
  9
$CEPSNTYPE
380
     0
  9
$PSTYLEMODE
290
     1
  9
$FINGERPRINTGUID
  2
{F7706BBD-C081-4922-85C0-65681D6089D4}
  9
$VERSIONGUID
  2
{AD8585B3-84E3-48F4-A55C-54E2C5F416B6}
  9
$EXTNAMES
290
     1
  9
$PSVPSCALE
 40
0.0
  9
$OLESTARTUP
290
     0
  9
$SORTENTS
280
   127
  9
$INDEXCTL
280
     0
  9
$HIDETEXT
280
     0
  9
$XCLIPFRAME
290
     0
  9
$HALOGAP
280
     0
  9
$OBSCOLOR
 70
   257
  9
$OBSLTYPE
280
     0
  9
$INTERSECTIONDISPLAY
280
     0
  9
$INTERSECTIONCOLOR
 70
   257
  9
$DIMASSOC
280
     2
  9
$PROJECTNAME
  1

  9
$CAMERADISPLAY
290
     0
  9
$LENSLENGTH
 40
50.0
  9
$CAMERAHEIGHT
 40
0.0
  9
$STEPSPERSEC
 40
2.0
  9
$STEPSIZE
 40
6.0
  9
$3DDWFPREC
 40
2.0
  9
$PSOLWIDTH
 40
0.25
  9
$PSOLHEIGHT
 40
4.0
  9
$LOFTANG1
 40
1.570796326794896
  9
$LOFTANG2
 40
1.570796326794896
  9
$LOFTMAG1
 40
0.0
  9
$LOFTMAG2
 40
0.0
  9
$LOFTPARAM
 70
     7
  9
$LOFTNORMALS
280
     1
  9
$LATITUDE
 40
37.795
  9
$LONGITUDE
 40
-122.394
  9
$NORTHDIRECTION
 40
0.0
  9
$TIMEZONE
 70
 -8000
  9
$LIGHTGLYPHDISPLAY
280
     1
  9
$TILEMODELIGHTSYNCH
280
     1
  9
$CMATERIAL
347
293
  9
$SOLIDHIST
280
     1
  9
$SHOWHIST
280
     1
  9
$DWFFRAME
280
     2
  9
$DGNFRAME
280
     0
  9
$REALWORLDSCALE
290
     1
  9
$INTERFERECOLOR
 62
     1
  9
$INTERFEREOBJVS
345
2A0
  9
$INTERFEREVPVS
346
29D
  9
$CSHADOW
280
     0
  9
$SHADOWPLANELOCATION
 40
0.0
  0
ENDSEC
  0
SECTION
  2
CLASSES
  0
CLASS
  1
ACDBDICTIONARYWDFLT
  2
AcDbDictionaryWithDefault
  3
ObjectDBX Classes
 90
        0
 91
        1
280
     0
281
     0
  0
CLASS
  1
ACME_DOCUMENT
  2
AcMeDbDoc
  3
AcMeServices
 90
     1024
 91
        2
280
     0
281
     0
  0
CLASS
  1
AMGSETTINGSOBJ
  2
AmgSettingsObj
  3
"AcadM|Product Description: AutoCAD Mechanical|Company: Autodesk, Inc."
 90
     1024
 91
        4
280
     0
281
     0
  0
CLASS
  1
ACMESCOPE
  2
AcMeScope
  3
AcMeServices
 90
     1024
 91
        1
280
     0
281
     0
  0
CLASS
  1
ACMECOMMANDHISTORY
  2
AcMeCommandHistory
  3
AcMeServices
 90
     1024
 91
        1
280
     0
281
     0
  0
CLASS
  1
ACIMSYSVARMAN
  2
AcImSysVarManager
  3
AcMeServices
 90
     1024
 91
        5
280
     0
281
     0
  0
CLASS
  1
ACIMREALSYSVAR
  2
AcImRealSysVar
  3
AcMeServices
 90
     1024
 91
        3
280
     0
281
     0
  0
CLASS
  1
ACIMINTSYSVAR
  2
AcImIntSysVar
  3
AcMeServices
 90
     1024
 91
       27
280
     0
281
     0
  0
CLASS
  1
ACMEDRAWINGMAN
  2
AcMeDrawingMan
  3
AcMeServices
 90
     1024
 91
        1
280
     0
281
     0
  0
CLASS
  1
ACMEVIEW
  2
AcMeView
  3
AcMeServices
 90
     1024
 91
        1
280
     0
281
     0
  0
CLASS
  1
ACDBENTITYCACHE
  2
AcMeEntityCache
  3
AcMeServices
 90
     1024
 91
        1
280
     0
281
     0
  0
CLASS
  1
GSMANAGER
  2
AcMeGSManager
  3
AcMeServices
 90
     1024
 91
        1
280
     0
281
     0
  0
CLASS
  1
AMDTINTERNALREACTOR
  2
AmdtInternalReactor
  3
AcMeServices
 90
     1024
 91
        2
280
     0
281
     0
  0
CLASS
  1
ACMESTATEMGR
  2
AcMeStateMgr
  3
AcMeServices
 90
     1024
 91
        1
280
     0
281
     0
  0
CLASS
  1
ACGREFMASTER
  2
AcGrefMaster
  3
AcAttribServices
 90
     1024
 91
        1
280
     0
281
     0
  0
CLASS
  1
ACME_DATABASE
  2
AcMeDbDatabase
  3
AcMeServices
 90
     1024
 91
        2
280
     0
281
     0
  0
CLASS
  1
ACRFINSADJUSTERMGR
  2
AcRfInsAdjusterMgr
  3
AcMeServices
 90
     1024
 91
        1
280
     0
281
     0
  0
CLASS
  1
ACGREFACADMASTER
  2
AcGrefacadMaster
  3
AcGrefServices
 90
     1024
 91
        1
280
     0
281
     0
  0
CLASS
  1
AMIMASTER
  2
AmiMaster
  3
AmiServices
 90
     1024
 91
        1
280
     0
281
     0
  0
CLASS
  1
ACMDATADICTIONARY
  2
AcmDataDictionary
  3
"AcmSymBB|Product Description: AutoCAD Mechanical|Company: Autodesk, Inc."
 90
     1024
 91
        1
280
     0
281
     0
  0
CLASS
  1
ACMDATAENTRYBLOCK
  2
AcmDataEntryBlock
  3
AcmSymBB|Product Description: AutoCAD Mechanical|Company: Autodesk, Inc.
 90
     1024
 91
        1
280
     0
281
     0
  0
CLASS
  1
ACIMSTRSYSVAR
  2
AcImStrSysVar
  3
AcMeServices
 90
     1024
 91
        5
280
     0
281
     0
  0
CLASS
  1
ACMSTANDARDANSI
  2
AcmStandardANSI
  3
"Amdt_StdImp|Product Description: AutoCAD Mechanical|Company: Autodesk, Inc."
 90
     1024
 91
        1
280
     0
281
     0
  0
CLASS
  1
AMGOBJPROPCFG
  2
AmgObjPropCfg
  3
"AmgLay|Product Description: AutoCAD Mechanical|Company: Autodesk, Inc."
 90
     1025
 91
        1
280
     0
281
     0
  0
CLASS
  1
ACMSURFSTANDARDANSI
  2
AcmSurfTextStdANSI
  3
"Amdt_StdImp|Product Description: AutoCAD Mechanical|Company: Autodesk, Inc."
 90
     1024
 91
        1
280
     0
281
     0
  0
CLASS
  1
ACMFCFSTANDARDANSI
  2
AcmFCFStdANSI
  3
"Amdt_StdImp|Product Description: AutoCAD Mechanical|Company: Autodesk, Inc."
 90
     1024
 91
        1
280
     0
281
     0
  0
CLASS
  1
ACMWELDSTANDARDANSI
  2
AcmWeldingStdANSI
  3
"Amdt_StdImp|Product Description: AutoCAD Mechanical|Company: Autodesk, Inc."
 90
     1024
 91
        1
280
     0
281
     0
  0
CLASS
  1
ACMIDSTANDARDANSI
  2
AcmIdStdANSI
  3
"Amdt_StdImp|Product Description: AutoCAD Mechanical|Company: Autodesk, Inc."
 90
     1024
 91
        1
280
     0
281
     0
  0
CLASS
  1
ACMDATUMSTANDARDANSI
  2
AcmDatumStdANSI
  3
"Amdt_StdImp|Product Description: AutoCAD Mechanical|Company: Autodesk, Inc."
 90
     1024
 91
        1
280
     0
281
     0
  0
CLASS
  1
ACMBOMSTANDARDANSI
  2
AcmBOMStdANSI
  3
"Amdt_StdImp|Product Description: AutoCAD Mechanical|Company: Autodesk, Inc."
 90
     1024
 91
        1
280
     0
281
     0
  0
CLASS
  1
ACMDETAILSTANDARDANSI
  2
AmdtDetailSymStdANSI
  3
"Amdt_StdImp|Product Description: AutoCAD Mechanical|Company: Autodesk, Inc."
 90
     1024
 91
        1
280
     0
281
     0
  0
CLASS
  1
ACMSECTIONSTANDARDANSI
  2
AmdtSectionSymStdANSI
  3
"Amdt_StdImp|Product Description: AutoCAD Mechanical|Company: Autodesk, Inc."
 90
     1024
 91
        1
280
     0
281
     0
  0
CLASS
  1
ACMCENTERLINESTANDARDANSI
  2
AmdtCenterLineStdANSI
  3
"Amdt_StdImp|Product Description: AutoCAD Mechanical|Company: Autodesk, Inc."
 90
     1024
 91
        1
280
     0
281
     0
  0
CLASS
  1
ACMNOTESTANDARDANSI
  2
AmdtNoteStdANSI
  3
"Amdt_StdImp|Product Description: AutoCAD Mechanical|Company: Autodesk, Inc."
 90
     1024
 91
        1
280
     0
281
     0
  0
CLASS
  1
ACAMGLAYSTD
  2
AcAmgLayStd
  3
"AmgLay|Product Description: AutoCAD Mechanical|Company: Autodesk, Inc."
 90
     1024
 91
        1
280
     0
281
     0
  0
CLASS
  1
ACAMGDIMSTD
  2
AcAmgDimStd
  3
"AmgDim|Product Description: AutoCAD Mechanical|Company: Autodesk, Inc."
 90
     1024
 91
        1
280
     0
281
     0
  0
CLASS
  1
ACAMGHOLECHARTSTDANSI
  2
AcAmgHoleChartStdANSI
  3
AmgDim|Product Description: AutoCAD Mechanical|Company: Autodesk, Inc.
 90
     1024
 91
        1
280
     0
281
     0
  0
CLASS
  1
ACAMGTITLESTD
  2
AcAmgTitleStd
  3
"AmgTitle|Product Description: AutoCAD Mechanical|Company: Autodesk, Inc."
 90
     4095
 91
        1
280
     0
281
     0
  0
CLASS
  1
LAYER_INDEX
  2
AcDbLayerIndex
  3
ObjectDBX Classes
 90
        0
 91
        0
280
     0
281
     0
  0
CLASS
  1
IDBUFFER
  2
AcDbIdBuffer
  3
ObjectDBX Classes
 90
        0
 91
        0
280
     0
281
     0
  0
CLASS
  1
DICTIONARYVAR
  2
AcDbDictionaryVar
  3
ObjectDBX Classes
 90
        0
 91
        9
280
     0
281
     0
  0
CLASS
  1
AM_DRAWING_MGR
  2
AcDmDwgMgr
  3
AcMechDwgViewMgmt
 90
     1024
 91
        1
280
     0
281
     0
  0
CLASS
  1
AM_DWG_DOCUMENT
  2
AcDmDwgDocument
  3
AcMechDwgViewMgmt
 90
     1024
 91
        1
280
     0
281
     0
  0
CLASS
  1
AM_DWG_SHEET
  2
AcDmSheet
  3
AcMechDwgViewMgmt
 90
     1024
 91
        2
280
     0
281
     0
  0
CLASS
  1
AM_VIEWDIMPARMAP
  2
AcDmViewDimParMap
  3
AcMechDwgViewMgmt
 90
     1024
 91
        2
280
     0
281
     0
  0
CLASS
  1
AM_DWGMGR_NAME
  2
AcDmDwgMgrName
  3
AcMechDwgViewMgmt
 90
     1024
 91
        1
280
     0
281
     0
  0
CLASS
  1
AMDTMENUSTATEMGR
  2
AmdtMenuStateMgr
  3
McadcomServices
 90
     1024
 91
        1
280
     0
281
     0
  0
CLASS
  1
AMDTMCOMMENUSTATE
  2
AmdtMcomMenuState
  3
McadcomServices
 90
     1024
 91
        1
280
     0
281
     0
  0
CLASS
  1
MAPIAMMOUDLE
  2
MApiAmModule
  3
MApiAmServices
 90
     1024
 91
        1
280
     0
281
     0
  0
CLASS
  1
AMDTADMENUSTATE
  2
AmdtAdMenuState
  3
DesignerServices
 90
     1024
 91
        1
280
     0
281
     0
  0
CLASS
  1
ADAPPL
  2
AcAdAppl
  3
DesignerServices
 90
     1024
 91
        1
280
     0
281
     0
  0
CLASS
  1
DEPMGR
  2
AcAdDepMgr
  3
DesignerServices
 90
     1024
 91
        1
280
     0
281
     0
  0
CLASS
  1
PARAMMGR
  2
AcAdParamMgr
  3
DesignerServices
 90
     1024
 91
        1
280
     0
281
     0
  0
CLASS
  1
PARAMSCOPE
  2
AcAdParamScope
  3
DesignerServices
 90
     1024
 91
        1
280
     0
281
     0
  0
CLASS
  1
NAMEDAPPL
  2
AcAdNamedAppl
  3
DesignerServices
 90
     1024
 91
        1
280
     0
281
     0
  0
CLASS
  1
AMDTDMMENUSTATE
  2
AmdtDmMenuState
  3
AcMechDwgViewMgmt
 90
     1024
 91
        1
280
     0
281
     0
  0
CLASS
  1
AMDTAMMENUSTATE
  2
AmdtAmMenuState
  3
DesignerAssemblies
 90
     1024
 91
        1
280
     0
281
     0
  0
CLASS
  1
ACAMPROJECT
  2
AcAmProject
  3
DesignerAssemblies
 90
     1024
 91
        1
280
     0
281
     0
  0
CLASS
  1
ACAMGRCOMPDEF
  2
AcAmGrCompDef
  3
DesignerAssemblies
 90
     1024
 91
        1
280
     0
281
     0
  0
CLASS
  1
ACCMCONTEXT
  2
AcCmContext
  3
DesignerAssemblies
 90
     1024
 91
        1
280
     0
281
     0
  0
CLASS
  1
ACAMCOMPDEF
  2
AcAmCompDef
  3
DesignerAssemblies
 90
     1024
 91
        1
280
     0
281
     0
  0
CLASS
  1
ACAMCOMPDEFMGR
  2
AcAmCompDefMgr
  3
DesignerAssemblies
 90
     1024
 91
        1
280
     0
281
     0
  0
CLASS
  1
AMCONTEXTMGR
  2
AcAmContextMgr
  3
DesignerAssemblies
 90
     1024
 91
        1
280
     0
281
     0
  0
CLASS
  1
ACAMCONTEXTMODELER
  2
AcAmContextModeler
  3
DesignerAssemblies
 90
     1024
 91
        1
280
     0
281
     0
  0
CLASS
  1
ACMTHREADLINESTANDARDANSI
  2
AmdtThreadLineStdANSI
  3
"Amdt_StdImp|Product Description: AutoCAD Mechanical|Company: Autodesk, Inc."
 90
     1024
 91
        1
280
     0
281
     0
  0
CLASS
  1
CATALOGSTATE
  2
AcAmCatalogState
  3
DesignerAssemblies
 90
     1024
 91
        1
280
     0
281
     0
  0
CLASS
  1
ACAMGRCOMPDEFSET
  2
AcAmGrCompDefSet
  3
DesignerAssemblies
 90
     1024
 91
        1
280
     0
281
     0
  0
CLASS
  1
AMDTBROWSERDBTAB
  2
AmdtBrowserDbTab
  3
McadcomServices
 90
     1024
 91
        1
280
     0
281
     0
  0
CLASS
  1
CBROWSERAPPOBJECT
  2
CBrowserAppObject
  3
McadcomServices
 90
     1024
 91
        3
280
     0
281
     0
  0
CLASS
  1
DM_PLACEHOLDER
  2
AcDmSelsetPlaceholder
  3
AcMechDwgViewMgmt
 90
     1024
 91
        1
280
     0
281
     0
  0
CLASS
  1
TABLESTYLE
  2
AcDbTableStyle
  3
ObjectDBX Classes
 90
     4095
 91
        1
280
     0
281
     0
  0
CLASS
  1
AMDTNOTETEMPLATEDB
  2
AmdtNoteTemplateDB
  3
AcmSymBB|Product Description: AutoCAD Mechanical|Company: Autodesk, Inc.
 90
     1024
 91
        6
280
     0
281
     0
  0
CLASS
  1
MATERIAL
  2
AcDbMaterial
  3
ObjectDBX Classes
 90
     1153
 91
        3
280
     0
281
     0
  0
CLASS
  1
VISUALSTYLE
  2
AcDbVisualStyle
  3
ObjectDBX Classes
 90
     4095
 91
       16
280
     0
281
     0
  0
CLASS
  1
ACRFATTGENMGR
  2
AcRfAttGeneralMgr
  3
AcAttribServices
 90
     1024
 91
        1
280
     0
281
     0
  0
CLASS
  1
ACRFOBJATTMGR
  2
AcRfObjAttGroupMgr
  3
AcAttribServices
 90
     1024
 91
        1
280
     0
281
     0
  0
CLASS
  1
ACRFMCADAPIATTHOLDER
  2
AcRfMCADAPIAttHolder
  3
AcAttribServices
 90
     1024
 91
        1
280
     0
281
     0
  0
CLASS
  1
AMDTSYSATTR
  2
AmdtSystemAttribute
  3
AcAttribServices
 90
     1024
 91
        1
280
     0
281
     0
  0
CLASS
  1
ACMTAPERSTANDARDANSI
  2
AcmTaperStdANSI
  3
"Amdt_StdImp|Product Description: AutoCAD Mechanical|Company: Autodesk, Inc."
 90
     1024
 91
        1
280
     0
281
     0
  0
CLASS
  1
CAMSSTRUCTBTNSTATE
  2
StructBtnState
  3
DesignerAssemblies
 90
     1024
 91
        1
280
     0
281
     0
  0
CLASS
  1
SCALE
  2
AcDbScale
  3
ObjectDBX Classes
 90
     1153
 91
       33
280
     0
281
     0
  0
CLASS
  1
MLEADERSTYLE
  2
AcDbMLeaderStyle
  3
ACDB_MLEADERSTYLE_CLASS
 90
     4095
 91
        1
280
     0
281
     0
  0
CLASS
  1
ACMANOOTATIONVIEWSTANDARDANSI
  2
AmdtAnViewStdANSI
  3
"Amdt_StdImp|Product Description: AutoCAD Mechanical|Company: Autodesk, Inc."
 90
     1024
 91
        1
280
     0
281
     0
  0
CLASS
  1
CELLSTYLEMAP
  2
AcDbCellStyleMap
  3
ObjectDBX Classes
 90
     1152
 91
        2
280
     0
281
     0
  0
CLASS
  1
EXACXREFPANELOBJECT
  2
ExAcXREFPanelObject
  3
EXAC_ESW
 90
     1025
 91
        1
280
     0
281
     0
  0
CLASS
  1
NPOCOLLECTION
  2
AcDbImpNonPersistentObjectsCollection
  3
ObjectDBX Classes
 90
     1153
 91
        1
280
     0
281
     0
  0
CLASS
  1
ACAMGFILTERDAT
  2
AcAmgFilterDat
  3
"AcadM|Product Description: AutoCAD Mechanical|Company: Autodesk, Inc."
 90
     1024
 91
        6
280
     0
281
     0
  0
ENDSEC
  0
SECTION
  2
TABLES
  0
TABLE
  2
VPORT
  5
8
330
0
100
AcDbSymbolTable
 70
     1
  0
VPORT
  5
291
330
8
100
AcDbSymbolTableRecord
100
AcDbViewportTableRecord
  2
*Active
 70
     0
 10
0.0
 20
0.0
 11
1.0
 21
1.0
 12
57.2783048735196
 22
48.78524305148987
 13
0.0
 23
0.0
 14
0.125
 24
0.125
 15
1.0
 25
1.0
 16
0.0
 26
0.0
 36
1.0
 17
0.0
 27
0.0
 37
0.0
 40
73.69103449893319
 41
1.442643391521196
 42
50.0
 43
0.0
 44
0.0
 50
0.0
 51
0.0
 71
     0
 72
   100
 73
     1
 74
     3
 75
     0
 76
     0
 77
     0
 78
     0
281
     0
 65
     1
110
0.0
120
0.0
130
0.0
111
1.0
121
0.0
131
0.0
112
0.0
122
1.0
132
0.0
 79
     0
146
0.0
348
29C
 60
     3
 61
     5
292
     1
282
     0
141
0.0
142
0.0
 63
   250
421
  3355443
  0
ENDTAB
  0
TABLE
  2
LTYPE
  5
5
330
0
100
AcDbSymbolTable
 70
    17
  0
LTYPE
  5
14
330
5
100
AcDbSymbolTableRecord
100
AcDbLinetypeTableRecord
  2
ByBlock
 70
     0
  3

 72
    65
 73
     0
 40
0.0
  0
LTYPE
  5
15
330
5
100
AcDbSymbolTableRecord
100
AcDbLinetypeTableRecord
  2
ByLayer
 70
     0
  3

 72
    65
 73
     0
 40
0.0
  0
LTYPE
  5
16
330
5
100
AcDbSymbolTableRecord
100
AcDbLinetypeTableRecord
  2
Continuous
 70
     0
  3
Solid line
 72
    65
 73
     0
 40
0.0
  0
LTYPE
  5
6C
330
5
100
AcDbSymbolTableRecord
100
AcDbLinetypeTableRecord
  2
AM_ISO02W050
 70
     0
  3
__ __ __ __ __ __ __ __ __ __ __ __ __ __ __
 72
    65
 73
     2
 40
7.5
 49
6.0
 74
     0
 49
-1.5
 74
     0
  0
LTYPE
  5
6D
330
5
100
AcDbSymbolTableRecord
100
AcDbLinetypeTableRecord
  2
AM_ISO08W050
 70
     0
  3
____ . ____ . ____ . ____ . ____ . ____ . ____
 72
    65
 73
     4
 40
18.0
 49
12.0
 74
     0
 49
-1.5
 74
     0
 49
3.0
 74
     0
 49
-1.5
 74
     0
  0
LTYPE
  5
6E
330
5
100
AcDbSymbolTableRecord
100
AcDbLinetypeTableRecord
  2
AM_ISO09W050
 70
     0
  3
_____ . . _____ . . _____ . . ____ .. ____
 72
    65
 73
     6
 40
22.5
 49
12.0
 74
     0
 49
-1.5
 74
     0
 49
3.0
 74
     0
 49
-1.5
 74
     0
 49
3.0
 74
     0
 49
-1.5
 74
     0
  0
LTYPE
  5
6F
330
5
100
AcDbSymbolTableRecord
100
AcDbLinetypeTableRecord
  2
Amconstr
 70
     0
  3
_______________________
 72
    65
 73
     2
 40
9999.0
 49
9999.0
 74
     0
 49
0.0
 74
     0
  0
LTYPE
  5
70
330
5
100
AcDbSymbolTableRecord
100
AcDbLinetypeTableRecord
  2
AM_ISO08W050x2
 70
     0
  3
__ . __ . __ . __ . __ . __
 72
    65
 73
     4
 40
9.0
 49
6.0
 74
     0
 49
-0.75
 74
     0
 49
1.5
 74
     0
 49
-0.75
 74
     0
  0
LTYPE
  5
71
330
5
100
AcDbSymbolTableRecord
100
AcDbLinetypeTableRecord
  2
AM_ISO02W050x2
 70
     0
  3
 _ _ _ _ _ _ _ _ _ _ _ _
 72
    65
 73
     2
 40
3.75
 49
3.0
 74
     0
 49
-0.75
 74
     0
  0
LTYPE
  5
74
330
5
100
AcDbSymbolTableRecord
100
AcDbLinetypeTableRecord
  2
Amzigzag
 70
     0
  3
/\/-/\/-/\/-/\/-/\/-/\/
 72
    65
 73
     2
 40
11.0001
 49
0.0001
 74
     4
 75
   136
340
254
 46
0.04
 50
0.0
 44
0.0
 45
0.0
 49
-11.0
 74
     0
  0
LTYPE
  5
75
330
5
100
AcDbSymbolTableRecord
100
AcDbLinetypeTableRecord
  2
HIDDEN
 70
     0
  3
Hidden __ __ __ __ __ __ __ __ __ __ __ __ __ _
 72
    65
 73
     2
 40
0.375
 49
0.25
 74
     0
 49
-0.125
 74
     0
  0
LTYPE
  5
76
330
5
100
AcDbSymbolTableRecord
100
AcDbLinetypeTableRecord
  2
CENTER
 70
     0
  3
Center ____ _ ____ _ ____ _ ____ _ ____ _ ____
 72
    65
 73
     4
 40
2.0
 49
1.25
 74
     0
 49
-0.25
 74
     0
 49
0.25
 74
     0
 49
-0.25
 74
     0
  0
LTYPE
  5
77
330
5
100
AcDbSymbolTableRecord
100
AcDbLinetypeTableRecord
  2
PHANTOM2
 70
     0
  3
Phantom (.5x) ___ _ _ ___ _ _ ___ _ _ ___ _ _
 72
    65
 73
     6
 40
1.25
 49
0.625
 74
     0
 49
-0.125
 74
     0
 49
0.125
 74
     0
 49
-0.125
 74
     0
 49
0.125
 74
     0
 49
-0.125
 74
     0
  0
LTYPE
  5
78
330
5
100
AcDbSymbolTableRecord
100
AcDbLinetypeTableRecord
  2
CENTER2
 70
     0
  3
Center (.5x) ___ _ ___ _ ___ _ ___ _ ___ _ ___
 72
    65
 73
     4
 40
1.125
 49
0.75
 74
     0
 49
-0.125
 74
     0
 49
0.125
 74
     0
 49
-0.125
 74
     0
  0
LTYPE
  5
79
330
5
100
AcDbSymbolTableRecord
100
AcDbLinetypeTableRecord
  2
HIDDEN2
 70
     0
  3
Hidden (.5x) _ _ _ _ _ _ _ _ _ _ _ _ _ _ _ _ _
 72
    65
 73
     2
 40
0.1875
 49
0.125
 74
     0
 49
-0.0625
 74
     0
  0
LTYPE
  5
7A
330
5
100
AcDbSymbolTableRecord
100
AcDbLinetypeTableRecord
  2
Amzigzag2
 70
     0
  3
/\/-/\/-/\/-/\/-/\/-/\/
 72
    65
 73
     2
 40
0.4401
 49
0.0001
 74
     4
 75
   136
340
254
 46
0.0016
 50
0.0
 44
0.0
 45
0.0
 49
-0.4400000000000001
 74
     0
  0
LTYPE
  5
87
330
5
100
AcDbSymbolTableRecord
100
AcDbLinetypeTableRecord
  2
ACANSTGB
 70
     0
  3
__ . . __ . .
 72
    65
 73
     6
 40
0.35433070866
 49
0.15748031496
 74
     0
 49
-0.03937007874
 74
     0
 49
0.03937007874
 74
     0
 49
-0.03937007874
 74
     0
 49
0.03937007874
 74
     0
 49
-0.03937007874
 74
     0
  0
LTYPE
  5
88
330
5
100
AcDbSymbolTableRecord
100
AcDbLinetypeTableRecord
  2
ACANSTGL
 70
     0
  3
_ _ _ _ _
 72
    65
 73
     2
 40
0.11811023622
 49
0.07874015748
 74
     0
 49
-0.03937007874
 74
     0
  0
ENDTAB
  0
TABLE
  2
LAYER
  5
2
330
0
100
AcDbSymbolTable
 70
     2
  0
LAYER
  5
10
102
{ACAD_XDICTIONARY
360
DE8
102
}
330
2
100
AcDbSymbolTableRecord
100
AcDbLayerTableRecord
  2
0
 70
     0
 62
     7
  6
Continuous
370
    -3
390
F
347
295
  0
LAYER
  5
38C
102
{ACAD_XDICTIONARY
360
DEA
102
}
330
2
100
AcDbSymbolTableRecord
100
AcDbLayerTableRecord
  2
LAYER_1
 70
     0
 62
   160
  6
Continuous
370
    -3
390
F
347
295
  0
ENDTAB
  0
TABLE
  2
STYLE
  5
3
330
0
100
AcDbSymbolTable
 70
     9
  0
STYLE
  5
11
330
3
100
AcDbSymbolTableRecord
100
AcDbTextStyleTableRecord
  2
STANDARD
 70
     0
 40
0.0
 41
1.0
 50
0.0
 71
     0
 42
0.2
  3
ROMANS.SHX
  4

  0
STYLE
  5
73
330
3
100
AcDbSymbolTableRecord
100
AcDbTextStyleTableRecord
  2

 70
     1
 40
0.0
 41
1.0
 50
0.0
 71
     0
 42
0.2
  3
ltypeshp.shx
  4

  0
STYLE
  5
7B
330
3
100
AcDbSymbolTableRecord
100
AcDbTextStyleTableRecord
  2
ACANSTS
 70
     0
 40
1.0
 41
1.0
 50
0.0
 71
     0
 42
0.2
  3
romans.shx
  4

  0
STYLE
  5
86
330
3
100
AcDbSymbolTableRecord
100
AcDbTextStyleTableRecord
  2
ACANSGDT
 70
     0
 40
0.0
 41
1.0
 50
0.0
 71
     0
 42
0.2
  3
amgdt.shx
  4

  0
STYLE
  5
13F
330
3
100
AcDbSymbolTableRecord
100
AcDbTextStyleTableRecord
  2
USER1
 70
     0
 40
0.0
 41
1.0
 50
0.0
 71
     0
 42
0.2
  3
TXT.SHX
  4

  0
STYLE
  5
140
330
3
100
AcDbSymbolTableRecord
100
AcDbTextStyleTableRecord
  2
USER2
 70
     0
 40
0.0
 41
1.0
 50
0.0
 71
     0
 42
0.2
  3
SIMPLEX.SHX
  4

  0
STYLE
  5
141
330
3
100
AcDbSymbolTableRecord
100
AcDbTextStyleTableRecord
  2
USER3
 70
     0
 40
0.0
 41
1.0
 50
0.0
 71
     0
 42
0.2
  3
ITALIC.SHX
  4

  0
STYLE
  5
254
330
3
100
AcDbSymbolTableRecord
100
AcDbTextStyleTableRecord
  2

 70
     1
 40
0.0
 41
1.0
 50
0.0
 71
     0
 42
0.2
  3
genltshp.shx
  4

  0
STYLE
  5
38D
330
3
100
AcDbSymbolTableRecord
100
AcDbTextStyleTableRecord
  2
STD
 70
     0
 40
0.0
 41
1.0
 50
0.0
 71
     0
 42
0.0
  3
txt
  4

  0
ENDTAB
  0
TABLE
  2
VIEW
  5
6
330
0
100
AcDbSymbolTable
 70
     0
  0
ENDTAB
  0
TABLE
  2
UCS
  5
7
330
0
100
AcDbSymbolTable
 70
     0
  0
ENDTAB
  0
TABLE
  2
APPID
  5
9
330
0
100
AcDbSymbolTable
 70
    12
  0
APPID
  5
12
330
9
100
AcDbSymbolTableRecord
100
AcDbRegAppTableRecord
  2
ACAD
 70
     0
  0
APPID
  5
4E
330
9
100
AcDbSymbolTableRecord
100
AcDbRegAppTableRecord
  2
MCAD_NO_VIS
 70
     0
  0
APPID
  5
4F
330
9
100
AcDbSymbolTableRecord
100
AcDbRegAppTableRecord
  2
ACAD_TEMP_GRAPHIC
 70
     0
  0
APPID
  5
60
330
9
100
AcDbSymbolTableRecord
100
AcDbRegAppTableRecord
  2
ACATTRIBSERVICES
 70
     0
  0
APPID
  5
F7
330
9
100
AcDbSymbolTableRecord
100
AcDbRegAppTableRecord
  2
AD_DRAW
 70
     0
  0
APPID
  5
115
330
9
100
AcDbSymbolTableRecord
100
AcDbRegAppTableRecord
  2
DESIGNERASSEMBLIES
 70
     0
  0
APPID
  5
11A
330
9
100
AcDbSymbolTableRecord
100
AcDbRegAppTableRecord
  2
ACADM_DIM_EDIT
 70
     0
  0
APPID
  5
11B
330
9
100
AcDbSymbolTableRecord
100
AcDbRegAppTableRecord
  2
AMDT_DM_ADJ
 70
     0
  0
APPID
  5
1D3
330
9
100
AcDbSymbolTableRecord
100
AcDbRegAppTableRecord
  2
ACAD_DSTYLE_DIMARC_LENGTH_SYMBOL
 70
     0
  0
APPID
  5
1D4
330
9
100
AcDbSymbolTableRecord
100
AcDbRegAppTableRecord
  2
ACAD_DSTYLE_DIMJOGGED_JOGANGLE_SYMBOL
 70
     0
  0
APPID
  5
2EE
330
9
100
AcDbSymbolTableRecord
100
AcDbRegAppTableRecord
  2
ACAD_MLEADERVER
 70
     0
  0
APPID
  5
38E
330
9
100
AcDbSymbolTableRecord
100
AcDbRegAppTableRecord
  2
DCO15
 70
     0
  0
ENDTAB
  0
TABLE
  2
DIMSTYLE
  5
A
330
0
100
AcDbSymbolTable
 70
     8
100
AcDbDimStyleTable
 71
     1
340
8C
  0
DIMSTYLE
105
27
330
A
100
AcDbSymbolTableRecord
100
AcDbDimStyleTableRecord
  2
Standard
 70
     0
340
11
  0
DIMSTYLE
105
8C
102
{ACAD_REACTORS
330
6A
102
}
330
A
100
AcDbSymbolTableRecord
100
AcDbDimStyleTableRecord
  2
AM_ANSI
 70
     0
  4
mm
 41
0.12
 42
0.05
 43
0.5
 44
0.1
 47
0.1
 48
0.1
 78
     7
 79
     2
 90
     1
140
0.12
141
0.0
146
0.71
147
0.06
176
   256
177
   256
178
   140
274
     4
284
     7
340
11
345
14
346
14
347
14
371
    -1
372
    -1
1001
ACAD_DSTYLE_DIMJOGGED_JOGANGLE_SYMBOL
1070
   384
1040
0.7853981633974483
  0
DIMSTYLE
105
8D
330
A
100
AcDbSymbolTableRecord
100
AcDbDimStyleTableRecord
  2
AM_ANSI$3
 70
     0
  4
mm
 41
0.12
 42
0.05
 43
0.5
 44
0.1
 47
0.1
 48
0.1
 78
     7
 79
     2
 90
     1
140
0.12
141
0.0
146
0.71
147
0.06
176
   256
177
   256
178
   140
274
     4
284
     7
288
     1
289
     0
340
11
345
14
346
14
347
14
371
    -1
372
    -1
1001
ACAD_DSTYLE_DIMJOGGED_JOGANGLE_SYMBOL
1070
   384
1040
0.7853981633974483
  0
DIMSTYLE
105
8E
330
A
100
AcDbSymbolTableRecord
100
AcDbDimStyleTableRecord
  2
AM_ANSI$4
 70
     0
  4
mm
 41
0.12
 42
0.05
 43
0.5
 44
0.1
 47
0.1
 48
0.1
 78
     7
 79
     2
 90
     1
140
0.12
141
0.0
146
0.71
147
0.06
176
   256
177
   256
178
   140
274
     4
284
     7
340
11
345
14
346
14
347
14
371
    -1
372
    -1
1001
ACAD_DSTYLE_DIMJOGGED_JOGANGLE_SYMBOL
1070
   384
1040
0.7853981633974483
  0
DIMSTYLE
105
8F
330
A
100
AcDbSymbolTableRecord
100
AcDbDimStyleTableRecord
  2
AM_ANSI$7
 70
     0
  4
mm
 41
0.12
 42
0.05
 43
0.5
 44
0.1
 47
0.1
 48
0.1
 78
     7
 79
     2
 90
     1
140
0.12
141
0.0
146
0.71
147
0.06
176
   256
177
   256
178
   140
274
     4
284
     7
340
11
345
14
346
14
347
14
371
    -1
372
    -1
1001
ACAD_DSTYLE_DIMJOGGED_JOGANGLE_SYMBOL
1070
   384
1040
0.7853981633974483
  0
DIMSTYLE
105
90
330
A
100
AcDbSymbolTableRecord
100
AcDbDimStyleTableRecord
  2
AM_ANSI$SF
 70
     0
  4
mm
 41
0.12
 42
0.05
 43
0.5
 44
0.1
 47
0.1
 48
0.1
 75
     1
 76
     1
 78
     7
 79
     2
 90
     1
140
0.12
141
0.0
146
0.71
147
0.06
176
   256
177
   256
178
   140
274
     4
284
     7
340
11
345
14
346
14
347
14
371
    -1
372
    -1
1001
ACAD_DSTYLE_DIMJOGGED_JOGANGLE_SYMBOL
1070
   384
1040
0.7853981633974483
  0
DIMSTYLE
105
95
330
A
100
AcDbSymbolTableRecord
100
AcDbDimStyleTableRecord
  2
AM_ANSI$SH
 70
     0
  4
mm
 41
0.12
 42
0.05
 43
0.5
 44
0.1
 47
0.1
 48
0.1
 75
     1
 76
     1
 78
     7
 79
     2
 90
     1
140
0.12
141
0.0
146
0.71
147
0.06
173
     1
176
   256
177
   256
178
   140
274
     4
284
     7
340
11
343
91
345
14
346
14
347
14
371
    -1
372
    -1
1001
ACAD_DSTYLE_DIMJOGGED_JOGANGLE_SYMBOL
1070
   384
1040
0.7853981633974483
  0
ENDTAB
  0
TABLE
  2
BLOCK_RECORD
  5
1
330
0
100
AcDbSymbolTable
 70
     5
  0
BLOCK_RECORD
  5
1F
102
{ACAD_XDICTIONARY
360
99
102
}
330
1
100
AcDbSymbolTableRecord
100
AcDbBlockTableRecord
  2
*Model_Space
340
22
 70
     0
280
     1
281
     0
  0
BLOCK_RECORD
  5
1B
330
1
100
AcDbSymbolTableRecord
100
AcDbBlockTableRecord
  2
*Paper_Space
340
1E
 70
     0
280
     1
281
     0
  0
BLOCK_RECORD
  5
23
330
1
100
AcDbSymbolTableRecord
100
AcDbBlockTableRecord
  2
*Paper_Space0
340
26
 70
     0
280
     1
281
     0
  0
BLOCK_RECORD
  5
91
330
1
100
AcDbSymbolTableRecord
100
AcDbBlockTableRecord
  2
GENAXEH
340
0
 70
     0
280
     1
281
     0
  0
ENDTAB
  0
ENDSEC
  0
SECTION
  2
BLOCKS
  0
BLOCK
  5
20
330
1F
100
AcDbEntity
  8
0
100
AcDbBlockBegin
  2
*Model_Space
 70
     0
 10
0.0
 20
0.0
 30
0.0
  3
*Model_Space
  1

  0
ENDBLK
  5
21
330
1F
100
AcDbEntity
  8
0
100
AcDbBlockEnd
  0
BLOCK
  5
1C
330
1B
100
AcDbEntity
 67
     1
  8
0
100
AcDbBlockBegin
  2
*Paper_Space
 70
     0
 10
0.0
 20
0.0
 30
0.0
  3
*Paper_Space
  1

  0
ENDBLK
  5
1D
330
1B
100
AcDbEntity
 67
     1
  8
0
100
AcDbBlockEnd
  0
BLOCK
  5
24
330
23
100
AcDbEntity
 67
     1
  8
0
100
AcDbBlockBegin
  2
*Paper_Space0
 70
     0
 10
0.0
 20
0.0
 30
0.0
  3
*Paper_Space0
  1

  0
ENDBLK
  5
25
330
23
100
AcDbEntity
 67
     1
  8
0
100
AcDbBlockEnd
  0
BLOCK
  5
93
330
91
100
AcDbEntity
  8
0
100
AcDbBlockBegin
  2
GENAXEH
 70
     0
 10
0.0
 20
0.0
 30
0.0
  3
GENAXEH
  1

  0
LINE
  5
92
330
91
100
AcDbEntity
  8
0
100
AcDbLine
 10
-1.0
 20
0.0
 30
0.0
 11
1.0
 21
0.0
 31
0.0
  0
ENDBLK
  5
94
330
91
100
AcDbEntity
  8
0
100
AcDbBlockEnd
  0
ENDSEC
  0
SECTION
  2
ENTITIES
  0
LINE
  5
8C2
330
1F
100
AcDbEntity
  8
LAYER_1
 62
     7
100
AcDbLine
 10
60.53054418890893
 20
32.19180726384069
 30
0.0
 11
75.47933018890893
 21
32.20972126384068
 31
0.0
  0
LINE
  5
8C3
330
1F
100
AcDbEntity
  8
LAYER_1
 62
     7
100
AcDbLine
 10
61.51532518890894
 20
53.26407826384067
 30
0.0
 11
60.56671818890893
 21
53.26407826384067
 31
0.0
  0
POLYLINE
  5
8C4
330
1F
100
AcDbEntity
  8
LAYER_1
 62
     7
100
AcDb2dPolyline
 66
     1
 10
0.0
 20
0.0
 30
0.0
  0
VERTEX
  5
8C5
330
8C4
100
AcDbEntity
  8
LAYER_1
 62
     7
100
AcDbVertex
100
AcDb2dVertex
 10
59.67099318890893
 20
54.15876926384068
 30
0.0
  0
VERTEX
  5
8C6
330
8C4
100
AcDbEntity
  8
LAYER_1
 62
     7
100
AcDbVertex
100
AcDb2dVertex
 10
58.90118618890894
 20
54.14119926384069
 30
0.0
  0
VERTEX
  5
8C7
330
8C4
100
AcDbEntity
  8
LAYER_1
 62
     7
100
AcDbVertex
100
AcDb2dVertex
 10
58.52549818890893
 20
54.10537026384068
 30
0.0
  0
VERTEX
  5
8C8
330
8C4
100
AcDbEntity
  8
LAYER_1
 62
     7
100
AcDbVertex
100
AcDb2dVertex
 10
58.14981118890893
 20
54.05162726384067
 30
0.0
  0
VERTEX
  5
8C9
330
8C4
100
AcDbEntity
  8
LAYER_1
 62
     7
100
AcDbVertex
100
AcDb2dVertex
 10
57.77360618890893
 20
53.96205426384068
 30
0.0
  0
VERTEX
  5
8CA
330
8C4
100
AcDbEntity
  8
LAYER_1
 62
     7
100
AcDbVertex
100
AcDb2dVertex
 10
57.41566118890894
 20
53.85422326384068
 30
0.0
  0
VERTEX
  5
8CB
330
8C4
100
AcDbEntity
  8
LAYER_1
 62
     7
100
AcDbVertex
100
AcDb2dVertex
 10
57.23668818890893
 20
53.76533926384069
 30
0.0
  0
VERTEX
  5
8CC
330
8C4
100
AcDbEntity
  8
LAYER_1
 62
     7
100
AcDbVertex
100
AcDb2dVertex
 10
57.07511318890894
 20
53.67542226384069
 30
0.0
  0
VERTEX
  5
8CD
330
8C4
100
AcDbEntity
  8
LAYER_1
 62
     7
100
AcDbVertex
100
AcDb2dVertex
 10
56.93214218890893
 20
53.56828026384068
 30
0.0
  0
VERTEX
  5
8CE
330
8C4
100
AcDbEntity
  8
LAYER_1
 62
     7
100
AcDbVertex
100
AcDb2dVertex
 10
56.78882618890893
 20
53.44322326384068
 30
0.0
  0
VERTEX
  5
8CF
330
8C4
100
AcDbEntity
  8
LAYER_1
 62
     7
100
AcDbVertex
100
AcDb2dVertex
 10
56.66325218890893
 20
53.29956226384068
 30
0.0
  0
VERTEX
  5
8D0
330
8C4
100
AcDbEntity
  8
LAYER_1
 62
     7
100
AcDbVertex
100
AcDb2dVertex
 10
56.53819518890893
 20
53.1386762638407
 30
0.0
  0
VERTEX
  5
8D1
330
8C4
100
AcDbEntity
  8
LAYER_1
 62
     7
100
AcDbVertex
100
AcDb2dVertex
 10
56.44879518890893
 20
52.97744626384067
 30
0.0
  0
VERTEX
  5
8D2
330
8C4
100
AcDbEntity
  8
LAYER_1
 62
     7
100
AcDbVertex
100
AcDb2dVertex
 10
56.37696518890894
 20
52.79830126384069
 30
0.0
  0
VERTEX
  5
8D3
330
8C4
100
AcDbEntity
  8
LAYER_1
 62
     7
100
AcDbVertex
100
AcDb2dVertex
 10
56.25190818890893
 20
52.44035526384069
 30
0.0
  0
VERTEX
  5
8D4
330
8C4
100
AcDbEntity
  8
LAYER_1
 62
     7
100
AcDbVertex
100
AcDb2dVertex
 10
56.16199118890893
 20
52.06415126384069
 30
0.0
  0
VERTEX
  5
8D5
330
8C4
100
AcDbEntity
  8
LAYER_1
 62
     7
100
AcDbVertex
100
AcDb2dVertex
 10
56.10859218890893
 20
51.68829126384068
 30
0.0
  0
VERTEX
  5
8D6
330
8C4
100
AcDbEntity
  8
LAYER_1
 62
     7
100
AcDbVertex
100
AcDb2dVertex
 10
56.09084918890893
 20
51.31243126384068
 30
0.0
  0
VERTEX
  5
8D7
330
8C4
100
AcDbEntity
  8
LAYER_1
 62
     7
100
AcDbVertex
100
AcDb2dVertex
 10
56.07293518890894
 20
50.56036726384068
 30
0.0
  0
SEQEND
  5
8D8
330
8C4
100
AcDbEntity
  8
LAYER_1
 62
     7
  0
POLYLINE
  5
8D9
330
1F
100
AcDbEntity
  8
LAYER_1
 62
     7
100
AcDb2dPolyline
 66
     1
 10
0.0
 20
0.0
 30
0.0
  0
VERTEX
  5
8DA
330
8D9
100
AcDbEntity
  8
LAYER_1
 62
     7
100
AcDbVertex
100
AcDb2dVertex
 10
76.35731318890893
 20
31.33260026384069
 30
0.0
  0
VERTEX
  5
8DB
330
8D9
100
AcDbEntity
  8
LAYER_1
 62
     7
100
AcDbVertex
100
AcDb2dVertex
 10
77.10868818890894
 20
31.3505142638407
 30
0.0
  0
VERTEX
  5
8DC
330
8D9
100
AcDbEntity
  8
LAYER_1
 62
     7
100
AcDbVertex
100
AcDb2dVertex
 10
77.50315118890893
 20
31.38599926384069
 30
0.0
  0
VERTEX
  5
8DD
330
8D9
100
AcDbEntity
  8
LAYER_1
 62
     7
100
AcDbVertex
100
AcDb2dVertex
 10
77.87883918890894
 20
31.44008726384068
 30
0.0
  0
VERTEX
  5
8DE
330
8D9
100
AcDbEntity
  8
LAYER_1
 62
     7
100
AcDbVertex
100
AcDb2dVertex
 10
78.23678518890893
 20
31.51174526384068
 30
0.0
  0
VERTEX
  5
8DF
330
8D9
100
AcDbEntity
  8
LAYER_1
 62
     7
100
AcDbVertex
100
AcDb2dVertex
 10
78.61298918890894
 20
31.63680226384068
 30
0.0
  0
VERTEX
  5
8E0
330
8D9
100
AcDbEntity
  8
LAYER_1
 62
     7
100
AcDbVertex
100
AcDb2dVertex
 10
78.77370318890894
 20
31.70846026384068
 30
0.0
  0
VERTEX
  5
8E1
330
8D9
100
AcDbEntity
  8
LAYER_1
 62
     7
100
AcDbVertex
100
AcDb2dVertex
 10
78.93476118890894
 20
31.81629126384069
 30
0.0
  0
VERTEX
  5
8E2
330
8D9
100
AcDbEntity
  8
LAYER_1
 62
     7
100
AcDbVertex
100
AcDb2dVertex
 10
79.09599118890892
 20
31.9230892638407
 30
0.0
  0
VERTEX
  5
8E3
330
8D9
100
AcDbEntity
  8
LAYER_1
 62
     7
100
AcDbVertex
100
AcDb2dVertex
 10
79.23930718890892
 20
32.04849126384067
 30
0.0
  0
VERTEX
  5
8E4
330
8D9
100
AcDbEntity
  8
LAYER_1
 62
     7
100
AcDbVertex
100
AcDb2dVertex
 10
79.36488118890892
 20
32.19180726384069
 30
0.0
  0
VERTEX
  5
8E5
330
8D9
100
AcDbEntity
  8
LAYER_1
 62
     7
100
AcDbVertex
100
AcDb2dVertex
 10
79.47219618890894
 20
32.33512326384069
 30
0.0
  0
VERTEX
  5
8E6
330
8D9
100
AcDbEntity
  8
LAYER_1
 62
     7
100
AcDbVertex
100
AcDb2dVertex
 10
79.57951118890894
 20
32.51426826384068
 30
0.0
  0
VERTEX
  5
8E7
330
8D9
100
AcDbEntity
  8
LAYER_1
 62
     7
100
AcDbVertex
100
AcDb2dVertex
 10
79.65116918890892
 20
32.67515426384068
 30
0.0
  0
VERTEX
  5
8E8
330
8D9
100
AcDbEntity
  8
LAYER_1
 62
     7
100
AcDbVertex
100
AcDb2dVertex
 10
79.77622518890894
 20
33.03309926384069
 30
0.0
  0
VERTEX
  5
8E9
330
8D9
100
AcDbEntity
  8
LAYER_1
 62
     7
100
AcDbVertex
100
AcDb2dVertex
 10
79.84840018890894
 20
33.40895926384069
 30
0.0
  0
VERTEX
  5
8EA
330
8D9
100
AcDbEntity
  8
LAYER_1
 62
     7
100
AcDbVertex
100
AcDb2dVertex
 10
79.90179918890894
 20
33.78516326384069
 30
0.0
  0
VERTEX
  5
8EB
330
8D9
100
AcDbEntity
  8
LAYER_1
 62
     7
100
AcDbVertex
100
AcDb2dVertex
 10
79.93745618890892
 20
34.16136826384069
 30
0.0
  0
VERTEX
  5
8EC
330
8D9
100
AcDbEntity
  8
LAYER_1
 62
     7
100
AcDbVertex
100
AcDb2dVertex
 10
79.95571518890894
 20
34.93065826384068
 30
0.0
  0
SEQEND
  5
8ED
330
8D9
100
AcDbEntity
  8
LAYER_1
 62
     7
  0
POLYLINE
  5
8EE
330
1F
100
AcDbEntity
  8
LAYER_1
 62
     7
100
AcDb2dPolyline
 66
     1
 10
0.0
 20
0.0
 30
0.0
  0
VERTEX
  5
8EF
330
8EE
100
AcDbEntity
  8
LAYER_1
 62
     7
100
AcDbVertex
100
AcDb2dVertex
 10
56.07293518890894
 20
34.93065826384068
 30
0.0
  0
VERTEX
  5
8F0
330
8EE
100
AcDbEntity
  8
LAYER_1
 62
     7
100
AcDbVertex
100
AcDb2dVertex
 10
56.09084918890893
 20
34.16136826384069
 30
0.0
  0
VERTEX
  5
8F1
330
8EE
100
AcDbEntity
  8
LAYER_1
 62
     7
100
AcDbVertex
100
AcDb2dVertex
 10
56.10859218890893
 20
33.78516326384069
 30
0.0
  0
VERTEX
  5
8F2
330
8EE
100
AcDbEntity
  8
LAYER_1
 62
     7
100
AcDbVertex
100
AcDb2dVertex
 10
56.16199118890893
 20
33.40895926384069
 30
0.0
  0
VERTEX
  5
8F3
330
8EE
100
AcDbEntity
  8
LAYER_1
 62
     7
100
AcDbVertex
100
AcDb2dVertex
 10
56.25190818890893
 20
33.03309926384069
 30
0.0
  0
VERTEX
  5
8F4
330
8EE
100
AcDbEntity
  8
LAYER_1
 62
     7
100
AcDbVertex
100
AcDb2dVertex
 10
56.37696518890894
 20
32.67515426384068
 30
0.0
  0
VERTEX
  5
8F5
330
8EE
100
AcDbEntity
  8
LAYER_1
 62
     7
100
AcDbVertex
100
AcDb2dVertex
 10
56.44879518890893
 20
32.51426826384068
 30
0.0
  0
VERTEX
  5
8F6
330
8EE
100
AcDbEntity
  8
LAYER_1
 62
     7
100
AcDbVertex
100
AcDb2dVertex
 10
56.53819518890893
 20
32.33512326384069
 30
0.0
  0
VERTEX
  5
8F7
330
8EE
100
AcDbEntity
  8
LAYER_1
 62
     7
100
AcDbVertex
100
AcDb2dVertex
 10
56.66325218890893
 20
32.19180726384069
 30
0.0
  0
VERTEX
  5
8F8
330
8EE
100
AcDbEntity
  8
LAYER_1
 62
     7
100
AcDbVertex
100
AcDb2dVertex
 10
56.78882618890893
 20
32.04849126384067
 30
0.0
  0
VERTEX
  5
8F9
330
8EE
100
AcDbEntity
  8
LAYER_1
 62
     7
100
AcDbVertex
100
AcDb2dVertex
 10
56.93214218890893
 20
31.9230892638407
 30
0.0
  0
VERTEX
  5
8FA
330
8EE
100
AcDbEntity
  8
LAYER_1
 62
     7
100
AcDbVertex
100
AcDb2dVertex
 10
57.07511318890894
 20
31.81629126384069
 30
0.0
  0
VERTEX
  5
8FB
330
8EE
100
AcDbEntity
  8
LAYER_1
 62
     7
100
AcDbVertex
100
AcDb2dVertex
 10
57.23668818890893
 20
31.70846026384068
 30
0.0
  0
VERTEX
  5
8FC
330
8EE
100
AcDbEntity
  8
LAYER_1
 62
     7
100
AcDbVertex
100
AcDb2dVertex
 10
57.41566118890894
 20
31.63680226384068
 30
0.0
  0
VERTEX
  5
8FD
330
8EE
100
AcDbEntity
  8
LAYER_1
 62
     7
100
AcDbVertex
100
AcDb2dVertex
 10
57.77360618890893
 20
31.51174526384068
 30
0.0
  0
VERTEX
  5
8FE
330
8EE
100
AcDbEntity
  8
LAYER_1
 62
     7
100
AcDbVertex
100
AcDb2dVertex
 10
58.14981118890893
 20
31.44008726384068
 30
0.0
  0
VERTEX
  5
8FF
330
8EE
100
AcDbEntity
  8
LAYER_1
 62
     7
100
AcDbVertex
100
AcDb2dVertex
 10
58.52549818890893
 20
31.38599926384069
 30
0.0
  0
VERTEX
  5
900
330
8EE
100
AcDbEntity
  8
LAYER_1
 62
     7
100
AcDbVertex
100
AcDb2dVertex
 10
58.90118618890894
 20
31.3505142638407
 30
0.0
  0
VERTEX
  5
901
330
8EE
100
AcDbEntity
  8
LAYER_1
 62
     7
100
AcDbVertex
100
AcDb2dVertex
 10
59.67099318890893
 20
31.33260026384069
 30
0.0
  0
SEQEND
  5
902
330
8EE
100
AcDbEntity
  8
LAYER_1
 62
     7
  0
POLYLINE
  5
903
330
1F
100
AcDbEntity
  8
LAYER_1
 62
     7
100
AcDb2dPolyline
 66
     1
 10
0.0
 20
0.0
 30
0.0
  0
VERTEX
  5
904
330
903
100
AcDbEntity
  8
LAYER_1
 62
     7
100
AcDbVertex
100
AcDb2dVertex
 10
48.44618318890893
 20
31.33260026384069
 30
0.0
  0
VERTEX
  5
905
330
903
100
AcDbEntity
  8
LAYER_1
 62
     7
100
AcDbVertex
100
AcDb2dVertex
 10
49.21581718890894
 20
31.3505142638407
 30
0.0
  0
VERTEX
  5
906
330
903
100
AcDbEntity
  8
LAYER_1
 62
     7
100
AcDbVertex
100
AcDb2dVertex
 10
49.59202118890893
 20
31.38599926384069
 30
0.0
  0
VERTEX
  5
907
330
903
100
AcDbEntity
  8
LAYER_1
 62
     7
100
AcDbVertex
100
AcDb2dVertex
 10
49.96770918890893
 20
31.44008726384068
 30
0.0
  0
VERTEX
  5
908
330
903
100
AcDbEntity
  8
LAYER_1
 62
     7
100
AcDbVertex
100
AcDb2dVertex
 10
50.34339718890893
 20
31.51174526384068
 30
0.0
  0
VERTEX
  5
909
330
903
100
AcDbEntity
  8
LAYER_1
 62
     7
100
AcDbVertex
100
AcDb2dVertex
 10
50.70185918890893
 20
31.63680226384068
 30
0.0
  0
VERTEX
  5
90A
330
903
100
AcDbEntity
  8
LAYER_1
 62
     7
100
AcDbVertex
100
AcDb2dVertex
 10
50.88031518890893
 20
31.70846026384068
 30
0.0
  0
VERTEX
  5
90B
330
903
100
AcDbEntity
  8
LAYER_1
 62
     7
100
AcDbVertex
100
AcDb2dVertex
 10
51.04154518890894
 20
31.81629126384069
 30
0.0
  0
VERTEX
  5
90C
330
903
100
AcDbEntity
  8
LAYER_1
 62
     7
100
AcDbVertex
100
AcDb2dVertex
 10
51.18486118890893
 20
31.9230892638407
 30
0.0
  0
VERTEX
  5
90D
330
903
100
AcDbEntity
  8
LAYER_1
 62
     7
100
AcDbVertex
100
AcDb2dVertex
 10
51.32817718890893
 20
32.04849126384067
 30
0.0
  0
VERTEX
  5
90E
330
903
100
AcDbEntity
  8
LAYER_1
 62
     7
100
AcDbVertex
100
AcDb2dVertex
 10
51.45375118890893
 20
32.19180726384069
 30
0.0
  0
VERTEX
  5
90F
330
903
100
AcDbEntity
  8
LAYER_1
 62
     7
100
AcDbVertex
100
AcDb2dVertex
 10
51.57932518890894
 20
32.33512326384069
 30
0.0
  0
VERTEX
  5
910
330
903
100
AcDbEntity
  8
LAYER_1
 62
     7
100
AcDbVertex
100
AcDb2dVertex
 10
51.66838018890893
 20
32.51426826384068
 30
0.0
  0
VERTEX
  5
911
330
903
100
AcDbEntity
  8
LAYER_1
 62
     7
100
AcDbVertex
100
AcDb2dVertex
 10
51.74003818890893
 20
32.67515426384068
 30
0.0
  0
VERTEX
  5
912
330
903
100
AcDbEntity
  8
LAYER_1
 62
     7
100
AcDbVertex
100
AcDb2dVertex
 10
51.86509518890893
 20
33.03309926384069
 30
0.0
  0
VERTEX
  5
913
330
903
100
AcDbEntity
  8
LAYER_1
 62
     7
100
AcDbVertex
100
AcDb2dVertex
 10
51.95501218890894
 20
33.40895926384069
 30
0.0
  0
VERTEX
  5
914
330
903
100
AcDbEntity
  8
LAYER_1
 62
     7
100
AcDbVertex
100
AcDb2dVertex
 10
51.99066918890893
 20
33.78516326384069
 30
0.0
  0
VERTEX
  5
915
330
903
100
AcDbEntity
  8
LAYER_1
 62
     7
100
AcDbVertex
100
AcDb2dVertex
 10
52.02632618890893
 20
34.16136826384069
 30
0.0
  0
VERTEX
  5
916
330
903
100
AcDbEntity
  8
LAYER_1
 62
     7
100
AcDbVertex
100
AcDb2dVertex
 10
52.04458518890893
 20
34.93065826384068
 30
0.0
  0
SEQEND
  5
917
330
903
100
AcDbEntity
  8
LAYER_1
 62
     7
  0
POLYLINE
  5
918
330
1F
100
AcDbEntity
  8
LAYER_1
 62
     7
100
AcDb2dPolyline
 66
     1
 10
0.0
 20
0.0
 30
0.0
  0
VERTEX
  5
919
330
918
100
AcDbEntity
  8
LAYER_1
 62
     7
100
AcDbVertex
100
AcDb2dVertex
 10
28.16180518890893
 20
34.93065826384068
 30
0.0
  0
VERTEX
  5
91A
330
918
100
AcDbEntity
  8
LAYER_1
 62
     7
100
AcDbVertex
100
AcDb2dVertex
 10
28.17971918890894
 20
34.16136826384069
 30
0.0
  0
VERTEX
  5
91B
330
918
100
AcDbEntity
  8
LAYER_1
 62
     7
100
AcDbVertex
100
AcDb2dVertex
 10
28.21520418890893
 20
33.78516326384069
 30
0.0
  0
VERTEX
  5
91C
330
918
100
AcDbEntity
  8
LAYER_1
 62
     7
100
AcDbVertex
100
AcDb2dVertex
 10
28.26860318890894
 20
33.40895926384069
 30
0.0
  0
VERTEX
  5
91D
330
918
100
AcDbEntity
  8
LAYER_1
 62
     7
100
AcDbVertex
100
AcDb2dVertex
 10
28.34077818890893
 20
33.03309926384069
 30
0.0
  0
VERTEX
  5
91E
330
918
100
AcDbEntity
  8
LAYER_1
 62
     7
100
AcDbVertex
100
AcDb2dVertex
 10
28.46583518890894
 20
32.67515426384068
 30
0.0
  0
VERTEX
  5
91F
330
918
100
AcDbEntity
  8
LAYER_1
 62
     7
100
AcDbVertex
100
AcDb2dVertex
 10
28.53766518890893
 20
32.51426826384068
 30
0.0
  0
VERTEX
  5
920
330
918
100
AcDbEntity
  8
LAYER_1
 62
     7
100
AcDbVertex
100
AcDb2dVertex
 10
28.64532418890894
 20
32.33512326384069
 30
0.0
  0
VERTEX
  5
921
330
918
100
AcDbEntity
  8
LAYER_1
 62
     7
100
AcDbVertex
100
AcDb2dVertex
 10
28.75212218890893
 20
32.19180726384069
 30
0.0
  0
VERTEX
  5
922
330
918
100
AcDbEntity
  8
LAYER_1
 62
     7
100
AcDbVertex
100
AcDb2dVertex
 10
28.87769618890893
 20
32.04849126384067
 30
0.0
  0
VERTEX
  5
923
330
918
100
AcDbEntity
  8
LAYER_1
 62
     7
100
AcDbVertex
100
AcDb2dVertex
 10
29.02101218890893
 20
31.9230892638407
 30
0.0
  0
VERTEX
  5
924
330
918
100
AcDbEntity
  8
LAYER_1
 62
     7
100
AcDbVertex
100
AcDb2dVertex
 10
29.16450018890893
 20
31.81629126384069
 30
0.0
  0
VERTEX
  5
925
330
918
100
AcDbEntity
  8
LAYER_1
 62
     7
100
AcDbVertex
100
AcDb2dVertex
 10
29.34330018890893
 20
31.70846026384068
 30
0.0
  0
VERTEX
  5
926
330
918
100
AcDbEntity
  8
LAYER_1
 62
     7
100
AcDbVertex
100
AcDb2dVertex
 10
29.50453118890893
 20
31.63680226384068
 30
0.0
  0
VERTEX
  5
927
330
918
100
AcDbEntity
  8
LAYER_1
 62
     7
100
AcDbVertex
100
AcDb2dVertex
 10
29.86247618890893
 20
31.51174526384068
 30
0.0
  0
VERTEX
  5
928
330
918
100
AcDbEntity
  8
LAYER_1
 62
     7
100
AcDbVertex
100
AcDb2dVertex
 10
30.23816418890894
 20
31.44008726384068
 30
0.0
  0
VERTEX
  5
929
330
918
100
AcDbEntity
  8
LAYER_1
 62
     7
100
AcDbVertex
100
AcDb2dVertex
 10
30.61436818890893
 20
31.38599926384069
 30
0.0
  0
VERTEX
  5
92A
330
918
100
AcDbEntity
  8
LAYER_1
 62
     7
100
AcDbVertex
100
AcDb2dVertex
 10
30.99057318890893
 20
31.3505142638407
 30
0.0
  0
VERTEX
  5
92B
330
918
100
AcDbEntity
  8
LAYER_1
 62
     7
100
AcDbVertex
100
AcDb2dVertex
 10
31.75986318890893
 20
31.33260026384069
 30
0.0
  0
SEQEND
  5
92C
330
918
100
AcDbEntity
  8
LAYER_1
 62
     7
  0
POLYLINE
  5
92D
330
1F
100
AcDbEntity
  8
LAYER_1
 62
     7
100
AcDb2dPolyline
 66
     1
 10
0.0
 20
0.0
 30
0.0
  0
VERTEX
  5
92E
330
92D
100
AcDbEntity
  8
LAYER_1
 62
     7
100
AcDbVertex
100
AcDb2dVertex
 10
52.04458518890893
 20
50.56036726384068
 30
0.0
  0
VERTEX
  5
92F
330
92D
100
AcDbEntity
  8
LAYER_1
 62
     7
100
AcDbVertex
100
AcDb2dVertex
 10
52.02632618890893
 20
51.31243126384068
 30
0.0
  0
VERTEX
  5
930
330
92D
100
AcDbEntity
  8
LAYER_1
 62
     7
100
AcDbVertex
100
AcDb2dVertex
 10
51.99066918890893
 20
51.68829126384068
 30
0.0
  0
VERTEX
  5
931
330
92D
100
AcDbEntity
  8
LAYER_1
 62
     7
100
AcDbVertex
100
AcDb2dVertex
 10
51.95501218890894
 20
52.06415126384069
 30
0.0
  0
VERTEX
  5
932
330
92D
100
AcDbEntity
  8
LAYER_1
 62
     7
100
AcDbVertex
100
AcDb2dVertex
 10
51.86509518890893
 20
52.44035526384069
 30
0.0
  0
VERTEX
  5
933
330
92D
100
AcDbEntity
  8
LAYER_1
 62
     7
100
AcDbVertex
100
AcDb2dVertex
 10
51.74003818890893
 20
52.79830126384069
 30
0.0
  0
VERTEX
  5
934
330
92D
100
AcDbEntity
  8
LAYER_1
 62
     7
100
AcDbVertex
100
AcDb2dVertex
 10
51.66838018890893
 20
52.97744626384067
 30
0.0
  0
VERTEX
  5
935
330
92D
100
AcDbEntity
  8
LAYER_1
 62
     7
100
AcDbVertex
100
AcDb2dVertex
 10
51.57932518890894
 20
53.1386762638407
 30
0.0
  0
VERTEX
  5
936
330
92D
100
AcDbEntity
  8
LAYER_1
 62
     7
100
AcDbVertex
100
AcDb2dVertex
 10
51.45375118890893
 20
53.29956226384068
 30
0.0
  0
VERTEX
  5
937
330
92D
100
AcDbEntity
  8
LAYER_1
 62
     7
100
AcDbVertex
100
AcDb2dVertex
 10
51.32817718890893
 20
53.44322326384068
 30
0.0
  0
VERTEX
  5
938
330
92D
100
AcDbEntity
  8
LAYER_1
 62
     7
100
AcDbVertex
100
AcDb2dVertex
 10
51.18486118890893
 20
53.56828026384068
 30
0.0
  0
VERTEX
  5
939
330
92D
100
AcDbEntity
  8
LAYER_1
 62
     7
100
AcDbVertex
100
AcDb2dVertex
 10
51.04154518890894
 20
53.67542226384069
 30
0.0
  0
VERTEX
  5
93A
330
92D
100
AcDbEntity
  8
LAYER_1
 62
     7
100
AcDbVertex
100
AcDb2dVertex
 10
50.88031518890893
 20
53.76533926384069
 30
0.0
  0
VERTEX
  5
93B
330
92D
100
AcDbEntity
  8
LAYER_1
 62
     7
100
AcDbVertex
100
AcDb2dVertex
 10
50.70185918890893
 20
53.85422326384068
 30
0.0
  0
VERTEX
  5
93C
330
92D
100
AcDbEntity
  8
LAYER_1
 62
     7
100
AcDbVertex
100
AcDb2dVertex
 10
50.34339718890893
 20
53.96205426384068
 30
0.0
  0
VERTEX
  5
93D
330
92D
100
AcDbEntity
  8
LAYER_1
 62
     7
100
AcDbVertex
100
AcDb2dVertex
 10
49.96770918890893
 20
54.05162726384067
 30
0.0
  0
VERTEX
  5
93E
330
92D
100
AcDbEntity
  8
LAYER_1
 62
     7
100
AcDbVertex
100
AcDb2dVertex
 10
49.59202118890893
 20
54.10537026384068
 30
0.0
  0
VERTEX
  5
93F
330
92D
100
AcDbEntity
  8
LAYER_1
 62
     7
100
AcDbVertex
100
AcDb2dVertex
 10
49.21581718890894
 20
54.14119926384069
 30
0.0
  0
VERTEX
  5
940
330
92D
100
AcDbEntity
  8
LAYER_1
 62
     7
100
AcDbVertex
100
AcDb2dVertex
 10
48.44618318890893
 20
54.15876926384068
 30
0.0
  0
SEQEND
  5
941
330
92D
100
AcDbEntity
  8
LAYER_1
 62
     7
  0
LINE
  5
942
330
1F
100
AcDbEntity
  8
LAYER_1
 62
     7
100
AcDbLine
 10
56.64551018890893
 20
55.23363926384068
 30
0.0
 11
59.67099318890893
 21
55.23363926384068
 31
0.0
  0
LINE
  5
943
330
1F
100
AcDbEntity
  8
LAYER_1
 62
     7
100
AcDbLine
 10
48.44618318890893
 20
55.23363926384068
 30
0.0
 11
51.47166518890893
 21
55.23363926384068
 31
0.0
  0
LINE
  5
944
330
1F
100
AcDbEntity
  8
LAYER_1
 62
     7
100
AcDbLine
 10
81.02989618890893
 20
35.45017826384068
 30
0.0
 11
81.02989618890893
 21
35.41434926384069
 31
0.0
  0
POLYLINE
  5
945
330
1F
100
AcDbEntity
  8
LAYER_1
 62
     7
100
AcDb2dPolyline
 66
     1
 10
0.0
 20
0.0
 30
0.0
  0
VERTEX
  5
946
330
945
100
AcDbEntity
  8
LAYER_1
 62
     7
100
AcDbVertex
100
AcDb2dVertex
 10
81.02989618890893
 20
35.41434926384069
 30
0.0
  0
VERTEX
  5
947
330
945
100
AcDbEntity
  8
LAYER_1
 62
     7
100
AcDbVertex
100
AcDb2dVertex
 10
81.02989618890893
 20
34.91274326384068
 30
0.0
  0
VERTEX
  5
948
330
945
100
AcDbEntity
  8
LAYER_1
 62
     7
100
AcDbVertex
100
AcDb2dVertex
 10
81.01215318890893
 20
34.42939626384069
 30
0.0
  0
VERTEX
  5
949
330
945
100
AcDbEntity
  8
LAYER_1
 62
     7
100
AcDbVertex
100
AcDb2dVertex
 10
80.97598018890893
 20
33.9639642638407
 30
0.0
  0
VERTEX
  5
94A
330
945
100
AcDbEntity
  8
LAYER_1
 62
     7
100
AcDbVertex
100
AcDb2dVertex
 10
80.92258118890894
 20
33.48096126384068
 30
0.0
  0
VERTEX
  5
94B
330
945
100
AcDbEntity
  8
LAYER_1
 62
     7
100
AcDbVertex
100
AcDb2dVertex
 10
80.83266418890893
 20
33.01552926384068
 30
0.0
  0
VERTEX
  5
94C
330
945
100
AcDbEntity
  8
LAYER_1
 62
     7
100
AcDbVertex
100
AcDb2dVertex
 10
80.70760718890893
 20
32.54975226384067
 30
0.0
  0
VERTEX
  5
94D
330
945
100
AcDbEntity
  8
LAYER_1
 62
     7
100
AcDbVertex
100
AcDb2dVertex
 10
80.61803518890894
 20
32.33512326384069
 30
0.0
  0
VERTEX
  5
94E
330
945
100
AcDbEntity
  8
LAYER_1
 62
     7
100
AcDbVertex
100
AcDb2dVertex
 10
80.52863418890893
 20
32.12014926384069
 30
0.0
  0
VERTEX
  5
94F
330
945
100
AcDbEntity
  8
LAYER_1
 62
     7
100
AcDbVertex
100
AcDb2dVertex
 10
80.42080318890894
 20
31.90517526384069
 30
0.0
  0
VERTEX
  5
950
330
945
100
AcDbEntity
  8
LAYER_1
 62
     7
100
AcDbVertex
100
AcDb2dVertex
 10
80.27748718890894
 20
31.70846026384068
 30
0.0
  0
VERTEX
  5
951
330
945
100
AcDbEntity
  8
LAYER_1
 62
     7
100
AcDbVertex
100
AcDb2dVertex
 10
80.13468818890894
 20
31.51174526384068
 30
0.0
  0
VERTEX
  5
952
330
945
100
AcDbEntity
  8
LAYER_1
 62
     7
100
AcDbVertex
100
AcDb2dVertex
 10
79.97345718890892
 20
31.3505142638407
 30
0.0
  0
VERTEX
  5
953
330
945
100
AcDbEntity
  8
LAYER_1
 62
     7
100
AcDbVertex
100
AcDb2dVertex
 10
79.79396818890894
 20
31.18928426384068
 30
0.0
  0
VERTEX
  5
954
330
945
100
AcDbEntity
  8
LAYER_1
 62
     7
100
AcDbVertex
100
AcDb2dVertex
 10
79.59777018890893
 20
31.04596826384068
 30
0.0
  0
VERTEX
  5
955
330
945
100
AcDbEntity
  8
LAYER_1
 62
     7
100
AcDbVertex
100
AcDb2dVertex
 10
79.40053818890894
 20
30.93882526384069
 30
0.0
  0
VERTEX
  5
956
330
945
100
AcDbEntity
  8
LAYER_1
 62
     7
100
AcDbVertex
100
AcDb2dVertex
 10
79.18590818890892
 20
30.83133826384069
 30
0.0
  0
VERTEX
  5
957
330
945
100
AcDbEntity
  8
LAYER_1
 62
     7
100
AcDbVertex
100
AcDb2dVertex
 10
78.73804618890893
 20
30.67010826384069
 30
0.0
  0
VERTEX
  5
958
330
945
100
AcDbEntity
  8
LAYER_1
 62
     7
100
AcDbVertex
100
AcDb2dVertex
 10
78.27244118890892
 20
30.56262126384068
 30
0.0
  0
VERTEX
  5
959
330
945
100
AcDbEntity
  8
LAYER_1
 62
     7
100
AcDbVertex
100
AcDb2dVertex
 10
77.80666418890894
 20
30.47339326384068
 30
0.0
  0
VERTEX
  5
95A
330
945
100
AcDbEntity
  8
LAYER_1
 62
     7
100
AcDbVertex
100
AcDb2dVertex
 10
77.32366218890894
 20
30.41896126384069
 30
0.0
  0
VERTEX
  5
95B
330
945
100
AcDbEntity
  8
LAYER_1
 62
     7
100
AcDbVertex
100
AcDb2dVertex
 10
76.85857418890893
 20
30.38347626384069
 30
0.0
  0
VERTEX
  5
95C
330
945
100
AcDbEntity
  8
LAYER_1
 62
     7
100
AcDbVertex
100
AcDb2dVertex
 10
76.37505518890893
 20
30.38347626384069
 30
0.0
  0
VERTEX
  5
95D
330
945
100
AcDbEntity
  8
LAYER_1
 62
     7
100
AcDbVertex
100
AcDb2dVertex
 10
75.98110818890893
 20
30.36556226384069
 30
0.0
  0
SEQEND
  5
95E
330
945
100
AcDbEntity
  8
LAYER_1
 62
     7
  0
LINE
  5
960
330
1F
100
AcDbEntity
  8
LAYER_1
 62
     7
100
AcDbLine
 10
51.63272418890894
 20
30.36556226384069
 30
0.0
 11
48.44618318890893
 21
30.36556226384069
 31
0.0
  0
LINE
  5
961
330
1F
100
AcDbEntity
  8
LAYER_1
 62
     7
100
AcDbLine
 10
59.67099318890893
 20
30.36556226384069
 30
0.0
 11
56.46653718890894
 21
30.36556226384069
 31
0.0
  0
LINE
  5
962
330
1F
100
AcDbEntity
  8
LAYER_1
 62
     7
100
AcDbLine
 10
32.15432618890893
 20
30.36556226384069
 30
0.0
 11
32.13606718890894
 21
30.36556226384069
 31
0.0
  0
POLYLINE
  5
963
330
1F
100
AcDbEntity
  8
LAYER_1
 62
     7
100
AcDb2dPolyline
 66
     1
 10
0.0
 20
0.0
 30
0.0
  0
VERTEX
  5
964
330
963
100
AcDbEntity
  8
LAYER_1
 62
     7
100
AcDbVertex
100
AcDb2dVertex
 10
32.13606718890894
 20
30.36556226384069
 30
0.0
  0
VERTEX
  5
965
330
963
100
AcDbEntity
  8
LAYER_1
 62
     7
100
AcDbVertex
100
AcDb2dVertex
 10
31.74246518890893
 20
30.38347626384069
 30
0.0
  0
VERTEX
  5
966
330
963
100
AcDbEntity
  8
LAYER_1
 62
     7
100
AcDbVertex
100
AcDb2dVertex
 10
31.25894618890893
 20
30.38347626384069
 30
0.0
  0
VERTEX
  5
967
330
963
100
AcDbEntity
  8
LAYER_1
 62
     7
100
AcDbVertex
100
AcDb2dVertex
 10
30.79334118890893
 20
30.41896126384069
 30
0.0
  0
VERTEX
  5
968
330
963
100
AcDbEntity
  8
LAYER_1
 62
     7
100
AcDbVertex
100
AcDb2dVertex
 10
30.30982218890893
 20
30.47339326384068
 30
0.0
  0
VERTEX
  5
969
330
963
100
AcDbEntity
  8
LAYER_1
 62
     7
100
AcDbVertex
100
AcDb2dVertex
 10
29.84473418890893
 20
30.56262126384068
 30
0.0
  0
VERTEX
  5
96A
330
963
100
AcDbEntity
  8
LAYER_1
 62
     7
100
AcDbVertex
100
AcDb2dVertex
 10
29.37895718890894
 20
30.67010826384069
 30
0.0
  0
VERTEX
  5
96B
330
963
100
AcDbEntity
  8
LAYER_1
 62
     7
100
AcDbVertex
100
AcDb2dVertex
 10
28.93161118890894
 20
30.83133826384069
 30
0.0
  0
VERTEX
  5
96C
330
963
100
AcDbEntity
  8
LAYER_1
 62
     7
100
AcDbVertex
100
AcDb2dVertex
 10
28.71646518890893
 20
30.93882526384069
 30
0.0
  0
VERTEX
  5
96D
330
963
100
AcDbEntity
  8
LAYER_1
 62
     7
100
AcDbVertex
100
AcDb2dVertex
 10
28.51975018890894
 20
31.04596826384068
 30
0.0
  0
VERTEX
  5
96E
330
963
100
AcDbEntity
  8
LAYER_1
 62
     7
100
AcDbVertex
100
AcDb2dVertex
 10
28.32303518890893
 20
31.18928426384068
 30
0.0
  0
VERTEX
  5
96F
330
963
100
AcDbEntity
  8
LAYER_1
 62
     7
100
AcDbVertex
100
AcDb2dVertex
 10
28.14354618890893
 20
31.3505142638407
 30
0.0
  0
VERTEX
  5
970
330
963
100
AcDbEntity
  8
LAYER_1
 62
     7
100
AcDbVertex
100
AcDb2dVertex
 10
27.98248818890894
 20
31.51174526384068
 30
0.0
  0
VERTEX
  5
971
330
963
100
AcDbEntity
  8
LAYER_1
 62
     7
100
AcDbVertex
100
AcDb2dVertex
 10
27.83951618890894
 20
31.70846026384068
 30
0.0
  0
VERTEX
  5
972
330
963
100
AcDbEntity
  8
LAYER_1
 62
     7
100
AcDbVertex
100
AcDb2dVertex
 10
27.69620018890893
 20
31.90517526384069
 30
0.0
  0
VERTEX
  5
973
330
963
100
AcDbEntity
  8
LAYER_1
 62
     7
100
AcDbVertex
100
AcDb2dVertex
 10
27.58836918890893
 20
32.12014926384069
 30
0.0
  0
VERTEX
  5
974
330
963
100
AcDbEntity
  8
LAYER_1
 62
     7
100
AcDbVertex
100
AcDb2dVertex
 10
27.49948518890894
 20
32.33512326384069
 30
0.0
  0
VERTEX
  5
975
330
963
100
AcDbEntity
  8
LAYER_1
 62
     7
100
AcDbVertex
100
AcDb2dVertex
 10
27.40956818890893
 20
32.54975226384067
 30
0.0
  0
VERTEX
  5
976
330
963
100
AcDbEntity
  8
LAYER_1
 62
     7
100
AcDbVertex
100
AcDb2dVertex
 10
27.28399518890894
 20
33.01552926384068
 30
0.0
  0
VERTEX
  5
977
330
963
100
AcDbEntity
  8
LAYER_1
 62
     7
100
AcDbVertex
100
AcDb2dVertex
 10
27.19493918890893
 20
33.48096126384068
 30
0.0
  0
VERTEX
  5
978
330
963
100
AcDbEntity
  8
LAYER_1
 62
     7
100
AcDbVertex
100
AcDb2dVertex
 10
27.14102318890894
 20
33.9639642638407
 30
0.0
  0
VERTEX
  5
979
330
963
100
AcDbEntity
  8
LAYER_1
 62
     7
100
AcDbVertex
100
AcDb2dVertex
 10
27.10536618890893
 20
34.42939626384069
 30
0.0
  0
VERTEX
  5
97A
330
963
100
AcDbEntity
  8
LAYER_1
 62
     7
100
AcDbVertex
100
AcDb2dVertex
 10
27.08710718890893
 20
34.91274326384068
 30
0.0
  0
VERTEX
  5
97B
330
963
100
AcDbEntity
  8
LAYER_1
 62
     7
100
AcDbVertex
100
AcDb2dVertex
 10
27.08710718890893
 20
35.41434926384069
 30
0.0
  0
SEQEND
  5
97C
330
963
100
AcDbEntity
  8
LAYER_1
 62
     7
  0
LINE
  5
97D
330
1F
100
AcDbEntity
  8
LAYER_1
 62
     7
100
AcDbLine
 10
27.08710718890893
 20
35.41434926384069
 30
0.0
 11
27.08710718890893
 21
35.45017826384068
 31
0.0
  0
POLYLINE
  5
97E
330
1F
100
AcDbEntity
  8
LAYER_1
 62
     7
100
AcDb2dPolyline
 66
     1
 10
0.0
 20
0.0
 30
0.0
  0
VERTEX
  5
97F
330
97E
100
AcDbEntity
  8
LAYER_1
 62
     7
100
AcDbVertex
100
AcDb2dVertex
 10
71.12903618890894
 20
57.16668226384069
 30
0.0
  0
VERTEX
  5
980
330
97E
100
AcDbEntity
  8
LAYER_1
 62
     7
100
AcDbVertex
100
AcDb2dVertex
 10
70.73543418890892
 20
57.14876726384068
 30
0.0
  0
VERTEX
  5
981
330
97E
100
AcDbEntity
  8
LAYER_1
 62
     7
100
AcDbVertex
100
AcDb2dVertex
 10
70.34148718890893
 20
57.13085326384067
 30
0.0
  0
VERTEX
  5
982
330
97E
100
AcDbEntity
  8
LAYER_1
 62
     7
100
AcDbVertex
100
AcDb2dVertex
 10
69.92962618890894
 20
57.07745426384068
 30
0.0
  0
VERTEX
  5
983
330
97E
100
AcDbEntity
  8
LAYER_1
 62
     7
100
AcDbVertex
100
AcDb2dVertex
 10
69.55393818890893
 20
57.00545126384068
 30
0.0
  0
VERTEX
  5
984
330
97E
100
AcDbEntity
  8
LAYER_1
 62
     7
100
AcDbVertex
100
AcDb2dVertex
 10
69.15999118890893
 20
56.93413826384068
 30
0.0
  0
VERTEX
  5
985
330
97E
100
AcDbEntity
  8
LAYER_1
 62
     7
100
AcDbVertex
100
AcDb2dVertex
 10
68.76604518890893
 20
56.82630626384067
 30
0.0
  0
VERTEX
  5
986
330
97E
100
AcDbEntity
  8
LAYER_1
 62
     7
100
AcDbVertex
100
AcDb2dVertex
 10
68.39035718890894
 20
56.70125026384069
 30
0.0
  0
VERTEX
  5
987
330
97E
100
AcDbEntity
  8
LAYER_1
 62
     7
100
AcDbVertex
100
AcDb2dVertex
 10
68.01449718890893
 20
56.55793426384068
 30
0.0
  0
VERTEX
  5
988
330
97E
100
AcDbEntity
  8
LAYER_1
 62
     7
100
AcDbVertex
100
AcDb2dVertex
 10
67.65620718890893
 20
56.39670326384067
 30
0.0
  0
VERTEX
  5
989
330
97E
100
AcDbEntity
  8
LAYER_1
 62
     7
100
AcDbVertex
100
AcDb2dVertex
 10
67.29826218890893
 20
56.21790326384068
 30
0.0
  0
VERTEX
  5
98A
330
97E
100
AcDbEntity
  8
LAYER_1
 62
     7
100
AcDbVertex
100
AcDb2dVertex
 10
66.95771418890894
 20
56.02118826384068
 30
0.0
  0
VERTEX
  5
98B
330
97E
100
AcDbEntity
  8
LAYER_1
 62
     7
100
AcDbVertex
100
AcDb2dVertex
 10
66.61751118890894
 20
55.82378426384067
 30
0.0
  0
VERTEX
  5
98C
330
97E
100
AcDbEntity
  8
LAYER_1
 62
     7
100
AcDbVertex
100
AcDb2dVertex
 10
66.29522218890892
 20
55.59158426384069
 30
0.0
  0
VERTEX
  5
98D
330
97E
100
AcDbEntity
  8
LAYER_1
 62
     7
100
AcDbVertex
100
AcDb2dVertex
 10
65.97293418890894
 20
55.34043726384068
 30
0.0
  0
VERTEX
  5
98E
330
97E
100
AcDbEntity
  8
LAYER_1
 62
     7
100
AcDbVertex
100
AcDb2dVertex
 10
65.66890418890892
 20
55.09032326384069
 30
0.0
  0
VERTEX
  5
98F
330
97E
100
AcDbEntity
  8
LAYER_1
 62
     7
100
AcDbVertex
100
AcDb2dVertex
 10
65.38261718890893
 20
54.82126126384068
 30
0.0
  0
VERTEX
  5
990
330
97E
100
AcDbEntity
  8
LAYER_1
 62
     7
100
AcDbVertex
100
AcDb2dVertex
 10
64.97041118890894
 20
54.46331526384068
 30
0.0
  0
VERTEX
  5
991
330
97E
100
AcDbEntity
  8
LAYER_1
 62
     7
100
AcDbVertex
100
AcDb2dVertex
 10
64.54080718890892
 20
54.15876926384068
 30
0.0
  0
VERTEX
  5
992
330
97E
100
AcDbEntity
  8
LAYER_1
 62
     7
100
AcDbVertex
100
AcDb2dVertex
 10
64.09346218890894
 20
53.89039626384068
 30
0.0
  0
VERTEX
  5
993
330
97E
100
AcDbEntity
  8
LAYER_1
 62
     7
100
AcDbVertex
100
AcDb2dVertex
 10
63.60994318890893
 20
53.65750826384068
 30
0.0
  0
VERTEX
  5
994
330
97E
100
AcDbEntity
  8
LAYER_1
 62
     7
100
AcDbVertex
100
AcDb2dVertex
 10
63.10868118890893
 20
53.47870726384067
 30
0.0
  0
VERTEX
  5
995
330
97E
100
AcDbEntity
  8
LAYER_1
 62
     7
100
AcDbVertex
100
AcDb2dVertex
 10
62.58950518890893
 20
53.35365026384069
 30
0.0
  0
VERTEX
  5
996
330
97E
100
AcDbEntity
  8
LAYER_1
 62
     7
100
AcDbVertex
100
AcDb2dVertex
 10
62.05275918890893
 20
53.28199226384068
 30
0.0
  0
VERTEX
  5
997
330
97E
100
AcDbEntity
  8
LAYER_1
 62
     7
100
AcDbVertex
100
AcDb2dVertex
 10
61.51532518890894
 20
53.26407826384067
 30
0.0
  0
SEQEND
  5
998
330
97E
100
AcDbEntity
  8
LAYER_1
 62
     7
  0
POLYLINE
  5
999
330
1F
100
AcDbEntity
  8
LAYER_1
 62
     7
100
AcDb2dPolyline
 66
     1
 10
0.0
 20
0.0
 30
0.0
  0
VERTEX
  5
99A
330
999
100
AcDbEntity
  8
LAYER_1
 62
     7
100
AcDbVertex
100
AcDb2dVertex
 10
56.95005618890893
 20
49.66533126384068
 30
0.0
  0
VERTEX
  5
99B
330
999
100
AcDbEntity
  8
LAYER_1
 62
     7
100
AcDbVertex
100
AcDb2dVertex
 10
56.95005618890893
 20
49.25329826384069
 30
0.0
  0
VERTEX
  5
99C
330
999
100
AcDbEntity
  8
LAYER_1
 62
     7
100
AcDbVertex
100
AcDb2dVertex
 10
56.93214218890893
 20
35.80846826384068
 30
0.0
  0
SEQEND
  5
99D
330
999
100
AcDbEntity
  8
LAYER_1
 62
     7
  0
LINE
  5
99E
330
1F
100
AcDbEntity
  8
LAYER_1
 62
     7
100
AcDbLine
 10
79.07824918890894
 20
35.80846826384068
 30
0.0
 11
79.04259218890892
 21
49.25329826384069
 31
0.0
  0
POLYLINE
  5
99F
330
1F
100
AcDbEntity
  8
LAYER_1
 62
     7
100
AcDb2dPolyline
 66
     1
 10
0.0
 20
0.0
 30
0.0
  0
VERTEX
  5
9A0
330
99F
100
AcDbEntity
  8
LAYER_1
 62
     7
100
AcDbVertex
100
AcDb2dVertex
 10
81.67412918890892
 20
35.41434926384069
 30
0.0
  0
VERTEX
  5
9A1
330
99F
100
AcDbEntity
  8
LAYER_1
 62
     7
100
AcDbVertex
100
AcDb2dVertex
 10
81.65673118890893
 20
34.82386026384069
 30
0.0
  0
VERTEX
  5
9A2
330
99F
100
AcDbEntity
  8
LAYER_1
 62
     7
100
AcDbVertex
100
AcDb2dVertex
 10
81.63847218890893
 20
34.23268126384068
 30
0.0
  0
VERTEX
  5
9A3
330
99F
100
AcDbEntity
  8
LAYER_1
 62
     7
100
AcDbVertex
100
AcDb2dVertex
 10
81.58507318890894
 20
33.64219226384069
 30
0.0
  0
VERTEX
  5
9A4
330
99F
100
AcDbEntity
  8
LAYER_1
 62
     7
100
AcDbVertex
100
AcDb2dVertex
 10
81.47724118890893
 20
33.05101426384069
 30
0.0
  0
VERTEX
  5
9A5
330
99F
100
AcDbEntity
  8
LAYER_1
 62
     7
100
AcDbVertex
100
AcDb2dVertex
 10
81.35218418890893
 20
32.47809426384068
 30
0.0
  0
VERTEX
  5
9A6
330
99F
100
AcDbEntity
  8
LAYER_1
 62
     7
100
AcDbVertex
100
AcDb2dVertex
 10
81.24452518890894
 20
32.19180726384069
 30
0.0
  0
VERTEX
  5
9A7
330
99F
100
AcDbEntity
  8
LAYER_1
 62
     7
100
AcDbVertex
100
AcDb2dVertex
 10
81.13721018890894
 20
31.9230892638407
 30
0.0
  0
VERTEX
  5
9A8
330
99F
100
AcDbEntity
  8
LAYER_1
 62
     7
100
AcDbVertex
100
AcDb2dVertex
 10
80.99423918890893
 20
31.65506126384068
 30
0.0
  0
VERTEX
  5
9A9
330
99F
100
AcDbEntity
  8
LAYER_1
 62
     7
100
AcDbVertex
100
AcDb2dVertex
 10
80.85092318890893
 20
31.40391326384069
 30
0.0
  0
VERTEX
  5
9AA
330
99F
100
AcDbEntity
  8
LAYER_1
 62
     7
100
AcDbVertex
100
AcDb2dVertex
 10
80.67195018890894
 20
31.15311026384069
 30
0.0
  0
VERTEX
  5
9AB
330
99F
100
AcDbEntity
  8
LAYER_1
 62
     7
100
AcDbVertex
100
AcDb2dVertex
 10
80.47471918890893
 20
30.93882526384069
 30
0.0
  0
VERTEX
  5
9AC
330
99F
100
AcDbEntity
  8
LAYER_1
 62
     7
100
AcDbVertex
100
AcDb2dVertex
 10
80.24183018890893
 20
30.74142126384068
 30
0.0
  0
VERTEX
  5
9AD
330
99F
100
AcDbEntity
  8
LAYER_1
 62
     7
100
AcDbVertex
100
AcDb2dVertex
 10
80.00945818890894
 20
30.56262126384068
 30
0.0
  0
VERTEX
  5
9AE
330
99F
100
AcDbEntity
  8
LAYER_1
 62
     7
100
AcDbVertex
100
AcDb2dVertex
 10
79.75848318890893
 20
30.40139126384068
 30
0.0
  0
VERTEX
  5
9AF
330
99F
100
AcDbEntity
  8
LAYER_1
 62
     7
100
AcDbVertex
100
AcDb2dVertex
 10
79.48993818890894
 20
30.27633426384068
 30
0.0
  0
VERTEX
  5
9B0
330
99F
100
AcDbEntity
  8
LAYER_1
 62
     7
100
AcDbVertex
100
AcDb2dVertex
 10
79.22156518890894
 20
30.15058826384069
 30
0.0
  0
VERTEX
  5
9B1
330
99F
100
AcDbEntity
  8
LAYER_1
 62
     7
100
AcDbVertex
100
AcDb2dVertex
 10
78.93476118890894
 20
30.06136026384068
 30
0.0
  0
VERTEX
  5
9B2
330
99F
100
AcDbEntity
  8
LAYER_1
 62
     7
100
AcDbVertex
100
AcDb2dVertex
 10
78.36235818890893
 20
29.91769926384069
 30
0.0
  0
VERTEX
  5
9B3
330
99F
100
AcDbEntity
  8
LAYER_1
 62
     7
100
AcDbVertex
100
AcDb2dVertex
 10
77.77118018890893
 20
29.82881626384068
 30
0.0
  0
VERTEX
  5
9B4
330
99F
100
AcDbEntity
  8
LAYER_1
 62
     7
100
AcDbVertex
100
AcDb2dVertex
 10
77.18086318890893
 20
29.77438326384067
 30
0.0
  0
VERTEX
  5
9B5
330
99F
100
AcDbEntity
  8
LAYER_1
 62
     7
100
AcDbVertex
100
AcDb2dVertex
 10
76.57177018890893
 20
29.73889926384069
 30
0.0
  0
VERTEX
  5
9B6
330
99F
100
AcDbEntity
  8
LAYER_1
 62
     7
100
AcDbVertex
100
AcDb2dVertex
 10
75.98110818890893
 20
29.73889926384069
 30
0.0
  0
SEQEND
  5
9B7
330
99F
100
AcDbEntity
  8
LAYER_1
 62
     7
  0
POLYLINE
  5
9B8
330
1F
100
AcDbEntity
  8
LAYER_1
 62
     7
100
AcDb2dPolyline
 66
     1
 10
0.0
 20
0.0
 30
0.0
  0
VERTEX
  5
9B9
330
9B8
100
AcDbEntity
  8
LAYER_1
 62
     7
100
AcDbVertex
100
AcDb2dVertex
 10
32.13606718890894
 20
29.73889926384069
 30
0.0
  0
VERTEX
  5
9BA
330
9B8
100
AcDbEntity
  8
LAYER_1
 62
     7
100
AcDbVertex
100
AcDb2dVertex
 10
31.52749118890894
 20
29.73889926384069
 30
0.0
  0
VERTEX
  5
9BB
330
9B8
100
AcDbEntity
  8
LAYER_1
 62
     7
100
AcDbVertex
100
AcDb2dVertex
 10
30.93665718890893
 20
29.77438326384067
 30
0.0
  0
VERTEX
  5
9BC
330
9B8
100
AcDbEntity
  8
LAYER_1
 62
     7
100
AcDbVertex
100
AcDb2dVertex
 10
30.34599518890893
 20
29.82881626384068
 30
0.0
  0
VERTEX
  5
9BD
330
9B8
100
AcDbEntity
  8
LAYER_1
 62
     7
100
AcDbVertex
100
AcDb2dVertex
 10
29.75516218890894
 20
29.91769926384069
 30
0.0
  0
VERTEX
  5
9BE
330
9B8
100
AcDbEntity
  8
LAYER_1
 62
     7
100
AcDbVertex
100
AcDb2dVertex
 10
29.18224218890893
 20
30.06136026384068
 30
0.0
  0
VERTEX
  5
9BF
330
9B8
100
AcDbEntity
  8
LAYER_1
 62
     7
100
AcDbVertex
100
AcDb2dVertex
 10
28.89543818890894
 20
30.15058826384069
 30
0.0
  0
VERTEX
  5
9C0
330
9B8
100
AcDbEntity
  8
LAYER_1
 62
     7
100
AcDbVertex
100
AcDb2dVertex
 10
28.62706518890894
 20
30.27633426384068
 30
0.0
  0
VERTEX
  5
9C1
330
9B8
100
AcDbEntity
  8
LAYER_1
 62
     7
100
AcDbVertex
100
AcDb2dVertex
 10
28.35869218890893
 20
30.40139126384068
 30
0.0
  0
VERTEX
  5
9C2
330
9B8
100
AcDbEntity
  8
LAYER_1
 62
     7
100
AcDbVertex
100
AcDb2dVertex
 10
28.10754518890894
 20
30.56262126384068
 30
0.0
  0
VERTEX
  5
9C3
330
9B8
100
AcDbEntity
  8
LAYER_1
 62
     7
100
AcDbVertex
100
AcDb2dVertex
 10
27.87517318890893
 20
30.74142126384068
 30
0.0
  0
VERTEX
  5
9C4
330
9B8
100
AcDbEntity
  8
LAYER_1
 62
     7
100
AcDbVertex
100
AcDb2dVertex
 10
27.64280118890893
 20
30.93882526384069
 30
0.0
  0
VERTEX
  5
9C5
330
9B8
100
AcDbEntity
  8
LAYER_1
 62
     7
100
AcDbVertex
100
AcDb2dVertex
 10
27.44557018890894
 20
31.15311026384069
 30
0.0
  0
VERTEX
  5
9C6
330
9B8
100
AcDbEntity
  8
LAYER_1
 62
     7
100
AcDbVertex
100
AcDb2dVertex
 10
27.26608018890893
 20
31.40391326384069
 30
0.0
  0
VERTEX
  5
9C7
330
9B8
100
AcDbEntity
  8
LAYER_1
 62
     7
100
AcDbVertex
100
AcDb2dVertex
 10
27.12328118890893
 20
31.65506126384068
 30
0.0
  0
VERTEX
  5
9C8
330
9B8
100
AcDbEntity
  8
LAYER_1
 62
     7
100
AcDbVertex
100
AcDb2dVertex
 10
26.98030918890893
 20
31.9230892638407
 30
0.0
  0
VERTEX
  5
9C9
330
9B8
100
AcDbEntity
  8
LAYER_1
 62
     7
100
AcDbVertex
100
AcDb2dVertex
 10
26.87265018890893
 20
32.19180726384069
 30
0.0
  0
VERTEX
  5
9CA
330
9B8
100
AcDbEntity
  8
LAYER_1
 62
     7
100
AcDbVertex
100
AcDb2dVertex
 10
26.76481918890893
 20
32.47809426384068
 30
0.0
  0
VERTEX
  5
9CB
330
9B8
100
AcDbEntity
  8
LAYER_1
 62
     7
100
AcDbVertex
100
AcDb2dVertex
 10
26.62236418890894
 20
33.05101426384069
 30
0.0
  0
VERTEX
  5
9CC
330
9B8
100
AcDbEntity
  8
LAYER_1
 62
     7
100
AcDbVertex
100
AcDb2dVertex
 10
26.53244718890893
 20
33.64219226384069
 30
0.0
  0
VERTEX
  5
9CD
330
9B8
100
AcDbEntity
  8
LAYER_1
 62
     7
100
AcDbVertex
100
AcDb2dVertex
 10
26.47904818890893
 20
34.23268126384068
 30
0.0
  0
VERTEX
  5
9CE
330
9B8
100
AcDbEntity
  8
LAYER_1
 62
     7
100
AcDbVertex
100
AcDb2dVertex
 10
26.46078918890893
 20
34.82386026384069
 30
0.0
  0
VERTEX
  5
9CF
330
9B8
100
AcDbEntity
  8
LAYER_1
 62
     7
100
AcDbVertex
100
AcDb2dVertex
 10
26.44253018890893
 20
35.41434926384069
 30
0.0
  0
SEQEND
  5
9D0
330
9B8
100
AcDbEntity
  8
LAYER_1
 62
     7
  0
POLYLINE
  5
9D1
330
1F
100
AcDbEntity
  8
LAYER_1
 62
     7
100
AcDb2dPolyline
 66
     1
 10
0.0
 20
0.0
 30
0.0
  0
VERTEX
  5
9D2
330
9D1
100
AcDbEntity
  8
LAYER_1
 62
     7
100
AcDbVertex
100
AcDb2dVertex
 10
29.03892618890894
 20
35.80846826384068
 30
0.0
  0
VERTEX
  5
9D3
330
9D1
100
AcDbEntity
  8
LAYER_1
 62
     7
100
AcDbVertex
100
AcDb2dVertex
 10
29.05666818890893
 20
35.05605926384068
 30
0.0
  0
VERTEX
  5
9D4
330
9D1
100
AcDbEntity
  8
LAYER_1
 62
     7
100
AcDbVertex
100
AcDb2dVertex
 10
29.09232518890894
 20
34.68054426384069
 30
0.0
  0
VERTEX
  5
9D5
330
9D1
100
AcDbEntity
  8
LAYER_1
 62
     7
100
AcDbVertex
100
AcDb2dVertex
 10
29.14658518890894
 20
34.30468426384069
 30
0.0
  0
VERTEX
  5
9D6
330
9D1
100
AcDbEntity
  8
LAYER_1
 62
     7
100
AcDbVertex
100
AcDb2dVertex
 10
29.23564118890893
 20
33.92813526384069
 30
0.0
  0
VERTEX
  5
9D7
330
9D1
100
AcDbEntity
  8
LAYER_1
 62
     7
100
AcDbVertex
100
AcDb2dVertex
 10
29.36121518890893
 20
33.57018926384069
 30
0.0
  0
VERTEX
  5
9D8
330
9D1
100
AcDbEntity
  8
LAYER_1
 62
     7
100
AcDbVertex
100
AcDb2dVertex
 10
29.43287318890894
 20
33.40895926384069
 30
0.0
  0
VERTEX
  5
9D9
330
9D1
100
AcDbEntity
  8
LAYER_1
 62
     7
100
AcDbVertex
100
AcDb2dVertex
 10
29.54018818890893
 20
33.23015826384068
 30
0.0
  0
VERTEX
  5
9DA
330
9D1
100
AcDbEntity
  8
LAYER_1
 62
     7
100
AcDbVertex
100
AcDb2dVertex
 10
29.64784718890893
 20
33.08649826384068
 30
0.0
  0
VERTEX
  5
9DB
330
9D1
100
AcDbEntity
  8
LAYER_1
 62
     7
100
AcDbVertex
100
AcDb2dVertex
 10
29.77290418890893
 20
32.94318226384068
 30
0.0
  0
VERTEX
  5
9DC
330
9D1
100
AcDbEntity
  8
LAYER_1
 62
     7
100
AcDbVertex
100
AcDb2dVertex
 10
29.91639218890894
 20
32.81812526384069
 30
0.0
  0
VERTEX
  5
9DD
330
9D1
100
AcDbEntity
  8
LAYER_1
 62
     7
100
AcDbVertex
100
AcDb2dVertex
 10
30.05919118890894
 20
32.71098326384069
 30
0.0
  0
VERTEX
  5
9DE
330
9D1
100
AcDbEntity
  8
LAYER_1
 62
     7
100
AcDbVertex
100
AcDb2dVertex
 10
30.22042218890894
 20
32.60349626384068
 30
0.0
  0
VERTEX
  5
9DF
330
9D1
100
AcDbEntity
  8
LAYER_1
 62
     7
100
AcDbVertex
100
AcDb2dVertex
 10
30.39939418890893
 20
32.53183826384069
 30
0.0
  0
VERTEX
  5
9E0
330
9D1
100
AcDbEntity
  8
LAYER_1
 62
     7
100
AcDbVertex
100
AcDb2dVertex
 10
30.75768418890894
 20
32.40643626384069
 30
0.0
  0
VERTEX
  5
9E1
330
9D1
100
AcDbEntity
  8
LAYER_1
 62
     7
100
AcDbVertex
100
AcDb2dVertex
 10
31.13388918890893
 20
32.31686426384069
 30
0.0
  0
VERTEX
  5
9E2
330
9D1
100
AcDbEntity
  8
LAYER_1
 62
     7
100
AcDbVertex
100
AcDb2dVertex
 10
31.50957618890893
 20
32.26346526384067
 30
0.0
  0
VERTEX
  5
9E3
330
9D1
100
AcDbEntity
  8
LAYER_1
 62
     7
100
AcDbVertex
100
AcDb2dVertex
 10
31.88526418890893
 20
32.22729126384069
 30
0.0
  0
VERTEX
  5
9E4
330
9D1
100
AcDbEntity
  8
LAYER_1
 62
     7
100
AcDbVertex
100
AcDb2dVertex
 10
32.63767318890894
 20
32.20972126384068
 30
0.0
  0
SEQEND
  5
9E5
330
9D1
100
AcDbEntity
  8
LAYER_1
 62
     7
  0
POLYLINE
  5
9E6
330
1F
100
AcDbEntity
  8
LAYER_1
 62
     7
100
AcDb2dPolyline
 66
     1
 10
0.0
 20
0.0
 30
0.0
  0
VERTEX
  5
9E7
330
9E6
100
AcDbEntity
  8
LAYER_1
 62
     7
100
AcDbVertex
100
AcDb2dVertex
 10
47.58645918890893
 20
32.19180726384069
 30
0.0
  0
VERTEX
  5
9E8
330
9E6
100
AcDbEntity
  8
LAYER_1
 62
     7
100
AcDbVertex
100
AcDb2dVertex
 10
48.33835118890893
 20
32.22729126384069
 30
0.0
  0
VERTEX
  5
9E9
330
9E6
100
AcDbEntity
  8
LAYER_1
 62
     7
100
AcDbVertex
100
AcDb2dVertex
 10
48.71403918890893
 20
32.26346526384067
 30
0.0
  0
VERTEX
  5
9EA
330
9E6
100
AcDbEntity
  8
LAYER_1
 62
     7
100
AcDbVertex
100
AcDb2dVertex
 10
49.09076018890893
 20
32.31686426384069
 30
0.0
  0
VERTEX
  5
9EB
330
9E6
100
AcDbEntity
  8
LAYER_1
 62
     7
100
AcDbVertex
100
AcDb2dVertex
 10
49.46644818890893
 20
32.40643626384069
 30
0.0
  0
VERTEX
  5
9EC
330
9E6
100
AcDbEntity
  8
LAYER_1
 62
     7
100
AcDbVertex
100
AcDb2dVertex
 10
49.82439318890893
 20
32.51426826384068
 30
0.0
  0
VERTEX
  5
9ED
330
9E6
100
AcDbEntity
  8
LAYER_1
 62
     7
100
AcDbVertex
100
AcDb2dVertex
 10
49.98562418890894
 20
32.60349626384068
 30
0.0
  0
VERTEX
  5
9EE
330
9E6
100
AcDbEntity
  8
LAYER_1
 62
     7
100
AcDbVertex
100
AcDb2dVertex
 10
50.14668218890893
 20
32.69306826384069
 30
0.0
  0
VERTEX
  5
9EF
330
9E6
100
AcDbEntity
  8
LAYER_1
 62
     7
100
AcDbVertex
100
AcDb2dVertex
 10
50.30791218890893
 20
32.80090026384069
 30
0.0
  0
VERTEX
  5
9F0
330
9E6
100
AcDbEntity
  8
LAYER_1
 62
     7
100
AcDbVertex
100
AcDb2dVertex
 10
50.45122818890893
 20
32.92561226384069
 30
0.0
  0
VERTEX
  5
9F1
330
9E6
100
AcDbEntity
  8
LAYER_1
 62
     7
100
AcDbVertex
100
AcDb2dVertex
 10
50.57628518890894
 20
33.06892826384068
 30
0.0
  0
VERTEX
  5
9F2
330
9E6
100
AcDbEntity
  8
LAYER_1
 62
     7
100
AcDbVertex
100
AcDb2dVertex
 10
50.68360018890893
 20
33.23015826384068
 30
0.0
  0
VERTEX
  5
9F3
330
9E6
100
AcDbEntity
  8
LAYER_1
 62
     7
100
AcDbVertex
100
AcDb2dVertex
 10
50.77351718890893
 20
33.39104426384068
 30
0.0
  0
VERTEX
  5
9F4
330
9E6
100
AcDbEntity
  8
LAYER_1
 62
     7
100
AcDbVertex
100
AcDb2dVertex
 10
50.86308918890892
 20
33.57018926384069
 30
0.0
  0
VERTEX
  5
9F5
330
9E6
100
AcDbEntity
  8
LAYER_1
 62
     7
100
AcDbVertex
100
AcDb2dVertex
 10
50.98814618890894
 20
33.92813526384069
 30
0.0
  0
VERTEX
  5
9F6
330
9E6
100
AcDbEntity
  8
LAYER_1
 62
     7
100
AcDbVertex
100
AcDb2dVertex
 10
51.05980418890894
 20
34.28642526384069
 30
0.0
  0
VERTEX
  5
9F7
330
9E6
100
AcDbEntity
  8
LAYER_1
 62
     7
100
AcDbVertex
100
AcDb2dVertex
 10
51.11372018890893
 20
34.66262926384068
 30
0.0
  0
VERTEX
  5
9F8
330
9E6
100
AcDbEntity
  8
LAYER_1
 62
     7
100
AcDbVertex
100
AcDb2dVertex
 10
51.14920518890894
 20
35.03848926384069
 30
0.0
  0
VERTEX
  5
9F9
330
9E6
100
AcDbEntity
  8
LAYER_1
 62
     7
100
AcDbVertex
100
AcDb2dVertex
 10
51.18486118890893
 20
35.80846826384068
 30
0.0
  0
SEQEND
  5
9FA
330
9E6
100
AcDbEntity
  8
LAYER_1
 62
     7
  0
POLYLINE
  5
9FB
330
1F
100
AcDbEntity
  8
LAYER_1
 62
     7
100
AcDb2dPolyline
 66
     1
 10
0.0
 20
0.0
 30
0.0
  0
VERTEX
  5
9FC
330
9FB
100
AcDbEntity
  8
LAYER_1
 62
     7
100
AcDbVertex
100
AcDb2dVertex
 10
51.16711918890892
 20
49.66533126384068
 30
0.0
  0
VERTEX
  5
9FD
330
9FB
100
AcDbEntity
  8
LAYER_1
 62
     7
100
AcDbVertex
100
AcDb2dVertex
 10
51.13146218890893
 20
50.41774026384067
 30
0.0
  0
VERTEX
  5
9FE
330
9FB
100
AcDbEntity
  8
LAYER_1
 62
     7
100
AcDbVertex
100
AcDb2dVertex
 10
51.09580618890894
 20
50.79325526384067
 30
0.0
  0
VERTEX
  5
9FF
330
9FB
100
AcDbEntity
  8
LAYER_1
 62
     7
100
AcDbVertex
100
AcDb2dVertex
 10
51.04154518890894
 20
51.16911526384068
 30
0.0
  0
VERTEX
  5
A00
330
9FB
100
AcDbEntity
  8
LAYER_1
 62
     7
100
AcDbVertex
100
AcDb2dVertex
 10
50.97023218890893
 20
51.54463126384069
 30
0.0
  0
VERTEX
  5
A01
330
9FB
100
AcDbEntity
  8
LAYER_1
 62
     7
100
AcDbVertex
100
AcDb2dVertex
 10
50.84483018890893
 20
51.90361026384069
 30
0.0
  0
VERTEX
  5
A02
330
9FB
100
AcDbEntity
  8
LAYER_1
 62
     7
100
AcDbVertex
100
AcDb2dVertex
 10
50.75525818890893
 20
52.08206526384067
 30
0.0
  0
VERTEX
  5
A03
330
9FB
100
AcDbEntity
  8
LAYER_1
 62
     7
100
AcDbVertex
100
AcDb2dVertex
 10
50.66585818890893
 20
52.24329626384068
 30
0.0
  0
VERTEX
  5
A04
330
9FB
100
AcDbEntity
  8
LAYER_1
 62
     7
100
AcDbVertex
100
AcDb2dVertex
 10
50.55854318890894
 20
52.38661226384069
 30
0.0
  0
VERTEX
  5
A05
330
9FB
100
AcDbEntity
  8
LAYER_1
 62
     7
100
AcDbVertex
100
AcDb2dVertex
 10
50.43348618890894
 20
52.52958326384067
 30
0.0
  0
VERTEX
  5
A06
330
9FB
100
AcDbEntity
  8
LAYER_1
 62
     7
100
AcDbVertex
100
AcDb2dVertex
 10
50.28999818890893
 20
52.65498526384068
 30
0.0
  0
VERTEX
  5
A07
330
9FB
100
AcDbEntity
  8
LAYER_1
 62
     7
100
AcDbVertex
100
AcDb2dVertex
 10
50.12894018890893
 20
52.76281626384068
 30
0.0
  0
VERTEX
  5
A08
330
9FB
100
AcDbEntity
  8
LAYER_1
 62
     7
100
AcDbVertex
100
AcDb2dVertex
 10
49.96770918890893
 20
52.86995926384069
 30
0.0
  0
VERTEX
  5
A09
330
9FB
100
AcDbEntity
  8
LAYER_1
 62
     7
100
AcDbVertex
100
AcDb2dVertex
 10
49.78873618890894
 20
52.94161726384068
 30
0.0
  0
VERTEX
  5
A0A
330
9FB
100
AcDbEntity
  8
LAYER_1
 62
     7
100
AcDbVertex
100
AcDb2dVertex
 10
49.43044618890893
 20
53.06736326384069
 30
0.0
  0
VERTEX
  5
A0B
330
9FB
100
AcDbEntity
  8
LAYER_1
 62
     7
100
AcDbVertex
100
AcDb2dVertex
 10
49.07250118890893
 20
53.15624626384068
 30
0.0
  0
VERTEX
  5
A0C
330
9FB
100
AcDbEntity
  8
LAYER_1
 62
     7
100
AcDbVertex
100
AcDb2dVertex
 10
48.69629718890894
 20
53.21033426384068
 30
0.0
  0
VERTEX
  5
A0D
330
9FB
100
AcDbEntity
  8
LAYER_1
 62
     7
100
AcDbVertex
100
AcDb2dVertex
 10
48.32060918890893
 20
53.24616326384068
 30
0.0
  0
VERTEX
  5
A0E
330
9FB
100
AcDbEntity
  8
LAYER_1
 62
     7
100
AcDbVertex
100
AcDb2dVertex
 10
47.55080218890893
 20
53.26407826384067
 30
0.0
  0
SEQEND
  5
A0F
330
9FB
100
AcDbEntity
  8
LAYER_1
 62
     7
  0
POLYLINE
  5
A10
330
1F
100
AcDbEntity
  8
LAYER_1
 62
     7
100
AcDb2dPolyline
 66
     1
 10
0.0
 20
0.0
 30
0.0
  0
VERTEX
  5
A11
330
A10
100
AcDbEntity
  8
LAYER_1
 62
     7
100
AcDbVertex
100
AcDb2dVertex
 10
36.98796718890893
 20
57.16668226384069
 30
0.0
  0
VERTEX
  5
A12
330
A10
100
AcDbEntity
  8
LAYER_1
 62
     7
100
AcDbVertex
100
AcDb2dVertex
 10
37.38156918890893
 20
57.14876726384068
 30
0.0
  0
VERTEX
  5
A13
330
A10
100
AcDbEntity
  8
LAYER_1
 62
     7
100
AcDbVertex
100
AcDb2dVertex
 10
37.77551618890893
 20
57.13085326384067
 30
0.0
  0
VERTEX
  5
A14
330
A10
100
AcDbEntity
  8
LAYER_1
 62
     7
100
AcDbVertex
100
AcDb2dVertex
 10
38.16946318890893
 20
57.07745426384068
 30
0.0
  0
VERTEX
  5
A15
330
A10
100
AcDbEntity
  8
LAYER_1
 62
     7
100
AcDbVertex
100
AcDb2dVertex
 10
38.56306518890893
 20
57.00545126384068
 30
0.0
  0
VERTEX
  5
A16
330
A10
100
AcDbEntity
  8
LAYER_1
 62
     7
100
AcDbVertex
100
AcDb2dVertex
 10
38.95752818890893
 20
56.93413826384068
 30
0.0
  0
VERTEX
  5
A17
330
A10
100
AcDbEntity
  8
LAYER_1
 62
     7
100
AcDbVertex
100
AcDb2dVertex
 10
39.35113118890894
 20
56.82630626384067
 30
0.0
  0
VERTEX
  5
A18
330
A10
100
AcDbEntity
  8
LAYER_1
 62
     7
100
AcDbVertex
100
AcDb2dVertex
 10
39.72681818890894
 20
56.70125026384069
 30
0.0
  0
VERTEX
  5
A19
330
A10
100
AcDbEntity
  8
LAYER_1
 62
     7
100
AcDbVertex
100
AcDb2dVertex
 10
40.08510818890893
 20
56.55793426384068
 30
0.0
  0
VERTEX
  5
A1A
330
A10
100
AcDbEntity
  8
LAYER_1
 62
     7
100
AcDbVertex
100
AcDb2dVertex
 10
40.46131318890893
 20
56.39670326384067
 30
0.0
  0
VERTEX
  5
A1B
330
A10
100
AcDbEntity
  8
LAYER_1
 62
     7
100
AcDbVertex
100
AcDb2dVertex
 10
40.81925818890893
 20
56.21790326384068
 30
0.0
  0
VERTEX
  5
A1C
330
A10
100
AcDbEntity
  8
LAYER_1
 62
     7
100
AcDbVertex
100
AcDb2dVertex
 10
41.15946118890893
 20
56.02118826384068
 30
0.0
  0
VERTEX
  5
A1D
330
A10
100
AcDbEntity
  8
LAYER_1
 62
     7
100
AcDbVertex
100
AcDb2dVertex
 10
41.49949218890893
 20
55.82378426384067
 30
0.0
  0
VERTEX
  5
A1E
330
A10
100
AcDbEntity
  8
LAYER_1
 62
     7
100
AcDbVertex
100
AcDb2dVertex
 10
41.82178118890893
 20
55.59158426384069
 30
0.0
  0
VERTEX
  5
A1F
330
A10
100
AcDbEntity
  8
LAYER_1
 62
     7
100
AcDbVertex
100
AcDb2dVertex
 10
42.14406918890893
 20
55.34043726384068
 30
0.0
  0
VERTEX
  5
A20
330
A10
100
AcDbEntity
  8
LAYER_1
 62
     7
100
AcDbVertex
100
AcDb2dVertex
 10
42.44861618890893
 20
55.09032326384069
 30
0.0
  0
VERTEX
  5
A21
330
A10
100
AcDbEntity
  8
LAYER_1
 62
     7
100
AcDbVertex
100
AcDb2dVertex
 10
42.73490318890893
 20
54.82126126384068
 30
0.0
  0
VERTEX
  5
A22
330
A10
100
AcDbEntity
  8
LAYER_1
 62
     7
100
AcDbVertex
100
AcDb2dVertex
 10
43.14676418890893
 20
54.46331526384068
 30
0.0
  0
VERTEX
  5
A23
330
A10
100
AcDbEntity
  8
LAYER_1
 62
     7
100
AcDbVertex
100
AcDb2dVertex
 10
43.57585118890892
 20
54.15876926384068
 30
0.0
  0
VERTEX
  5
A24
330
A10
100
AcDbEntity
  8
LAYER_1
 62
     7
100
AcDbVertex
100
AcDb2dVertex
 10
44.02371418890893
 20
53.89039626384068
 30
0.0
  0
VERTEX
  5
A25
330
A10
100
AcDbEntity
  8
LAYER_1
 62
     7
100
AcDbVertex
100
AcDb2dVertex
 10
44.50723318890893
 20
53.65750826384068
 30
0.0
  0
VERTEX
  5
A26
330
A10
100
AcDbEntity
  8
LAYER_1
 62
     7
100
AcDbVertex
100
AcDb2dVertex
 10
45.00849418890893
 20
53.47870726384067
 30
0.0
  0
VERTEX
  5
A27
330
A10
100
AcDbEntity
  8
LAYER_1
 62
     7
100
AcDbVertex
100
AcDb2dVertex
 10
45.52749818890894
 20
53.35365026384069
 30
0.0
  0
VERTEX
  5
A28
330
A10
100
AcDbEntity
  8
LAYER_1
 62
     7
100
AcDbVertex
100
AcDb2dVertex
 10
46.06493318890893
 20
53.28199226384068
 30
0.0
  0
VERTEX
  5
A29
330
A10
100
AcDbEntity
  8
LAYER_1
 62
     7
100
AcDbVertex
100
AcDb2dVertex
 10
46.58445318890893
 20
53.26407826384067
 30
0.0
  0
VERTEX
  5
A2A
330
A10
100
AcDbEntity
  8
LAYER_1
 62
     7
100
AcDbVertex
100
AcDb2dVertex
 10
47.55080218890893
 20
53.26407826384067
 30
0.0
  0
SEQEND
  5
A2B
330
A10
100
AcDbEntity
  8
LAYER_1
 62
     7
  0
POLYLINE
  5
A2C
330
1F
100
AcDbEntity
  8
LAYER_1
 62
     7
100
AcDb2dPolyline
 66
     1
 10
0.0
 20
0.0
 30
0.0
  0
VERTEX
  5
A2D
330
A2C
100
AcDbEntity
  8
LAYER_1
 62
     7
100
AcDbVertex
100
AcDb2dVertex
 10
51.18486118890893
 20
35.80846826384068
 30
0.0
  0
VERTEX
  5
A2E
330
A2C
100
AcDbEntity
  8
LAYER_1
 62
     7
100
AcDbVertex
100
AcDb2dVertex
 10
51.16711918890892
 20
49.25329826384069
 30
0.0
  0
VERTEX
  5
A2F
330
A2C
100
AcDbEntity
  8
LAYER_1
 62
     7
100
AcDbVertex
100
AcDb2dVertex
 10
51.16711918890892
 20
49.66533126384068
 30
0.0
  0
SEQEND
  5
A30
330
A2C
100
AcDbEntity
  8
LAYER_1
 62
     7
  0
LINE
  5
A31
330
1F
100
AcDbEntity
  8
LAYER_1
 62
     7
100
AcDbLine
 10
29.03892618890894
 20
35.80846826384068
 30
0.0
 11
29.07441118890893
 21
49.25329826384069
 31
0.0
  0
LINE
  5
A32
330
1F
100
AcDbEntity
  8
LAYER_1
 62
     7
100
AcDbLine
 10
47.58645918890893
 20
32.19180726384069
 30
0.0
 11
32.63767318890894
 21
32.20972126384068
 31
0.0
  0
POLYLINE
  5
A33
330
1F
100
AcDbEntity
  8
LAYER_1
 62
     7
100
AcDb2dPolyline
 66
     1
 10
0.0
 20
0.0
 30
0.0
  0
VERTEX
  5
A34
330
A33
100
AcDbEntity
  8
LAYER_1
 62
     7
100
AcDbVertex
100
AcDb2dVertex
 10
79.07824918890894
 20
35.80846826384068
 30
0.0
  0
VERTEX
  5
A35
330
A33
100
AcDbEntity
  8
LAYER_1
 62
     7
100
AcDbVertex
100
AcDb2dVertex
 10
79.06033518890893
 20
35.05605926384068
 30
0.0
  0
VERTEX
  5
A36
330
A33
100
AcDbEntity
  8
LAYER_1
 62
     7
100
AcDbVertex
100
AcDb2dVertex
 10
79.02485018890894
 20
34.68054426384069
 30
0.0
  0
VERTEX
  5
A37
330
A33
100
AcDbEntity
  8
LAYER_1
 62
     7
100
AcDbVertex
100
AcDb2dVertex
 10
78.97093418890893
 20
34.30468426384069
 30
0.0
  0
VERTEX
  5
A38
330
A33
100
AcDbEntity
  8
LAYER_1
 62
     7
100
AcDbVertex
100
AcDb2dVertex
 10
78.88136218890894
 20
33.92813526384069
 30
0.0
  0
VERTEX
  5
A39
330
A33
100
AcDbEntity
  8
LAYER_1
 62
     7
100
AcDbVertex
100
AcDb2dVertex
 10
78.75596018890893
 20
33.57018926384069
 30
0.0
  0
VERTEX
  5
A3A
330
A33
100
AcDbEntity
  8
LAYER_1
 62
     7
100
AcDbVertex
100
AcDb2dVertex
 10
78.68464718890892
 20
33.40895926384069
 30
0.0
  0
VERTEX
  5
A3B
330
A33
100
AcDbEntity
  8
LAYER_1
 62
     7
100
AcDbVertex
100
AcDb2dVertex
 10
78.57698818890894
 20
33.23015826384068
 30
0.0
  0
VERTEX
  5
A3C
330
A33
100
AcDbEntity
  8
LAYER_1
 62
     7
100
AcDbVertex
100
AcDb2dVertex
 10
78.46967318890893
 20
33.08649826384068
 30
0.0
  0
VERTEX
  5
A3D
330
A33
100
AcDbEntity
  8
LAYER_1
 62
     7
100
AcDbVertex
100
AcDb2dVertex
 10
78.34461618890893
 20
32.94318226384068
 30
0.0
  0
VERTEX
  5
A3E
330
A33
100
AcDbEntity
  8
LAYER_1
 62
     7
100
AcDbVertex
100
AcDb2dVertex
 10
78.20112818890894
 20
32.81812526384069
 30
0.0
  0
VERTEX
  5
A3F
330
A33
100
AcDbEntity
  8
LAYER_1
 62
     7
100
AcDbVertex
100
AcDb2dVertex
 10
78.05781218890894
 20
32.71098326384069
 30
0.0
  0
VERTEX
  5
A40
330
A33
100
AcDbEntity
  8
LAYER_1
 62
     7
100
AcDbVertex
100
AcDb2dVertex
 10
77.87883918890894
 20
32.60349626384068
 30
0.0
  0
VERTEX
  5
A41
330
A33
100
AcDbEntity
  8
LAYER_1
 62
     7
100
AcDbVertex
100
AcDb2dVertex
 10
77.71778118890892
 20
32.53183826384069
 30
0.0
  0
VERTEX
  5
A42
330
A33
100
AcDbEntity
  8
LAYER_1
 62
     7
100
AcDbVertex
100
AcDb2dVertex
 10
77.35983518890893
 20
32.40643626384069
 30
0.0
  0
VERTEX
  5
A43
330
A33
100
AcDbEntity
  8
LAYER_1
 62
     7
100
AcDbVertex
100
AcDb2dVertex
 10
76.98363118890893
 20
32.31686426384069
 30
0.0
  0
VERTEX
  5
A44
330
A33
100
AcDbEntity
  8
LAYER_1
 62
     7
100
AcDbVertex
100
AcDb2dVertex
 10
76.60742718890894
 20
32.26346526384067
 30
0.0
  0
VERTEX
  5
A45
330
A33
100
AcDbEntity
  8
LAYER_1
 62
     7
100
AcDbVertex
100
AcDb2dVertex
 10
76.23173918890893
 20
32.22729126384069
 30
0.0
  0
VERTEX
  5
A46
330
A33
100
AcDbEntity
  8
LAYER_1
 62
     7
100
AcDbVertex
100
AcDb2dVertex
 10
75.47933018890893
 20
32.20972126384068
 30
0.0
  0
SEQEND
  5
A47
330
A33
100
AcDbEntity
  8
LAYER_1
 62
     7
  0
POLYLINE
  5
A48
330
1F
100
AcDbEntity
  8
LAYER_1
 62
     7
100
AcDb2dPolyline
 66
     1
 10
0.0
 20
0.0
 30
0.0
  0
VERTEX
  5
A49
330
A48
100
AcDbEntity
  8
LAYER_1
 62
     7
100
AcDbVertex
100
AcDb2dVertex
 10
60.53054418890893
 20
32.19180726384069
 30
0.0
  0
VERTEX
  5
A4A
330
A48
100
AcDbEntity
  8
LAYER_1
 62
     7
100
AcDbVertex
100
AcDb2dVertex
 10
59.77865218890894
 20
32.22729126384069
 30
0.0
  0
VERTEX
  5
A4B
330
A48
100
AcDbEntity
  8
LAYER_1
 62
     7
100
AcDbVertex
100
AcDb2dVertex
 10
59.40296418890894
 20
32.26346526384067
 30
0.0
  0
VERTEX
  5
A4C
330
A48
100
AcDbEntity
  8
LAYER_1
 62
     7
100
AcDbVertex
100
AcDb2dVertex
 10
59.02624318890893
 20
32.31686426384069
 30
0.0
  0
VERTEX
  5
A4D
330
A48
100
AcDbEntity
  8
LAYER_1
 62
     7
100
AcDbVertex
100
AcDb2dVertex
 10
58.65055518890893
 20
32.40643626384069
 30
0.0
  0
VERTEX
  5
A4E
330
A48
100
AcDbEntity
  8
LAYER_1
 62
     7
100
AcDbVertex
100
AcDb2dVertex
 10
58.29261018890893
 20
32.51426826384068
 30
0.0
  0
VERTEX
  5
A4F
330
A48
100
AcDbEntity
  8
LAYER_1
 62
     7
100
AcDbVertex
100
AcDb2dVertex
 10
58.13155218890893
 20
32.60349626384068
 30
0.0
  0
VERTEX
  5
A50
330
A48
100
AcDbEntity
  8
LAYER_1
 62
     7
100
AcDbVertex
100
AcDb2dVertex
 10
57.97032118890893
 20
32.69306826384069
 30
0.0
  0
VERTEX
  5
A51
330
A48
100
AcDbEntity
  8
LAYER_1
 62
     7
100
AcDbVertex
100
AcDb2dVertex
 10
57.80926318890894
 20
32.80090026384069
 30
0.0
  0
VERTEX
  5
A52
330
A48
100
AcDbEntity
  8
LAYER_1
 62
     7
100
AcDbVertex
100
AcDb2dVertex
 10
57.66577518890894
 20
32.92561226384069
 30
0.0
  0
VERTEX
  5
A53
330
A48
100
AcDbEntity
  8
LAYER_1
 62
     7
100
AcDbVertex
100
AcDb2dVertex
 10
57.54071818890892
 20
33.06892826384068
 30
0.0
  0
VERTEX
  5
A54
330
A48
100
AcDbEntity
  8
LAYER_1
 62
     7
100
AcDbVertex
100
AcDb2dVertex
 10
57.43340318890894
 20
33.23015826384068
 30
0.0
  0
VERTEX
  5
A55
330
A48
100
AcDbEntity
  8
LAYER_1
 62
     7
100
AcDbVertex
100
AcDb2dVertex
 10
57.34348618890893
 20
33.39104426384068
 30
0.0
  0
VERTEX
  5
A56
330
A48
100
AcDbEntity
  8
LAYER_1
 62
     7
100
AcDbVertex
100
AcDb2dVertex
 10
57.25443018890892
 20
33.57018926384069
 30
0.0
  0
VERTEX
  5
A57
330
A48
100
AcDbEntity
  8
LAYER_1
 62
     7
100
AcDbVertex
100
AcDb2dVertex
 10
57.12902918890893
 20
33.92813526384069
 30
0.0
  0
VERTEX
  5
A58
330
A48
100
AcDbEntity
  8
LAYER_1
 62
     7
100
AcDbVertex
100
AcDb2dVertex
 10
57.05771618890892
 20
34.28642526384069
 30
0.0
  0
VERTEX
  5
A59
330
A48
100
AcDbEntity
  8
LAYER_1
 62
     7
100
AcDbVertex
100
AcDb2dVertex
 10
56.98554118890893
 20
34.66262926384068
 30
0.0
  0
VERTEX
  5
A5A
330
A48
100
AcDbEntity
  8
LAYER_1
 62
     7
100
AcDbVertex
100
AcDb2dVertex
 10
56.96779918890893
 20
35.03848926384069
 30
0.0
  0
VERTEX
  5
A5B
330
A48
100
AcDbEntity
  8
LAYER_1
 62
     7
100
AcDbVertex
100
AcDb2dVertex
 10
56.93214218890893
 20
35.80846826384068
 30
0.0
  0
SEQEND
  5
A5C
330
A48
100
AcDbEntity
  8
LAYER_1
 62
     7
  0
POLYLINE
  5
A5D
330
1F
100
AcDbEntity
  8
LAYER_1
 62
     7
100
AcDb2dPolyline
 66
     1
 10
0.0
 20
0.0
 30
0.0
  0
VERTEX
  5
A5E
330
A5D
100
AcDbEntity
  8
LAYER_1
 62
     7
100
AcDbVertex
100
AcDb2dVertex
 10
56.95005618890893
 20
49.66533126384068
 30
0.0
  0
VERTEX
  5
A5F
330
A5D
100
AcDbEntity
  8
LAYER_1
 62
     7
100
AcDbVertex
100
AcDb2dVertex
 10
56.98554118890893
 20
50.41774026384067
 30
0.0
  0
VERTEX
  5
A60
330
A5D
100
AcDbEntity
  8
LAYER_1
 62
     7
100
AcDbVertex
100
AcDb2dVertex
 10
57.02119818890893
 20
50.79325526384067
 30
0.0
  0
VERTEX
  5
A61
330
A5D
100
AcDbEntity
  8
LAYER_1
 62
     7
100
AcDbVertex
100
AcDb2dVertex
 10
57.07511318890894
 20
51.16911526384068
 30
0.0
  0
VERTEX
  5
A62
330
A5D
100
AcDbEntity
  8
LAYER_1
 62
     7
100
AcDbVertex
100
AcDb2dVertex
 10
57.14677118890893
 20
51.54463126384069
 30
0.0
  0
VERTEX
  5
A63
330
A5D
100
AcDbEntity
  8
LAYER_1
 62
     7
100
AcDbVertex
100
AcDb2dVertex
 10
57.27234518890893
 20
51.90361026384069
 30
0.0
  0
VERTEX
  5
A64
330
A5D
100
AcDbEntity
  8
LAYER_1
 62
     7
100
AcDbVertex
100
AcDb2dVertex
 10
57.36174518890893
 20
52.08206526384067
 30
0.0
  0
VERTEX
  5
A65
330
A5D
100
AcDbEntity
  8
LAYER_1
 62
     7
100
AcDbVertex
100
AcDb2dVertex
 10
57.45131818890893
 20
52.24329626384068
 30
0.0
  0
VERTEX
  5
A66
330
A5D
100
AcDbEntity
  8
LAYER_1
 62
     7
100
AcDbVertex
100
AcDb2dVertex
 10
57.55846018890893
 20
52.38661226384069
 30
0.0
  0
VERTEX
  5
A67
330
A5D
100
AcDbEntity
  8
LAYER_1
 62
     7
100
AcDbVertex
100
AcDb2dVertex
 10
57.68368918890893
 20
52.52958326384067
 30
0.0
  0
VERTEX
  5
A68
330
A5D
100
AcDbEntity
  8
LAYER_1
 62
     7
100
AcDbVertex
100
AcDb2dVertex
 10
57.82700518890893
 20
52.65498526384068
 30
0.0
  0
VERTEX
  5
A69
330
A5D
100
AcDbEntity
  8
LAYER_1
 62
     7
100
AcDbVertex
100
AcDb2dVertex
 10
57.98806418890894
 20
52.76281626384068
 30
0.0
  0
VERTEX
  5
A6A
330
A5D
100
AcDbEntity
  8
LAYER_1
 62
     7
100
AcDbVertex
100
AcDb2dVertex
 10
58.14981118890893
 20
52.86995926384069
 30
0.0
  0
VERTEX
  5
A6B
330
A5D
100
AcDbEntity
  8
LAYER_1
 62
     7
100
AcDbVertex
100
AcDb2dVertex
 10
58.32826718890893
 20
52.94161726384068
 30
0.0
  0
VERTEX
  5
A6C
330
A5D
100
AcDbEntity
  8
LAYER_1
 62
     7
100
AcDbVertex
100
AcDb2dVertex
 10
58.68621218890893
 20
53.06736326384069
 30
0.0
  0
VERTEX
  5
A6D
330
A5D
100
AcDbEntity
  8
LAYER_1
 62
     7
100
AcDbVertex
100
AcDb2dVertex
 10
59.04450218890893
 20
53.15624626384068
 30
0.0
  0
VERTEX
  5
A6E
330
A5D
100
AcDbEntity
  8
LAYER_1
 62
     7
100
AcDbVertex
100
AcDb2dVertex
 10
59.42070718890892
 20
53.21033426384068
 30
0.0
  0
VERTEX
  5
A6F
330
A5D
100
AcDbEntity
  8
LAYER_1
 62
     7
100
AcDbVertex
100
AcDb2dVertex
 10
59.79639418890893
 20
53.24616326384068
 30
0.0
  0
VERTEX
  5
A70
330
A5D
100
AcDbEntity
  8
LAYER_1
 62
     7
100
AcDbVertex
100
AcDb2dVertex
 10
60.56671818890893
 20
53.26407826384067
 30
0.0
  0
SEQEND
  5
A71
330
A5D
100
AcDbEntity
  8
LAYER_1
 62
     7
  0
POLYLINE
  5
AEE
330
1F
100
AcDbEntity
  8
LAYER_1
 62
     7
100
AcDb2dPolyline
 66
     1
 10
0.0
 20
0.0
 30
0.0
  0
VERTEX
  5
AEF
330
AEE
100
AcDbEntity
  8
LAYER_1
 62
     7
100
AcDbVertex
100
AcDb2dVertex
 10
61.51532518890894
 20
54.15876926384068
 30
0.0
  0
VERTEX
  5
AF0
330
AEE
100
AcDbEntity
  8
LAYER_1
 62
     7
100
AcDbVertex
100
AcDb2dVertex
 10
62.12390118890894
 20
54.19459826384069
 30
0.0
  0
VERTEX
  5
AF1
330
AEE
100
AcDbEntity
  8
LAYER_1
 62
     7
100
AcDbVertex
100
AcDb2dVertex
 10
62.69682018890893
 20
54.30208526384068
 30
0.0
  0
VERTEX
  5
AF2
330
AEE
100
AcDbEntity
  8
LAYER_1
 62
     7
100
AcDbVertex
100
AcDb2dVertex
 10
63.25199718890893
 20
54.49914426384068
 30
0.0
  0
VERTEX
  5
AF3
330
AEE
100
AcDbEntity
  8
LAYER_1
 62
     7
100
AcDbVertex
100
AcDb2dVertex
 10
63.78891518890894
 20
54.74994726384068
 30
0.0
  0
VERTEX
  5
AF4
330
AEE
100
AcDbEntity
  8
LAYER_1
 62
     7
100
AcDbVertex
100
AcDb2dVertex
 10
64.29017718890893
 20
55.09032326384069
 30
0.0
  0
VERTEX
  5
AF5
330
AEE
100
AcDbEntity
  8
LAYER_1
 62
     7
100
AcDbVertex
100
AcDb2dVertex
 10
64.73803918890894
 20
55.46583826384068
 30
0.0
  0
SEQEND
  5
AF6
330
AEE
100
AcDbEntity
  8
LAYER_1
 62
     7
  0
POLYLINE
  5
AF7
330
1F
100
AcDbEntity
  8
LAYER_1
 62
     7
100
AcDb2dPolyline
 66
     1
 10
0.0
 20
0.0
 30
0.0
  0
VERTEX
  5
AF8
330
AF7
100
AcDbEntity
  8
LAYER_1
 62
     7
100
AcDbVertex
100
AcDb2dVertex
 10
79.95571518890894
 20
49.25329826384069
 30
0.0
  0
VERTEX
  5
AF9
330
AF7
100
AcDbEntity
  8
LAYER_1
 62
     7
100
AcDbVertex
100
AcDb2dVertex
 10
79.91954118890892
 20
50.02327626384069
 30
0.0
  0
VERTEX
  5
AFA
330
AF7
100
AcDbEntity
  8
LAYER_1
 62
     7
100
AcDbVertex
100
AcDb2dVertex
 10
79.83065818890892
 20
50.77568526384069
 30
0.0
  0
VERTEX
  5
AFB
330
AF7
100
AcDbEntity
  8
LAYER_1
 62
     7
100
AcDbVertex
100
AcDb2dVertex
 10
79.65116918890892
 20
51.52706126384067
 30
0.0
  0
VERTEX
  5
AFC
330
AF7
100
AcDbEntity
  8
LAYER_1
 62
     7
100
AcDbVertex
100
AcDb2dVertex
 10
79.41828018890892
 20
52.26155526384068
 30
0.0
  0
VERTEX
  5
AFD
330
AF7
100
AcDbEntity
  8
LAYER_1
 62
     7
100
AcDbVertex
100
AcDb2dVertex
 10
79.13199318890893
 20
52.97744626384067
 30
0.0
  0
VERTEX
  5
AFE
330
AF7
100
AcDbEntity
  8
LAYER_1
 62
     7
100
AcDbVertex
100
AcDb2dVertex
 10
78.77370318890894
 20
53.65750826384068
 30
0.0
  0
VERTEX
  5
AFF
330
AF7
100
AcDbEntity
  8
LAYER_1
 62
     7
100
AcDbVertex
100
AcDb2dVertex
 10
78.36235818890893
 20
54.32000026384068
 30
0.0
  0
VERTEX
  5
B00
330
AF7
100
AcDbEntity
  8
LAYER_1
 62
     7
100
AcDbVertex
100
AcDb2dVertex
 10
77.89675418890893
 20
54.92909226384067
 30
0.0
  0
VERTEX
  5
B01
330
AF7
100
AcDbEntity
  8
LAYER_1
 62
     7
100
AcDbVertex
100
AcDb2dVertex
 10
77.37757818890894
 20
55.48375326384068
 30
0.0
  0
VERTEX
  5
B02
330
AF7
100
AcDbEntity
  8
LAYER_1
 62
     7
100
AcDbVertex
100
AcDb2dVertex
 10
76.80465818890893
 20
56.00292926384068
 30
0.0
  0
VERTEX
  5
B03
330
AF7
100
AcDbEntity
  8
LAYER_1
 62
     7
100
AcDbVertex
100
AcDb2dVertex
 10
76.19556518890894
 20
56.48627626384069
 30
0.0
  0
VERTEX
  5
B04
330
AF7
100
AcDbEntity
  8
LAYER_1
 62
     7
100
AcDbVertex
100
AcDb2dVertex
 10
75.55150518890894
 20
56.89865326384067
 30
0.0
  0
VERTEX
  5
B05
330
AF7
100
AcDbEntity
  8
LAYER_1
 62
     7
100
AcDbVertex
100
AcDb2dVertex
 10
74.85335618890893
 20
57.25659926384068
 30
0.0
  0
VERTEX
  5
B06
330
AF7
100
AcDbEntity
  8
LAYER_1
 62
     7
100
AcDbVertex
100
AcDb2dVertex
 10
74.15486318890893
 20
57.54219726384068
 30
0.0
  0
VERTEX
  5
B07
330
AF7
100
AcDbEntity
  8
LAYER_1
 62
     7
100
AcDbVertex
100
AcDb2dVertex
 10
73.42088618890894
 20
57.77543026384067
 30
0.0
  0
VERTEX
  5
B08
330
AF7
100
AcDbEntity
  8
LAYER_1
 62
     7
100
AcDbVertex
100
AcDb2dVertex
 10
72.66847718890893
 20
57.93666126384069
 30
0.0
  0
VERTEX
  5
B09
330
AF7
100
AcDbEntity
  8
LAYER_1
 62
     7
100
AcDbVertex
100
AcDb2dVertex
 10
71.89918718890893
 20
58.04414826384068
 30
0.0
  0
VERTEX
  5
B0A
330
AF7
100
AcDbEntity
  8
LAYER_1
 62
     7
100
AcDbVertex
100
AcDb2dVertex
 10
71.12903618890894
 20
58.07997726384067
 30
0.0
  0
VERTEX
  5
B0B
330
AF7
100
AcDbEntity
  8
LAYER_1
 62
     7
100
AcDbVertex
100
AcDb2dVertex
 10
70.34148718890893
 20
58.04414826384068
 30
0.0
  0
VERTEX
  5
B0C
330
AF7
100
AcDbEntity
  8
LAYER_1
 62
     7
100
AcDbVertex
100
AcDb2dVertex
 10
69.57185318890893
 20
57.93666126384069
 30
0.0
  0
VERTEX
  5
B0D
330
AF7
100
AcDbEntity
  8
LAYER_1
 62
     7
100
AcDbVertex
100
AcDb2dVertex
 10
68.80152918890892
 20
57.77543026384067
 30
0.0
  0
VERTEX
  5
B0E
330
AF7
100
AcDbEntity
  8
LAYER_1
 62
     7
100
AcDbVertex
100
AcDb2dVertex
 10
68.04963718890893
 20
57.54219726384068
 30
0.0
  0
VERTEX
  5
B0F
330
AF7
100
AcDbEntity
  8
LAYER_1
 62
     7
100
AcDbVertex
100
AcDb2dVertex
 10
67.31566018890894
 20
57.23868426384068
 30
0.0
  0
VERTEX
  5
B10
330
AF7
100
AcDbEntity
  8
LAYER_1
 62
     7
100
AcDbVertex
100
AcDb2dVertex
 10
66.61751118890894
 20
56.88073926384068
 30
0.0
  0
VERTEX
  5
B11
330
AF7
100
AcDbEntity
  8
LAYER_1
 62
     7
100
AcDbVertex
100
AcDb2dVertex
 10
65.95519118890893
 20
56.46836126384069
 30
0.0
  0
VERTEX
  5
B12
330
AF7
100
AcDbEntity
  8
LAYER_1
 62
     7
100
AcDbVertex
100
AcDb2dVertex
 10
65.32870118890894
 20
56.00292926384068
 30
0.0
  0
VERTEX
  5
B13
330
AF7
100
AcDbEntity
  8
LAYER_1
 62
     7
100
AcDbVertex
100
AcDb2dVertex
 10
64.73803918890894
 20
55.46583826384068
 30
0.0
  0
SEQEND
  5
B14
330
AF7
100
AcDbEntity
  8
LAYER_1
 62
     7
  0
POLYLINE
  5
B15
330
1F
100
AcDbEntity
  8
LAYER_1
 62
     7
100
AcDb2dPolyline
 66
     1
 10
0.0
 20
0.0
 30
0.0
  0
VERTEX
  5
B16
330
B15
100
AcDbEntity
  8
LAYER_1
 62
     7
100
AcDbVertex
100
AcDb2dVertex
 10
43.37948118890893
 20
55.46583826384068
 30
0.0
  0
VERTEX
  5
B17
330
B15
100
AcDbEntity
  8
LAYER_1
 62
     7
100
AcDbVertex
100
AcDb2dVertex
 10
42.78881918890893
 20
56.00292926384068
 30
0.0
  0
VERTEX
  5
B18
330
B15
100
AcDbEntity
  8
LAYER_1
 62
     7
100
AcDbVertex
100
AcDb2dVertex
 10
42.16198418890892
 20
56.46836126384069
 30
0.0
  0
VERTEX
  5
B19
330
B15
100
AcDbEntity
  8
LAYER_1
 62
     7
100
AcDbVertex
100
AcDb2dVertex
 10
41.49949218890893
 20
56.88073926384068
 30
0.0
  0
VERTEX
  5
B1A
330
B15
100
AcDbEntity
  8
LAYER_1
 62
     7
100
AcDbVertex
100
AcDb2dVertex
 10
40.80151618890893
 20
57.23868426384068
 30
0.0
  0
VERTEX
  5
B1B
330
B15
100
AcDbEntity
  8
LAYER_1
 62
     7
100
AcDbVertex
100
AcDb2dVertex
 10
40.06684918890893
 20
57.54219726384068
 30
0.0
  0
VERTEX
  5
B1C
330
B15
100
AcDbEntity
  8
LAYER_1
 62
     7
100
AcDbVertex
100
AcDb2dVertex
 10
39.31547418890894
 20
57.77543026384067
 30
0.0
  0
VERTEX
  5
B1D
330
B15
100
AcDbEntity
  8
LAYER_1
 62
     7
100
AcDbVertex
100
AcDb2dVertex
 10
38.54532318890893
 20
57.93666126384069
 30
0.0
  0
VERTEX
  5
B1E
330
B15
100
AcDbEntity
  8
LAYER_1
 62
     7
100
AcDbVertex
100
AcDb2dVertex
 10
37.77551618890893
 20
58.04414826384068
 30
0.0
  0
VERTEX
  5
B1F
330
B15
100
AcDbEntity
  8
LAYER_1
 62
     7
100
AcDbVertex
100
AcDb2dVertex
 10
36.98796718890893
 20
58.07997726384067
 30
0.0
  0
VERTEX
  5
B20
330
B15
100
AcDbEntity
  8
LAYER_1
 62
     7
100
AcDbVertex
100
AcDb2dVertex
 10
36.21781618890894
 20
58.04414826384068
 30
0.0
  0
VERTEX
  5
B21
330
B15
100
AcDbEntity
  8
LAYER_1
 62
     7
100
AcDbVertex
100
AcDb2dVertex
 10
35.44818218890893
 20
57.93666126384069
 30
0.0
  0
VERTEX
  5
B22
330
B15
100
AcDbEntity
  8
LAYER_1
 62
     7
100
AcDbVertex
100
AcDb2dVertex
 10
34.69629018890894
 20
57.77543026384067
 30
0.0
  0
VERTEX
  5
B23
330
B15
100
AcDbEntity
  8
LAYER_1
 62
     7
100
AcDbVertex
100
AcDb2dVertex
 10
33.96214018890893
 20
57.54219726384068
 30
0.0
  0
VERTEX
  5
B24
330
B15
100
AcDbEntity
  8
LAYER_1
 62
     7
100
AcDbVertex
100
AcDb2dVertex
 10
33.24573218890893
 20
57.25659926384068
 30
0.0
  0
VERTEX
  5
B25
330
B15
100
AcDbEntity
  8
LAYER_1
 62
     7
100
AcDbVertex
100
AcDb2dVertex
 10
32.56567018890893
 20
56.89865326384067
 30
0.0
  0
VERTEX
  5
B26
330
B15
100
AcDbEntity
  8
LAYER_1
 62
     7
100
AcDbVertex
100
AcDb2dVertex
 10
31.92092118890893
 20
56.48627626384069
 30
0.0
  0
VERTEX
  5
B27
330
B15
100
AcDbEntity
  8
LAYER_1
 62
     7
100
AcDbVertex
100
AcDb2dVertex
 10
31.31234518890893
 20
56.00292926384068
 30
0.0
  0
VERTEX
  5
B28
330
B15
100
AcDbEntity
  8
LAYER_1
 62
     7
100
AcDbVertex
100
AcDb2dVertex
 10
30.73942518890893
 20
55.48375326384068
 30
0.0
  0
VERTEX
  5
B29
330
B15
100
AcDbEntity
  8
LAYER_1
 62
     7
100
AcDbVertex
100
AcDb2dVertex
 10
30.22042218890894
 20
54.92909226384067
 30
0.0
  0
VERTEX
  5
B2A
330
B15
100
AcDbEntity
  8
LAYER_1
 62
     7
100
AcDbVertex
100
AcDb2dVertex
 10
29.75516218890894
 20
54.32000026384068
 30
0.0
  0
VERTEX
  5
B2B
330
B15
100
AcDbEntity
  8
LAYER_1
 62
     7
100
AcDbVertex
100
AcDb2dVertex
 10
29.34330018890893
 20
53.65750826384068
 30
0.0
  0
VERTEX
  5
B2C
330
B15
100
AcDbEntity
  8
LAYER_1
 62
     7
100
AcDbVertex
100
AcDb2dVertex
 10
28.98552718890893
 20
52.97744626384067
 30
0.0
  0
VERTEX
  5
B2D
330
B15
100
AcDbEntity
  8
LAYER_1
 62
     7
100
AcDbVertex
100
AcDb2dVertex
 10
28.68098118890893
 20
52.26155526384068
 30
0.0
  0
VERTEX
  5
B2E
330
B15
100
AcDbEntity
  8
LAYER_1
 62
     7
100
AcDbVertex
100
AcDb2dVertex
 10
28.46583518890894
 20
51.52706126384067
 30
0.0
  0
VERTEX
  5
B2F
330
B15
100
AcDbEntity
  8
LAYER_1
 62
     7
100
AcDbVertex
100
AcDb2dVertex
 10
28.28703418890894
 20
50.77568526384069
 30
0.0
  0
VERTEX
  5
B30
330
B15
100
AcDbEntity
  8
LAYER_1
 62
     7
100
AcDbVertex
100
AcDb2dVertex
 10
28.19746218890893
 20
50.02327626384069
 30
0.0
  0
VERTEX
  5
B31
330
B15
100
AcDbEntity
  8
LAYER_1
 62
     7
100
AcDbVertex
100
AcDb2dVertex
 10
28.16180518890893
 20
49.25329826384069
 30
0.0
  0
SEQEND
  5
B32
330
B15
100
AcDbEntity
  8
LAYER_1
 62
     7
  0
POLYLINE
  5
B33
330
1F
100
AcDbEntity
  8
LAYER_1
 62
     7
100
AcDb2dPolyline
 66
     1
 10
0.0
 20
0.0
 30
0.0
  0
VERTEX
  5
B34
330
B33
100
AcDbEntity
  8
LAYER_1
 62
     7
100
AcDbVertex
100
AcDb2dVertex
 10
43.37948118890893
 20
55.46583826384068
 30
0.0
  0
VERTEX
  5
B35
330
B33
100
AcDbEntity
  8
LAYER_1
 62
     7
100
AcDbVertex
100
AcDb2dVertex
 10
43.82699918890893
 20
55.09032326384069
 30
0.0
  0
VERTEX
  5
B36
330
B33
100
AcDbEntity
  8
LAYER_1
 62
     7
100
AcDbVertex
100
AcDb2dVertex
 10
44.32826018890893
 20
54.74994726384068
 30
0.0
  0
VERTEX
  5
B37
330
B33
100
AcDbEntity
  8
LAYER_1
 62
     7
100
AcDbVertex
100
AcDb2dVertex
 10
44.84726418890892
 20
54.49914426384068
 30
0.0
  0
VERTEX
  5
B38
330
B33
100
AcDbEntity
  8
LAYER_1
 62
     7
100
AcDbVertex
100
AcDb2dVertex
 10
45.42018318890892
 20
54.30208526384068
 30
0.0
  0
VERTEX
  5
B39
330
B33
100
AcDbEntity
  8
LAYER_1
 62
     7
100
AcDbVertex
100
AcDb2dVertex
 10
45.99310218890893
 20
54.19459826384069
 30
0.0
  0
VERTEX
  5
B3A
330
B33
100
AcDbEntity
  8
LAYER_1
 62
     7
100
AcDbVertex
100
AcDb2dVertex
 10
46.58445318890893
 20
54.15876926384068
 30
0.0
  0
SEQEND
  5
B3B
330
B33
100
AcDbEntity
  8
LAYER_1
 62
     7
  0
POLYLINE
  5
B3C
330
1F
100
AcDbEntity
  8
LAYER_1
 62
     7
100
AcDb2dPolyline
 66
     1
 10
0.0
 20
0.0
 30
0.0
  0
VERTEX
  5
B3D
330
B3C
100
AcDbEntity
  8
LAYER_1
 62
     7
100
AcDbVertex
100
AcDb2dVertex
 10
61.51532518890894
 20
55.23363926384068
 30
0.0
  0
VERTEX
  5
B3E
330
B3C
100
AcDbEntity
  8
LAYER_1
 62
     7
100
AcDbVertex
100
AcDb2dVertex
 10
62.06998518890893
 20
55.26912326384068
 30
0.0
  0
VERTEX
  5
B3F
330
B3C
100
AcDbEntity
  8
LAYER_1
 62
     7
100
AcDbVertex
100
AcDb2dVertex
 10
62.58950518890893
 20
55.39418026384068
 30
0.0
  0
VERTEX
  5
B40
330
B3C
100
AcDbEntity
  8
LAYER_1
 62
     7
100
AcDbVertex
100
AcDb2dVertex
 10
63.10868118890893
 20
55.60915426384068
 30
0.0
  0
VERTEX
  5
B41
330
B3C
100
AcDbEntity
  8
LAYER_1
 62
     7
100
AcDbVertex
100
AcDb2dVertex
 10
63.57428618890893
 20
55.89613126384069
 30
0.0
  0
VERTEX
  5
B42
330
B3C
100
AcDbEntity
  8
LAYER_1
 62
     7
100
AcDbVertex
100
AcDb2dVertex
 10
63.98614718890893
 20
56.23616226384068
 30
0.0
  0
SEQEND
  5
B43
330
B3C
100
AcDbEntity
  8
LAYER_1
 62
     7
  0
POLYLINE
  5
B44
330
1F
100
AcDbEntity
  8
LAYER_1
 62
     7
100
AcDb2dPolyline
 66
     1
 10
0.0
 20
0.0
 30
0.0
  0
VERTEX
  5
B45
330
B44
100
AcDbEntity
  8
LAYER_1
 62
     7
100
AcDbVertex
100
AcDb2dVertex
 10
81.02989618890893
 20
49.25329826384069
 30
0.0
  0
VERTEX
  5
B46
330
B44
100
AcDbEntity
  8
LAYER_1
 62
     7
100
AcDbVertex
100
AcDb2dVertex
 10
80.99423918890893
 20
50.05910526384067
 30
0.0
  0
VERTEX
  5
B47
330
B44
100
AcDbEntity
  8
LAYER_1
 62
     7
100
AcDbVertex
100
AcDb2dVertex
 10
80.90432218890894
 20
50.88282826384068
 30
0.0
  0
VERTEX
  5
B48
330
B44
100
AcDbEntity
  8
LAYER_1
 62
     7
100
AcDbVertex
100
AcDb2dVertex
 10
80.72534918890893
 20
51.67037726384068
 30
0.0
  0
VERTEX
  5
B49
330
B44
100
AcDbEntity
  8
LAYER_1
 62
     7
100
AcDbVertex
100
AcDb2dVertex
 10
80.49246118890893
 20
52.45827026384069
 30
0.0
  0
VERTEX
  5
B4A
330
B44
100
AcDbEntity
  8
LAYER_1
 62
     7
100
AcDbVertex
100
AcDb2dVertex
 10
80.20634618890893
 20
53.22859326384068
 30
0.0
  0
VERTEX
  5
B4B
330
B44
100
AcDbEntity
  8
LAYER_1
 62
     7
100
AcDbVertex
100
AcDb2dVertex
 10
79.84840018890894
 20
53.96205426384068
 30
0.0
  0
VERTEX
  5
B4C
330
B44
100
AcDbEntity
  8
LAYER_1
 62
     7
100
AcDbVertex
100
AcDb2dVertex
 10
79.41828018890892
 20
54.66003026384068
 30
0.0
  0
VERTEX
  5
B4D
330
B44
100
AcDbEntity
  8
LAYER_1
 62
     7
100
AcDbVertex
100
AcDb2dVertex
 10
78.95319218890893
 20
55.32252226384068
 30
0.0
  0
VERTEX
  5
B4E
330
B44
100
AcDbEntity
  8
LAYER_1
 62
     7
100
AcDbVertex
100
AcDb2dVertex
 10
78.41575718890893
 20
55.94953026384068
 30
0.0
  0
VERTEX
  5
B4F
330
B44
100
AcDbEntity
  8
LAYER_1
 62
     7
100
AcDbVertex
100
AcDb2dVertex
 10
77.84335518890893
 20
56.53967526384069
 30
0.0
  0
VERTEX
  5
B50
330
B44
100
AcDbEntity
  8
LAYER_1
 62
     7
100
AcDbVertex
100
AcDb2dVertex
 10
77.21652018890893
 20
57.05919526384068
 30
0.0
  0
VERTEX
  5
B51
330
B44
100
AcDbEntity
  8
LAYER_1
 62
     7
100
AcDbVertex
100
AcDb2dVertex
 10
76.55402818890895
 20
57.54219726384068
 30
0.0
  0
VERTEX
  5
B52
330
B44
100
AcDbEntity
  8
LAYER_1
 62
     7
100
AcDbVertex
100
AcDb2dVertex
 10
75.83779218890893
 20
57.95457526384068
 30
0.0
  0
VERTEX
  5
B53
330
B44
100
AcDbEntity
  8
LAYER_1
 62
     7
100
AcDbVertex
100
AcDb2dVertex
 10
75.10364218890892
 20
58.31252126384068
 30
0.0
  0
VERTEX
  5
B54
330
B44
100
AcDbEntity
  8
LAYER_1
 62
     7
100
AcDbVertex
100
AcDb2dVertex
 10
74.35209518890893
 20
58.61706726384068
 30
0.0
  0
VERTEX
  5
B55
330
B44
100
AcDbEntity
  8
LAYER_1
 62
     7
100
AcDbVertex
100
AcDb2dVertex
 10
73.56420218890893
 20
58.84926726384067
 30
0.0
  0
VERTEX
  5
B56
330
B44
100
AcDbEntity
  8
LAYER_1
 62
     7
100
AcDbVertex
100
AcDb2dVertex
 10
72.75839418890893
 20
59.01049726384069
 30
0.0
  0
VERTEX
  5
B57
330
B44
100
AcDbEntity
  8
LAYER_1
 62
     7
100
AcDbVertex
100
AcDb2dVertex
 10
71.95258618890894
 20
59.11832926384068
 30
0.0
  0
VERTEX
  5
B58
330
B44
100
AcDbEntity
  8
LAYER_1
 62
     7
100
AcDbVertex
100
AcDb2dVertex
 10
71.12903618890894
 20
59.15381326384069
 30
0.0
  0
VERTEX
  5
B59
330
B44
100
AcDbEntity
  8
LAYER_1
 62
     7
100
AcDbVertex
100
AcDb2dVertex
 10
70.25208718890893
 20
59.11832926384068
 30
0.0
  0
VERTEX
  5
B5A
330
B44
100
AcDbEntity
  8
LAYER_1
 62
     7
100
AcDbVertex
100
AcDb2dVertex
 10
69.37462118890893
 20
58.99258326384068
 30
0.0
  0
VERTEX
  5
B5B
330
B44
100
AcDbEntity
  8
LAYER_1
 62
     7
100
AcDbVertex
100
AcDb2dVertex
 10
68.51541418890893
 20
58.81378226384068
 30
0.0
  0
VERTEX
  5
B5C
330
B44
100
AcDbEntity
  8
LAYER_1
 62
     7
100
AcDbVertex
100
AcDb2dVertex
 10
67.67343318890893
 20
58.54540926384068
 30
0.0
  0
VERTEX
  5
B5D
330
B44
100
AcDbEntity
  8
LAYER_1
 62
     7
100
AcDbVertex
100
AcDb2dVertex
 10
66.86865818890893
 20
58.22329326384068
 30
0.0
  0
VERTEX
  5
B5E
330
B44
100
AcDbEntity
  8
LAYER_1
 62
     7
100
AcDbVertex
100
AcDb2dVertex
 10
66.08059318890892
 20
57.82882926384067
 30
0.0
  0
VERTEX
  5
B5F
330
B44
100
AcDbEntity
  8
LAYER_1
 62
     7
100
AcDbVertex
100
AcDb2dVertex
 10
65.34661518890894
 20
57.34582726384068
 30
0.0
  0
VERTEX
  5
B60
330
B44
100
AcDbEntity
  8
LAYER_1
 62
     7
100
AcDbVertex
100
AcDb2dVertex
 10
64.64812218890893
 20
56.82630626384067
 30
0.0
  0
VERTEX
  5
B61
330
B44
100
AcDbEntity
  8
LAYER_1
 62
     7
100
AcDbVertex
100
AcDb2dVertex
 10
63.98614718890893
 20
56.23616226384068
 30
0.0
  0
SEQEND
  5
B62
330
B44
100
AcDbEntity
  8
LAYER_1
 62
     7
  0
POLYLINE
  5
B63
330
1F
100
AcDbEntity
  8
LAYER_1
 62
     7
100
AcDb2dPolyline
 66
     1
 10
0.0
 20
0.0
 30
0.0
  0
VERTEX
  5
B64
330
B63
100
AcDbEntity
  8
LAYER_1
 62
     7
100
AcDbVertex
100
AcDb2dVertex
 10
44.13137318890893
 20
56.23616226384068
 30
0.0
  0
VERTEX
  5
B65
330
B63
100
AcDbEntity
  8
LAYER_1
 62
     7
100
AcDbVertex
100
AcDb2dVertex
 10
43.46905318890892
 20
56.82630626384067
 30
0.0
  0
VERTEX
  5
B66
330
B63
100
AcDbEntity
  8
LAYER_1
 62
     7
100
AcDbVertex
100
AcDb2dVertex
 10
42.77090518890893
 20
57.34582726384068
 30
0.0
  0
VERTEX
  5
B67
330
B63
100
AcDbEntity
  8
LAYER_1
 62
     7
100
AcDbVertex
100
AcDb2dVertex
 10
42.03641018890893
 20
57.82882926384067
 30
0.0
  0
VERTEX
  5
B68
330
B63
100
AcDbEntity
  8
LAYER_1
 62
     7
100
AcDbVertex
100
AcDb2dVertex
 10
41.24886118890893
 20
58.22329326384068
 30
0.0
  0
VERTEX
  5
B69
330
B63
100
AcDbEntity
  8
LAYER_1
 62
     7
100
AcDbVertex
100
AcDb2dVertex
 10
40.42531118890893
 20
58.54540926384068
 30
0.0
  0
VERTEX
  5
B6A
330
B63
100
AcDbEntity
  8
LAYER_1
 62
     7
100
AcDbVertex
100
AcDb2dVertex
 10
39.60176118890893
 20
58.81378226384068
 30
0.0
  0
VERTEX
  5
B6B
330
B63
100
AcDbEntity
  8
LAYER_1
 62
     7
100
AcDbVertex
100
AcDb2dVertex
 10
38.74255418890893
 20
58.99258326384068
 30
0.0
  0
VERTEX
  5
B6C
330
B63
100
AcDbEntity
  8
LAYER_1
 62
     7
100
AcDbVertex
100
AcDb2dVertex
 10
37.86508918890894
 20
59.11832926384068
 30
0.0
  0
VERTEX
  5
B6D
330
B63
100
AcDbEntity
  8
LAYER_1
 62
     7
100
AcDbVertex
100
AcDb2dVertex
 10
36.98796718890893
 20
59.15381326384069
 30
0.0
  0
VERTEX
  5
B6E
330
B63
100
AcDbEntity
  8
LAYER_1
 62
     7
100
AcDbVertex
100
AcDb2dVertex
 10
36.16441718890893
 20
59.11832926384068
 30
0.0
  0
VERTEX
  5
B6F
330
B63
100
AcDbEntity
  8
LAYER_1
 62
     7
100
AcDbVertex
100
AcDb2dVertex
 10
35.35860918890893
 20
59.01049726384069
 30
0.0
  0
VERTEX
  5
B70
330
B63
100
AcDbEntity
  8
LAYER_1
 62
     7
100
AcDbVertex
100
AcDb2dVertex
 10
34.55280218890893
 20
58.84926726384067
 30
0.0
  0
VERTEX
  5
B71
330
B63
100
AcDbEntity
  8
LAYER_1
 62
     7
100
AcDbVertex
100
AcDb2dVertex
 10
33.76542518890893
 20
58.61706726384068
 30
0.0
  0
VERTEX
  5
B72
330
B63
100
AcDbEntity
  8
LAYER_1
 62
     7
100
AcDbVertex
100
AcDb2dVertex
 10
33.01353318890893
 20
58.31252126384068
 30
0.0
  0
VERTEX
  5
B73
330
B63
100
AcDbEntity
  8
LAYER_1
 62
     7
100
AcDbVertex
100
AcDb2dVertex
 10
32.27938318890893
 20
57.95457526384068
 30
0.0
  0
VERTEX
  5
B74
330
B63
100
AcDbEntity
  8
LAYER_1
 62
     7
100
AcDbVertex
100
AcDb2dVertex
 10
31.56297518890894
 20
57.54219726384068
 30
0.0
  0
VERTEX
  5
B75
330
B63
100
AcDbEntity
  8
LAYER_1
 62
     7
100
AcDbVertex
100
AcDb2dVertex
 10
30.90065618890894
 20
57.05919526384068
 30
0.0
  0
VERTEX
  5
B76
330
B63
100
AcDbEntity
  8
LAYER_1
 62
     7
100
AcDbVertex
100
AcDb2dVertex
 10
30.27433718890894
 20
56.53967526384069
 30
0.0
  0
VERTEX
  5
B77
330
B63
100
AcDbEntity
  8
LAYER_1
 62
     7
100
AcDbVertex
100
AcDb2dVertex
 10
29.70124618890893
 20
55.94953026384068
 30
0.0
  0
VERTEX
  5
B78
330
B63
100
AcDbEntity
  8
LAYER_1
 62
     7
100
AcDbVertex
100
AcDb2dVertex
 10
29.16450018890893
 20
55.32252226384068
 30
0.0
  0
VERTEX
  5
B79
330
B63
100
AcDbEntity
  8
LAYER_1
 62
     7
100
AcDbVertex
100
AcDb2dVertex
 10
28.69872318890893
 20
54.66003026384068
 30
0.0
  0
VERTEX
  5
B7A
330
B63
100
AcDbEntity
  8
LAYER_1
 62
     7
100
AcDbVertex
100
AcDb2dVertex
 10
28.26860318890894
 20
53.96205426384068
 30
0.0
  0
VERTEX
  5
B7B
330
B63
100
AcDbEntity
  8
LAYER_1
 62
     7
100
AcDbVertex
100
AcDb2dVertex
 10
27.91083018890893
 20
53.22859326384068
 30
0.0
  0
VERTEX
  5
B7C
330
B63
100
AcDbEntity
  8
LAYER_1
 62
     7
100
AcDbVertex
100
AcDb2dVertex
 10
27.62454218890893
 20
52.45827026384069
 30
0.0
  0
VERTEX
  5
B7D
330
B63
100
AcDbEntity
  8
LAYER_1
 62
     7
100
AcDbVertex
100
AcDb2dVertex
 10
27.39165418890893
 20
51.67037726384068
 30
0.0
  0
VERTEX
  5
B7E
330
B63
100
AcDbEntity
  8
LAYER_1
 62
     7
100
AcDbVertex
100
AcDb2dVertex
 10
27.21268118890893
 20
50.88282826384068
 30
0.0
  0
VERTEX
  5
B7F
330
B63
100
AcDbEntity
  8
LAYER_1
 62
     7
100
AcDbVertex
100
AcDb2dVertex
 10
27.12328118890893
 20
50.05910526384067
 30
0.0
  0
VERTEX
  5
B80
330
B63
100
AcDbEntity
  8
LAYER_1
 62
     7
100
AcDbVertex
100
AcDb2dVertex
 10
27.08710718890893
 20
49.25329826384069
 30
0.0
  0
SEQEND
  5
B81
330
B63
100
AcDbEntity
  8
LAYER_1
 62
     7
  0
POLYLINE
  5
B82
330
1F
100
AcDbEntity
  8
LAYER_1
 62
     7
100
AcDb2dPolyline
 66
     1
 10
0.0
 20
0.0
 30
0.0
  0
VERTEX
  5
B83
330
B82
100
AcDbEntity
  8
LAYER_1
 62
     7
100
AcDbVertex
100
AcDb2dVertex
 10
44.13137318890893
 20
56.23616226384068
 30
0.0
  0
VERTEX
  5
B84
330
B82
100
AcDbEntity
  8
LAYER_1
 62
     7
100
AcDbVertex
100
AcDb2dVertex
 10
44.54271718890892
 20
55.89613126384069
 30
0.0
  0
VERTEX
  5
B85
330
B82
100
AcDbEntity
  8
LAYER_1
 62
     7
100
AcDbVertex
100
AcDb2dVertex
 10
45.00849418890893
 20
55.60915426384068
 30
0.0
  0
VERTEX
  5
B86
330
B82
100
AcDbEntity
  8
LAYER_1
 62
     7
100
AcDbVertex
100
AcDb2dVertex
 10
45.50975518890893
 20
55.39418026384068
 30
0.0
  0
VERTEX
  5
B87
330
B82
100
AcDbEntity
  8
LAYER_1
 62
     7
100
AcDbVertex
100
AcDb2dVertex
 10
46.04650118890893
 20
55.26912326384068
 30
0.0
  0
VERTEX
  5
B88
330
B82
100
AcDbEntity
  8
LAYER_1
 62
     7
100
AcDbVertex
100
AcDb2dVertex
 10
46.58445318890893
 20
55.23363926384068
 30
0.0
  0
SEQEND
  5
B89
330
B82
100
AcDbEntity
  8
LAYER_1
 62
     7
  0
POLYLINE
  5
B8A
330
1F
100
AcDbEntity
  8
LAYER_1
 62
     7
100
AcDb2dPolyline
 66
     1
 10
0.0
 20
0.0
 30
0.0
  0
VERTEX
  5
B8B
330
B8A
100
AcDbEntity
  8
LAYER_1
 62
     7
100
AcDbVertex
100
AcDb2dVertex
 10
79.04259218890892
 20
49.25329826384069
 30
0.0
  0
VERTEX
  5
B8C
330
B8A
100
AcDbEntity
  8
LAYER_1
 62
     7
100
AcDbVertex
100
AcDb2dVertex
 10
79.00693618890894
 20
49.96987726384067
 30
0.0
  0
VERTEX
  5
B8D
330
B8A
100
AcDbEntity
  8
LAYER_1
 62
     7
100
AcDbVertex
100
AcDb2dVertex
 10
78.91701918890892
 20
50.70333826384069
 30
0.0
  0
VERTEX
  5
B8E
330
B8A
100
AcDbEntity
  8
LAYER_1
 62
     7
100
AcDbVertex
100
AcDb2dVertex
 10
78.73804618890893
 20
51.42026326384068
 30
0.0
  0
VERTEX
  5
B8F
330
B8A
100
AcDbEntity
  8
LAYER_1
 62
     7
100
AcDbVertex
100
AcDb2dVertex
 10
78.50533018890892
 20
52.10032426384069
 30
0.0
  0
VERTEX
  5
B90
330
B8A
100
AcDbEntity
  8
LAYER_1
 62
     7
100
AcDbVertex
100
AcDb2dVertex
 10
78.21904218890892
 20
52.78073126384068
 30
0.0
  0
VERTEX
  5
B91
330
B8A
100
AcDbEntity
  8
LAYER_1
 62
     7
100
AcDbVertex
100
AcDb2dVertex
 10
77.86109718890893
 20
53.42461926384068
 30
0.0
  0
VERTEX
  5
B92
330
B8A
100
AcDbEntity
  8
LAYER_1
 62
     7
100
AcDbVertex
100
AcDb2dVertex
 10
77.44889118890893
 20
54.01545326384068
 30
0.0
  0
VERTEX
  5
B93
330
B8A
100
AcDbEntity
  8
LAYER_1
 62
     7
100
AcDbVertex
100
AcDb2dVertex
 10
76.98363118890893
 20
54.58906126384069
 30
0.0
  0
VERTEX
  5
B94
330
B8A
100
AcDbEntity
  8
LAYER_1
 62
     7
100
AcDbVertex
100
AcDb2dVertex
 10
76.46411118890893
 20
55.10789326384068
 30
0.0
  0
VERTEX
  5
B95
330
B8A
100
AcDbEntity
  8
LAYER_1
 62
     7
100
AcDbVertex
100
AcDb2dVertex
 10
75.90945018890893
 20
55.57367026384068
 30
0.0
  0
VERTEX
  5
B96
330
B8A
100
AcDbEntity
  8
LAYER_1
 62
     7
100
AcDbVertex
100
AcDb2dVertex
 10
75.30087418890893
 20
55.98501426384068
 30
0.0
  0
VERTEX
  5
B97
330
B8A
100
AcDbEntity
  8
LAYER_1
 62
     7
100
AcDbVertex
100
AcDb2dVertex
 10
74.65612518890893
 20
56.34296026384068
 30
0.0
  0
VERTEX
  5
B98
330
B8A
100
AcDbEntity
  8
LAYER_1
 62
     7
100
AcDbVertex
100
AcDb2dVertex
 10
73.99380518890892
 20
56.62959226384067
 30
0.0
  0
VERTEX
  5
B99
330
B8A
100
AcDbEntity
  8
LAYER_1
 62
     7
100
AcDbVertex
100
AcDb2dVertex
 10
73.29531218890894
 20
56.86248026384068
 30
0.0
  0
VERTEX
  5
B9A
330
B8A
100
AcDbEntity
  8
LAYER_1
 62
     7
100
AcDbVertex
100
AcDb2dVertex
 10
72.57942118890894
 20
57.02302126384068
 30
0.0
  0
VERTEX
  5
B9B
330
B8A
100
AcDbEntity
  8
LAYER_1
 62
     7
100
AcDbVertex
100
AcDb2dVertex
 10
71.86353018890892
 20
57.13085326384067
 30
0.0
  0
VERTEX
  5
B9C
330
B8A
100
AcDbEntity
  8
LAYER_1
 62
     7
100
AcDbVertex
100
AcDb2dVertex
 10
71.12903618890894
 20
57.16668226384069
 30
0.0
  0
SEQEND
  5
B9D
330
B8A
100
AcDbEntity
  8
LAYER_1
 62
     7
  0
POLYLINE
  5
B9E
330
1F
100
AcDbEntity
  8
LAYER_1
 62
     7
100
AcDb2dPolyline
 66
     1
 10
0.0
 20
0.0
 30
0.0
  0
VERTEX
  5
B9F
330
B9E
100
AcDbEntity
  8
LAYER_1
 62
     7
100
AcDbVertex
100
AcDb2dVertex
 10
61.51532518890894
 20
55.87787226384069
 30
0.0
  0
VERTEX
  5
BA0
330
B9E
100
AcDbEntity
  8
LAYER_1
 62
     7
100
AcDbVertex
100
AcDb2dVertex
 10
61.96267018890893
 20
55.89613126384069
 30
0.0
  0
VERTEX
  5
BA1
330
B9E
100
AcDbEntity
  8
LAYER_1
 62
     7
100
AcDbVertex
100
AcDb2dVertex
 10
62.41053318890893
 20
56.00292926384068
 30
0.0
  0
VERTEX
  5
BA2
330
B9E
100
AcDbEntity
  8
LAYER_1
 62
     7
100
AcDbVertex
100
AcDb2dVertex
 10
62.82187718890893
 20
56.18172926384068
 30
0.0
  0
VERTEX
  5
BA3
330
B9E
100
AcDbEntity
  8
LAYER_1
 62
     7
100
AcDbVertex
100
AcDb2dVertex
 10
63.19808118890893
 20
56.41496226384069
 30
0.0
  0
VERTEX
  5
BA4
330
B9E
100
AcDbEntity
  8
LAYER_1
 62
     7
100
AcDbVertex
100
AcDb2dVertex
 10
63.53828518890893
 20
56.70125026384069
 30
0.0
  0
SEQEND
  5
BA5
330
B9E
100
AcDbEntity
  8
LAYER_1
 62
     7
  0
POLYLINE
  5
BA6
330
1F
100
AcDbEntity
  8
LAYER_1
 62
     7
100
AcDb2dPolyline
 66
     1
 10
0.0
 20
0.0
 30
0.0
  0
VERTEX
  5
BA7
330
BA6
100
AcDbEntity
  8
LAYER_1
 62
     7
100
AcDbVertex
100
AcDb2dVertex
 10
81.67412918890892
 20
49.25329826384069
 30
0.0
  0
VERTEX
  5
BA8
330
BA6
100
AcDbEntity
  8
LAYER_1
 62
     7
100
AcDbVertex
100
AcDb2dVertex
 10
81.63847218890893
 20
50.11319326384068
 30
0.0
  0
VERTEX
  5
BA9
330
BA6
100
AcDbEntity
  8
LAYER_1
 62
     7
100
AcDbVertex
100
AcDb2dVertex
 10
81.53064018890892
 20
50.98997026384068
 30
0.0
  0
VERTEX
  5
BAA
330
BA6
100
AcDbEntity
  8
LAYER_1
 62
     7
100
AcDbVertex
100
AcDb2dVertex
 10
81.35218418890893
 20
51.83160726384068
 30
0.0
  0
VERTEX
  5
BAB
330
BA6
100
AcDbEntity
  8
LAYER_1
 62
     7
100
AcDbVertex
100
AcDb2dVertex
 10
81.10103718890893
 20
52.67289926384069
 30
0.0
  0
VERTEX
  5
BAC
330
BA6
100
AcDbEntity
  8
LAYER_1
 62
     7
100
AcDbVertex
100
AcDb2dVertex
 10
80.77926518890894
 20
53.47870726384067
 30
0.0
  0
VERTEX
  5
BAD
330
BA6
100
AcDbEntity
  8
LAYER_1
 62
     7
100
AcDbVertex
100
AcDb2dVertex
 10
80.40306118890894
 20
54.26660126384068
 30
0.0
  0
VERTEX
  5
BAE
330
BA6
100
AcDbEntity
  8
LAYER_1
 62
     7
100
AcDbVertex
100
AcDb2dVertex
 10
79.95571518890894
 20
55.01866526384067
 30
0.0
  0
VERTEX
  5
BAF
330
BA6
100
AcDbEntity
  8
LAYER_1
 62
     7
100
AcDbVertex
100
AcDb2dVertex
 10
79.45445418890892
 20
55.71664126384067
 30
0.0
  0
VERTEX
  5
BB0
330
BA6
100
AcDbEntity
  8
LAYER_1
 62
     7
100
AcDbVertex
100
AcDb2dVertex
 10
78.88136218890894
 20
56.39670326384067
 30
0.0
  0
VERTEX
  5
BB1
330
BA6
100
AcDbEntity
  8
LAYER_1
 62
     7
100
AcDbVertex
100
AcDb2dVertex
 10
78.27244118890892
 20
57.00545126384068
 30
0.0
  0
VERTEX
  5
BB2
330
BA6
100
AcDbEntity
  8
LAYER_1
 62
     7
100
AcDbVertex
100
AcDb2dVertex
 10
77.61046618890893
 20
57.56045626384068
 30
0.0
  0
VERTEX
  5
BB3
330
BA6
100
AcDbEntity
  8
LAYER_1
 62
     7
100
AcDbVertex
100
AcDb2dVertex
 10
76.89405918890892
 20
58.07997726384067
 30
0.0
  0
VERTEX
  5
BB4
330
BA6
100
AcDbEntity
  8
LAYER_1
 62
     7
100
AcDbVertex
100
AcDb2dVertex
 10
76.14216618890893
 20
58.52749526384068
 30
0.0
  0
VERTEX
  5
BB5
330
BA6
100
AcDbEntity
  8
LAYER_1
 62
     7
100
AcDbVertex
100
AcDb2dVertex
 10
75.37253218890893
 20
58.90369926384067
 30
0.0
  0
VERTEX
  5
BB6
330
BA6
100
AcDbEntity
  8
LAYER_1
 62
     7
100
AcDbVertex
100
AcDb2dVertex
 10
74.54898218890893
 20
59.22581526384067
 30
0.0
  0
VERTEX
  5
BB7
330
BA6
100
AcDbEntity
  8
LAYER_1
 62
     7
100
AcDbVertex
100
AcDb2dVertex
 10
73.72526018890893
 20
59.47627426384068
 30
0.0
  0
VERTEX
  5
BB8
330
BA6
100
AcDbEntity
  8
LAYER_1
 62
     7
100
AcDbVertex
100
AcDb2dVertex
 10
72.86622518890894
 20
59.65507426384069
 30
0.0
  0
VERTEX
  5
BB9
330
BA6
100
AcDbEntity
  8
LAYER_1
 62
     7
100
AcDbVertex
100
AcDb2dVertex
 10
72.00701818890893
 20
59.76290626384067
 30
0.0
  0
VERTEX
  5
BBA
330
BA6
100
AcDbEntity
  8
LAYER_1
 62
     7
100
AcDbVertex
100
AcDb2dVertex
 10
71.12903618890894
 20
59.79839026384067
 30
0.0
  0
VERTEX
  5
BBB
330
BA6
100
AcDbEntity
  8
LAYER_1
 62
     7
100
AcDbVertex
100
AcDb2dVertex
 10
70.28757118890893
 20
59.76290626384067
 30
0.0
  0
VERTEX
  5
BBC
330
BA6
100
AcDbEntity
  8
LAYER_1
 62
     7
100
AcDbVertex
100
AcDb2dVertex
 10
69.44627918890893
 20
59.65507426384069
 30
0.0
  0
VERTEX
  5
BBD
330
BA6
100
AcDbEntity
  8
LAYER_1
 62
     7
100
AcDbVertex
100
AcDb2dVertex
 10
68.62272918890893
 20
59.49384426384068
 30
0.0
  0
VERTEX
  5
BBE
330
BA6
100
AcDbEntity
  8
LAYER_1
 62
     7
100
AcDbVertex
100
AcDb2dVertex
 10
67.81692118890894
 20
59.27921426384068
 30
0.0
  0
VERTEX
  5
BBF
330
BA6
100
AcDbEntity
  8
LAYER_1
 62
     7
100
AcDbVertex
100
AcDb2dVertex
 10
67.02937218890892
 20
58.99258326384068
 30
0.0
  0
VERTEX
  5
BC0
330
BA6
100
AcDbEntity
  8
LAYER_1
 62
     7
100
AcDbVertex
100
AcDb2dVertex
 10
66.25956618890893
 20
58.63463726384068
 30
0.0
  0
VERTEX
  5
BC1
330
BA6
100
AcDbEntity
  8
LAYER_1
 62
     7
100
AcDbVertex
100
AcDb2dVertex
 10
65.52558818890893
 20
58.24120726384068
 30
0.0
  0
VERTEX
  5
BC2
330
BA6
100
AcDbEntity
  8
LAYER_1
 62
     7
100
AcDbVertex
100
AcDb2dVertex
 10
64.82743918890894
 20
57.77543026384067
 30
0.0
  0
VERTEX
  5
BC3
330
BA6
100
AcDbEntity
  8
LAYER_1
 62
     7
100
AcDbVertex
100
AcDb2dVertex
 10
64.16512018890893
 20
57.25659926384068
 30
0.0
  0
VERTEX
  5
BC4
330
BA6
100
AcDbEntity
  8
LAYER_1
 62
     7
100
AcDbVertex
100
AcDb2dVertex
 10
63.53828518890893
 20
56.70125026384069
 30
0.0
  0
SEQEND
  5
BC5
330
BA6
100
AcDbEntity
  8
LAYER_1
 62
     7
  0
POLYLINE
  5
BC6
330
1F
100
AcDbEntity
  8
LAYER_1
 62
     7
100
AcDb2dPolyline
 66
     1
 10
0.0
 20
0.0
 30
0.0
  0
VERTEX
  5
BC7
330
BC6
100
AcDbEntity
  8
LAYER_1
 62
     7
100
AcDbVertex
100
AcDb2dVertex
 10
44.57889118890893
 20
56.70125026384069
 30
0.0
  0
VERTEX
  5
BC8
330
BC6
100
AcDbEntity
  8
LAYER_1
 62
     7
100
AcDbVertex
100
AcDb2dVertex
 10
43.95240018890894
 20
57.25659926384068
 30
0.0
  0
VERTEX
  5
BC9
330
BC6
100
AcDbEntity
  8
LAYER_1
 62
     7
100
AcDbVertex
100
AcDb2dVertex
 10
43.29008018890894
 20
57.77543026384067
 30
0.0
  0
VERTEX
  5
BCA
330
BC6
100
AcDbEntity
  8
LAYER_1
 62
     7
100
AcDbVertex
100
AcDb2dVertex
 10
42.59158718890893
 20
58.24120726384068
 30
0.0
  0
VERTEX
  5
BCB
330
BC6
100
AcDbEntity
  8
LAYER_1
 62
     7
100
AcDbVertex
100
AcDb2dVertex
 10
41.85743718890893
 20
58.63463726384068
 30
0.0
  0
VERTEX
  5
BCC
330
BC6
100
AcDbEntity
  8
LAYER_1
 62
     7
100
AcDbVertex
100
AcDb2dVertex
 10
41.08763118890894
 20
58.99258326384068
 30
0.0
  0
VERTEX
  5
BCD
330
BC6
100
AcDbEntity
  8
LAYER_1
 62
     7
100
AcDbVertex
100
AcDb2dVertex
 10
40.29973818890893
 20
59.27921426384068
 30
0.0
  0
VERTEX
  5
BCE
330
BC6
100
AcDbEntity
  8
LAYER_1
 62
     7
100
AcDbVertex
100
AcDb2dVertex
 10
39.47653218890894
 20
59.49384426384068
 30
0.0
  0
VERTEX
  5
BCF
330
BC6
100
AcDbEntity
  8
LAYER_1
 62
     7
100
AcDbVertex
100
AcDb2dVertex
 10
38.65298218890893
 20
59.65507426384069
 30
0.0
  0
VERTEX
  5
BD0
330
BC6
100
AcDbEntity
  8
LAYER_1
 62
     7
100
AcDbVertex
100
AcDb2dVertex
 10
37.82943218890893
 20
59.76290626384067
 30
0.0
  0
VERTEX
  5
BD1
330
BC6
100
AcDbEntity
  8
LAYER_1
 62
     7
100
AcDbVertex
100
AcDb2dVertex
 10
36.98796718890893
 20
59.79839026384067
 30
0.0
  0
VERTEX
  5
BD2
330
BC6
100
AcDbEntity
  8
LAYER_1
 62
     7
100
AcDbVertex
100
AcDb2dVertex
 10
36.11050118890894
 20
59.76290626384067
 30
0.0
  0
VERTEX
  5
BD3
330
BC6
100
AcDbEntity
  8
LAYER_1
 62
     7
100
AcDbVertex
100
AcDb2dVertex
 10
35.25146718890893
 20
59.65507426384069
 30
0.0
  0
VERTEX
  5
BD4
330
BC6
100
AcDbEntity
  8
LAYER_1
 62
     7
100
AcDbVertex
100
AcDb2dVertex
 10
34.39174318890894
 20
59.47627426384068
 30
0.0
  0
VERTEX
  5
BD5
330
BC6
100
AcDbEntity
  8
LAYER_1
 62
     7
100
AcDbVertex
100
AcDb2dVertex
 10
33.56819318890894
 20
59.22581526384067
 30
0.0
  0
VERTEX
  5
BD6
330
BC6
100
AcDbEntity
  8
LAYER_1
 62
     7
100
AcDbVertex
100
AcDb2dVertex
 10
32.74447118890893
 20
58.90369926384067
 30
0.0
  0
VERTEX
  5
BD7
330
BC6
100
AcDbEntity
  8
LAYER_1
 62
     7
100
AcDbVertex
100
AcDb2dVertex
 10
31.97535318890893
 20
58.52749526384068
 30
0.0
  0
VERTEX
  5
BD8
330
BC6
100
AcDbEntity
  8
LAYER_1
 62
     7
100
AcDbVertex
100
AcDb2dVertex
 10
31.22294418890893
 20
58.07997726384067
 30
0.0
  0
VERTEX
  5
BD9
330
BC6
100
AcDbEntity
  8
LAYER_1
 62
     7
100
AcDbVertex
100
AcDb2dVertex
 10
30.50705418890894
 20
57.56045626384068
 30
0.0
  0
VERTEX
  5
BDA
330
BC6
100
AcDbEntity
  8
LAYER_1
 62
     7
100
AcDbVertex
100
AcDb2dVertex
 10
29.84473418890893
 20
57.00545126384068
 30
0.0
  0
VERTEX
  5
BDB
330
BC6
100
AcDbEntity
  8
LAYER_1
 62
     7
100
AcDbVertex
100
AcDb2dVertex
 10
29.23564118890893
 20
56.39670326384067
 30
0.0
  0
VERTEX
  5
BDC
330
BC6
100
AcDbEntity
  8
LAYER_1
 62
     7
100
AcDbVertex
100
AcDb2dVertex
 10
28.66306618890893
 20
55.71664126384067
 30
0.0
  0
VERTEX
  5
BDD
330
BC6
100
AcDbEntity
  8
LAYER_1
 62
     7
100
AcDbVertex
100
AcDb2dVertex
 10
28.16180518890893
 20
55.01866526384067
 30
0.0
  0
VERTEX
  5
BDE
330
BC6
100
AcDbEntity
  8
LAYER_1
 62
     7
100
AcDbVertex
100
AcDb2dVertex
 10
27.71394218890894
 20
54.26660126384068
 30
0.0
  0
VERTEX
  5
BDF
330
BC6
100
AcDbEntity
  8
LAYER_1
 62
     7
100
AcDbVertex
100
AcDb2dVertex
 10
27.33825518890893
 20
53.47870726384067
 30
0.0
  0
VERTEX
  5
BE0
330
BC6
100
AcDbEntity
  8
LAYER_1
 62
     7
100
AcDbVertex
100
AcDb2dVertex
 10
27.01596618890893
 20
52.67289926384069
 30
0.0
  0
VERTEX
  5
BE1
330
BC6
100
AcDbEntity
  8
LAYER_1
 62
     7
100
AcDbVertex
100
AcDb2dVertex
 10
26.76481918890893
 20
51.83160726384068
 30
0.0
  0
VERTEX
  5
BE2
330
BC6
100
AcDbEntity
  8
LAYER_1
 62
     7
100
AcDbVertex
100
AcDb2dVertex
 10
26.58584618890893
 20
50.98997026384068
 30
0.0
  0
VERTEX
  5
BE3
330
BC6
100
AcDbEntity
  8
LAYER_1
 62
     7
100
AcDbVertex
100
AcDb2dVertex
 10
26.47904818890893
 20
50.11319326384068
 30
0.0
  0
VERTEX
  5
BE4
330
BC6
100
AcDbEntity
  8
LAYER_1
 62
     7
100
AcDbVertex
100
AcDb2dVertex
 10
26.44253018890893
 20
49.25329826384069
 30
0.0
  0
SEQEND
  5
BE5
330
BC6
100
AcDbEntity
  8
LAYER_1
 62
     7
  0
POLYLINE
  5
BE6
330
1F
100
AcDbEntity
  8
LAYER_1
 62
     7
100
AcDb2dPolyline
 66
     1
 10
0.0
 20
0.0
 30
0.0
  0
VERTEX
  5
BE7
330
BE6
100
AcDbEntity
  8
LAYER_1
 62
     7
100
AcDbVertex
100
AcDb2dVertex
 10
44.57889118890893
 20
56.70125026384069
 30
0.0
  0
VERTEX
  5
BE8
330
BE6
100
AcDbEntity
  8
LAYER_1
 62
     7
100
AcDbVertex
100
AcDb2dVertex
 10
44.91892218890892
 20
56.41496226384069
 30
0.0
  0
VERTEX
  5
BE9
330
BE6
100
AcDbEntity
  8
LAYER_1
 62
     7
100
AcDbVertex
100
AcDb2dVertex
 10
45.29512618890893
 20
56.18172926384068
 30
0.0
  0
VERTEX
  5
BEA
330
BE6
100
AcDbEntity
  8
LAYER_1
 62
     7
100
AcDbVertex
100
AcDb2dVertex
 10
45.70647018890893
 20
56.00292926384068
 30
0.0
  0
VERTEX
  5
BEB
330
BE6
100
AcDbEntity
  8
LAYER_1
 62
     7
100
AcDbVertex
100
AcDb2dVertex
 10
46.15433318890892
 20
55.89613126384069
 30
0.0
  0
VERTEX
  5
BEC
330
BE6
100
AcDbEntity
  8
LAYER_1
 62
     7
100
AcDbVertex
100
AcDb2dVertex
 10
46.58445318890893
 20
55.87787226384069
 30
0.0
  0
SEQEND
  5
BED
330
BE6
100
AcDbEntity
  8
LAYER_1
 62
     7
  0
POLYLINE
  5
C2A
330
1F
100
AcDbEntity
  8
LAYER_1
 62
     7
100
AcDb2dPolyline
 66
     1
 10
0.0
 20
0.0
 30
0.0
 70
     1
  0
VERTEX
  5
C2B
330
C2A
100
AcDbEntity
  8
LAYER_1
 62
     7
100
AcDbVertex
100
AcDb2dVertex
 10
55.41061518890893
 20
58.74246926384067
 30
0.0
  0
VERTEX
  5
C2C
330
C2A
100
AcDbEntity
  8
LAYER_1
 62
     7
100
AcDbVertex
100
AcDb2dVertex
 10
55.37444218890893
 20
59.04667126384068
 30
0.0
  0
VERTEX
  5
C2D
330
C2A
100
AcDbEntity
  8
LAYER_1
 62
     7
100
AcDbVertex
100
AcDb2dVertex
 10
55.26712718890893
 20
59.33295826384068
 30
0.0
  0
VERTEX
  5
C2E
330
C2A
100
AcDbEntity
  8
LAYER_1
 62
     7
100
AcDbVertex
100
AcDb2dVertex
 10
55.10606918890893
 20
59.58376126384068
 30
0.0
  0
VERTEX
  5
C2F
330
C2A
100
AcDbEntity
  8
LAYER_1
 62
     7
100
AcDbVertex
100
AcDb2dVertex
 10
54.90883718890893
 20
59.79839026384067
 30
0.0
  0
VERTEX
  5
C30
330
C2A
100
AcDbEntity
  8
LAYER_1
 62
     7
100
AcDbVertex
100
AcDb2dVertex
 10
54.64046418890893
 20
59.95962126384069
 30
0.0
  0
VERTEX
  5
C31
330
C2A
100
AcDbEntity
  8
LAYER_1
 62
     7
100
AcDbVertex
100
AcDb2dVertex
 10
54.35417718890893
 20
60.04919326384068
 30
0.0
  0
VERTEX
  5
C32
330
C2A
100
AcDbEntity
  8
LAYER_1
 62
     7
100
AcDbVertex
100
AcDb2dVertex
 10
54.04911418890893
 20
60.08502226384068
 30
0.0
  0
VERTEX
  5
C33
330
C2A
100
AcDbEntity
  8
LAYER_1
 62
     7
100
AcDbVertex
100
AcDb2dVertex
 10
53.76334318890894
 20
60.04919326384068
 30
0.0
  0
VERTEX
  5
C34
330
C2A
100
AcDbEntity
  8
LAYER_1
 62
     7
100
AcDbVertex
100
AcDb2dVertex
 10
53.47671118890893
 20
59.95962126384069
 30
0.0
  0
VERTEX
  5
C35
330
C2A
100
AcDbEntity
  8
LAYER_1
 62
     7
100
AcDbVertex
100
AcDb2dVertex
 10
53.20816618890893
 20
59.79839026384067
 30
0.0
  0
VERTEX
  5
C36
330
C2A
100
AcDbEntity
  8
LAYER_1
 62
     7
100
AcDbVertex
100
AcDb2dVertex
 10
52.99319218890893
 20
59.58376126384068
 30
0.0
  0
VERTEX
  5
C37
330
C2A
100
AcDbEntity
  8
LAYER_1
 62
     7
100
AcDbVertex
100
AcDb2dVertex
 10
52.83213418890893
 20
59.33295826384068
 30
0.0
  0
VERTEX
  5
C38
330
C2A
100
AcDbEntity
  8
LAYER_1
 62
     7
100
AcDbVertex
100
AcDb2dVertex
 10
52.74256118890893
 20
59.04667126384068
 30
0.0
  0
VERTEX
  5
C39
330
C2A
100
AcDbEntity
  8
LAYER_1
 62
     7
100
AcDbVertex
100
AcDb2dVertex
 10
52.70656018890893
 20
58.74246926384067
 30
0.0
  0
VERTEX
  5
C3A
330
C2A
100
AcDbEntity
  8
LAYER_1
 62
     7
100
AcDbVertex
100
AcDb2dVertex
 10
52.74256118890893
 20
58.43792226384069
 30
0.0
  0
VERTEX
  5
C3B
330
C2A
100
AcDbEntity
  8
LAYER_1
 62
     7
100
AcDbVertex
100
AcDb2dVertex
 10
52.83213418890893
 20
58.15129026384068
 30
0.0
  0
VERTEX
  5
C3C
330
C2A
100
AcDbEntity
  8
LAYER_1
 62
     7
100
AcDbVertex
100
AcDb2dVertex
 10
52.99319218890893
 20
57.90117626384068
 30
0.0
  0
VERTEX
  5
C3D
330
C2A
100
AcDbEntity
  8
LAYER_1
 62
     7
100
AcDbVertex
100
AcDb2dVertex
 10
53.20816618890893
 20
57.68551326384069
 30
0.0
  0
VERTEX
  5
C3E
330
C2A
100
AcDbEntity
  8
LAYER_1
 62
     7
100
AcDbVertex
100
AcDb2dVertex
 10
53.47671118890893
 20
57.52497226384068
 30
0.0
  0
VERTEX
  5
C3F
330
C2A
100
AcDbEntity
  8
LAYER_1
 62
     7
100
AcDbVertex
100
AcDb2dVertex
 10
53.76334318890894
 20
57.41714026384068
 30
0.0
  0
VERTEX
  5
C40
330
C2A
100
AcDbEntity
  8
LAYER_1
 62
     7
100
AcDbVertex
100
AcDb2dVertex
 10
54.04911418890893
 20
57.38200026384068
 30
0.0
  0
VERTEX
  5
C41
330
C2A
100
AcDbEntity
  8
LAYER_1
 62
     7
100
AcDbVertex
100
AcDb2dVertex
 10
54.35417718890893
 20
57.41714026384068
 30
0.0
  0
VERTEX
  5
C42
330
C2A
100
AcDbEntity
  8
LAYER_1
 62
     7
100
AcDbVertex
100
AcDb2dVertex
 10
54.64046418890893
 20
57.52497226384068
 30
0.0
  0
VERTEX
  5
C43
330
C2A
100
AcDbEntity
  8
LAYER_1
 62
     7
100
AcDbVertex
100
AcDb2dVertex
 10
54.90883718890893
 20
57.68551326384069
 30
0.0
  0
VERTEX
  5
C44
330
C2A
100
AcDbEntity
  8
LAYER_1
 62
     7
100
AcDbVertex
100
AcDb2dVertex
 10
55.10606918890893
 20
57.90117626384068
 30
0.0
  0
VERTEX
  5
C45
330
C2A
100
AcDbEntity
  8
LAYER_1
 62
     7
100
AcDbVertex
100
AcDb2dVertex
 10
55.26712718890893
 20
58.15129026384068
 30
0.0
  0
VERTEX
  5
C46
330
C2A
100
AcDbEntity
  8
LAYER_1
 62
     7
100
AcDbVertex
100
AcDb2dVertex
 10
55.37444218890893
 20
58.43792226384069
 30
0.0
  0
SEQEND
  5
C47
330
C2A
100
AcDbEntity
  8
LAYER_1
 62
     7
  0
POLYLINE
  5
C66
330
1F
100
AcDbEntity
  8
LAYER_1
 62
     7
100
AcDb2dPolyline
 66
     1
 10
0.0
 20
0.0
 30
0.0
  0
VERTEX
  5
C67
330
C66
100
AcDbEntity
  8
LAYER_1
 62
     7
100
AcDbVertex
100
AcDb2dVertex
 10
36.98796718890893
 20
57.16668226384069
 30
0.0
  0
VERTEX
  5
C68
330
C66
100
AcDbEntity
  8
LAYER_1
 62
     7
100
AcDbVertex
100
AcDb2dVertex
 10
36.25399018890893
 20
57.13085326384067
 30
0.0
  0
VERTEX
  5
C69
330
C66
100
AcDbEntity
  8
LAYER_1
 62
     7
100
AcDbVertex
100
AcDb2dVertex
 10
35.53758218890893
 20
57.02302126384068
 30
0.0
  0
VERTEX
  5
C6A
330
C66
100
AcDbEntity
  8
LAYER_1
 62
     7
100
AcDbVertex
100
AcDb2dVertex
 10
34.82186318890894
 20
56.86248026384068
 30
0.0
  0
VERTEX
  5
C6B
330
C66
100
AcDbEntity
  8
LAYER_1
 62
     7
100
AcDbVertex
100
AcDb2dVertex
 10
34.12319818890893
 20
56.62959226384067
 30
0.0
  0
VERTEX
  5
C6C
330
C66
100
AcDbEntity
  8
LAYER_1
 62
     7
100
AcDbVertex
100
AcDb2dVertex
 10
33.46087918890893
 20
56.34296026384068
 30
0.0
  0
VERTEX
  5
C6D
330
C66
100
AcDbEntity
  8
LAYER_1
 62
     7
100
AcDbVertex
100
AcDb2dVertex
 10
32.81664618890893
 20
55.98501426384068
 30
0.0
  0
VERTEX
  5
C6E
330
C66
100
AcDbEntity
  8
LAYER_1
 62
     7
100
AcDbVertex
100
AcDb2dVertex
 10
32.20772518890894
 20
55.57367026384068
 30
0.0
  0
VERTEX
  5
C6F
330
C66
100
AcDbEntity
  8
LAYER_1
 62
     7
100
AcDbVertex
100
AcDb2dVertex
 10
31.65306518890893
 20
55.10789326384068
 30
0.0
  0
VERTEX
  5
C70
330
C66
100
AcDbEntity
  8
LAYER_1
 62
     7
100
AcDbVertex
100
AcDb2dVertex
 10
31.13388918890893
 20
54.58906126384069
 30
0.0
  0
VERTEX
  5
C71
330
C66
100
AcDbEntity
  8
LAYER_1
 62
     7
100
AcDbVertex
100
AcDb2dVertex
 10
30.66776718890893
 20
54.01545326384068
 30
0.0
  0
VERTEX
  5
C72
330
C66
100
AcDbEntity
  8
LAYER_1
 62
     7
100
AcDbVertex
100
AcDb2dVertex
 10
30.25590618890893
 20
53.42461926384068
 30
0.0
  0
VERTEX
  5
C73
330
C66
100
AcDbEntity
  8
LAYER_1
 62
     7
100
AcDbVertex
100
AcDb2dVertex
 10
29.89813318890893
 20
52.78073126384068
 30
0.0
  0
VERTEX
  5
C74
330
C66
100
AcDbEntity
  8
LAYER_1
 62
     7
100
AcDbVertex
100
AcDb2dVertex
 10
29.59358718890893
 20
52.10032426384069
 30
0.0
  0
VERTEX
  5
C75
330
C66
100
AcDbEntity
  8
LAYER_1
 62
     7
100
AcDbVertex
100
AcDb2dVertex
 10
29.36121518890893
 20
51.42026326384068
 30
0.0
  0
VERTEX
  5
C76
330
C66
100
AcDbEntity
  8
LAYER_1
 62
     7
100
AcDbVertex
100
AcDb2dVertex
 10
29.19998418890893
 20
50.70333826384069
 30
0.0
  0
VERTEX
  5
C77
330
C66
100
AcDbEntity
  8
LAYER_1
 62
     7
100
AcDbVertex
100
AcDb2dVertex
 10
29.09232518890894
 20
49.96987726384067
 30
0.0
  0
VERTEX
  5
C78
330
C66
100
AcDbEntity
  8
LAYER_1
 62
     7
100
AcDbVertex
100
AcDb2dVertex
 10
29.07441118890893
 20
49.25329826384069
 30
0.0
  0
SEQEND
  5
C79
330
C66
100
AcDbEntity
  8
LAYER_1
 62
     7
  0
POLYLINE
  5
CB6
330
1F
100
AcDbEntity
  8
LAYER_1
 62
     7
100
AcDb2dPolyline
 66
     1
 10
0.0
 20
0.0
 30
0.0
 70
     1
  0
VERTEX
  5
CB7
330
CB6
100
AcDbEntity
  8
LAYER_1
 62
     7
100
AcDbVertex
100
AcDb2dVertex
 10
55.30278418890893
 20
58.74246926384067
 30
0.0
  0
VERTEX
  5
CB8
330
CB6
100
AcDbEntity
  8
LAYER_1
 62
     7
100
AcDbVertex
100
AcDb2dVertex
 10
55.26712718890893
 20
59.01049726384069
 30
0.0
  0
VERTEX
  5
CB9
330
CB6
100
AcDbEntity
  8
LAYER_1
 62
     7
100
AcDbVertex
100
AcDb2dVertex
 10
55.17721018890893
 20
59.27921426384068
 30
0.0
  0
VERTEX
  5
CBA
330
CB6
100
AcDbEntity
  8
LAYER_1
 62
     7
100
AcDbVertex
100
AcDb2dVertex
 10
55.03389418890893
 20
59.51210326384067
 30
0.0
  0
VERTEX
  5
CBB
330
CB6
100
AcDbEntity
  8
LAYER_1
 62
     7
100
AcDbVertex
100
AcDb2dVertex
 10
54.83717918890893
 20
59.70950726384067
 30
0.0
  0
VERTEX
  5
CBC
330
CB6
100
AcDbEntity
  8
LAYER_1
 62
     7
100
AcDbVertex
100
AcDb2dVertex
 10
54.60480818890893
 20
59.85178926384069
 30
0.0
  0
VERTEX
  5
CBD
330
CB6
100
AcDbEntity
  8
LAYER_1
 62
     7
100
AcDbVertex
100
AcDb2dVertex
 10
54.33591818890893
 20
59.94170626384068
 30
0.0
  0
VERTEX
  5
CBE
330
CB6
100
AcDbEntity
  8
LAYER_1
 62
     7
100
AcDbVertex
100
AcDb2dVertex
 10
54.04911418890893
 20
59.97753526384068
 30
0.0
  0
VERTEX
  5
CBF
330
CB6
100
AcDbEntity
  8
LAYER_1
 62
     7
100
AcDbVertex
100
AcDb2dVertex
 10
53.78125718890893
 20
59.94170626384068
 30
0.0
  0
VERTEX
  5
CC0
330
CB6
100
AcDbEntity
  8
LAYER_1
 62
     7
100
AcDbVertex
100
AcDb2dVertex
 10
53.51271218890893
 20
59.85178926384069
 30
0.0
  0
VERTEX
  5
CC1
330
CB6
100
AcDbEntity
  8
LAYER_1
 62
     7
100
AcDbVertex
100
AcDb2dVertex
 10
53.27999618890893
 20
59.70950726384067
 30
0.0
  0
VERTEX
  5
CC2
330
CB6
100
AcDbEntity
  8
LAYER_1
 62
     7
100
AcDbVertex
100
AcDb2dVertex
 10
53.08310918890893
 20
59.51210326384067
 30
0.0
  0
VERTEX
  5
CC3
330
CB6
100
AcDbEntity
  8
LAYER_1
 62
     7
100
AcDbVertex
100
AcDb2dVertex
 10
52.93979318890894
 20
59.27921426384068
 30
0.0
  0
VERTEX
  5
CC4
330
CB6
100
AcDbEntity
  8
LAYER_1
 62
     7
100
AcDbVertex
100
AcDb2dVertex
 10
52.84987618890893
 20
59.01049726384069
 30
0.0
  0
VERTEX
  5
CC5
330
CB6
100
AcDbEntity
  8
LAYER_1
 62
     7
100
AcDbVertex
100
AcDb2dVertex
 10
52.81421918890893
 20
58.74246926384067
 30
0.0
  0
VERTEX
  5
CC6
330
CB6
100
AcDbEntity
  8
LAYER_1
 62
     7
100
AcDbVertex
100
AcDb2dVertex
 10
52.84987618890893
 20
58.45583726384069
 30
0.0
  0
VERTEX
  5
CC7
330
CB6
100
AcDbEntity
  8
LAYER_1
 62
     7
100
AcDbVertex
100
AcDb2dVertex
 10
52.93979318890894
 20
58.20503426384068
 30
0.0
  0
VERTEX
  5
CC8
330
CB6
100
AcDbEntity
  8
LAYER_1
 62
     7
100
AcDbVertex
100
AcDb2dVertex
 10
53.08310918890893
 20
57.97214526384069
 30
0.0
  0
VERTEX
  5
CC9
330
CB6
100
AcDbEntity
  8
LAYER_1
 62
     7
100
AcDbVertex
100
AcDb2dVertex
 10
53.27999618890893
 20
57.77543026384067
 30
0.0
  0
VERTEX
  5
CCA
330
CB6
100
AcDbEntity
  8
LAYER_1
 62
     7
100
AcDbVertex
100
AcDb2dVertex
 10
53.51271218890893
 20
57.61454426384069
 30
0.0
  0
VERTEX
  5
CCB
330
CB6
100
AcDbEntity
  8
LAYER_1
 62
     7
100
AcDbVertex
100
AcDb2dVertex
 10
53.78125718890893
 20
57.52497226384068
 30
0.0
  0
VERTEX
  5
CCC
330
CB6
100
AcDbEntity
  8
LAYER_1
 62
     7
100
AcDbVertex
100
AcDb2dVertex
 10
54.04911418890893
 20
57.48879826384068
 30
0.0
  0
VERTEX
  5
CCD
330
CB6
100
AcDbEntity
  8
LAYER_1
 62
     7
100
AcDbVertex
100
AcDb2dVertex
 10
54.33591818890893
 20
57.52497226384068
 30
0.0
  0
VERTEX
  5
CCE
330
CB6
100
AcDbEntity
  8
LAYER_1
 62
     7
100
AcDbVertex
100
AcDb2dVertex
 10
54.60480818890893
 20
57.61454426384069
 30
0.0
  0
VERTEX
  5
CCF
330
CB6
100
AcDbEntity
  8
LAYER_1
 62
     7
100
AcDbVertex
100
AcDb2dVertex
 10
54.83717918890893
 20
57.77543026384067
 30
0.0
  0
VERTEX
  5
CD0
330
CB6
100
AcDbEntity
  8
LAYER_1
 62
     7
100
AcDbVertex
100
AcDb2dVertex
 10
55.03389418890893
 20
57.97214526384069
 30
0.0
  0
VERTEX
  5
CD1
330
CB6
100
AcDbEntity
  8
LAYER_1
 62
     7
100
AcDbVertex
100
AcDb2dVertex
 10
55.17721018890893
 20
58.20503426384068
 30
0.0
  0
VERTEX
  5
CD2
330
CB6
100
AcDbEntity
  8
LAYER_1
 62
     7
100
AcDbVertex
100
AcDb2dVertex
 10
55.26712718890893
 20
58.45583726384069
 30
0.0
  0
SEQEND
  5
CD3
330
CB6
100
AcDbEntity
  8
LAYER_1
 62
     7
  0
POLYLINE
  5
CF2
330
1F
100
AcDbEntity
  8
LAYER_1
 62
     7
100
AcDb2dPolyline
 66
     1
 10
0.0
 20
0.0
 30
0.0
 70
     1
  0
VERTEX
  5
CF3
330
CF2
100
AcDbEntity
  8
LAYER_1
 62
     7
100
AcDbVertex
100
AcDb2dVertex
 10
74.63786618890893
 20
49.25329826384069
 30
0.0
  0
VERTEX
  5
CF4
330
CF2
100
AcDbEntity
  8
LAYER_1
 62
     7
100
AcDbVertex
100
AcDb2dVertex
 10
74.60238118890893
 20
49.75524826384068
 30
0.0
  0
VERTEX
  5
CF5
330
CF2
100
AcDbEntity
  8
LAYER_1
 62
     7
100
AcDbVertex
100
AcDb2dVertex
 10
74.49506618890892
 20
50.23825026384068
 30
0.0
  0
VERTEX
  5
CF6
330
CF2
100
AcDbEntity
  8
LAYER_1
 62
     7
100
AcDbVertex
100
AcDb2dVertex
 10
74.31609418890893
 20
50.70333826384069
 30
0.0
  0
VERTEX
  5
CF7
330
CF2
100
AcDbEntity
  8
LAYER_1
 62
     7
100
AcDbVertex
100
AcDb2dVertex
 10
74.08320518890893
 20
51.13328626384069
 30
0.0
  0
VERTEX
  5
CF8
330
CF2
100
AcDbEntity
  8
LAYER_1
 62
     7
100
AcDbVertex
100
AcDb2dVertex
 10
73.77865918890893
 20
51.54463126384069
 30
0.0
  0
VERTEX
  5
CF9
330
CF2
100
AcDbEntity
  8
LAYER_1
 62
     7
100
AcDbVertex
100
AcDb2dVertex
 10
73.42088618890894
 20
51.90361026384069
 30
0.0
  0
VERTEX
  5
CFA
330
CF2
100
AcDbEntity
  8
LAYER_1
 62
     7
100
AcDbVertex
100
AcDb2dVertex
 10
73.02728318890892
 20
52.18955226384068
 30
0.0
  0
VERTEX
  5
CFB
330
CF2
100
AcDbEntity
  8
LAYER_1
 62
     7
100
AcDbVertex
100
AcDb2dVertex
 10
72.57942118890894
 20
52.44035526384069
 30
0.0
  0
VERTEX
  5
CFC
330
CF2
100
AcDbEntity
  8
LAYER_1
 62
     7
100
AcDbVertex
100
AcDb2dVertex
 10
72.11381618890893
 20
52.60158626384068
 30
0.0
  0
VERTEX
  5
CFD
330
CF2
100
AcDbEntity
  8
LAYER_1
 62
     7
100
AcDbVertex
100
AcDb2dVertex
 10
71.63029718890893
 20
52.70907326384068
 30
0.0
  0
VERTEX
  5
CFE
330
CF2
100
AcDbEntity
  8
LAYER_1
 62
     7
100
AcDbVertex
100
AcDb2dVertex
 10
71.12903618890894
 20
52.74490226384067
 30
0.0
  0
VERTEX
  5
CFF
330
CF2
100
AcDbEntity
  8
LAYER_1
 62
     7
100
AcDbVertex
100
AcDb2dVertex
 10
70.62777418890893
 20
52.70907326384068
 30
0.0
  0
VERTEX
  5
D00
330
CF2
100
AcDbEntity
  8
LAYER_1
 62
     7
100
AcDbVertex
100
AcDb2dVertex
 10
70.14477218890893
 20
52.60158626384068
 30
0.0
  0
VERTEX
  5
D01
330
CF2
100
AcDbEntity
  8
LAYER_1
 62
     7
100
AcDbVertex
100
AcDb2dVertex
 10
69.67899518890892
 20
52.44035526384069
 30
0.0
  0
VERTEX
  5
D02
330
CF2
100
AcDbEntity
  8
LAYER_1
 62
     7
100
AcDbVertex
100
AcDb2dVertex
 10
69.23164918890893
 20
52.18955226384068
 30
0.0
  0
VERTEX
  5
D03
330
CF2
100
AcDbEntity
  8
LAYER_1
 62
     7
100
AcDbVertex
100
AcDb2dVertex
 10
68.83770318890893
 20
51.90361026384069
 30
0.0
  0
VERTEX
  5
D04
330
CF2
100
AcDbEntity
  8
LAYER_1
 62
     7
100
AcDbVertex
100
AcDb2dVertex
 10
68.47924118890893
 20
51.54463126384069
 30
0.0
  0
VERTEX
  5
D05
330
CF2
100
AcDbEntity
  8
LAYER_1
 62
     7
100
AcDbVertex
100
AcDb2dVertex
 10
68.17486618890892
 20
51.13328626384069
 30
0.0
  0
VERTEX
  5
D06
330
CF2
100
AcDbEntity
  8
LAYER_1
 62
     7
100
AcDbVertex
100
AcDb2dVertex
 10
67.94249518890893
 20
50.70333826384069
 30
0.0
  0
VERTEX
  5
D07
330
CF2
100
AcDbEntity
  8
LAYER_1
 62
     7
100
AcDbVertex
100
AcDb2dVertex
 10
67.76352218890894
 20
50.23825026384068
 30
0.0
  0
VERTEX
  5
D08
330
CF2
100
AcDbEntity
  8
LAYER_1
 62
     7
100
AcDbVertex
100
AcDb2dVertex
 10
67.65620718890893
 20
49.75524826384068
 30
0.0
  0
VERTEX
  5
D09
330
CF2
100
AcDbEntity
  8
LAYER_1
 62
     7
100
AcDbVertex
100
AcDb2dVertex
 10
67.62003418890893
 20
49.25329826384069
 30
0.0
  0
VERTEX
  5
D0A
330
CF2
100
AcDbEntity
  8
LAYER_1
 62
     7
100
AcDbVertex
100
AcDb2dVertex
 10
67.65620718890893
 20
48.75272526384069
 30
0.0
  0
VERTEX
  5
D0B
330
CF2
100
AcDbEntity
  8
LAYER_1
 62
     7
100
AcDbVertex
100
AcDb2dVertex
 10
67.76352218890894
 20
48.26903426384068
 30
0.0
  0
VERTEX
  5
D0C
330
CF2
100
AcDbEntity
  8
LAYER_1
 62
     7
100
AcDbVertex
100
AcDb2dVertex
 10
67.94249518890893
 20
47.78568726384068
 30
0.0
  0
VERTEX
  5
D0D
330
CF2
100
AcDbEntity
  8
LAYER_1
 62
     7
100
AcDbVertex
100
AcDb2dVertex
 10
68.17486618890892
 20
47.35573926384069
 30
0.0
  0
VERTEX
  5
D0E
330
CF2
100
AcDbEntity
  8
LAYER_1
 62
     7
100
AcDbVertex
100
AcDb2dVertex
 10
68.47924118890893
 20
46.96196526384068
 30
0.0
  0
VERTEX
  5
D0F
330
CF2
100
AcDbEntity
  8
LAYER_1
 62
     7
100
AcDbVertex
100
AcDb2dVertex
 10
68.83770318890893
 20
46.60401926384068
 30
0.0
  0
VERTEX
  5
D10
330
CF2
100
AcDbEntity
  8
LAYER_1
 62
     7
100
AcDbVertex
100
AcDb2dVertex
 10
69.23164918890893
 20
46.29981726384068
 30
0.0
  0
VERTEX
  5
D11
330
CF2
100
AcDbEntity
  8
LAYER_1
 62
     7
100
AcDbVertex
100
AcDb2dVertex
 10
69.67899518890892
 20
46.06624026384068
 30
0.0
  0
VERTEX
  5
D12
330
CF2
100
AcDbEntity
  8
LAYER_1
 62
     7
100
AcDbVertex
100
AcDb2dVertex
 10
70.14477218890893
 20
45.88778426384068
 30
0.0
  0
VERTEX
  5
D13
330
CF2
100
AcDbEntity
  8
LAYER_1
 62
     7
100
AcDbVertex
100
AcDb2dVertex
 10
70.62777418890893
 20
45.78064126384068
 30
0.0
  0
VERTEX
  5
D14
330
CF2
100
AcDbEntity
  8
LAYER_1
 62
     7
100
AcDbVertex
100
AcDb2dVertex
 10
71.12903618890894
 20
45.74446826384067
 30
0.0
  0
VERTEX
  5
D15
330
CF2
100
AcDbEntity
  8
LAYER_1
 62
     7
100
AcDbVertex
100
AcDb2dVertex
 10
71.63029718890893
 20
45.78064126384068
 30
0.0
  0
VERTEX
  5
D16
330
CF2
100
AcDbEntity
  8
LAYER_1
 62
     7
100
AcDbVertex
100
AcDb2dVertex
 10
72.11381618890893
 20
45.88778426384068
 30
0.0
  0
VERTEX
  5
D17
330
CF2
100
AcDbEntity
  8
LAYER_1
 62
     7
100
AcDbVertex
100
AcDb2dVertex
 10
72.57942118890894
 20
46.06624026384068
 30
0.0
  0
VERTEX
  5
D18
330
CF2
100
AcDbEntity
  8
LAYER_1
 62
     7
100
AcDbVertex
100
AcDb2dVertex
 10
73.02728318890892
 20
46.29981726384068
 30
0.0
  0
VERTEX
  5
D19
330
CF2
100
AcDbEntity
  8
LAYER_1
 62
     7
100
AcDbVertex
100
AcDb2dVertex
 10
73.42088618890894
 20
46.60401926384068
 30
0.0
  0
VERTEX
  5
D1A
330
CF2
100
AcDbEntity
  8
LAYER_1
 62
     7
100
AcDbVertex
100
AcDb2dVertex
 10
73.77865918890893
 20
46.96196526384068
 30
0.0
  0
VERTEX
  5
D1B
330
CF2
100
AcDbEntity
  8
LAYER_1
 62
     7
100
AcDbVertex
100
AcDb2dVertex
 10
74.08320518890893
 20
47.35573926384069
 30
0.0
  0
VERTEX
  5
D1C
330
CF2
100
AcDbEntity
  8
LAYER_1
 62
     7
100
AcDbVertex
100
AcDb2dVertex
 10
74.31609418890893
 20
47.78568726384068
 30
0.0
  0
VERTEX
  5
D1D
330
CF2
100
AcDbEntity
  8
LAYER_1
 62
     7
100
AcDbVertex
100
AcDb2dVertex
 10
74.49506618890892
 20
48.26903426384068
 30
0.0
  0
VERTEX
  5
D1E
330
CF2
100
AcDbEntity
  8
LAYER_1
 62
     7
100
AcDbVertex
100
AcDb2dVertex
 10
74.60238118890893
 20
48.75272526384069
 30
0.0
  0
SEQEND
  5
D1F
330
CF2
100
AcDbEntity
  8
LAYER_1
 62
     7
  0
POLYLINE
  5
D20
330
1F
100
AcDbEntity
  8
LAYER_1
 62
     7
100
AcDb2dPolyline
 66
     1
 10
0.0
 20
0.0
 30
0.0
  0
VERTEX
  5
D21
330
D20
100
AcDbEntity
  8
LAYER_1
 62
     7
100
AcDbVertex
100
AcDb2dVertex
 10
80.06285718890893
 20
28.53966126384069
 30
0.0
  0
VERTEX
  5
D22
330
D20
100
AcDbEntity
  8
LAYER_1
 62
     7
100
AcDbVertex
100
AcDb2dVertex
 10
80.51072018890893
 20
28.57514526384068
 30
0.0
  0
VERTEX
  5
D23
330
D20
100
AcDbEntity
  8
LAYER_1
 62
     7
100
AcDbVertex
100
AcDb2dVertex
 10
80.94032318890894
 20
28.68297726384068
 30
0.0
  0
VERTEX
  5
D24
330
D20
100
AcDbEntity
  8
LAYER_1
 62
     7
100
AcDbVertex
100
AcDb2dVertex
 10
81.35218418890893
 20
28.84420726384068
 30
0.0
  0
VERTEX
  5
D25
330
D20
100
AcDbEntity
  8
LAYER_1
 62
     7
100
AcDbVertex
100
AcDb2dVertex
 10
81.72787218890894
 20
29.07640726384068
 30
0.0
  0
VERTEX
  5
D26
330
D20
100
AcDbEntity
  8
LAYER_1
 62
     7
100
AcDbVertex
100
AcDb2dVertex
 10
82.05016118890894
 20
29.36303926384069
 30
0.0
  0
VERTEX
  5
D27
330
D20
100
AcDbEntity
  8
LAYER_1
 62
     7
100
AcDbVertex
100
AcDb2dVertex
 10
82.33644818890892
 20
29.70341426384069
 30
0.0
  0
VERTEX
  5
D28
330
D20
100
AcDbEntity
  8
LAYER_1
 62
     7
100
AcDbVertex
100
AcDb2dVertex
 10
82.56933718890893
 20
30.07893026384067
 30
0.0
  0
VERTEX
  5
D29
330
D20
100
AcDbEntity
  8
LAYER_1
 62
     7
100
AcDbVertex
100
AcDb2dVertex
 10
82.74865418890893
 20
30.47339326384068
 30
0.0
  0
VERTEX
  5
D2A
330
D20
100
AcDbEntity
  8
LAYER_1
 62
     7
100
AcDbVertex
100
AcDb2dVertex
 10
82.83771018890893
 20
30.90265226384068
 30
0.0
  0
VERTEX
  5
D2B
330
D20
100
AcDbEntity
  8
LAYER_1
 62
     7
100
AcDbVertex
100
AcDb2dVertex
 10
82.87388318890894
 20
31.3505142638407
 30
0.0
  0
SEQEND
  5
D2C
330
D20
100
AcDbEntity
  8
LAYER_1
 62
     7
  0
POLYLINE
  5
D2D
330
1F
100
AcDbEntity
  8
LAYER_1
 62
     7
100
AcDb2dPolyline
 66
     1
 10
0.0
 20
0.0
 30
0.0
  0
VERTEX
  5
D2E
330
D2D
100
AcDbEntity
  8
LAYER_1
 62
     7
100
AcDbVertex
100
AcDb2dVertex
 10
25.24329218890894
 20
31.3505142638407
 30
0.0
  0
VERTEX
  5
D2F
330
D2D
100
AcDbEntity
  8
LAYER_1
 62
     7
100
AcDbVertex
100
AcDb2dVertex
 10
25.27929418890893
 20
30.90265226384068
 30
0.0
  0
VERTEX
  5
D30
330
D2D
100
AcDbEntity
  8
LAYER_1
 62
     7
100
AcDbVertex
100
AcDb2dVertex
 10
25.36886618890893
 20
30.47339326384068
 30
0.0
  0
VERTEX
  5
D31
330
D2D
100
AcDbEntity
  8
LAYER_1
 62
     7
100
AcDbVertex
100
AcDb2dVertex
 10
25.54766618890893
 20
30.07893026384067
 30
0.0
  0
VERTEX
  5
D32
330
D2D
100
AcDbEntity
  8
LAYER_1
 62
     7
100
AcDbVertex
100
AcDb2dVertex
 10
25.78055518890893
 20
29.70341426384069
 30
0.0
  0
VERTEX
  5
D33
330
D2D
100
AcDbEntity
  8
LAYER_1
 62
     7
100
AcDbVertex
100
AcDb2dVertex
 10
26.06684218890893
 20
29.36303926384069
 30
0.0
  0
VERTEX
  5
D34
330
D2D
100
AcDbEntity
  8
LAYER_1
 62
     7
100
AcDbVertex
100
AcDb2dVertex
 10
26.38913118890894
 20
29.07640726384068
 30
0.0
  0
VERTEX
  5
D35
330
D2D
100
AcDbEntity
  8
LAYER_1
 62
     7
100
AcDbVertex
100
AcDb2dVertex
 10
26.76481918890893
 20
28.84420726384068
 30
0.0
  0
VERTEX
  5
D36
330
D2D
100
AcDbEntity
  8
LAYER_1
 62
     7
100
AcDbVertex
100
AcDb2dVertex
 10
27.17719718890894
 20
28.68297726384068
 30
0.0
  0
VERTEX
  5
D37
330
D2D
100
AcDbEntity
  8
LAYER_1
 62
     7
100
AcDbVertex
100
AcDb2dVertex
 10
27.60680018890893
 20
28.57514526384068
 30
0.0
  0
VERTEX
  5
D38
330
D2D
100
AcDbEntity
  8
LAYER_1
 62
     7
100
AcDbVertex
100
AcDb2dVertex
 10
28.03640318890893
 20
28.53966126384069
 30
0.0
  0
SEQEND
  5
D39
330
D2D
100
AcDbEntity
  8
LAYER_1
 62
     7
  0
POLYLINE
  5
D3A
330
1F
100
AcDbEntity
  8
LAYER_1
 62
     7
100
AcDb2dPolyline
 66
     1
 10
0.0
 20
0.0
 30
0.0
  0
VERTEX
  5
D3B
330
D3A
100
AcDbEntity
  8
LAYER_1
 62
     7
100
AcDbVertex
100
AcDb2dVertex
 10
28.03640318890893
 20
61.98258126384068
 30
0.0
  0
VERTEX
  5
D3C
330
D3A
100
AcDbEntity
  8
LAYER_1
 62
     7
100
AcDbVertex
100
AcDb2dVertex
 10
27.60680018890893
 20
61.94675226384068
 30
0.0
  0
VERTEX
  5
D3D
330
D3A
100
AcDbEntity
  8
LAYER_1
 62
     7
100
AcDbVertex
100
AcDb2dVertex
 10
27.17719718890894
 20
61.83926526384067
 30
0.0
  0
VERTEX
  5
D3E
330
D3A
100
AcDbEntity
  8
LAYER_1
 62
     7
100
AcDbVertex
100
AcDb2dVertex
 10
26.76481918890893
 20
61.67803426384068
 30
0.0
  0
VERTEX
  5
D3F
330
D3A
100
AcDbEntity
  8
LAYER_1
 62
     7
100
AcDbVertex
100
AcDb2dVertex
 10
26.38913118890894
 20
61.44549126384068
 30
0.0
  0
VERTEX
  5
D40
330
D3A
100
AcDbEntity
  8
LAYER_1
 62
     7
100
AcDbVertex
100
AcDb2dVertex
 10
26.06684218890893
 20
61.15885926384068
 30
0.0
  0
VERTEX
  5
D41
330
D3A
100
AcDbEntity
  8
LAYER_1
 62
     7
100
AcDbVertex
100
AcDb2dVertex
 10
25.78055518890893
 20
60.81882826384067
 30
0.0
  0
VERTEX
  5
D42
330
D3A
100
AcDbEntity
  8
LAYER_1
 62
     7
100
AcDbVertex
100
AcDb2dVertex
 10
25.54766618890893
 20
60.44296826384068
 30
0.0
  0
VERTEX
  5
D43
330
D3A
100
AcDbEntity
  8
LAYER_1
 62
     7
100
AcDbVertex
100
AcDb2dVertex
 10
25.36886618890893
 20
60.03127926384067
 30
0.0
  0
VERTEX
  5
D44
330
D3A
100
AcDbEntity
  8
LAYER_1
 62
     7
100
AcDbVertex
100
AcDb2dVertex
 10
25.27929418890893
 20
59.61959026384068
 30
0.0
  0
VERTEX
  5
D45
330
D3A
100
AcDbEntity
  8
LAYER_1
 62
     7
100
AcDbVertex
100
AcDb2dVertex
 10
25.24329218890894
 20
59.17172726384068
 30
0.0
  0
SEQEND
  5
D46
330
D3A
100
AcDbEntity
  8
LAYER_1
 62
     7
  0
POLYLINE
  5
D47
330
1F
100
AcDbEntity
  8
LAYER_1
 62
     7
100
AcDb2dPolyline
 66
     1
 10
0.0
 20
0.0
 30
0.0
  0
VERTEX
  5
D48
330
D47
100
AcDbEntity
  8
LAYER_1
 62
     7
100
AcDbVertex
100
AcDb2dVertex
 10
82.87388318890894
 20
59.17172726384068
 30
0.0
  0
VERTEX
  5
D49
330
D47
100
AcDbEntity
  8
LAYER_1
 62
     7
100
AcDbVertex
100
AcDb2dVertex
 10
82.83771018890893
 20
59.61959026384068
 30
0.0
  0
VERTEX
  5
D4A
330
D47
100
AcDbEntity
  8
LAYER_1
 62
     7
100
AcDbVertex
100
AcDb2dVertex
 10
82.74865418890893
 20
60.03127926384067
 30
0.0
  0
VERTEX
  5
D4B
330
D47
100
AcDbEntity
  8
LAYER_1
 62
     7
100
AcDbVertex
100
AcDb2dVertex
 10
82.56933718890893
 20
60.44296826384068
 30
0.0
  0
VERTEX
  5
D4C
330
D47
100
AcDbEntity
  8
LAYER_1
 62
     7
100
AcDbVertex
100
AcDb2dVertex
 10
82.33644818890892
 20
60.81882826384067
 30
0.0
  0
VERTEX
  5
D4D
330
D47
100
AcDbEntity
  8
LAYER_1
 62
     7
100
AcDbVertex
100
AcDb2dVertex
 10
82.05016118890894
 20
61.15885926384068
 30
0.0
  0
VERTEX
  5
D4E
330
D47
100
AcDbEntity
  8
LAYER_1
 62
     7
100
AcDbVertex
100
AcDb2dVertex
 10
81.72787218890894
 20
61.44549126384068
 30
0.0
  0
VERTEX
  5
D4F
330
D47
100
AcDbEntity
  8
LAYER_1
 62
     7
100
AcDbVertex
100
AcDb2dVertex
 10
81.35218418890893
 20
61.67803426384068
 30
0.0
  0
VERTEX
  5
D50
330
D47
100
AcDbEntity
  8
LAYER_1
 62
     7
100
AcDbVertex
100
AcDb2dVertex
 10
80.94032318890894
 20
61.83926526384067
 30
0.0
  0
VERTEX
  5
D51
330
D47
100
AcDbEntity
  8
LAYER_1
 62
     7
100
AcDbVertex
100
AcDb2dVertex
 10
80.51072018890893
 20
61.94675226384068
 30
0.0
  0
VERTEX
  5
D52
330
D47
100
AcDbEntity
  8
LAYER_1
 62
     7
100
AcDbVertex
100
AcDb2dVertex
 10
80.06285718890893
 20
61.98258126384068
 30
0.0
  0
SEQEND
  5
D53
330
D47
100
AcDbEntity
  8
LAYER_1
 62
     7
  0
POLYLINE
  5
D54
330
1F
100
AcDbEntity
  8
LAYER_1
 62
     7
100
AcDb2dPolyline
 66
     1
 10
0.0
 20
0.0
 30
0.0
 70
     1
  0
VERTEX
  5
D55
330
D54
100
AcDbEntity
  8
LAYER_1
 62
     7
100
AcDbVertex
100
AcDb2dVertex
 10
40.49696918890893
 20
49.25329826384069
 30
0.0
  0
VERTEX
  5
D56
330
D54
100
AcDbEntity
  8
LAYER_1
 62
     7
100
AcDbVertex
100
AcDb2dVertex
 10
40.46131318890893
 20
49.75524826384068
 30
0.0
  0
VERTEX
  5
D57
330
D54
100
AcDbEntity
  8
LAYER_1
 62
     7
100
AcDbVertex
100
AcDb2dVertex
 10
40.35365318890893
 20
50.23825026384068
 30
0.0
  0
VERTEX
  5
D58
330
D54
100
AcDbEntity
  8
LAYER_1
 62
     7
100
AcDbVertex
100
AcDb2dVertex
 10
40.17468118890893
 20
50.70333826384069
 30
0.0
  0
VERTEX
  5
D59
330
D54
100
AcDbEntity
  8
LAYER_1
 62
     7
100
AcDbVertex
100
AcDb2dVertex
 10
39.92405018890894
 20
51.13328626384069
 30
0.0
  0
VERTEX
  5
D5A
330
D54
100
AcDbEntity
  8
LAYER_1
 62
     7
100
AcDbVertex
100
AcDb2dVertex
 10
39.63776218890894
 20
51.54463126384069
 30
0.0
  0
VERTEX
  5
D5B
330
D54
100
AcDbEntity
  8
LAYER_1
 62
     7
100
AcDbVertex
100
AcDb2dVertex
 10
39.27930018890894
 20
51.90361026384069
 30
0.0
  0
VERTEX
  5
D5C
330
D54
100
AcDbEntity
  8
LAYER_1
 62
     7
100
AcDbVertex
100
AcDb2dVertex
 10
38.88535418890894
 20
52.18955226384068
 30
0.0
  0
VERTEX
  5
D5D
330
D54
100
AcDbEntity
  8
LAYER_1
 62
     7
100
AcDbVertex
100
AcDb2dVertex
 10
38.43800818890893
 20
52.44035526384069
 30
0.0
  0
VERTEX
  5
D5E
330
D54
100
AcDbEntity
  8
LAYER_1
 62
     7
100
AcDbVertex
100
AcDb2dVertex
 10
37.97274818890893
 20
52.60158626384068
 30
0.0
  0
VERTEX
  5
D5F
330
D54
100
AcDbEntity
  8
LAYER_1
 62
     7
100
AcDbVertex
100
AcDb2dVertex
 10
37.48940118890893
 20
52.70907326384068
 30
0.0
  0
VERTEX
  5
D60
330
D54
100
AcDbEntity
  8
LAYER_1
 62
     7
100
AcDbVertex
100
AcDb2dVertex
 10
36.98796718890893
 20
52.74490226384067
 30
0.0
  0
VERTEX
  5
D61
330
D54
100
AcDbEntity
  8
LAYER_1
 62
     7
100
AcDbVertex
100
AcDb2dVertex
 10
36.48670618890893
 20
52.70907326384068
 30
0.0
  0
VERTEX
  5
D62
330
D54
100
AcDbEntity
  8
LAYER_1
 62
     7
100
AcDbVertex
100
AcDb2dVertex
 10
36.00335918890893
 20
52.60158626384068
 30
0.0
  0
VERTEX
  5
D63
330
D54
100
AcDbEntity
  8
LAYER_1
 62
     7
100
AcDbVertex
100
AcDb2dVertex
 10
35.53758218890893
 20
52.44035526384069
 30
0.0
  0
VERTEX
  5
D64
330
D54
100
AcDbEntity
  8
LAYER_1
 62
     7
100
AcDbVertex
100
AcDb2dVertex
 10
35.09023618890893
 20
52.18955226384068
 30
0.0
  0
VERTEX
  5
D65
330
D54
100
AcDbEntity
  8
LAYER_1
 62
     7
100
AcDbVertex
100
AcDb2dVertex
 10
34.69629018890894
 20
51.90361026384069
 30
0.0
  0
VERTEX
  5
D66
330
D54
100
AcDbEntity
  8
LAYER_1
 62
     7
100
AcDbVertex
100
AcDb2dVertex
 10
34.33834418890894
 20
51.54463126384069
 30
0.0
  0
VERTEX
  5
D67
330
D54
100
AcDbEntity
  8
LAYER_1
 62
     7
100
AcDbVertex
100
AcDb2dVertex
 10
34.03379818890893
 20
51.13328626384069
 30
0.0
  0
VERTEX
  5
D68
330
D54
100
AcDbEntity
  8
LAYER_1
 62
     7
100
AcDbVertex
100
AcDb2dVertex
 10
33.80142618890893
 20
50.70333826384069
 30
0.0
  0
VERTEX
  5
D69
330
D54
100
AcDbEntity
  8
LAYER_1
 62
     7
100
AcDbVertex
100
AcDb2dVertex
 10
33.62245318890894
 20
50.23825026384068
 30
0.0
  0
VERTEX
  5
D6A
330
D54
100
AcDbEntity
  8
LAYER_1
 62
     7
100
AcDbVertex
100
AcDb2dVertex
 10
33.51479418890893
 20
49.75524826384068
 30
0.0
  0
VERTEX
  5
D6B
330
D54
100
AcDbEntity
  8
LAYER_1
 62
     7
100
AcDbVertex
100
AcDb2dVertex
 10
33.47913818890893
 20
49.25329826384069
 30
0.0
  0
VERTEX
  5
D6C
330
D54
100
AcDbEntity
  8
LAYER_1
 62
     7
100
AcDbVertex
100
AcDb2dVertex
 10
33.51479418890893
 20
48.75272526384069
 30
0.0
  0
VERTEX
  5
D6D
330
D54
100
AcDbEntity
  8
LAYER_1
 62
     7
100
AcDbVertex
100
AcDb2dVertex
 10
33.62245318890894
 20
48.26903426384068
 30
0.0
  0
VERTEX
  5
D6E
330
D54
100
AcDbEntity
  8
LAYER_1
 62
     7
100
AcDbVertex
100
AcDb2dVertex
 10
33.80142618890893
 20
47.78568726384068
 30
0.0
  0
VERTEX
  5
D6F
330
D54
100
AcDbEntity
  8
LAYER_1
 62
     7
100
AcDbVertex
100
AcDb2dVertex
 10
34.03379818890893
 20
47.35573926384069
 30
0.0
  0
VERTEX
  5
D70
330
D54
100
AcDbEntity
  8
LAYER_1
 62
     7
100
AcDbVertex
100
AcDb2dVertex
 10
34.33834418890894
 20
46.96196526384068
 30
0.0
  0
VERTEX
  5
D71
330
D54
100
AcDbEntity
  8
LAYER_1
 62
     7
100
AcDbVertex
100
AcDb2dVertex
 10
34.69629018890894
 20
46.60401926384068
 30
0.0
  0
VERTEX
  5
D72
330
D54
100
AcDbEntity
  8
LAYER_1
 62
     7
100
AcDbVertex
100
AcDb2dVertex
 10
35.09023618890893
 20
46.29981726384068
 30
0.0
  0
VERTEX
  5
D73
330
D54
100
AcDbEntity
  8
LAYER_1
 62
     7
100
AcDbVertex
100
AcDb2dVertex
 10
35.53758218890893
 20
46.06624026384068
 30
0.0
  0
VERTEX
  5
D74
330
D54
100
AcDbEntity
  8
LAYER_1
 62
     7
100
AcDbVertex
100
AcDb2dVertex
 10
36.00335918890893
 20
45.88778426384068
 30
0.0
  0
VERTEX
  5
D75
330
D54
100
AcDbEntity
  8
LAYER_1
 62
     7
100
AcDbVertex
100
AcDb2dVertex
 10
36.48670618890893
 20
45.78064126384068
 30
0.0
  0
VERTEX
  5
D76
330
D54
100
AcDbEntity
  8
LAYER_1
 62
     7
100
AcDbVertex
100
AcDb2dVertex
 10
36.98796718890893
 20
45.74446826384067
 30
0.0
  0
VERTEX
  5
D77
330
D54
100
AcDbEntity
  8
LAYER_1
 62
     7
100
AcDbVertex
100
AcDb2dVertex
 10
37.48940118890893
 20
45.78064126384068
 30
0.0
  0
VERTEX
  5
D78
330
D54
100
AcDbEntity
  8
LAYER_1
 62
     7
100
AcDbVertex
100
AcDb2dVertex
 10
37.97274818890893
 20
45.88778426384068
 30
0.0
  0
VERTEX
  5
D79
330
D54
100
AcDbEntity
  8
LAYER_1
 62
     7
100
AcDbVertex
100
AcDb2dVertex
 10
38.43800818890893
 20
46.06624026384068
 30
0.0
  0
VERTEX
  5
D7A
330
D54
100
AcDbEntity
  8
LAYER_1
 62
     7
100
AcDbVertex
100
AcDb2dVertex
 10
38.88535418890894
 20
46.29981726384068
 30
0.0
  0
VERTEX
  5
D7B
330
D54
100
AcDbEntity
  8
LAYER_1
 62
     7
100
AcDbVertex
100
AcDb2dVertex
 10
39.27930018890894
 20
46.60401926384068
 30
0.0
  0
VERTEX
  5
D7C
330
D54
100
AcDbEntity
  8
LAYER_1
 62
     7
100
AcDbVertex
100
AcDb2dVertex
 10
39.63776218890894
 20
46.96196526384068
 30
0.0
  0
VERTEX
  5
D7D
330
D54
100
AcDbEntity
  8
LAYER_1
 62
     7
100
AcDbVertex
100
AcDb2dVertex
 10
39.92405018890894
 20
47.35573926384069
 30
0.0
  0
VERTEX
  5
D7E
330
D54
100
AcDbEntity
  8
LAYER_1
 62
     7
100
AcDbVertex
100
AcDb2dVertex
 10
40.17468118890893
 20
47.78568726384068
 30
0.0
  0
VERTEX
  5
D7F
330
D54
100
AcDbEntity
  8
LAYER_1
 62
     7
100
AcDbVertex
100
AcDb2dVertex
 10
40.35365318890893
 20
48.26903426384068
 30
0.0
  0
VERTEX
  5
D80
330
D54
100
AcDbEntity
  8
LAYER_1
 62
     7
100
AcDbVertex
100
AcDb2dVertex
 10
40.46131318890893
 20
48.75272526384069
 30
0.0
  0
SEQEND
  5
D81
330
D54
100
AcDbEntity
  8
LAYER_1
 62
     7
  0
LINE
  5
D82
330
1F
100
AcDbEntity
  8
LAYER_1
 62
     7
100
AcDbLine
 10
82.87388318890894
 20
59.17172726384068
 30
0.0
 11
82.87388318890894
 21
31.3505142638407
 31
0.0
  0
LINE
  5
D83
330
1F
100
AcDbEntity
  8
LAYER_1
 62
     7
100
AcDbLine
 10
81.67412918890892
 20
49.25329826384069
 30
0.0
 11
81.67412918890892
 21
35.41434926384069
 31
0.0
  0
LINE
  5
D84
330
1F
100
AcDbEntity
  8
LAYER_1
 62
     7
100
AcDbLine
 10
81.02989618890893
 20
49.25329826384069
 30
0.0
 11
81.02989618890893
 21
35.45017826384068
 31
0.0
  0
LINE
  5
D85
330
1F
100
AcDbEntity
  8
LAYER_1
 62
     7
100
AcDbLine
 10
79.95571518890894
 20
34.93065826384068
 30
0.0
 11
79.95571518890894
 21
49.25329826384069
 31
0.0
  0
LINE
  5
D87
330
1F
100
AcDbEntity
  8
LAYER_1
 62
     7
100
AcDbLine
 10
28.03640318890893
 20
61.98258126384068
 30
0.0
 11
80.06285718890893
 21
61.98258126384068
 31
0.0
  0
LINE
  5
DA3
330
1F
100
AcDbEntity
  8
LAYER_1
 62
     7
100
AcDbLine
 10
46.58445318890893
 20
55.87787226384069
 30
0.0
 11
61.51532518890894
 21
55.87787226384069
 31
0.0
  0
LINE
  5
DA4
330
1F
100
AcDbEntity
  8
LAYER_1
 62
     7
100
AcDbLine
 10
51.47166518890893
 20
55.23363926384068
 30
0.0
 11
56.64551018890893
 21
55.23363926384068
 31
0.0
  0
LINE
  5
DA5
330
1F
100
AcDbEntity
  8
LAYER_1
 62
     7
100
AcDbLine
 10
59.67099318890893
 20
55.23363926384068
 30
0.0
 11
61.51532518890894
 21
55.23363926384068
 31
0.0
  0
LINE
  5
DA6
330
1F
100
AcDbEntity
  8
LAYER_1
 62
     7
100
AcDbLine
 10
46.58445318890893
 20
55.23363926384068
 30
0.0
 11
48.44618318890893
 21
55.23363926384068
 31
0.0
  0
LINE
  5
DA7
330
1F
100
AcDbEntity
  8
LAYER_1
 62
     7
100
AcDbLine
 10
48.44618318890893
 20
54.15876926384068
 30
0.0
 11
46.58445318890893
 21
54.15876926384068
 31
0.0
  0
LINE
  5
DA8
330
1F
100
AcDbEntity
  8
LAYER_1
 62
     7
100
AcDbLine
 10
61.51532518890894
 20
54.15876926384068
 30
0.0
 11
59.67099318890893
 21
54.15876926384068
 31
0.0
  0
LINE
  5
DB6
330
1F
100
AcDbEntity
  8
LAYER_1
 62
     7
100
AcDbLine
 10
56.07293518890894
 20
50.56036726384068
 30
0.0
 11
56.07293518890894
 21
34.93065826384068
 31
0.0
  0
LINE
  5
DB8
330
1F
100
AcDbEntity
  8
LAYER_1
 62
     7
100
AcDbLine
 10
52.04458518890893
 20
34.93065826384068
 30
0.0
 11
52.04458518890893
 21
50.56036726384068
 31
0.0
  0
LINE
  5
DBA
330
1F
100
AcDbEntity
  8
LAYER_1
 62
     7
100
AcDbLine
 10
59.67099318890893
 20
31.33260026384069
 30
0.0
 11
76.35731318890893
 21
31.33260026384069
 31
0.0
  0
LINE
  5
DBB
330
1F
100
AcDbEntity
  8
LAYER_1
 62
     7
100
AcDbLine
 10
31.75986318890893
 20
31.33260026384069
 30
0.0
 11
48.44618318890893
 21
31.33260026384069
 31
0.0
  0
LINE
  5
DBC
330
1F
100
AcDbEntity
  8
LAYER_1
 62
     7
100
AcDbLine
 10
48.44618318890893
 20
30.36556226384069
 30
0.0
 11
32.15432618890893
 21
30.36556226384069
 31
0.0
  0
LINE
  5
DBD
330
1F
100
AcDbEntity
  8
LAYER_1
 62
     7
100
AcDbLine
 10
75.96284918890893
 20
30.36556226384069
 30
0.0
 11
59.67099318890893
 21
30.36556226384069
 31
0.0
  0
LINE
  5
DBE
330
1F
100
AcDbEntity
  8
LAYER_1
 62
     7
100
AcDbLine
 10
56.46653718890894
 20
30.36556226384069
 30
0.0
 11
51.63272418890894
 21
30.36556226384069
 31
0.0
  0
LINE
  5
DBF
330
1F
100
AcDbEntity
  8
LAYER_1
 62
     7
100
AcDbLine
 10
75.98110818890893
 20
29.73889926384069
 30
0.0
 11
32.13606718890894
 21
29.73889926384069
 31
0.0
  0
LINE
  5
DC0
330
1F
100
AcDbEntity
  8
LAYER_1
 62
     7
100
AcDbLine
 10
80.06285718890893
 20
28.53966126384069
 30
0.0
 11
28.03640318890893
 21
28.53966126384069
 31
0.0
  0
LINE
  5
DC7
330
1F
100
AcDbEntity
  8
LAYER_1
 62
     7
100
AcDbLine
 10
28.16180518890893
 20
49.25329826384069
 30
0.0
 11
28.16180518890893
 21
34.93065826384068
 31
0.0
  0
LINE
  5
DC8
330
1F
100
AcDbEntity
  8
LAYER_1
 62
     7
100
AcDbLine
 10
27.08710718890893
 20
35.45017826384068
 30
0.0
 11
27.08710718890893
 21
49.25329826384069
 31
0.0
  0
LINE
  5
DC9
330
1F
100
AcDbEntity
  8
LAYER_1
 62
     7
100
AcDbLine
 10
26.44253018890893
 20
35.41434926384069
 30
0.0
 11
26.44253018890893
 21
49.25329826384069
 31
0.0
  0
LINE
  5
DCA
330
1F
100
AcDbEntity
  8
LAYER_1
 62
     7
100
AcDbLine
 10
25.24329218890894
 20
31.3505142638407
 30
0.0
 11
25.24329218890894
 21
59.17172726384068
 31
0.0
  0
LINE
  5
DD1
330
1F
100
AcDbEntity
  8
LAYER_1
 62
     7
100
AcDbLine
 10
79.16816618890893
 20
61.98258126384068
 30
0.0
 11
73.34957218890894
 21
61.98258126384068
 31
0.0
  0
LINE
  5
DD3
330
1F
100
AcDbEntity
  8
LAYER_1
 62
     7
100
AcDbLine
 10
79.16816618890893
 20
28.61131926384068
 30
0.0
 11
75.37253218890893
 21
28.61131926384068
 31
0.0
  0
LINE
  5
DD4
330
1F
100
AcDbEntity
  8
LAYER_1
 62
     7
100
AcDbLine
 10
75.96284918890893
 20
29.73889926384069
 30
0.0
 11
77.96841218890893
 21
29.73889926384069
 31
0.0
  0
LINE
  5
DD7
330
1F
100
AcDbEntity
  8
LAYER_1
 62
     7
100
AcDbLine
 10
81.67412918890892
 20
36.34521426384069
 30
0.0
 11
81.67412918890892
 21
38.17145926384069
 31
0.0
  0
LINE
  5
DD8
330
1F
100
AcDbEntity
  8
LAYER_1
 62
     7
100
AcDbLine
 10
82.87388318890894
 20
32.24520626384069
 30
0.0
 11
82.87388318890894
 21
38.17145926384069
 31
0.0
  0
LINE
  5
DDD
330
1F
100
AcDbEntity
  8
LAYER_1
 62
     7
100
AcDbLine
 10
79.16816618890893
 20
61.98258126384068
 30
0.0
 11
65.50767318890894
 21
61.98258126384068
 31
0.0
  0
ENDSEC
  0
SECTION
  2
OBJECTS
  0
DICTIONARY
  5
C
330
0
100
AcDbDictionary
281
     1
  3
ACAD_COLOR
350
C9
  3
ACAD_GROUP
350
D
  3
ACAD_LAYOUT
350
1A
  3
ACAD_MATERIAL
350
C8
  3
ACAD_MLEADERSTYLE
350
2EC
  3
ACAD_MLINESTYLE
350
17
  3
ACAD_PLOTSETTINGS
350
19
  3
ACAD_PLOTSTYLENAME
350
E
  3
ACAD_SCALELIST
350
2CA
  3
ACAD_TABLESTYLE
350
123
  3
ACAD_VISUALSTYLE
350
296
  3
ACDB_RECOMPOSE_DATA
350
30D
  3
AcDbVariableDictionary
350
9E
  3
AcmDictionary
350
63
  3
AMG
350
49
  3
AMGSNAPSETTINGS
350
8B6
  3
ASE_INDEX_DICTIONARY
350
DED
  0
DICTIONARY
  5
DE8
330
10
100
AcDbDictionary
280
     1
281
     1
  3
ADSK_XREC_LAYER_RECONCILED
360
DE9
  0
DICTIONARY
  5
DEA
330
38C
100
AcDbDictionary
280
     1
281
     1
  3
ADSK_XREC_LAYER_RECONCILED
360
DEB
  0
DICTIONARY
  5
99
330
1F
100
AcDbDictionary
280
     1
281
     1
  0
DICTIONARY
  5
C9
102
{ACAD_REACTORS
330
C
102
}
330
C
100
AcDbDictionary
281
     1
  0
DICTIONARY
  5
D
102
{ACAD_REACTORS
330
C
102
}
330
C
100
AcDbDictionary
281
     1
  0
DICTIONARY
  5
1A
102
{ACAD_REACTORS
330
C
102
}
330
C
100
AcDbDictionary
281
     1
  3
Layout1
350
1E
  3
Layout2
350
26
  3
Model
350
22
  0
DICTIONARY
  5
C8
102
{ACAD_REACTORS
330
C
102
}
330
C
100
AcDbDictionary
281
     1
  3
ByBlock
350
294
  3
ByLayer
350
293
  3
Global
350
295
  0
DICTIONARY
  5
2EC
102
{ACAD_REACTORS
330
C
102
}
330
C
100
AcDbDictionary
281
     1
  3
Standard
350
2ED
  0
DICTIONARY
  5
17
102
{ACAD_REACTORS
330
C
102
}
330
C
100
AcDbDictionary
281
     1
  3
Standard
350
18
  0
DICTIONARY
  5
19
102
{ACAD_REACTORS
330
C
102
}
330
C
100
AcDbDictionary
281
     1
  0
ACDBDICTIONARYWDFLT
  5
E
102
{ACAD_REACTORS
330
C
102
}
330
C
100
AcDbDictionary
281
     1
  3
Normal
350
F
100
AcDbDictionaryWithDefault
340
F
  0
DICTIONARY
  5
2CA
102
{ACAD_REACTORS
330
C
102
}
330
C
100
AcDbDictionary
281
     1
  3
A0
350
2CB
  3
A1
350
2CC
  3
A2
350
2CD
  3
A3
350
2CE
  3
A4
350
2CF
  3
A5
350
2D0
  3
A6
350
2D1
  3
A7
350
2D2
  3
A8
350
2D3
  3
A9
350
2D4
  3
B0
350
2D5
  3
B1
350
2D6
  3
B2
350
2D7
  3
B3
350
2D8
  3
B4
350
2D9
  3
B5
350
2DA
  3
B6
350
2DB
  3
B7
350
2DC
  3
B8
350
2DD
  3
B9
350
2DE
  3
C0
350
2DF
  3
C1
350
2E0
  3
C2
350
2E1
  3
C3
350
2E2
  3
C4
350
2E3
  3
C5
350
2E4
  3
C6
350
2E5
  3
C7
350
2E6
  3
C8
350
2E7
  3
C9
350
2E8
  3
D0
350
2E9
  3
D1
350
2EA
  3
D2
350
2EB
  0
DICTIONARY
  5
123
102
{ACAD_REACTORS
330
C
102
}
330
C
100
AcDbDictionary
281
     1
  3
Standard
350
124
  0
DICTIONARY
  5
296
102
{ACAD_REACTORS
330
C
102
}
330
C
100
AcDbDictionary
281
     1
  3
2dWireframe
350
29C
  3
3D Hidden
350
29E
  3
3dWireframe
350
29D
  3
Basic
350
29B
  3
Brighten
350
2A2
  3
ColorChange
350
2A6
  3
Conceptual
350
29F
  3
Dim
350
2A1
  3
Facepattern
350
2A5
  3
Flat
350
297
  3
FlatWithEdges
350
298
  3
Gouraud
350
299
  3
GouraudWithEdges
350
29A
  3
Linepattern
350
2A4
  3
Realistic
350
2A0
  3
Thicken
350
2A3
  0
XRECORD
  5
30D
102
{ACAD_REACTORS
330
C
102
}
330
C
100
AcDbXrecord
280
     1
 90
        1
330
124
  0
DICTIONARY
  5
9E
102
{ACAD_REACTORS
330
C
102
}
330
C
100
AcDbDictionary
281
     1
  3
CANNOSCALE
350
310
  3
CMLEADERSTYLE
350
30E
  3
CTABLESTYLE
350
144
  3
DIMASSOC
350
A0
  3
INDEXCTL
350
9F
  3
LAYEREVAL
350
36B
  3
LAYERNOTIFY
350
36C
  3
LIGHTINGUNITS
350
311
  3
MSLTSCALE
350
30F
  0
DICTIONARY
  5
63
102
{ACAD_REACTORS
330
C
102
}
330
C
100
AcDbDictionary
281
     1
  3
AcmStdDictionary
350
69
  3
AMDTSECTSYM_ARROWCOLOR
350
12C
  0
DICTIONARY
  5
49
102
{ACAD_REACTORS
330
C
102
}
330
C
100
AcDbDictionary
281
     1
  0
DICTIONARY
  5
8B6
102
{ACAD_REACTORS
330
C
102
}
330
C
100
AcDbDictionary
281
     1
  0
DICTIONARY
  5
DED
102
{ACAD_REACTORS
330
C
102
}
330
C
100
AcDbDictionary
281
     1
  3
ASEBlockHierarchyIndexRecord
350
DEE
1001
DCO15
1040
1689076462.636
  0
XRECORD
  5
DE9
102
{ACAD_REACTORS
330
DE8
102
}
330
DE8
100
AcDbXrecord
280
     1
290
     1
  0
XRECORD
  5
DEB
102
{ACAD_REACTORS
330
DEA
102
}
330
DEA
100
AcDbXrecord
280
     1
290
     1
  0
LAYOUT
  5
1E
102
{ACAD_REACTORS
330
1A
102
}
330
1A
100
AcDbPlotSettings
  1

  2

  4

  6

 40
0.0
 41
0.0
 42
0.0
 43
0.0
 44
0.0
 45
0.0
 46
0.0
 47
0.0
 48
0.0
 49
0.0
140
0.0
141
0.0
142
1.0
143
1.0
 70
   688
 72
     0
 73
     0
 74
     5
  7

 75
    16
147
1.0
 76
     0
 77
     2
 78
   300
148
0.0
149
0.0
100
AcDbLayout
  1
Layout1
 70
     1
 71
     1
 10
0.0
 20
0.0
 11
12.0
 21
9.0
 12
0.0
 22
0.0
 32
0.0
 14
1.000000000000000E+20
 24
1.000000000000000E+20
 34
1.000000000000000E+20
 15
-1.000000000000000E+20
 25
-1.000000000000000E+20
 35
-1.000000000000000E+20
146
0.0
 13
0.0
 23
0.0
 33
0.0
 16
1.0
 26
0.0
 36
0.0
 17
0.0
 27
1.0
 37
0.0
 76
     0
330
1B
  0
LAYOUT
  5
26
102
{ACAD_REACTORS
330
1A
102
}
330
1A
100
AcDbPlotSettings
  1

  2

  4

  6

 40
0.0
 41
0.0
 42
0.0
 43
0.0
 44
0.0
 45
0.0
 46
0.0
 47
0.0
 48
0.0
 49
0.0
140
0.0
141
0.0
142
1.0
143
1.0
 70
   688
 72
     0
 73
     0
 74
     5
  7

 75
    16
147
1.0
 76
     0
 77
     2
 78
   300
148
0.0
149
0.0
100
AcDbLayout
  1
Layout2
 70
     1
 71
     2
 10
0.0
 20
0.0
 11
12.0
 21
9.0
 12
0.0
 22
0.0
 32
0.0
 14
0.0
 24
0.0
 34
0.0
 15
0.0
 25
0.0
 35
0.0
146
0.0
 13
0.0
 23
0.0
 33
0.0
 16
1.0
 26
0.0
 36
0.0
 17
0.0
 27
1.0
 37
0.0
 76
     0
330
23
  0
LAYOUT
  5
22
102
{ACAD_REACTORS
330
1A
102
}
330
1A
100
AcDbPlotSettings
  1

  2

  4

  6

 40
0.0
 41
0.0
 42
0.0
 43
0.0
 44
0.0
 45
0.0
 46
0.0
 47
0.0
 48
0.0
 49
0.0
140
0.0
141
0.0
142
1.0
143
1.0
 70
  1712
 72
     0
 73
     0
 74
     0
  7

 75
     0
147
1.0
 76
     0
 77
     2
 78
   300
148
0.0
149
0.0
100
AcDbLayout
  1
Model
 70
     1
 71
     0
 10
0.0
 20
0.0
 11
12.0
 21
9.0
 12
0.0
 22
0.0
 32
0.0
 14
0.0
 24
0.0
 34
0.0
 15
0.0
 25
0.0
 35
0.0
146
0.0
 13
0.0
 23
0.0
 33
0.0
 16
1.0
 26
0.0
 36
0.0
 17
0.0
 27
1.0
 37
0.0
 76
     0
330
1F
331
291
  0
MATERIAL
  5
294
102
{ACAD_REACTORS
330
C8
102
}
330
C8
100
AcDbMaterial
  1
ByBlock
 73
     1
 78
     1
172
     1
176
     1
270
     1
274
     1
 94
       63
  0
MATERIAL
  5
293
102
{ACAD_REACTORS
330
C8
102
}
330
C8
100
AcDbMaterial
  1
ByLayer
 73
     1
 78
     1
172
     1
176
     1
270
     1
274
     1
 94
       63
  0
MATERIAL
  5
295
102
{ACAD_REACTORS
330
C8
102
}
330
C8
100
AcDbMaterial
  1
Global
 73
     1
 78
     1
172
     1
176
     1
270
     1
274
     1
 94
       63
  0
MLEADERSTYLE
  5
2ED
102
{ACAD_REACTORS
330
2EC
102
}
330
2EC
100
AcDbMLeaderStyle
170
     2
171
     1
172
     0
 90
        2
 40
0.0
 41
0.0
173
     1
 91
-1056964608
340
14
 92
       -2
290
     1
 42
0.09
291
     1
 43
0.36
  3
Standard
 44
0.18
300

342
11
174
     1
178
     6
175
     1
176
     0
 93
-1056964608
 45
0.18
292
     0
297
     0
 46
0.18
 94
-1056964608
 47
1.0
 49
1.0
140
1.0
293
     1
141
0.0
294
     1
177
     0
142
1.0
295
     0
296
     0
143
0.125
1001
ACAD_MLEADERVER
1070
     2
  0
MLINESTYLE
  5
18
102
{ACAD_REACTORS
330
17
102
}
330
17
100
AcDbMlineStyle
  2
STANDARD
 70
     0
  3

 62
   256
 51
90.0
 52
90.0
 71
     2
 49
0.5
 62
   256
  6
BYLAYER
 49
-0.5
 62
   256
  6
BYLAYER
  0
ACDBPLACEHOLDER
  5
F
102
{ACAD_REACTORS
330
E
102
}
330
E
  0
SCALE
  5
2CB
102
{ACAD_REACTORS
330
2CA
102
}
330
2CA
100
AcDbScale
 70
     0
300
1:1
140
1.0
141
1.0
290
     1
  0
SCALE
  5
2CC
102
{ACAD_REACTORS
330
2CA
102
}
330
2CA
100
AcDbScale
 70
     0
300
1:2
140
1.0
141
2.0
290
     0
  0
SCALE
  5
2CD
102
{ACAD_REACTORS
330
2CA
102
}
330
2CA
100
AcDbScale
 70
     0
300
1:4
140
1.0
141
4.0
290
     0
  0
SCALE
  5
2CE
102
{ACAD_REACTORS
330
2CA
102
}
330
2CA
100
AcDbScale
 70
     0
300
1:5
140
1.0
141
5.0
290
     0
  0
SCALE
  5
2CF
102
{ACAD_REACTORS
330
2CA
102
}
330
2CA
100
AcDbScale
 70
     0
300
1:8
140
1.0
141
8.0
290
     0
  0
SCALE
  5
2D0
102
{ACAD_REACTORS
330
2CA
102
}
330
2CA
100
AcDbScale
 70
     0
300
1:10
140
1.0
141
10.0
290
     0
  0
SCALE
  5
2D1
102
{ACAD_REACTORS
330
2CA
102
}
330
2CA
100
AcDbScale
 70
     0
300
1:16
140
1.0
141
16.0
290
     0
  0
SCALE
  5
2D2
102
{ACAD_REACTORS
330
2CA
102
}
330
2CA
100
AcDbScale
 70
     0
300
1:20
140
1.0
141
20.0
290
     0
  0
SCALE
  5
2D3
102
{ACAD_REACTORS
330
2CA
102
}
330
2CA
100
AcDbScale
 70
     0
300
1:30
140
1.0
141
30.0
290
     0
  0
SCALE
  5
2D4
102
{ACAD_REACTORS
330
2CA
102
}
330
2CA
100
AcDbScale
 70
     0
300
1:40
140
1.0
141
40.0
290
     0
  0
SCALE
  5
2D5
102
{ACAD_REACTORS
330
2CA
102
}
330
2CA
100
AcDbScale
 70
     0
300
1:50
140
1.0
141
50.0
290
     0
  0
SCALE
  5
2D6
102
{ACAD_REACTORS
330
2CA
102
}
330
2CA
100
AcDbScale
 70
     0
300
1:100
140
1.0
141
100.0
290
     0
  0
SCALE
  5
2D7
102
{ACAD_REACTORS
330
2CA
102
}
330
2CA
100
AcDbScale
 70
     0
300
2:1
140
2.0
141
1.0
290
     0
  0
SCALE
  5
2D8
102
{ACAD_REACTORS
330
2CA
102
}
330
2CA
100
AcDbScale
 70
     0
300
4:1
140
4.0
141
1.0
290
     0
  0
SCALE
  5
2D9
102
{ACAD_REACTORS
330
2CA
102
}
330
2CA
100
AcDbScale
 70
     0
300
8:1
140
8.0
141
1.0
290
     0
  0
SCALE
  5
2DA
102
{ACAD_REACTORS
330
2CA
102
}
330
2CA
100
AcDbScale
 70
     0
300
10:1
140
10.0
141
1.0
290
     0
  0
SCALE
  5
2DB
102
{ACAD_REACTORS
330
2CA
102
}
330
2CA
100
AcDbScale
 70
     0
300
100:1
140
100.0
141
1.0
290
     0
  0
SCALE
  5
2DC
102
{ACAD_REACTORS
330
2CA
102
}
330
2CA
100
AcDbScale
 70
     0
300
1/128" = 1'-0"
140
0.0078125
141
12.0
290
     0
  0
SCALE
  5
2DD
102
{ACAD_REACTORS
330
2CA
102
}
330
2CA
100
AcDbScale
 70
     0
300
1/64" = 1'-0"
140
0.015625
141
12.0
290
     0
  0
SCALE
  5
2DE
102
{ACAD_REACTORS
330
2CA
102
}
330
2CA
100
AcDbScale
 70
     0
300
1/32" = 1'-0"
140
0.03125
141
12.0
290
     0
  0
SCALE
  5
2DF
102
{ACAD_REACTORS
330
2CA
102
}
330
2CA
100
AcDbScale
 70
     0
300
1/16" = 1'-0"
140
0.0625
141
12.0
290
     0
  0
SCALE
  5
2E0
102
{ACAD_REACTORS
330
2CA
102
}
330
2CA
100
AcDbScale
 70
     0
300
3/32" = 1'-0"
140
0.09375
141
12.0
290
     0
  0
SCALE
  5
2E1
102
{ACAD_REACTORS
330
2CA
102
}
330
2CA
100
AcDbScale
 70
     0
300
1/8" = 1'-0"
140
0.125
141
12.0
290
     0
  0
SCALE
  5
2E2
102
{ACAD_REACTORS
330
2CA
102
}
330
2CA
100
AcDbScale
 70
     0
300
3/16" = 1'-0"
140
0.1875
141
12.0
290
     0
  0
SCALE
  5
2E3
102
{ACAD_REACTORS
330
2CA
102
}
330
2CA
100
AcDbScale
 70
     0
300
1/4" = 1'-0"
140
0.25
141
12.0
290
     0
  0
SCALE
  5
2E4
102
{ACAD_REACTORS
330
2CA
102
}
330
2CA
100
AcDbScale
 70
     0
300
3/8" = 1'-0"
140
0.375
141
12.0
290
     0
  0
SCALE
  5
2E5
102
{ACAD_REACTORS
330
2CA
102
}
330
2CA
100
AcDbScale
 70
     0
300
1/2" = 1'-0"
140
0.5
141
12.0
290
     0
  0
SCALE
  5
2E6
102
{ACAD_REACTORS
330
2CA
102
}
330
2CA
100
AcDbScale
 70
     0
300
3/4" = 1'-0"
140
0.75
141
12.0
290
     0
  0
SCALE
  5
2E7
102
{ACAD_REACTORS
330
2CA
102
}
330
2CA
100
AcDbScale
 70
     0
300
1" = 1'-0"
140
1.0
141
12.0
290
     0
  0
SCALE
  5
2E8
102
{ACAD_REACTORS
330
2CA
102
}
330
2CA
100
AcDbScale
 70
     0
300
1-1/2" = 1'-0"
140
1.5
141
12.0
290
     0
  0
SCALE
  5
2E9
102
{ACAD_REACTORS
330
2CA
102
}
330
2CA
100
AcDbScale
 70
     0
300
3" = 1'-0"
140
3.0
141
12.0
290
     0
  0
SCALE
  5
2EA
102
{ACAD_REACTORS
330
2CA
102
}
330
2CA
100
AcDbScale
 70
     0
300
6" = 1'-0"
140
6.0
141
12.0
290
     0
  0
SCALE
  5
2EB
102
{ACAD_REACTORS
330
2CA
102
}
330
2CA
100
AcDbScale
 70
     0
300
1'-0" = 1'-0"
140
12.0
141
12.0
290
     0
  0
TABLESTYLE
  5
124
102
{ACAD_XDICTIONARY
360
30B
102
}
102
{ACAD_REACTORS
330
123
102
}
330
123
100
AcDbTableStyle
  3
Standard
 70
     0
 71
     0
 40
0.06
 41
0.06
280
     0
281
     0
  7
STANDARD
140
0.18
170
     2
 62
     0
 63
     7
283
     0
 90
      512
 91
        0
  1

274
    -2
284
     1
 64
     0
275
    -2
285
     1
 65
     0
276
    -2
286
     1
 66
     0
277
    -2
287
     1
 67
     0
278
    -2
288
     1
 68
     0
279
    -2
289
     1
 69
     0
  7
STANDARD
140
0.25
170
     5
 62
     0
 63
     7
283
     0
 90
      512
 91
        0
  1

274
    -2
284
     1
 64
     0
275
    -2
285
     1
 65
     0
276
    -2
286
     1
 66
     0
277
    -2
287
     1
 67
     0
278
    -2
288
     1
 68
     0
279
    -2
289
     1
 69
     0
  7
STANDARD
140
0.18
170
     5
 62
     0
 63
     7
283
     0
 90
      512
 91
        0
  1

274
    -2
284
     1
 64
     0
275
    -2
285
     1
 65
     0
276
    -2
286
     1
 66
     0
277
    -2
287
     1
 67
     0
278
    -2
288
     1
 68
     0
279
    -2
289
     1
 69
     0
  0
VISUALSTYLE
  5
29C
102
{ACAD_REACTORS
330
296
102
}
330
296
100
AcDbVisualStyle
  2
2dWireframe
 70
     4
 71
     0
 72
     2
 73
     0
 90
        0
 40
-0.6
 41
-30.0
 62
     5
 63
     7
421
 16777215
 74
     1
 91
        4
 64
     7
 65
   257
 75
     1
175
     1
 42
1.0
 92
        0
 66
   257
 43
1.0
 76
     1
 77
     6
 78
     2
 67
     7
 79
     5
170
     0
171
     0
290
     0
174
     0
 93
        1
 44
0.0
173
     0
291
     0
 45
0.0
  0
VISUALSTYLE
  5
29E
102
{ACAD_REACTORS
330
296
102
}
330
296
100
AcDbVisualStyle
  2
3D Hidden
 70
     6
 71
     1
 72
     2
 73
     2
 90
        0
 40
-0.6
 41
-30.0
 62
     5
 63
     7
421
 16777215
 74
     2
 91
        2
 64
     7
 65
   257
 75
     2
175
     1
 42
40.0
 92
        0
 66
   257
 43
1.0
 76
     1
 77
     6
 78
     2
 67
     7
 79
     3
170
     0
171
     0
290
     0
174
     0
 93
        1
 44
0.0
173
     0
291
     0
 45
0.0
  0
VISUALSTYLE
  5
29D
102
{ACAD_REACTORS
330
296
102
}
330
296
100
AcDbVisualStyle
  2
3dWireframe
 70
     5
 71
     0
 72
     2
 73
     0
 90
        0
 40
-0.6
 41
-30.0
 62
     5
 63
     7
421
 16777215
 74
     1
 91
        4
 64
     7
 65
   257
 75
     1
175
     1
 42
1.0
 92
        0
 66
   257
 43
1.0
 76
     1
 77
     6
 78
     2
 67
     7
 79
     5
170
     0
171
     0
290
     0
174
     0
 93
        1
 44
0.0
173
     0
291
     0
 45
0.0
  0
VISUALSTYLE
  5
29B
102
{ACAD_REACTORS
330
296
102
}
330
296
100
AcDbVisualStyle
  2
Basic
 70
     7
 71
     1
 72
     0
 73
     1
 90
        0
 40
-0.6
 41
-30.0
 62
     5
 63
     7
421
 16777215
 74
     0
 91
        4
 64
     7
 65
   257
 75
     1
175
     1
 42
1.0
 92
        8
 66
     7
 43
1.0
 76
     1
 77
     6
 78
     2
 67
     7
 79
     5
170
     0
171
     0
290
     0
174
     0
 93
        1
 44
0.0
173
     0
291
     1
 45
0.0
  0
VISUALSTYLE
  5
2A2
102
{ACAD_REACTORS
330
296
102
}
330
296
100
AcDbVisualStyle
  2
Brighten
 70
    12
 71
     2
 72
     2
 73
     0
 90
        0
 40
-0.6
 41
-30.0
 62
     5
 63
     7
421
 16777215
 74
     1
 91
        4
 64
     7
 65
   257
 75
     1
175
     1
 42
1.0
 92
        8
 66
     7
 43
1.0
 76
     1
 77
     6
 78
     2
 67
     7
 79
     5
170
     0
171
     0
290
     0
174
     0
 93
        1
 44
50.0
173
     0
291
     1
 45
0.0
  0
VISUALSTYLE
  5
2A6
102
{ACAD_REACTORS
330
296
102
}
330
296
100
AcDbVisualStyle
  2
ColorChange
 70
    16
 71
     2
 72
     2
 73
     3
 90
        0
 40
-0.6
 41
-30.0
 62
     5
 63
     8
421
  8421504
 74
     1
 91
        4
 64
     7
 65
   257
 75
     1
175
     1
 42
1.0
 92
        8
 66
     8
424
  8421504
 43
1.0
 76
     1
 77
     6
 78
     2
 67
     7
 79
     5
170
     0
171
     0
290
     0
174
     0
 93
        1
 44
0.0
173
     0
291
     1
 45
0.0
  0
VISUALSTYLE
  5
29F
102
{ACAD_REACTORS
330
296
102
}
330
296
100
AcDbVisualStyle
  2
Conceptual
 70
     9
 71
     3
 72
     2
 73
     0
 90
        0
 40
-0.6
 41
-30.0
 62
     5
 63
     7
421
 16777215
 74
     2
 91
        2
 64
     7
 65
   257
 75
     1
175
     1
 42
40.0
 92
        8
 66
     7
 43
1.0
 76
     1
 77
     6
 78
     2
 67
     7
 79
     3
170
     0
171
     0
290
     0
174
     0
 93
        1
 44
0.0
173
     0
291
     0
 45
0.0
  0
VISUALSTYLE
  5
2A1
102
{ACAD_REACTORS
330
296
102
}
330
296
100
AcDbVisualStyle
  2
Dim
 70
    11
 71
     2
 72
     2
 73
     0
 90
        0
 40
-0.6
 41
-30.0
 62
     5
 63
     7
421
 16777215
 74
     1
 91
        4
 64
     7
 65
   257
 75
     1
175
     1
 42
1.0
 92
        8
 66
     7
 43
1.0
 76
     1
 77
     6
 78
     2
 67
     7
 79
     5
170
     0
171
     0
290
     0
174
     0
 93
        1
 44
-50.0
173
     0
291
     1
 45
0.0
  0
VISUALSTYLE
  5
2A5
102
{ACAD_REACTORS
330
296
102
}
330
296
100
AcDbVisualStyle
  2
Facepattern
 70
    15
 71
     2
 72
     2
 73
     0
 90
        0
 40
-0.6
 41
-30.0
 62
     5
 63
     7
421
 16777215
 74
     1
 91
        4
 64
     7
 65
   257
 75
     1
175
     1
 42
1.0
 92
        8
 66
     7
 43
1.0
 76
     1
 77
     6
 78
     2
 67
     7
 79
     5
170
     0
171
     0
290
     0
174
     0
 93
        1
 44
0.0
173
     0
291
     1
 45
0.0
  0
VISUALSTYLE
  5
297
102
{ACAD_REACTORS
330
296
102
}
330
296
100
AcDbVisualStyle
  2
Flat
 70
     0
 71
     2
 72
     1
 73
     1
 90
        2
 40
-0.6
 41
30.0
 62
     5
 63
     7
421
 16777215
 74
     0
 91
        4
 64
     7
 65
   257
 75
     1
175
     1
 42
1.0
 92
        8
 66
     7
 43
1.0
 76
     1
 77
     6
 78
     2
 67
     7
 79
     5
170
     0
171
     0
290
     0
174
     0
 93
       13
 44
0.0
173
     0
291
     1
 45
0.0
  0
VISUALSTYLE
  5
298
102
{ACAD_REACTORS
330
296
102
}
330
296
100
AcDbVisualStyle
  2
FlatWithEdges
 70
     1
 71
     2
 72
     1
 73
     1
 90
        2
 40
-0.6
 41
30.0
 62
     5
 63
     7
421
 16777215
 74
     1
 91
        4
 64
     7
 65
   257
 75
     1
175
     1
 42
1.0
 92
        0
 66
   257
 43
1.0
 76
     1
 77
     6
 78
     2
 67
     7
 79
     5
170
     0
171
     0
290
     0
174
     0
 93
       13
 44
0.0
173
     0
291
     1
 45
0.0
  0
VISUALSTYLE
  5
299
102
{ACAD_REACTORS
330
296
102
}
330
296
100
AcDbVisualStyle
  2
Gouraud
 70
     2
 71
     2
 72
     2
 73
     1
 90
        2
 40
-0.6
 41
30.0
 62
     5
 63
     7
421
 16777215
 74
     0
 91
        4
 64
     7
 65
   257
 75
     1
175
     1
 42
1.0
 92
        0
 66
     7
 43
1.0
 76
     1
 77
     6
 78
     2
 67
     7
 79
     5
170
     0
171
     0
290
     0
174
     0
 93
       13
 44
0.0
173
     0
291
     1
 45
0.0
  0
VISUALSTYLE
  5
29A
102
{ACAD_REACTORS
330
296
102
}
330
296
100
AcDbVisualStyle
  2
GouraudWithEdges
 70
     3
 71
     2
 72
     2
 73
     1
 90
        2
 40
-0.6
 41
30.0
 62
     5
 63
     7
421
 16777215
 74
     1
 91
        4
 64
     7
 65
   257
 75
     1
175
     1
 42
1.0
 92
        0
 66
   257
 43
1.0
 76
     1
 77
     6
 78
     2
 67
     7
 79
     5
170
     0
171
     0
290
     0
174
     0
 93
       13
 44
0.0
173
     0
291
     1
 45
0.0
  0
VISUALSTYLE
  5
2A4
102
{ACAD_REACTORS
330
296
102
}
330
296
100
AcDbVisualStyle
  2
Linepattern
 70
    14
 71
     2
 72
     2
 73
     0
 90
        0
 40
-0.6
 41
-30.0
 62
     5
 63
     7
421
 16777215
 74
     1
 91
        4
 64
     7
 65
   257
 75
     7
175
     7
 42
1.0
 92
        8
 66
     7
 43
1.0
 76
     1
 77
     6
 78
     2
 67
     7
 79
     5
170
     0
171
     0
290
     0
174
     0
 93
        1
 44
0.0
173
     0
291
     1
 45
0.0
  0
VISUALSTYLE
  5
2A0
102
{ACAD_REACTORS
330
296
102
}
330
296
100
AcDbVisualStyle
  2
Realistic
 70
     8
 71
     2
 72
     2
 73
     0
 90
        0
 40
-0.6
 41
-30.0
 62
     5
 63
     7
421
 16777215
 74
     1
 91
        0
 64
     7
 65
   257
 75
     1
175
     1
 42
1.0
 92
        8
 66
     8
424
  7895160
 43
1.0
 76
     1
 77
     6
 78
     2
 67
     7
 79
     5
170
     0
171
     0
290
     0
174
     0
 93
       13
 44
0.0
173
     0
291
     0
 45
0.0
  0
VISUALSTYLE
  5
2A3
102
{ACAD_REACTORS
330
296
102
}
330
296
100
AcDbVisualStyle
  2
Thicken
 70
    13
 71
     2
 72
     2
 73
     0
 90
        0
 40
-0.6
 41
-30.0
 62
     5
 63
     7
421
 16777215
 74
     1
 91
        4
 64
     7
 65
   257
 75
     1
175
     1
 42
1.0
 92
       12
 66
     7
 43
1.0
 76
     1
 77
     6
 78
     2
 67
     7
 79
     5
170
     0
171
     0
290
     0
174
     0
 93
        1
 44
0.0
173
     0
291
     1
 45
0.0
  0
DICTIONARYVAR
  5
310
102
{ACAD_REACTORS
330
9E
102
}
330
9E
100
DictionaryVariables
280
     0
  1
1:1
  0
DICTIONARYVAR
  5
30E
102
{ACAD_REACTORS
330
9E
102
}
330
9E
100
DictionaryVariables
280
     0
  1
STANDARD
  0
DICTIONARYVAR
  5
144
102
{ACAD_REACTORS
330
9E
102
}
330
9E
100
DictionaryVariables
280
     0
  1
STANDARD
  0
DICTIONARYVAR
  5
A0
102
{ACAD_REACTORS
330
9E
102
}
330
9E
100
DictionaryVariables
280
     0
  1
2
  0
DICTIONARYVAR
  5
9F
102
{ACAD_REACTORS
330
9E
102
}
330
9E
100
DictionaryVariables
280
     0
  1
1
  0
DICTIONARYVAR
  5
36B
102
{ACAD_REACTORS
330
9E
102
}
330
9E
100
DictionaryVariables
280
     0
  1
1
  0
DICTIONARYVAR
  5
36C
102
{ACAD_REACTORS
330
9E
102
}
330
9E
100
DictionaryVariables
280
     0
  1
15
  0
DICTIONARYVAR
  5
311
102
{ACAD_REACTORS
330
9E
102
}
330
9E
100
DictionaryVariables
280
     0
  1
0
  0
DICTIONARYVAR
  5
30F
102
{ACAD_REACTORS
330
9E
102
}
330
9E
100
DictionaryVariables
280
     0
  1
0
  0
DICTIONARY
  5
69
102
{ACAD_REACTORS
330
63
102
}
330
63
100
AcDbDictionary
281
     1
  0
XRECORD
  5
12C
102
{ACAD_REACTORS
330
63
102
}
330
63
100
AcDbXrecord
280
     1
 90
-1023410169
  0
XRECORD
  5
DEE
102
{ACAD_REACTORS
330
DED
102
}
330
DED
100
AcDbXrecord
280
     1
  0
DICTIONARY
  5
30B
330
124
100
AcDbDictionary
280
     1
281
     1
  3
ACAD_ROUNDTRIP_2008_TABLESTYLE_CELLSTYLEMAP
360
DEF
  0
CELLSTYLEMAP
  5
DEF
102
{ACAD_REACTORS
330
30B
102
}
330
30B
100
AcDbCellStyleMap
 90
        3
300
CELLSTYLE
  1
TABLEFORMAT_BEGIN
 90
        5
170
     1
 91
        0
 92
    32768
 62
   257
 93
        1
300
CONTENTFORMAT
  1
CONTENTFORMAT_BEGIN
 90
        0
 91
        0
 92
      512
 93
        0
300

 40
0.0
140
1.0
 94
        5
 62
     0
340
11
144
0.25
309
CONTENTFORMAT_END
171
     0
 94
        6
 95
        1
302
GRIDFORMAT
  1
GRIDFORMAT_BEGIN
 90
        0
 91
        1
 62
     0
 92
       -2
340
0
 93
        0
 40
0.045
309
GRIDFORMAT_END
 95
        2
302
GRIDFORMAT
  1
GRIDFORMAT_BEGIN
 90
        0
 91
        1
 62
     0
 92
       -2
340
0
 93
        0
 40
0.045
309
GRIDFORMAT_END
 95
        4
302
GRIDFORMAT
  1
GRIDFORMAT_BEGIN
 90
        0
 91
        1
 62
     0
 92
       -2
340
0
 93
        0
 40
0.045
309
GRIDFORMAT_END
 95
        8
302
GRIDFORMAT
  1
GRIDFORMAT_BEGIN
 90
        0
 91
        1
 62
     0
 92
       -2
340
0
 93
        0
 40
0.045
309
GRIDFORMAT_END
 95
       16
302
GRIDFORMAT
  1
GRIDFORMAT_BEGIN
 90
        0
 91
        1
 62
     0
 92
       -2
340
0
 93
        0
 40
0.045
309
GRIDFORMAT_END
 95
       32
302
GRIDFORMAT
  1
GRIDFORMAT_BEGIN
 90
        0
 91
        1
 62
     0
 92
       -2
340
0
 93
        0
 40
0.045
309
GRIDFORMAT_END
309
TABLEFORMAT_END
  1
CELLSTYLE_BEGIN
 90
        1
 91
        1
300
_TITLE
309
CELLSTYLE_END
300
CELLSTYLE
  1
TABLEFORMAT_BEGIN
 90
        5
170
     1
 91
        0
 92
        0
 62
   257
 93
        1
300
CONTENTFORMAT
  1
CONTENTFORMAT_BEGIN
 90
        0
 91
        0
 92
      512
 93
        0
300

 40
0.0
140
1.0
 94
        5
 62
     0
340
11
144
0.18
309
CONTENTFORMAT_END
171
     0
 94
        6
 95
        1
302
GRIDFORMAT
  1
GRIDFORMAT_BEGIN
 90
        0
 91
        1
 62
     0
 92
       -2
340
0
 93
        0
 40
0.045
309
GRIDFORMAT_END
 95
        2
302
GRIDFORMAT
  1
GRIDFORMAT_BEGIN
 90
        0
 91
        1
 62
     0
 92
       -2
340
0
 93
        0
 40
0.045
309
GRIDFORMAT_END
 95
        4
302
GRIDFORMAT
  1
GRIDFORMAT_BEGIN
 90
        0
 91
        1
 62
     0
 92
       -2
340
0
 93
        0
 40
0.045
309
GRIDFORMAT_END
 95
        8
302
GRIDFORMAT
  1
GRIDFORMAT_BEGIN
 90
        0
 91
        1
 62
     0
 92
       -2
340
0
 93
        0
 40
0.045
309
GRIDFORMAT_END
 95
       16
302
GRIDFORMAT
  1
GRIDFORMAT_BEGIN
 90
        0
 91
        1
 62
     0
 92
       -2
340
0
 93
        0
 40
0.045
309
GRIDFORMAT_END
 95
       32
302
GRIDFORMAT
  1
GRIDFORMAT_BEGIN
 90
        0
 91
        1
 62
     0
 92
       -2
340
0
 93
        0
 40
0.045
309
GRIDFORMAT_END
309
TABLEFORMAT_END
  1
CELLSTYLE_BEGIN
 90
        2
 91
        1
300
_HEADER
309
CELLSTYLE_END
300
CELLSTYLE
  1
TABLEFORMAT_BEGIN
 90
        5
170
     1
 91
        0
 92
        0
 62
   257
 93
        1
300
CONTENTFORMAT
  1
CONTENTFORMAT_BEGIN
 90
        0
 91
        0
 92
      512
 93
        0
300

 40
0.0
140
1.0
 94
        2
 62
     0
340
11
144
0.18
309
CONTENTFORMAT_END
171
     0
 94
        6
 95
        1
302
GRIDFORMAT
  1
GRIDFORMAT_BEGIN
 90
        0
 91
        1
 62
     0
 92
       -2
340
0
 93
        0
 40
0.045
309
GRIDFORMAT_END
 95
        2
302
GRIDFORMAT
  1
GRIDFORMAT_BEGIN
 90
        0
 91
        1
 62
     0
 92
       -2
340
0
 93
        0
 40
0.045
309
GRIDFORMAT_END
 95
        4
302
GRIDFORMAT
  1
GRIDFORMAT_BEGIN
 90
        0
 91
        1
 62
     0
 92
       -2
340
0
 93
        0
 40
0.045
309
GRIDFORMAT_END
 95
        8
302
GRIDFORMAT
  1
GRIDFORMAT_BEGIN
 90
        0
 91
        1
 62
     0
 92
       -2
340
0
 93
        0
 40
0.045
309
GRIDFORMAT_END
 95
       16
302
GRIDFORMAT
  1
GRIDFORMAT_BEGIN
 90
        0
 91
        1
 62
     0
 92
       -2
340
0
 93
        0
 40
0.045
309
GRIDFORMAT_END
 95
       32
302
GRIDFORMAT
  1
GRIDFORMAT_BEGIN
 90
        0
 91
        1
 62
     0
 92
       -2
340
0
 93
        0
 40
0.045
309
GRIDFORMAT_END
309
TABLEFORMAT_END
  1
CELLSTYLE_BEGIN
 90
        3
 91
        2
300
_DATA
309
CELLSTYLE_END
  0
ENDSEC
  0
EOF
