  0
SECTION
  2
HEADER
  9
$ACADVER
  1
AC1018
  9
$ACADMAINTVER
 70
     0
  9
$DWGCODEPAGE
  3
ANSI_936
  9
$INSBASE
 10
0.0
 20
0.0
 30
0.0
  9
$EXTMIN
 10
837.9999999999307
 20
-78.68190953976678
 30
0.0
  9
$EXTMAX
 10
1518.088243244589
 20
796.3181656316491
 30
0.0
  9
$LIMMIN
 10
0.0
 20
0.0
  9
$LIMMAX
 10
12.0
 20
9.0
  9
$ORTHOMODE
 70
     0
  9
$REGENMODE
 70
     1
  9
$FILLMODE
 70
     1
  9
$QTEXTMODE
 70
     0
  9
$MIRRTEXT
 70
     1
  9
$LTSCALE
 40
1.0
  9
$ATTMODE
 70
     1
  9
$TEXTSIZE
 40
0.2
  9
$TRACEWID
 40
0.05
  9
$TEXTSTYLE
  7
Standard
  9
$CLAYER
  8
UJK102
  9
$CELTYPE
  6
ByLayer
  9
$CECOLOR
 62
   256
  9
$CELTSCALE
 40
1.0
  9
$DISPSILH
 70
     0
  9
$DIMSCALE
 40
1.0
  9
$DIMASZ
 40
0.18
  9
$DIMEXO
 40
0.0625
  9
$DIMDLI
 40
0.38
  9
$DIMRND
 40
0.0
  9
$DIMDLE
 40
0.0
  9
$DIMEXE
 40
0.18
  9
$DIMTP
 40
0.0
  9
$DIMTM
 40
0.0
  9
$DIMTXT
 40
0.18
  9
$DIMCEN
 40
0.09
  9
$DIMTSZ
 40
0.0
  9
$DIMTOL
 70
     0
  9
$DIMLIM
 70
     0
  9
$DIMTIH
 70
     1
  9
$DIMTOH
 70
     1
  9
$DIMSE1
 70
     0
  9
$DIMSE2
 70
     0
  9
$DIMTAD
 70
     0
  9
$DIMZIN
 70
     0
  9
$DIMBLK
  1

  9
$DIMASO
 70
     1
  9
$DIMSHO
 70
     1
  9
$DIMPOST
  1

  9
$DIMAPOST
  1

  9
$DIMALT
 70
     0
  9
$DIMALTD
 70
     2
  9
$DIMALTF
 40
25.4
  9
$DIMLFAC
 40
1.0
  9
$DIMTOFL
 70
     0
  9
$DIMTVP
 40
0.0
  9
$DIMTIX
 70
     0
  9
$DIMSOXD
 70
     0
  9
$DIMSAH
 70
     0
  9
$DIMBLK1
  1

  9
$DIMBLK2
  1

  9
$DIMSTYLE
  2
Standard
  9
$DIMCLRD
 70
     0
  9
$DIMCLRE
 70
     0
  9
$DIMCLRT
 70
     0
  9
$DIMTFAC
 40
1.0
  9
$DIMGAP
 40
0.09
  9
$DIMJUST
 70
     0
  9
$DIMSD1
 70
     0
  9
$DIMSD2
 70
     0
  9
$DIMTOLJ
 70
     1
  9
$DIMTZIN
 70
     0
  9
$DIMALTZ
 70
     0
  9
$DIMALTTZ
 70
     0
  9
$DIMUPT
 70
     0
  9
$DIMDEC
 70
     4
  9
$DIMTDEC
 70
     4
  9
$DIMALTU
 70
     2
  9
$DIMALTTD
 70
     2
  9
$DIMTXSTY
  7
Standard
  9
$DIMAUNIT
 70
     0
  9
$DIMADEC
 70
     0
  9
$DIMALTRND
 40
0.0
  9
$DIMAZIN
 70
     0
  9
$DIMDSEP
 70
    46
  9
$DIMATFIT
 70
     3
  9
$DIMFRAC
 70
     0
  9
$DIMLDRBLK
  1

  9
$DIMLUNIT
 70
     2
  9
$DIMLWD
 70
    -2
  9
$DIMLWE
 70
    -2
  9
$DIMTMOVE
 70
     2
  9
$LUNITS
 70
     2
  9
$LUPREC
 70
     3
  9
$SKETCHINC
 40
0.1
  9
$FILLETRAD
 40
0.5
  9
$AUNITS
 70
     0
  9
$AUPREC
 70
     0
  9
$MENU
  1
.
  9
$ELEVATION
 40
0.0
  9
$PELEVATION
 40
0.0
  9
$THICKNESS
 40
0.0
  9
$LIMCHECK
 70
     0
  9
$CHAMFERA
 40
0.5
  9
$CHAMFERB
 40
0.5
  9
$CHAMFERC
 40
1.0
  9
$CHAMFERD
 40
0.0
  9
$SKPOLY
 70
     0
  9
$TDCREATE
 40
2458218.005082431
  9
$TDUCREATE
 40
2458217.671749097
  9
$TDUPDATE
 40
2458218.0050825
  9
$TDUUPDATE
 40
2458217.671749167
  9
$TDINDWG
 40
0.0000000116
  9
$TDUSRTIMER
 40
0.0000000116
  9
$USRTIMER
 70
     1
  9
$ANGBASE
 50
0.0
  9
$ANGDIR
 70
     0
  9
$PDMODE
 70
     0
  9
$PDSIZE
 40
0.0
  9
$PLINEWID
 40
0.0
  9
$SPLFRAME
 70
     0
  9
$SPLINETYPE
 70
     6
  9
$SPLINESEGS
 70
     8
  9
$HANDSEED
  5
14B
  9
$SURFTAB1
 70
     6
  9
$SURFTAB2
 70
     6
  9
$SURFTYPE
 70
     6
  9
$SURFU
 70
     6
  9
$SURFV
 70
     6
  9
$UCSBASE
  2

  9
$UCSNAME
  2

  9
$UCSORG
 10
0.0
 20
0.0
 30
0.0
  9
$UCSXDIR
 10
1.0
 20
0.0
 30
0.0
  9
$UCSYDIR
 10
0.0
 20
1.0
 30
0.0
  9
$UCSORTHOREF
  2

  9
$UCSORTHOVIEW
 70
     0
  9
$UCSORGTOP
 10
0.0
 20
0.0
 30
0.0
  9
$UCSORGBOTTOM
 10
0.0
 20
0.0
 30
0.0
  9
$UCSORGLEFT
 10
0.0
 20
0.0
 30
0.0
  9
$UCSORGRIGHT
 10
0.0
 20
0.0
 30
0.0
  9
$UCSORGFRONT
 10
0.0
 20
0.0
 30
0.0
  9
$UCSORGBACK
 10
0.0
 20
0.0
 30
0.0
  9
$PUCSBASE
  2

  9
$PUCSNAME
  2

  9
$PUCSORG
 10
0.0
 20
0.0
 30
0.0
  9
$PUCSXDIR
 10
1.0
 20
0.0
 30
0.0
  9
$PUCSYDIR
 10
0.0
 20
1.0
 30
0.0
  9
$PUCSORTHOREF
  2

  9
$PUCSORTHOVIEW
 70
     0
  9
$PUCSORGTOP
 10
0.0
 20
0.0
 30
0.0
  9
$PUCSORGBOTTOM
 10
0.0
 20
0.0
 30
0.0
  9
$PUCSORGLEFT
 10
0.0
 20
0.0
 30
0.0
  9
$PUCSORGRIGHT
 10
0.0
 20
0.0
 30
0.0
  9
$PUCSORGFRONT
 10
0.0
 20
0.0
 30
0.0
  9
$PUCSORGBACK
 10
0.0
 20
0.0
 30
0.0
  9
$USERI1
 70
     0
  9
$USERI2
 70
     0
  9
$USERI3
 70
     0
  9
$USERI4
 70
     0
  9
$USERI5
 70
     0
  9
$USERR1
 40
0.0
  9
$USERR2
 40
0.0
  9
$USERR3
 40
0.0
  9
$USERR4
 40
0.0
  9
$USERR5
 40
0.0
  9
$WORLDVIEW
 70
     1
  9
$SHADEDGE
 70
     3
  9
$SHADEDIF
 70
    70
  9
$TILEMODE
 70
     1
  9
$MAXACTVP
 70
    64
  9
$PINSBASE
 10
0.0
 20
0.0
 30
0.0
  9
$PLIMCHECK
 70
     0
  9
$PEXTMIN
 10
1.000000000000000E+20
 20
1.000000000000000E+20
 30
1.000000000000000E+20
  9
$PEXTMAX
 10
-1.000000000000000E+20
 20
-1.000000000000000E+20
 30
-1.000000000000000E+20
  9
$PLIMMIN
 10
0.0
 20
0.0
  9
$PLIMMAX
 10
12.0
 20
9.0
  9
$UNITMODE
 70
     0
  9
$VISRETAIN
 70
     1
  9
$PLINEGEN
 70
     0
  9
$PSLTSCALE
 70
     1
  9
$TREEDEPTH
 70
  3020
  9
$CMLSTYLE
  2
Standard
  9
$CMLJUST
 70
     0
  9
$CMLSCALE
 40
1.0
  9
$PROXYGRAPHICS
 70
     1
  9
$MEASUREMENT
 70
     0
  9
$CELWEIGHT
370
    -1
  9
$ENDCAPS
280
     0
  9
$JOINSTYLE
280
     0
  9
$LWDISPLAY
290
     0
  9
$INSUNITS
 70
     4
  9
$HYPERLINKBASE
  1

  9
$STYLESHEET
  1

  9
$XEDIT
290
     1
  9
$CEPSNTYPE
380
     0
  9
$PSTYLEMODE
290
     1
  9
$FINGERPRINTGUID
  2
{2F77FC37-7D6B-484A-A957-DAB785313A76}
  9
$VERSIONGUID
  2
{FAEB1C32-E019-11D5-929B-00C0DF256EC4}
  9
$EXTNAMES
290
     1
  9
$PSVPSCALE
 40
0.0
  9
$OLESTARTUP
290
     0
  9
$SORTENTS
280
   127
  9
$INDEXCTL
280
     0
  9
$HIDETEXT
280
     1
  9
$XCLIPFRAME
290
     0
  9
$HALOGAP
280
     0
  9
$OBSCOLOR
 70
   257
  9
$OBSLTYPE
280
     0
  9
$INTERSECTIONDISPLAY
280
     0
  9
$INTERSECTIONCOLOR
 70
   257
  9
$DIMASSOC
280
     2
  9
$PROJECTNAME
  1

  0
ENDSEC
  0
SECTION
  2
CLASSES
  0
CLASS
  1
ACDBDICTIONARYWDFLT
  2
AcDbDictionaryWithDefault
  3
ObjectDBX Classes
 90
        0
 91
        4
280
     0
281
     0
  0
CLASS
  1
VISUALSTYLE
  2
AcDbVisualStyle
  3
ObjectDBX Classes
 90
     4095
 91
        4
280
     0
281
     0
  0
CLASS
  1
MATERIAL
  2
AcDbMaterial
  3
ObjectDBX Classes
 90
     1153
 91
        4
280
     0
281
     0
  0
CLASS
  1
SCALE
  2
AcDbScale
  3
ObjectDBX Classes
 90
     1153
 91
        4
280
     0
281
     0
  0
CLASS
  1
SUN
  2
AcDbSun
  3
SCENEOE
 90
     1153
 91
        4
280
     0
281
     0
  0
CLASS
  1
DICTIONARYVAR
  2
AcDbDictionaryVar
  3
ObjectDBX Classes
 90
        0
 91
        4
280
     0
281
     0
  0
ENDSEC
  0
SECTION
  2
TABLES
  0
TABLE
  2
VPORT
  5
8
330
0
100
AcDbSymbolTable
 70
     1
  0
VPORT
  5
29
330
8
100
AcDbSymbolTableRecord
100
AcDbViewportTableRecord
  2
*Active
 70
     0
 10
0.0
 20
0.0
 11
1.0
 21
1.0
 12
1178.04412162226
 22
358.8181280459413
 13
0.0
 23
0.0
 14
0.5
 24
0.5
 15
0.5
 25
0.5
 16
0.0
 26
0.0
 36
1.0
 17
0.0
 27
0.0
 37
0.0
 40
892.5000766748443
 41
0.7772436397921748
 42
50.0
 43
0.0
 44
0.0
 50
0.0
 51
0.0
 71
     0
 72
   100
 73
     1
 74
     3
 75
     0
 76
     0
 77
     0
 78
     0
281
     0
 65
     1
110
0.0
120
0.0
130
0.0
111
1.0
121
0.0
131
0.0
112
0.0
122
1.0
132
0.0
 79
     0
146
0.0
  0
ENDTAB
  0
TABLE
  2
LTYPE
  5
5
330
0
100
AcDbSymbolTable
 70
     1
  0
LTYPE
  5
14
330
5
100
AcDbSymbolTableRecord
100
AcDbLinetypeTableRecord
  2
ByBlock
 70
     0
  3

 72
    65
 73
     0
 40
0.0
  0
LTYPE
  5
15
330
5
100
AcDbSymbolTableRecord
100
AcDbLinetypeTableRecord
  2
ByLayer
 70
     0
  3

 72
    65
 73
     0
 40
0.0
  0
LTYPE
  5
16
330
5
100
AcDbSymbolTableRecord
100
AcDbLinetypeTableRecord
  2
Continuous
 70
     0
  3
Solid line
 72
    65
 73
     0
 40
0.0
  0
ENDTAB
  0
TABLE
  2
LAYER
  5
2
330
0
100
AcDbSymbolTable
 70
     2
  0
LAYER
  5
10
330
2
100
AcDbSymbolTableRecord
100
AcDbLayerTableRecord
  2
0
 70
     0
 62
     7
  6
Continuous
370
    -3
390
F
  0
LAYER
  5
62
330
2
100
AcDbSymbolTableRecord
100
AcDbLayerTableRecord
  2
UJK102
 70
     0
 62
   172
420
      191
  6
Continuous
370
    -3
390
F
  0
ENDTAB
  0
TABLE
  2
STYLE
  5
3
330
0
100
AcDbSymbolTable
 70
     1
  0
STYLE
  5
11
330
3
100
AcDbSymbolTableRecord
100
AcDbTextStyleTableRecord
  2
Standard
 70
     0
 40
0.0
 41
1.0
 50
0.0
 71
     0
 42
0.2
  3
txt
  4

  0
ENDTAB
  0
TABLE
  2
VIEW
  5
6
330
0
100
AcDbSymbolTable
 70
     0
  0
ENDTAB
  0
TABLE
  2
UCS
  5
7
330
0
100
AcDbSymbolTable
 70
     0
  0
ENDTAB
  0
TABLE
  2
APPID
  5
9
330
0
100
AcDbSymbolTable
 70
     1
  0
APPID
  5
12
330
9
100
AcDbSymbolTableRecord
100
AcDbRegAppTableRecord
  2
ACAD
 70
     0
  0
ENDTAB
  0
TABLE
  2
DIMSTYLE
  5
A
330
0
100
AcDbSymbolTable
 70
     1
100
AcDbDimStyleTable
  0
DIMSTYLE
105
27
330
A
100
AcDbSymbolTableRecord
100
AcDbDimStyleTableRecord
  2
Standard
 70
     0
178
     0
340
11
  0
ENDTAB
  0
TABLE
  2
BLOCK_RECORD
  5
1
330
0
100
AcDbSymbolTable
 70
     1
  0
BLOCK_RECORD
  5
1F
330
1
100
AcDbSymbolTableRecord
100
AcDbBlockTableRecord
  2
*Model_Space
340
22
  0
BLOCK_RECORD
  5
1B
330
1
100
AcDbSymbolTableRecord
100
AcDbBlockTableRecord
  2
*Paper_Space
340
1E
  0
BLOCK_RECORD
  5
23
330
1
100
AcDbSymbolTableRecord
100
AcDbBlockTableRecord
  2
*Paper_Space0
340
26
  0
ENDTAB
  0
ENDSEC
  0
SECTION
  2
BLOCKS
  0
BLOCK
  5
20
330
1F
100
AcDbEntity
  8
0
100
AcDbBlockBegin
  2
*Model_Space
 70
     0
 10
0.0
 20
0.0
 30
0.0
  3
*Model_Space
  1
*Model_Space
  0
ENDBLK
  5
21
330
1F
100
AcDbEntity
  8
0
100
AcDbBlockEnd
  0
BLOCK
  5
1C
330
1B
100
AcDbEntity
 67
     1
  8
0
100
AcDbBlockBegin
  2
*Paper_Space
 70
     0
 10
0.0
 20
0.0
 30
0.0
  3
*Paper_Space
  1
*Paper_Space
  0
ENDBLK
  5
1D
330
1B
100
AcDbEntity
 67
     1
  8
0
100
AcDbBlockEnd
  0
BLOCK
  5
24
330
23
100
AcDbEntity
  8
0
100
AcDbBlockBegin
  2
*Paper_Space0
 70
     0
 10
0.0
 20
0.0
 30
0.0
  3
*Paper_Space0
  1
*Paper_Space0
  0
ENDBLK
  5
25
330
23
100
AcDbEntity
  8
0
100
AcDbBlockEnd
  0
ENDSEC
  0
SECTION
  2
ENTITIES
  0
LINE
  5
63
330
1F
100
AcDbEntity
  8
UJK102
100
AcDbLine
 10
1472.721699865729
 20
786.8837411184959
 30
0.0
 11
1423.453642247131
 21
786.8837437984785
 31
0.0
  0
ARC
  5
64
330
1F
100
AcDbEntity
  8
UJK102
100
AcDbCircle
 10
1472.582166138155
 20
786.6181656322967
 30
0.0
 40
0.3000000000010154
100
AcDbArc
 50
270.0000000004342
 51
62.2825017402062
  0
LINE
  5
65
330
1F
100
AcDbEntity
  8
UJK102
100
AcDbLine
 10
1472.582166138157
 20
786.3181656322959
 30
0.0
 11
1467.681228684351
 21
786.3181656322959
 31
0.0
  0
LINE
  5
66
330
1F
100
AcDbEntity
  8
UJK102
100
AcDbLine
 10
1467.658478060848
 20
786.3181656322959
 30
0.0
 11
1467.604421728309
 21
786.3181656322959
 31
0.0
  0
LINE
  5
67
330
1F
100
AcDbEntity
  8
UJK102
100
AcDbLine
 10
1467.575667893625
 20
786.3181656322959
 30
0.0
 11
1460.444160592283
 21
786.3181656322959
 31
0.0
  0
LINE
  5
68
330
1F
100
AcDbEntity
  8
UJK102
100
AcDbLine
 10
1460.391912290485
 20
786.3181656322959
 30
0.0
 11
1428.60081859553
 21
786.3181656322959
 31
0.0
  0
LINE
  5
69
330
1F
100
AcDbEntity
  8
UJK102
100
AcDbLine
 10
1428.572767772317
 20
786.3181656322959
 30
0.0
 11
1428.518679993233
 21
786.3181656322959
 31
0.0
  0
LINE
  5
6A
330
1F
100
AcDbEntity
  8
UJK102
100
AcDbLine
 10
1428.495167514504
 20
786.3181656322959
 30
0.0
 11
1428.439102985681
 21
786.3181656322959
 31
0.0
  0
LINE
  5
6B
330
1F
100
AcDbEntity
  8
UJK102
100
AcDbLine
 10
1428.381256934541
 20
786.3181656322956
 30
0.0
 11
1423.593170873753
 21
786.3181656322959
 31
0.0
  0
ARC
  5
6C
330
1F
100
AcDbEntity
  8
UJK102
100
AcDbCircle
 10
1468.388243244589
 20
788.8216585179849
 30
0.0
 40
0.3000000000497272
100
AcDbArc
 50
62.28250174121889
 51
89.63656129698415
  0
LINE
  5
6D
330
1F
100
AcDbEntity
  8
UJK102
100
AcDbLine
 10
1456.525938449374
 20
789.0876791871051
 30
0.0
 11
1468.527776972181
 21
789.0872340042297
 31
0.0
  0
ARC
  5
6E
330
1F
100
AcDbEntity
  8
UJK102
100
AcDbCircle
 10
1456.468341579472
 20
789.0566318022484
 30
0.0
 40
0.0654319457822333
100
AcDbArc
 50
28.32672703841203
 51
151.6548129667013
  0
LINE
  5
6F
330
1F
100
AcDbEntity
  8
UJK102
100
AcDbLine
 10
1427.655519602078
 20
789.0876829029515
 30
0.0
 11
1456.525938449376
 21
789.0876791871051
 31
0.0
  0
LINE
  5
70
330
1F
100
AcDbEntity
  8
UJK102
100
AcDbLine
 10
1468.527776972181
 20
789.0872340042297
 30
0.0
 11
1472.715500859733
 21
786.8869980848158
 31
0.0
  0
LINE
  5
71
330
1F
100
AcDbEntity
  8
UJK102
100
AcDbLine
 10
1467.529086769237
 20
790.6249529543711
 30
0.0
 11
1460.54476092853
 21
790.624952954784
 31
0.0
  0
LINE
  5
72
330
1F
100
AcDbEntity
  8
UJK102
100
AcDbLine
 10
1460.54476092853
 20
790.624952954784
 30
0.0
 11
1460.544760811043
 21
789.1216831983093
 31
0.0
  0
LINE
  5
73
330
1F
100
AcDbEntity
  8
UJK102
100
AcDbLine
 10
1428.272966151241
 20
790.6249529531287
 30
0.0
 11
1460.54476092853
 21
790.624952954784
 31
0.0
  0
ARC
  5
74
330
1F
100
AcDbEntity
  8
UJK102
100
AcDbCircle
 10
1448.088243247052
 20
738.318165621194
 30
0.0
 40
58.00000001045502
100
AcDbArc
 50
72.00503221563399
 51
107.9963457389638
  0
SPLINE
  5
75
330
1F
100
AcDbEntity
  8
UJK102
100
AcDbSpline
210
0.0
220
0.0
230
1.0
 70
    12
 71
     2
 72
     6
 73
     3
 74
     0
 42
0.000000001
 43
0.0000000001
 12
1.0
 22
0.0
 32
0.0
 13
1.0
 23
0.0
 33
0.0
 40
0.0
 40
0.0
 40
0.0
 40
3.769659053575651
 40
3.769659053575651
 40
3.769659053575651
 10
1460.54476092853
 20
790.624952954784
 30
0.0
 41
1.0
 10
1460.544761080713
 20
792.8043888659502
 30
0.0
 41
0.8090407962028099
 10
1459.253823519814
 20
793.4780449575322
 30
0.0
 41
0.9999980775137387
  0
SPLINE
  5
76
330
1F
100
AcDbEntity
  8
UJK102
100
AcDbSpline
210
0.0
220
0.0
230
1.0
 70
     8
 71
     3
 72
    12
 73
     8
 74
     0
 42
0.000000001
 43
0.0000000001
 12
1.0
 22
0.0
 32
0.0
 13
1.0
 23
0.0
 33
0.0
 40
0.0000027250978221
 40
0.0000027250978221
 40
0.0000027250978221
 40
0.0000027250978221
 40
11.42988869567334
 40
11.42988869567334
 40
11.42988869567334
 40
24.78131797568232
 40
38.13275465906855
 40
38.13275465906855
 40
38.13275465906855
 40
38.13275465906855
 10
1430.160970526865
 20
793.4780504472947
 30
0.0
 10
1430.150405978392
 20
793.4780504468906
 30
0.0
 10
1431.550427626367
 20
793.4780504469911
 30
0.0
 10
1434.062653302273
 20
793.478050446538
 30
0.0
 10
1436.96389887368
 20
793.4780504461748
 30
0.0
 10
1445.849781843489
 20
793.4780504452962
 30
0.0
 10
1455.59783793029
 20
793.4780504446431
 30
0.0
 10
1459.253813005006
 20
793.4780504444698
 30
0.0
  0
SPLINE
  5
77
330
1F
100
AcDbEntity
  8
UJK102
100
AcDbSpline
210
0.0
220
0.0
230
1.0
 70
    24
 71
     3
 72
    11
 73
     7
 74
     0
 42
0.000000001
 43
0.0000000001
 12
1.0
 22
0.0
 32
0.0
 13
1.0
 23
0.0
 33
0.0
 40
0.0
 40
0.0
 40
0.0
 40
0.0
 40
0.0000000036715095
 40
0.0000000036715095
 40
0.0000000036715095
 40
15.27347127137121
 40
15.27347127137121
 40
15.27347127137121
 40
15.27347127137121
 10
1466.015515975382
 20
793.478050444648
 30
0.0
 10
1466.015515974159
 20
793.4780504446426
 30
0.0
 10
1466.015515972935
 20
793.4780504446371
 30
0.0
 10
1466.015515971712
 20
793.4780504446317
 30
0.0
 10
1466.047913660902
 20
793.4780504445831
 30
0.0
 10
1463.483473658352
 20
793.4780504445191
 30
0.0
 10
1459.253813005006
 20
793.4780504444698
 30
0.0
  0
ARC
  5
78
330
1F
100
AcDbEntity
  8
UJK102
100
AcDbCircle
 10
1448.088243248034
 20
738.3181656240963
 30
0.0
 40
58.00000000739242
100
AcDbArc
 50
72.01821308692202
 51
73.10405904530516
  0
SPLINE
  5
79
330
1F
100
AcDbEntity
  8
UJK102
100
AcDbSpline
210
0.0
220
0.0
230
1.0
 70
     8
 71
     3
 72
    15
 73
    11
 74
     0
 42
0.000000001
 43
0.0000000001
 12
1.0
 22
0.0
 32
0.0
 13
1.0
 23
0.0
 33
0.0
 40
0.0
 40
0.0
 40
0.0
 40
0.0
 40
0.828246637303671
 40
0.828246637303671
 40
0.828246637303671
 40
8.336809309125153
 40
8.336809309125153
 40
15.84446487442431
 40
15.84446487442431
 40
27.71803471907347
 40
27.71803471907347
 40
27.71803471907347
 40
27.71803471907347
 10
877.4329526951835
 20
371.3181046109075
 30
0.0
 10
877.1571175957754
 20
371.3008065154791
 30
0.0
 10
876.8817714853169
 20
371.2805222021088
 30
0.0
 10
876.6066734729986
 20
371.2572917530197
 30
0.0
 10
874.1198258941688
 20
371.0472917403622
 30
0.0
 10
871.6543848447138
 20
370.5966860461358
 30
0.0
 10
866.8435712947896
 20
369.2723811515934
 30
0.0
 10
864.4962347682315
 20
368.3982858203162
 30
0.0
 10
858.6672780218848
 20
365.6620822782224
 30
0.0
 10
855.3106041085962
 20
363.5169465419167
 30
0.0
 10
852.2778575259648
 20
360.9902849592509
 30
0.0
  0
LINE
  5
7A
330
1F
100
AcDbEntity
  8
UJK102
100
AcDbLine
 10
1270.451226506303
 20
331.3181045971396
 30
0.0
 11
1270.432981019286
 21
331.3181045971396
 31
0.0
  0
LINE
  5
7B
330
1F
100
AcDbEntity
  8
UJK102
100
AcDbLine
 10
1270.375639979032
 20
331.3181045971396
 30
0.0
 11
1270.281251480671
 21
331.3181045971396
 31
0.0
  0
LINE
  5
7C
330
1F
100
AcDbEntity
  8
UJK102
100
AcDbLine
 10
1269.775791763198
 20
331.3181045971396
 30
0.0
 11
1269.766927455936
 21
331.3181045971396
 31
0.0
  0
LINE
  5
7D
330
1F
100
AcDbEntity
  8
UJK102
100
AcDbLine
 10
1269.48462811064
 20
331.3181045971396
 30
0.0
 11
1269.434169184847
 21
331.3181045971396
 31
0.0
  0
LINE
  5
7E
330
1F
100
AcDbEntity
  8
UJK102
100
AcDbLine
 10
1269.123751354598
 20
331.3181045971414
 30
0.0
 11
1268.818680334782
 21
331.3181045971414
 31
0.0
  0
LINE
  5
7F
330
1F
100
AcDbEntity
  8
UJK102
100
AcDbLine
 10
1268.318855739501
 20
331.3181045971414
 30
0.0
 11
1266.904865896718
 21
331.3181045971396
 31
0.0
  0
LINE
  5
80
330
1F
100
AcDbEntity
  8
UJK102
100
AcDbLine
 10
1266.818610574846
 20
331.3181045971396
 30
0.0
 11
1266.313180312798
 21
331.3181045971396
 31
0.0
  0
ARC
  5
81
330
1F
100
AcDbEntity
  8
UJK102
100
AcDbCircle
 10
1270.535185046415
 20
336.3181045973774
 30
0.0
 40
5.000000000237833
100
AcDbArc
 50
269.9999999997264
 51
287.5032882742146
  0
LINE
  5
82
330
1F
100
AcDbEntity
  8
UJK102
100
AcDbLine
 10
1266.279526225454
 20
331.3181045971396
 30
0.0
 11
842.9999268101943
 21
331.3181045971396
 31
0.0
  0
SPLINE
  5
83
330
1F
100
AcDbEntity
  8
UJK102
100
AcDbSpline
210
0.0
220
0.0
230
1.0
 70
    12
 71
     2
 72
     6
 73
     3
 74
     0
 42
0.000000001
 43
0.0000000001
 12
1.0
 22
0.0
 32
0.0
 13
1.0
 23
0.0
 33
0.0
 40
0.0
 40
0.0
 40
0.0
 40
9.071586727996278
 40
9.071586727996278
 40
9.071586727996278
 10
1266.279526225454
 20
331.3181045971396
 30
0.0
 41
1.0
 10
1267.093678266078
 20
331.3183044135246
 30
0.0
 41
0.6546087764687418
 10
1266.977667977829
 20
337.0338218236029
 30
0.0
 41
1.0
  0
SPLINE
  5
84
330
1F
100
AcDbEntity
  8
UJK102
100
AcDbSpline
210
0.0
220
0.0
230
1.0
 70
    12
 71
     3
 72
    74
 73
    70
 74
     0
 42
0.000000001
 43
0.0000000001
 12
1.0
 22
0.0
 32
0.0
 13
1.0
 23
0.0
 33
0.0
 40
0.7294251230933675
 40
0.7294251230933675
 40
0.7294251230933675
 40
0.7294251230933675
 40
71.56268531530635
 40
71.56268531530635
 40
71.56268531530635
 40
87.77273084517483
 40
87.77273084517483
 40
87.77273084517483
 40
104.0335191110852
 40
104.0335191110852
 40
104.0335191110852
 40
120.2808196621125
 40
120.2808196621125
 40
120.2808196621125
 40
136.5359411995805
 40
136.5359411995805
 40
136.5359411995805
 40
169.0272866294656
 40
169.0272866294656
 40
169.0272866294656
 40
201.4533128435245
 40
201.4533128435245
 40
201.4533128435245
 40
233.8974901635725
 40
233.8974901635725
 40
233.8974901635725
 40
250.1253035555971
 40
250.1253035555971
 40
250.1253035555971
 40
266.3284551209241
 40
266.3284551209241
 40
266.3284551209241
 40
347.1949196694363
 40
347.1949196694363
 40
347.1949196694363
 40
379.4291783419709
 40
379.4291783419709
 40
379.4291783419709
 40
395.338565365121
 40
395.338565365121
 40
395.338565365121
 40
411.613734091961
 40
411.613734091961
 40
411.613734091961
 40
427.6640261544963
 40
427.6640261544963
 40
427.6640261544963
 40
435.6976071610821
 40
435.6976071610821
 40
435.6976071610821
 40
443.6790547453949
 40
443.6790547453949
 40
443.6790547453949
 40
451.6356280924546
 40
451.6356280924546
 40
451.6356280924546
 40
459.5716879966279
 40
459.5716879966279
 40
459.5716879966279
 40
467.5663024187009
 40
467.5663024187009
 40
467.5663024187009
 40
498.9776282990699
 40
498.9776282990699
 40
498.9776282990699
 40
499.424154240949
 40
499.424154240949
 40
499.424154240949
 40
499.4270956229676
 40
499.4270956229676
 40
499.4270956229676
 40
499.4270956229676
 10
1266.977667977829
 20
337.0338218236029
 30
0.0
 41
1.0
 10
1243.249727867886
 20
337.0330686114758
 30
0.0
 41
1.0
 10
1219.521787757943
 20
337.0323153993486
 30
0.0
 41
1.0
 10
1195.793847648001
 20
337.0315621872214
 30
0.0
 41
1.0
 10
1190.337837902898
 20
337.0310836722953
 30
0.0
 41
1.0
 10
1184.881828157796
 20
337.0306051573692
 30
0.0
 41
1.0
 10
1179.425818412693
 20
337.0301266424431
 30
0.0
 41
1.0
 10
1173.965313282412
 20
337.0289680774276
 30
0.0
 41
1.0
 10
1168.504808152131
 20
337.0278095124122
 30
0.0
 41
1.0
 10
1163.04430302185
 20
337.0266509473968
 30
0.0
 41
1.0
 10
1157.605225240829
 20
337.0241126502606
 30
0.0
 41
1.0
 10
1152.166147459809
 20
337.0215743531244
 30
0.0
 41
1.0
 10
1146.727069678788
 20
337.0190360559882
 30
0.0
 41
1.0
 10
1141.290761443838
 20
337.0161900735378
 30
0.0
 41
1.0
 10
1135.854453208887
 20
337.0133440910874
 30
0.0
 41
1.0
 10
1130.418144973936
 20
337.010498108637
 30
0.0
 41
1.0
 10
1119.569104377591
 20
337.0086204239712
 30
0.0
 41
1.0
 10
1108.720063781245
 20
337.0067427393054
 30
0.0
 41
1.0
 10
1097.871023184899
 20
337.0048650546396
 30
0.0
 41
1.0
 10
1087.129888348964
 20
337.001336304306
 30
0.0
 41
1.0
 10
1076.388753513029
 20
336.9978075539723
 30
0.0
 41
1.0
 10
1065.647618677094
 20
336.9942788036387
 30
0.0
 41
1.0
 10
1055.072198769703
 20
336.9871458992772
 30
0.0
 41
1.0
 10
1044.496778862313
 20
336.9800129949156
 30
0.0
 41
1.0
 10
1033.921358954923
 20
336.9728800905541
 30
0.0
 41
1.0
 10
1028.695391834382
 20
336.9689887284433
 30
0.0
 41
1.0
 10
1023.469424713842
 20
336.9650973663326
 30
0.0
 41
1.0
 10
1018.243457593302
 20
336.9612060042218
 30
0.0
 41
1.0
 10
1013.062769436059
 20
336.9586334990315
 30
0.0
 41
1.0
 10
1007.882081278817
 20
336.956060993841
 30
0.0
 41
1.0
 10
1002.701393121575
 20
336.9534884886507
 30
0.0
 41
1.0
 10
977.9637297644274
 20
336.9369049429638
 30
0.0
 41
0.999999884225795
 10
953.2260609298951
 20
336.9349003145996
 30
0.0
 41
0.999999884225795
 10
928.4883952099292
 20
336.9474746042542
 30
0.0
 41
1.0
 10
919.1587323782986
 20
336.956448025983
 30
0.0
 41
1.0
 10
910.1462725074447
 20
336.9632284933722
 30
0.0
 41
1.0
 10
901.5728938484074
 20
336.9742392946719
 30
0.0
 41
1.0
 10
897.3447382624282
 20
336.9780532347397
 30
0.0
 41
1.0
 10
893.2177203466089
 20
336.9838659766826
 30
0.0
 41
1.0
 10
889.2154361462125
 20
336.9911623374369
 30
0.0
 41
1.0
 10
885.1211331690157
 20
336.9986264529393
 30
0.0
 41
1.0
 10
881.1573654896051
 20
337.0076431929481
 30
0.0
 41
1.0
 10
877.3524064635815
 20
337.0169844626198
 30
0.0
 41
1.0
 10
873.5994942958471
 20
337.0265780774299
 30
0.0
 41
1.0
 10
870.0006795935469
 20
337.0379538267427
 30
0.0
 41
1.0
 10
866.5930403878931
 20
337.0497584269615
 30
0.0
 41
1.0
 10
864.8906622839695
 20
337.0534132337703
 30
0.0
 41
1.0
 10
863.2298330518969
 20
337.0594220093478
 30
0.0
 41
1.0
 10
861.6218423978079
 20
337.0670847852868
 30
0.0
 41
1.0
 10
860.0242866986588
 20
337.074697834121
 30
0.0
 41
1.0
 10
858.47888601737
 20
337.0839434859042
 30
0.0
 41
1.0
 10
856.9975660964349
 20
337.0936940149804
 30
0.0
 41
1.0
 10
855.5187393795323
 20
337.1050863048424
 30
0.0
 41
1.0
 10
854.1060887604646
 20
337.1172216861124
 30
0.0
 41
1.0
 10
852.7747017326176
 20
337.1291117049259
 30
0.0
 41
1.0
 10
851.5341455883403
 20
337.140685963425
 30
0.0
 41
1.0
 10
850.2935894440628
 20
337.1522602219241
 30
0.0
 41
1.0
 10
849.0530332997853
 20
337.1638344804232
 30
0.0
 41
1.0
 10
847.9966995637684
 20
337.1681761530429
 30
0.0
 41
1.0
 10
846.9403658277515
 20
337.1725178256626
 30
0.0
 41
1.0
 10
845.8840320917345
 20
337.1768594982823
 30
0.0
 41
1.0
 10
843.434513503193
 20
337.1761835855983
 30
0.0
 41
0.9999802823585044
 10
840.9850621642762
 20
337.1943470309362
 30
0.0
 41
0.9999802823585044
 10
838.5358229671942
 20
337.2313487598747
 30
0.0
 41
1.0
 10
838.3869566629432
 20
337.231331909615
 30
0.0
 41
0.9996732450791107
 10
838.2381627953852
 20
337.2359753784071
 30
0.0
 41
0.9996732450791107
 10
838.0895872219055
 20
337.2452746144225
 30
0.0
 41
1.0
 10
838.0888138530723
 20
337.2457061742284
 30
0.0
 41
1.0
 10
838.0880404842392
 20
337.2461377340343
 30
0.0
 41
1.0
 10
838.087267115406
 20
337.2465692938402
 30
0.0
 41
1.0
  0
SPLINE
  5
85
330
1F
100
AcDbEntity
  8
UJK102
100
AcDbSpline
210
0.0
220
0.0
230
1.0
 70
     8
 71
     3
 72
    13
 73
     9
 74
     0
 42
0.000000001
 43
0.0000000001
 12
1.0
 22
0.0
 32
0.0
 13
1.0
 23
0.0
 33
0.0
 40
-0.1309339657120951
 40
-0.1309339657120951
 40
-0.1309339657120951
 40
-0.1309339657120951
 40
0.7064906607455507
 40
1.462660670169601
 40
2.253192368964996
 40
3.070139050011189
 40
4.738777287374143
 40
6.933483346594491
 40
6.933483346594491
 40
6.933483346594491
 40
6.933483346594491
 10
1275.459223806233
 20
337.1863455158345
 30
0.0
 10
1275.453894797649
 20
337.2172972324218
 30
0.0
 10
1275.355527761969
 20
337.2670287637305
 30
0.0
 10
1274.960285771538
 20
337.315353719726
 30
0.0
 10
1274.336186844783
 20
337.3386774321143
 30
0.0
 10
1273.160374201758
 20
337.3371807823055
 30
0.0
 10
1270.857063480199
 20
337.2647234453619
 30
0.0
 10
1268.41149701642
 20
337.1293467039618
 30
0.0
 10
1266.977667977827
 20
337.0338218236029
 30
0.0
  0
LINE
  5
86
330
1F
100
AcDbEntity
  8
UJK102
100
AcDbLine
 10
980.3938296543128
 20
371.3181045914207
 30
0.0
 11
877.4329526951799
 21
371.3181046109094
 31
0.0
  0
SPLINE
  5
87
330
1F
100
AcDbEntity
  8
UJK102
100
AcDbSpline
210
0.0
220
0.0
230
1.0
 70
    24
 71
     3
 72
    11
 73
     7
 74
     0
 42
0.000000001
 43
0.0000000001
 12
1.0
 22
0.0
 32
0.0
 13
1.0
 23
0.0
 33
0.0
 40
5.728812843905125
 40
5.728812843905125
 40
5.728812843905125
 40
5.728812843905125
 40
25.289688225684
 40
25.289688225684
 40
25.289688225684
 40
48.84520147604534
 40
48.84520147604534
 40
48.84520147604534
 40
48.84520147604534
 10
1275.459223806111
 20
337.1863455158073
 30
0.0
 10
1274.454165589238
 20
342.8863139082787
 30
0.0
 10
1273.449107372365
 20
348.5862823007501
 30
0.0
 10
1272.444049155492
 20
354.2862506932215
 30
0.0
 10
1271.465616128092
 20
359.8352201326888
 30
0.0
 10
1270.891752487917
 20
363.0897625618472
 30
0.0
 10
1270.897953058318
 20
363.0545973796598
 30
0.0
  0
SPLINE
  5
88
330
1F
100
AcDbEntity
  8
UJK102
100
AcDbSpline
210
0.0
220
0.0
230
1.0
 70
    12
 71
     3
 72
    17
 73
    13
 74
     0
 42
0.000000001
 43
0.0000000001
 12
1.0
 22
0.0
 32
0.0
 13
1.0
 23
0.0
 33
0.0
 40
0.0
 40
0.0
 40
0.0
 40
0.0
 40
9.550960704574765
 40
9.550960704574765
 40
9.550960704574765
 40
22.87462784329187
 40
22.87462784329187
 40
22.87462784329187
 40
34.64322118797989
 40
34.64322118797989
 40
34.64322118797989
 40
46.41524588168758
 40
46.41524588168758
 40
46.41524588168758
 40
46.41524588168758
 10
1266.977667977829
 20
337.0338218236029
 30
0.0
 41
1.0
 10
1266.538364008995
 20
340.1870298905894
 30
0.0
 41
0.9999941742169334
 10
1266.085881631578
 20
343.3383738560896
 30
0.0
 41
0.9999941742169326
 10
1265.620228753768
 20
346.4877986429564
 30
0.0
 41
1.0
 10
1264.974360815917
 20
350.8818662896825
 30
0.0
 41
0.9999736552133448
 10
1264.289454966979
 20
355.2700185039126
 30
0.0
 41
0.9999736552133449
 10
1263.565565338047
 20
359.6519084708415
 30
0.0
 41
1.0
 10
1262.95185765503
 20
363.3294208645435
 30
0.0
 41
1.000000000000001
 10
1262.417885935901
 20
366.2630564500064
 30
0.0
 41
1.000000000000001
 10
1261.991376750456
 20
368.2617246564147
 30
0.0
 41
1.000000000000001
 10
1261.564743208442
 20
370.2609756111613
 30
0.0
 41
1.000000000000001
 10
1261.245634874587
 20
371.324713893633
 30
0.0
 41
1.0
 10
1261.049123122589
 20
371.3181348746184
 30
0.0
 41
1.0
  0
LINE
  5
89
330
1F
100
AcDbEntity
  8
UJK102
100
AcDbLine
 10
1507.676438066127
 20
366.3181045971396
 30
0.0
 11
1347.622715344666
 21
366.3181045971396
 31
0.0
  0
LINE
  5
8A
330
1F
100
AcDbEntity
  8
UJK102
100
AcDbLine
 10
1507.499980055126
 20
363.3181045971505
 30
0.0
 11
1338.094644654096
 21
363.3181045971451
 31
0.0
  0
SPLINE
  5
8B
330
1F
100
AcDbEntity
  8
UJK102
100
AcDbSpline
210
0.0
220
0.0
230
1.0
 70
    12
 71
     2
 72
     6
 73
     3
 74
     0
 42
0.000000001
 43
0.0000000001
 12
1.0
 22
0.0
 32
0.0
 13
1.0
 23
0.0
 33
0.0
 40
0.0
 40
0.0
 40
0.0
 40
4.712388980387161
 40
4.712388980387161
 40
4.712388980387161
 10
1507.499984431287
 20
363.3181045971505
 30
0.0
 41
1.0
 10
1507.499975611639
 20
366.3181045971437
 30
0.0
 41
0.7071067811869599
 10
1507.676438066127
 20
366.3181045971396
 30
0.0
 41
1.0
  0
LINE
  5
8C
330
1F
100
AcDbEntity
  8
UJK102
100
AcDbLine
 10
1508.088243244477
 20
363.3181045971432
 30
0.0
 11
1507.499984431287
 21
363.3181045971505
 31
0.0
  0
LINE
  5
8D
330
1F
100
AcDbEntity
  8
UJK102
100
AcDbLine
 10
1508.088243244588
 20
366.3181045971396
 30
0.0
 11
1508.088243244477
 21
363.3181045971432
 31
0.0
  0
ARC
  5
8E
330
1F
100
AcDbEntity
  8
UJK102
100
AcDbCircle
 10
1508.088245763323
 20
356.3181092101619
 30
0.0
 40
9.999995850939975
100
AcDbArc
 50
4.795317401275504
 51
88.45235454073243
  0
SPLINE
  5
8F
330
1F
100
AcDbEntity
  8
UJK102
100
AcDbSpline
210
0.0
220
0.0
230
1.0
 70
     8
 71
     3
 72
    12
 73
     8
 74
     0
 42
0.000000001
 43
0.0000000001
 12
1.0
 22
0.0
 32
0.0
 13
1.0
 23
0.0
 33
0.0
 40
0.0
 40
0.0
 40
0.0
 40
0.0
 40
1.419798475637514
 40
2.819347631293699
 40
5.995015823933715
 40
9.620906174437891
 40
13.45588934888402
 40
13.45588934888402
 40
13.45588934888402
 40
13.45588934888402
 10
1518.088243244588
 20
356.3181045971396
 30
0.0
 10
1518.087468842506
 20
356.7931247384859
 30
0.0
 10
1517.951557117257
 20
357.7277454529831
 30
0.0
 10
1517.126541115893
 20
359.5758809657655
 30
0.0
 10
1515.136026735403
 20
361.534716717164
 30
0.0
 10
1511.853797342472
 20
362.9872575155496
 30
0.0
 10
1509.366920065784
 20
363.3180882238848
 30
0.0
 10
1508.088243244477
 20
363.3181045971432
 30
0.0
  0
LINE
  5
90
330
1F
100
AcDbEntity
  8
UJK102
100
AcDbLine
 10
1518.088243244588
 20
-28.68189537929538
 30
0.0
 11
1518.088243244588
 21
356.3181045971396
 31
0.0
  0
SPLINE
  5
91
330
1F
100
AcDbEntity
  8
UJK102
100
AcDbSpline
210
0.0
220
0.0
230
1.0
 70
     8
 71
     3
 72
    13
 73
     9
 74
     0
 42
0.000000001
 43
0.0000000001
 12
1.0
 22
0.0
 32
0.0
 13
1.0
 23
0.0
 33
0.0
 40
0.0
 40
0.0
 40
0.0
 40
0.0
 40
2.055239446548513
 40
4.234056078468463
 40
6.625590225660331
 40
9.0482696104957
 40
14.63106143651473
 40
20.5227376336463
 40
20.5227376336463
 40
20.5227376336463
 40
20.5227376336463
 10
1355.875880936653
 20
331.3181045971396
 30
0.0
 10
1356.561143538327
 20
331.318587884447
 30
0.0
 10
1357.969737664739
 20
331.0732504934203
 30
0.0
 10
1359.951321551867
 20
330.04963272842
 30
0.0
 10
1361.703314456494
 20
328.4914970745613
 30
0.0
 10
1363.782946887865
 20
325.6967278535176
 30
0.0
 10
1365.512093850957
 20
321.3379272474813
 30
0.0
 10
1365.887504239752
 20
317.4994413737531
 30
0.0
 10
1365.817853834505
 20
315.53587826482
 30
0.0
  0
SPLINE
  5
92
330
1F
100
AcDbEntity
  8
UJK102
100
AcDbSpline
210
0.0
220
0.0
230
1.0
 70
    12
 71
     3
 72
   242
 73
   238
 74
     0
 42
0.000000001
 43
0.0000000001
 12
1.0
 22
0.0
 32
0.0
 13
1.0
 23
0.0
 33
0.0
 40
-0.000050766157121
 40
-0.000050766157121
 40
-0.000050766157121
 40
-0.000050766157121
 40
29.0024845986019
 40
29.0024845986019
 40
29.0024845986019
 40
46.44909394521363
 40
46.44909394521363
 40
46.44909394521363
 40
52.2074724532126
 40
52.2074724532126
 40
52.2074724532126
 40
58.09263915982241
 40
58.09263915982241
 40
58.09263915982241
 40
64.08690254010338
 40
64.08690254010338
 40
64.08690254010338
 40
70.16536662622592
 40
70.16536662622592
 40
70.16536662622592
 40
76.27675408690948
 40
76.27675408690948
 40
76.27675408690948
 40
82.41132912773361
 40
82.41132912773361
 40
82.41132912773361
 40
88.57270357522971
 40
88.57270357522971
 40
88.57270357522971
 40
94.76009371797821
 40
94.76009371797821
 40
94.76009371797821
 40
100.9719207577639
 40
100.9719207577639
 40
100.9719207577639
 40
107.206724066045
 40
107.206724066045
 40
107.206724066045
 40
113.4640061925912
 40
113.4640061925912
 40
113.4640061925912
 40
119.7316395207996
 40
119.7316395207996
 40
119.7316395207996
 40
126.0078461982754
 40
126.0078461982754
 40
126.0078461982754
 40
132.2930067206206
 40
132.2930067206206
 40
132.2930067206206
 40
138.5896595828383
 40
138.5896595828383
 40
138.5896595828383
 40
144.8967450616746
 40
144.8967450616746
 40
144.8967450616746
 40
151.2171470464347
 40
151.2171470464347
 40
151.2171470464347
 40
157.5576565382498
 40
157.5576565382498
 40
157.5576565382498
 40
163.9212599949842
 40
163.9212599949842
 40
163.9212599949842
 40
170.3076259808144
 40
170.3076259808144
 40
170.3076259808144
 40
176.7161430261251
 40
176.7161430261251
 40
176.7161430261251
 40
183.1449147202858
 40
183.1449147202858
 40
183.1449147202858
 40
189.5826906630511
 40
189.5826906630511
 40
189.5826906630511
 40
196.0215577453954
 40
196.0215577453954
 40
196.0215577453954
 40
202.4622815200344
 40
202.4622815200344
 40
202.4622815200344
 40
208.9046964347913
 40
208.9046964347913
 40
208.9046964347913
 40
215.3496925252666
 40
215.3496925252666
 40
215.3496925252666
 40
221.7972585433285
 40
221.7972585433285
 40
221.7972585433285
 40
228.2553773431297
 40
228.2553773431297
 40
228.2553773431297
 40
234.7295354621216
 40
234.7295354621216
 40
234.7295354621216
 40
241.2192551728402
 40
241.2192551728402
 40
241.2192551728402
 40
247.7252655608798
 40
247.7252655608798
 40
247.7252655608798
 40
254.2446242963353
 40
254.2446242963353
 40
254.2446242963353
 40
260.7812666089163
 40
260.7812666089163
 40
260.7812666089163
 40
280.2936252399554
 40
280.2936252399554
 40
280.2936252399554
 40
299.7133459693923
 40
299.7133459693923
 40
299.7133459693923
 40
306.1864091538051
 40
306.1864091538051
 40
306.1864091538051
 40
312.6414187169684
 40
312.6414187169684
 40
312.6414187169684
 40
396.9899112983634
 40
396.9899112983634
 40
396.9899112983634
 40
403.402654053725
 40
403.402654053725
 40
403.402654053725
 40
409.836893442927
 40
409.836893442927
 40
409.836893442927
 40
415.0068551308522
 40
415.0068551308522
 40
415.0068551308522
 40
420.1487732078633
 40
420.1487732078633
 40
420.1487732078633
 40
425.2904351718556
 40
425.2904351718556
 40
425.2904351718556
 40
430.5908359867946
 40
430.5908359867946
 40
430.5908359867946
 40
436.0156118487315
 40
436.0156118487315
 40
436.0156118487315
 40
441.2675688622123
 40
441.2675688622123
 40
441.2675688622123
 40
446.4272367675821
 40
446.4272367675821
 40
446.4272367675821
 40
451.5005153239958
 40
451.5005153239958
 40
451.5005153239958
 40
456.5288073222656
 40
456.5288073222656
 40
456.5288073222656
 40
461.5851902827076
 40
461.5851902827076
 40
461.5851902827076
 40
466.6687082474896
 40
466.6687082474896
 40
466.6687082474896
 40
471.7803167235249
 40
471.7803167235249
 40
471.7803167235249
 40
476.9200575665282
 40
476.9200575665282
 40
476.9200575665282
 40
482.0860637822653
 40
482.0860637822653
 40
482.0860637822653
 40
487.2600878666128
 40
487.2600878666128
 40
487.2600878666128
 40
492.4265481148425
 40
492.4265481148425
 40
492.4265481148425
 40
497.5876392612654
 40
497.5876392612654
 40
497.5876392612654
 40
502.7422118677543
 40
502.7422118677543
 40
502.7422118677543
 40
507.8964246620722
 40
507.8964246620722
 40
507.8964246620722
 40
513.0153297853469
 40
513.0153297853469
 40
513.0153297853469
 40
518.0455261979254
 40
518.0455261979254
 40
518.0455261979254
 40
522.9752920582827
 40
522.9752920582827
 40
522.9752920582827
 40
527.8058372290975
 40
527.8058372290975
 40
527.8058372290975
 40
532.5888660555053
 40
532.5888660555053
 40
532.5888660555053
 40
537.4089296180052
 40
537.4089296180052
 40
537.4089296180052
 40
542.276505526837
 40
542.276505526837
 40
542.276505526837
 40
547.1854393521203
 40
547.1854393521203
 40
547.1854393521203
 40
552.1332166901624
 40
552.1332166901624
 40
552.1332166901624
 40
557.1052906049978
 40
557.1052906049978
 40
557.1052906049978
 40
562.0751570636047
 40
562.0751570636047
 40
562.0751570636047
 40
567.0467506141022
 40
567.0467506141022
 40
567.0467506141022
 40
572.0224194766029
 40
572.0224194766029
 40
572.0224194766029
 40
576.9891923452982
 40
576.9891923452982
 40
576.9891923452982
 40
581.9438844085438
 40
581.9438844085438
 40
581.9438844085438
 40
586.8668438728062
 40
586.8668438728062
 40
586.8668438728062
 40
591.4028927883211
 40
591.4028927883211
 40
591.4028927883211
 40
591.4028927883211
 10
838.3730912283183
 20
312.9934181780227
 30
0.0
 41
1.0
 10
840.0218185088816
 20
313.0258327439163
 30
0.0
 41
1.0
 10
841.6705457894446
 20
313.0582473098099
 30
0.0
 41
1.0
 10
843.3192730700079
 20
313.0906618757035
 30
0.0
 41
1.0
 10
845.676349017358
 20
313.1372063694277
 30
0.0
 41
1.0
 10
848.0334249647082
 20
313.1837508631518
 30
0.0
 41
1.0
 10
850.3905009120583
 20
313.230295356876
 30
0.0
 41
1.0
 10
851.3676909389845
 20
313.2536515492247
 30
0.0
 41
1.0
 10
852.3990085213298
 20
313.2772884846815
 30
0.0
 41
1.0
 10
853.4699504203047
 20
313.3001674626594
 30
0.0
 41
1.0
 10
854.564561787422
 20
313.3235614002664
 30
0.0
 41
1.0
 10
855.7032060085776
 20
313.346636165401
 30
0.0
 41
1.0
 10
856.8767736888269
 20
313.369008082369
 30
0.0
 41
1.0
 10
858.0721723576016
 20
313.391802869941
 30
0.0
 41
1.0
 10
859.3020049624548
 20
313.4135486894575
 30
0.0
 41
1.0
 10
860.5558378967501
 20
313.4337216489002
 30
0.0
 41
1.0
 10
861.8273287909717
 20
313.4541829888294
 30
0.0
 41
1.0
 10
863.1307841696593
 20
313.474262359381
 30
0.0
 41
1.0
 10
864.4619019025297
 20
313.4938519792522
 30
0.0
 41
1.0
 10
865.8002424629613
 20
313.5135486399555
 30
0.0
 41
1.0
 10
867.1695295352466
 20
313.5332437969265
 30
0.0
 41
1.0
 10
868.5674445747238
 20
313.5529093121822
 30
0.0
 41
1.0
 10
869.9706695120707
 20
313.5726498502353
 30
0.0
 41
1.0
 10
871.4019765966433
 20
313.5922362006968
 30
0.0
 41
1.0
 10
872.8587103566526
 20
313.6116223230692
 30
0.0
 41
1.0
 10
874.3218154062043
 20
313.6310935972488
 30
0.0
 41
1.0
 10
875.8107877535523
 20
313.6503979610916
 30
0.0
 41
1.0
 10
877.323266216353
 20
313.6695051523784
 30
0.0
 41
1.0
 10
878.8421384024617
 20
313.6886934270278
 30
0.0
 41
1.0
 10
880.3846576105612
 20
313.7076739059233
 30
0.0
 41
1.0
 10
881.9486287665598
 20
313.7264261564742
 30
0.0
 41
1.0
 10
883.5187846375165
 20
313.7452528396517
 30
0.0
 41
1.0
 10
885.1105466653437
 20
313.7638473209536
 30
0.0
 41
1.0
 10
886.721956755516
 20
313.7822046623351
 30
0.0
 41
1.0
 10
888.3393322977505
 20
313.800630198863
 30
0.0
 41
1.0
 10
889.976562103274
 20
313.8188238967415
 30
0.0
 41
1.0
 10
891.6313547025832
 20
313.8367126707108
 30
0.0
 41
1.0
 10
893.2921186311236
 20
313.8546661972491
 30
0.0
 41
1.0
 10
894.9718677860211
 20
313.8725088400425
 30
0.0
 41
1.0
 10
896.6696420111141
 20
313.890299988785
 30
0.0
 41
1.0
 10
898.3702293983272
 20
313.908120708631
 30
0.0
 41
1.0
 10
900.0891261963291
 20
313.9259209953016
 30
0.0
 41
1.0
 10
901.8251905291065
 20
313.9437068497064
 30
0.0
 41
1.0
 10
903.5636317128203
 20
313.9615170800627
 30
0.0
 41
1.0
 10
905.3191903742439
 20
313.9792990684218
 30
0.0
 41
1.0
 10
907.0907972281123
 20
313.9970649250954
 30
0.0
 41
1.0
 10
908.864933091388
 20
314.014856146623
 30
0.0
 41
1.0
 10
910.6552646548981
 20
314.0326450802078
 30
0.0
 41
1.0
 10
912.46062614074
 20
314.0504190821302
 30
0.0
 41
1.0
 10
914.2692903155634
 20
314.0682256012877
 30
0.0
 41
1.0
 10
916.0930216875837
 20
314.0860151810082
 30
0.0
 41
1.0
 10
917.9308538803118
 20
314.1037985472249
 30
0.0
 41
1.0
 10
919.7717333157027
 20
314.1216114222334
 30
0.0
 41
1.0
 10
921.6269895381914
 20
314.1394494056639
 30
0.0
 41
1.0
 10
923.49576539124
 20
314.1573239291411
 30
0.0
 41
1.0
 10
925.3684899196188
 20
314.1752362710577
 30
0.0
 41
1.0
 10
927.2533856694255
 20
314.1929956757886
 30
0.0
 41
1.0
 10
929.1492562894284
 20
314.2105930939833
 30
0.0
 41
1.0
 10
931.0511629539317
 20
314.2282466605211
 30
0.0
 41
1.0
 10
932.9631592914999
 20
314.245610160064
 30
0.0
 41
1.0
 10
934.8837968891542
 20
314.2626494184024
 30
0.0
 41
1.0
 10
936.8114347266327
 20
314.2797509225271
 30
0.0
 41
1.0
 10
938.74799740793
 20
314.2965545552723
 30
0.0
 41
1.0
 10
940.6921944524213
 20
314.3130305498216
 30
0.0
 41
1.0
 10
942.6433502302621
 20
314.3295656193802
 30
0.0
 41
1.0
 10
944.6021702235965
 20
314.3457676135534
 30
0.0
 41
1.0
 10
946.5675427882827
 20
314.3616201769564
 30
0.0
 41
1.0
 10
948.539736404536
 20
314.3775278627272
 30
0.0
 41
1.0
 10
950.5183120664746
 20
314.3930562106943
 30
0.0
 41
1.0
 10
952.5020917956601
 20
314.4081719315254
 30
0.0
 41
1.0
 10
954.4921447507803
 20
314.4233355378344
 30
0.0
 41
1.0
 10
956.4884639723958
 20
314.4382110607733
 30
0.0
 41
1.0
 10
958.4902165875003
 20
314.4527835032241
 30
0.0
 41
1.0
 10
960.4947743817205
 20
314.4673763798272
 30
0.0
 41
1.0
 10
962.5071663566431
 20
314.4819540288005
 30
0.0
 41
1.0
 10
964.5271768596479
 20
314.4965364483796
 30
0.0
 41
1.0
 10
966.5475300793107
 20
314.5111213200944
 30
0.0
 41
1.0
 10
968.5751056190596
 20
314.5256636213252
 30
0.0
 41
1.0
 10
970.6095511598953
 20
314.540169106167
 30
0.0
 41
1.0
 10
972.6445836666915
 20
314.5546787495547
 30
0.0
 41
1.0
 10
974.6866039883364
 20
314.5691647929944
 30
0.0
 41
1.0
 10
976.7353167645608
 20
314.5836364977313
 30
0.0
 41
1.0
 10
978.7845675853943
 20
314.5981119683058
 30
0.0
 41
1.0
 10
980.8404831004328
 20
314.6125694568348
 30
0.0
 41
1.0
 10
982.9026880131835
 20
314.6270060526786
 30
0.0
 41
1.0
 10
984.9657193936741
 20
314.6414484085669
 30
0.0
 41
1.0
 10
987.0352103643266
 20
314.6558883408906
 30
0.0
 41
1.0
 10
989.1109511480747
 20
314.6703407236837
 30
0.0
 41
1.0
 10
991.1875202379541
 20
314.6847988627209
 30
0.0
 41
1.0
 10
993.2696653581675
 20
314.6991955398951
 30
0.0
 41
1.0
 10
995.3569886114121
 20
314.7135265345569
 30
0.0
 41
1.0
 10
997.4477297635766
 20
314.7278810150706
 30
0.0
 41
1.0
 10
999.5417381271538
 20
314.7419644556157
 30
0.0
 41
1.0
 10
1001.638331549294
 20
314.7557519955935
 30
0.0
 41
1.0
 10
1003.740134294959
 20
314.7695738462277
 30
0.0
 41
1.0
 10
1005.844789338013
 20
314.7831247050202
 30
0.0
 41
1.0
 10
1007.951715010398
 20
314.7963843507114
 30
0.0
 41
1.0
 10
1010.063706996295
 20
314.8096759191815
 30
0.0
 41
1.0
 10
1012.177987511384
 20
314.8226756445093
 30
0.0
 41
1.0
 10
1014.293976516388
 20
314.8353557295832
 30
0.0
 41
1.0
 10
1016.415278800046
 20
314.8480677060689
 30
0.0
 41
1.0
 10
1018.538070327767
 20
314.8604356301206
 30
0.0
 41
1.0
 10
1020.66196974532
 20
314.8724635298386
 30
0.0
 41
1.0
 10
1022.790228506141
 20
314.8845160634606
 30
0.0
 41
1.0
 10
1024.92032716926
 20
314.896297941963
 30
0.0
 41
1.0
 10
1027.051494477312
 20
314.907713265
 30
0.0
 41
1.0
 10
1029.188307647844
 20
314.9191582481035
 30
0.0
 41
1.0
 10
1031.324100351937
 20
314.9300391761007
 30
0.0
 41
1.0
 10
1033.459470449189
 20
314.9405215788138
 30
0.0
 41
1.0
 10
1039.901966614528
 20
314.9742794781366
 30
0.0
 41
1.0
 10
1046.344462779865
 20
315.0080373774593
 30
0.0
 41
1.0
 10
1052.786958945203
 20
315.0417952767821
 30
0.0
 41
1.0
 10
1059.2927336808
 20
315.0769882158814
 30
0.0
 41
1.0
 10
1065.798508416397
 20
315.1121811549808
 30
0.0
 41
1.0
 10
1072.304283151994
 20
315.1473740940801
 30
0.0
 41
1.0
 10
1074.482373646124
 20
315.1586444406451
 30
0.0
 41
1.0
 10
1076.660464140254
 20
315.1699147872102
 30
0.0
 41
1.0
 10
1078.838554634385
 20
315.1811851337752
 30
0.0
 41
1.0
 10
1081.025317949658
 20
315.1929007984242
 30
0.0
 41
1.0
 10
1083.212081264931
 20
315.2046164630731
 30
0.0
 41
1.0
 10
1085.398844580204
 20
315.2163321277221
 30
0.0
 41
1.0
 10
1114.103179289254
 20
315.3935322130586
 30
0.0
 41
0.9999987172698158
 10
1142.807806378222
 20
315.5144232496351
 30
0.0
 41
0.9999987172698158
 10
1171.512615386232
 20
315.5790047722367
 30
0.0
 41
1.0
 10
1173.701607707083
 20
315.5842352162838
 30
0.0
 41
1.0
 10
1175.91228639779
 20
315.5895347478215
 30
0.0
 41
1.0
 10
1178.126652281596
 20
315.5941499891051
 30
0.0
 41
1.0
 10
1180.348209256779
 20
315.5988141925537
 30
0.0
 41
1.0
 10
1182.541365944907
 20
315.602419428229
 30
0.0
 41
1.0
 10
1184.755390392121
 20
315.6076377558293
 30
0.0
 41
1.0
 10
1186.532746525348
 20
315.6117845823048
 30
0.0
 41
1.0
 10
1188.351185506315
 20
315.6179435836381
 30
0.0
 41
1.0
 10
1190.144720271646
 20
315.6235911907279
 30
0.0
 41
1.0
 10
1191.927259708705
 20
315.6291153183975
 30
0.0
 41
1.0
 10
1193.707818130201
 20
315.6337810058742
 30
0.0
 41
1.0
 10
1195.500353452845
 20
315.6384791374385
 30
0.0
 41
1.0
 10
1197.292875246064
 20
315.6431783081664
 30
0.0
 41
1.0
 10
1199.081766545283
 20
315.647881127687
 30
0.0
 41
1.0
 10
1200.866772897746
 20
315.652391583817
 30
0.0
 41
1.0
 10
1202.707201700559
 20
315.657054290317
 30
0.0
 41
1.0
 10
1204.4715996954
 20
315.661148785022
 30
0.0
 41
1.0
 10
1206.176422637705
 20
315.6639827722756
 30
0.0
 41
1.0
 10
1207.921648250377
 20
315.666899119797
 30
0.0
 41
1.0
 10
1209.705031580096
 20
315.6688641006861
 30
0.0
 41
1.0
 10
1211.528752581152
 20
315.6702790365707
 30
0.0
 41
1.0
 10
1213.29450045608
 20
315.6716513976461
 30
0.0
 41
1.0
 10
1215.079231772447
 20
315.6724872610793
 30
0.0
 41
1.0
 10
1216.883675834984
 20
315.6730121538858
 30
0.0
 41
1.0
 10
1218.656391351043
 20
315.6735288418419
 30
0.0
 41
1.0
 10
1220.44098842198
 20
315.6737444580174
 30
0.0
 41
1.0
 10
1222.237683857347
 20
315.673812733583
 30
0.0
 41
1.0
 10
1224.00430342233
 20
315.6738808930841
 30
0.0
 41
1.0
 10
1225.786562259616
 20
315.6738044889022
 30
0.0
 41
1.0
 10
1227.58561220106
 20
315.6738082642078
 30
0.0
 41
1.0
 10
1229.36872434674
 20
315.6738127768419
 30
0.0
 41
1.0
 10
1231.144847659503
 20
315.67389640283
 30
0.0
 41
1.0
 10
1232.913067911545
 20
315.6739746408166
 30
0.0
 41
1.0
 10
1234.691175467645
 20
315.6740534032417
 30
0.0
 41
1.0
 10
1236.462415049865
 20
315.6741259201061
 30
0.0
 41
1.0
 10
1238.226904161236
 20
315.6741241525215
 30
0.0
 41
1.0
 10
1240.000865842475
 20
315.6741226272336
 30
0.0
 41
1.0
 10
1241.767639820099
 20
315.6740461636363
 30
0.0
 41
1.0
 10
1243.527259093052
 20
315.673828044326
 30
0.0
 41
1.0
 10
1245.296605328532
 20
315.6736089373026
 30
0.0
 41
1.0
 10
1247.058883030272
 20
315.6732465642746
 30
0.0
 41
1.0
 10
1248.814269348262
 20
315.672681140637
 30
0.0
 41
1.0
 10
1250.579319291648
 20
315.672112820361
 30
0.0
 41
1.0
 10
1252.337155655062
 20
315.67133942711
 30
0.0
 41
1.0
 10
1254.088033434498
 20
315.6703035159662
 30
0.0
 41
1.0
 10
1255.847860998035
 20
315.6692624970436
 30
0.0
 41
1.0
 10
1257.601501737386
 20
315.6679549519962
 30
0.0
 41
1.0
 10
1259.349161382213
 20
315.666337002438
 30
0.0
 41
1.0
 10
1261.099534332259
 20
315.6647166130493
 30
0.0
 41
1.0
 10
1262.849369243038
 20
315.6627697520928
 30
0.0
 41
1.0
 10
1264.598535191845
 20
315.6605087387252
 30
0.0
 41
1.0
 10
1266.345143664697
 20
315.6582510555397
 30
0.0
 41
1.0
 10
1268.090599752762
 20
315.6556818970275
 30
0.0
 41
1.0
 10
1269.834713337819
 20
315.6528113755685
 30
0.0
 41
1.0
 10
1271.577014080519
 20
315.6499437590792
 30
0.0
 41
1.0
 10
1273.31798562253
 20
315.6467761694221
 30
0.0
 41
1.0
 10
1275.057499356353
 20
315.6433100962659
 30
0.0
 41
1.0
 10
1276.7948155914
 20
315.6398487293479
 30
0.0
 41
1.0
 10
1278.531070170905
 20
315.6360838548736
 30
0.0
 41
1.0
 10
1280.26598262751
 20
315.6320593430537
 30
0.0
 41
1.0
 10
1282.000773701507
 20
315.6280352032117
 30
0.0
 41
1.0
 10
1283.732436177466
 20
315.6237705537772
 30
0.0
 41
1.0
 10
1285.460985914678
 20
315.6192304969481
 30
0.0
 41
1.0
 10
1287.177689127558
 20
315.6147216499955
 30
0.0
 41
1.0
 10
1288.904292071865
 20
315.6098139014777
 30
0.0
 41
1.0
 10
1290.639964907702
 20
315.6046427042929
 30
0.0
 41
1.0
 10
1292.345547897082
 20
315.5995623216514
 30
0.0
 41
1.0
 10
1294.064458968536
 20
315.5941773570157
 30
0.0
 41
1.0
 10
1295.795921028908
 20
315.5886724160955
 30
0.0
 41
1.0
 10
1297.492789017996
 20
315.5832788482749
 30
0.0
 41
1.0
 10
1299.200244611239
 20
315.577787679029
 30
0.0
 41
1.0
 10
1300.916226835615
 20
315.572414293365
 30
0.0
 41
1.0
 10
1302.597643422586
 20
315.5671510619831
 30
0.0
 41
1.0
 10
1304.289863830843
 20
315.5619665639462
 30
0.0
 41
1.0
 10
1305.991642892064
 20
315.557121106307
 30
0.0
 41
1.0
 10
1307.676679001828
 20
315.5523244080742
 30
0.0
 41
1.0
 10
1309.347612504759
 20
315.5481304963763
 30
0.0
 41
1.0
 10
1311.00335755263
 20
315.5444926175478
 30
0.0
 41
1.0
 10
1312.671936079415
 20
315.540826509083
 30
0.0
 41
1.0
 10
1314.320870683868
 20
315.5377665332051
 30
0.0
 41
1.0
 10
1315.950960325498
 20
315.5351842219734
 30
0.0
 41
1.0
 10
1317.597125597158
 20
315.5325769066491
 30
0.0
 41
1.0
 10
1319.2251100411
 20
315.5304465531447
 30
0.0
 41
1.0
 10
1320.835838311522
 20
315.5286879726427
 30
0.0
 41
1.0
 10
1322.46025501284
 20
315.5269149765337
 30
0.0
 41
1.0
 10
1324.066723744883
 20
315.5255236360247
 30
0.0
 41
1.0
 10
1325.656440051639
 20
315.5244150230319
 30
0.0
 41
1.0
 10
1327.258743442543
 20
315.5232978109817
 30
0.0
 41
1.0
 10
1328.843956882996
 20
315.5224704315135
 30
0.0
 41
1.0
 10
1330.412707305511
 20
315.5218351246913
 30
0.0
 41
1.0
 10
1331.989167308025
 20
315.5211970548044
 30
0.0
 41
1.0
 10
1333.555289280606
 20
315.5206889147523
 30
0.0
 41
1.0
 10
1335.111068900121
 20
315.5203393346746
 30
0.0
 41
1.0
 10
1336.666156026563
 20
315.5199891017489
 30
0.0
 41
1.0
 10
1338.21165234604
 20
315.519799409285
 30
0.0
 41
1.0
 10
1339.747090084254
 20
315.5196370684353
 30
0.0
 41
1.0
 10
1341.283066114848
 20
315.519477662647
 30
0.0
 41
1.0
 10
1342.807238583536
 20
315.5193320185318
 30
0.0
 41
1.0
 10
1344.318875638111
 20
315.5197893497789
 30
0.0
 41
1.0
 10
1345.831753128289
 20
315.5202441583318
 30
0.0
 41
1.0
 10
1347.33580503517
 20
315.5213261002482
 30
0.0
 41
1.0
 10
1348.831007621798
 20
315.5221124669406
 30
0.0
 41
1.0
 10
1350.323536913619
 20
315.5228944798873
 30
0.0
 41
1.0
 10
1351.803430239415
 20
315.5233551558523
 30
0.0
 41
1.0
 10
1353.27008454857
 20
315.5240861397397
 30
0.0
 41
1.0
 10
1354.733171817244
 20
315.5248191037191
 30
0.0
 41
1.0
 10
1356.189357360784
 20
315.5257787258817
 30
0.0
 41
1.0
 10
1357.636944809171
 20
315.5269531680278
 30
0.0
 41
1.0
 10
1359.075252866672
 20
315.5281185801107
 30
0.0
 41
1.0
 10
1360.504903956456
 20
315.5295010189564
 30
0.0
 41
1.0
 10
1361.924310352105
 20
315.5310372145614
 30
0.0
 41
1.0
 10
1363.232154471888
 20
315.532453176278
 30
0.0
 41
1.0
 10
1364.530544744189
 20
315.5339948136516
 30
0.0
 41
1.0
 10
1365.817853834505
 20
315.53587826482
 30
0.0
 41
1.0
  0
ARC
  5
93
330
1F
100
AcDbEntity
  8
UJK102
100
AcDbCircle
 10
852.9999999997448
 20
316.31810459734
 30
0.0
 40
14.9999999998141
100
AcDbArc
 50
91.4073529933087
 51
192.8057148794515
  0
LINE
  5
94
330
1F
100
AcDbEntity
  8
UJK102
100
AcDbLine
 10
1270.777134570835
 20
331.3181045971396
 30
0.0
 11
1307.955943988503
 21
331.3181045971396
 31
0.0
  0
LINE
  5
95
330
1F
100
AcDbEntity
  8
UJK102
100
AcDbLine
 10
1309.05146110533
 20
331.3181045971396
 30
0.0
 11
1309.073791817748
 21
331.3181045971396
 31
0.0
  0
LINE
  5
96
330
1F
100
AcDbEntity
  8
UJK102
100
AcDbLine
 10
1310.112969319185
 20
331.3181045971396
 30
0.0
 11
1310.187912144226
 21
331.3181045971396
 31
0.0
  0
LINE
  5
97
330
1F
100
AcDbEntity
  8
UJK102
100
AcDbLine
 10
1311.143002910051
 20
331.3181045971414
 30
0.0
 11
1311.309258671519
 21
331.3181045971414
 31
0.0
  0
LINE
  5
98
330
1F
100
AcDbEntity
  8
UJK102
100
AcDbLine
 10
1312.374643782068
 20
331.3181045971396
 30
0.0
 11
1312.426851020099
 21
331.3181045971396
 31
0.0
  0
LINE
  5
99
330
1F
100
AcDbEntity
  8
UJK102
100
AcDbLine
 10
1313.308586468009
 20
331.3181045971414
 30
0.0
 11
1313.540714023649
 21
331.3181045971414
 31
0.0
  0
LINE
  5
9A
330
1F
100
AcDbEntity
  8
UJK102
100
AcDbLine
 10
1314.333417452124
 20
331.3181045971414
 30
0.0
 11
1314.65087251585
 21
331.3181045971396
 31
0.0
  0
LINE
  5
9B
330
1F
100
AcDbEntity
  8
UJK102
100
AcDbLine
 10
1315.449658977564
 20
331.3181045971396
 30
0.0
 11
1315.766744109647
 21
331.3181045971396
 31
0.0
  0
LINE
  5
9C
330
1F
100
AcDbEntity
  8
UJK102
100
AcDbLine
 10
1316.657833286635
 20
331.3181045971396
 30
0.0
 11
1316.878918015576
 21
331.3181045971414
 31
0.0
  0
LINE
  5
9D
330
1F
100
AcDbEntity
  8
UJK102
100
AcDbLine
 10
1317.958462620984
 20
331.3181045971396
 30
0.0
 11
1319.092347555424
 21
331.3181045971396
 31
0.0
  0
LINE
  5
9E
330
1F
100
AcDbEntity
  8
UJK102
100
AcDbLine
 10
1320.083884868849
 20
331.3181045971414
 30
0.0
 11
1321.30887867141
 21
331.3181045971414
 31
0.0
  0
LINE
  5
9F
330
1F
100
AcDbEntity
  8
UJK102
100
AcDbLine
 10
1323.246805831229
 20
331.3181045971414
 30
0.0
 11
1323.511387838756
 21
331.3181045971396
 31
0.0
  0
LINE
  5
A0
330
1F
100
AcDbEntity
  8
UJK102
100
AcDbLine
 10
1324.971373837263
 20
331.3181045971396
 30
0.0
 11
1325.710978510307
 21
331.3181045971396
 31
0.0
  0
LINE
  5
A1
330
1F
100
AcDbEntity
  8
UJK102
100
AcDbLine
 10
1327.73950441506
 20
331.3181045971396
 30
0.0
 11
1327.896689095112
 21
331.3181045971396
 31
0.0
  0
LINE
  5
A2
330
1F
100
AcDbEntity
  8
UJK102
100
AcDbLine
 10
1329.706700651383
 20
331.3181045971396
 30
0.0
 11
1330.067282825662
 21
331.3181045971396
 31
0.0
  0
LINE
  5
A3
330
1F
100
AcDbEntity
  8
UJK102
100
AcDbLine
 10
1331.772569945039
 20
331.3181045971414
 30
0.0
 11
1332.223375675581
 21
331.3181045971396
 31
0.0
  0
LINE
  5
A4
330
1F
100
AcDbEntity
  8
UJK102
100
AcDbLine
 10
1333.938230608863
 20
331.3181045971396
 30
0.0
 11
1334.365369309959
 21
331.3181045971414
 31
0.0
  0
LINE
  5
A5
330
1F
100
AcDbEntity
  8
UJK102
100
AcDbLine
 10
1336.203885062629
 20
331.3181045971396
 30
0.0
 11
1336.492365217674
 21
331.3181045971396
 31
0.0
  0
LINE
  5
A6
330
1F
100
AcDbEntity
  8
UJK102
100
AcDbLine
 10
1338.571362783504
 20
331.3181045971396
 30
0.0
 11
1340.70381994588
 21
331.3181045971396
 31
0.0
  0
LINE
  5
A7
330
1F
100
AcDbEntity
  8
UJK102
100
AcDbLine
 10
1342.316623687483
 20
331.3181045971414
 30
0.0
 11
1344.843055579094
 21
331.3181045971396
 31
0.0
  0
LINE
  5
A8
330
1F
100
AcDbEntity
  8
UJK102
100
AcDbLine
 10
1346.295566975319
 20
331.3181045971414
 30
0.0
 11
1355.875880936653
 21
331.3181045971396
 31
0.0
  0
SPLINE
  5
A9
330
1F
100
AcDbEntity
  8
UJK102
100
AcDbSpline
210
0.0
220
0.0
230
1.0
 70
     8
 71
     3
 72
    32
 73
    28
 74
     0
 42
0.000000001
 43
0.0000000001
 12
1.0
 22
0.0
 32
0.0
 13
1.0
 23
0.0
 33
0.0
 40
0.0
 40
0.0
 40
0.0
 40
0.0
 40
10.89089685374217
 40
21.6247783842045
 40
32.85879625398001
 40
45.70978556372766
 40
60.16063148090311
 40
76.21242116771771
 40
93.87033920308791
 40
103.5041774247184
 40
129.9945598869452
 40
145.2442097632427
 40
175.7532861558819
 40
191.8052268956774
 40
207.0540161044802
 40
237.5659920582346
 40
255.2267168643612
 40
273.6833435245274
 40
292.9435477549999
 40
313.8186116392887
 40
334.6916262623727
 40
357.9662016696718
 40
373.2406937515404
 40
382.0920518634481
 40
400.5113254676083
 40
410.9467587057429
 40
437.5898467203937
 40
437.5898467203937
 40
437.5898467203937
 40
437.5898467203937
 10
838.3730912283183
 20
312.9934181780227
 30
0.0
 10
839.1808071263081
 20
309.4555010913882
 30
0.0
 10
841.1696112793784
 20
302.5090046905625
 30
0.0
 10
845.5953604081466
 20
292.4651338577114
 30
0.0
 10
851.5226875071418
 20
282.4663540623769
 30
0.0
 10
859.1088455673084
 20
272.0882972672789
 30
0.0
 10
868.3833286865951
 20
260.9981482286785
 30
0.0
 10
879.3608140875879
 20
249.2771409438719
 30
0.0
 10
889.6540638813049
 20
239.1367189763841
 30
0.0
 10
902.6404845266129
 20
226.7775545447948
 30
0.0
 10
915.1777962590098
 20
215.111669780541
 30
0.0
 10
932.4771485937891
 20
198.3567741902971
 30
0.0
 10
946.6925012301388
 20
183.4210880702649
 30
0.0
 10
959.6099226754928
 20
167.3489858896792
 30
0.0
 10
971.3053015136691
 20
150.3694778141071
 30
0.0
 10
981.2919977400375
 20
131.6716618495775
 30
0.0
 10
989.5734744377396
 20
111.048235254013
 30
0.0
 10
995.0306624222211
 20
93.39613376560737
 30
0.0
 10
999.3990003542781
 20
74.3502567477899
 30
0.0
 10
1002.699339868353
 20
54.27489978881022
 30
0.0
 10
1005.207898998828
 20
32.74270774733304
 30
0.0
 10
1006.770618216776
 20
12.99371961995348
 30
0.0
 10
1007.608243866839
 20
-2.784559603907837
 30
0.0
 10
1008.189769297187
 20
-16.95453944382461
 30
0.0
 10
1008.604238640648
 20
-29.51642522170005
 30
0.0
 10
1009.350832232351
 20
-48.00075845797073
 30
0.0
 10
1009.969112981417
 20
-60.34498244047973
 30
0.0
 10
1010.441654249405
 20
-69.21341127695086
 30
0.0
  0
SPLINE
  5
AA
330
1F
100
AcDbEntity
  8
UJK102
100
AcDbSpline
210
0.0
220
0.0
230
1.0
 70
     8
 71
     3
 72
    17
 73
    13
 74
     0
 42
0.000000001
 43
0.0000000001
 12
1.0
 22
0.0
 32
0.0
 13
1.0
 23
0.0
 33
0.0
 40
0.0
 40
0.0
 40
0.0
 40
0.0
 40
48.32810435876107
 40
95.7318630173679
 40
167.9601671812415
 40
229.970419780701
 40
258.2246472703113
 40
319.2113186757993
 40
341.4031768108516
 40
362.8039413150291
 40
374.2119038894228
 40
386.4082677716372
 40
386.4082677716372
 40
386.4082677716372
 40
386.4082677716372
 10
1333.11210985304
 20
-69.16259702695424
 30
0.0
 10
1333.479177569268
 20
-53.05803732015011
 30
0.0
 10
1334.400001606153
 20
-21.15826048374947
 30
0.0
 10
1336.570974939764
 20
34.7828593027225
 30
0.0
 10
1340.130858183223
 20
95.24113908480285
 30
0.0
 10
1345.955426730415
 20
149.1056278082015
 30
0.0
 10
1352.618665774421
 20
199.0789917084476
 30
0.0
 10
1358.057664127592
 20
235.8256168715961
 30
0.0
 10
1362.603048047716
 20
270.3881699362573
 30
0.0
 10
1364.400342421749
 20
288.6379634472796
 30
0.0
 10
1365.314805846536
 20
303.6130207915667
 30
0.0
 10
1365.672830200708
 20
311.4728484653151
 30
0.0
 10
1365.817853834505
 20
315.53587826482
 30
0.0
  0
SPLINE
  5
AB
330
1F
100
AcDbEntity
  8
UJK102
100
AcDbSpline
210
0.0
220
0.0
230
1.0
 70
     8
 71
     3
 72
   293
 73
   289
 74
     0
 42
0.000000001
 43
0.0000000001
 12
1.0
 22
0.0
 32
0.0
 13
1.0
 23
0.0
 33
0.0
 40
0.7217492853668832
 40
0.7217492853668832
 40
0.7217492853668832
 40
0.7217492853668832
 40
5.806959022189056
 40
5.806959022189056
 40
5.806959022189056
 40
8.769793789842115
 40
8.769793789842115
 40
8.769793789842115
 40
11.69994153329363
 40
11.69994153329363
 40
11.69994153329363
 40
14.6931507593769
 40
14.6931507593769
 40
14.6931507593769
 40
17.71474933150364
 40
17.71474933150364
 40
17.71474933150364
 40
20.7552756636765
 40
20.7552756636765
 40
20.7552756636765
 40
23.8183330625763
 40
23.8183330625763
 40
23.8183330625763
 40
26.90594795903872
 40
26.90594795903872
 40
26.90594795903872
 40
30.0194337824475
 40
30.0194337824475
 40
30.0194337824475
 40
33.1567852103901
 40
33.1567852103901
 40
33.1567852103901
 40
36.31580692526779
 40
36.31580692526779
 40
36.31580692526779
 40
39.49357577638612
 40
39.49357577638612
 40
39.49357577638612
 40
42.68830142236215
 40
42.68830142236215
 40
42.68830142236215
 40
45.89862878788794
 40
45.89862878788794
 40
45.89862878788794
 40
49.12318524311251
 40
49.12318524311251
 40
49.12318524311251
 40
52.36068875676458
 40
52.36068875676458
 40
52.36068875676458
 40
55.60992904121357
 40
55.60992904121357
 40
55.60992904121357
 40
58.86983165418455
 40
58.86983165418455
 40
58.86983165418455
 40
62.13916363411487
 40
62.13916363411487
 40
62.13916363411487
 40
65.41699021717488
 40
65.41699021717488
 40
65.41699021717488
 40
68.7025239094666
 40
68.7025239094666
 40
68.7025239094666
 40
71.99510794264603
 40
71.99510794264603
 40
71.99510794264603
 40
75.29408877848027
 40
75.29408877848027
 40
75.29408877848027
 40
78.59897493545009
 40
78.59897493545009
 40
78.59897493545009
 40
81.90943840200683
 40
81.90943840200683
 40
81.90943840200683
 40
85.22509723633615
 40
85.22509723633615
 40
85.22509723633615
 40
88.54555099527164
 40
88.54555099527164
 40
88.54555099527164
 40
91.8704322814844
 40
91.8704322814844
 40
91.8704322814844
 40
95.19936324281309
 40
95.19936324281309
 40
95.19936324281309
 40
98.53176975468637
 40
98.53176975468637
 40
98.53176975468637
 40
101.8671784490536
 40
101.8671784490536
 40
101.8671784490536
 40
105.2053667138064
 40
105.2053667138064
 40
105.2053667138064
 40
108.54610715634
 40
108.54610715634
 40
108.54610715634
 40
111.8892366854463
 40
111.8892366854463
 40
111.8892366854463
 40
115.2345951024415
 40
115.2345951024415
 40
115.2345951024415
 40
118.5822650122474
 40
118.5822650122474
 40
118.5822650122474
 40
121.9322168873111
 40
121.9322168873111
 40
121.9322168873111
 40
125.2845151752833
 40
125.2845151752833
 40
125.2845151752833
 40
128.6386668529526
 40
128.6386668529526
 40
128.6386668529526
 40
131.9953882274789
 40
131.9953882274789
 40
131.9953882274789
 40
135.3352098214576
 40
135.3352098214576
 40
135.3352098214576
 40
138.6843058265909
 40
138.6843058265909
 40
138.6843058265909
 40
142.0497649789332
 40
142.0497649789332
 40
142.0497649789332
 40
145.4312207129604
 40
145.4312207129604
 40
145.4312207129604
 40
148.7924978976867
 40
148.7924978976867
 40
148.7924978976867
 40
152.154874388478
 40
152.154874388478
 40
152.154874388478
 40
155.519784979364
 40
155.519784979364
 40
155.519784979364
 40
158.8857609151479
 40
158.8857609151479
 40
158.8857609151479
 40
162.2521637426356
 40
162.2521637426356
 40
162.2521637426356
 40
165.6192923502755
 40
165.6192923502755
 40
165.6192923502755
 40
168.9877382383045
 40
168.9877382383045
 40
168.9877382383045
 40
172.3574016215339
 40
172.3574016215339
 40
172.3574016215339
 40
175.7283287625991
 40
175.7283287625991
 40
175.7283287625991
 40
179.1004417299941
 40
179.1004417299941
 40
179.1004417299941
 40
182.4758021991982
 40
182.4758021991982
 40
182.4758021991982
 40
185.8543399648566
 40
185.8543399648566
 40
185.8543399648566
 40
189.234257788907
 40
189.234257788907
 40
189.234257788907
 40
192.6156568760411
 40
192.6156568760411
 40
192.6156568760411
 40
195.9990140261568
 40
195.9990140261568
 40
195.9990140261568
 40
199.3782210735494
 40
199.3782210735494
 40
199.3782210735494
 40
202.7629745205267
 40
202.7629745205267
 40
202.7629745205267
 40
206.1461261853709
 40
206.1461261853709
 40
206.1461261853709
 40
209.5449999983182
 40
209.5449999983182
 40
209.5449999983182
 40
212.9296427302779
 40
212.9296427302779
 40
212.9296427302779
 40
217.2750041830661
 40
217.2750041830661
 40
217.2750041830661
 40
221.5902258135573
 40
221.5902258135573
 40
221.5902258135573
 40
225.9309374756315
 40
225.9309374756315
 40
225.9309374756315
 40
230.2747229785406
 40
230.2747229785406
 40
230.2747229785406
 40
234.6300112758936
 40
234.6300112758936
 40
234.6300112758936
 40
238.9874811404726
 40
238.9874811404726
 40
238.9874811404726
 40
243.3485639053136
 40
243.3485639053136
 40
243.3485639053136
 40
247.7122469021509
 40
247.7122469021509
 40
247.7122469021509
 40
252.0784128365547
 40
252.0784128365547
 40
252.0784128365547
 40
256.447522442552
 40
256.447522442552
 40
256.447522442552
 40
260.8186802285586
 40
260.8186802285586
 40
260.8186802285586
 40
265.1909449471312
 40
265.1909449471312
 40
265.1909449471312
 40
269.5633483759006
 40
269.5633483759006
 40
269.5633483759006
 40
273.9348098702662
 40
273.9348098702662
 40
273.9348098702662
 40
278.3040242831269
 40
278.3040242831269
 40
278.3040242831269
 40
282.6693482570286
 40
282.6693482570286
 40
282.6693482570286
 40
287.0303281837792
 40
287.0303281837792
 40
287.0303281837792
 40
291.3844774652522
 40
291.3844774652522
 40
291.3844774652522
 40
295.7683923925421
 40
295.7683923925421
 40
295.7683923925421
 40
300.1524527859255
 40
300.1524527859255
 40
300.1524527859255
 40
304.5363980664943
 40
304.5363980664943
 40
304.5363980664943
 40
308.9191193516418
 40
308.9191193516418
 40
308.9191193516418
 40
313.3004966456502
 40
313.3004966456502
 40
313.3004966456502
 40
317.6809965838276
 40
317.6809965838276
 40
317.6809965838276
 40
322.0618221175367
 40
322.0618221175367
 40
322.0618221175367
 40
326.4429177659102
 40
326.4429177659102
 40
326.4429177659102
 40
330.8236678970949
 40
330.8236678970949
 40
330.8236678970949
 40
335.2040956930137
 40
335.2040956930137
 40
335.2040956930137
 40
339.5821075860174
 40
339.5821075860174
 40
339.5821075860174
 40
343.9606209798677
 40
343.9606209798677
 40
343.9606209798677
 40
348.3308911175515
 40
348.3308911175515
 40
348.3308911175515
 40
359.3669099659954
 40
359.3669099659954
 40
359.3669099659954
 40
359.3669099659954
 10
1010.448589414303
 20
-69.21348463267717
 30
0.0
 10
1010.591528054382
 20
-69.2150253084874
 30
0.0
 10
1010.73446669446
 20
-69.21656598429763
 30
0.0
 10
1010.877405334538
 20
-69.21810666010788
 30
0.0
 10
1011.023917277974
 20
-69.2197050492232
 30
0.0
 10
1011.203194354249
 20
-69.22161078760287
 30
0.0
 10
1011.415501343153
 20
-69.22392918953847
 30
0.0
 10
1011.625462229306
 20
-69.22622096256059
 30
0.0
 10
1011.870168845347
 20
-69.2289916471746
 30
0.0
 10
1012.141562430693
 20
-69.23211898285444
 30
0.0
 10
1012.418689915468
 20
-69.23530959175693
 30
0.0
 10
1012.724513031003
 20
-69.23888457289283
 30
0.0
 10
1013.059530358131
 20
-69.24295145044744
 30
0.0
 10
1013.397811598255
 20
-69.24705973463465
 30
0.0
 10
1013.763977745037
 20
-69.25161758208553
 30
0.0
 10
1014.155440009308
 20
-69.25634695094595
 30
0.0
 10
1014.549361861525
 20
-69.2611063893746
 30
0.0
 10
1014.969520334334
 20
-69.26605642360852
 30
0.0
 10
1015.413278978172
 20
-69.27090118372507
 30
0.0
 10
1015.860327576374
 20
-69.27578197536785
 30
0.0
 10
1016.331215528154
 20
-69.28055541595859
 30
0.0
 10
1016.823833861953
 20
-69.28503876848117
 30
0.0
 10
1017.320412599013
 20
-69.28955820205192
 30
0.0
 10
1017.838625846243
 20
-69.29376976713137
 30
0.0
 10
1018.375972343201
 20
-69.29780774755272
 30
0.0
 10
1018.917830237899
 20
-69.30187943802966
 30
0.0
 10
1019.479296187337
 20
-69.30578054031139
 30
0.0
 10
1020.058208727375
 20
-69.30960338186196
 30
0.0
 10
1020.641567124148
 20
-69.31345536324264
 30
0.0
 10
1021.242684384786
 20
-69.31722704182356
 30
0.0
 10
1021.859530788289
 20
-69.32103244290556
 30
0.0
 10
1022.480644739371
 20
-69.32486421696555
 30
0.0
 10
1023.118004424115
 20
-69.32873776212546
 30
0.0
 10
1023.769892096823
 20
-69.33265713362198
 30
0.0
 10
1024.425653995449
 20
-69.33659988872205
 30
0.0
 10
1025.096317788711
 20
-69.34059348204575
 30
0.0
 10
1025.780370022484
 20
-69.34459822813733
 30
0.0
 10
1026.46807714166
 20
-69.3486245294426
 30
0.0
 10
1027.169424676524
 20
-69.35266488765961
 30
0.0
 10
1027.883041815893
 20
-69.35669654823687
 30
0.0
 10
1028.600148090116
 20
-69.36074804898446
 30
0.0
 10
1029.3297796483
 20
-69.36479416416297
 30
0.0
 10
1030.070707381255
 20
-69.36881389615883
 30
0.0
 10
1030.814922683149
 20
-69.37285156626056
 30
0.0
 10
1031.570661556962
 20
-69.37686580531958
 30
0.0
 10
1032.336820224732
 20
-69.38084066428928
 30
0.0
 10
1033.106058222638
 20
-69.3848315675388
 30
0.0
 10
1033.885923878613
 20
-69.38878587666478
 30
0.0
 10
1034.675427073181
 20
-69.39269136746589
 30
0.0
 10
1035.46779504281
 20
-69.39661116953721
 30
0.0
 10
1036.269999557563
 20
-69.40048434976052
 30
0.0
 10
1037.081142447908
 20
-69.40429895736816
 30
0.0
 10
1037.894949362811
 20
-69.4081261801239
 30
0.0
 10
1038.717889697889
 20
-69.41189842152923
 30
0.0
 10
1039.549177119213
 20
-69.41559624326692
 30
0.0
 10
1040.382871033925
 20
-69.41930479565782
 30
0.0
 10
1041.225080743237
 20
-69.42294079823841
 30
0.0
 10
1042.075094383142
 20
-69.42647984320865
 30
0.0
 10
1042.927318260613
 20
-69.43002817565146
 30
0.0
 10
1043.787483750769
 20
-69.43348127973148
 30
0.0
 10
1044.654947998913
 20
-69.43681951855979
 30
0.0
 10
1045.524453354169
 20
-69.44016570657551
 30
0.0
 10
1046.401391923119
 20
-69.44339846245929
 30
0.0
 10
1047.285180032926
 20
-69.4464983836042
 30
0.0
 10
1048.170865908788
 20
-69.44960504582745
 30
0.0
 10
1049.063513972279
 20
-69.4525801888504
 30
0.0
 10
1049.962596897732
 20
-69.45540927347247
 30
0.0
 10
1050.863427676174
 20
-69.4582439080077
 30
0.0
 10
1051.770805838747
 20
-69.46093359616677
 30
0.0
 10
1052.684253804587
 20
-69.4634627020605
 30
0.0
 10
1053.599337882873
 20
-69.46599638307637
 30
0.0
 10
1054.520552574283
 20
-69.46836964178513
 30
0.0
 10
1055.447453681717
 20
-69.47058493090844
 30
0.0
 10
1056.375919926242
 20
-69.47280401320675
 30
0.0
 10
1057.310139906166
 20
-69.47486532893166
 30
0.0
 10
1058.249700533255
 20
-69.4767828751792
 30
0.0
 10
1059.190736486629
 20
-69.47870349581353
 30
0.0
 10
1060.137200429993
 20
-69.48048100716183
 30
0.0
 10
1061.088715258783
 20
-69.48212889149909
 30
0.0
 10
1062.041606831627
 20
-69.48377920493668
 30
0.0
 10
1062.999620233545
 20
-69.48530042126002
 30
0.0
 10
1063.962410392368
 20
-69.48670914982722
 30
0.0
 10
1064.926484981823
 20
-69.48811980488237
 30
0.0
 10
1065.895403386879
 20
-69.48941827550334
 30
0.0
 10
1066.868845341423
 20
-69.490623241516
 30
0.0
 10
1067.84347349496
 20
-69.49182973142157
 30
0.0
 10
1068.822712523138
 20
-69.49294345329143
 30
0.0
 10
1069.806273505868
 20
-69.49397415146632
 30
0.0
 10
1070.79086184517
 20
-69.49500595765856
 30
0.0
 10
1071.779888423235
 20
-69.49595578656778
 30
0.0
 10
1072.773100758656
 20
-69.49680896851714
 30
0.0
 10
1073.767208291817
 20
-69.4976629479297
 30
0.0
 10
1074.765545437017
 20
-69.49842038496172
 30
0.0
 10
1075.767875554993
 20
-69.499070878368
 30
0.0
 10
1076.771041330615
 20
-69.49972194730621
 30
0.0
 10
1077.778249416951
 20
-69.50026626862196
 30
0.0
 10
1078.789281242885
 20
-69.50069377425825
 30
0.0
 10
1079.801086363038
 20
-69.50112164736309
 30
0.0
 10
1080.816762245527
 20
-69.50143272429162
 30
0.0
 10
1081.836104091274
 20
-69.50161706630934
 30
0.0
 10
1082.856175196824
 20
-69.50180156945501
 30
0.0
 10
1083.879950226691
 20
-69.50185946380769
 30
0.0
 10
1084.907241273116
 20
-69.50178251700345
 30
0.0
 10
1085.935217484365
 20
-69.50170553901447
 30
0.0
 10
1086.966736805774
 20
-69.50149353937556
 30
0.0
 10
1088.001617747002
 20
-69.50114472223868
 30
0.0
 10
1089.037214005651
 20
-69.50079570176781
 30
0.0
 10
1090.076147241781
 20
-69.50030958929162
 30
0.0
 10
1091.11824383586
 20
-69.49970633799057
 30
0.0
 10
1092.161050974956
 20
-69.49910271361854
 30
0.0
 10
1093.207091683683
 20
-69.49838186211126
 30
0.0
 10
1094.256181268768
 20
-69.49756257326953
 30
0.0
 10
1095.306006018295
 20
-69.49674275568951
 30
0.0
 10
1096.358825893424
 20
-69.49582433182334
 30
0.0
 10
1097.41455444021
 20
-69.49482524893574
 30
0.0
 10
1098.470866309324
 20
-69.49382561762471
 30
0.0
 10
1099.53033607777
 20
-69.49274511255678
 30
0.0
 10
1100.592540754021
 20
-69.491613275899
 30
0.0
 10
1101.655561288394
 20
-69.49048069929269
 30
0.0
 10
1102.720857796899
 20
-69.48929697586213
 30
0.0
 10
1103.789343230131
 20
-69.48805727209947
 30
0.0
 10
1104.85244960579
 20
-69.48682357461443
 30
0.0
 10
1105.918670159042
 20
-69.48553775931397
 30
0.0
 10
1106.98660272167
 20
-69.48428882802546
 30
0.0
 10
1108.057499110339
 20
-69.48303670630783
 30
0.0
 10
1109.131352189454
 20
-69.48180890938424
 30
0.0
 10
1110.208158720175
 20
-69.48047783369475
 30
0.0
 10
1111.290225914377
 20
-69.47914030853822
 30
0.0
 10
1112.375108723573
 20
-69.47770728159229
 30
0.0
 10
1113.462348240922
 20
-69.47620490628651
 30
0.0
 10
1114.554759114525
 20
-69.47469510964582
 30
0.0
 10
1115.649045786372
 20
-69.47311266955334
 30
0.0
 10
1116.74677545427
 20
-69.47135475614778
 30
0.0
 10
1117.837957184823
 20
-69.46960724509881
 30
0.0
 10
1118.931936930662
 20
-69.46769548928025
 30
0.0
 10
1120.027363951832
 20
-69.46569143225861
 30
0.0
 10
1121.123147844105
 20
-69.46368710331622
 30
0.0
 10
1122.221512981704
 20
-69.4615728918762
 30
0.0
 10
1123.322626134078
 20
-69.45924960482807
 30
0.0
 10
1124.42456987948
 20
-69.45692455342754
 30
0.0
 10
1125.528387552641
 20
-69.45440828745272
 30
0.0
 10
1126.633961944918
 20
-69.4518330779756
 30
0.0
 10
1127.73988635787
 20
-69.4492567478374
 30
0.0
 10
1128.848218196788
 20
-69.44660692209622
 30
0.0
 10
1129.958839571658
 20
-69.44381101218642
 30
0.0
 10
1131.069601694123
 20
-69.44101502325982
 30
0.0
 10
1132.182603884972
 20
-69.43807780156206
 30
0.0
 10
1133.297800382475
 20
-69.43494260811349
 30
0.0
 10
1134.41323735332
 20
-69.4318066143042
 30
0.0
 10
1135.530702722134
 20
-69.42847249847547
 30
0.0
 10
1136.650088703528
 20
-69.4249547745967
 30
0.0
 10
1137.769912606417
 20
-69.42143577615026
 30
0.0
 10
1138.891709256385
 20
-69.4177331775918
 30
0.0
 10
1140.015394074702
 20
-69.41384868046043
 30
0.0
 10
1141.139485047581
 20
-69.40996278283446
 30
0.0
 10
1142.265470657164
 20
-69.40589455585364
 30
0.0
 10
1143.393261499924
 20
-69.40164982413262
 30
0.0
 10
1144.521475306106
 20
-69.3974035296524
 30
0.0
 10
1145.651501636469
 20
-69.39298060819971
 30
0.0
 10
1146.783253807188
 20
-69.38839019405896
 30
0.0
 10
1147.915404089144
 20
-69.38379819422157
 30
0.0
 10
1149.049325712738
 20
-69.37903790414931
 30
0.0
 10
1150.18493278002
 20
-69.37410835790433
 30
0.0
 10
1151.321633618301
 20
-69.36917411159446
 30
0.0
 10
1152.459337851608
 20
-69.36407939222958
 30
0.0
 10
1153.597899515907
 20
-69.3590800921138
 30
0.0
 10
1154.7375330314
 20
-69.35407611903246
 30
0.0
 10
1155.878828057353
 20
-69.34915748279677
 30
0.0
 10
1157.021705462871
 20
-69.34429804424144
 30
0.0
 10
1158.165049689696
 20
-69.33943664923576
 30
0.0
 10
1159.309822243458
 20
-69.33463632695567
 30
0.0
 10
1160.455961807212
 20
-69.32991839102942
 30
0.0
 10
1161.60260352407
 20
-69.32519841189422
 30
0.0
 10
1162.750767004819
 20
-69.32055927913821
 30
0.0
 10
1163.900280505782
 20
-69.3160136767001
 30
0.0
 10
1165.050459884683
 20
-69.31146550833368
 30
0.0
 10
1166.201704442067
 20
-69.30701342372778
 30
0.0
 10
1167.354272602546
 20
-69.30266434351506
 30
0.0
 10
1168.505426064186
 20
-69.29832072618957
 30
0.0
 10
1169.658447829449
 20
-69.29407542610535
 30
0.0
 10
1170.812669093664
 20
-69.28995017595298
 30
0.0
 10
1171.968783249476
 20
-69.28581834268871
 30
0.0
 10
1173.124852982602
 20
-69.28181454566399
 30
0.0
 10
1174.28180683014
 20
-69.2778858007332
 30
0.0
 10
1175.438192673116
 20
-69.27395672382946
 30
0.0
 10
1176.599746193674
 20
-69.27009738089149
 30
0.0
 10
1177.762312904891
 20
-69.26648513287364
 30
0.0
 10
1178.930209251013
 20
-69.26285531461689
 30
0.0
 10
1180.089762869818
 20
-69.25946264551204
 30
0.0
 10
1181.25348447178
 20
-69.25546803508405
 30
0.0
 10
1182.413226970687
 20
-69.25139603819832
 30
0.0
 10
1183.600202668367
 20
-69.2471500824613
 30
0.0
 10
1184.755390391095
 20
-69.24456535008358
 30
0.0
 10
1186.240994640887
 20
-69.24118792296402
 30
0.0
 10
1187.716062791763
 20
-69.2391709271123
 30
0.0
 10
1189.219191546158
 20
-69.236673071111
 30
0.0
 10
1190.712407808941
 20
-69.23422972921432
 30
0.0
 10
1192.209862208259
 20
-69.2314528728057
 30
0.0
 10
1193.694340101812
 20
-69.22871650935122
 30
0.0
 10
1195.187708952644
 20
-69.22596160269859
 30
0.0
 10
1196.681807229838
 20
-69.22320799853699
 30
0.0
 10
1198.18018769006
 20
-69.22045141266426
 30
0.0
 10
1199.679646495906
 20
-69.2176935635071
 30
0.0
 10
1201.177847764607
 20
-69.2149527500933
 30
0.0
 10
1202.67344947618
 20
-69.2127940565315
 30
0.0
 10
1204.173017772541
 20
-69.2106295536487
 30
0.0
 10
1205.673406646963
 20
-69.20903370550695
 30
0.0
 10
1207.174799440921
 20
-69.2077053613084
 30
0.0
 10
1208.676944493594
 20
-69.20637604414873
 30
0.0
 10
1210.17928697349
 20
-69.20531759784902
 30
0.0
 10
1211.68159679494
 20
-69.20436435048396
 30
0.0
 10
1213.185152323518
 20
-69.20341034506059
 30
0.0
 10
1214.688679257642
 20
-69.20256233314828
 30
0.0
 10
1216.192055326382
 20
-69.20172454873682
 30
0.0
 10
1217.696327826177
 20
-69.20088610790489
 30
0.0
 10
1219.200470313591
 20
-69.20005812892856
 30
0.0
 10
1220.704347488119
 20
-69.19910867655744
 30
0.0
 10
1222.209080555486
 20
-69.19815863298938
 30
0.0
 10
1223.713153797938
 20
-69.19709026592325
 30
0.0
 10
1225.216423807569
 20
-69.19595790435415
 30
0.0
 10
1226.720707619668
 20
-69.1948248108547
 30
0.0
 10
1228.224190345695
 20
-69.19362814866692
 30
0.0
 10
1229.726746546198
 20
-69.19241971819793
 30
0.0
 10
1231.230007389143
 20
-69.19121068248747
 30
0.0
 10
1232.732338748584
 20
-69.18998974633182
 30
0.0
 10
1234.233619995491
 20
-69.18880909823565
 30
0.0
 10
1235.735281662222
 20
-69.18762813216564
 30
0.0
 10
1237.235895658486
 20
-69.18648747345645
 30
0.0
 10
1238.735347970606
 20
-69.1854379680808
 30
0.0
 10
1240.234848069643
 20
-69.18438840906128
 30
0.0
 10
1241.733177951014
 20
-69.18343010058011
 30
0.0
 10
1243.230232398591
 20
-69.18261510995217
 30
0.0
 10
1244.726964538669
 20
-69.1818002838991
 30
0.0
 10
1246.222453066589
 20
-69.18112824955644
 30
0.0
 10
1247.716585955847
 20
-69.18064327181128
 30
0.0
 10
1249.209950917611
 20
-69.18015853290841
 30
0.0
 10
1250.70202096188
 20
-69.17985984956066
 30
0.0
 10
1252.192725239112
 20
-69.17974321046495
 30
0.0
 10
1253.682102314974
 20
-69.17962662740503
 30
0.0
 10
1255.170235079631
 20
-69.17969031215034
 30
0.0
 10
1256.656907370502
 20
-69.17993527346516
 30
0.0
 10
1258.142099826825
 20
-69.1801800926842
 30
0.0
 10
1259.625496626054
 20
-69.18060933218297
 30
0.0
 10
1261.107417491011
 20
-69.18121869239803
 30
0.0
 10
1262.587018728594
 20
-69.18182666019128
 30
0.0
 10
1264.065933980971
 20
-69.18260817838923
 30
0.0
 10
1265.542521874276
 20
-69.18356426582432
 30
0.0
 10
1267.029204149994
 20
-69.18452678222272
 30
0.0
 10
1268.513621649915
 20
-69.1856594849287
 30
0.0
 10
1269.996943666428
 20
-69.1869696140111
 30
0.0
 10
1271.480312941493
 20
-69.1882801149459
 30
0.0
 10
1272.962209523844
 20
-69.18977572351649
 30
0.0
 10
1274.44215920502
 20
-69.19134891074646
 30
0.0
 10
1275.922070295675
 20
-69.19292188986759
 30
0.0
 10
1277.400420014932
 20
-69.1945678897118
 30
0.0
 10
1278.87715135168
 20
-69.19614174059461
 30
0.0
 10
1280.353470114963
 20
-69.19771513099299
 30
0.0
 10
1281.828065588997
 20
-69.1992172050213
 30
0.0
 10
1283.300757301821
 20
-69.20051012804652
 30
0.0
 10
1284.772997217856
 20
-69.20180256356969
 30
0.0
 10
1286.243422218361
 20
-69.20288582788822
 30
0.0
 10
1287.71188325586
 20
-69.20360626017464
 30
0.0
 10
1289.180050114109
 20
-69.20432647299644
 30
0.0
 10
1290.645862368617
 20
-69.20468647024059
 30
0.0
 10
1292.10918718944
 20
-69.20471685750454
 30
0.0
 10
1293.572620807626
 20
-69.2047472604554
 30
0.0
 10
1295.033513768477
 20
-69.20444860516729
 30
0.0
 10
1296.491742262185
 20
-69.20389259739386
 30
0.0
 10
1297.950060662416
 20
-69.20333652245967
 30
0.0
 10
1299.405726014521
 20
-69.20252304151111
 30
0.0
 10
1300.858629140826
 20
-69.20151522103515
 30
0.0
 10
1302.311417729171
 20
-69.20050742470266
 30
0.0
 10
1303.761538226351
 20
-69.19930480342917
 30
0.0
 10
1305.208815932903
 20
-69.19797540125728
 30
0.0
 10
1306.655986814706
 20
-69.19664613099128
 30
0.0
 10
1308.100119653296
 20
-69.19519055406457
 30
0.0
 10
1309.541258710969
 20
-69.19366001362323
 30
0.0
 10
1310.981603308728
 20
-69.19213021336319
 30
0.0
 10
1312.419796839096
 20
-69.1905233593807
 30
0.0
 10
1313.855016977993
 20
-69.18886400846532
 30
0.0
 10
1315.290394378483
 20
-69.18720473261607
 30
0.0
 10
1316.720934144401
 20
-69.18549521440947
 30
0.0
 10
1318.148829988465
 20
-69.18369256893857
 30
0.0
 10
1319.574050955521
 20
-69.18189133539093
 30
0.0
 10
1321.001359446266
 20
-69.18000333041897
 30
0.0
 10
1322.421432467499
 20
-69.17814246886883
 30
0.0
 10
1325.98499072108
 20
-69.1729946686143
 30
0.0
 10
1329.548548974662
 20
-69.16784686835975
 30
0.0
 10
1333.112107228243
 20
-69.16269906810521
 30
0.0
  0
LINE
  5
AC
330
1F
100
AcDbEntity
  8
UJK102
100
AcDbLine
 10
1307.955943988503
 20
331.3181045971396
 30
0.0
 11
1309.05146110533
 21
331.3181045971414
 31
0.0
  0
LINE
  5
AD
330
1F
100
AcDbEntity
  8
UJK102
100
AcDbLine
 10
1309.073791817748
 20
331.3181045971396
 30
0.0
 11
1310.112969319184
 21
331.3181045971396
 31
0.0
  0
LINE
  5
AE
330
1F
100
AcDbEntity
  8
UJK102
100
AcDbLine
 10
1310.187912144226
 20
331.3181045971396
 30
0.0
 11
1311.143002910051
 21
331.3181045971396
 31
0.0
  0
LINE
  5
AF
330
1F
100
AcDbEntity
  8
UJK102
100
AcDbLine
 10
1311.309258671518
 20
331.3181045971414
 30
0.0
 11
1312.374643782068
 21
331.3181045971414
 31
0.0
  0
LINE
  5
B0
330
1F
100
AcDbEntity
  8
UJK102
100
AcDbLine
 10
1312.426851020099
 20
331.3181045971414
 30
0.0
 11
1313.308586468009
 21
331.3181045971396
 31
0.0
  0
LINE
  5
B1
330
1F
100
AcDbEntity
  8
UJK102
100
AcDbLine
 10
1313.540714023649
 20
331.3181045971414
 30
0.0
 11
1314.333417452124
 21
331.3181045971414
 31
0.0
  0
LINE
  5
B2
330
1F
100
AcDbEntity
  8
UJK102
100
AcDbLine
 10
1314.65087251585
 20
331.3181045971396
 30
0.0
 11
1315.449658977564
 21
331.3181045971396
 31
0.0
  0
LINE
  5
B3
330
1F
100
AcDbEntity
  8
UJK102
100
AcDbLine
 10
1315.766744109647
 20
331.3181045971414
 30
0.0
 11
1316.657833286636
 21
331.3181045971414
 31
0.0
  0
LINE
  5
B4
330
1F
100
AcDbEntity
  8
UJK102
100
AcDbLine
 10
1316.878918015576
 20
331.3181045971414
 30
0.0
 11
1317.958462620984
 21
331.3181045971396
 31
0.0
  0
LINE
  5
B5
330
1F
100
AcDbEntity
  8
UJK102
100
AcDbLine
 10
1319.092347555424
 20
331.3181045971396
 30
0.0
 11
1320.083884868849
 21
331.3181045971414
 31
0.0
  0
LINE
  5
B6
330
1F
100
AcDbEntity
  8
UJK102
100
AcDbLine
 10
1321.30887867141
 20
331.3181045971414
 30
0.0
 11
1323.246805831229
 21
331.3181045971396
 31
0.0
  0
LINE
  5
B7
330
1F
100
AcDbEntity
  8
UJK102
100
AcDbLine
 10
1323.511387838756
 20
331.3181045971396
 30
0.0
 11
1324.971373837263
 21
331.3181045971396
 31
0.0
  0
LINE
  5
B8
330
1F
100
AcDbEntity
  8
UJK102
100
AcDbLine
 10
1325.710978510307
 20
331.3181045971396
 30
0.0
 11
1327.73950441506
 21
331.3181045971396
 31
0.0
  0
LINE
  5
B9
330
1F
100
AcDbEntity
  8
UJK102
100
AcDbLine
 10
1327.896689095112
 20
331.3181045971396
 30
0.0
 11
1329.706700651383
 21
331.3181045971396
 31
0.0
  0
LINE
  5
BA
330
1F
100
AcDbEntity
  8
UJK102
100
AcDbLine
 10
1330.067282825662
 20
331.3181045971396
 30
0.0
 11
1331.772569945039
 21
331.3181045971414
 31
0.0
  0
LINE
  5
BB
330
1F
100
AcDbEntity
  8
UJK102
100
AcDbLine
 10
1332.223375675581
 20
331.3181045971396
 30
0.0
 11
1333.938230608863
 21
331.3181045971414
 31
0.0
  0
LINE
  5
BC
330
1F
100
AcDbEntity
  8
UJK102
100
AcDbLine
 10
1334.365369309959
 20
331.3181045971414
 30
0.0
 11
1336.203885062629
 21
331.3181045971396
 31
0.0
  0
LINE
  5
BD
330
1F
100
AcDbEntity
  8
UJK102
100
AcDbLine
 10
1336.492365217674
 20
331.3181045971396
 30
0.0
 11
1338.571362783504
 21
331.3181045971396
 31
0.0
  0
LINE
  5
BE
330
1F
100
AcDbEntity
  8
UJK102
100
AcDbLine
 10
1340.70381994588
 20
331.3181045971396
 30
0.0
 11
1342.316623687483
 21
331.3181045971414
 31
0.0
  0
LINE
  5
BF
330
1F
100
AcDbEntity
  8
UJK102
100
AcDbLine
 10
1344.843055579094
 20
331.3181045971396
 30
0.0
 11
1346.295566975319
 21
331.3181045971414
 31
0.0
  0
ARC
  5
C0
330
1F
100
AcDbEntity
  8
UJK102
100
AcDbCircle
 10
1020.427518802234
 20
-68.68189540329078
 30
0.0
 40
9.999999999569715
100
AcDbArc
 50
183.0493148100325
 51
269.9999999954176
  0
SPLINE
  5
C1
330
1F
100
AcDbEntity
  8
UJK102
100
AcDbSpline
210
0.0
220
0.0
230
1.0
 70
     8
 71
     3
 72
    14
 73
    10
 74
     0
 42
0.000000001
 43
0.0000000001
 12
1.0
 22
0.0
 32
0.0
 13
1.0
 23
0.0
 33
0.0
 40
0.0
 40
0.0
 40
0.0
 40
0.0
 40
1.799328107570749
 40
3.520488350609996
 40
6.805675958610408
 40
8.110713003273462
 40
9.368224424320529
 40
10.41523760468428
 40
11.3194570512891
 40
11.3194570512891
 40
11.3194570512891
 40
11.3194570512891
 10
1333.112107228243
 20
-69.16269906810521
 30
0.0
 10
1333.098381726872
 20
-69.76195630692018
 30
0.0
 10
1333.02199495534
 20
-70.93531415138568
 30
0.0
 10
1332.670056788003
 20
-73.17603641607639
 30
0.0
 10
1332.063367840506
 20
-75.20591957957913
 30
0.0
 10
1331.131103349196
 20
-76.92523271745085
 30
0.0
 10
1330.377513836012
 20
-77.87098500134744
 30
0.0
 10
1329.507430923582
 20
-78.51616473925787
 30
0.0
 10
1328.863030651204
 20
-78.68377909386072
 30
0.0
 10
1328.560989037158
 20
-78.68189540686762
 30
0.0
  0
LINE
  5
C2
330
1F
100
AcDbEntity
  8
UJK102
100
AcDbLine
 10
1020.427518801436
 20
-78.68189540286039
 30
0.0
 11
1328.56098726287
 21
-78.68189540286039
 31
0.0
  0
LINE
  5
C3
330
1F
100
AcDbEntity
  8
UJK102
100
AcDbLine
 10
1390.573734339371
 20
-78.68189540286039
 30
0.0
 11
1392.471078781226
 21
-78.68189540286039
 31
0.0
  0
LINE
  5
C4
330
1F
100
AcDbEntity
  8
UJK102
100
AcDbLine
 10
1501.548584878954
 20
-78.68189540284766
 30
0.0
 11
1508.088243484502
 21
-78.68189540284766
 31
0.0
  0
ARC
  5
C5
330
1F
100
AcDbEntity
  8
UJK102
100
AcDbCircle
 10
1508.088243449378
 20
-68.68189560763722
 30
0.0
 40
9.999999795210442
100
AcDbArc
 50
270.000000201247
 51
0.0000011732848045
  0
LINE
  5
C6
330
1F
100
AcDbEntity
  8
UJK102
100
AcDbLine
 10
1353.284470066681
 20
-78.6439612978993
 30
0.0
 11
1354.440579575763
 21
-78.64397273793111
 31
0.0
  0
ARC
  5
C7
330
1F
100
AcDbEntity
  8
UJK102
100
AcDbCircle
 10
1401.714308767543
 20
20171.13087605087
 30
0.0
 40
20249.81671357985
100
AcDbArc
 50
269.8930696349372
 51
269.9640212639436
  0
LINE
  5
C8
330
1F
100
AcDbEntity
  8
UJK102
100
AcDbLine
 10
1508.088229723272
 20
369.3181045971396
 30
0.0
 11
1507.499984450432
 21
369.3181045977162
 31
0.0
  0
SPLINE
  5
C9
330
1F
100
AcDbEntity
  8
UJK102
100
AcDbSpline
210
0.0
220
0.0
230
1.0
 70
    12
 71
     2
 72
     6
 73
     3
 74
     0
 42
0.000000001
 43
0.0000000001
 12
1.0
 22
0.0
 32
0.0
 13
1.0
 23
0.0
 33
0.0
 40
0.0
 40
0.0
 40
0.0
 40
4.712388980388226
 40
4.712388980388226
 40
4.712388980388226
 10
1507.499984450432
 20
369.3181045977162
 30
0.0
 41
1.0
 10
1507.499975621203
 20
366.3181045974306
 30
0.0
 41
0.7071067811869572
 10
1507.676438066113
 20
366.3181045971396
 30
0.0
 41
1.0
  0
LINE
  5
CA
330
1F
100
AcDbEntity
  8
UJK102
100
AcDbLine
 10
1508.088236838795
 20
366.3181045971396
 30
0.0
 11
1507.676438066113
 21
366.3181045971396
 31
0.0
  0
LINE
  5
CB
330
1F
100
AcDbEntity
  8
UJK102
100
AcDbLine
 10
1508.088236838795
 20
366.3181045971396
 30
0.0
 11
1508.088231844272
 21
369.3181045971396
 31
0.0
  0
ARC
  5
CC
330
1F
100
AcDbEntity
  8
UJK102
100
AcDbCircle
 10
1508.088254477243
 20
376.3180724976469
 30
0.0
 40
9.999967900742856
100
AcDbArc
 50
269.9999356406408
 51
347.1663558927824
  0
SPLINE
  5
CD
330
1F
100
AcDbEntity
  8
UJK102
100
AcDbSpline
210
0.0
220
0.0
230
1.0
 70
     8
 71
     3
 72
    12
 73
     8
 74
     0
 42
0.000000001
 43
0.0000000001
 12
1.0
 22
0.0
 32
0.0
 13
1.0
 23
0.0
 33
0.0
 40
0.0
 40
0.0
 40
0.0
 40
0.0
 40
1.41979847563272
 40
2.819347631294116
 40
5.995015823944224
 40
9.620906174451347
 40
13.45590074829198
 40
13.45590074829198
 40
13.45590074829198
 40
13.45590074829198
 10
1518.088243244588
 20
376.3181045971396
 30
0.0
 10
1518.087468842921
 20
375.843084455084
 30
0.0
 10
1517.951557116524
 20
374.9084637424367
 30
0.0
 10
1517.126541116861
 20
373.0603282268821
 30
0.0
 10
1515.136026733551
 20
371.1014924800256
 30
0.0
 10
1511.853793827925
 20
369.6489501170636
 30
0.0
 10
1509.366912462457
 20
369.3181199649734
 30
0.0
 10
1508.088231844272
 20
369.3181045971396
 30
0.0
  0
LINE
  5
CE
330
1F
100
AcDbEntity
  8
UJK102
100
AcDbLine
 10
1507.499980074243
 20
369.3181045977162
 30
0.0
 11
1338.094644673247
 21
369.3181045977162
 31
0.0
  0
ARC
  5
CF
330
1F
100
AcDbEntity
  8
UJK102
100
AcDbCircle
 10
1508.147731814488
 20
764.4023735102029
 30
0.0
 40
9.940693916961862
100
AcDbArc
 50
0.3471728426332061
 51
90.34237547971098
  0
LINE
  5
D0
330
1F
100
AcDbEntity
  8
UJK102
100
AcDbLine
 10
1518.088243244588
 20
744.6890362452323
 30
0.0
 11
1518.088243244588
 21
764.4626068795023
 31
0.0
  0
ARC
  5
D1
330
1F
100
AcDbEntity
  8
UJK102
100
AcDbCircle
 10
1227841.028265242
 20
789.2928014011011
 30
0.0
 40
1226332.940025605
100
AcDbArc
 50
180.0001389797805
 51
180.0006984782047
  0
LINE
  5
D2
330
1F
100
AcDbEntity
  8
UJK102
100
AcDbLine
 10
1518.088243244588
 20
744.689036162541
 30
0.0
 11
1518.088243244588
 21
376.3181045971396
 31
0.0
  0
SPLINE
  5
D3
330
1F
100
AcDbEntity
  8
UJK102
100
AcDbSpline
210
0.0
220
0.0
230
1.0
 70
    12
 71
     3
 72
    29
 73
    25
 74
     0
 42
0.000000001
 43
0.0000000001
 12
1.0
 22
0.0
 32
0.0
 13
1.0
 23
0.0
 33
0.0
 40
0.0
 40
0.0
 40
0.0
 40
0.0
 40
20.20139417266646
 40
20.20139417266646
 40
20.20139417266646
 40
49.06260205452961
 40
49.06260205452961
 40
49.06260205452961
 40
75.35390469814025
 40
75.35390469814025
 40
75.35390469814025
 40
98.05337355872685
 40
98.05337355872685
 40
98.05337355872685
 40
116.3727319346358
 40
116.3727319346358
 40
116.3727319346358
 40
129.7670699758076
 40
129.7670699758076
 40
129.7670699758076
 40
137.9099178837487
 40
137.9099178837487
 40
137.9099178837487
 40
166.3956284176575
 40
166.3956284176575
 40
166.3956284176575
 40
166.3956284176575
 10
1508.088330762218
 20
774.3428899487844
 30
0.0
 41
1.0
 10
1501.354792294659
 20
774.4154595842799
 30
0.0
 41
0.9999609587761322
 10
1494.622433519353
 20
774.5608967412987
 30
0.0
 41
0.9999609587761313
 10
1487.892042954875
 20
774.7791843856976
 30
0.0
 41
1.0
 10
1478.276352913022
 20
775.0921270600697
 30
0.0
 41
0.9999213337685076
 10
1468.666604877782
 20
775.552747074442
 30
0.0
 41
0.9999213337685073
 10
1459.065066737146
 20
776.1609357230955
 30
0.0
 41
1.0
 10
1450.318601094417
 20
776.7158058035775
 30
0.0
 41
0.9999359398690455
 10
1441.580667832877
 20
777.391871157313
 30
0.0
 41
0.9999359398690446
 10
1432.852946211972
 20
778.1890018577833
 30
0.0
 41
1.0
 10
1425.317675483187
 20
778.8775697318025
 30
0.0
 41
0.9999534449641114
 10
1417.791068314194
 20
779.655139790945
 30
0.0
 41
0.9999534449641111
 10
1410.274175909393
 20
780.5216034357982
 30
0.0
 41
1.0
 10
1404.207802145604
 20
781.22087399148
 30
0.0
 41
0.9999703874921892
 10
1398.148288650327
 20
781.977290644243
 30
0.0
 41
0.9999703874921891
 10
1392.096173735733
 20
782.7907861959047
 30
0.0
 41
1.0
 10
1387.671122009766
 20
783.3853299703324
 30
0.0
 41
0.9999844261180963
 10
1383.250237531875
 20
784.0101063385964
 30
0.0
 41
0.9999844261180973
 10
1378.833726853061
 20
784.6650861101261
 30
0.0
 41
1.0
 10
1376.148737407435
 20
785.0628364571445
 30
0.0
 41
0.999994104595179
 10
1373.465444440099
 20
785.4718749799215
 30
0.0
 41
0.9999941045951782
 10
1370.783895408346
 20
785.8921944441172
 30
0.0
 41
1.0
 10
1368.992444856664
 20
786.1727963191588
 30
0.0
 41
1.0
 10
1368.087576555428
 20
786.3184470738048
 30
0.0
 41
1.0
 10
1368.088242669493
 20
786.3180559748755
 30
0.0
 41
1.000000000000001
  0
LINE
  5
D4
330
1F
100
AcDbEntity
  8
UJK102
100
AcDbLine
 10
1467.681228684351
 20
786.3181656322959
 30
0.0
 11
1467.658478060848
 21
786.3181656322959
 31
0.0
  0
LINE
  5
D5
330
1F
100
AcDbEntity
  8
UJK102
100
AcDbLine
 10
1467.60442172831
 20
786.3181656322959
 30
0.0
 11
1467.575667893625
 21
786.3181656322959
 31
0.0
  0
LINE
  5
D6
330
1F
100
AcDbEntity
  8
UJK102
100
AcDbLine
 10
1460.444160592283
 20
786.3181656322959
 30
0.0
 11
1460.391912290485
 21
786.3181656322959
 31
0.0
  0
LINE
  5
D7
330
1F
100
AcDbEntity
  8
UJK102
100
AcDbLine
 10
1428.600818595529
 20
786.3181656322977
 30
0.0
 11
1428.572767772317
 21
786.3181656322959
 31
0.0
  0
LINE
  5
D8
330
1F
100
AcDbEntity
  8
UJK102
100
AcDbLine
 10
1428.518679993232
 20
786.3181656322959
 30
0.0
 11
1428.495167514503
 21
786.3181656322959
 31
0.0
  0
LINE
  5
D9
330
1F
100
AcDbEntity
  8
UJK102
100
AcDbLine
 10
1428.439102985681
 20
786.3181656322959
 30
0.0
 11
1428.381256934541
 21
786.3181656322959
 31
0.0
  0
ARC
  5
DA
330
1F
100
AcDbEntity
  8
UJK102
100
AcDbCircle
 10
1423.593170873751
 20
786.6181656322954
 30
0.0
 40
0.2999999999993829
100
AcDbArc
 50
117.7163977756246
 51
270.0000000003039
  0
LINE
  5
DB
330
1F
100
AcDbEntity
  8
UJK102
100
AcDbLine
 10
1456.469128243255
 20
789.1221011544276
 30
0.0
 11
1468.38837723093
 21
789.1216584881186
 31
0.0
  0
ARC
  5
DC
330
1F
100
AcDbEntity
  8
UJK102
100
AcDbCircle
 10
1468.388243244655
 20
788.8216585178673
 30
0.0
 40
0.3000000001831452
100
AcDbArc
 50
100.5134634942354
 51
105.0855361963793
  0
LINE
  5
DD
330
1F
100
AcDbEntity
  8
UJK102
100
AcDbLine
 10
1427.789488973137
 20
789.122157049178
 30
0.0
 11
1456.468353276941
 21
789.1221013340637
 31
0.0
  0
ARC
  5
DE
330
1F
100
AcDbEntity
  8
UJK102
100
AcDbCircle
 10
1427.788243240248
 20
788.8221596298393
 30
0.0
 40
0.3000000057689238
100
AcDbArc
 50
89.76208186516736
 51
114.490567054779
  0
ARC
  5
DF
330
1F
100
AcDbEntity
  8
UJK102
100
AcDbCircle
 10
1427.788243223543
 20
788.8221596636615
 30
0.0
 40
0.2999999680488467
100
AcDbArc
 50
115.9643847675595
 51
116.7193121174618
  0
LINE
  5
E0
330
1F
100
AcDbEntity
  8
UJK102
100
AcDbLine
 10
1427.648714608443
 20
789.0877377998204
 30
0.0
 11
1423.459701442684
 21
786.8869271596959
 31
0.0
  0
LINE
  5
E1
330
1F
100
AcDbEntity
  8
UJK102
100
AcDbLine
 10
1468.088243244591
 20
790.6249529581255
 30
0.0
 11
1468.088243244591
 21
789.1216473393797
 31
0.0
  0
LINE
  5
E2
330
1F
100
AcDbEntity
  8
UJK102
100
AcDbLine
 10
1428.088243244586
 20
789.1215428400501
 30
0.0
 11
1428.088243244586
 21
790.6249529581255
 31
0.0
  0
ARC
  5
E3
330
1F
100
AcDbEntity
  8
UJK102
100
AcDbCircle
 10
1431.088177958012
 20
790.6249500392703
 30
0.0
 40
3.000000942575356
100
AcDbArc
 50
108.0043282386735
 51
179.9999441924992
  0
ARC
  5
E4
330
1F
100
AcDbEntity
  8
UJK102
100
AcDbCircle
 10
1465.088576843892
 20
790.6249380370084
 30
0.0
 40
3.000004843069347
100
AcDbArc
 50
0.0002849080675587
 51
71.99618417506444
  0
SPLINE
  5
E5
330
1F
100
AcDbEntity
  8
UJK102
100
AcDbSpline
210
0.0
220
0.0
230
1.0
 70
    12
 71
     3
 72
    46
 73
    42
 74
     0
 42
0.000000001
 43
0.0000000001
 12
1.0
 22
0.0
 32
0.0
 13
1.0
 23
0.0
 33
0.0
 40
0.844293474519886
 40
0.844293474519886
 40
0.844293474519886
 40
0.844293474519886
 40
1.021908446134983
 40
1.021908446134983
 40
1.021908446134983
 40
2.067193981437931
 40
2.067193981437931
 40
2.067193981437931
 40
3.164516058842857
 40
3.164516058842857
 40
3.164516058842857
 40
3.256702291581461
 40
3.256702291581461
 40
3.309185970428342
 40
3.309185970428342
 40
3.309185970428342
 40
4.138518812504106
 40
4.138518812504106
 40
4.138518812504106
 40
4.543529585368967
 40
4.543529585368967
 40
4.543529585368967
 40
5.12023978858587
 40
5.12023978858587
 40
5.12023978858587
 40
5.572892527324488
 40
5.572892527324488
 40
5.572892527324488
 40
5.937533892554346
 40
5.937533892554346
 40
5.937533892554346
 40
6.094970275549192
 40
6.094970275549192
 40
6.094970275549192
 40
6.284510426926607
 40
6.284510426926607
 40
6.284510426926607
 40
6.370024477647607
 40
6.370024477647607
 40
6.370024477647607
 40
6.415499611324076
 40
6.415499611324076
 40
6.415499611324076
 40
6.415499611324076
 10
1270.37583218721
 20
331.314077210398
 30
0.0
 41
1.0
 10
1270.355910078017
 20
331.3133743211365
 30
0.0
 41
1.0
 10
1270.33466174991
 20
331.3125643553012
 30
0.0
 41
1.0
 10
1270.312329078982
 20
331.3116354366321
 30
0.0
 41
1.0
 10
1270.177733520573
 20
331.3060369872837
 30
0.0
 41
1.0
 10
1269.993547547621
 20
331.2959683452427
 30
0.0
 41
1.0
 10
1269.773337915619
 20
331.2808841680635
 30
0.0
 41
1.0
 10
1269.542525640444
 20
331.2650737186214
 30
0.0
 41
1.0
 10
1269.26819301123
 20
331.2427719368861
 30
0.0
 41
1.0
 10
1268.966988536729
 20
331.2215502016334
 30
0.0
 41
1.0
 10
1268.938648620407
 20
331.2195534776401
 30
0.0
 41
1.0
 10
1268.912340544042
 20
331.2177364777199
 30
0.0
 41
1.0
 10
1268.874332856799
 20
331.2151546905807
 30
0.0
 41
1.0
 10
1268.860521389234
 20
331.214226166665
 30
0.0
 41
1.0
 10
1268.84668877166
 20
331.2133064997397
 30
0.0
 41
1.0
 10
1268.570874899939
 20
331.1943252969936
 30
0.0
 41
0.999841204937326
 10
1268.294712461235
 20
331.1813682394531
 30
0.0
 41
0.999841204937326
 10
1268.018333015242
 20
331.1744414996665
 30
0.0
 41
1.0
 10
1267.902593341521
 20
331.171822821907
 30
0.0
 41
1.0
 10
1267.785751174944
 20
331.170627025178
 30
0.0
 41
1.0
 10
1267.671650331292
 20
331.1710885440261
 30
0.0
 41
1.0
 10
1267.509470713684
 20
331.1717445334816
 30
0.0
 41
1.0
 10
1267.347325325577
 20
331.1758943867917
 30
0.0
 41
1.0
 10
1267.195663531159
 20
331.1830035433268
 30
0.0
 41
1.0
 10
1267.078176892666
 20
331.1885107371909
 30
0.0
 41
1.0
 10
1266.954596948102
 20
331.1963678315515
 30
0.0
 41
1.0
 10
1266.840904419839
 20
331.2064968869672
 30
0.0
 41
1.0
 10
1266.748846922344
 20
331.214698441705
 30
0.0
 41
1.0
 10
1266.654463620818
 20
331.2251534713196
 30
0.0
 41
1.0
 10
1266.568490517723
 20
331.2376573826914
 30
0.0
 41
1.0
 10
1266.531217768477
 20
331.2430783240834
 30
0.0
 41
1.0
 10
1266.492744268714
 20
331.2492762687471
 30
0.0
 41
1.0
 10
1266.455738811591
 20
331.2562292220573
 30
0.0
 41
1.0
 10
1266.428650431831
 20
331.2613188562464
 30
0.0
 41
1.0
 10
1266.352882491348
 20
331.2781006245605
 30
0.0
 41
1.0
 10
1266.31910867637
 20
331.2886641072528
 30
0.0
 41
1.0
 10
1266.293731670959
 20
331.2966013082369
 30
0.0
 41
1.0
 10
1266.275511761434
 20
331.3037645184086
 30
0.0
 41
1.0
 10
1266.257432750245
 20
331.3124336130586
 30
0.0
 41
1.0
 10
1266.251781166427
 20
331.3151436127664
 30
0.0
 41
1.0
 10
1266.246008857653
 20
331.3181729342468
 30
0.0
 41
1.0
 10
1266.240337149509
 20
331.3213279543015
 30
0.0
 41
1.0
  0
ARC
  5
E6
330
1F
100
AcDbEntity
  8
UJK102
100
AcDbCircle
 10
1270.535185046498
 20
336.3181045969233
 30
0.0
 40
4.999999999762829
100
AcDbArc
 50
287.5032882748849
 51
293.7514637545696
  0
ARC
  5
E7
330
1F
100
AcDbEntity
  8
UJK102
100
AcDbCircle
 10
843.0022146412625
 20
336.3178697244651
 30
0.0
 40
4.999765128062886
100
AcDbArc
 50
246.1032594133695
 51
269.9736425259661
  0
ARC
  5
E8
330
1F
100
AcDbEntity
  8
UJK102
100
AcDbCircle
 10
843.0024634746809
 20
336.318104655243
 30
0.0
 40
5.000123781928801
100
AcDbArc
 50
169.3145955231996
 51
193.1916016645664
  0
ARC
  5
E9
330
1F
100
AcDbEntity
  8
UJK102
100
AcDbCircle
 10
843.0023922602534
 20
336.3180839115483
 30
0.0
 40
5.000049711264833
100
AcDbArc
 50
193.2101210163642
 51
219.6302928265429
  0
ARC
  5
EA
330
1F
100
AcDbEntity
  8
UJK102
100
AcDbCircle
 10
843.0022665144505
 20
336.3179786142627
 30
0.0
 40
4.999885699907054
100
AcDbArc
 50
219.6563741579137
 51
246.073898403995
  0
LINE
  5
EB
330
1F
100
AcDbEntity
  8
UJK102
100
AcDbLine
 10
1270.535185046391
 20
331.3181045971396
 30
0.0
 11
1270.451226506492
 21
331.3181045971394
 31
0.0
  0
LINE
  5
EC
330
1F
100
AcDbEntity
  8
UJK102
100
AcDbLine
 10
1270.432981019982
 20
331.3181045971396
 30
0.0
 11
1270.375639979078
 21
331.3181045971396
 31
0.0
  0
LINE
  5
ED
330
1F
100
AcDbEntity
  8
UJK102
100
AcDbLine
 10
1270.317211362641
 20
331.3181045971396
 30
0.0
 11
1270.305904594289
 21
331.3181045971396
 31
0.0
  0
LINE
  5
EE
330
1F
100
AcDbEntity
  8
UJK102
100
AcDbLine
 10
1270.281251479693
 20
331.3181045971396
 30
0.0
 11
1269.775791763198
 21
331.3181045971396
 31
0.0
  0
LINE
  5
EF
330
1F
100
AcDbEntity
  8
UJK102
100
AcDbLine
 10
1269.766927455951
 20
331.3181045971396
 30
0.0
 11
1269.484628110634
 21
331.3181045971396
 31
0.0
  0
LINE
  5
F0
330
1F
100
AcDbEntity
  8
UJK102
100
AcDbLine
 10
1269.434169184868
 20
331.3181045971396
 30
0.0
 11
1269.123751354604
 21
331.3181045971414
 31
0.0
  0
LINE
  5
F1
330
1F
100
AcDbEntity
  8
UJK102
100
AcDbLine
 10
1268.818680334782
 20
331.3181045971414
 30
0.0
 11
1268.318855739501
 21
331.3181045971414
 31
0.0
  0
LINE
  5
F2
330
1F
100
AcDbEntity
  8
UJK102
100
AcDbLine
 10
1266.904865903017
 20
331.3181045971414
 30
0.0
 11
1266.818610574207
 21
331.3181045971414
 31
0.0
  0
ARC
  5
F3
330
1F
100
AcDbEntity
  8
UJK102
100
AcDbCircle
 10
1270.535185396803
 20
336.3181045543744
 30
0.0
 40
4.999999819702218
100
AcDbArc
 50
293.7514602827708
 51
10.00000153108297
  0
LINE
  5
F4
330
1F
100
AcDbEntity
  8
UJK102
100
AcDbLine
 10
980.3938296546687
 20
371.3181046515656
 30
0.0
 11
1261.049124136819
 21
371.3181488608916
 31
0.0
  0
SPLINE
  5
F5
330
1F
100
AcDbEntity
  8
UJK102
100
AcDbSpline
210
0.0
220
0.0
230
1.0
 70
    12
 71
     3
 72
    11
 73
     7
 74
     0
 42
0.000000001
 43
0.0000000001
 12
1.0
 22
0.0
 32
0.0
 13
1.0
 23
0.0
 33
0.0
 40
1.036573320009436
 40
1.036573320009436
 40
1.036573320009436
 40
1.036573320009436
 40
26.60406569573607
 40
26.60406569573607
 40
26.60406569573607
 40
29.71923630399294
 40
29.71923630399294
 40
29.71923630399294
 40
29.71923630399294
 10
838.08668671079
 20
337.2466788620986
 30
0.0
 41
1.0
 10
839.6507314342806
 20
345.5266300640651
 30
0.0
 41
1.0
 10
843.8544245889973
 20
353.1042195641585
 30
0.0
 41
1.0
 10
849.952835468773
 20
358.9178613437834
 30
0.0
 41
1.0
 10
850.7045945939838
 20
359.6344603901533
 30
0.0
 41
0.9996275550409242
 10
851.4798838307456
 20
360.3255338847702
 30
0.0
 41
0.9996275550409235
 10
852.2778369213543
 20
360.9903096671096
 30
0.0
 41
1.0
  0
ARC
  5
F6
330
1F
100
AcDbEntity
  8
UJK102
100
AcDbCircle
 10
1261.049891955974
 20
361.318195183799
 30
0.0
 40
9.999970002560422
100
AcDbArc
 50
10.00075177726189
 51
89.99398556636099
  0
LINE
  5
F7
330
1F
100
AcDbEntity
  8
UJK102
100
AcDbLine
 10
1347.622715344666
 20
366.3181045971396
 30
0.0
 11
1341.094519018888
 21
366.3181045971396
 31
0.0
  0
ARC
  5
F8
330
1F
100
AcDbEntity
  8
UJK102
100
AcDbCircle
 10
1341.088241806246
 20
363.3181046030447
 30
0.0
 40
2.999999968566044
100
AcDbArc
 50
135.9261469049502
 51
180.0000001127795
  0
ARC
  5
F9
330
1F
100
AcDbEntity
  8
UJK102
100
AcDbCircle
 10
1337.566876512401
 20
366.7629408221637
 30
0.0
 40
1.926389961414988
100
AcDbArc
 50
315.1672863345936
 51
316.337426957031
  0
LINE
  5
FA
330
1F
100
AcDbEntity
  8
UJK102
100
AcDbLine
 10
1338.960459774317
 20
365.4329443802744
 30
0.0
 11
1338.976499119003
 21
365.448960434278
 31
0.0
  0
ARC
  5
FB
330
1F
100
AcDbEntity
  8
UJK102
100
AcDbCircle
 10
1341.057362172769
 20
363.3546725596275
 30
0.0
 40
2.9521667244494
100
AcDbArc
 50
128.1784613856431
 51
134.8157983495387
  0
ARC
  5
FC
330
1F
100
AcDbEntity
  8
UJK102
100
AcDbCircle
 10
1337.510672708681
 20
367.9340256140467
 30
0.0
 40
2.840247081339673
100
AcDbArc
 50
307.320227836673
 51
308.3032733598261
  0
LINE
  5
FD
330
1F
100
AcDbEntity
  8
UJK102
100
AcDbLine
 10
1339.271123343744
 20
365.7051704006735
 30
0.0
 11
1339.278550984705
 21
365.7108047297334
 31
0.0
  0
ARC
  5
FE
330
1F
100
AcDbEntity
  8
UJK102
100
AcDbCircle
 10
1341.084495205137
 20
363.3241536603244
 30
0.0
 40
2.992888076215788
100
AcDbArc
 50
119.9871683576171
 51
126.9953760288646
  0
SPLINE
  5
FF
330
1F
100
AcDbEntity
  8
UJK102
100
AcDbSpline
210
0.0
220
0.0
230
1.0
 70
     8
 71
     3
 72
    10
 73
     6
 74
     0
 42
0.000000001
 43
0.0000000001
 12
1.0
 22
0.0
 32
0.0
 13
1.0
 23
0.0
 33
0.0
 40
3.9070048196438
 40
3.9070048196438
 40
3.9070048196438
 40
3.9070048196438
 40
3.925575801996086
 40
3.925575801996086
 40
3.99741268418041
 40
3.99741268418041
 40
3.99741268418041
 40
3.99741268418041
 10
1339.613271863463
 20
365.9304690754107
 30
0.0
 10
1339.615393897133
 20
365.9316626950967
 30
0.0
 10
1339.616372073243
 20
365.9321997813768
 30
0.0
 10
1339.609979790437
 20
365.9284518317909
 30
0.0
 10
1339.588458531153
 20
365.916072236927
 30
0.0
 10
1339.588680747868
 20
365.9163267882286
 30
0.0
  0
LINE
  5
100
330
1F
100
AcDbEntity
  8
UJK102
100
AcDbLine
 10
1339.613076079032
 20
365.9307997667838
 30
0.0
 11
1339.620820558832
 21
365.9353865041248
 31
0.0
  0
ARC
  5
101
330
1F
100
AcDbEntity
  8
UJK102
100
AcDbCircle
 10
1341.086091526466
 20
363.3229430434978
 30
0.0
 40
2.994707805438837
100
AcDbArc
 50
112.1767461279555
 51
119.1869710369085
  0
SPLINE
  5
102
330
1F
100
AcDbEntity
  8
UJK102
100
AcDbSpline
210
0.0
220
0.0
230
1.0
 70
     8
 71
     3
 72
    10
 73
     6
 74
     0
 42
0.000000001
 43
0.0000000001
 12
1.0
 22
0.0
 32
0.0
 13
1.0
 23
0.0
 33
0.0
 40
7.62405144848513
 40
7.62405144848513
 40
7.62405144848513
 40
7.62405144848513
 40
7.638730570743265
 40
7.638730570743265
 40
7.686576781659404
 40
7.686576781659404
 40
7.686576781659404
 40
7.686576781659404
 10
1339.976223505746
 20
366.1043937430277
 30
0.0
 10
1339.978554493876
 20
366.105321200961
 30
0.0
 10
1339.979721850541
 20
366.1057754680205
 30
0.0
 10
1339.974769805634
 20
366.1037072491636
 30
0.0
 10
1339.955582951775
 20
366.0959101701064
 30
0.0
 10
1339.9557210773
 20
366.0960510951791
 30
0.0
  0
LINE
  5
103
330
1F
100
AcDbEntity
  8
UJK102
100
AcDbLine
 10
1339.976130836518
 20
366.1046152744184
 30
0.0
 11
1339.987517992528
 21
366.1093802100222
 31
0.0
  0
LINE
  5
104
330
1F
100
AcDbEntity
  8
UJK102
100
AcDbLine
 10
1340.07274509214
 20
366.1451781188771
 30
0.0
 11
1340.167010954189
 21
366.1860620426232
 31
0.0
  0
ARC
  5
105
330
1F
100
AcDbEntity
  8
UJK102
100
AcDbCircle
 10
1341.086283397702
 20
363.3247161663157
 30
0.0
 40
2.993107627216666
100
AcDbArc
 50
104.7627688524869
 51
111.5329321113978
  0
LINE
  5
106
330
1F
100
AcDbEntity
  8
UJK102
100
AcDbLine
 10
1340.339143646028
 20
366.2229812917776
 30
0.0
 11
1340.323593764458
 21
366.2189948514497
 31
0.0
  0
LINE
  5
107
330
1F
100
AcDbEntity
  8
UJK102
100
AcDbLine
 10
1340.339120964119
 20
366.2230689524076
 30
0.0
 11
1340.629647300395
 21
366.2984802614792
 31
0.0
  0
LINE
  5
108
330
1F
100
AcDbEntity
  8
UJK102
100
AcDbLine
 10
1340.262028826245
 20
366.2055125528132
 30
0.0
 11
1340.118728227844
 21
366.1687144778189
 31
0.0
  0
LINE
  5
109
330
1F
100
AcDbEntity
  8
UJK102
100
AcDbLine
 10
1340.540280015951
 20
366.2676363940391
 30
0.0
 11
1340.710875632728
 21
366.2942757501296
 31
0.0
  0
LINE
  5
10A
330
1F
100
AcDbEntity
  8
UJK102
100
AcDbLine
 10
1340.710989083013
 20
366.2942594533433
 30
0.0
 11
1340.849585991022
 21
366.3132052602814
 31
0.0
  0
LINE
  5
10B
330
1F
100
AcDbEntity
  8
UJK102
100
AcDbLine
 10
1340.849950887631
 20
366.308625858197
 30
0.0
 11
1341.083883706045
 21
366.3180894103934
 31
0.0
  0
LINE
  5
10C
330
1F
100
AcDbEntity
  8
UJK102
100
AcDbLine
 10
1518.080275914042
 20
356.7086683301241
 30
0.0
 11
1518.04869072675
 21
357.1536773809439
 31
0.0
  0
LINE
  5
10D
330
1F
100
AcDbEntity
  8
UJK102
100
AcDbLine
 10
1338.088243244588
 20
361.3181115469288
 30
0.0
 11
1338.088243244588
 21
363.3181045971432
 31
0.0
  0
LINE
  5
10E
330
1F
100
AcDbEntity
  8
UJK102
100
AcDbLine
 10
1518.088243244588
 20
-68.68189540286039
 30
0.0
 11
1518.088243244588
 21
-28.681895715672
 31
0.0
  0
LINE
  5
10F
330
1F
100
AcDbEntity
  8
UJK102
100
AcDbLine
 10
1392.471078729779
 20
-78.68189540286039
 30
0.0
 11
1501.548584876466
 21
-78.68189540286039
 31
0.0
  0
LINE
  5
110
330
1F
100
AcDbEntity
  8
UJK102
100
AcDbLine
 10
1354.238821649921
 20
-78.65151927853549
 30
0.0
 11
1353.82237963862
 21
-78.65200161239773
 31
0.0
  0
ARC
  5
111
330
1F
100
AcDbEntity
  8
UJK102
100
AcDbCircle
 10
1412.315860669476
 20
-74281.68996213378
 30
0.0
 40
74203.0551842962
100
AcDbArc
 50
90.03737275975465
 51
90.064577811375
  0
SPLINE
  5
112
330
1F
100
AcDbEntity
  8
UJK102
100
AcDbSpline
210
0.0
220
0.0
230
1.0
 70
     8
 71
     5
 72
    12
 73
     6
 74
     0
 42
0.000000001
 43
0.0000000001
 12
1.0
 22
0.0
 32
0.0
 13
1.0
 23
0.0
 33
0.0
 40
0.0
 40
0.0
 40
0.0
 40
0.0
 40
0.0
 40
0.0
 40
48.72139601038744
 40
48.72139601038744
 40
48.72139601038744
 40
48.72139601038744
 40
48.72139601038744
 40
48.72139601038744
 10
1338.087573819695
 20
361.3181044562189
 30
0.0
 10
1338.087575343489
 20
354.0306794745975
 30
0.0
 10
1338.087576869052
 20
346.7432544929798
 30
0.0
 10
1320.761631783656
 20
332.7402821995129
 30
0.0
 10
1314.251493758323
 20
331.4083216439813
 30
0.0
 10
1308.841551520996
 20
331.3229126684091
 30
0.0
  0
LINE
  5
113
330
1F
100
AcDbEntity
  8
UJK102
100
AcDbLine
 10
1356.180932212286
 20
331.3192200418125
 30
0.0
 11
1356.295603211323
 21
331.3194713305256
 31
0.0
  0
LINE
  5
114
330
1F
100
AcDbEntity
  8
UJK102
100
AcDbLine
 10
1356.136937108472
 20
331.3197840843677
 30
0.0
 11
1356.421077065081
 21
331.320916257675
 31
0.0
  0
LINE
  5
115
330
1F
100
AcDbEntity
  8
UJK102
100
AcDbLine
 10
1353.284470066681
 20
-78.6439612978993
 30
0.0
 11
1353.863446972409
 21
-78.64394224463103
 31
0.0
  0
ARC
  5
116
330
1F
100
AcDbEntity
  8
UJK102
100
AcDbCircle
 10
1508.098670698532
 20
376.3166715348501
 30
0.0
 40
9.989500078086248
100
AcDbArc
 50
347.1609202832905
 51
357.7675802161684
  0
ARC
  5
117
330
1F
100
AcDbEntity
  8
UJK102
100
AcDbCircle
 10
1341.088244334619
 20
369.3181070628084
 30
0.0
 40
3.000002496939955
100
AcDbArc
 50
180.0000470907659
 51
268.2989462066631
  0
LINE
  5
118
330
1F
100
AcDbEntity
  8
UJK102
100
AcDbLine
 10
1338.088243244588
 20
369.3181045971396
 30
0.0
 11
1338.088243244588
 21
756.3172038434186
 31
0.0
  0
LINE
  5
119
330
1F
100
AcDbEntity
  8
UJK102
100
AcDbLine
 10
1518.088243244588
 20
764.4626068795023
 30
0.0
 11
1518.088243244588
 21
776.3181045971342
 31
0.0
  0
ARC
  5
11A
330
1F
100
AcDbEntity
  8
UJK102
100
AcDbCircle
 10
1508.08824324459
 20
776.318104597141
 30
0.0
 40
9.999999999998636
100
AcDbArc
 50
359.9999999999922
 51
90.0
  0
ARC
  5
11B
330
1F
100
AcDbEntity
  8
UJK102
100
AcDbCircle
 10
1368.088243244589
 20
756.3181045971374
 30
0.0
 40
30.00000000000217
100
AcDbArc
 50
90.00000109834943
 51
179.9999999999959
  0
LINE
  5
11C
330
1F
100
AcDbEntity
  8
UJK102
100
AcDbLine
 10
1508.088243244591
 20
786.3181045971396
 30
0.0
 11
1472.582166138157
 21
786.3181045971396
 31
0.0
  0
LINE
  5
11D
330
1F
100
AcDbEntity
  8
UJK102
100
AcDbLine
 10
1423.593170873753
 20
786.3181045971396
 30
0.0
 11
1368.130402786489
 21
786.3181045971396
 31
0.0
  0
SPLINE
  5
11E
330
1F
100
AcDbEntity
  8
UJK102
100
AcDbSpline
210
0.0
220
0.0
230
1.0
 70
    12
 71
     3
 72
    29
 73
    25
 74
     0
 42
0.000000001
 43
0.0000000001
 12
1.0
 22
0.0
 32
0.0
 13
1.0
 23
0.0
 33
0.0
 40
0.0
 40
0.0
 40
0.0
 40
0.0
 40
25.65126974390516
 40
25.65126974390516
 40
25.65126974390516
 40
60.27048791359939
 40
60.27048791359939
 40
60.27048791359939
 40
91.78715173831621
 40
91.78715173831621
 40
91.78715173831621
 40
118.9764027338839
 40
118.9764027338839
 40
118.9764027338839
 40
140.9009901407345
 40
140.9009901407345
 40
140.9009901407345
 40
156.9195176956472
 40
156.9195176956472
 40
156.9195176956472
 40
166.6523931886098
 40
166.6523931886098
 40
166.6523931886098
 40
195.1381037225186
 40
195.1381037225186
 40
195.1381037225186
 40
195.1381037225186
 10
1507.500013584332
 20
744.689711794872
 30
0.0
 41
1.0
 10
1498.949721206347
 20
744.7554901030063
 30
0.0
 41
0.9999714299781673
 10
1490.400404218706
 20
744.9004231207572
 30
0.0
 41
0.9999714299781668
 10
1481.852795383923
 20
745.1244984259101
 30
0.0
 41
1.0
 10
1470.316749206835
 20
745.427945432566
 30
0.0
 41
0.9999485160295057
 10
1458.785365038576
 20
745.8747347003269
 30
0.0
 41
0.9999485160295053
 10
1447.260423923473
 20
746.4647972217317
 30
0.0
 41
1.0
 10
1436.768432412217
 20
747.0027850376682
 30
0.0
 41
0.9999579681882287
 10
1426.283143486683
 20
747.6585539835829
 30
0.0
 41
0.9999579681882286
 10
1415.805879293942
 20
748.4320213699974
 30
0.0
 41
1.0
 10
1406.767277925969
 20
749.0996200875368
 30
0.0
 41
0.9999693554709641
 10
1397.735493030258
 20
749.8538510431302
 30
0.0
 41
0.9999693554709647
 10
1388.71135493119
 20
750.6946448976123
 30
0.0
 41
1.0
 10
1381.434605091948
 20
751.3726436022131
 30
0.0
 41
0.9999804425442488
 10
1374.163262013694
 20
752.1063603763785
 30
0.0
 41
0.9999804425442484
 10
1366.89775232334
 20
752.8957521712018
 30
0.0
 41
1.0
 10
1361.589429508712
 20
753.472260068053
 30
0.0
 41
0.9999896837650659
 10
1356.284396027905
 20
754.0782899575481
 30
0.0
 41
0.9999896837650665
 10
1350.982816064837
 20
754.7138230838427
 30
0.0
 41
1.0
 10
1347.761530254196
 20
755.0995540841042
 30
0.0
 41
0.9999960862780549
 10
1344.541585074548
 20
755.4963206634291
 30
0.0
 41
0.9999960862780556
 10
1341.323018331806
 20
755.9041181633147
 30
0.0
 41
1.0
 10
1339.173277670289
 20
756.1763019805749
 30
0.0
 41
1.0
 10
1338.087435709836
 20
756.3175832110352
 30
0.0
 41
1.0
 10
1338.088235044031
 20
756.3172038434179
 30
0.0
 41
1.000000000000001
  0
LINE
  5
11F
330
1F
100
AcDbEntity
  8
UJK102
100
AcDbLine
 10
1518.088243244588
 20
744.6890362452323
 30
0.0
 11
1507.50001358433
 21
744.689711794872
 31
0.0
  0
ENDSEC
  0
SECTION
  2
OBJECTS
  0
DICTIONARY
  5
C
330
0
100
AcDbDictionary
281
     1
  3
ACAD_GROUP
350
D
  3
ACAD_LAYOUT
350
1A
  3
ACAD_MATERIAL
350
3B
  3
ACAD_MLEADERSTYLE
350
14A
  3
ACAD_MLINESTYLE
350
17
  3
ACAD_PLOTSETTINGS
350
19
  3
ACAD_PLOTSTYLENAME
350
E
  3
ACAD_SCALELIST
350
3F
  3
ACAD_TABLESTYLE
350
149
  3
ACAD_VISUALSTYLE
350
2A
  3
AcDbVariableDictionary
350
120
  0
DICTIONARY
  5
D
102
{ACAD_REACTORS
330
C
102
}
330
C
100
AcDbDictionary
281
     1
  0
DICTIONARY
  5
1A
102
{ACAD_REACTORS
330
C
102
}
330
C
100
AcDbDictionary
281
     1
  3
Layout1
350
1E
  3
Layout2
350
26
  3
Model
350
22
  0
DICTIONARY
  5
3B
102
{ACAD_REACTORS
330
C
102
}
330
C
100
AcDbDictionary
281
     1
  3
ByBlock
350
3D
  3
ByLayer
350
3C
  3
Global
350
3E
  0
DICTIONARY
  5
14A
102
{ACAD_REACTORS
330
C
102
}
330
C
100
AcDbDictionary
281
     1
  0
DICTIONARY
  5
17
102
{ACAD_REACTORS
330
C
102
}
330
C
100
AcDbDictionary
281
     1
  3
Standard
350
18
  0
DICTIONARY
  5
19
102
{ACAD_REACTORS
330
C
102
}
330
C
100
AcDbDictionary
281
     1
  0
ACDBDICTIONARYWDFLT
  5
E
102
{ACAD_REACTORS
330
C
102
}
330
C
100
AcDbDictionary
281
     1
  3
Normal
350
F
100
AcDbDictionaryWithDefault
340
F
  0
DICTIONARY
  5
3F
102
{ACAD_REACTORS
330
C
102
}
330
C
100
AcDbDictionary
281
     1
  3
A0
350
40
  3
A1
350
41
  3
A2
350
42
  3
A3
350
43
  3
A4
350
44
  3
A5
350
45
  3
A6
350
46
  3
A7
350
47
  3
A8
350
48
  3
A9
350
49
  3
B0
350
4A
  3
B1
350
4B
  3
B2
350
4C
  3
B3
350
4D
  3
B4
350
4E
  3
B5
350
4F
  3
B6
350
50
  3
B7
350
51
  3
B8
350
52
  3
B9
350
53
  3
C0
350
54
  3
C1
350
55
  3
C2
350
56
  3
C3
350
57
  3
C4
350
58
  3
C5
350
59
  3
C6
350
5A
  3
C7
350
5B
  3
C8
350
5C
  3
C9
350
5D
  3
D0
350
5E
  3
D1
350
5F
  3
D2
350
60
  0
DICTIONARY
  5
149
102
{ACAD_REACTORS
330
C
102
}
330
C
100
AcDbDictionary
281
     1
  0
DICTIONARY
  5
2A
102
{ACAD_REACTORS
330
C
102
}
330
C
100
AcDbDictionary
281
     1
  3
2dWireframe
350
2F
  3
3D Hidden
350
31
  3
3dWireframe
350
30
  3
Basic
350
32
  3
Brighten
350
36
  3
ColorChange
350
3A
  3
Conceptual
350
34
  3
Dim
350
35
  3
Facepattern
350
39
  3
Flat
350
2B
  3
FlatWithEdges
350
2C
  3
Gouraud
350
2D
  3
GouraudWithEdges
350
2E
  3
Linepattern
350
38
  3
Realistic
350
33
  3
Thicken
350
37
  0
DICTIONARY
  5
120
102
{ACAD_REACTORS
330
C
102
}
330
C
100
AcDbDictionary
281
     1
  3
CANNOSCALE
350
121
  3
MSLTSCALE
350
122
  0
LAYOUT
  5
1E
102
{ACAD_REACTORS
330
1A
102
}
330
1A
100
AcDbPlotSettings
  1

  2
none_device
  4

  6

 40
0.0
 41
0.0
 42
0.0
 43
0.0
 44
0.0
 45
0.0
 46
0.0
 47
0.0
 48
0.0
 49
0.0
140
0.0
141
0.0
142
1.0
143
1.0
 70
   688
 72
     0
 73
     0
 74
     5
  7

 75
    16
 76
     0
 77
     2
 78
   300
147
1.0
148
0.0
149
0.0
100
AcDbLayout
  1
Layout1
 70
     1
 71
     1
 10
0.0
 20
0.0
 11
12.0
 21
9.0
 12
0.0
 22
0.0
 32
0.0
 14
1.000000000000000E+20
 24
1.000000000000000E+20
 34
1.000000000000000E+20
 15
-1.000000000000000E+20
 25
-1.000000000000000E+20
 35
-1.000000000000000E+20
146
0.0
 13
0.0
 23
0.0
 33
0.0
 16
1.0
 26
0.0
 36
0.0
 17
0.0
 27
1.0
 37
0.0
 76
     0
330
1B
  0
LAYOUT
  5
26
102
{ACAD_REACTORS
330
1A
102
}
330
1A
100
AcDbPlotSettings
  1

  2
none_device
  4

  6

 40
0.0
 41
0.0
 42
0.0
 43
0.0
 44
0.0
 45
0.0
 46
0.0
 47
0.0
 48
0.0
 49
0.0
140
0.0
141
0.0
142
1.0
143
1.0
 70
   688
 72
     0
 73
     0
 74
     5
  7

 75
    16
 76
     0
 77
     2
 78
   300
147
1.0
148
0.0
149
0.0
100
AcDbLayout
  1
Layout2
 70
     1
 71
     2
 10
0.0
 20
0.0
 11
0.0
 21
0.0
 12
0.0
 22
0.0
 32
0.0
 14
0.0
 24
0.0
 34
0.0
 15
0.0
 25
0.0
 35
0.0
146
0.0
 13
0.0
 23
0.0
 33
0.0
 16
1.0
 26
0.0
 36
0.0
 17
0.0
 27
1.0
 37
0.0
 76
     0
330
23
  0
LAYOUT
  5
22
102
{ACAD_REACTORS
330
1A
102
}
330
1A
100
AcDbPlotSettings
  1

  2
none_device
  4
Letter_(8.50_x_11.00_Inches)
  6

 40
6.35
 41
6.35
 42
6.35000508
 43
6.35000508
 44
215.9
 45
279.4
 46
0.0
 47
0.0
 48
0.0
 49
0.0
140
0.0
141
0.0
142
1.0
143
1.0
 70
  1712
 72
     0
 73
     0
 74
     0
  7

 75
     0
 76
     0
 77
     2
 78
   300
147
1.0
148
0.0
149
0.0
100
AcDbLayout
  1
Model
 70
     1
 71
     0
 10
0.0
 20
0.0
 11
12.0
 21
9.0
 12
0.0
 22
0.0
 32
0.0
 14
837.9999999999307
 24
-78.68190953976678
 34
0.0
 15
1518.088243244589
 25
796.3181656316491
 35
0.0
146
0.0
 13
0.0
 23
0.0
 33
0.0
 16
1.0
 26
0.0
 36
0.0
 17
0.0
 27
1.0
 37
0.0
 76
     0
330
1F
331
29
  0
MATERIAL
  5
3D
102
{ACAD_REACTORS
330
3B
102
}
102
{ACAD_XDICTIONARY
360
145
102
}
330
3B
100
AcDbMaterial
  1
ByBlock
  0
MATERIAL
  5
3C
102
{ACAD_REACTORS
330
3B
102
}
102
{ACAD_XDICTIONARY
360
143
102
}
330
3B
100
AcDbMaterial
  1
ByLayer
  0
MATERIAL
  5
3E
102
{ACAD_REACTORS
330
3B
102
}
102
{ACAD_XDICTIONARY
360
147
102
}
330
3B
100
AcDbMaterial
  1
Global
  0
MLINESTYLE
  5
18
102
{ACAD_REACTORS
330
17
102
}
330
17
100
AcDbMlineStyle
  2
Standard
 70
     0
  3

 62
   256
 51
90.0
 52
90.0
 71
     2
 49
0.5
 62
   256
  6
BYLAYER
 49
-0.5
 62
   256
  6
BYLAYER
  0
ACDBPLACEHOLDER
  5
F
102
{ACAD_REACTORS
330
E
102
}
330
E
  0
SCALE
  5
40
102
{ACAD_REACTORS
330
3F
102
}
330
3F
100
AcDbScale
 70
     0
300
1:1
140
1.0
141
1.0
290
     1
  0
SCALE
  5
41
102
{ACAD_REACTORS
330
3F
102
}
330
3F
100
AcDbScale
 70
     0
300
1:2
140
1.0
141
2.0
290
     0
  0
SCALE
  5
42
102
{ACAD_REACTORS
330
3F
102
}
330
3F
100
AcDbScale
 70
     0
300
1:4
140
1.0
141
4.0
290
     0
  0
SCALE
  5
43
102
{ACAD_REACTORS
330
3F
102
}
330
3F
100
AcDbScale
 70
     0
300
1:5
140
1.0
141
5.0
290
     0
  0
SCALE
  5
44
102
{ACAD_REACTORS
330
3F
102
}
330
3F
100
AcDbScale
 70
     0
300
1:8
140
1.0
141
8.0
290
     0
  0
SCALE
  5
45
102
{ACAD_REACTORS
330
3F
102
}
330
3F
100
AcDbScale
 70
     0
300
1:10
140
1.0
141
10.0
290
     0
  0
SCALE
  5
46
102
{ACAD_REACTORS
330
3F
102
}
330
3F
100
AcDbScale
 70
     0
300
1:16
140
1.0
141
16.0
290
     0
  0
SCALE
  5
47
102
{ACAD_REACTORS
330
3F
102
}
330
3F
100
AcDbScale
 70
     0
300
1:20
140
1.0
141
20.0
290
     0
  0
SCALE
  5
48
102
{ACAD_REACTORS
330
3F
102
}
330
3F
100
AcDbScale
 70
     0
300
1:30
140
1.0
141
30.0
290
     0
  0
SCALE
  5
49
102
{ACAD_REACTORS
330
3F
102
}
330
3F
100
AcDbScale
 70
     0
300
1:40
140
1.0
141
40.0
290
     0
  0
SCALE
  5
4A
102
{ACAD_REACTORS
330
3F
102
}
330
3F
100
AcDbScale
 70
     0
300
1:50
140
1.0
141
50.0
290
     0
  0
SCALE
  5
4B
102
{ACAD_REACTORS
330
3F
102
}
330
3F
100
AcDbScale
 70
     0
300
1:100
140
1.0
141
100.0
290
     0
  0
SCALE
  5
4C
102
{ACAD_REACTORS
330
3F
102
}
330
3F
100
AcDbScale
 70
     0
300
2:1
140
2.0
141
1.0
290
     0
  0
SCALE
  5
4D
102
{ACAD_REACTORS
330
3F
102
}
330
3F
100
AcDbScale
 70
     0
300
4:1
140
4.0
141
1.0
290
     0
  0
SCALE
  5
4E
102
{ACAD_REACTORS
330
3F
102
}
330
3F
100
AcDbScale
 70
     0
300
8:1
140
8.0
141
1.0
290
     0
  0
SCALE
  5
4F
102
{ACAD_REACTORS
330
3F
102
}
330
3F
100
AcDbScale
 70
     0
300
10:1
140
10.0
141
1.0
290
     0
  0
SCALE
  5
50
102
{ACAD_REACTORS
330
3F
102
}
330
3F
100
AcDbScale
 70
     0
300
100:1
140
100.0
141
1.0
290
     0
  0
SCALE
  5
51
102
{ACAD_REACTORS
330
3F
102
}
330
3F
100
AcDbScale
 70
     0
300
1/128" = 1'-0"
140
0.0078125
141
12.0
290
     0
  0
SCALE
  5
52
102
{ACAD_REACTORS
330
3F
102
}
330
3F
100
AcDbScale
 70
     0
300
1/64" = 1'-0"
140
0.015625
141
12.0
290
     0
  0
SCALE
  5
53
102
{ACAD_REACTORS
330
3F
102
}
330
3F
100
AcDbScale
 70
     0
300
1/32" = 1'-0"
140
0.03125
141
12.0
290
     0
  0
SCALE
  5
54
102
{ACAD_REACTORS
330
3F
102
}
330
3F
100
AcDbScale
 70
     0
300
1/16" = 1'-0"
140
0.0625
141
12.0
290
     0
  0
SCALE
  5
55
102
{ACAD_REACTORS
330
3F
102
}
330
3F
100
AcDbScale
 70
     0
300
3/32" = 1'-0"
140
0.09375
141
12.0
290
     0
  0
SCALE
  5
56
102
{ACAD_REACTORS
330
3F
102
}
330
3F
100
AcDbScale
 70
     0
300
1/8" = 1'-0"
140
0.125
141
12.0
290
     0
  0
SCALE
  5
57
102
{ACAD_REACTORS
330
3F
102
}
330
3F
100
AcDbScale
 70
     0
300
3/16" = 1'-0"
140
0.1875
141
12.0
290
     0
  0
SCALE
  5
58
102
{ACAD_REACTORS
330
3F
102
}
330
3F
100
AcDbScale
 70
     0
300
1/4" = 1'-0"
140
0.25
141
12.0
290
     0
  0
SCALE
  5
59
102
{ACAD_REACTORS
330
3F
102
}
330
3F
100
AcDbScale
 70
     0
300
3/8" = 1'-0"
140
0.375
141
12.0
290
     0
  0
SCALE
  5
5A
102
{ACAD_REACTORS
330
3F
102
}
330
3F
100
AcDbScale
 70
     0
300
1/2" = 1'-0"
140
0.5
141
12.0
290
     0
  0
SCALE
  5
5B
102
{ACAD_REACTORS
330
3F
102
}
330
3F
100
AcDbScale
 70
     0
300
3/4" = 1'-0"
140
0.75
141
12.0
290
     0
  0
SCALE
  5
5C
102
{ACAD_REACTORS
330
3F
102
}
330
3F
100
AcDbScale
 70
     0
300
1" = 1'-0"
140
1.0
141
12.0
290
     0
  0
SCALE
  5
5D
102
{ACAD_REACTORS
330
3F
102
}
330
3F
100
AcDbScale
 70
     0
300
1-1/2" = 1'-0"
140
1.5
141
12.0
290
     0
  0
SCALE
  5
5E
102
{ACAD_REACTORS
330
3F
102
}
330
3F
100
AcDbScale
 70
     0
300
3" = 1'-0"
140
3.0
141
12.0
290
     0
  0
SCALE
  5
5F
102
{ACAD_REACTORS
330
3F
102
}
330
3F
100
AcDbScale
 70
     0
300
6" = 1'-0"
140
6.0
141
12.0
290
     0
  0
SCALE
  5
60
102
{ACAD_REACTORS
330
3F
102
}
330
3F
100
AcDbScale
 70
     0
300
1'-0" = 1'-0"
140
12.0
141
12.0
290
     0
  0
VISUALSTYLE
  5
2F
102
{ACAD_REACTORS
330
2A
102
}
102
{ACAD_XDICTIONARY
360
12B
102
}
330
2A
100
AcDbVisualStyle
  2
2dWireframe
 70
     4
 71
     0
 72
     2
 73
     0
 90
        0
 40
0.6
 41
30.0
 62
     5
 63
     7
421
 16777215
 74
     1
 91
        4
 64
     7
 65
   257
 75
     1
175
     1
 42
1.0
 92
        0
 66
   257
 43
1.0
 76
     1
 77
     6
 78
     2
 67
     7
 79
     5
170
     0
171
     0
290
     0
174
     0
 93
        1
 44
0.0
173
     0
291
     0
 45
0.0
1001
ACAD
1000
AcDbSavedByObjectVersion
1070
     0
  0
VISUALSTYLE
  5
31
102
{ACAD_REACTORS
330
2A
102
}
102
{ACAD_XDICTIONARY
360
12F
102
}
330
2A
100
AcDbVisualStyle
  2
3D Hidden
 70
     6
 71
     1
 72
     2
 73
     2
 90
        0
 40
0.6
 41
30.0
 62
     5
 63
     7
421
 16777215
 74
     2
 91
        2
 64
     7
 65
   257
 75
     2
175
     1
 42
40.0
 92
        0
 66
   257
 43
1.0
 76
     1
 77
     6
 78
     2
 67
     7
 79
     3
170
     0
171
     0
290
     0
174
     0
 93
        1
 44
0.0
173
     0
291
     0
 45
0.0
1001
ACAD
1000
AcDbSavedByObjectVersion
1070
     0
  0
VISUALSTYLE
  5
30
102
{ACAD_REACTORS
330
2A
102
}
102
{ACAD_XDICTIONARY
360
12D
102
}
330
2A
100
AcDbVisualStyle
  2
3dWireframe
 70
     5
 71
     0
 72
     2
 73
     0
 90
        0
 40
0.6
 41
30.0
 62
     5
 63
     7
421
 16777215
 74
     1
 91
        4
 64
     7
 65
   257
 75
     1
175
     1
 42
1.0
 92
        0
 66
   257
 43
1.0
 76
     1
 77
     6
 78
     2
 67
     7
 79
     5
170
     0
171
     0
290
     0
174
     0
 93
        1
 44
0.0
173
     0
291
     0
 45
0.0
1001
ACAD
1000
AcDbSavedByObjectVersion
1070
     0
  0
VISUALSTYLE
  5
32
102
{ACAD_REACTORS
330
2A
102
}
102
{ACAD_XDICTIONARY
360
131
102
}
330
2A
100
AcDbVisualStyle
  2
Basic
 70
     7
 71
     1
 72
     0
 73
     1
 90
        0
 40
0.6
 41
30.0
 62
     5
 63
     7
421
 16777215
 74
     0
 91
        4
 64
     7
 65
   257
 75
     1
175
     1
 42
1.0
 92
        8
 66
     7
 43
1.0
 76
     1
 77
     6
 78
     2
 67
     7
 79
     5
170
     0
171
     0
290
     0
174
     0
 93
        1
 44
0.0
173
     0
291
     1
 45
0.0
1001
ACAD
1000
AcDbSavedByObjectVersion
1070
     0
  0
VISUALSTYLE
  5
36
102
{ACAD_REACTORS
330
2A
102
}
102
{ACAD_XDICTIONARY
360
139
102
}
330
2A
100
AcDbVisualStyle
  2
Brighten
 70
    12
 71
     2
 72
     2
 73
     0
 90
        0
 40
0.6
 41
30.0
 62
     5
 63
     7
421
 16777215
 74
     1
 91
        4
 64
     7
 65
   257
 75
     1
175
     1
 42
1.0
 92
        8
 66
     7
 43
1.0
 76
     1
 77
     6
 78
     2
 67
     7
 79
     5
170
     0
171
     0
290
     0
174
     0
 93
        1
 44
50.0
173
     0
291
     1
 45
0.0
1001
ACAD
1000
AcDbSavedByObjectVersion
1070
     0
  0
VISUALSTYLE
  5
3A
102
{ACAD_REACTORS
330
2A
102
}
102
{ACAD_XDICTIONARY
360
141
102
}
330
2A
100
AcDbVisualStyle
  2
ColorChange
 70
    16
 71
     2
 72
     2
 73
     3
 90
        0
 40
0.6
 41
30.0
 62
     5
 63
     8
421
  8421504
 74
     1
 91
        4
 64
     7
 65
   257
 75
     1
175
     1
 42
1.0
 92
        8
 66
     8
424
  8421504
 43
1.0
 76
     1
 77
     6
 78
     2
 67
     7
 79
     5
170
     0
171
     0
290
     0
174
     0
 93
        1
 44
0.0
173
     0
291
     1
 45
0.0
1001
ACAD
1000
AcDbSavedByObjectVersion
1070
     0
  0
VISUALSTYLE
  5
34
102
{ACAD_REACTORS
330
2A
102
}
102
{ACAD_XDICTIONARY
360
135
102
}
330
2A
100
AcDbVisualStyle
  2
Conceptual
 70
     9
 71
     3
 72
     2
 73
     0
 90
        0
 40
0.6
 41
30.0
 62
     5
 63
     7
421
 16777215
 74
     2
 91
        2
 64
     7
 65
   257
 75
     1
175
     1
 42
40.0
 92
        8
 66
     7
 43
1.0
 76
     1
 77
     6
 78
     2
 67
     7
 79
     3
170
     0
171
     0
290
     0
174
     0
 93
        1
 44
0.0
173
     0
291
     0
 45
0.0
1001
ACAD
1000
AcDbSavedByObjectVersion
1070
     0
  0
VISUALSTYLE
  5
35
102
{ACAD_REACTORS
330
2A
102
}
102
{ACAD_XDICTIONARY
360
137
102
}
330
2A
100
AcDbVisualStyle
  2
Dim
 70
    11
 71
     2
 72
     2
 73
     0
 90
        0
 40
0.6
 41
30.0
 62
     5
 63
     7
421
 16777215
 74
     1
 91
        4
 64
     7
 65
   257
 75
     1
175
     1
 42
1.0
 92
        8
 66
     7
 43
1.0
 76
     1
 77
     6
 78
     2
 67
     7
 79
     5
170
     0
171
     0
290
     0
174
     0
 93
        1
 44
-50.0
173
     0
291
     1
 45
0.0
1001
ACAD
1000
AcDbSavedByObjectVersion
1070
     0
  0
VISUALSTYLE
  5
39
102
{ACAD_REACTORS
330
2A
102
}
102
{ACAD_XDICTIONARY
360
13F
102
}
330
2A
100
AcDbVisualStyle
  2
Facepattern
 70
    15
 71
     2
 72
     2
 73
     0
 90
        0
 40
0.6
 41
30.0
 62
     5
 63
     7
421
 16777215
 74
     1
 91
        4
 64
     7
 65
   257
 75
     1
175
     1
 42
1.0
 92
        8
 66
     7
 43
1.0
 76
     1
 77
     6
 78
     2
 67
     7
 79
     5
170
     0
171
     0
290
     0
174
     0
 93
        1
 44
0.0
173
     0
291
     1
 45
0.0
1001
ACAD
1000
AcDbSavedByObjectVersion
1070
     0
  0
VISUALSTYLE
  5
2B
102
{ACAD_REACTORS
330
2A
102
}
102
{ACAD_XDICTIONARY
360
123
102
}
330
2A
100
AcDbVisualStyle
  2
Flat
 70
     0
 71
     2
 72
     1
 73
     1
 90
        2
 40
0.6
 41
30.0
 62
     5
 63
     7
421
 16777215
 74
     0
 91
        4
 64
     7
 65
   257
 75
     1
175
     1
 42
1.0
 92
        8
 66
     7
 43
1.0
 76
     1
 77
     6
 78
     2
 67
     7
 79
     5
170
     0
171
     0
290
     0
174
     0
 93
       13
 44
0.0
173
     0
291
     1
 45
0.0
1001
ACAD
1000
AcDbSavedByObjectVersion
1070
     0
  0
VISUALSTYLE
  5
2C
102
{ACAD_REACTORS
330
2A
102
}
102
{ACAD_XDICTIONARY
360
125
102
}
330
2A
100
AcDbVisualStyle
  2
FlatWithEdges
 70
     1
 71
     2
 72
     1
 73
     1
 90
        2
 40
0.6
 41
30.0
 62
     5
 63
     7
421
 16777215
 74
     1
 91
        4
 64
     7
 65
   257
 75
     1
175
     1
 42
1.0
 92
        0
 66
   257
 43
1.0
 76
     1
 77
     6
 78
     2
 67
     7
 79
     5
170
     0
171
     0
290
     0
174
     0
 93
       13
 44
0.0
173
     0
291
     1
 45
0.0
1001
ACAD
1000
AcDbSavedByObjectVersion
1070
     0
  0
VISUALSTYLE
  5
2D
102
{ACAD_REACTORS
330
2A
102
}
102
{ACAD_XDICTIONARY
360
127
102
}
330
2A
100
AcDbVisualStyle
  2
Gouraud
 70
     2
 71
     2
 72
     2
 73
     1
 90
        2
 40
0.6
 41
30.0
 62
     5
 63
     7
421
 16777215
 74
     0
 91
        4
 64
     7
 65
   257
 75
     1
175
     1
 42
1.0
 92
        0
 66
     7
 43
1.0
 76
     1
 77
     6
 78
     2
 67
     7
 79
     5
170
     0
171
     0
290
     0
174
     0
 93
       13
 44
0.0
173
     0
291
     1
 45
0.0
1001
ACAD
1000
AcDbSavedByObjectVersion
1070
     0
  0
VISUALSTYLE
  5
2E
102
{ACAD_REACTORS
330
2A
102
}
102
{ACAD_XDICTIONARY
360
129
102
}
330
2A
100
AcDbVisualStyle
  2
GouraudWithEdges
 70
     3
 71
     2
 72
     2
 73
     1
 90
        2
 40
0.6
 41
30.0
 62
     5
 63
     7
421
 16777215
 74
     1
 91
        4
 64
     7
 65
   257
 75
     1
175
     1
 42
1.0
 92
        0
 66
   257
 43
1.0
 76
     1
 77
     6
 78
     2
 67
     7
 79
     5
170
     0
171
     0
290
     0
174
     0
 93
       13
 44
0.0
173
     0
291
     1
 45
0.0
1001
ACAD
1000
AcDbSavedByObjectVersion
1070
     0
  0
VISUALSTYLE
  5
38
102
{ACAD_REACTORS
330
2A
102
}
102
{ACAD_XDICTIONARY
360
13D
102
}
330
2A
100
AcDbVisualStyle
  2
Linepattern
 70
    14
 71
     2
 72
     2
 73
     0
 90
        0
 40
0.6
 41
30.0
 62
     5
 63
     7
421
 16777215
 74
     1
 91
        4
 64
     7
 65
   257
 75
     7
175
     7
 42
1.0
 92
        8
 66
     7
 43
1.0
 76
     1
 77
     6
 78
     2
 67
     7
 79
     5
170
     0
171
     0
290
     0
174
     0
 93
        1
 44
0.0
173
     0
291
     1
 45
0.0
1001
ACAD
1000
AcDbSavedByObjectVersion
1070
     0
  0
VISUALSTYLE
  5
33
102
{ACAD_REACTORS
330
2A
102
}
102
{ACAD_XDICTIONARY
360
133
102
}
330
2A
100
AcDbVisualStyle
  2
Realistic
 70
     8
 71
     2
 72
     3
 73
     0
 90
        2
 40
0.6
 41
30.0
 62
     5
 63
     7
421
 16777215
 74
     0
 91
        0
 64
     7
 65
   257
 75
     1
175
     1
 42
1.0
 92
        8
 66
   257
 43
1.0
 76
     1
 77
     6
 78
     2
 67
     7
 79
     3
170
     0
171
     0
290
     0
174
     0
 93
       13
 44
0.0
173
     0
291
     0
 45
0.0
1001
ACAD
1000
AcDbSavedByObjectVersion
1070
     0
  0
VISUALSTYLE
  5
37
102
{ACAD_REACTORS
330
2A
102
}
102
{ACAD_XDICTIONARY
360
13B
102
}
330
2A
100
AcDbVisualStyle
  2
Thicken
 70
    13
 71
     2
 72
     2
 73
     0
 90
        0
 40
0.6
 41
30.0
 62
     5
 63
     7
421
 16777215
 74
     1
 91
        4
 64
     7
 65
   257
 75
     1
175
     1
 42
1.0
 92
       12
 66
     7
 43
1.0
 76
     1
 77
     6
 78
     2
 67
     7
 79
     5
170
     0
171
     0
290
     0
174
     0
 93
        1
 44
0.0
173
     0
291
     1
 45
0.0
1001
ACAD
1000
AcDbSavedByObjectVersion
1070
     0
  0
DICTIONARYVAR
  5
121
102
{ACAD_REACTORS
330
120
102
}
330
120
100
DictionaryVariables
280
     0
  1
1:1
  0
DICTIONARYVAR
  5
122
102
{ACAD_REACTORS
330
120
102
}
330
120
100
DictionaryVariables
280
     0
  1
1
  0
DICTIONARY
  5
145
330
3D
100
AcDbDictionary
280
     1
281
     1
  3
ACAD_XREC_ROUNDTRIP
360
146
  0
DICTIONARY
  5
143
330
3C
100
AcDbDictionary
280
     1
281
     1
  3
ACAD_XREC_ROUNDTRIP
360
144
  0
DICTIONARY
  5
147
330
3E
100
AcDbDictionary
280
     1
281
     1
  3
ACAD_XREC_ROUNDTRIP
360
148
  0
DICTIONARY
  5
12B
330
2F
100
AcDbDictionary
280
     1
281
     1
  3
ACAD_XREC_ROUNDTRIP
360
12C
  0
DICTIONARY
  5
12F
330
31
100
AcDbDictionary
280
     1
281
     1
  3
ACAD_XREC_ROUNDTRIP
360
130
  0
DICTIONARY
  5
12D
330
30
100
AcDbDictionary
280
     1
281
     1
  3
ACAD_XREC_ROUNDTRIP
360
12E
  0
DICTIONARY
  5
131
330
32
100
AcDbDictionary
280
     1
281
     1
  3
ACAD_XREC_ROUNDTRIP
360
132
  0
DICTIONARY
  5
139
330
36
100
AcDbDictionary
280
     1
281
     1
  3
ACAD_XREC_ROUNDTRIP
360
13A
  0
DICTIONARY
  5
141
330
3A
100
AcDbDictionary
280
     1
281
     1
  3
ACAD_XREC_ROUNDTRIP
360
142
  0
DICTIONARY
  5
135
330
34
100
AcDbDictionary
280
     1
281
     1
  3
ACAD_XREC_ROUNDTRIP
360
136
  0
DICTIONARY
  5
137
330
35
100
AcDbDictionary
280
     1
281
     1
  3
ACAD_XREC_ROUNDTRIP
360
138
  0
DICTIONARY
  5
13F
330
39
100
AcDbDictionary
280
     1
281
     1
  3
ACAD_XREC_ROUNDTRIP
360
140
  0
DICTIONARY
  5
123
330
2B
100
AcDbDictionary
280
     1
281
     1
  3
ACAD_XREC_ROUNDTRIP
360
124
  0
DICTIONARY
  5
125
330
2C
100
AcDbDictionary
280
     1
281
     1
  3
ACAD_XREC_ROUNDTRIP
360
126
  0
DICTIONARY
  5
127
330
2D
100
AcDbDictionary
280
     1
281
     1
  3
ACAD_XREC_ROUNDTRIP
360
128
  0
DICTIONARY
  5
129
330
2E
100
AcDbDictionary
280
     1
281
     1
  3
ACAD_XREC_ROUNDTRIP
360
12A
  0
DICTIONARY
  5
13D
330
38
100
AcDbDictionary
280
     1
281
     1
  3
ACAD_XREC_ROUNDTRIP
360
13E
  0
DICTIONARY
  5
133
330
33
100
AcDbDictionary
280
     1
281
     1
  3
ACAD_XREC_ROUNDTRIP
360
134
  0
DICTIONARY
  5
13B
330
37
100
AcDbDictionary
280
     1
281
     1
  3
ACAD_XREC_ROUNDTRIP
360
13C
  0
XRECORD
  5
146
102
{ACAD_REACTORS
330
145
102
}
330
145
100
AcDbXrecord
280
     1
102
MATERIAL
148
0.0
149
0.0
149
0.0
 93
        0
 94
      127
282
     0
 72
     1
 77
     1
171
     1
175
     1
179
     1
273
     0
  0
XRECORD
  5
144
102
{ACAD_REACTORS
330
143
102
}
330
143
100
AcDbXrecord
280
     1
102
MATERIAL
148
0.0
149
0.0
149
0.0
 93
        0
 94
      127
282
     0
 72
     1
 77
     1
171
     1
175
     1
179
     1
273
     0
  0
XRECORD
  5
148
102
{ACAD_REACTORS
330
147
102
}
330
147
100
AcDbXrecord
280
     1
102
MATERIAL
148
0.0
149
0.0
149
0.0
 93
        0
 94
      127
282
     0
 72
     1
 77
     1
171
     1
175
     1
179
     1
273
     0
  0
XRECORD
  5
12C
102
{ACAD_REACTORS
330
12B
102
}
330
12B
100
AcDbXrecord
280
     1
102
RTVSPropertyOp0
 70
     1
102
RTVSPropertyOp1
 70
     1
102
RTVSPropertyOp2
 70
     1
102
RTVSPropertyOp3
 70
     1
102
RTVSPropertyOp4
 70
     1
102
RTVSPropertyOp5
 70
     1
102
RTVSPropertyOp6
 70
     1
102
RTVSPropertyOp7
 70
     1
102
RTVSPropertyOp8
 70
     1
102
RTVSPropertyOp9
 70
     1
102
RTVSPropertyOp10
 70
     1
102
RTVSPropertyOp11
 70
     1
102
RTVSPropertyOp12
 70
     1
102
RTVSPropertyOp13
 70
     1
102
RTVSPropertyOp14
 70
     1
102
RTVSPropertyOp15
 70
     1
102
RTVSPropertyOp16
 70
     1
102
RTVSPropertyOp17
 70
     1
102
RTVSPropertyOp18
 70
     1
102
RTVSPropertyOp19
 70
     1
102
RTVSPropertyOp20
 70
     1
102
RTVSPropertyOp21
 70
     1
102
RTVSPropertyOp22
 70
     1
102
RTVSPropertyOp23
 70
     1
102
RTVSPropertyOp24
 70
     1
102
RTVSPropertyOp25
 70
     1
102
RTVSPropertyOp26
 70
     1
102
RTVSPropertyOp27
 70
     1
102
RTVSPropertyOp28
 70
     1
102
RTVSPropertyOp29
 70
     1
102
RTVSPropertyOp30
 70
     1
102
RTVSPropertyOp31
 70
     1
102
RTVSPropertyOp32
 70
     1
102
RTVSPropertyOp33
 70
     1
102
RTVSPropertyOp34
 70
     1
102
RTVSPropertyOp35
 70
     1
102
RTVSPropertyOp36
 70
     1
102
RTVSPropertyOp37
 70
     1
102
RTVSPropertyOp38
 70
     1
102
RTVSPropertyOp39
 70
     1
102
RTVSPropertyOp40
 70
     1
102
RTVSPropertyOp41
 70
     1
102
RTVSPropertyOp42
 70
     1
102
RTVSPropertyOp43
 70
     1
102
RTVSPropertyOp44
 70
     1
102
RTVSPropertyOp45
 70
     1
102
RTVSPropertyOp46
 70
     1
102
RTVSPropertyOp47
 70
     1
102
RTVSPropertyOp48
 70
     1
102
RTVSPropertyOp49
 70
     1
102
RTVSPropertyOp50
 70
     1
102
RTVSPropertyOp51
 70
     0
102
RTVSPropertyOp52
 70
     0
102
RTVSPropertyOp53
 70
     1
102
RTVSPropertyOp54
 70
     1
102
RTVSPropertyOp55
 70
     1
102
RTVSPropertyOp56
 70
     1
102
RTVSPropertyOp57
 70
     1
102
RTVSPost2010Prop28
280
     1
102
RTVSPost2010PropOp28
 70
     1
102
RTVSPost2010Prop29
280
     1
102
RTVSPost2010PropOp29
 70
     1
102
RTVSPost2010Prop30
280
     0
102
RTVSPost2010PropOp30
 70
     1
102
RTVSPost2010Prop31
280
     0
102
RTVSPost2010PropOp31
 70
     1
102
RTVSPost2010Prop32
280
     0
102
RTVSPost2010PropOp32
 70
     1
102
RTVSPost2010Prop33
280
     0
102
RTVSPost2010PropOp33
 70
     1
102
RTVSPost2010Prop34
280
     0
102
RTVSPost2010PropOp34
 70
     1
102
RTVSPost2010Prop35
280
     0
102
RTVSPost2010PropOp35
 70
     1
102
RTVSPost2010Prop36
280
     0
102
RTVSPost2010PropOp36
 70
     1
102
RTVSPost2010Prop37
 90
       50
102
RTVSPost2010PropOp37
 70
     1
102
RTVSPost2010Prop38
140
0.0
102
RTVSPost2010PropOp38
 70
     1
102
RTVSPost2010Prop39
140
1.0
102
RTVSPost2010PropOp39
 70
     1
102
RTVSPost2010Prop40
 90
        0
102
RTVSPost2010PropOp40
 70
     1
102
RTVSPost2010Prop41ColorIndex
 90
       18
102
RTVSPost2010Prop41ColorRGB
 90
        0
102
RTVSPost2010PropOp41
 70
     1
102
RTVSPost2010Prop42
 90
       50
102
RTVSPost2010PropOp42
 70
     1
102
RTVSPost2010Prop43
 90
        3
102
RTVSPost2010PropOp43
 70
     1
102
RTVSPost2010Prop44ColorIndex
 90
        5
102
RTVSPost2010Prop44ColorRGB
 90
      255
102
RTVSPost2010PropOp44
 70
     1
102
RTVSPost2010Prop45
280
     0
102
RTVSPost2010PropOp45
 70
     1
102
RTVSPost2010Prop46
 90
       50
102
RTVSPost2010PropOp46
 70
     1
102
RTVSPost2010Prop47
 90
       50
102
RTVSPost2010PropOp47
 70
     1
102
RTVSPost2010Prop48
 90
       50
102
RTVSPost2010PropOp48
 70
     1
102
RTVSPost2010Prop49
280
     0
102
RTVSPost2010PropOp49
 70
     1
102
RTVSPost2010Prop50
 90
       50
102
RTVSPost2010PropOp50
 70
     1
102
RTVSPost2010Prop51ColorIndex
 90
      256
102
RTVSPost2010Prop51ColorRGB
 90
-16777216
102
RTVSPost2010PropOp51
 70
     0
102
RTVSPost2010Prop52
140
1.0
102
RTVSPost2010PropOp52
 70
     0
102
RTVSPost2010Prop53
 90
        2
102
RTVSPost2010PropOp53
 70
     1
102
RTVSPost2010Prop54
  1
strokes_ogs.tif
102
RTVSPost2010PropOp54
 70
     1
102
RTVSPost2010Prop55
280
     0
102
RTVSPost2010PropOp55
 70
     1
102
RTVSPost2010Prop56
140
1.0
102
RTVSPost2010PropOp56
 70
     1
102
RTVSPost2010Prop57
140
1.0
102
RTVSPost2010PropOp57
 70
     1
  0
XRECORD
  5
130
102
{ACAD_REACTORS
330
12F
102
}
330
12F
100
AcDbXrecord
280
     1
102
RTVSPropertyOp0
 70
     1
102
RTVSPropertyOp1
 70
     1
102
RTVSPropertyOp2
 70
     1
102
RTVSPropertyOp3
 70
     1
102
RTVSPropertyOp4
 70
     1
102
RTVSPropertyOp5
 70
     1
102
RTVSPropertyOp6
 70
     1
102
RTVSPropertyOp7
 70
     1
102
RTVSPropertyOp8
 70
     1
102
RTVSPropertyOp9
 70
     1
102
RTVSPropertyOp10
 70
     1
102
RTVSPropertyOp11
 70
     1
102
RTVSPropertyOp12
 70
     1
102
RTVSPropertyOp13
 70
     1
102
RTVSPropertyOp14
 70
     1
102
RTVSPropertyOp15
 70
     1
102
RTVSPropertyOp16
 70
     1
102
RTVSPropertyOp17
 70
     1
102
RTVSPropertyOp18
 70
     1
102
RTVSPropertyOp19
 70
     1
102
RTVSPropertyOp20
 70
     1
102
RTVSPropertyOp21
 70
     1
102
RTVSPropertyOp22
 70
     1
102
RTVSPropertyOp23
 70
     1
102
RTVSPropertyOp24
 70
     1
102
RTVSPropertyOp25
 70
     1
102
RTVSPropertyOp26
 70
     1
102
RTVSPropertyOp27
 70
     1
102
RTVSPropertyOp28
 70
     1
102
RTVSPropertyOp29
 70
     1
102
RTVSPropertyOp30
 70
     1
102
RTVSPropertyOp31
 70
     1
102
RTVSPropertyOp32
 70
     1
102
RTVSPropertyOp33
 70
     1
102
RTVSPropertyOp34
 70
     1
102
RTVSPropertyOp35
 70
     1
102
RTVSPropertyOp36
 70
     1
102
RTVSPropertyOp37
 70
     1
102
RTVSPropertyOp38
 70
     1
102
RTVSPropertyOp39
 70
     1
102
RTVSPropertyOp40
 70
     1
102
RTVSPropertyOp41
 70
     1
102
RTVSPropertyOp42
 70
     1
102
RTVSPropertyOp43
 70
     1
102
RTVSPropertyOp44
 70
     1
102
RTVSPropertyOp45
 70
     1
102
RTVSPropertyOp46
 70
     1
102
RTVSPropertyOp47
 70
     1
102
RTVSPropertyOp48
 70
     1
102
RTVSPropertyOp49
 70
     1
102
RTVSPropertyOp50
 70
     1
102
RTVSPropertyOp51
 70
     0
102
RTVSPropertyOp52
 70
     0
102
RTVSPropertyOp53
 70
     1
102
RTVSPropertyOp54
 70
     1
102
RTVSPropertyOp55
 70
     1
102
RTVSPropertyOp56
 70
     1
102
RTVSPropertyOp57
 70
     1
102
RTVSPost2010Prop28
280
     0
102
RTVSPost2010PropOp28
 70
     1
102
RTVSPost2010Prop29
280
     1
102
RTVSPost2010PropOp29
 70
     1
102
RTVSPost2010Prop30
280
     1
102
RTVSPost2010PropOp30
 70
     1
102
RTVSPost2010Prop31
280
     0
102
RTVSPost2010PropOp31
 70
     1
102
RTVSPost2010Prop32
280
     0
102
RTVSPost2010PropOp32
 70
     1
102
RTVSPost2010Prop33
280
     0
102
RTVSPost2010PropOp33
 70
     1
102
RTVSPost2010Prop34
280
     0
102
RTVSPost2010PropOp34
 70
     1
102
RTVSPost2010Prop35
280
     0
102
RTVSPost2010PropOp35
 70
     1
102
RTVSPost2010Prop36
280
     0
102
RTVSPost2010PropOp36
 70
     1
102
RTVSPost2010Prop37
 90
       50
102
RTVSPost2010PropOp37
 70
     1
102
RTVSPost2010Prop38
140
0.0
102
RTVSPost2010PropOp38
 70
     1
102
RTVSPost2010Prop39
140
1.0
102
RTVSPost2010PropOp39
 70
     1
102
RTVSPost2010Prop40
 90
        0
102
RTVSPost2010PropOp40
 70
     1
102
RTVSPost2010Prop41ColorIndex
 90
       18
102
RTVSPost2010Prop41ColorRGB
 90
        0
102
RTVSPost2010PropOp41
 70
     1
102
RTVSPost2010Prop42
 90
       50
102
RTVSPost2010PropOp42
 70
     1
102
RTVSPost2010Prop43
 90
        3
102
RTVSPost2010PropOp43
 70
     1
102
RTVSPost2010Prop44ColorIndex
 90
        5
102
RTVSPost2010Prop44ColorRGB
 90
      255
102
RTVSPost2010PropOp44
 70
     1
102
RTVSPost2010Prop45
280
     0
102
RTVSPost2010PropOp45
 70
     1
102
RTVSPost2010Prop46
 90
       50
102
RTVSPost2010PropOp46
 70
     1
102
RTVSPost2010Prop47
 90
       50
102
RTVSPost2010PropOp47
 70
     1
102
RTVSPost2010Prop48
 90
       50
102
RTVSPost2010PropOp48
 70
     1
102
RTVSPost2010Prop49
280
     0
102
RTVSPost2010PropOp49
 70
     1
102
RTVSPost2010Prop50
 90
       50
102
RTVSPost2010PropOp50
 70
     1
102
RTVSPost2010Prop51ColorIndex
 90
      256
102
RTVSPost2010Prop51ColorRGB
 90
-16777216
102
RTVSPost2010PropOp51
 70
     0
102
RTVSPost2010Prop52
140
1.0
102
RTVSPost2010PropOp52
 70
     0
102
RTVSPost2010Prop53
 90
        2
102
RTVSPost2010PropOp53
 70
     1
102
RTVSPost2010Prop54
  1
strokes_ogs.tif
102
RTVSPost2010PropOp54
 70
     1
102
RTVSPost2010Prop55
280
     0
102
RTVSPost2010PropOp55
 70
     1
102
RTVSPost2010Prop56
140
1.0
102
RTVSPost2010PropOp56
 70
     1
102
RTVSPost2010Prop57
140
1.0
102
RTVSPost2010PropOp57
 70
     1
  0
XRECORD
  5
12E
102
{ACAD_REACTORS
330
12D
102
}
330
12D
100
AcDbXrecord
280
     1
102
RTVSPropertyOp0
 70
     1
102
RTVSPropertyOp1
 70
     1
102
RTVSPropertyOp2
 70
     1
102
RTVSPropertyOp3
 70
     1
102
RTVSPropertyOp4
 70
     1
102
RTVSPropertyOp5
 70
     1
102
RTVSPropertyOp6
 70
     1
102
RTVSPropertyOp7
 70
     1
102
RTVSPropertyOp8
 70
     1
102
RTVSPropertyOp9
 70
     1
102
RTVSPropertyOp10
 70
     1
102
RTVSPropertyOp11
 70
     1
102
RTVSPropertyOp12
 70
     1
102
RTVSPropertyOp13
 70
     1
102
RTVSPropertyOp14
 70
     1
102
RTVSPropertyOp15
 70
     1
102
RTVSPropertyOp16
 70
     1
102
RTVSPropertyOp17
 70
     1
102
RTVSPropertyOp18
 70
     1
102
RTVSPropertyOp19
 70
     1
102
RTVSPropertyOp20
 70
     1
102
RTVSPropertyOp21
 70
     1
102
RTVSPropertyOp22
 70
     1
102
RTVSPropertyOp23
 70
     1
102
RTVSPropertyOp24
 70
     1
102
RTVSPropertyOp25
 70
     1
102
RTVSPropertyOp26
 70
     1
102
RTVSPropertyOp27
 70
     1
102
RTVSPropertyOp28
 70
     1
102
RTVSPropertyOp29
 70
     1
102
RTVSPropertyOp30
 70
     1
102
RTVSPropertyOp31
 70
     1
102
RTVSPropertyOp32
 70
     1
102
RTVSPropertyOp33
 70
     1
102
RTVSPropertyOp34
 70
     1
102
RTVSPropertyOp35
 70
     1
102
RTVSPropertyOp36
 70
     1
102
RTVSPropertyOp37
 70
     1
102
RTVSPropertyOp38
 70
     1
102
RTVSPropertyOp39
 70
     1
102
RTVSPropertyOp40
 70
     1
102
RTVSPropertyOp41
 70
     1
102
RTVSPropertyOp42
 70
     1
102
RTVSPropertyOp43
 70
     1
102
RTVSPropertyOp44
 70
     1
102
RTVSPropertyOp45
 70
     1
102
RTVSPropertyOp46
 70
     1
102
RTVSPropertyOp47
 70
     1
102
RTVSPropertyOp48
 70
     1
102
RTVSPropertyOp49
 70
     1
102
RTVSPropertyOp50
 70
     1
102
RTVSPropertyOp51
 70
     0
102
RTVSPropertyOp52
 70
     0
102
RTVSPropertyOp53
 70
     1
102
RTVSPropertyOp54
 70
     1
102
RTVSPropertyOp55
 70
     1
102
RTVSPropertyOp56
 70
     1
102
RTVSPropertyOp57
 70
     1
102
RTVSPost2010Prop28
280
     0
102
RTVSPost2010PropOp28
 70
     1
102
RTVSPost2010Prop29
280
     1
102
RTVSPost2010PropOp29
 70
     1
102
RTVSPost2010Prop30
280
     1
102
RTVSPost2010PropOp30
 70
     1
102
RTVSPost2010Prop31
280
     0
102
RTVSPost2010PropOp31
 70
     1
102
RTVSPost2010Prop32
280
     0
102
RTVSPost2010PropOp32
 70
     1
102
RTVSPost2010Prop33
280
     0
102
RTVSPost2010PropOp33
 70
     1
102
RTVSPost2010Prop34
280
     0
102
RTVSPost2010PropOp34
 70
     1
102
RTVSPost2010Prop35
280
     0
102
RTVSPost2010PropOp35
 70
     1
102
RTVSPost2010Prop36
280
     0
102
RTVSPost2010PropOp36
 70
     1
102
RTVSPost2010Prop37
 90
       50
102
RTVSPost2010PropOp37
 70
     1
102
RTVSPost2010Prop38
140
0.0
102
RTVSPost2010PropOp38
 70
     1
102
RTVSPost2010Prop39
140
1.0
102
RTVSPost2010PropOp39
 70
     1
102
RTVSPost2010Prop40
 90
        0
102
RTVSPost2010PropOp40
 70
     1
102
RTVSPost2010Prop41ColorIndex
 90
       18
102
RTVSPost2010Prop41ColorRGB
 90
        0
102
RTVSPost2010PropOp41
 70
     1
102
RTVSPost2010Prop42
 90
       50
102
RTVSPost2010PropOp42
 70
     1
102
RTVSPost2010Prop43
 90
        3
102
RTVSPost2010PropOp43
 70
     1
102
RTVSPost2010Prop44ColorIndex
 90
        5
102
RTVSPost2010Prop44ColorRGB
 90
      255
102
RTVSPost2010PropOp44
 70
     1
102
RTVSPost2010Prop45
280
     0
102
RTVSPost2010PropOp45
 70
     1
102
RTVSPost2010Prop46
 90
       50
102
RTVSPost2010PropOp46
 70
     1
102
RTVSPost2010Prop47
 90
       50
102
RTVSPost2010PropOp47
 70
     1
102
RTVSPost2010Prop48
 90
       50
102
RTVSPost2010PropOp48
 70
     1
102
RTVSPost2010Prop49
280
     0
102
RTVSPost2010PropOp49
 70
     1
102
RTVSPost2010Prop50
 90
       50
102
RTVSPost2010PropOp50
 70
     1
102
RTVSPost2010Prop51ColorIndex
 90
      256
102
RTVSPost2010Prop51ColorRGB
 90
-16777216
102
RTVSPost2010PropOp51
 70
     0
102
RTVSPost2010Prop52
140
1.0
102
RTVSPost2010PropOp52
 70
     0
102
RTVSPost2010Prop53
 90
        2
102
RTVSPost2010PropOp53
 70
     1
102
RTVSPost2010Prop54
  1
strokes_ogs.tif
102
RTVSPost2010PropOp54
 70
     1
102
RTVSPost2010Prop55
280
     0
102
RTVSPost2010PropOp55
 70
     1
102
RTVSPost2010Prop56
140
1.0
102
RTVSPost2010PropOp56
 70
     1
102
RTVSPost2010Prop57
140
1.0
102
RTVSPost2010PropOp57
 70
     1
  0
XRECORD
  5
132
102
{ACAD_REACTORS
330
131
102
}
330
131
100
AcDbXrecord
280
     1
102
RTVSPropertyOp0
 70
     1
102
RTVSPropertyOp1
 70
     1
102
RTVSPropertyOp2
 70
     1
102
RTVSPropertyOp3
 70
     1
102
RTVSPropertyOp4
 70
     1
102
RTVSPropertyOp5
 70
     1
102
RTVSPropertyOp6
 70
     1
102
RTVSPropertyOp7
 70
     1
102
RTVSPropertyOp8
 70
     1
102
RTVSPropertyOp9
 70
     1
102
RTVSPropertyOp10
 70
     1
102
RTVSPropertyOp11
 70
     1
102
RTVSPropertyOp12
 70
     1
102
RTVSPropertyOp13
 70
     1
102
RTVSPropertyOp14
 70
     1
102
RTVSPropertyOp15
 70
     1
102
RTVSPropertyOp16
 70
     1
102
RTVSPropertyOp17
 70
     1
102
RTVSPropertyOp18
 70
     1
102
RTVSPropertyOp19
 70
     1
102
RTVSPropertyOp20
 70
     1
102
RTVSPropertyOp21
 70
     1
102
RTVSPropertyOp22
 70
     1
102
RTVSPropertyOp23
 70
     1
102
RTVSPropertyOp24
 70
     1
102
RTVSPropertyOp25
 70
     1
102
RTVSPropertyOp26
 70
     1
102
RTVSPropertyOp27
 70
     1
102
RTVSPropertyOp28
 70
     1
102
RTVSPropertyOp29
 70
     1
102
RTVSPropertyOp30
 70
     1
102
RTVSPropertyOp31
 70
     1
102
RTVSPropertyOp32
 70
     1
102
RTVSPropertyOp33
 70
     1
102
RTVSPropertyOp34
 70
     1
102
RTVSPropertyOp35
 70
     1
102
RTVSPropertyOp36
 70
     1
102
RTVSPropertyOp37
 70
     1
102
RTVSPropertyOp38
 70
     1
102
RTVSPropertyOp39
 70
     1
102
RTVSPropertyOp40
 70
     1
102
RTVSPropertyOp41
 70
     1
102
RTVSPropertyOp42
 70
     1
102
RTVSPropertyOp43
 70
     1
102
RTVSPropertyOp44
 70
     1
102
RTVSPropertyOp45
 70
     1
102
RTVSPropertyOp46
 70
     1
102
RTVSPropertyOp47
 70
     1
102
RTVSPropertyOp48
 70
     1
102
RTVSPropertyOp49
 70
     1
102
RTVSPropertyOp50
 70
     1
102
RTVSPropertyOp51
 70
     0
102
RTVSPropertyOp52
 70
     0
102
RTVSPropertyOp53
 70
     1
102
RTVSPropertyOp54
 70
     1
102
RTVSPropertyOp55
 70
     1
102
RTVSPropertyOp56
 70
     1
102
RTVSPropertyOp57
 70
     1
102
RTVSPost2010Prop28
280
     0
102
RTVSPost2010PropOp28
 70
     1
102
RTVSPost2010Prop29
280
     1
102
RTVSPost2010PropOp29
 70
     1
102
RTVSPost2010Prop30
280
     1
102
RTVSPost2010PropOp30
 70
     1
102
RTVSPost2010Prop31
280
     0
102
RTVSPost2010PropOp31
 70
     1
102
RTVSPost2010Prop32
280
     0
102
RTVSPost2010PropOp32
 70
     1
102
RTVSPost2010Prop33
280
     0
102
RTVSPost2010PropOp33
 70
     1
102
RTVSPost2010Prop34
280
     0
102
RTVSPost2010PropOp34
 70
     1
102
RTVSPost2010Prop35
280
     0
102
RTVSPost2010PropOp35
 70
     1
102
RTVSPost2010Prop36
280
     0
102
RTVSPost2010PropOp36
 70
     1
102
RTVSPost2010Prop37
 90
       50
102
RTVSPost2010PropOp37
 70
     1
102
RTVSPost2010Prop38
140
0.0
102
RTVSPost2010PropOp38
 70
     1
102
RTVSPost2010Prop39
140
1.0
102
RTVSPost2010PropOp39
 70
     1
102
RTVSPost2010Prop40
 90
        0
102
RTVSPost2010PropOp40
 70
     1
102
RTVSPost2010Prop41ColorIndex
 90
       18
102
RTVSPost2010Prop41ColorRGB
 90
        0
102
RTVSPost2010PropOp41
 70
     1
102
RTVSPost2010Prop42
 90
       50
102
RTVSPost2010PropOp42
 70
     1
102
RTVSPost2010Prop43
 90
        3
102
RTVSPost2010PropOp43
 70
     1
102
RTVSPost2010Prop44ColorIndex
 90
        5
102
RTVSPost2010Prop44ColorRGB
 90
      255
102
RTVSPost2010PropOp44
 70
     1
102
RTVSPost2010Prop45
280
     0
102
RTVSPost2010PropOp45
 70
     1
102
RTVSPost2010Prop46
 90
       50
102
RTVSPost2010PropOp46
 70
     1
102
RTVSPost2010Prop47
 90
       50
102
RTVSPost2010PropOp47
 70
     1
102
RTVSPost2010Prop48
 90
       50
102
RTVSPost2010PropOp48
 70
     1
102
RTVSPost2010Prop49
280
     0
102
RTVSPost2010PropOp49
 70
     1
102
RTVSPost2010Prop50
 90
       50
102
RTVSPost2010PropOp50
 70
     1
102
RTVSPost2010Prop51ColorIndex
 90
      256
102
RTVSPost2010Prop51ColorRGB
 90
-16777216
102
RTVSPost2010PropOp51
 70
     0
102
RTVSPost2010Prop52
140
1.0
102
RTVSPost2010PropOp52
 70
     0
102
RTVSPost2010Prop53
 90
        2
102
RTVSPost2010PropOp53
 70
     1
102
RTVSPost2010Prop54
  1
strokes_ogs.tif
102
RTVSPost2010PropOp54
 70
     1
102
RTVSPost2010Prop55
280
     0
102
RTVSPost2010PropOp55
 70
     1
102
RTVSPost2010Prop56
140
1.0
102
RTVSPost2010PropOp56
 70
     1
102
RTVSPost2010Prop57
140
1.0
102
RTVSPost2010PropOp57
 70
     1
  0
XRECORD
  5
13A
102
{ACAD_REACTORS
330
139
102
}
330
139
100
AcDbXrecord
280
     1
102
RTVSPropertyOp0
 70
     1
102
RTVSPropertyOp1
 70
     1
102
RTVSPropertyOp2
 70
     1
102
RTVSPropertyOp3
 70
     1
102
RTVSPropertyOp4
 70
     1
102
RTVSPropertyOp5
 70
     1
102
RTVSPropertyOp6
 70
     1
102
RTVSPropertyOp7
 70
     1
102
RTVSPropertyOp8
 70
     1
102
RTVSPropertyOp9
 70
     1
102
RTVSPropertyOp10
 70
     1
102
RTVSPropertyOp11
 70
     1
102
RTVSPropertyOp12
 70
     1
102
RTVSPropertyOp13
 70
     1
102
RTVSPropertyOp14
 70
     1
102
RTVSPropertyOp15
 70
     1
102
RTVSPropertyOp16
 70
     1
102
RTVSPropertyOp17
 70
     1
102
RTVSPropertyOp18
 70
     1
102
RTVSPropertyOp19
 70
     1
102
RTVSPropertyOp20
 70
     1
102
RTVSPropertyOp21
 70
     1
102
RTVSPropertyOp22
 70
     1
102
RTVSPropertyOp23
 70
     1
102
RTVSPropertyOp24
 70
     1
102
RTVSPropertyOp25
 70
     1
102
RTVSPropertyOp26
 70
     1
102
RTVSPropertyOp27
 70
     1
102
RTVSPropertyOp28
 70
     1
102
RTVSPropertyOp29
 70
     1
102
RTVSPropertyOp30
 70
     1
102
RTVSPropertyOp31
 70
     1
102
RTVSPropertyOp32
 70
     1
102
RTVSPropertyOp33
 70
     1
102
RTVSPropertyOp34
 70
     1
102
RTVSPropertyOp35
 70
     1
102
RTVSPropertyOp36
 70
     1
102
RTVSPropertyOp37
 70
     1
102
RTVSPropertyOp38
 70
     1
102
RTVSPropertyOp39
 70
     1
102
RTVSPropertyOp40
 70
     1
102
RTVSPropertyOp41
 70
     1
102
RTVSPropertyOp42
 70
     1
102
RTVSPropertyOp43
 70
     1
102
RTVSPropertyOp44
 70
     1
102
RTVSPropertyOp45
 70
     1
102
RTVSPropertyOp46
 70
     1
102
RTVSPropertyOp47
 70
     1
102
RTVSPropertyOp48
 70
     1
102
RTVSPropertyOp49
 70
     1
102
RTVSPropertyOp50
 70
     1
102
RTVSPropertyOp51
 70
     0
102
RTVSPropertyOp52
 70
     0
102
RTVSPropertyOp53
 70
     1
102
RTVSPropertyOp54
 70
     1
102
RTVSPropertyOp55
 70
     1
102
RTVSPropertyOp56
 70
     1
102
RTVSPropertyOp57
 70
     1
102
RTVSPost2010Prop28
280
     0
102
RTVSPost2010PropOp28
 70
     1
102
RTVSPost2010Prop29
280
     1
102
RTVSPost2010PropOp29
 70
     1
102
RTVSPost2010Prop30
280
     1
102
RTVSPost2010PropOp30
 70
     1
102
RTVSPost2010Prop31
280
     0
102
RTVSPost2010PropOp31
 70
     1
102
RTVSPost2010Prop32
280
     0
102
RTVSPost2010PropOp32
 70
     1
102
RTVSPost2010Prop33
280
     0
102
RTVSPost2010PropOp33
 70
     1
102
RTVSPost2010Prop34
280
     0
102
RTVSPost2010PropOp34
 70
     1
102
RTVSPost2010Prop35
280
     0
102
RTVSPost2010PropOp35
 70
     1
102
RTVSPost2010Prop36
280
     0
102
RTVSPost2010PropOp36
 70
     1
102
RTVSPost2010Prop37
 90
       50
102
RTVSPost2010PropOp37
 70
     1
102
RTVSPost2010Prop38
140
0.0
102
RTVSPost2010PropOp38
 70
     1
102
RTVSPost2010Prop39
140
1.0
102
RTVSPost2010PropOp39
 70
     1
102
RTVSPost2010Prop40
 90
        0
102
RTVSPost2010PropOp40
 70
     1
102
RTVSPost2010Prop41ColorIndex
 90
       18
102
RTVSPost2010Prop41ColorRGB
 90
        0
102
RTVSPost2010PropOp41
 70
     1
102
RTVSPost2010Prop42
 90
       50
102
RTVSPost2010PropOp42
 70
     1
102
RTVSPost2010Prop43
 90
        3
102
RTVSPost2010PropOp43
 70
     1
102
RTVSPost2010Prop44ColorIndex
 90
        5
102
RTVSPost2010Prop44ColorRGB
 90
      255
102
RTVSPost2010PropOp44
 70
     1
102
RTVSPost2010Prop45
280
     0
102
RTVSPost2010PropOp45
 70
     1
102
RTVSPost2010Prop46
 90
       50
102
RTVSPost2010PropOp46
 70
     1
102
RTVSPost2010Prop47
 90
       50
102
RTVSPost2010PropOp47
 70
     1
102
RTVSPost2010Prop48
 90
       50
102
RTVSPost2010PropOp48
 70
     1
102
RTVSPost2010Prop49
280
     0
102
RTVSPost2010PropOp49
 70
     1
102
RTVSPost2010Prop50
 90
       50
102
RTVSPost2010PropOp50
 70
     1
102
RTVSPost2010Prop51ColorIndex
 90
      256
102
RTVSPost2010Prop51ColorRGB
 90
-16777216
102
RTVSPost2010PropOp51
 70
     0
102
RTVSPost2010Prop52
140
1.0
102
RTVSPost2010PropOp52
 70
     0
102
RTVSPost2010Prop53
 90
        2
102
RTVSPost2010PropOp53
 70
     1
102
RTVSPost2010Prop54
  1
strokes_ogs.tif
102
RTVSPost2010PropOp54
 70
     1
102
RTVSPost2010Prop55
280
     0
102
RTVSPost2010PropOp55
 70
     1
102
RTVSPost2010Prop56
140
1.0
102
RTVSPost2010PropOp56
 70
     1
102
RTVSPost2010Prop57
140
1.0
102
RTVSPost2010PropOp57
 70
     1
  0
XRECORD
  5
142
102
{ACAD_REACTORS
330
141
102
}
330
141
100
AcDbXrecord
280
     1
102
RTVSPropertyOp0
 70
     1
102
RTVSPropertyOp1
 70
     1
102
RTVSPropertyOp2
 70
     1
102
RTVSPropertyOp3
 70
     1
102
RTVSPropertyOp4
 70
     1
102
RTVSPropertyOp5
 70
     1
102
RTVSPropertyOp6
 70
     1
102
RTVSPropertyOp7
 70
     1
102
RTVSPropertyOp8
 70
     1
102
RTVSPropertyOp9
 70
     1
102
RTVSPropertyOp10
 70
     1
102
RTVSPropertyOp11
 70
     1
102
RTVSPropertyOp12
 70
     1
102
RTVSPropertyOp13
 70
     1
102
RTVSPropertyOp14
 70
     1
102
RTVSPropertyOp15
 70
     1
102
RTVSPropertyOp16
 70
     1
102
RTVSPropertyOp17
 70
     1
102
RTVSPropertyOp18
 70
     1
102
RTVSPropertyOp19
 70
     1
102
RTVSPropertyOp20
 70
     1
102
RTVSPropertyOp21
 70
     1
102
RTVSPropertyOp22
 70
     1
102
RTVSPropertyOp23
 70
     1
102
RTVSPropertyOp24
 70
     1
102
RTVSPropertyOp25
 70
     1
102
RTVSPropertyOp26
 70
     1
102
RTVSPropertyOp27
 70
     1
102
RTVSPropertyOp28
 70
     1
102
RTVSPropertyOp29
 70
     1
102
RTVSPropertyOp30
 70
     1
102
RTVSPropertyOp31
 70
     1
102
RTVSPropertyOp32
 70
     1
102
RTVSPropertyOp33
 70
     1
102
RTVSPropertyOp34
 70
     1
102
RTVSPropertyOp35
 70
     1
102
RTVSPropertyOp36
 70
     1
102
RTVSPropertyOp37
 70
     1
102
RTVSPropertyOp38
 70
     1
102
RTVSPropertyOp39
 70
     1
102
RTVSPropertyOp40
 70
     1
102
RTVSPropertyOp41
 70
     1
102
RTVSPropertyOp42
 70
     1
102
RTVSPropertyOp43
 70
     1
102
RTVSPropertyOp44
 70
     1
102
RTVSPropertyOp45
 70
     1
102
RTVSPropertyOp46
 70
     1
102
RTVSPropertyOp47
 70
     1
102
RTVSPropertyOp48
 70
     1
102
RTVSPropertyOp49
 70
     1
102
RTVSPropertyOp50
 70
     1
102
RTVSPropertyOp51
 70
     0
102
RTVSPropertyOp52
 70
     0
102
RTVSPropertyOp53
 70
     1
102
RTVSPropertyOp54
 70
     1
102
RTVSPropertyOp55
 70
     1
102
RTVSPropertyOp56
 70
     1
102
RTVSPropertyOp57
 70
     1
102
RTVSPost2010Prop28
280
     0
102
RTVSPost2010PropOp28
 70
     1
102
RTVSPost2010Prop29
280
     1
102
RTVSPost2010PropOp29
 70
     1
102
RTVSPost2010Prop30
280
     1
102
RTVSPost2010PropOp30
 70
     1
102
RTVSPost2010Prop31
280
     0
102
RTVSPost2010PropOp31
 70
     1
102
RTVSPost2010Prop32
280
     0
102
RTVSPost2010PropOp32
 70
     1
102
RTVSPost2010Prop33
280
     0
102
RTVSPost2010PropOp33
 70
     1
102
RTVSPost2010Prop34
280
     0
102
RTVSPost2010PropOp34
 70
     1
102
RTVSPost2010Prop35
280
     0
102
RTVSPost2010PropOp35
 70
     1
102
RTVSPost2010Prop36
280
     0
102
RTVSPost2010PropOp36
 70
     1
102
RTVSPost2010Prop37
 90
       50
102
RTVSPost2010PropOp37
 70
     1
102
RTVSPost2010Prop38
140
0.0
102
RTVSPost2010PropOp38
 70
     1
102
RTVSPost2010Prop39
140
1.0
102
RTVSPost2010PropOp39
 70
     1
102
RTVSPost2010Prop40
 90
        0
102
RTVSPost2010PropOp40
 70
     1
102
RTVSPost2010Prop41ColorIndex
 90
       18
102
RTVSPost2010Prop41ColorRGB
 90
        0
102
RTVSPost2010PropOp41
 70
     1
102
RTVSPost2010Prop42
 90
       50
102
RTVSPost2010PropOp42
 70
     1
102
RTVSPost2010Prop43
 90
        3
102
RTVSPost2010PropOp43
 70
     1
102
RTVSPost2010Prop44ColorIndex
 90
        5
102
RTVSPost2010Prop44ColorRGB
 90
      255
102
RTVSPost2010PropOp44
 70
     1
102
RTVSPost2010Prop45
280
     0
102
RTVSPost2010PropOp45
 70
     1
102
RTVSPost2010Prop46
 90
       50
102
RTVSPost2010PropOp46
 70
     1
102
RTVSPost2010Prop47
 90
       50
102
RTVSPost2010PropOp47
 70
     1
102
RTVSPost2010Prop48
 90
       50
102
RTVSPost2010PropOp48
 70
     1
102
RTVSPost2010Prop49
280
     0
102
RTVSPost2010PropOp49
 70
     1
102
RTVSPost2010Prop50
 90
       50
102
RTVSPost2010PropOp50
 70
     1
102
RTVSPost2010Prop51ColorIndex
 90
      256
102
RTVSPost2010Prop51ColorRGB
 90
-16777216
102
RTVSPost2010PropOp51
 70
     0
102
RTVSPost2010Prop52
140
1.0
102
RTVSPost2010PropOp52
 70
     0
102
RTVSPost2010Prop53
 90
        2
102
RTVSPost2010PropOp53
 70
     1
102
RTVSPost2010Prop54
  1
strokes_ogs.tif
102
RTVSPost2010PropOp54
 70
     1
102
RTVSPost2010Prop55
280
     0
102
RTVSPost2010PropOp55
 70
     1
102
RTVSPost2010Prop56
140
1.0
102
RTVSPost2010PropOp56
 70
     1
102
RTVSPost2010Prop57
140
1.0
102
RTVSPost2010PropOp57
 70
     1
  0
XRECORD
  5
136
102
{ACAD_REACTORS
330
135
102
}
330
135
100
AcDbXrecord
280
     1
102
RTVSPropertyOp0
 70
     1
102
RTVSPropertyOp1
 70
     1
102
RTVSPropertyOp2
 70
     1
102
RTVSPropertyOp3
 70
     1
102
RTVSPropertyOp4
 70
     1
102
RTVSPropertyOp5
 70
     1
102
RTVSPropertyOp6
 70
     1
102
RTVSPropertyOp7
 70
     1
102
RTVSPropertyOp8
 70
     1
102
RTVSPropertyOp9
 70
     1
102
RTVSPropertyOp10
 70
     1
102
RTVSPropertyOp11
 70
     1
102
RTVSPropertyOp12
 70
     1
102
RTVSPropertyOp13
 70
     1
102
RTVSPropertyOp14
 70
     1
102
RTVSPropertyOp15
 70
     1
102
RTVSPropertyOp16
 70
     1
102
RTVSPropertyOp17
 70
     1
102
RTVSPropertyOp18
 70
     1
102
RTVSPropertyOp19
 70
     1
102
RTVSPropertyOp20
 70
     1
102
RTVSPropertyOp21
 70
     1
102
RTVSPropertyOp22
 70
     1
102
RTVSPropertyOp23
 70
     1
102
RTVSPropertyOp24
 70
     1
102
RTVSPropertyOp25
 70
     1
102
RTVSPropertyOp26
 70
     1
102
RTVSPropertyOp27
 70
     1
102
RTVSPropertyOp28
 70
     1
102
RTVSPropertyOp29
 70
     1
102
RTVSPropertyOp30
 70
     1
102
RTVSPropertyOp31
 70
     1
102
RTVSPropertyOp32
 70
     1
102
RTVSPropertyOp33
 70
     1
102
RTVSPropertyOp34
 70
     1
102
RTVSPropertyOp35
 70
     1
102
RTVSPropertyOp36
 70
     1
102
RTVSPropertyOp37
 70
     1
102
RTVSPropertyOp38
 70
     1
102
RTVSPropertyOp39
 70
     1
102
RTVSPropertyOp40
 70
     1
102
RTVSPropertyOp41
 70
     1
102
RTVSPropertyOp42
 70
     1
102
RTVSPropertyOp43
 70
     1
102
RTVSPropertyOp44
 70
     1
102
RTVSPropertyOp45
 70
     1
102
RTVSPropertyOp46
 70
     1
102
RTVSPropertyOp47
 70
     1
102
RTVSPropertyOp48
 70
     1
102
RTVSPropertyOp49
 70
     1
102
RTVSPropertyOp50
 70
     1
102
RTVSPropertyOp51
 70
     0
102
RTVSPropertyOp52
 70
     0
102
RTVSPropertyOp53
 70
     1
102
RTVSPropertyOp54
 70
     1
102
RTVSPropertyOp55
 70
     1
102
RTVSPropertyOp56
 70
     1
102
RTVSPropertyOp57
 70
     1
102
RTVSPost2010Prop28
280
     0
102
RTVSPost2010PropOp28
 70
     1
102
RTVSPost2010Prop29
280
     1
102
RTVSPost2010PropOp29
 70
     1
102
RTVSPost2010Prop30
280
     1
102
RTVSPost2010PropOp30
 70
     1
102
RTVSPost2010Prop31
280
     0
102
RTVSPost2010PropOp31
 70
     1
102
RTVSPost2010Prop32
280
     0
102
RTVSPost2010PropOp32
 70
     1
102
RTVSPost2010Prop33
280
     0
102
RTVSPost2010PropOp33
 70
     1
102
RTVSPost2010Prop34
280
     0
102
RTVSPost2010PropOp34
 70
     1
102
RTVSPost2010Prop35
280
     0
102
RTVSPost2010PropOp35
 70
     1
102
RTVSPost2010Prop36
280
     0
102
RTVSPost2010PropOp36
 70
     1
102
RTVSPost2010Prop37
 90
       50
102
RTVSPost2010PropOp37
 70
     1
102
RTVSPost2010Prop38
140
0.0
102
RTVSPost2010PropOp38
 70
     1
102
RTVSPost2010Prop39
140
1.0
102
RTVSPost2010PropOp39
 70
     1
102
RTVSPost2010Prop40
 90
        0
102
RTVSPost2010PropOp40
 70
     1
102
RTVSPost2010Prop41ColorIndex
 90
       18
102
RTVSPost2010Prop41ColorRGB
 90
        0
102
RTVSPost2010PropOp41
 70
     1
102
RTVSPost2010Prop42
 90
       50
102
RTVSPost2010PropOp42
 70
     1
102
RTVSPost2010Prop43
 90
        3
102
RTVSPost2010PropOp43
 70
     1
102
RTVSPost2010Prop44ColorIndex
 90
        5
102
RTVSPost2010Prop44ColorRGB
 90
      255
102
RTVSPost2010PropOp44
 70
     1
102
RTVSPost2010Prop45
280
     0
102
RTVSPost2010PropOp45
 70
     1
102
RTVSPost2010Prop46
 90
       50
102
RTVSPost2010PropOp46
 70
     1
102
RTVSPost2010Prop47
 90
       50
102
RTVSPost2010PropOp47
 70
     1
102
RTVSPost2010Prop48
 90
       50
102
RTVSPost2010PropOp48
 70
     1
102
RTVSPost2010Prop49
280
     0
102
RTVSPost2010PropOp49
 70
     1
102
RTVSPost2010Prop50
 90
       50
102
RTVSPost2010PropOp50
 70
     1
102
RTVSPost2010Prop51ColorIndex
 90
      256
102
RTVSPost2010Prop51ColorRGB
 90
-16777216
102
RTVSPost2010PropOp51
 70
     0
102
RTVSPost2010Prop52
140
1.0
102
RTVSPost2010PropOp52
 70
     0
102
RTVSPost2010Prop53
 90
        2
102
RTVSPost2010PropOp53
 70
     1
102
RTVSPost2010Prop54
  1
strokes_ogs.tif
102
RTVSPost2010PropOp54
 70
     1
102
RTVSPost2010Prop55
280
     0
102
RTVSPost2010PropOp55
 70
     1
102
RTVSPost2010Prop56
140
1.0
102
RTVSPost2010PropOp56
 70
     1
102
RTVSPost2010Prop57
140
1.0
102
RTVSPost2010PropOp57
 70
     1
  0
XRECORD
  5
138
102
{ACAD_REACTORS
330
137
102
}
330
137
100
AcDbXrecord
280
     1
102
RTVSPropertyOp0
 70
     1
102
RTVSPropertyOp1
 70
     1
102
RTVSPropertyOp2
 70
     1
102
RTVSPropertyOp3
 70
     1
102
RTVSPropertyOp4
 70
     1
102
RTVSPropertyOp5
 70
     1
102
RTVSPropertyOp6
 70
     1
102
RTVSPropertyOp7
 70
     1
102
RTVSPropertyOp8
 70
     1
102
RTVSPropertyOp9
 70
     1
102
RTVSPropertyOp10
 70
     1
102
RTVSPropertyOp11
 70
     1
102
RTVSPropertyOp12
 70
     1
102
RTVSPropertyOp13
 70
     1
102
RTVSPropertyOp14
 70
     1
102
RTVSPropertyOp15
 70
     1
102
RTVSPropertyOp16
 70
     1
102
RTVSPropertyOp17
 70
     1
102
RTVSPropertyOp18
 70
     1
102
RTVSPropertyOp19
 70
     1
102
RTVSPropertyOp20
 70
     1
102
RTVSPropertyOp21
 70
     1
102
RTVSPropertyOp22
 70
     1
102
RTVSPropertyOp23
 70
     1
102
RTVSPropertyOp24
 70
     1
102
RTVSPropertyOp25
 70
     1
102
RTVSPropertyOp26
 70
     1
102
RTVSPropertyOp27
 70
     1
102
RTVSPropertyOp28
 70
     1
102
RTVSPropertyOp29
 70
     1
102
RTVSPropertyOp30
 70
     1
102
RTVSPropertyOp31
 70
     1
102
RTVSPropertyOp32
 70
     1
102
RTVSPropertyOp33
 70
     1
102
RTVSPropertyOp34
 70
     1
102
RTVSPropertyOp35
 70
     1
102
RTVSPropertyOp36
 70
     1
102
RTVSPropertyOp37
 70
     1
102
RTVSPropertyOp38
 70
     1
102
RTVSPropertyOp39
 70
     1
102
RTVSPropertyOp40
 70
     1
102
RTVSPropertyOp41
 70
     1
102
RTVSPropertyOp42
 70
     1
102
RTVSPropertyOp43
 70
     1
102
RTVSPropertyOp44
 70
     1
102
RTVSPropertyOp45
 70
     1
102
RTVSPropertyOp46
 70
     1
102
RTVSPropertyOp47
 70
     1
102
RTVSPropertyOp48
 70
     1
102
RTVSPropertyOp49
 70
     1
102
RTVSPropertyOp50
 70
     1
102
RTVSPropertyOp51
 70
     0
102
RTVSPropertyOp52
 70
     0
102
RTVSPropertyOp53
 70
     1
102
RTVSPropertyOp54
 70
     1
102
RTVSPropertyOp55
 70
     1
102
RTVSPropertyOp56
 70
     1
102
RTVSPropertyOp57
 70
     1
102
RTVSPost2010Prop28
280
     0
102
RTVSPost2010PropOp28
 70
     1
102
RTVSPost2010Prop29
280
     1
102
RTVSPost2010PropOp29
 70
     1
102
RTVSPost2010Prop30
280
     1
102
RTVSPost2010PropOp30
 70
     1
102
RTVSPost2010Prop31
280
     0
102
RTVSPost2010PropOp31
 70
     1
102
RTVSPost2010Prop32
280
     0
102
RTVSPost2010PropOp32
 70
     1
102
RTVSPost2010Prop33
280
     0
102
RTVSPost2010PropOp33
 70
     1
102
RTVSPost2010Prop34
280
     0
102
RTVSPost2010PropOp34
 70
     1
102
RTVSPost2010Prop35
280
     0
102
RTVSPost2010PropOp35
 70
     1
102
RTVSPost2010Prop36
280
     0
102
RTVSPost2010PropOp36
 70
     1
102
RTVSPost2010Prop37
 90
       50
102
RTVSPost2010PropOp37
 70
     1
102
RTVSPost2010Prop38
140
0.0
102
RTVSPost2010PropOp38
 70
     1
102
RTVSPost2010Prop39
140
1.0
102
RTVSPost2010PropOp39
 70
     1
102
RTVSPost2010Prop40
 90
        0
102
RTVSPost2010PropOp40
 70
     1
102
RTVSPost2010Prop41ColorIndex
 90
       18
102
RTVSPost2010Prop41ColorRGB
 90
        0
102
RTVSPost2010PropOp41
 70
     1
102
RTVSPost2010Prop42
 90
       50
102
RTVSPost2010PropOp42
 70
     1
102
RTVSPost2010Prop43
 90
        3
102
RTVSPost2010PropOp43
 70
     1
102
RTVSPost2010Prop44ColorIndex
 90
        5
102
RTVSPost2010Prop44ColorRGB
 90
      255
102
RTVSPost2010PropOp44
 70
     1
102
RTVSPost2010Prop45
280
     0
102
RTVSPost2010PropOp45
 70
     1
102
RTVSPost2010Prop46
 90
       50
102
RTVSPost2010PropOp46
 70
     1
102
RTVSPost2010Prop47
 90
       50
102
RTVSPost2010PropOp47
 70
     1
102
RTVSPost2010Prop48
 90
       50
102
RTVSPost2010PropOp48
 70
     1
102
RTVSPost2010Prop49
280
     0
102
RTVSPost2010PropOp49
 70
     1
102
RTVSPost2010Prop50
 90
       50
102
RTVSPost2010PropOp50
 70
     1
102
RTVSPost2010Prop51ColorIndex
 90
      256
102
RTVSPost2010Prop51ColorRGB
 90
-16777216
102
RTVSPost2010PropOp51
 70
     0
102
RTVSPost2010Prop52
140
1.0
102
RTVSPost2010PropOp52
 70
     0
102
RTVSPost2010Prop53
 90
        2
102
RTVSPost2010PropOp53
 70
     1
102
RTVSPost2010Prop54
  1
strokes_ogs.tif
102
RTVSPost2010PropOp54
 70
     1
102
RTVSPost2010Prop55
280
     0
102
RTVSPost2010PropOp55
 70
     1
102
RTVSPost2010Prop56
140
1.0
102
RTVSPost2010PropOp56
 70
     1
102
RTVSPost2010Prop57
140
1.0
102
RTVSPost2010PropOp57
 70
     1
  0
XRECORD
  5
140
102
{ACAD_REACTORS
330
13F
102
}
330
13F
100
AcDbXrecord
280
     1
102
RTVSPropertyOp0
 70
     1
102
RTVSPropertyOp1
 70
     1
102
RTVSPropertyOp2
 70
     1
102
RTVSPropertyOp3
 70
     1
102
RTVSPropertyOp4
 70
     1
102
RTVSPropertyOp5
 70
     1
102
RTVSPropertyOp6
 70
     1
102
RTVSPropertyOp7
 70
     1
102
RTVSPropertyOp8
 70
     1
102
RTVSPropertyOp9
 70
     1
102
RTVSPropertyOp10
 70
     1
102
RTVSPropertyOp11
 70
     1
102
RTVSPropertyOp12
 70
     1
102
RTVSPropertyOp13
 70
     1
102
RTVSPropertyOp14
 70
     1
102
RTVSPropertyOp15
 70
     1
102
RTVSPropertyOp16
 70
     1
102
RTVSPropertyOp17
 70
     1
102
RTVSPropertyOp18
 70
     1
102
RTVSPropertyOp19
 70
     1
102
RTVSPropertyOp20
 70
     1
102
RTVSPropertyOp21
 70
     1
102
RTVSPropertyOp22
 70
     1
102
RTVSPropertyOp23
 70
     1
102
RTVSPropertyOp24
 70
     1
102
RTVSPropertyOp25
 70
     1
102
RTVSPropertyOp26
 70
     1
102
RTVSPropertyOp27
 70
     1
102
RTVSPropertyOp28
 70
     1
102
RTVSPropertyOp29
 70
     1
102
RTVSPropertyOp30
 70
     1
102
RTVSPropertyOp31
 70
     1
102
RTVSPropertyOp32
 70
     1
102
RTVSPropertyOp33
 70
     1
102
RTVSPropertyOp34
 70
     1
102
RTVSPropertyOp35
 70
     1
102
RTVSPropertyOp36
 70
     1
102
RTVSPropertyOp37
 70
     1
102
RTVSPropertyOp38
 70
     1
102
RTVSPropertyOp39
 70
     1
102
RTVSPropertyOp40
 70
     1
102
RTVSPropertyOp41
 70
     1
102
RTVSPropertyOp42
 70
     1
102
RTVSPropertyOp43
 70
     1
102
RTVSPropertyOp44
 70
     1
102
RTVSPropertyOp45
 70
     1
102
RTVSPropertyOp46
 70
     1
102
RTVSPropertyOp47
 70
     1
102
RTVSPropertyOp48
 70
     1
102
RTVSPropertyOp49
 70
     1
102
RTVSPropertyOp50
 70
     1
102
RTVSPropertyOp51
 70
     0
102
RTVSPropertyOp52
 70
     0
102
RTVSPropertyOp53
 70
     1
102
RTVSPropertyOp54
 70
     1
102
RTVSPropertyOp55
 70
     1
102
RTVSPropertyOp56
 70
     1
102
RTVSPropertyOp57
 70
     1
102
RTVSPost2010Prop28
280
     0
102
RTVSPost2010PropOp28
 70
     1
102
RTVSPost2010Prop29
280
     1
102
RTVSPost2010PropOp29
 70
     1
102
RTVSPost2010Prop30
280
     1
102
RTVSPost2010PropOp30
 70
     1
102
RTVSPost2010Prop31
280
     0
102
RTVSPost2010PropOp31
 70
     1
102
RTVSPost2010Prop32
280
     0
102
RTVSPost2010PropOp32
 70
     1
102
RTVSPost2010Prop33
280
     0
102
RTVSPost2010PropOp33
 70
     1
102
RTVSPost2010Prop34
280
     0
102
RTVSPost2010PropOp34
 70
     1
102
RTVSPost2010Prop35
280
     0
102
RTVSPost2010PropOp35
 70
     1
102
RTVSPost2010Prop36
280
     0
102
RTVSPost2010PropOp36
 70
     1
102
RTVSPost2010Prop37
 90
       50
102
RTVSPost2010PropOp37
 70
     1
102
RTVSPost2010Prop38
140
0.0
102
RTVSPost2010PropOp38
 70
     1
102
RTVSPost2010Prop39
140
1.0
102
RTVSPost2010PropOp39
 70
     1
102
RTVSPost2010Prop40
 90
        0
102
RTVSPost2010PropOp40
 70
     1
102
RTVSPost2010Prop41ColorIndex
 90
       18
102
RTVSPost2010Prop41ColorRGB
 90
        0
102
RTVSPost2010PropOp41
 70
     1
102
RTVSPost2010Prop42
 90
       50
102
RTVSPost2010PropOp42
 70
     1
102
RTVSPost2010Prop43
 90
        3
102
RTVSPost2010PropOp43
 70
     1
102
RTVSPost2010Prop44ColorIndex
 90
        5
102
RTVSPost2010Prop44ColorRGB
 90
      255
102
RTVSPost2010PropOp44
 70
     1
102
RTVSPost2010Prop45
280
     0
102
RTVSPost2010PropOp45
 70
     1
102
RTVSPost2010Prop46
 90
       50
102
RTVSPost2010PropOp46
 70
     1
102
RTVSPost2010Prop47
 90
       50
102
RTVSPost2010PropOp47
 70
     1
102
RTVSPost2010Prop48
 90
       50
102
RTVSPost2010PropOp48
 70
     1
102
RTVSPost2010Prop49
280
     0
102
RTVSPost2010PropOp49
 70
     1
102
RTVSPost2010Prop50
 90
       50
102
RTVSPost2010PropOp50
 70
     1
102
RTVSPost2010Prop51ColorIndex
 90
      256
102
RTVSPost2010Prop51ColorRGB
 90
-16777216
102
RTVSPost2010PropOp51
 70
     0
102
RTVSPost2010Prop52
140
1.0
102
RTVSPost2010PropOp52
 70
     0
102
RTVSPost2010Prop53
 90
        2
102
RTVSPost2010PropOp53
 70
     1
102
RTVSPost2010Prop54
  1
strokes_ogs.tif
102
RTVSPost2010PropOp54
 70
     1
102
RTVSPost2010Prop55
280
     0
102
RTVSPost2010PropOp55
 70
     1
102
RTVSPost2010Prop56
140
1.0
102
RTVSPost2010PropOp56
 70
     1
102
RTVSPost2010Prop57
140
1.0
102
RTVSPost2010PropOp57
 70
     1
  0
XRECORD
  5
124
102
{ACAD_REACTORS
330
123
102
}
330
123
100
AcDbXrecord
280
     1
102
RTVSPropertyOp0
 70
     1
102
RTVSPropertyOp1
 70
     1
102
RTVSPropertyOp2
 70
     1
102
RTVSPropertyOp3
 70
     1
102
RTVSPropertyOp4
 70
     1
102
RTVSPropertyOp5
 70
     1
102
RTVSPropertyOp6
 70
     1
102
RTVSPropertyOp7
 70
     1
102
RTVSPropertyOp8
 70
     1
102
RTVSPropertyOp9
 70
     1
102
RTVSPropertyOp10
 70
     1
102
RTVSPropertyOp11
 70
     1
102
RTVSPropertyOp12
 70
     1
102
RTVSPropertyOp13
 70
     1
102
RTVSPropertyOp14
 70
     1
102
RTVSPropertyOp15
 70
     1
102
RTVSPropertyOp16
 70
     1
102
RTVSPropertyOp17
 70
     1
102
RTVSPropertyOp18
 70
     1
102
RTVSPropertyOp19
 70
     1
102
RTVSPropertyOp20
 70
     1
102
RTVSPropertyOp21
 70
     1
102
RTVSPropertyOp22
 70
     1
102
RTVSPropertyOp23
 70
     1
102
RTVSPropertyOp24
 70
     1
102
RTVSPropertyOp25
 70
     1
102
RTVSPropertyOp26
 70
     1
102
RTVSPropertyOp27
 70
     1
102
RTVSPropertyOp28
 70
     1
102
RTVSPropertyOp29
 70
     1
102
RTVSPropertyOp30
 70
     1
102
RTVSPropertyOp31
 70
     1
102
RTVSPropertyOp32
 70
     1
102
RTVSPropertyOp33
 70
     1
102
RTVSPropertyOp34
 70
     1
102
RTVSPropertyOp35
 70
     1
102
RTVSPropertyOp36
 70
     1
102
RTVSPropertyOp37
 70
     1
102
RTVSPropertyOp38
 70
     1
102
RTVSPropertyOp39
 70
     1
102
RTVSPropertyOp40
 70
     1
102
RTVSPropertyOp41
 70
     1
102
RTVSPropertyOp42
 70
     1
102
RTVSPropertyOp43
 70
     1
102
RTVSPropertyOp44
 70
     1
102
RTVSPropertyOp45
 70
     1
102
RTVSPropertyOp46
 70
     1
102
RTVSPropertyOp47
 70
     1
102
RTVSPropertyOp48
 70
     1
102
RTVSPropertyOp49
 70
     1
102
RTVSPropertyOp50
 70
     1
102
RTVSPropertyOp51
 70
     0
102
RTVSPropertyOp52
 70
     0
102
RTVSPropertyOp53
 70
     1
102
RTVSPropertyOp54
 70
     1
102
RTVSPropertyOp55
 70
     1
102
RTVSPropertyOp56
 70
     1
102
RTVSPropertyOp57
 70
     1
102
RTVSPost2010Prop28
280
     0
102
RTVSPost2010PropOp28
 70
     1
102
RTVSPost2010Prop29
280
     1
102
RTVSPost2010PropOp29
 70
     1
102
RTVSPost2010Prop30
280
     1
102
RTVSPost2010PropOp30
 70
     1
102
RTVSPost2010Prop31
280
     0
102
RTVSPost2010PropOp31
 70
     1
102
RTVSPost2010Prop32
280
     0
102
RTVSPost2010PropOp32
 70
     1
102
RTVSPost2010Prop33
280
     0
102
RTVSPost2010PropOp33
 70
     1
102
RTVSPost2010Prop34
280
     0
102
RTVSPost2010PropOp34
 70
     1
102
RTVSPost2010Prop35
280
     0
102
RTVSPost2010PropOp35
 70
     1
102
RTVSPost2010Prop36
280
     0
102
RTVSPost2010PropOp36
 70
     1
102
RTVSPost2010Prop37
 90
       50
102
RTVSPost2010PropOp37
 70
     1
102
RTVSPost2010Prop38
140
0.0
102
RTVSPost2010PropOp38
 70
     1
102
RTVSPost2010Prop39
140
1.0
102
RTVSPost2010PropOp39
 70
     1
102
RTVSPost2010Prop40
 90
        0
102
RTVSPost2010PropOp40
 70
     1
102
RTVSPost2010Prop41ColorIndex
 90
       18
102
RTVSPost2010Prop41ColorRGB
 90
        0
102
RTVSPost2010PropOp41
 70
     1
102
RTVSPost2010Prop42
 90
       50
102
RTVSPost2010PropOp42
 70
     1
102
RTVSPost2010Prop43
 90
        3
102
RTVSPost2010PropOp43
 70
     1
102
RTVSPost2010Prop44ColorIndex
 90
        5
102
RTVSPost2010Prop44ColorRGB
 90
      255
102
RTVSPost2010PropOp44
 70
     1
102
RTVSPost2010Prop45
280
     0
102
RTVSPost2010PropOp45
 70
     1
102
RTVSPost2010Prop46
 90
       50
102
RTVSPost2010PropOp46
 70
     1
102
RTVSPost2010Prop47
 90
       50
102
RTVSPost2010PropOp47
 70
     1
102
RTVSPost2010Prop48
 90
       50
102
RTVSPost2010PropOp48
 70
     1
102
RTVSPost2010Prop49
280
     0
102
RTVSPost2010PropOp49
 70
     1
102
RTVSPost2010Prop50
 90
       50
102
RTVSPost2010PropOp50
 70
     1
102
RTVSPost2010Prop51ColorIndex
 90
      256
102
RTVSPost2010Prop51ColorRGB
 90
-16777216
102
RTVSPost2010PropOp51
 70
     0
102
RTVSPost2010Prop52
140
1.0
102
RTVSPost2010PropOp52
 70
     0
102
RTVSPost2010Prop53
 90
        2
102
RTVSPost2010PropOp53
 70
     1
102
RTVSPost2010Prop54
  1
strokes_ogs.tif
102
RTVSPost2010PropOp54
 70
     1
102
RTVSPost2010Prop55
280
     0
102
RTVSPost2010PropOp55
 70
     1
102
RTVSPost2010Prop56
140
1.0
102
RTVSPost2010PropOp56
 70
     1
102
RTVSPost2010Prop57
140
1.0
102
RTVSPost2010PropOp57
 70
     1
  0
XRECORD
  5
126
102
{ACAD_REACTORS
330
125
102
}
330
125
100
AcDbXrecord
280
     1
102
RTVSPropertyOp0
 70
     1
102
RTVSPropertyOp1
 70
     1
102
RTVSPropertyOp2
 70
     1
102
RTVSPropertyOp3
 70
     1
102
RTVSPropertyOp4
 70
     1
102
RTVSPropertyOp5
 70
     1
102
RTVSPropertyOp6
 70
     1
102
RTVSPropertyOp7
 70
     1
102
RTVSPropertyOp8
 70
     1
102
RTVSPropertyOp9
 70
     1
102
RTVSPropertyOp10
 70
     1
102
RTVSPropertyOp11
 70
     1
102
RTVSPropertyOp12
 70
     1
102
RTVSPropertyOp13
 70
     1
102
RTVSPropertyOp14
 70
     1
102
RTVSPropertyOp15
 70
     1
102
RTVSPropertyOp16
 70
     1
102
RTVSPropertyOp17
 70
     1
102
RTVSPropertyOp18
 70
     1
102
RTVSPropertyOp19
 70
     1
102
RTVSPropertyOp20
 70
     1
102
RTVSPropertyOp21
 70
     1
102
RTVSPropertyOp22
 70
     1
102
RTVSPropertyOp23
 70
     1
102
RTVSPropertyOp24
 70
     1
102
RTVSPropertyOp25
 70
     1
102
RTVSPropertyOp26
 70
     1
102
RTVSPropertyOp27
 70
     1
102
RTVSPropertyOp28
 70
     1
102
RTVSPropertyOp29
 70
     1
102
RTVSPropertyOp30
 70
     1
102
RTVSPropertyOp31
 70
     1
102
RTVSPropertyOp32
 70
     1
102
RTVSPropertyOp33
 70
     1
102
RTVSPropertyOp34
 70
     1
102
RTVSPropertyOp35
 70
     1
102
RTVSPropertyOp36
 70
     1
102
RTVSPropertyOp37
 70
     1
102
RTVSPropertyOp38
 70
     1
102
RTVSPropertyOp39
 70
     1
102
RTVSPropertyOp40
 70
     1
102
RTVSPropertyOp41
 70
     1
102
RTVSPropertyOp42
 70
     1
102
RTVSPropertyOp43
 70
     1
102
RTVSPropertyOp44
 70
     1
102
RTVSPropertyOp45
 70
     1
102
RTVSPropertyOp46
 70
     1
102
RTVSPropertyOp47
 70
     1
102
RTVSPropertyOp48
 70
     1
102
RTVSPropertyOp49
 70
     1
102
RTVSPropertyOp50
 70
     1
102
RTVSPropertyOp51
 70
     0
102
RTVSPropertyOp52
 70
     0
102
RTVSPropertyOp53
 70
     1
102
RTVSPropertyOp54
 70
     1
102
RTVSPropertyOp55
 70
     1
102
RTVSPropertyOp56
 70
     1
102
RTVSPropertyOp57
 70
     1
102
RTVSPost2010Prop28
280
     0
102
RTVSPost2010PropOp28
 70
     1
102
RTVSPost2010Prop29
280
     1
102
RTVSPost2010PropOp29
 70
     1
102
RTVSPost2010Prop30
280
     1
102
RTVSPost2010PropOp30
 70
     1
102
RTVSPost2010Prop31
280
     0
102
RTVSPost2010PropOp31
 70
     1
102
RTVSPost2010Prop32
280
     0
102
RTVSPost2010PropOp32
 70
     1
102
RTVSPost2010Prop33
280
     0
102
RTVSPost2010PropOp33
 70
     1
102
RTVSPost2010Prop34
280
     0
102
RTVSPost2010PropOp34
 70
     1
102
RTVSPost2010Prop35
280
     0
102
RTVSPost2010PropOp35
 70
     1
102
RTVSPost2010Prop36
280
     0
102
RTVSPost2010PropOp36
 70
     1
102
RTVSPost2010Prop37
 90
       50
102
RTVSPost2010PropOp37
 70
     1
102
RTVSPost2010Prop38
140
0.0
102
RTVSPost2010PropOp38
 70
     1
102
RTVSPost2010Prop39
140
1.0
102
RTVSPost2010PropOp39
 70
     1
102
RTVSPost2010Prop40
 90
        0
102
RTVSPost2010PropOp40
 70
     1
102
RTVSPost2010Prop41ColorIndex
 90
       18
102
RTVSPost2010Prop41ColorRGB
 90
        0
102
RTVSPost2010PropOp41
 70
     1
102
RTVSPost2010Prop42
 90
       50
102
RTVSPost2010PropOp42
 70
     1
102
RTVSPost2010Prop43
 90
        3
102
RTVSPost2010PropOp43
 70
     1
102
RTVSPost2010Prop44ColorIndex
 90
        5
102
RTVSPost2010Prop44ColorRGB
 90
      255
102
RTVSPost2010PropOp44
 70
     1
102
RTVSPost2010Prop45
280
     0
102
RTVSPost2010PropOp45
 70
     1
102
RTVSPost2010Prop46
 90
       50
102
RTVSPost2010PropOp46
 70
     1
102
RTVSPost2010Prop47
 90
       50
102
RTVSPost2010PropOp47
 70
     1
102
RTVSPost2010Prop48
 90
       50
102
RTVSPost2010PropOp48
 70
     1
102
RTVSPost2010Prop49
280
     0
102
RTVSPost2010PropOp49
 70
     1
102
RTVSPost2010Prop50
 90
       50
102
RTVSPost2010PropOp50
 70
     1
102
RTVSPost2010Prop51ColorIndex
 90
      256
102
RTVSPost2010Prop51ColorRGB
 90
-16777216
102
RTVSPost2010PropOp51
 70
     0
102
RTVSPost2010Prop52
140
1.0
102
RTVSPost2010PropOp52
 70
     0
102
RTVSPost2010Prop53
 90
        2
102
RTVSPost2010PropOp53
 70
     1
102
RTVSPost2010Prop54
  1
strokes_ogs.tif
102
RTVSPost2010PropOp54
 70
     1
102
RTVSPost2010Prop55
280
     0
102
RTVSPost2010PropOp55
 70
     1
102
RTVSPost2010Prop56
140
1.0
102
RTVSPost2010PropOp56
 70
     1
102
RTVSPost2010Prop57
140
1.0
102
RTVSPost2010PropOp57
 70
     1
  0
XRECORD
  5
128
102
{ACAD_REACTORS
330
127
102
}
330
127
100
AcDbXrecord
280
     1
102
RTVSPropertyOp0
 70
     1
102
RTVSPropertyOp1
 70
     1
102
RTVSPropertyOp2
 70
     1
102
RTVSPropertyOp3
 70
     1
102
RTVSPropertyOp4
 70
     1
102
RTVSPropertyOp5
 70
     1
102
RTVSPropertyOp6
 70
     1
102
RTVSPropertyOp7
 70
     1
102
RTVSPropertyOp8
 70
     1
102
RTVSPropertyOp9
 70
     1
102
RTVSPropertyOp10
 70
     1
102
RTVSPropertyOp11
 70
     1
102
RTVSPropertyOp12
 70
     1
102
RTVSPropertyOp13
 70
     1
102
RTVSPropertyOp14
 70
     1
102
RTVSPropertyOp15
 70
     1
102
RTVSPropertyOp16
 70
     1
102
RTVSPropertyOp17
 70
     1
102
RTVSPropertyOp18
 70
     1
102
RTVSPropertyOp19
 70
     1
102
RTVSPropertyOp20
 70
     1
102
RTVSPropertyOp21
 70
     1
102
RTVSPropertyOp22
 70
     1
102
RTVSPropertyOp23
 70
     1
102
RTVSPropertyOp24
 70
     1
102
RTVSPropertyOp25
 70
     1
102
RTVSPropertyOp26
 70
     1
102
RTVSPropertyOp27
 70
     1
102
RTVSPropertyOp28
 70
     1
102
RTVSPropertyOp29
 70
     1
102
RTVSPropertyOp30
 70
     1
102
RTVSPropertyOp31
 70
     1
102
RTVSPropertyOp32
 70
     1
102
RTVSPropertyOp33
 70
     1
102
RTVSPropertyOp34
 70
     1
102
RTVSPropertyOp35
 70
     1
102
RTVSPropertyOp36
 70
     1
102
RTVSPropertyOp37
 70
     1
102
RTVSPropertyOp38
 70
     1
102
RTVSPropertyOp39
 70
     1
102
RTVSPropertyOp40
 70
     1
102
RTVSPropertyOp41
 70
     1
102
RTVSPropertyOp42
 70
     1
102
RTVSPropertyOp43
 70
     1
102
RTVSPropertyOp44
 70
     1
102
RTVSPropertyOp45
 70
     1
102
RTVSPropertyOp46
 70
     1
102
RTVSPropertyOp47
 70
     1
102
RTVSPropertyOp48
 70
     1
102
RTVSPropertyOp49
 70
     1
102
RTVSPropertyOp50
 70
     1
102
RTVSPropertyOp51
 70
     0
102
RTVSPropertyOp52
 70
     0
102
RTVSPropertyOp53
 70
     1
102
RTVSPropertyOp54
 70
     1
102
RTVSPropertyOp55
 70
     1
102
RTVSPropertyOp56
 70
     1
102
RTVSPropertyOp57
 70
     1
102
RTVSPost2010Prop28
280
     0
102
RTVSPost2010PropOp28
 70
     1
102
RTVSPost2010Prop29
280
     1
102
RTVSPost2010PropOp29
 70
     1
102
RTVSPost2010Prop30
280
     1
102
RTVSPost2010PropOp30
 70
     1
102
RTVSPost2010Prop31
280
     0
102
RTVSPost2010PropOp31
 70
     1
102
RTVSPost2010Prop32
280
     0
102
RTVSPost2010PropOp32
 70
     1
102
RTVSPost2010Prop33
280
     0
102
RTVSPost2010PropOp33
 70
     1
102
RTVSPost2010Prop34
280
     0
102
RTVSPost2010PropOp34
 70
     1
102
RTVSPost2010Prop35
280
     0
102
RTVSPost2010PropOp35
 70
     1
102
RTVSPost2010Prop36
280
     0
102
RTVSPost2010PropOp36
 70
     1
102
RTVSPost2010Prop37
 90
       50
102
RTVSPost2010PropOp37
 70
     1
102
RTVSPost2010Prop38
140
0.0
102
RTVSPost2010PropOp38
 70
     1
102
RTVSPost2010Prop39
140
1.0
102
RTVSPost2010PropOp39
 70
     1
102
RTVSPost2010Prop40
 90
        0
102
RTVSPost2010PropOp40
 70
     1
102
RTVSPost2010Prop41ColorIndex
 90
       18
102
RTVSPost2010Prop41ColorRGB
 90
        0
102
RTVSPost2010PropOp41
 70
     1
102
RTVSPost2010Prop42
 90
       50
102
RTVSPost2010PropOp42
 70
     1
102
RTVSPost2010Prop43
 90
        3
102
RTVSPost2010PropOp43
 70
     1
102
RTVSPost2010Prop44ColorIndex
 90
        5
102
RTVSPost2010Prop44ColorRGB
 90
      255
102
RTVSPost2010PropOp44
 70
     1
102
RTVSPost2010Prop45
280
     0
102
RTVSPost2010PropOp45
 70
     1
102
RTVSPost2010Prop46
 90
       50
102
RTVSPost2010PropOp46
 70
     1
102
RTVSPost2010Prop47
 90
       50
102
RTVSPost2010PropOp47
 70
     1
102
RTVSPost2010Prop48
 90
       50
102
RTVSPost2010PropOp48
 70
     1
102
RTVSPost2010Prop49
280
     0
102
RTVSPost2010PropOp49
 70
     1
102
RTVSPost2010Prop50
 90
       50
102
RTVSPost2010PropOp50
 70
     1
102
RTVSPost2010Prop51ColorIndex
 90
      256
102
RTVSPost2010Prop51ColorRGB
 90
-16777216
102
RTVSPost2010PropOp51
 70
     0
102
RTVSPost2010Prop52
140
1.0
102
RTVSPost2010PropOp52
 70
     0
102
RTVSPost2010Prop53
 90
        2
102
RTVSPost2010PropOp53
 70
     1
102
RTVSPost2010Prop54
  1
strokes_ogs.tif
102
RTVSPost2010PropOp54
 70
     1
102
RTVSPost2010Prop55
280
     0
102
RTVSPost2010PropOp55
 70
     1
102
RTVSPost2010Prop56
140
1.0
102
RTVSPost2010PropOp56
 70
     1
102
RTVSPost2010Prop57
140
1.0
102
RTVSPost2010PropOp57
 70
     1
  0
XRECORD
  5
12A
102
{ACAD_REACTORS
330
129
102
}
330
129
100
AcDbXrecord
280
     1
102
RTVSPropertyOp0
 70
     1
102
RTVSPropertyOp1
 70
     1
102
RTVSPropertyOp2
 70
     1
102
RTVSPropertyOp3
 70
     1
102
RTVSPropertyOp4
 70
     1
102
RTVSPropertyOp5
 70
     1
102
RTVSPropertyOp6
 70
     1
102
RTVSPropertyOp7
 70
     1
102
RTVSPropertyOp8
 70
     1
102
RTVSPropertyOp9
 70
     1
102
RTVSPropertyOp10
 70
     1
102
RTVSPropertyOp11
 70
     1
102
RTVSPropertyOp12
 70
     1
102
RTVSPropertyOp13
 70
     1
102
RTVSPropertyOp14
 70
     1
102
RTVSPropertyOp15
 70
     1
102
RTVSPropertyOp16
 70
     1
102
RTVSPropertyOp17
 70
     1
102
RTVSPropertyOp18
 70
     1
102
RTVSPropertyOp19
 70
     1
102
RTVSPropertyOp20
 70
     1
102
RTVSPropertyOp21
 70
     1
102
RTVSPropertyOp22
 70
     1
102
RTVSPropertyOp23
 70
     1
102
RTVSPropertyOp24
 70
     1
102
RTVSPropertyOp25
 70
     1
102
RTVSPropertyOp26
 70
     1
102
RTVSPropertyOp27
 70
     1
102
RTVSPropertyOp28
 70
     1
102
RTVSPropertyOp29
 70
     1
102
RTVSPropertyOp30
 70
     1
102
RTVSPropertyOp31
 70
     1
102
RTVSPropertyOp32
 70
     1
102
RTVSPropertyOp33
 70
     1
102
RTVSPropertyOp34
 70
     1
102
RTVSPropertyOp35
 70
     1
102
RTVSPropertyOp36
 70
     1
102
RTVSPropertyOp37
 70
     1
102
RTVSPropertyOp38
 70
     1
102
RTVSPropertyOp39
 70
     1
102
RTVSPropertyOp40
 70
     1
102
RTVSPropertyOp41
 70
     1
102
RTVSPropertyOp42
 70
     1
102
RTVSPropertyOp43
 70
     1
102
RTVSPropertyOp44
 70
     1
102
RTVSPropertyOp45
 70
     1
102
RTVSPropertyOp46
 70
     1
102
RTVSPropertyOp47
 70
     1
102
RTVSPropertyOp48
 70
     1
102
RTVSPropertyOp49
 70
     1
102
RTVSPropertyOp50
 70
     1
102
RTVSPropertyOp51
 70
     0
102
RTVSPropertyOp52
 70
     0
102
RTVSPropertyOp53
 70
     1
102
RTVSPropertyOp54
 70
     1
102
RTVSPropertyOp55
 70
     1
102
RTVSPropertyOp56
 70
     1
102
RTVSPropertyOp57
 70
     1
102
RTVSPost2010Prop28
280
     0
102
RTVSPost2010PropOp28
 70
     1
102
RTVSPost2010Prop29
280
     1
102
RTVSPost2010PropOp29
 70
     1
102
RTVSPost2010Prop30
280
     1
102
RTVSPost2010PropOp30
 70
     1
102
RTVSPost2010Prop31
280
     0
102
RTVSPost2010PropOp31
 70
     1
102
RTVSPost2010Prop32
280
     0
102
RTVSPost2010PropOp32
 70
     1
102
RTVSPost2010Prop33
280
     0
102
RTVSPost2010PropOp33
 70
     1
102
RTVSPost2010Prop34
280
     0
102
RTVSPost2010PropOp34
 70
     1
102
RTVSPost2010Prop35
280
     0
102
RTVSPost2010PropOp35
 70
     1
102
RTVSPost2010Prop36
280
     0
102
RTVSPost2010PropOp36
 70
     1
102
RTVSPost2010Prop37
 90
       50
102
RTVSPost2010PropOp37
 70
     1
102
RTVSPost2010Prop38
140
0.0
102
RTVSPost2010PropOp38
 70
     1
102
RTVSPost2010Prop39
140
1.0
102
RTVSPost2010PropOp39
 70
     1
102
RTVSPost2010Prop40
 90
        0
102
RTVSPost2010PropOp40
 70
     1
102
RTVSPost2010Prop41ColorIndex
 90
       18
102
RTVSPost2010Prop41ColorRGB
 90
        0
102
RTVSPost2010PropOp41
 70
     1
102
RTVSPost2010Prop42
 90
       50
102
RTVSPost2010PropOp42
 70
     1
102
RTVSPost2010Prop43
 90
        3
102
RTVSPost2010PropOp43
 70
     1
102
RTVSPost2010Prop44ColorIndex
 90
        5
102
RTVSPost2010Prop44ColorRGB
 90
      255
102
RTVSPost2010PropOp44
 70
     1
102
RTVSPost2010Prop45
280
     0
102
RTVSPost2010PropOp45
 70
     1
102
RTVSPost2010Prop46
 90
       50
102
RTVSPost2010PropOp46
 70
     1
102
RTVSPost2010Prop47
 90
       50
102
RTVSPost2010PropOp47
 70
     1
102
RTVSPost2010Prop48
 90
       50
102
RTVSPost2010PropOp48
 70
     1
102
RTVSPost2010Prop49
280
     0
102
RTVSPost2010PropOp49
 70
     1
102
RTVSPost2010Prop50
 90
       50
102
RTVSPost2010PropOp50
 70
     1
102
RTVSPost2010Prop51ColorIndex
 90
      256
102
RTVSPost2010Prop51ColorRGB
 90
-16777216
102
RTVSPost2010PropOp51
 70
     0
102
RTVSPost2010Prop52
140
1.0
102
RTVSPost2010PropOp52
 70
     0
102
RTVSPost2010Prop53
 90
        2
102
RTVSPost2010PropOp53
 70
     1
102
RTVSPost2010Prop54
  1
strokes_ogs.tif
102
RTVSPost2010PropOp54
 70
     1
102
RTVSPost2010Prop55
280
     0
102
RTVSPost2010PropOp55
 70
     1
102
RTVSPost2010Prop56
140
1.0
102
RTVSPost2010PropOp56
 70
     1
102
RTVSPost2010Prop57
140
1.0
102
RTVSPost2010PropOp57
 70
     1
  0
XRECORD
  5
13E
102
{ACAD_REACTORS
330
13D
102
}
330
13D
100
AcDbXrecord
280
     1
102
RTVSPropertyOp0
 70
     1
102
RTVSPropertyOp1
 70
     1
102
RTVSPropertyOp2
 70
     1
102
RTVSPropertyOp3
 70
     1
102
RTVSPropertyOp4
 70
     1
102
RTVSPropertyOp5
 70
     1
102
RTVSPropertyOp6
 70
     1
102
RTVSPropertyOp7
 70
     1
102
RTVSPropertyOp8
 70
     1
102
RTVSPropertyOp9
 70
     1
102
RTVSPropertyOp10
 70
     1
102
RTVSPropertyOp11
 70
     1
102
RTVSPropertyOp12
 70
     1
102
RTVSPropertyOp13
 70
     1
102
RTVSPropertyOp14
 70
     1
102
RTVSPropertyOp15
 70
     1
102
RTVSPropertyOp16
 70
     1
102
RTVSPropertyOp17
 70
     1
102
RTVSPropertyOp18
 70
     1
102
RTVSPropertyOp19
 70
     1
102
RTVSPropertyOp20
 70
     1
102
RTVSPropertyOp21
 70
     1
102
RTVSPropertyOp22
 70
     1
102
RTVSPropertyOp23
 70
     1
102
RTVSPropertyOp24
 70
     1
102
RTVSPropertyOp25
 70
     1
102
RTVSPropertyOp26
 70
     1
102
RTVSPropertyOp27
 70
     1
102
RTVSPropertyOp28
 70
     1
102
RTVSPropertyOp29
 70
     1
102
RTVSPropertyOp30
 70
     1
102
RTVSPropertyOp31
 70
     1
102
RTVSPropertyOp32
 70
     1
102
RTVSPropertyOp33
 70
     1
102
RTVSPropertyOp34
 70
     1
102
RTVSPropertyOp35
 70
     1
102
RTVSPropertyOp36
 70
     1
102
RTVSPropertyOp37
 70
     1
102
RTVSPropertyOp38
 70
     1
102
RTVSPropertyOp39
 70
     1
102
RTVSPropertyOp40
 70
     1
102
RTVSPropertyOp41
 70
     1
102
RTVSPropertyOp42
 70
     1
102
RTVSPropertyOp43
 70
     1
102
RTVSPropertyOp44
 70
     1
102
RTVSPropertyOp45
 70
     1
102
RTVSPropertyOp46
 70
     1
102
RTVSPropertyOp47
 70
     1
102
RTVSPropertyOp48
 70
     1
102
RTVSPropertyOp49
 70
     1
102
RTVSPropertyOp50
 70
     1
102
RTVSPropertyOp51
 70
     0
102
RTVSPropertyOp52
 70
     0
102
RTVSPropertyOp53
 70
     1
102
RTVSPropertyOp54
 70
     1
102
RTVSPropertyOp55
 70
     1
102
RTVSPropertyOp56
 70
     1
102
RTVSPropertyOp57
 70
     1
102
RTVSPost2010Prop28
280
     0
102
RTVSPost2010PropOp28
 70
     1
102
RTVSPost2010Prop29
280
     1
102
RTVSPost2010PropOp29
 70
     1
102
RTVSPost2010Prop30
280
     1
102
RTVSPost2010PropOp30
 70
     1
102
RTVSPost2010Prop31
280
     0
102
RTVSPost2010PropOp31
 70
     1
102
RTVSPost2010Prop32
280
     0
102
RTVSPost2010PropOp32
 70
     1
102
RTVSPost2010Prop33
280
     0
102
RTVSPost2010PropOp33
 70
     1
102
RTVSPost2010Prop34
280
     0
102
RTVSPost2010PropOp34
 70
     1
102
RTVSPost2010Prop35
280
     0
102
RTVSPost2010PropOp35
 70
     1
102
RTVSPost2010Prop36
280
     0
102
RTVSPost2010PropOp36
 70
     1
102
RTVSPost2010Prop37
 90
       50
102
RTVSPost2010PropOp37
 70
     1
102
RTVSPost2010Prop38
140
0.0
102
RTVSPost2010PropOp38
 70
     1
102
RTVSPost2010Prop39
140
1.0
102
RTVSPost2010PropOp39
 70
     1
102
RTVSPost2010Prop40
 90
        0
102
RTVSPost2010PropOp40
 70
     1
102
RTVSPost2010Prop41ColorIndex
 90
       18
102
RTVSPost2010Prop41ColorRGB
 90
        0
102
RTVSPost2010PropOp41
 70
     1
102
RTVSPost2010Prop42
 90
       50
102
RTVSPost2010PropOp42
 70
     1
102
RTVSPost2010Prop43
 90
        3
102
RTVSPost2010PropOp43
 70
     1
102
RTVSPost2010Prop44ColorIndex
 90
        5
102
RTVSPost2010Prop44ColorRGB
 90
      255
102
RTVSPost2010PropOp44
 70
     1
102
RTVSPost2010Prop45
280
     0
102
RTVSPost2010PropOp45
 70
     1
102
RTVSPost2010Prop46
 90
       50
102
RTVSPost2010PropOp46
 70
     1
102
RTVSPost2010Prop47
 90
       50
102
RTVSPost2010PropOp47
 70
     1
102
RTVSPost2010Prop48
 90
       50
102
RTVSPost2010PropOp48
 70
     1
102
RTVSPost2010Prop49
280
     0
102
RTVSPost2010PropOp49
 70
     1
102
RTVSPost2010Prop50
 90
       50
102
RTVSPost2010PropOp50
 70
     1
102
RTVSPost2010Prop51ColorIndex
 90
      256
102
RTVSPost2010Prop51ColorRGB
 90
-16777216
102
RTVSPost2010PropOp51
 70
     0
102
RTVSPost2010Prop52
140
1.0
102
RTVSPost2010PropOp52
 70
     0
102
RTVSPost2010Prop53
 90
        2
102
RTVSPost2010PropOp53
 70
     1
102
RTVSPost2010Prop54
  1
strokes_ogs.tif
102
RTVSPost2010PropOp54
 70
     1
102
RTVSPost2010Prop55
280
     0
102
RTVSPost2010PropOp55
 70
     1
102
RTVSPost2010Prop56
140
1.0
102
RTVSPost2010PropOp56
 70
     1
102
RTVSPost2010Prop57
140
1.0
102
RTVSPost2010PropOp57
 70
     1
  0
XRECORD
  5
134
102
{ACAD_REACTORS
330
133
102
}
330
133
100
AcDbXrecord
280
     1
102
RTVSPropertyOp0
 70
     1
102
RTVSPropertyOp1
 70
     1
102
RTVSPropertyOp2
 70
     1
102
RTVSPropertyOp3
 70
     1
102
RTVSPropertyOp4
 70
     1
102
RTVSPropertyOp5
 70
     1
102
RTVSPropertyOp6
 70
     1
102
RTVSPropertyOp7
 70
     1
102
RTVSPropertyOp8
 70
     1
102
RTVSPropertyOp9
 70
     1
102
RTVSPropertyOp10
 70
     1
102
RTVSPropertyOp11
 70
     1
102
RTVSPropertyOp12
 70
     1
102
RTVSPropertyOp13
 70
     1
102
RTVSPropertyOp14
 70
     1
102
RTVSPropertyOp15
 70
     1
102
RTVSPropertyOp16
 70
     1
102
RTVSPropertyOp17
 70
     1
102
RTVSPropertyOp18
 70
     1
102
RTVSPropertyOp19
 70
     1
102
RTVSPropertyOp20
 70
     1
102
RTVSPropertyOp21
 70
     1
102
RTVSPropertyOp22
 70
     1
102
RTVSPropertyOp23
 70
     1
102
RTVSPropertyOp24
 70
     1
102
RTVSPropertyOp25
 70
     1
102
RTVSPropertyOp26
 70
     1
102
RTVSPropertyOp27
 70
     1
102
RTVSPropertyOp28
 70
     1
102
RTVSPropertyOp29
 70
     1
102
RTVSPropertyOp30
 70
     1
102
RTVSPropertyOp31
 70
     1
102
RTVSPropertyOp32
 70
     1
102
RTVSPropertyOp33
 70
     1
102
RTVSPropertyOp34
 70
     1
102
RTVSPropertyOp35
 70
     1
102
RTVSPropertyOp36
 70
     1
102
RTVSPropertyOp37
 70
     1
102
RTVSPropertyOp38
 70
     1
102
RTVSPropertyOp39
 70
     1
102
RTVSPropertyOp40
 70
     1
102
RTVSPropertyOp41
 70
     1
102
RTVSPropertyOp42
 70
     1
102
RTVSPropertyOp43
 70
     1
102
RTVSPropertyOp44
 70
     1
102
RTVSPropertyOp45
 70
     1
102
RTVSPropertyOp46
 70
     1
102
RTVSPropertyOp47
 70
     1
102
RTVSPropertyOp48
 70
     1
102
RTVSPropertyOp49
 70
     1
102
RTVSPropertyOp50
 70
     1
102
RTVSPropertyOp51
 70
     0
102
RTVSPropertyOp52
 70
     0
102
RTVSPropertyOp53
 70
     1
102
RTVSPropertyOp54
 70
     1
102
RTVSPropertyOp55
 70
     1
102
RTVSPropertyOp56
 70
     1
102
RTVSPropertyOp57
 70
     1
102
RTVSPost2010Prop28
280
     0
102
RTVSPost2010PropOp28
 70
     1
102
RTVSPost2010Prop29
280
     1
102
RTVSPost2010PropOp29
 70
     1
102
RTVSPost2010Prop30
280
     1
102
RTVSPost2010PropOp30
 70
     1
102
RTVSPost2010Prop31
280
     0
102
RTVSPost2010PropOp31
 70
     1
102
RTVSPost2010Prop32
280
     0
102
RTVSPost2010PropOp32
 70
     1
102
RTVSPost2010Prop33
280
     0
102
RTVSPost2010PropOp33
 70
     1
102
RTVSPost2010Prop34
280
     0
102
RTVSPost2010PropOp34
 70
     1
102
RTVSPost2010Prop35
280
     0
102
RTVSPost2010PropOp35
 70
     1
102
RTVSPost2010Prop36
280
     0
102
RTVSPost2010PropOp36
 70
     1
102
RTVSPost2010Prop37
 90
       50
102
RTVSPost2010PropOp37
 70
     1
102
RTVSPost2010Prop38
140
0.0
102
RTVSPost2010PropOp38
 70
     1
102
RTVSPost2010Prop39
140
1.0
102
RTVSPost2010PropOp39
 70
     1
102
RTVSPost2010Prop40
 90
        0
102
RTVSPost2010PropOp40
 70
     1
102
RTVSPost2010Prop41ColorIndex
 90
       18
102
RTVSPost2010Prop41ColorRGB
 90
        0
102
RTVSPost2010PropOp41
 70
     1
102
RTVSPost2010Prop42
 90
       50
102
RTVSPost2010PropOp42
 70
     1
102
RTVSPost2010Prop43
 90
        3
102
RTVSPost2010PropOp43
 70
     1
102
RTVSPost2010Prop44ColorIndex
 90
        5
102
RTVSPost2010Prop44ColorRGB
 90
      255
102
RTVSPost2010PropOp44
 70
     1
102
RTVSPost2010Prop45
280
     0
102
RTVSPost2010PropOp45
 70
     1
102
RTVSPost2010Prop46
 90
       50
102
RTVSPost2010PropOp46
 70
     1
102
RTVSPost2010Prop47
 90
       50
102
RTVSPost2010PropOp47
 70
     1
102
RTVSPost2010Prop48
 90
       50
102
RTVSPost2010PropOp48
 70
     1
102
RTVSPost2010Prop49
280
     0
102
RTVSPost2010PropOp49
 70
     1
102
RTVSPost2010Prop50
 90
       50
102
RTVSPost2010PropOp50
 70
     1
102
RTVSPost2010Prop51ColorIndex
 90
      256
102
RTVSPost2010Prop51ColorRGB
 90
-16777216
102
RTVSPost2010PropOp51
 70
     0
102
RTVSPost2010Prop52
140
1.0
102
RTVSPost2010PropOp52
 70
     0
102
RTVSPost2010Prop53
 90
        2
102
RTVSPost2010PropOp53
 70
     1
102
RTVSPost2010Prop54
  1
strokes_ogs.tif
102
RTVSPost2010PropOp54
 70
     1
102
RTVSPost2010Prop55
280
     0
102
RTVSPost2010PropOp55
 70
     1
102
RTVSPost2010Prop56
140
1.0
102
RTVSPost2010PropOp56
 70
     1
102
RTVSPost2010Prop57
140
1.0
102
RTVSPost2010PropOp57
 70
     1
  0
XRECORD
  5
13C
102
{ACAD_REACTORS
330
13B
102
}
330
13B
100
AcDbXrecord
280
     1
102
RTVSPropertyOp0
 70
     1
102
RTVSPropertyOp1
 70
     1
102
RTVSPropertyOp2
 70
     1
102
RTVSPropertyOp3
 70
     1
102
RTVSPropertyOp4
 70
     1
102
RTVSPropertyOp5
 70
     1
102
RTVSPropertyOp6
 70
     1
102
RTVSPropertyOp7
 70
     1
102
RTVSPropertyOp8
 70
     1
102
RTVSPropertyOp9
 70
     1
102
RTVSPropertyOp10
 70
     1
102
RTVSPropertyOp11
 70
     1
102
RTVSPropertyOp12
 70
     1
102
RTVSPropertyOp13
 70
     1
102
RTVSPropertyOp14
 70
     1
102
RTVSPropertyOp15
 70
     1
102
RTVSPropertyOp16
 70
     1
102
RTVSPropertyOp17
 70
     1
102
RTVSPropertyOp18
 70
     1
102
RTVSPropertyOp19
 70
     1
102
RTVSPropertyOp20
 70
     1
102
RTVSPropertyOp21
 70
     1
102
RTVSPropertyOp22
 70
     1
102
RTVSPropertyOp23
 70
     1
102
RTVSPropertyOp24
 70
     1
102
RTVSPropertyOp25
 70
     1
102
RTVSPropertyOp26
 70
     1
102
RTVSPropertyOp27
 70
     1
102
RTVSPropertyOp28
 70
     1
102
RTVSPropertyOp29
 70
     1
102
RTVSPropertyOp30
 70
     1
102
RTVSPropertyOp31
 70
     1
102
RTVSPropertyOp32
 70
     1
102
RTVSPropertyOp33
 70
     1
102
RTVSPropertyOp34
 70
     1
102
RTVSPropertyOp35
 70
     1
102
RTVSPropertyOp36
 70
     1
102
RTVSPropertyOp37
 70
     1
102
RTVSPropertyOp38
 70
     1
102
RTVSPropertyOp39
 70
     1
102
RTVSPropertyOp40
 70
     1
102
RTVSPropertyOp41
 70
     1
102
RTVSPropertyOp42
 70
     1
102
RTVSPropertyOp43
 70
     1
102
RTVSPropertyOp44
 70
     1
102
RTVSPropertyOp45
 70
     1
102
RTVSPropertyOp46
 70
     1
102
RTVSPropertyOp47
 70
     1
102
RTVSPropertyOp48
 70
     1
102
RTVSPropertyOp49
 70
     1
102
RTVSPropertyOp50
 70
     1
102
RTVSPropertyOp51
 70
     0
102
RTVSPropertyOp52
 70
     0
102
RTVSPropertyOp53
 70
     1
102
RTVSPropertyOp54
 70
     1
102
RTVSPropertyOp55
 70
     1
102
RTVSPropertyOp56
 70
     1
102
RTVSPropertyOp57
 70
     1
102
RTVSPost2010Prop28
280
     0
102
RTVSPost2010PropOp28
 70
     1
102
RTVSPost2010Prop29
280
     1
102
RTVSPost2010PropOp29
 70
     1
102
RTVSPost2010Prop30
280
     1
102
RTVSPost2010PropOp30
 70
     1
102
RTVSPost2010Prop31
280
     0
102
RTVSPost2010PropOp31
 70
     1
102
RTVSPost2010Prop32
280
     0
102
RTVSPost2010PropOp32
 70
     1
102
RTVSPost2010Prop33
280
     0
102
RTVSPost2010PropOp33
 70
     1
102
RTVSPost2010Prop34
280
     0
102
RTVSPost2010PropOp34
 70
     1
102
RTVSPost2010Prop35
280
     0
102
RTVSPost2010PropOp35
 70
     1
102
RTVSPost2010Prop36
280
     0
102
RTVSPost2010PropOp36
 70
     1
102
RTVSPost2010Prop37
 90
       50
102
RTVSPost2010PropOp37
 70
     1
102
RTVSPost2010Prop38
140
0.0
102
RTVSPost2010PropOp38
 70
     1
102
RTVSPost2010Prop39
140
1.0
102
RTVSPost2010PropOp39
 70
     1
102
RTVSPost2010Prop40
 90
        0
102
RTVSPost2010PropOp40
 70
     1
102
RTVSPost2010Prop41ColorIndex
 90
       18
102
RTVSPost2010Prop41ColorRGB
 90
        0
102
RTVSPost2010PropOp41
 70
     1
102
RTVSPost2010Prop42
 90
       50
102
RTVSPost2010PropOp42
 70
     1
102
RTVSPost2010Prop43
 90
        3
102
RTVSPost2010PropOp43
 70
     1
102
RTVSPost2010Prop44ColorIndex
 90
        5
102
RTVSPost2010Prop44ColorRGB
 90
      255
102
RTVSPost2010PropOp44
 70
     1
102
RTVSPost2010Prop45
280
     0
102
RTVSPost2010PropOp45
 70
     1
102
RTVSPost2010Prop46
 90
       50
102
RTVSPost2010PropOp46
 70
     1
102
RTVSPost2010Prop47
 90
       50
102
RTVSPost2010PropOp47
 70
     1
102
RTVSPost2010Prop48
 90
       50
102
RTVSPost2010PropOp48
 70
     1
102
RTVSPost2010Prop49
280
     0
102
RTVSPost2010PropOp49
 70
     1
102
RTVSPost2010Prop50
 90
       50
102
RTVSPost2010PropOp50
 70
     1
102
RTVSPost2010Prop51ColorIndex
 90
      256
102
RTVSPost2010Prop51ColorRGB
 90
-16777216
102
RTVSPost2010PropOp51
 70
     0
102
RTVSPost2010Prop52
140
1.0
102
RTVSPost2010PropOp52
 70
     0
102
RTVSPost2010Prop53
 90
        2
102
RTVSPost2010PropOp53
 70
     1
102
RTVSPost2010Prop54
  1
strokes_ogs.tif
102
RTVSPost2010PropOp54
 70
     1
102
RTVSPost2010Prop55
280
     0
102
RTVSPost2010PropOp55
 70
     1
102
RTVSPost2010Prop56
140
1.0
102
RTVSPost2010PropOp56
 70
     1
102
RTVSPost2010Prop57
140
1.0
102
RTVSPost2010PropOp57
 70
     1
  0
ENDSEC
  0
EOF
