  0
SECTION
  2
HEADER
  9
$ACADVER
  1
AC1018
  9
$ACADMAINTVER
 70
     0
  9
$DWGCODEPAGE
  3
ANSI_936
  9
$INSBASE
 10
0.0
 20
0.0
 30
0.0
  9
$EXTMIN
 10
403.9996356943739
 20
-17.39264851373537
 30
0.0
  9
$EXTMAX
 10
1074.84864845146
 20
746.6073568471779
 30
0.0
  9
$LIMMIN
 10
0.0
 20
0.0
  9
$LIMMAX
 10
12.0
 20
9.0
  9
$ORTHOMODE
 70
     0
  9
$REGENMODE
 70
     1
  9
$FILLMODE
 70
     1
  9
$QTEXTMODE
 70
     0
  9
$MIRRTEXT
 70
     1
  9
$LTSCALE
 40
1.0
  9
$ATTMODE
 70
     1
  9
$TEXTSIZE
 40
0.2
  9
$TRACEWID
 40
0.05
  9
$TEXTSTYLE
  7
Standard
  9
$CLAYER
  8
0
  9
$CELTYPE
  6
ByLayer
  9
$CECOLOR
 62
   256
  9
$CELTSCALE
 40
1.0
  9
$DISPSILH
 70
     0
  9
$DIMSCALE
 40
1.0
  9
$DIMASZ
 40
0.18
  9
$DIMEXO
 40
0.0625
  9
$DIMDLI
 40
0.38
  9
$DIMRND
 40
0.0
  9
$DIMDLE
 40
0.0
  9
$DIMEXE
 40
0.18
  9
$DIMTP
 40
0.0
  9
$DIMTM
 40
0.0
  9
$DIMTXT
 40
0.18
  9
$DIMCEN
 40
0.09
  9
$DIMTSZ
 40
0.0
  9
$DIMTOL
 70
     0
  9
$DIMLIM
 70
     0
  9
$DIMTIH
 70
     1
  9
$DIMTOH
 70
     1
  9
$DIMSE1
 70
     0
  9
$DIMSE2
 70
     0
  9
$DIMTAD
 70
     0
  9
$DIMZIN
 70
     0
  9
$DIMBLK
  1

  9
$DIMASO
 70
     1
  9
$DIMSHO
 70
     1
  9
$DIMPOST
  1

  9
$DIMAPOST
  1

  9
$DIMALT
 70
     0
  9
$DIMALTD
 70
     2
  9
$DIMALTF
 40
25.4
  9
$DIMLFAC
 40
1.0
  9
$DIMTOFL
 70
     0
  9
$DIMTVP
 40
0.0
  9
$DIMTIX
 70
     0
  9
$DIMSOXD
 70
     0
  9
$DIMSAH
 70
     0
  9
$DIMBLK1
  1

  9
$DIMBLK2
  1

  9
$DIMSTYLE
  2
Standard
  9
$DIMCLRD
 70
     0
  9
$DIMCLRE
 70
     0
  9
$DIMCLRT
 70
     0
  9
$DIMTFAC
 40
1.0
  9
$DIMGAP
 40
0.09
  9
$DIMJUST
 70
     0
  9
$DIMSD1
 70
     0
  9
$DIMSD2
 70
     0
  9
$DIMTOLJ
 70
     1
  9
$DIMTZIN
 70
     0
  9
$DIMALTZ
 70
     0
  9
$DIMALTTZ
 70
     0
  9
$DIMUPT
 70
     0
  9
$DIMDEC
 70
     4
  9
$DIMTDEC
 70
     4
  9
$DIMALTU
 70
     2
  9
$DIMALTTD
 70
     2
  9
$DIMTXSTY
  7
Standard
  9
$DIMAUNIT
 70
     0
  9
$DIMADEC
 70
     0
  9
$DIMALTRND
 40
0.0
  9
$DIMAZIN
 70
     0
  9
$DIMDSEP
 70
    46
  9
$DIMATFIT
 70
     3
  9
$DIMFRAC
 70
     0
  9
$DIMLDRBLK
  1

  9
$DIMLUNIT
 70
     2
  9
$DIMLWD
 70
    -2
  9
$DIMLWE
 70
    -2
  9
$DIMTMOVE
 70
     2
  9
$LUNITS
 70
     2
  9
$LUPREC
 70
     3
  9
$SKETCHINC
 40
0.1
  9
$FILLETRAD
 40
0.5
  9
$AUNITS
 70
     0
  9
$AUPREC
 70
     0
  9
$MENU
  1
.
  9
$ELEVATION
 40
0.0
  9
$PELEVATION
 40
0.0
  9
$THICKNESS
 40
0.0
  9
$LIMCHECK
 70
     0
  9
$CHAMFERA
 40
0.5
  9
$CHAMFERB
 40
0.5
  9
$CHAMFERC
 40
1.0
  9
$CHAMFERD
 40
0.0
  9
$SKPOLY
 70
     0
  9
$TDCREATE
 40
2458235.422611065
  9
$TDUCREATE
 40
2458235.089277731
  9
$TDUPDATE
 40
2458235.422611157
  9
$TDUUPDATE
 40
2458235.089277824
  9
$TDINDWG
 40
0.0000000116
  9
$TDUSRTIMER
 40
0.0000000116
  9
$USRTIMER
 70
     1
  9
$ANGBASE
 50
0.0
  9
$ANGDIR
 70
     0
  9
$PDMODE
 70
     0
  9
$PDSIZE
 40
0.0
  9
$PLINEWID
 40
0.0
  9
$SPLFRAME
 70
     0
  9
$SPLINETYPE
 70
     6
  9
$SPLINESEGS
 70
     8
  9
$HANDSEED
  5
1D1
  9
$SURFTAB1
 70
     6
  9
$SURFTAB2
 70
     6
  9
$SURFTYPE
 70
     6
  9
$SURFU
 70
     6
  9
$SURFV
 70
     6
  9
$UCSBASE
  2

  9
$UCSNAME
  2

  9
$UCSORG
 10
0.0
 20
0.0
 30
0.0
  9
$UCSXDIR
 10
1.0
 20
0.0
 30
0.0
  9
$UCSYDIR
 10
0.0
 20
1.0
 30
0.0
  9
$UCSORTHOREF
  2

  9
$UCSORTHOVIEW
 70
     0
  9
$UCSORGTOP
 10
0.0
 20
0.0
 30
0.0
  9
$UCSORGBOTTOM
 10
0.0
 20
0.0
 30
0.0
  9
$UCSORGLEFT
 10
0.0
 20
0.0
 30
0.0
  9
$UCSORGRIGHT
 10
0.0
 20
0.0
 30
0.0
  9
$UCSORGFRONT
 10
0.0
 20
0.0
 30
0.0
  9
$UCSORGBACK
 10
0.0
 20
0.0
 30
0.0
  9
$PUCSBASE
  2

  9
$PUCSNAME
  2

  9
$PUCSORG
 10
0.0
 20
0.0
 30
0.0
  9
$PUCSXDIR
 10
1.0
 20
0.0
 30
0.0
  9
$PUCSYDIR
 10
0.0
 20
1.0
 30
0.0
  9
$PUCSORTHOREF
  2

  9
$PUCSORTHOVIEW
 70
     0
  9
$PUCSORGTOP
 10
0.0
 20
0.0
 30
0.0
  9
$PUCSORGBOTTOM
 10
0.0
 20
0.0
 30
0.0
  9
$PUCSORGLEFT
 10
0.0
 20
0.0
 30
0.0
  9
$PUCSORGRIGHT
 10
0.0
 20
0.0
 30
0.0
  9
$PUCSORGFRONT
 10
0.0
 20
0.0
 30
0.0
  9
$PUCSORGBACK
 10
0.0
 20
0.0
 30
0.0
  9
$USERI1
 70
     0
  9
$USERI2
 70
     0
  9
$USERI3
 70
     0
  9
$USERI4
 70
     0
  9
$USERI5
 70
     0
  9
$USERR1
 40
0.0
  9
$USERR2
 40
0.0
  9
$USERR3
 40
0.0
  9
$USERR4
 40
0.0
  9
$USERR5
 40
0.0
  9
$WORLDVIEW
 70
     1
  9
$SHADEDGE
 70
     3
  9
$SHADEDIF
 70
    70
  9
$TILEMODE
 70
     1
  9
$MAXACTVP
 70
    64
  9
$PINSBASE
 10
0.0
 20
0.0
 30
0.0
  9
$PLIMCHECK
 70
     0
  9
$PEXTMIN
 10
1.000000000000000E+20
 20
1.000000000000000E+20
 30
1.000000000000000E+20
  9
$PEXTMAX
 10
-1.000000000000000E+20
 20
-1.000000000000000E+20
 30
-1.000000000000000E+20
  9
$PLIMMIN
 10
0.0
 20
0.0
  9
$PLIMMAX
 10
12.0
 20
9.0
  9
$UNITMODE
 70
     0
  9
$VISRETAIN
 70
     1
  9
$PLINEGEN
 70
     0
  9
$PSLTSCALE
 70
     1
  9
$TREEDEPTH
 70
  3020
  9
$CMLSTYLE
  2
Standard
  9
$CMLJUST
 70
     0
  9
$CMLSCALE
 40
1.0
  9
$PROXYGRAPHICS
 70
     1
  9
$MEASUREMENT
 70
     0
  9
$CELWEIGHT
370
    -1
  9
$ENDCAPS
280
     0
  9
$JOINSTYLE
280
     0
  9
$LWDISPLAY
290
     0
  9
$INSUNITS
 70
     4
  9
$HYPERLINKBASE
  1

  9
$STYLESHEET
  1

  9
$XEDIT
290
     1
  9
$CEPSNTYPE
380
     0
  9
$PSTYLEMODE
290
     1
  9
$FINGERPRINTGUID
  2
{CDF077AA-8F66-478A-9026-505BC82F3B47}
  9
$VERSIONGUID
  2
{FAEB1C32-E019-11D5-929B-00C0DF256EC4}
  9
$EXTNAMES
290
     1
  9
$PSVPSCALE
 40
0.0
  9
$OLESTARTUP
290
     0
  9
$SORTENTS
280
   127
  9
$INDEXCTL
280
     0
  9
$HIDETEXT
280
     1
  9
$XCLIPFRAME
290
     0
  9
$HALOGAP
280
     0
  9
$OBSCOLOR
 70
   257
  9
$OBSLTYPE
280
     0
  9
$INTERSECTIONDISPLAY
280
     0
  9
$INTERSECTIONCOLOR
 70
   257
  9
$DIMASSOC
280
     2
  9
$PROJECTNAME
  1

  0
ENDSEC
  0
SECTION
  2
CLASSES
  0
CLASS
  1
ACDBDICTIONARYWDFLT
  2
AcDbDictionaryWithDefault
  3
ObjectDBX Classes
 90
        0
 91
        4
280
     0
281
     0
  0
CLASS
  1
VISUALSTYLE
  2
AcDbVisualStyle
  3
ObjectDBX Classes
 90
     4095
 91
        4
280
     0
281
     0
  0
CLASS
  1
MATERIAL
  2
AcDbMaterial
  3
ObjectDBX Classes
 90
     1153
 91
        4
280
     0
281
     0
  0
CLASS
  1
SCALE
  2
AcDbScale
  3
ObjectDBX Classes
 90
     1153
 91
        4
280
     0
281
     0
  0
CLASS
  1
SUN
  2
AcDbSun
  3
SCENEOE
 90
     1153
 91
        4
280
     0
281
     0
  0
CLASS
  1
DICTIONARYVAR
  2
AcDbDictionaryVar
  3
ObjectDBX Classes
 90
        0
 91
        4
280
     0
281
     0
  0
ENDSEC
  0
SECTION
  2
TABLES
  0
TABLE
  2
VPORT
  5
8
330
0
100
AcDbSymbolTable
 70
     1
  0
VPORT
  5
29
330
8
100
AcDbSymbolTableRecord
100
AcDbViewportTableRecord
  2
*Active
 70
     0
 10
0.0
 20
0.0
 11
1.0
 21
1.0
 12
739.424142072917
 22
364.6073541667213
 13
0.0
 23
0.0
 14
0.5
 24
0.5
 15
0.5
 25
0.5
 16
0.0
 26
0.0
 36
1.0
 17
0.0
 27
0.0
 37
0.0
 40
779.2800054681315
 41
0.8780746178662362
 42
50.0
 43
0.0
 44
0.0
 50
0.0
 51
0.0
 71
     0
 72
   100
 73
     1
 74
     3
 75
     0
 76
     0
 77
     0
 78
     0
281
     0
 65
     1
110
0.0
120
0.0
130
0.0
111
1.0
121
0.0
131
0.0
112
0.0
122
1.0
132
0.0
 79
     0
146
0.0
  0
ENDTAB
  0
TABLE
  2
LTYPE
  5
5
330
0
100
AcDbSymbolTable
 70
     1
  0
LTYPE
  5
14
330
5
100
AcDbSymbolTableRecord
100
AcDbLinetypeTableRecord
  2
ByBlock
 70
     0
  3

 72
    65
 73
     0
 40
0.0
  0
LTYPE
  5
15
330
5
100
AcDbSymbolTableRecord
100
AcDbLinetypeTableRecord
  2
ByLayer
 70
     0
  3

 72
    65
 73
     0
 40
0.0
  0
LTYPE
  5
16
330
5
100
AcDbSymbolTableRecord
100
AcDbLinetypeTableRecord
  2
Continuous
 70
     0
  3
Solid line
 72
    65
 73
     0
 40
0.0
  0
ENDTAB
  0
TABLE
  2
LAYER
  5
2
330
0
100
AcDbSymbolTable
 70
     3
  0
LAYER
  5
10
330
2
100
AcDbSymbolTableRecord
100
AcDbLayerTableRecord
  2
0
 70
     0
 62
     7
  6
Continuous
370
    -3
390
F
  0
LAYER
  5
62
330
2
100
AcDbSymbolTableRecord
100
AcDbLayerTableRecord
  2
预设值
 70
     0
 62
    18
420
        0
  6
Continuous
370
    -3
390
F
  0
LAYER
  5
64
330
2
100
AcDbSymbolTableRecord
100
AcDbLayerTableRecord
  2
Make2D$可见线$普通线
 70
     0
 62
    18
420
        0
  6
Continuous
370
    -3
390
F
  0
ENDTAB
  0
TABLE
  2
STYLE
  5
3
330
0
100
AcDbSymbolTable
 70
     1
  0
STYLE
  5
11
330
3
100
AcDbSymbolTableRecord
100
AcDbTextStyleTableRecord
  2
Standard
 70
     0
 40
0.0
 41
1.0
 50
0.0
 71
     0
 42
0.2
  3
txt
  4

  0
ENDTAB
  0
TABLE
  2
VIEW
  5
6
330
0
100
AcDbSymbolTable
 70
     0
  0
ENDTAB
  0
TABLE
  2
UCS
  5
7
330
0
100
AcDbSymbolTable
 70
     0
  0
ENDTAB
  0
TABLE
  2
APPID
  5
9
330
0
100
AcDbSymbolTable
 70
     1
  0
APPID
  5
12
330
9
100
AcDbSymbolTableRecord
100
AcDbRegAppTableRecord
  2
ACAD
 70
     0
  0
ENDTAB
  0
TABLE
  2
DIMSTYLE
  5
A
330
0
100
AcDbSymbolTable
 70
     1
100
AcDbDimStyleTable
  0
DIMSTYLE
105
27
330
A
100
AcDbSymbolTableRecord
100
AcDbDimStyleTableRecord
  2
Standard
 70
     0
178
     0
340
11
  0
ENDTAB
  0
TABLE
  2
BLOCK_RECORD
  5
1
330
0
100
AcDbSymbolTable
 70
     1
  0
BLOCK_RECORD
  5
1F
330
1
100
AcDbSymbolTableRecord
100
AcDbBlockTableRecord
  2
*Model_Space
340
22
  0
BLOCK_RECORD
  5
1B
330
1
100
AcDbSymbolTableRecord
100
AcDbBlockTableRecord
  2
*Paper_Space
340
1E
  0
BLOCK_RECORD
  5
23
330
1
100
AcDbSymbolTableRecord
100
AcDbBlockTableRecord
  2
*Paper_Space0
340
26
  0
ENDTAB
  0
ENDSEC
  0
SECTION
  2
BLOCKS
  0
BLOCK
  5
20
330
1F
100
AcDbEntity
  8
0
100
AcDbBlockBegin
  2
*Model_Space
 70
     0
 10
0.0
 20
0.0
 30
0.0
  3
*Model_Space
  1
*Model_Space
  0
ENDBLK
  5
21
330
1F
100
AcDbEntity
  8
0
100
AcDbBlockEnd
  0
BLOCK
  5
1C
330
1B
100
AcDbEntity
 67
     1
  8
0
100
AcDbBlockBegin
  2
*Paper_Space
 70
     0
 10
0.0
 20
0.0
 30
0.0
  3
*Paper_Space
  1
*Paper_Space
  0
ENDBLK
  5
1D
330
1B
100
AcDbEntity
 67
     1
  8
0
100
AcDbBlockEnd
  0
BLOCK
  5
24
330
23
100
AcDbEntity
  8
0
100
AcDbBlockBegin
  2
*Paper_Space0
 70
     0
 10
0.0
 20
0.0
 30
0.0
  3
*Paper_Space0
  1
*Paper_Space0
  0
ENDBLK
  5
25
330
23
100
AcDbEntity
  8
0
100
AcDbBlockEnd
  0
ENDSEC
  0
SECTION
  2
ENTITIES
  0
SPLINE
  5
63
330
1F
100
AcDbEntity
  8
预设值
100
AcDbSpline
210
0.0
220
0.0
230
1.0
 70
    12
 71
     3
 72
    23
 73
    19
 74
     0
 42
0.000000001
 43
0.0000000001
 12
1.0
 22
0.0
 32
0.0
 13
1.0
 23
0.0
 33
0.0
 40
0.0
 40
0.0
 40
0.0
 40
0.0
 40
285.2877073734522
 40
285.2877073734522
 40
285.2877073734522
 40
285.548518752623
 40
285.8093302268379
 40
286.0701417010528
 40
286.2863798009957
 40
286.2863798009957
 40
286.2863798009957
 40
293.8375069558335
 40
293.8375069558335
 40
293.8375069558335
 40
301.3886193138264
 40
301.3886193138264
 40
301.3886193138264
 40
304.5160060960473
 40
304.5160060960473
 40
304.5160060960473
 40
304.5160060960473
 10
507.844292043952
 20
409.911033584609
 30
0.0
 41
1.0
 10
602.9036308894904
 20
412.5489865913564
 30
0.0
 41
0.9999993328108562
 10
697.9666066907657
 20
415.0524501167236
 30
0.0
 41
0.9999993328108562
 10
793.0330291728217
 20
417.4214191498577
 30
0.0
 41
1.0
 10
795.3028916014086
 20
417.4779820606732
 30
0.0
 41
1.0
 10
799.3658696341531
 20
417.5470257560137
 30
0.0
 41
1.0
 10
803.6701267126059
 20
415.9970970251753
 30
0.0
 41
1.0
 10
806.3020786926231
 20
412.4603832628696
 30
0.0
 41
1.0
 10
807.528158518465
 20
409.0308254543439
 30
0.0
 41
1.0
 10
808.061311210698
 20
407.2957123422166
 30
0.0
 41
1.0
 10
808.8008222387103
 20
404.8890185376833
 30
0.0
 41
0.9994401428051741
 10
809.4411004324
 20
402.4540451365937
 30
0.0
 41
0.9994401428051741
 10
809.9810703987064
 20
399.9948818510803
 30
0.0
 41
1.0
 10
810.5210398357842
 20
397.5357209758113
 30
0.0
 41
0.9994381853365634
 10
810.9596167188762
 20
395.0564691691062
 30
0.0
 41
0.9994381853365634
 10
811.2960618512109
 20
392.561305071024
 30
0.0
 41
1.0
 10
811.4353728127818
 20
391.5281389575204
 30
0.0
 41
0.9998967692353196
 10
811.556481170213
 20
390.4926813157674
 30
0.0
 41
0.9998967692353196
 10
811.6593494171796
 20
389.4552528190166
 30
0.0
 41
1.0
  0
SPLINE
  5
65
330
1F
100
AcDbEntity
  8
Make2D$可见线$普通线
100
AcDbSpline
210
0.0
220
0.0
230
1.0
 70
     8
 71
     3
 72
    34
 73
    30
 74
     0
 42
0.000000001
 43
0.0000000001
 12
1.0
 22
0.0
 32
0.0
 13
1.0
 23
0.0
 33
0.0
 40
-0.0267672050827624
 40
-0.0267672050827624
 40
-0.0267672050827624
 40
-0.0267672050827624
 40
0.0
 40
0.0
 40
0.0
 40
0.3763499925573501
 40
0.7325839687466339
 40
1.182204964673493
 40
1.747546407780711
 40
3.448316511493725
 40
5.793521381082678
 40
8.984692192235528
 40
12.72256113205297
 40
22.71754344084152
 40
22.71754344084152
 40
22.71754344084152
 40
23.71754344084152
 40
23.71754344084152
 40
23.71754344084152
 40
243.7456910151606
 40
243.7456910151606
 40
243.7456910151606
 40
244.4787425424687
 40
244.4787425424687
 40
244.4787425424687
 40
245.1569662097708
 40
245.1569662097708
 40
245.1569662097708
 40
247.4793483942875
 40
247.4793483942875
 40
247.4793483942875
 40
247.4793483942875
 10
782.2230384423497
 20
375.5312325085629
 30
0.0
 10
782.2339311497248
 20
375.4086852220249
 30
0.0
 10
782.2448238570997
 20
375.2861379354868
 30
0.0
 10
782.2557165644748
 20
375.1635906489487
 30
0.0
 10
782.2638416995962
 20
375.0412389883195
 30
0.0
 10
782.2748003156596
 20
374.7851755118546
 30
0.0
 10
782.0704009140359
 20
374.4363452703483
 30
0.0
 10
781.7021874627287
 20
374.1563882995507
 30
0.0
 10
780.8751745269551
 20
373.7806471465356
 30
0.0
 10
779.3776326846646
 20
373.412678134796
 30
0.0
 10
776.9897769902605
 20
373.066227967493
 30
0.0
 10
773.908083808356
 20
372.8054675675872
 30
0.0
 10
768.2724090616448
 20
372.5405929135373
 30
0.0
 10
763.6931996457117
 20
372.5302505446462
 30
0.0
 10
760.361909859326
 20
372.5310712990213
 30
0.0
 10
717.477658314825
 20
372.5310868535569
 30
0.0
 10
674.5934067703239
 20
372.5311024080924
 30
0.0
 10
631.7091552258229
 20
372.5311179626279
 30
0.0
 10
558.3664393842579
 20
372.5299742580899
 30
0.0
 10
485.0237235426928
 20
372.5288305535518
 30
0.0
 10
411.6810077011278
 20
372.5276868490137
 30
0.0
 10
411.4366699375955
 20
372.5280542705011
 30
0.0
 10
411.1923321740633
 20
372.5284216919885
 30
0.0
 10
410.947994410531
 20
372.5287891134759
 30
0.0
 10
410.9519014632523
 20
372.7548447458166
 30
0.0
 10
410.9558085159736
 20
372.9809003781572
 30
0.0
 10
410.9597155686949
 20
373.2069560104979
 30
0.0
 10
410.9783316675287
 20
373.9808474758972
 30
0.0
 10
410.9969477663624
 20
374.7547389412966
 30
0.0
 10
411.0155638651961
 20
375.5286304066959
 30
0.0
  0
SPLINE
  5
66
330
1F
100
AcDbEntity
  8
Make2D$可见线$普通线
100
AcDbSpline
210
0.0
220
0.0
230
1.0
 70
     8
 71
     2
 72
     8
 73
     5
 74
     0
 42
0.000000001
 43
0.0000000001
 12
1.0
 22
0.0
 32
0.0
 13
1.0
 23
0.0
 33
0.0
 40
-0.0009820080055459
 40
-0.0009820080055459
 40
-0.0009820080055459
 40
0.0
 40
0.0
 40
0.7510583510707116
 40
0.7510583510707116
 40
0.7510583510707116
 10
808.0638670900676
 20
407.2873924419642
 30
0.0
 10
808.0674977386263
 20
407.2755633557047
 30
0.0
 10
808.0711283871851
 20
407.2637342694453
 30
0.0
 10
808.0686182787475
 20
407.2688885645658
 30
0.0
 10
808.0661081703099
 20
407.2740428596863
 30
0.0
  0
SPLINE
  5
67
330
1F
100
AcDbEntity
  8
Make2D$可见线$普通线
100
AcDbSpline
210
0.0
220
0.0
230
1.0
 70
     8
 71
     3
 72
    11
 73
     7
 74
     0
 42
0.000000001
 43
0.0000000001
 12
1.0
 22
0.0
 32
0.0
 13
1.0
 23
0.0
 33
0.0
 40
-0.9994615346527512
 40
-0.9994615346527512
 40
-0.9994615346527512
 40
-0.9994615346527512
 40
0.0
 40
0.0
 40
0.0
 40
1.0
 40
1.0
 40
1.0
 40
1.0
 10
419.5216580752044
 20
406.2507763810946
 30
0.0
 10
446.6467656426117
 20
408.1982094719575
 30
0.0
 10
476.5692573718159
 20
409.0431205882506
 30
0.0
 10
507.8051496317366
 20
409.9099473517691
 30
0.0
 10
508.0158642853324
 20
409.8952009256225
 30
0.0
 10
508.2265789389282
 20
409.8804544994759
 30
0.0
 10
508.437293592524
 20
409.8657080733292
 30
0.0
  0
SPLINE
  5
68
330
1F
100
AcDbEntity
  8
Make2D$可见线$普通线
100
AcDbSpline
210
0.0
220
0.0
230
1.0
 70
     8
 71
     3
 72
    42
 73
    38
 74
     0
 42
0.000000001
 43
0.0000000001
 12
1.0
 22
0.0
 32
0.0
 13
1.0
 23
0.0
 33
0.0
 40
0.0
 40
0.0
 40
0.0
 40
0.0
 40
0.0011159113296777
 40
2.548867872335796
 40
4.80036171712588
 40
9.091430232960036
 40
13.08982049807404
 40
17.46641988903414
 40
17.46641988903414
 40
17.46641988903414
 40
17.96634292476811
 40
17.96634292476811
 40
18.4664174149779
 40
18.4664174149779
 40
18.4664174149779
 40
19.4664174149779
 40
19.4664174149779
 40
19.4664174149779
 40
246.4721450954564
 40
246.4721450954564
 40
246.4721450954564
 40
247.2156147752778
 40
247.2156147752778
 40
247.2156147752778
 40
261.8622721417747
 40
261.8622721417747
 40
261.8622721417747
 40
264.7217176849908
 40
266.7967135842836
 40
270.0019502426196
 40
272.6328683366763
 40
275.0196982221264
 40
277.4101850053551
 40
280.0488773941804
 40
283.2606196008897
 40
285.3371902427031
 40
288.1947856551964
 40
288.1947856551964
 40
288.1947856551964
 40
288.1947856551964
 10
811.6619565328592
 20
389.428906976506
 30
0.0
 10
811.6624793749204
 20
389.4305093943549
 30
0.0
 10
811.4731362419068
 20
388.6034764908086
 30
0.0
 10
811.0450432189195
 20
387.0568011030746
 30
0.0
 10
809.9347256974661
 20
384.2372238908416
 30
0.0
 10
808.0712418095757
 20
381.2161597675204
 30
0.0
 10
804.8470921466674
 20
378.414093408936
 30
0.0
 10
802.257237201587
 20
377.290737803397
 30
0.0
 10
800.8683022820226
 20
376.8541463529151
 30
0.0
 10
798.5697532216868
 20
376.1375061985887
 30
0.0
 10
796.2059323618287
 20
375.8368832538804
 30
0.0
 10
791.4398311980358
 20
375.5231551013827
 30
0.0
 10
789.0578792027245
 20
375.5310547476584
 30
0.0
 10
786.6688981223058
 20
375.5310532912645
 30
0.0
 10
735.0288665872046
 20
375.5310853480594
 30
0.0
 10
683.3888350521032
 20
375.5311174048542
 30
0.0
 10
631.7488035170019
 20
375.531149461649
 30
0.0
 10
556.0802276357146
 20
375.5301633656728
 30
0.0
 10
480.4116517544273
 20
375.5291772696965
 30
0.0
 10
404.74307587314
 20
375.5281911737202
 30
0.0
 10
404.4952699039381
 20
375.5281900021553
 30
0.0
 10
404.2474639347361
 20
375.5281888305903
 30
0.0
 10
403.9996579655342
 20
375.5281876590253
 30
0.0
 10
404.0846198120307
 20
380.4096830190102
 30
0.0
 10
404.1695816585272
 20
385.2911783789951
 30
0.0
 10
404.2545435050238
 20
390.17267373898
 30
0.0
 10
404.2719343438152
 20
391.1254580037344
 30
0.0
 10
404.2985088561527
 20
392.7707392655225
 30
0.0
 10
404.4383362211535
 20
395.4800211911075
 30
0.0
 10
404.764427871795
 20
398.1027332367512
 30
0.0
 10
405.5981912614802
 20
400.7321892572941
 30
0.0
 10
406.9908947903706
 20
402.8116082474272
 30
0.0
 10
408.99820525014
 20
404.309955748252
 30
0.0
 10
411.5830320153696
 20
405.2884709963024
 30
0.0
 10
414.1879195512099
 20
405.7653511143545
 30
0.0
 10
416.886839236504
 20
406.0600956424137
 30
0.0
 10
418.528000934248
 20
406.1786918650615
 30
0.0
 10
419.477819112851
 20
406.2476278503091
 30
0.0
  0
LINE
  5
69
330
1F
100
AcDbEntity
  8
Make2D$可见线$普通线
100
AcDbLine
 10
1017.769921184512
 20
740.6073568471775
 30
0.0
 11
1017.769921184512
 21
738.3457157155763
 31
0.0
  0
LINE
  5
6A
330
1F
100
AcDbEntity
  8
Make2D$可见线$普通线
100
AcDbLine
 10
977.769921184512
 20
740.6073568471775
 30
0.0
 11
977.769921184512
 21
738.2757276324573
 31
0.0
  0
LINE
  5
6B
330
1F
100
AcDbEntity
  8
Make2D$可见线$普通线
100
AcDbLine
 10
1013.029651223604
 20
741.6073568471775
 30
0.0
 11
1011.208791940768
 21
741.6073568471775
 31
0.0
  0
LINE
  5
6C
330
1F
100
AcDbEntity
  8
Make2D$可见线$普通线
100
AcDbLine
 10
1013.800258752479
 20
741.6073568471775
 30
0.0
 11
1013.627997477933
 21
741.6073568471775
 31
0.0
  0
LINE
  5
6D
330
1F
100
AcDbEntity
  8
Make2D$可见线$普通线
100
AcDbLine
 10
1014.276370626946
 20
741.6073568471775
 30
0.0
 11
1014.26260206076
 21
741.6073568471775
 31
0.0
  0
LINE
  5
6E
330
1F
100
AcDbEntity
  8
Make2D$可见线$普通线
100
AcDbLine
 10
1015.1124221427
 20
741.6073568471779
 30
0.0
 11
1014.591465476465
 21
741.6073568471779
 31
0.0
  0
LINE
  5
6F
330
1F
100
AcDbEntity
  8
Make2D$可见线$普通线
100
AcDbLine
 10
1015.296519578793
 20
741.6073568471779
 30
0.0
 11
1015.135439365803
 21
741.6073568471779
 31
0.0
  0
LINE
  5
70
330
1F
100
AcDbEntity
  8
Make2D$可见线$普通线
100
AcDbLine
 10
1015.470406416858
 20
741.6073568471768
 30
0.0
 11
1015.319743274166
 21
741.6073568471775
 31
0.0
  0
LINE
  5
71
330
1F
100
AcDbEntity
  8
Make2D$可见线$普通线
100
AcDbLine
 10
1015.633960446448
 20
741.6073568471779
 30
0.0
 11
1015.493653498417
 21
741.6073568471779
 31
0.0
  0
LINE
  5
72
330
1F
100
AcDbEntity
  8
Make2D$可见线$普通线
100
AcDbLine
 10
1015.787059457119
 20
741.6073568471788
 30
0.0
 11
1015.657044902921
 21
741.6073568471779
 31
0.0
  0
LINE
  5
73
330
1F
100
AcDbEntity
  8
Make2D$可见线$普通线
100
AcDbLine
 10
1015.929581238423
 20
741.6073568471779
 30
0.0
 11
1015.809792215978
 21
741.6073568471779
 31
0.0
  0
LINE
  5
74
330
1F
100
AcDbEntity
  8
Make2D$可见线$普通线
100
AcDbLine
 10
1016.061403579918
 20
741.6073568471777
 30
0.0
 11
1015.951770223459
 21
741.6073568471777
 31
0.0
  0
LINE
  5
75
330
1F
100
AcDbEntity
  8
Make2D$可见线$普通线
100
AcDbLine
 10
1016.182404271155
 20
741.6073568471779
 30
0.0
 11
1016.082853710399
 21
741.6073568471779
 31
0.0
  0
LINE
  5
76
330
1F
100
AcDbEntity
  8
Make2D$可见线$普通线
100
AcDbLine
 10
1016.292461101691
 20
741.6073568471779
 30
0.0
 11
1016.202917458172
 21
741.6073568471779
 31
0.0
  0
LINE
  5
77
330
1F
100
AcDbEntity
  8
Make2D$可见线$普通线
100
AcDbLine
 10
1016.391451861079
 20
741.6073568471779
 30
0.0
 11
1016.311836248154
 21
741.6073568471779
 31
0.0
  0
LINE
  5
78
330
1F
100
AcDbEntity
  8
Make2D$可见线$普通线
100
AcDbLine
 10
1016.479254338874
 20
741.6073568471768
 30
0.0
 11
1016.409484861719
 21
741.6073568471775
 31
0.0
  0
LINE
  5
79
330
1F
100
AcDbEntity
  8
Make2D$可见线$普通线
100
AcDbLine
 10
1016.555746324631
 20
741.6073568471782
 30
0.0
 11
1016.49573808024
 21
741.6073568471782
 31
0.0
  0
LINE
  5
7A
330
1F
100
AcDbEntity
  8
Make2D$可见线$普通线
100
AcDbLine
 10
1016.620805607904
 20
741.6073568471775
 30
0.0
 11
1016.570470685077
 21
741.6073568471775
 31
0.0
  0
LINE
  5
7B
330
1F
100
AcDbEntity
  8
Make2D$可见线$普通线
100
AcDbLine
 10
1016.684873178774
 20
741.6073568471775
 30
0.0
 11
1016.633557457551
 21
741.6073568471775
 31
0.0
  0
LINE
  5
7C
330
1F
100
AcDbEntity
  8
Make2D$可见线$普通线
100
AcDbLine
 10
1016.766941852716
 20
741.6073568471775
 30
0.0
 11
1016.716137225217
 21
741.6073568471775
 31
0.0
  0
ARC
  5
7D
330
1F
100
AcDbEntity
  8
Make2D$可见线$普通线
100
AcDbCircle
 10
1016.770600398501
 20
740.6076013962893
 30
0.0
 40
0.9997554863486009
100
AcDbArc
 50
359.9859849409965
 51
90.0152602844952
  0
ARC
  5
7E
330
1F
100
AcDbEntity
  8
Make2D$可见线$普通线
100
AcDbCircle
 10
978.7698270835679
 20
740.607016270528
 30
0.0
 40
1.000340627460504
100
AcDbArc
 50
90.01826173490188
 51
179.9804930396136
  0
LINE
  5
7F
330
1F
100
AcDbEntity
  8
Make2D$可见线$普通线
100
AcDbLine
 10
978.8237051438064
 20
741.6073568471775
 30
0.0
 11
978.7729005163092
 21
741.6073568471775
 31
0.0
  0
LINE
  5
80
330
1F
100
AcDbEntity
  8
Make2D$可见线$普通线
100
AcDbLine
 10
978.9062849114725
 20
741.6073568471784
 30
0.0
 11
978.8549691902481
 21
741.6073568471784
 31
0.0
  0
LINE
  5
81
330
1F
100
AcDbEntity
  8
Make2D$可见线$普通线
100
AcDbLine
 10
978.9693716839465
 20
741.6073568471768
 30
0.0
 11
978.9190367611191
 21
741.6073568471775
 31
0.0
  0
LINE
  5
82
330
1F
100
AcDbEntity
  8
Make2D$可见线$普通线
100
AcDbLine
 10
979.0441042887837
 20
741.6073568471775
 30
0.0
 11
978.9840960443917
 21
741.6073568471775
 31
0.0
  0
LINE
  5
83
330
1F
100
AcDbEntity
  8
Make2D$可见线$普通线
100
AcDbLine
 10
979.1303575073039
 20
741.6073568471775
 30
0.0
 11
979.0605880301491
 21
741.6073568471775
 31
0.0
  0
LINE
  5
84
330
1F
100
AcDbEntity
  8
Make2D$可见线$普通线
100
AcDbLine
 10
979.2280061208698
 20
741.6073568471784
 30
0.0
 11
979.1483905079444
 21
741.6073568471779
 31
0.0
  0
LINE
  5
85
330
1F
100
AcDbEntity
  8
Make2D$可见线$普通线
100
AcDbLine
 10
979.3369249108514
 20
741.6073568471772
 30
0.0
 11
979.2473812673325
 21
741.6073568471772
 31
0.0
  0
LINE
  5
86
330
1F
100
AcDbEntity
  8
Make2D$可见线$普通线
100
AcDbLine
 10
979.456988658625
 20
741.6073568471777
 30
0.0
 11
979.3574380978685
 21
741.6073568471777
 31
0.0
  0
LINE
  5
87
330
1F
100
AcDbEntity
  8
Make2D$可见线$普通线
100
AcDbLine
 10
979.5880721455646
 20
741.6073568471775
 30
0.0
 11
979.4784387891059
 21
741.6073568471775
 31
0.0
  0
LINE
  5
88
330
1F
100
AcDbEntity
  8
Make2D$可见线$普通线
100
AcDbLine
 10
979.7300501530458
 20
741.6073568471779
 30
0.0
 11
979.6102611305996
 21
741.607356847177
 31
0.0
  0
LINE
  5
89
330
1F
100
AcDbEntity
  8
Make2D$可见线$普通线
100
AcDbLine
 10
979.882797466103
 20
741.6073568471779
 30
0.0
 11
979.7527829119053
 21
741.6073568471779
 31
0.0
  0
LINE
  5
8A
330
1F
100
AcDbEntity
  8
Make2D$可见线$普通线
100
AcDbLine
 10
980.0461888706077
 20
741.6073568471772
 30
0.0
 11
979.9058819225752
 21
741.6073568471772
 31
0.0
  0
LINE
  5
8B
330
1F
100
AcDbEntity
  8
Make2D$可见线$普通线
100
AcDbLine
 10
980.2200990948581
 20
741.6073568471777
 30
0.0
 11
980.0694359521658
 21
741.6073568471777
 31
0.0
  0
LINE
  5
8C
330
1F
100
AcDbEntity
  8
Make2D$可见线$普通线
100
AcDbLine
 10
980.4044030032219
 20
741.6073568471775
 30
0.0
 11
980.2433227902306
 21
741.6073568471775
 31
0.0
  0
LINE
  5
8D
330
1F
100
AcDbEntity
  8
Make2D$可见线$普通线
100
AcDbLine
 10
980.9483768925588
 20
741.6073568471777
 30
0.0
 11
980.4274202263241
 21
741.6073568471777
 31
0.0
  0
LINE
  5
8E
330
1F
100
AcDbEntity
  8
Make2D$可见线$普通线
100
AcDbLine
 10
981.2772403082627
 20
741.6073568471775
 30
0.0
 11
981.2634717420774
 21
741.6073568471775
 31
0.0
  0
LINE
  5
8F
330
1F
100
AcDbEntity
  8
Make2D$可见线$普通线
100
AcDbLine
 10
981.9118448910895
 20
741.6073568471775
 30
0.0
 11
981.7395836165442
 21
741.6073568471775
 31
0.0
  0
LINE
  5
90
330
1F
100
AcDbEntity
  8
Make2D$可见线$普通线
100
AcDbLine
 10
984.3310504282535
 20
741.6073568471775
 30
0.0
 11
982.5101911454203
 21
741.6073568471775
 31
0.0
  0
LINE
  5
91
330
1F
100
AcDbEntity
  8
Make2D$可见线$普通线
100
AcDbLine
 10
981.7699211845115
 20
741.6073568471777
 30
0.0
 11
981.7699211845115
 21
742.6073568471772
 31
0.0
  0
LINE
  5
92
330
1F
100
AcDbEntity
  8
Make2D$可见线$普通线
100
AcDbLine
 10
1013.769921184512
 20
742.6073568471768
 30
0.0
 11
1013.769921184512
 21
741.607356847177
 31
0.0
  0
LINE
  5
93
330
1F
100
AcDbEntity
  8
Make2D$可见线$普通线
100
AcDbLine
 10
1008.202848515942
 20
746.6073568471779
 30
0.0
 11
1007.918531037481
 21
746.6073568471775
 31
0.0
  0
LINE
  5
94
330
1F
100
AcDbEntity
  8
Make2D$可见线$普通线
100
AcDbLine
 10
1008.481273416375
 20
746.6073568471775
 30
0.0
 11
1008.220123056648
 21
746.6073568471775
 31
0.0
  0
LINE
  5
95
330
1F
100
AcDbEntity
  8
Make2D$可见线$普通线
100
AcDbLine
 10
1008.733144687549
 20
746.6073568471775
 30
0.0
 11
1008.497002990729
 21
746.6073568471775
 31
0.0
  0
LINE
  5
96
330
1F
100
AcDbEntity
  8
Make2D$可见线$普通线
100
AcDbLine
 10
1008.958232260577
 20
746.6073568471779
 30
0.0
 11
1008.748480471764
 21
746.6073568471775
 31
0.0
  0
LINE
  5
97
330
1F
100
AcDbEntity
  8
Make2D$可见线$普通线
100
AcDbLine
 10
1009.156306044495
 20
746.6073568471779
 30
0.0
 11
1008.9738651316
 21
746.6073568471779
 31
0.0
  0
LINE
  5
98
330
1F
100
AcDbEntity
  8
Make2D$可见线$普通线
100
AcDbLine
 10
1009.470491940732
 20
746.6073568471775
 30
0.0
 11
1009.172466602044
 21
746.6073568471772
 31
0.0
  0
LINE
  5
99
330
1F
100
AcDbEntity
  8
Make2D$可见线$普通线
100
AcDbLine
 10
1009.586143897373
 20
746.6073568471775
 30
0.0
 11
1009.486558505593
 21
746.6073568471775
 31
0.0
  0
LINE
  5
9A
330
1F
100
AcDbEntity
  8
Make2D$可见线$普通线
100
AcDbLine
 10
1009.643302180138
 20
746.6073568471768
 30
0.0
 11
1009.628318470576
 21
746.6073568471775
 31
0.0
  0
LINE
  5
9B
330
1F
100
AcDbEntity
  8
Make2D$可见线$普通线
100
AcDbLine
 10
1009.767109870408
 20
746.6073568471775
 30
0.0
 11
1009.760664554187
 21
746.6073568471775
 31
0.0
  0
ARC
  5
9C
330
1F
100
AcDbEntity
  8
Make2D$可见线$普通线
100
AcDbCircle
 10
1009.769485081804
 20
742.6074191365628
 30
0.0
 40
3.999937711099935
100
AcDbArc
 50
359.9991077563963
 51
89.99910748015085
  0
ARC
  5
9D
330
1F
100
AcDbEntity
  8
Make2D$可见线$普通线
100
AcDbCircle
 10
985.7703572794985
 20
742.6074191442278
 30
0.0
 40
3.999937703434078
100
AcDbArc
 50
90.00089240863456
 51
180.0008923534131
  0
LINE
  5
9E
330
1F
100
AcDbEntity
  8
Make2D$可见线$普通线
100
AcDbLine
 10
985.78077856038
 20
746.6073568471772
 30
0.0
 11
985.7787819703517
 21
746.607356847177
 31
0.0
  0
LINE
  5
9F
330
1F
100
AcDbEntity
  8
Make2D$可见线$普通线
100
AcDbLine
 10
985.8123244623412
 20
746.607356847177
 30
0.0
 11
985.7990518596644
 21
746.607356847177
 31
0.0
  0
LINE
  5
A0
330
1F
100
AcDbEntity
  8
Make2D$可见线$普通线
100
AcDbLine
 10
985.9391741663644
 20
746.607356847177
 30
0.0
 11
985.8643006107372
 21
746.607356847177
 31
0.0
  0
LINE
  5
A1
330
1F
100
AcDbEntity
  8
Make2D$可见线$普通线
100
AcDbLine
 10
929.6486389136749
 20
705.6077482512883
 30
0.0
 11
930.0445487846232
 21
707.6073576302986
 31
0.0
  0
ARC
  5
A2
330
1F
100
AcDbEntity
  8
Make2D$可见线$普通线
100
AcDbCircle
 10
933.6896865938959
 20
378.6073568469682
 30
0.0
 40
6.000003914636618
100
AcDbArc
 50
180.6152440978676
 51
183.1291929711586
  0
ARC
  5
A3
330
1F
100
AcDbEntity
  8
Make2D$可见线$普通线
100
AcDbCircle
 10
933.6939837387945
 20
378.607356158498
 30
0.0
 40
6.000004252181073
100
AcDbArc
 50
180.6114154524017
 51
224.8362537443997
  0
ARC
  5
A4
330
1F
100
AcDbEntity
  8
Make2D$可见线$普通线
100
AcDbCircle
 10
933.693971998844
 20
378.6073445672441
 30
0.0
 40
5.999987754286241
100
AcDbArc
 50
224.8367604294841
 51
267.3674230738804
  0
LINE
  5
A5
330
1F
100
AcDbEntity
  8
Make2D$可见线$普通线
100
AcDbLine
 10
927.684607148507
 20
378.5430284412244
 30
0.0
 11
924.1726315557194
 21
703.5856126419994
 31
0.0
  0
ARC
  5
A6
330
1F
100
AcDbEntity
  8
Make2D$可见线$普通线
100
AcDbCircle
 10
926.1778606104422
 20
703.6073583827158
 30
0.0
 40
1.999998464734725
100
AcDbArc
 50
90.00913663149126
 51
180.6208892552786
  0
LINE
  5
A7
330
1F
100
AcDbEntity
  8
Make2D$可见线$普通线
100
AcDbLine
 10
504.2172014672865
 20
372.630558515039
 30
0.0
 11
504.6802067513695
 21
372.6298793291444
 31
0.0
  0
ARC
  5
A8
330
1F
100
AcDbEntity
  8
Make2D$可见线$普通线
100
AcDbCircle
 10
453.1691039373937
 20
-11625.16554974875
 30
0.0
 40
11997.87251746428
100
AcDbArc
 50
89.83820695471515
 51
90.12066848270939
  0
SPLINE
  5
A9
330
1F
100
AcDbEntity
  8
Make2D$可见线$普通线
100
AcDbSpline
210
0.0
220
0.0
230
1.0
 70
     8
 71
     3
 72
    68
 73
    64
 74
     0
 42
0.000000001
 43
0.0000000001
 12
1.0
 22
0.0
 32
0.0
 13
1.0
 23
0.0
 33
0.0
 40
218.0033606303321
 40
218.0033606303321
 40
218.0033606303321
 40
218.0033606303321
 40
220.789323241898
 40
220.789323241898
 40
220.789323241898
 40
232.4607115806598
 40
232.4607115806598
 40
232.4607115806598
 40
245.1519976675362
 40
245.1519976675362
 40
245.1519976675362
 40
258.0313718762013
 40
258.0313718762013
 40
258.0313718762013
 40
270.0561673359516
 40
270.0561673359516
 40
270.0561673359516
 40
280.8780713042165
 40
280.8780713042165
 40
280.8780713042165
 40
290.5073022279787
 40
290.5073022279787
 40
290.5073022279787
 40
299.0366981054631
 40
299.0366981054631
 40
299.0366981054631
 40
306.6025501050217
 40
306.6025501050217
 40
306.6025501050217
 40
313.3361872057017
 40
313.3361872057017
 40
313.3361872057017
 40
319.4793655245624
 40
319.4793655245624
 40
319.4793655245624
 40
325.370634611975
 40
325.370634611975
 40
325.370634611975
 40
331.2518186778453
 40
331.2518186778453
 40
331.2518186778453
 40
337.1750774691855
 40
337.1750774691855
 40
337.1750774691855
 40
343.0723233546811
 40
343.0723233546811
 40
343.0723233546811
 40
348.912147748433
 40
348.912147748433
 40
348.912147748433
 40
354.8267896540377
 40
354.8267896540377
 40
354.8267896540377
 40
361.0549782674573
 40
361.0549782674573
 40
361.0549782674573
 40
367.7805406108609
 40
367.7805406108609
 40
367.7805406108609
 40
375.1003762313285
 40
375.1003762313285
 40
375.1003762313285
 40
380.1746468668668
 40
380.1746468668668
 40
380.1746468668668
 40
380.1746468668668
 10
505.7611216142662
 20
372.6282878925952
 30
0.0
 10
506.6737938049257
 20
372.6269324648586
 30
0.0
 10
507.5874976885208
 20
372.6255470190811
 30
0.0
 10
508.5020491724317
 20
372.6241323221072
 30
0.0
 10
512.3341017851226
 20
372.618204615105
 30
0.0
 10
516.1827658653901
 20
372.6117609860501
 30
0.0
 10
520.0412670549539
 20
372.604808456467
 30
0.0
 10
524.2367625949165
 20
372.5972487058214
 30
0.0
 10
528.4452702639112
 20
372.5890854715242
 30
0.0
 10
532.65873312991
 20
372.5805037266971
 30
0.0
 10
536.935060107777
 20
372.5717939437735
 30
0.0
 10
541.2185632766007
 20
372.562649190825
 30
0.0
 10
545.5048849345533
 20
372.5532434231508
 30
0.0
 10
549.5074805265994
 20
372.544460254915
 30
0.0
 10
553.5119758892182
 20
372.5354509426288
 30
0.0
 10
557.5188066831734
 20
372.5264922760325
 30
0.0
 10
561.1251780797626
 20
372.5184289759773
 30
0.0
 10
564.7321809175202
 20
372.5104118025829
 30
0.0
 10
568.3381183490789
 20
372.5036093136059
 30
0.0
 10
571.5476696584611
 20
372.4975545947382
 30
0.0
 10
574.7571179079638
 20
372.4924569947926
 30
0.0
 10
577.9663465289597
 20
372.4886930291614
 30
0.0
 10
580.8092097002386
 20
372.4853587577418
 30
0.0
 10
583.6521259860681
 20
372.4830713059146
 30
0.0
 10
586.4950892610069
 20
372.481813999696
 30
0.0
 10
589.0168874369222
 20
372.4806987293878
 30
0.0
 10
591.5386931742162
 20
372.4803940737593
 30
0.0
 10
594.0604948875056
 20
372.4808650945607
 30
0.0
 10
596.3049339914807
 20
372.4812843097198
 30
0.0
 10
598.5493774248515
 20
372.4823180098684
 30
0.0
 10
600.7938197628897
 20
372.4839016568367
 30
0.0
 10
602.8414687134325
 20
372.4853464491571
 30
0.0
 10
604.8891203660642
 20
372.4872489997825
 30
0.0
 10
606.9367707098775
 20
372.4895489648734
 30
0.0
 10
608.9004626710799
 20
372.4917546260959
 30
0.0
 10
610.8641616058048
 20
372.4943256865373
 30
0.0
 10
612.8278642117488
 20
372.4973097532011
 30
0.0
 10
614.7882152201607
 20
372.5002887267347
 30
0.0
 10
616.7485634887228
 20
372.5036792334477
 30
0.0
 10
618.7089057203262
 20
372.5074588591297
 30
0.0
 10
620.6832997733563
 20
372.5112655773373
 30
0.0
 10
622.6576802669427
 20
372.5154670795646
 30
0.0
 10
624.6320447731475
 20
372.5199852343139
 30
0.0
 10
626.5977784342505
 20
372.5244836381543
 30
0.0
 10
628.563493405512
 20
372.5292961369468
 30
0.0
 10
630.529188153724
 20
372.5343094235949
 30
0.0
 10
632.4757879039829
 20
372.5392740105662
 30
0.0
 10
634.4223664766848
 20
372.5444357049491
 30
0.0
 10
636.3689229852646
 20
372.5496741549376
 30
0.0
 10
638.3404643708933
 20
372.5549798426508
 30
0.0
 10
640.3119847043499
 20
372.5603644431102
 30
0.0
 10
642.2834834926247
 20
372.5657030448036
 30
0.0
 10
644.3595391839112
 20
372.5713247750799
 30
0.0
 10
646.4355763701866
 20
372.5768955907914
 30
0.0
 10
648.511594749494
 20
372.582302797048
 30
0.0
 10
650.7534402440556
 20
372.5881419173109
 30
0.0
 10
652.9952694384558
 20
372.5937901658243
 30
0.0
 10
655.2370818288691
 20
372.5991567198733
 30
0.0
 10
657.6770137075221
 20
372.6049975415051
 30
0.0
 10
660.1169343374609
 20
372.6105043981677
 30
0.0
 10
662.5568428557324
 20
372.6156291134382
 30
0.0
 10
664.2482625669307
 20
372.6191817238571
 30
0.0
 10
665.939674492677
 20
372.6225505582329
 30
0.0
 10
667.6310782959871
 20
372.6257278926826
 30
0.0
  0
SPLINE
  5
AA
330
1F
100
AcDbEntity
  8
Make2D$可见线$普通线
100
AcDbSpline
210
0.0
220
0.0
230
1.0
 70
     8
 71
     3
 72
    50
 73
    46
 74
     0
 42
0.000000001
 43
0.0000000001
 12
1.0
 22
0.0
 32
0.0
 13
1.0
 23
0.0
 33
0.0
 40
0.0
 40
0.0
 40
0.0
 40
0.0
 40
0.0555635542697527
 40
0.0555635542697527
 40
0.0555635542697527
 40
6.437604027770902
 40
6.437604027770902
 40
6.437604027770902
 40
12.92975022221653
 40
12.92975022221653
 40
12.92975022221653
 40
19.71391616547568
 40
19.71391616547568
 40
19.71391616547568
 40
26.47794667865692
 40
26.47794667865692
 40
26.47794667865692
 40
32.86384030121314
 40
32.86384030121314
 40
32.86384030121314
 40
38.87617460501376
 40
38.87617460501376
 40
38.87617460501376
 40
44.82103659960841
 40
44.82103659960841
 40
44.82103659960841
 40
50.86313862791825
 40
50.86313862791825
 40
50.86313862791825
 40
56.9207117192817
 40
56.9207117192817
 40
56.9207117192817
 40
62.89560702392437
 40
62.89560702392437
 40
62.89560702392437
 40
68.88936879423328
 40
68.88936879423328
 40
68.88936879423328
 40
75.21373558444962
 40
75.21373558444962
 40
75.21373558444962
 40
82.18863983998845
 40
82.18863983998845
 40
82.18863983998845
 40
87.46431231217595
 40
87.46431231217595
 40
87.46431231217595
 40
87.46431231217595
 10
409.7257934441459
 20
372.4466940954496
 30
0.0
 10
409.7414847070524
 20
372.4467580266902
 30
0.0
 10
409.7571759699588
 20
372.4468219579308
 30
0.0
 10
409.7728672328653
 20
372.4468858891714
 30
0.0
 10
409.7912645696151
 20
372.4476654077228
 30
0.0
 10
409.8250425150586
 20
372.4491162660718
 30
0.0
 10
409.8729039627651
 20
372.4512193698049
 30
0.0
 10
409.921592249123
 20
372.4533588060669
 30
0.0
 10
409.9867555659889
 20
372.4562565289764
 30
0.0
 10
410.0671487707195
 20
372.4598481418618
 30
0.0
 10
410.1511603648432
 20
372.4636014083846
 30
0.0
 10
410.254310586959
 20
372.4682242878437
 30
0.0
 10
410.3749580737372
 20
372.4735236995202
 30
0.0
 10
410.4952525293338
 20
372.4788076043869
 30
0.0
 10
410.6349826215837
 20
372.4848535237188
 30
0.0
 10
410.7928824670371
 20
372.4913666101911
 30
0.0
 10
410.9419626345934
 20
372.4975159007108
 30
0.0
 10
411.1077874083826
 20
372.5041048225939
 30
0.0
 10
411.2899409617135
 20
372.5108847083002
 30
0.0
 10
411.4614455619735
 20
372.5172682323464
 30
0.0
 10
411.6472381368626
 20
372.5238148407079
 30
0.0
 10
411.8474466929119
 20
372.530360679204
 30
0.0
 10
412.045416944165
 20
372.5368333361039
 30
0.0
 10
412.2588667208915
 20
372.5433440284178
 30
0.0
 10
412.4834387380165
 20
372.5496850175168
 30
0.0
 10
412.7116897438955
 20
372.5561298861112
 30
0.0
 10
412.9513644515896
 20
372.5624099955367
 30
0.0
 10
413.2060673257001
 20
372.5685918347908
 30
0.0
 10
413.4613010708522
 20
372.5747865587027
 30
0.0
 10
413.7324689316169
 20
372.5808963411107
 30
0.0
 10
414.0263273216124
 20
372.5867137454795
 30
0.0
 10
414.3161962582194
 20
372.5924521721352
 30
0.0
 10
414.6280099832043
 20
372.5979027435585
 30
0.0
 10
414.9690557977192
 20
372.6030297287114
 30
0.0
 10
415.3113515962978
 20
372.6081755050343
 30
0.0
 10
415.6825640931538
 20
372.6129904545066
 30
0.0
 10
416.0864624149517
 20
372.6175238579233
 30
0.0
 10
416.5125733104228
 20
372.6223065779438
 30
0.0
 10
416.9749124378127
 20
372.6267736436346
 30
0.0
 10
417.4778022117002
 20
372.6309528765476
 30
0.0
 10
418.032397398862
 20
372.6355618039504
 30
0.0
 10
418.6361564278859
 20
372.6398191601991
 30
0.0
 10
419.2942999866577
 20
372.6437652914753
 30
0.0
 10
419.7920356604504
 20
372.6467496408375
 30
0.0
 10
420.3209078638033
 20
372.6495560561996
 30
0.0
 10
420.8832904239994
 20
372.652192168079
 30
0.0
  0
LINE
  5
AB
330
1F
100
AcDbEntity
  8
Make2D$可见线$普通线
100
AcDbLine
 10
997.0985391065228
 20
309.4160330230363
 30
0.0
 11
1036.684999570447
 21
314.6276894133457
 31
0.0
  0
LINE
  5
AC
330
1F
100
AcDbEntity
  8
Make2D$可见线$普通线
100
AcDbLine
 10
968.0080526291213
 20
57.2315386652233
 30
0.0
 11
968.0165320773067
 21
57.16379756663696
 31
0.0
  0
ARC
  5
AD
330
1F
100
AcDbEntity
  8
Make2D$可见线$普通线
100
AcDbCircle
 10
1032.769924014919
 20
344.3711270767183
 30
0.0
 40
29.99999763067004
100
AcDbArc
 50
277.4999724605876
 51
359.9999234841329
  0
SPLINE
  5
AE
330
1F
100
AcDbEntity
  8
Make2D$可见线$普通线
100
AcDbSpline
210
0.0
220
0.0
230
1.0
 70
    12
 71
     2
 72
    10
 73
     7
 74
     0
 42
0.000000001
 43
0.0000000001
 12
1.0
 22
0.0
 32
0.0
 13
1.0
 23
0.0
 33
0.0
 40
0.0
 40
0.0
 40
0.0
 40
29.50244604161783
 40
29.50244604161783
 40
59.75161714111813
 40
59.75161714111813
 40
74.8752268973772
 40
74.8752268973772
 40
74.8752268973772
 10
968.0264304676052
 20
57.07837842874505
 30
0.0
 41
1.0
 10
969.7398076497399
 20
42.42691369493365
 30
0.0
 41
0.9999913846747062
 10
971.3314911675158
 20
27.76172962538925
 30
0.0
 41
1.0
 10
972.9611748321837
 20
12.72498539432316
 30
0.0
 41
0.9999788275385111
 10
974.3950285184478
 20
-2.331694502778163
 30
0.0
 41
1.0
 10
975.1105404550888
 20
-9.85960692333883
 30
0.0
 41
0.9999930520048999
 10
975.7699089049383
 20
-17.39264455701959
 30
0.0
 41
1.0
  0
LINE
  5
AF
330
1F
100
AcDbEntity
  8
Make2D$可见线$普通线
100
AcDbLine
 10
1062.769921184512
 20
344.3845275706972
 30
0.0
 11
1062.769921184512
 21
368.6073568471775
 31
0.0
  0
SPLINE
  5
B0
330
1F
100
AcDbEntity
  8
Make2D$可见线$普通线
100
AcDbSpline
210
0.0
220
0.0
230
1.0
 70
    12
 71
     3
 72
    17
 73
    13
 74
     0
 42
0.000000001
 43
0.0000000001
 12
1.0
 22
0.0
 32
0.0
 13
1.0
 23
0.0
 33
0.0
 40
5.740452656309361
 40
5.740452656309361
 40
5.740452656309361
 40
5.740452656309361
 40
7.369287690105807
 40
7.369287690105807
 40
7.369287690105807
 40
8.647155533087542
 40
8.647155533087542
 40
8.647155533087542
 40
10.57728605725892
 40
10.57728605725892
 40
10.57728605725892
 40
12.80858707864306
 40
12.80858707864306
 40
12.80858707864306
 40
12.80858707864306
 10
1022.861995800157
 20
362.7909866306018
 30
0.0
 41
1.0
 10
1022.874555714473
 20
362.8194863760846
 30
0.0
 41
1.0
 10
1022.832321214074
 20
362.7028627584461
 30
0.0
 41
1.0
 10
1022.798205474071
 20
362.5158281762087
 30
0.0
 41
1.0
 10
1022.727375871259
 20
362.0956932116639
 30
0.0
 41
0.9994946033569596
 10
1022.672956197632
 20
361.6731192889139
 30
0.0
 41
0.9994946033569603
 10
1022.635028963751
 20
361.2487471102804
 30
0.0
 41
1.0
 10
1022.576283237767
 20
360.6080017381509
 30
0.0
 41
0.9998262576679425
 10
1022.532180339374
 20
359.9660822520937
 30
0.0
 41
0.9998262576679425
 10
1022.502743256192
 20
359.3233232378743
 30
0.0
 41
1.0
 10
1022.467885167089
 20
358.5803449784075
 30
0.0
 41
0.9999233250192926
 10
1022.44429919724
 20
357.8369235081482
 30
0.0
 41
0.9999233250192926
 10
1022.431990772005
 20
357.0932298325772
 30
0.0
 41
1.0
  0
SPLINE
  5
B1
330
1F
100
AcDbEntity
  8
Make2D$可见线$普通线
100
AcDbSpline
210
0.0
220
0.0
230
1.0
 70
    12
 71
     2
 72
    12
 73
     9
 74
     0
 42
0.000000001
 43
0.0000000001
 12
1.0
 22
0.0
 32
0.0
 13
1.0
 23
0.0
 33
0.0
 40
0.0
 40
0.0
 40
0.0
 40
2.516786844787737
 40
2.516786844787737
 40
4.91789566367921
 40
4.91789566367921
 40
7.085844636147607
 40
7.085844636147607
 40
8.600047033349268
 40
8.600047033349268
 40
8.600047033349268
 10
1022.09857918432
 20
335.4979837777521
 30
0.0
 41
1.0
 10
1022.081266959596
 20
334.2396539608653
 30
0.0
 41
0.9999338716917122
 10
1022.092899231444
 20
332.9812588196464
 30
0.0
 41
1.0
 10
1022.103400839245
 20
331.7806836165872
 30
0.0
 41
0.9999166423715568
 10
1022.14489895206
 20
330.5807798668638
 30
0.0
 41
1.0
 10
1022.180972590799
 20
329.4972619654391
 30
0.0
 41
0.9998011175198304
 10
1022.260226251779
 20
328.4160445001062
 30
0.0
 41
1.0
 10
1022.313520116368
 20
327.6604557058538
 30
0.0
 41
0.9992778484784491
 10
1022.424039029694
 20
326.9110958244885
 30
0.0
 41
1.0
  0
LINE
  5
B2
330
1F
100
AcDbEntity
  8
Make2D$可见线$普通线
100
AcDbLine
 10
1022.431380801871
 20
357.0577033034951
 30
0.0
 11
1022.098978359503
 21
335.5264009753091
 31
0.0
  0
SPLINE
  5
B3
330
1F
100
AcDbEntity
  8
Make2D$可见线$普通线
100
AcDbSpline
210
0.0
220
0.0
230
1.0
 70
    12
 71
     2
 72
    10
 73
     7
 74
     0
 42
0.000000001
 43
0.0000000001
 12
1.0
 22
0.0
 32
0.0
 13
1.0
 23
0.0
 33
0.0
 40
0.0
 40
0.0
 40
0.0
 40
8.667472152022171
 40
8.667472152022171
 40
18.06903509550592
 40
18.06903509550592
 40
24.22256514957396
 40
24.22256514957396
 40
24.22256514957396
 10
484.2273763281164
 20
167.8146008939602
 30
0.0
 41
1.0
 10
482.4042193407777
 20
171.7485535996924
 30
0.0
 41
0.999257280972403
 10
480.2835182658259
 20
175.5304198376916
 30
0.0
 41
1.0
 10
477.9687567507542
 20
179.6241315779675
 30
0.0
 41
0.9993471873541806
 10
475.3644393143923
 20
183.5400130080916
 30
0.0
 41
1.0
 10
473.6635470320394
 20
186.1041913538678
 30
0.0
 41
0.9998762585129316
 10
471.8828318469587
 20
188.6135933891619
 30
0.0
 41
1.0
  0
LINE
  5
B4
330
1F
100
AcDbEntity
  8
Make2D$可见线$普通线
100
AcDbLine
 10
484.5528978547586
 20
167.1071311577693
 30
0.0
 11
484.5141204681895
 21
167.192057311408
 31
0.0
  0
LINE
  5
B5
330
1F
100
AcDbEntity
  8
Make2D$可见线$普通线
100
AcDbLine
 10
485.4684991195859
 20
165.1063110720393
 30
0.0
 11
484.8200737736811
 21
166.5215993677234
 31
0.0
  0
ARC
  5
B6
330
1F
100
AcDbEntity
  8
Make2D$可见线$普通线
100
AcDbCircle
 10
178.9268916274988
 20
28.65815358880459
 30
0.0
 40
335.5438501672821
100
AcDbArc
 50
23.95017585882424
 51
24.68283411274326
  0
LINE
  5
B7
330
1F
100
AcDbEntity
  8
Make2D$可见线$普通线
100
AcDbLine
 10
484.5169060855496
 20
167.1933050452262
 30
0.0
 11
483.9483758292581
 21
168.4688815330064
 31
0.0
  0
LINE
  5
B8
330
1F
100
AcDbEntity
  8
Make2D$可见线$普通线
100
AcDbLine
 10
484.5770959696729
 20
167.0587069280821
 30
0.0
 11
484.555015600663
 21
167.1080784457299
 31
0.0
  0
SPLINE
  5
B9
330
1F
100
AcDbEntity
  8
Make2D$可见线$普通线
100
AcDbSpline
210
0.0
220
0.0
230
1.0
 70
     8
 71
     3
 72
    11
 73
     7
 74
     0
 42
0.000000001
 43
0.0000000001
 12
1.0
 22
0.0
 32
0.0
 13
1.0
 23
0.0
 33
0.0
 40
0.0
 40
0.0
 40
0.0
 40
0.0
 40
2.596851929903717
 40
4.964386864552522
 40
9.628424252269609
 40
18.7884124817148
 40
18.7884124817148
 40
18.7884124817148
 40
18.7884124817148
 10
491.0727331834569
 20
149.4455064447147
 30
0.0
 10
490.8247732983232
 20
150.2748987906568
 30
0.0
 10
490.3409787283845
 20
151.8572946496356
 30
0.0
 10
489.368079481545
 20
154.9160155396912
 30
0.0
 10
487.5898064371031
 20
160.0125955683575
 30
0.0
 10
485.8409565131738
 20
164.2792101515117
 30
0.0
 10
484.5753320794474
 20
167.05791802199
 30
0.0
  0
SPLINE
  5
BA
330
1F
100
AcDbEntity
  8
Make2D$可见线$普通线
100
AcDbSpline
210
0.0
220
0.0
230
1.0
 70
    12
 71
     3
 72
    20
 73
    16
 74
     0
 42
0.000000001
 43
0.0000000001
 12
1.0
 22
0.0
 32
0.0
 13
1.0
 23
0.0
 33
0.0
 40
0.0
 40
0.0
 40
0.0
 40
0.0
 40
17.51882692655431
 40
17.51882692655431
 40
17.51882692655431
 40
35.03705752777184
 40
35.03705752777184
 40
35.03705752777184
 40
52.55621950388048
 40
52.55621950388048
 40
52.55621950388048
 40
55.29185731342692
 40
57.56564258184378
 40
61.91750868048103
 40
70.07372551433727
 40
70.07372551433727
 40
70.07372551433727
 40
70.07372551433727
 10
500.6040062435786
 20
42.60735153592304
 30
0.0
 41
1.0
 10
500.5544547109382
 20
48.4467647341913
 30
0.0
 41
0.9999950480507961
 10
500.4823965718797
 20
54.28594357021711
 30
0.0
 41
0.9999950480507961
 10
500.387832896888
 20
60.12480129804953
 30
0.0
 41
1.0
 10
500.2939197744803
 20
65.96350092106543
 30
0.0
 41
0.9999859787373825
 10
500.1621410944982
 20
71.80146448408364
 30
0.0
 41
0.9999859787407254
 10
499.9925023328827
 20
77.63845059628873
 30
0.0
 41
1.000000000010029
 10
499.8285076164988
 20
83.47601559064114
 30
0.0
 41
0.9999493501484297
 10
499.5925683280729
 20
89.31111558828174
 30
0.0
 41
0.9999493501484298
 10
499.2847203184832
 20
95.14286394818917
 30
0.0
 41
1.000000000010029
 10
499.2353351694259
 20
96.05340836583602
 30
0.0
 41
1.000000000010029
 10
499.1406787867912
 20
97.72052777443285
 30
0.0
 41
1.000000000010029
 10
498.9464202075118
 20
100.8349310657354
 30
0.0
 41
1.000000000010029
 10
498.5994968732551
 20
105.7500431847766
 30
0.0
 41
1.000000000010029
 10
498.229718601839
 20
109.9033542993727
 30
0.0
 41
1.000000000010029
 10
497.9461053280397
 20
112.6072795354839
 30
0.0
 41
1.000000000010029
  0
ARC
  5
BB
330
1F
100
AcDbEntity
  8
Make2D$可见线$普通线
100
AcDbCircle
 10
1058.769921184511
 20
368.6073568471772
 30
0.0
 40
4.000000000000227
100
AcDbArc
 50
0.0000000000032569
 51
90.00000000022472
  0
LINE
  5
BC
330
1F
100
AcDbEntity
  8
Make2D$可见线$普通线
100
AcDbLine
 10
786.2554763239617
 20
372.6073031141615
 30
0.0
 11
874.9750440470551
 21
372.60725238336
 31
0.0
  0
LINE
  5
BD
330
1F
100
AcDbEntity
  8
Make2D$可见线$普通线
100
AcDbLine
 10
462.4308220786747
 20
201.4982634728949
 30
0.0
 11
462.7134457961047
 21
201.115542143832
 31
0.0
  0
LINE
  5
BE
330
1F
100
AcDbEntity
  8
Make2D$可见线$普通线
100
AcDbLine
 10
462.7126979507348
 20
201.1149909406063
 30
0.0
 11
462.1713914899647
 21
201.8483478583025
 31
0.0
  0
LINE
  5
BF
330
1F
100
AcDbEntity
  8
Make2D$可见线$普通线
100
AcDbLine
 10
464.2787306299329
 20
199.0010151682204
 30
0.0
 11
464.2578776144264
 21
199.0291220685865
 31
0.0
  0
LINE
  5
C0
330
1F
100
AcDbEntity
  8
Make2D$可见线$普通线
100
AcDbLine
 10
464.2774456758457
 20
199.0000615615554
 30
0.0
 11
466.8659027273579
 21
195.5130960288088
 31
0.0
  0
ARC
  5
C1
330
1F
100
AcDbEntity
  8
Make2D$可见线$普通线
100
AcDbCircle
 10
769.4454065795543
 20
430.1360892579741
 30
0.0
 40
382.801756705663
100
AcDbArc
 50
216.5033143039749
 51
216.6010716892285
  0
LINE
  5
C2
330
1F
100
AcDbEntity
  8
Make2D$可见线$普通线
100
AcDbLine
 10
922.2322969999623
 20
709.6772607052972
 30
0.0
 11
922.9145927400646
 21
729.213892399499
 31
0.0
  0
ARC
  5
C3
330
1F
100
AcDbEntity
  8
Make2D$可见线$普通线
100
AcDbCircle
 10
928.9194255327617
 20
729.0042227173489
 30
0.0
 40
5.999980268969864
100
AcDbArc
 50
95.86825358139205
 51
134.8350862600767
  0
ARC
  5
C4
330
1F
100
AcDbEntity
  8
Make2D$可见线$普通线
100
AcDbCircle
 10
928.9194449620097
 20
729.0042034450527
 30
0.0
 40
6.000007634670044
100
AcDbArc
 50
134.83536459366
 51
177.9954342905942
  0
ARC
  5
C5
330
1F
100
AcDbEntity
  8
Make2D$可见线$普通线
100
AcDbCircle
 10
1068.848647983829
 20
729.021167021859
 30
0.0
 40
5.999999153570467
100
AcDbArc
 50
4.305498167260106
 51
14.80810014487435
  0
ARC
  5
C6
330
1F
100
AcDbEntity
  8
Make2D$可见线$普通线
100
AcDbCircle
 10
1068.848647058592
 20
729.0211653798277
 30
0.0
 40
6.000001207444115
100
AcDbArc
 50
84.140298943274
 51
84.19004109076587
  0
ARC
  5
C7
330
1F
100
AcDbEntity
  8
Make2D$可见线$普通线
100
AcDbCircle
 10
1068.848647137251
 20
729.0211661421584
 30
0.0
 40
6.000000441072778
100
AcDbArc
 50
87.0044479932997
 51
89.57788587042356
  0
ARC
  5
C8
330
1F
100
AcDbEntity
  8
Make2D$可见线$普通线
100
AcDbCircle
 10
1068.848648019039
 20
729.0211670255146
 30
0.0
 40
5.999999118184852
100
AcDbArc
 50
359.9935488684335
 51
4.305498146050337
  0
ARC
  5
C9
330
1F
100
AcDbEntity
  8
Make2D$可见线$普通线
100
AcDbCircle
 10
1068.848647326693
 20
729.0211666941248
 30
0.0
 40
5.999999872643407
100
AcDbArc
 50
14.80810156913376
 51
84.14029997019337
  0
ARC
  5
CA
330
1F
100
AcDbEntity
  8
Make2D$可见线$普通线
100
AcDbCircle
 10
924.2359952732052
 20
709.60735563679
 30
0.0
 40
1.999998792204294
100
AcDbArc
 50
178.0018771251724
 51
269.8928370402199
  0
ARC
  5
CB
330
1F
100
AcDbEntity
  8
Make2D$可见线$普通线
100
AcDbCircle
 10
924.2319549392864
 20
709.6073565106325
 30
0.0
 40
1.999999734684744
100
AcDbArc
 50
230.1608920494829
 51
230.4973558895261
  0
LINE
  5
CC
330
1F
100
AcDbEntity
  8
Make2D$可见线$普通线
100
AcDbLine
 10
1011.20879194077
 20
741.607356847177
 30
0.0
 11
997.769921184512
 21
741.6073568471775
 31
0.0
  0
LINE
  5
CD
330
1F
100
AcDbEntity
  8
Make2D$可见线$普通线
100
AcDbLine
 10
1013.627997455998
 20
741.6073568471775
 30
0.0
 11
1013.029651223319
 21
741.6073568471775
 31
0.0
  0
LINE
  5
CE
330
1F
100
AcDbEntity
  8
Make2D$可见线$普通线
100
AcDbLine
 10
1014.262602060761
 20
741.6073568471775
 30
0.0
 11
1013.800258752479
 21
741.6073568471775
 31
0.0
  0
LINE
  5
CF
330
1F
100
AcDbEntity
  8
Make2D$可见线$普通线
100
AcDbLine
 10
1014.591465476465
 20
741.6073568471775
 30
0.0
 11
1014.276370626945
 21
741.6073568471775
 31
0.0
  0
LINE
  5
D0
330
1F
100
AcDbEntity
  8
Make2D$可见线$普通线
100
AcDbLine
 10
1015.135439353113
 20
741.6073568471775
 30
0.0
 11
1015.112422142695
 21
741.6073568471775
 31
0.0
  0
LINE
  5
D1
330
1F
100
AcDbEntity
  8
Make2D$可见线$普通线
100
AcDbLine
 10
1015.319743256522
 20
741.6073568471779
 30
0.0
 11
1015.296519578787
 21
741.6073568471779
 31
0.0
  0
LINE
  5
D2
330
1F
100
AcDbEntity
  8
Make2D$可见线$普通线
100
AcDbLine
 10
1015.493653513885
 20
741.6073568471779
 30
0.0
 11
1015.470406416847
 21
741.6073568471779
 31
0.0
  0
LINE
  5
D3
330
1F
100
AcDbEntity
  8
Make2D$可见线$普通线
100
AcDbLine
 10
1015.657044906578
 20
741.6073568471777
 30
0.0
 11
1015.633960446431
 21
741.6073568471777
 31
0.0
  0
LINE
  5
D4
330
1F
100
AcDbEntity
  8
Make2D$可见线$普通线
100
AcDbLine
 10
1015.809792215979
 20
741.6073568471775
 30
0.0
 11
1015.787059457091
 21
741.6073568471775
 31
0.0
  0
LINE
  5
D5
330
1F
100
AcDbEntity
  8
Make2D$可见线$普通线
100
AcDbLine
 10
1015.95177022346
 20
741.6073568471779
 30
0.0
 11
1015.929581238378
 21
741.6073568471779
 31
0.0
  0
LINE
  5
D6
330
1F
100
AcDbEntity
  8
Make2D$可见线$普通线
100
AcDbLine
 10
1016.0828537104
 20
741.6073568471775
 30
0.0
 11
1016.061403579841
 21
741.6073568471775
 31
0.0
  0
LINE
  5
D7
330
1F
100
AcDbEntity
  8
Make2D$可见线$普通线
100
AcDbLine
 10
1016.202917458173
 20
741.6073568471775
 30
0.0
 11
1016.182404271023
 21
741.6073568471775
 31
0.0
  0
LINE
  5
D8
330
1F
100
AcDbEntity
  8
Make2D$可见线$普通线
100
AcDbLine
 10
1016.311836248157
 20
741.6073568471775
 30
0.0
 11
1016.292461101455
 21
741.6073568471775
 31
0.0
  0
LINE
  5
D9
330
1F
100
AcDbEntity
  8
Make2D$可见线$普通线
100
AcDbLine
 10
1016.409484861728
 20
741.6073568471775
 30
0.0
 11
1016.391451860632
 21
741.6073568471775
 31
0.0
  0
LINE
  5
DA
330
1F
100
AcDbEntity
  8
Make2D$可见线$普通线
100
AcDbLine
 10
1016.49573808026
 20
741.6073568471775
 30
0.0
 11
1016.479254337973
 21
741.6073568471775
 31
0.0
  0
LINE
  5
DB
330
1F
100
AcDbEntity
  8
Make2D$可见线$普通线
100
AcDbLine
 10
1016.570470685131
 20
741.6073568471784
 30
0.0
 11
1016.555746322643
 21
741.6073568471784
 31
0.0
  0
LINE
  5
DC
330
1F
100
AcDbEntity
  8
Make2D$可见线$普通线
100
AcDbLine
 10
1016.633557457715
 20
741.6073568471786
 30
0.0
 11
1016.620805602966
 21
741.6073568471779
 31
0.0
  0
LINE
  5
DD
330
1F
100
AcDbEntity
  8
Make2D$可见线$普通线
100
AcDbLine
 10
1016.716137225236
 20
741.6073568471775
 30
0.0
 11
1016.68487317939
 21
741.6073568471775
 31
0.0
  0
LINE
  5
DE
330
1F
100
AcDbEntity
  8
Make2D$可见线$普通线
100
AcDbLine
 10
978.8549691896337
 20
741.6073568471782
 30
0.0
 11
978.8237051437868
 21
741.6073568471777
 31
0.0
  0
LINE
  5
DF
330
1F
100
AcDbEntity
  8
Make2D$可见线$普通线
100
AcDbLine
 10
978.9190367660576
 20
741.6073568471779
 30
0.0
 11
978.9062849113088
 21
741.6073568471779
 31
0.0
  0
LINE
  5
E0
330
1F
100
AcDbEntity
  8
Make2D$可见线$普通线
100
AcDbLine
 10
978.9840960463807
 20
741.6073568471775
 30
0.0
 11
978.9693716838933
 21
741.6073568471775
 31
0.0
  0
LINE
  5
E1
330
1F
100
AcDbEntity
  8
Make2D$可见线$普通线
100
AcDbLine
 10
979.0605880310509
 20
741.6073568471775
 30
0.0
 11
979.0441042887637
 21
741.6073568471775
 31
0.0
  0
LINE
  5
E2
330
1F
100
AcDbEntity
  8
Make2D$可见线$普通线
100
AcDbLine
 10
979.1483905083905
 20
741.6073568471779
 30
0.0
 11
979.1303575072961
 21
741.6073568471779
 31
0.0
  0
LINE
  5
E3
330
1F
100
AcDbEntity
  8
Make2D$可见线$普通线
100
AcDbLine
 10
979.2473812675689
 20
741.6073568471772
 30
0.0
 11
979.2280061208662
 21
741.6073568471772
 31
0.0
  0
LINE
  5
E4
330
1F
100
AcDbEntity
  8
Make2D$可见线$普通线
100
AcDbLine
 10
979.3574380980003
 20
741.6073568471777
 30
0.0
 11
979.33692491085
 21
741.6073568471777
 31
0.0
  0
LINE
  5
E5
330
1F
100
AcDbEntity
  8
Make2D$可见线$普通线
100
AcDbLine
 10
979.4784387891823
 20
741.6073568471775
 30
0.0
 11
979.4569886586241
 21
741.6073568471775
 31
0.0
  0
LINE
  5
E6
330
1F
100
AcDbEntity
  8
Make2D$可见线$普通线
100
AcDbLine
 10
979.610261130646
 20
741.6073568471775
 30
0.0
 11
979.5880721455637
 21
741.6073568471775
 31
0.0
  0
LINE
  5
E7
330
1F
100
AcDbEntity
  8
Make2D$可见线$普通线
100
AcDbLine
 10
979.7527829119335
 20
741.6073568471775
 30
0.0
 11
979.7300501530453
 21
741.6073568471775
 31
0.0
  0
LINE
  5
E8
330
1F
100
AcDbEntity
  8
Make2D$可见线$普通线
100
AcDbLine
 10
979.9058819225934
 20
741.6073568471772
 30
0.0
 11
979.8827974624446
 21
741.6073568471772
 31
0.0
  0
LINE
  5
E9
330
1F
100
AcDbEntity
  8
Make2D$可见线$普通线
100
AcDbLine
 10
980.0694359521772
 20
741.6073568471772
 30
0.0
 11
980.0461888551381
 21
741.6073568471772
 31
0.0
  0
LINE
  5
EA
330
1F
100
AcDbEntity
  8
Make2D$可见线$普通线
100
AcDbLine
 10
980.2433227902375
 20
741.6073568471782
 30
0.0
 11
980.2200991125019
 21
741.6073568471775
 31
0.0
  0
LINE
  5
EB
330
1F
100
AcDbEntity
  8
Make2D$可见线$普通线
100
AcDbLine
 10
980.4274202263286
 20
741.6073568471777
 30
0.0
 11
980.4044030159112
 21
741.6073568471777
 31
0.0
  0
LINE
  5
EC
330
1F
100
AcDbEntity
  8
Make2D$可见线$普通线
100
AcDbLine
 10
981.2634717420788
 20
741.6073568471777
 30
0.0
 11
980.9483768925579
 21
741.6073568471777
 31
0.0
  0
LINE
  5
ED
330
1F
100
AcDbEntity
  8
Make2D$可见线$普通线
100
AcDbLine
 10
981.7395836165456
 20
741.6073568471775
 30
0.0
 11
981.2772403082622
 21
741.6073568471775
 31
0.0
  0
LINE
  5
EE
330
1F
100
AcDbEntity
  8
Make2D$可见线$普通线
100
AcDbLine
 10
982.5101911457045
 20
741.6073568471775
 30
0.0
 11
981.9118449130242
 21
741.6073568471775
 31
0.0
  0
LINE
  5
EF
330
1F
100
AcDbEntity
  8
Make2D$可见线$普通线
100
AcDbLine
 10
997.769921184512
 20
741.6073568471775
 30
0.0
 11
984.3310504282535
 21
741.6073568471777
 31
0.0
  0
LINE
  5
F0
330
1F
100
AcDbEntity
  8
Make2D$可见线$普通线
100
AcDbLine
 10
1007.918531049435
 20
746.6073568471775
 30
0.0
 11
1007.567258156334
 21
746.6073568471775
 31
0.0
  0
LINE
  5
F1
330
1F
100
AcDbEntity
  8
Make2D$可见线$普通线
100
AcDbLine
 10
1008.22012306811
 20
746.6073568471775
 30
0.0
 11
1008.202848515983
 21
746.6073568471775
 31
0.0
  0
LINE
  5
F2
330
1F
100
AcDbEntity
  8
Make2D$可见线$普通线
100
AcDbLine
 10
1008.497003004923
 20
746.6073568471777
 30
0.0
 11
1008.481273416456
 21
746.6073568471777
 31
0.0
  0
LINE
  5
F3
330
1F
100
AcDbEntity
  8
Make2D$可见线$普通线
100
AcDbLine
 10
1008.748480466175
 20
746.6073568471775
 30
0.0
 11
1008.73314469121
 21
746.6073568471775
 31
0.0
  0
LINE
  5
F4
330
1F
100
AcDbEntity
  8
Make2D$可见线$普通线
100
AcDbLine
 10
1008.973865131736
 20
746.6073568471768
 30
0.0
 11
1008.958232260632
 21
746.6073568471775
 31
0.0
  0
LINE
  5
F5
330
1F
100
AcDbEntity
  8
Make2D$可见线$普通线
100
AcDbLine
 10
1009.172466602752
 20
746.6073568471777
 30
0.0
 11
1009.156306045107
 21
746.6073568471777
 31
0.0
  0
LINE
  5
F6
330
1F
100
AcDbEntity
  8
Make2D$可见线$普通线
100
AcDbLine
 10
1009.486558506134
 20
746.6073568471779
 30
0.0
 11
1009.47049194076
 21
746.6073568471779
 31
0.0
  0
LINE
  5
F7
330
1F
100
AcDbEntity
  8
Make2D$可见线$普通线
100
AcDbLine
 10
1009.628318470583
 20
746.6073568471779
 30
0.0
 11
1009.586143892711
 21
746.6073568471779
 31
0.0
  0
LINE
  5
F8
330
1F
100
AcDbEntity
  8
Make2D$可见线$普通线
100
AcDbLine
 10
1009.766619353961
 20
746.607356847177
 30
0.0
 11
1009.643302180571
 21
746.607356847177
 31
0.0
  0
LINE
  5
F9
330
1F
100
AcDbEntity
  8
Make2D$可见线$普通线
100
AcDbLine
 10
985.778781970313
 20
746.6073568471777
 30
0.0
 11
985.772732498719
 21
746.6073568471777
 31
0.0
  0
LINE
  5
FA
330
1F
100
AcDbEntity
  8
Make2D$可见线$普通线
100
AcDbLine
 10
985.7990518599258
 20
746.6073568471775
 30
0.0
 11
985.7807785589248
 21
746.6073568471775
 31
0.0
  0
LINE
  5
FB
330
1F
100
AcDbEntity
  8
Make2D$可见线$普通线
100
AcDbLine
 10
985.8643006103625
 20
746.6073568471775
 30
0.0
 11
985.8123244631406
 21
746.6073568471775
 31
0.0
  0
LINE
  5
FC
330
1F
100
AcDbEntity
  8
Make2D$可见线$普通线
100
AcDbLine
 10
1007.567258156334
 20
746.6073568471775
 30
0.0
 11
985.939174166364
 21
746.6073568471775
 31
0.0
  0
CIRCLE
  5
FD
330
1F
100
AcDbEntity
  8
Make2D$可见线$普通线
100
AcDbCircle
 10
997.7691023512814
 20
665.6072919270254
 30
0.0
 40
6.999999999999773
  0
CIRCLE
  5
FE
330
1F
100
AcDbEntity
  8
Make2D$可见线$普通线
100
AcDbCircle
 10
997.769102351281
 20
665.6072919270252
 30
0.0
 40
10.00000000000011
  0
LINE
  5
FF
330
1F
100
AcDbEntity
  8
Make2D$可见线$普通线
100
AcDbLine
 10
1069.34864176029
 20
705.6073560072709
 30
0.0
 11
1068.932081599167
 21
707.6073585402314
 31
0.0
  0
LINE
  5
100
330
1F
100
AcDbEntity
  8
Make2D$可见线$普通线
100
AcDbLine
 10
926.9160690237882
 20
705.6073568468737
 30
0.0
 11
926.829973624288
 21
705.60735684671
 31
0.0
  0
LINE
  5
101
330
1F
100
AcDbEntity
  8
Make2D$可见线$普通线
100
AcDbLine
 10
1074.831467576172
 20
703.6073603734835
 30
0.0
 11
1074.838543355366
 21
703.6073603335842
 31
0.0
  0
LINE
  5
102
330
1F
100
AcDbEntity
  8
Make2D$可见线$普通线
100
AcDbLine
 10
1074.808481530232
 20
703.6044050755631
 30
0.0
 11
1074.80180602563
 21
703.6041670890431
 31
0.0
  0
LINE
  5
103
330
1F
100
AcDbEntity
  8
Make2D$可见线$普通线
100
AcDbLine
 10
1074.838543355224
 20
703.6073603335838
 30
0.0
 11
1074.841756424505
 21
703.6073603109699
 31
0.0
  0
LINE
  5
104
330
1F
100
AcDbEntity
  8
Make2D$可见线$普通线
100
AcDbLine
 10
1074.795717715506
 20
703.6073605066233
 30
0.0
 11
1074.801782561473
 21
703.6073604880091
 31
0.0
  0
LINE
  5
105
330
1F
100
AcDbEntity
  8
Make2D$可见线$普通线
100
AcDbLine
 10
1074.753159493493
 20
703.607360616955
 30
0.0
 11
1074.787003304172
 21
703.6073605317613
 31
0.0
  0
LINE
  5
106
330
1F
100
AcDbEntity
  8
Make2D$可见线$普通线
100
AcDbLine
 10
1074.697414485244
 20
703.6073607321869
 30
0.0
 11
1074.739353621311
 21
703.6073606477437
 31
0.0
  0
LINE
  5
107
330
1F
100
AcDbEntity
  8
Make2D$可见线$普通线
100
AcDbLine
 10
1074.628140896035
 20
703.6073608521201
 30
0.0
 11
1074.678353145607
 21
703.607360767171
 31
0.0
  0
LINE
  5
108
330
1F
100
AcDbEntity
  8
Make2D$可见线$普通线
100
AcDbLine
 10
1069.020147282612
 20
705.6073547319202
 30
0.0
 11
1072.844838282793
 21
705.6073550710883
 31
0.0
  0
ARC
  5
109
330
1F
100
AcDbEntity
  8
Make2D$可见线$普通线
100
AcDbCircle
 10
1072.848630935238
 20
703.6073754359878
 30
0.0
 40
1.999979643203709
100
AcDbArc
 50
359.9995637139138
 51
89.99969138899743
  0
ARC
  5
10A
330
1F
100
AcDbEntity
  8
Make2D$可见线$普通线
100
AcDbCircle
 10
933.6933220280921
 20
378.611037588227
 30
0.0
 40
6.008981262642216
100
AcDbArc
 50
180.6499658213239
 51
207.5255452964507
  0
LINE
  5
10B
330
1F
100
AcDbEntity
  8
Make2D$可见线$普通线
100
AcDbLine
 10
926.829973624288
 20
705.6073568467104
 30
0.0
 11
926.1775416860851
 21
705.6073568439442
 31
0.0
  0
LINE
  5
10C
330
1F
100
AcDbEntity
  8
Make2D$可见线$普通线
100
AcDbLine
 10
1021.149626827444
 20
705.6073557167674
 30
0.0
 11
927.0979952156126
 21
705.6073568471845
 31
0.0
  0
LINE
  5
10D
330
1F
100
AcDbEntity
  8
Make2D$可见线$普通线
100
AcDbLine
 10
1069.020147282612
 20
705.6073547319202
 30
0.0
 11
1021.149626827444
 21
705.6073557167674
 31
0.0
  0
LINE
  5
10E
330
1F
100
AcDbEntity
  8
Make2D$可见线$普通线
100
AcDbLine
 10
1033.82328438459
 20
372.6073584207415
 30
0.0
 11
1033.989544195516
 21
372.6073584070787
 31
0.0
  0
LINE
  5
10F
330
1F
100
AcDbEntity
  8
Make2D$可见线$普通线
100
AcDbLine
 10
1033.087517067313
 20
372.6073584812029
 30
0.0
 11
1033.369707296993
 21
372.607358458014
 31
0.0
  0
LINE
  5
110
330
1F
100
AcDbEntity
  8
Make2D$可见线$普通线
100
AcDbLine
 10
1021.299445057586
 20
372.6073594498639
 30
0.0
 11
1021.408982725292
 21
372.6073594408629
 31
0.0
  0
LINE
  5
111
330
1F
100
AcDbEntity
  8
Make2D$可见线$普通线
100
AcDbLine
 10
1074.69746973093
 20
703.601603350367
 30
0.0
 11
1074.67835317797
 21
703.6012495942823
 31
0.0
  0
LINE
  5
112
330
1F
100
AcDbEntity
  8
Make2D$可见线$普通线
100
AcDbLine
 10
1074.753214968152
 20
703.6027909927782
 30
0.0
 11
1074.739353654508
 21
703.6024685210007
 31
0.0
  0
LINE
  5
113
330
1F
100
AcDbEntity
  8
Make2D$可见线$普通线
100
AcDbLine
 10
1074.795773334823
 20
703.6039661467137
 30
0.0
 11
1074.787003349418
 21
703.6036933709597
 31
0.0
  0
LINE
  5
114
330
1F
100
AcDbEntity
  8
Make2D$可见线$普通线
100
AcDbLine
 10
1074.831473190044
 20
703.605433768711
 30
0.0
 11
1074.80848153042
 21
703.6044050755702
 31
0.0
  0
ARC
  5
115
330
1F
100
AcDbEntity
  8
Make2D$可见线$普通线
100
AcDbCircle
 10
1068.848644276984
 20
378.6073597168578
 30
0.0
 40
6.000004174481743
100
AcDbArc
 50
270.1042528873908
 51
359.8586756201225
  0
LINE
  5
116
330
1F
100
AcDbEntity
  8
Make2D$可见线$普通线
100
AcDbLine
 10
1074.84864845146
 20
378.6073682984215
 30
0.0
 11
1074.848610578525
 21
703.606145139875
 31
0.0
  0
SPLINE
  5
117
330
1F
100
AcDbEntity
  8
Make2D$可见线$普通线
100
AcDbSpline
210
0.0
220
0.0
230
1.0
 70
     8
 71
     3
 72
    11
 73
     7
 74
     0
 42
0.000000001
 43
0.0000000001
 12
1.0
 22
0.0
 32
0.0
 13
1.0
 23
0.0
 33
0.0
 40
0.0
 40
0.0
 40
0.0
 40
0.0
 40
26.84794010115453
 40
58.79681690048617
 40
73.43500683210134
 40
83.33397378896422
 40
83.33397378896422
 40
83.33397378896422
 40
83.33397378896422
 10
504.2172014856078
 20
372.6305906870455
 30
0.0
 10
495.2678977112619
 20
372.6440240457548
 30
0.0
 10
475.6689685611577
 20
372.6633957509405
 30
0.0
 10
451.1906388741754
 20
372.6820057952814
 30
0.0
 10
432.3619594942074
 20
372.6829610070677
 30
0.0
 10
424.1829141110929
 20
372.6670365424357
 30
0.0
 10
420.8832902314798
 20
372.6522335061229
 30
0.0
  0
LINE
  5
118
330
1F
100
AcDbEntity
  8
Make2D$可见线$普通线
100
AcDbLine
 10
505.7611216737209
 20
372.628325890098
 30
0.0
 11
504.6802192202476
 21
372.629917643178
 31
0.0
  0
ARC
  5
119
330
1F
100
AcDbEntity
  8
Make2D$可见线$普通线
100
AcDbCircle
 10
409.9993053931925
 20
366.4512148163898
 30
0.0
 40
5.999669698818587
100
AcDbArc
 50
92.61189083625156
 51
190.6087388599163
  0
ARC
  5
11A
330
1F
100
AcDbEntity
  8
Make2D$可见线$普通线
100
AcDbCircle
 10
1029.523572552343
 20
346.8881455881785
 30
0.0
 40
30.34472846988675
100
AcDbArc
 50
278.7983728956207
 51
284.4854193305578
  0
SPLINE
  5
11B
330
1F
100
AcDbEntity
  8
Make2D$可见线$普通线
100
AcDbSpline
210
0.0
220
0.0
230
1.0
 70
     8
 71
     3
 72
    12
 73
     8
 74
     0
 42
0.000000001
 43
0.0000000001
 12
1.0
 22
0.0
 32
0.0
 13
1.0
 23
0.0
 33
0.0
 40
0.0
 40
0.0
 40
0.0
 40
0.0
 40
4.788772138181162
 40
9.659011000569489
 40
19.56612511571752
 40
29.54267858899154
 40
39.44559982836623
 40
39.44559982836623
 40
39.44559982836623
 40
39.44559982836623
 10
1060.741576475345
 20
345.9856113041214
 30
0.0
 10
1060.63115913928
 20
344.3927687364412
 30
0.0
 10
1060.147560526301
 20
341.2004548831001
 30
0.0
 10
1058.177749215462
 20
334.9608187044705
 30
0.0
 10
1053.911211654275
 20
327.7879196616245
 30
0.0
 10
1046.437496887285
 20
321.0747378223939
 30
0.0
 10
1040.308899221069
 20
318.3400328308235
 30
0.0
 10
1037.11380936494
 20
317.5080358021371
 30
0.0
  0
LINE
  5
11C
330
1F
100
AcDbEntity
  8
Make2D$可见线$普通线
100
AcDbLine
 10
1000.445142123494
 20
312.1723893761002
 30
0.0
 11
1034.165034616745
 21
316.9004918650899
 31
0.0
  0
SPLINE
  5
11D
330
1F
100
AcDbEntity
  8
Make2D$可见线$普通线
100
AcDbSpline
210
0.0
220
0.0
230
1.0
 70
     8
 71
     3
 72
    15
 73
    11
 74
     0
 42
0.000000001
 43
0.0000000001
 12
1.0
 22
0.0
 32
0.0
 13
1.0
 23
0.0
 33
0.0
 40
0.0
 40
0.0
 40
0.0
 40
0.0
 40
29.41239183602331
 40
62.18676308853281
 40
95.09776028901442
 40
127.9582067452926
 40
160.5113889592714
 40
190.1242788958611
 40
218.0570613225516
 40
244.4911840617019
 40
244.4911840617019
 40
244.4911840617019
 40
244.4911840617019
 10
714.4002755891884
 20
194.1049139762581
 30
0.0
 10
724.1667502214686
 20
194.9745315791861
 30
0.0
 10
744.6814341960171
 20
198.1952222969142
 30
0.0
 10
775.2686440513025
 20
206.7041030038065
 30
0.0
 10
805.8584790358191
 20
218.7870157268565
 30
0.0
 10
835.0217208215499
 20
233.8357808232051
 30
0.0
 10
861.5529073030702
 20
251.2226640545316
 30
0.0
 10
884.7666783721279
 20
270.3526985202359
 30
0.0
 10
904.102695931907
 20
290.6775027912522
 30
0.0
 10
914.6166970934646
 20
305.5049800768732
 30
0.0
 10
919.0849837090768
 20
313.1001229090662
 30
0.0
  0
SPLINE
  5
11E
330
1F
100
AcDbEntity
  8
Make2D$可见线$普通线
100
AcDbSpline
210
0.0
220
0.0
230
1.0
 70
     8
 71
     3
 72
    12
 73
     8
 74
     0
 42
0.000000001
 43
0.0000000001
 12
1.0
 22
0.0
 32
0.0
 13
1.0
 23
0.0
 33
0.0
 40
0.0
 40
0.0
 40
0.0
 40
0.0
 40
0.5
 40
0.5
 40
0.75
 40
0.75
 40
0.9999974355817871
 40
0.9999974355817871
 40
0.9999974355817871
 40
0.9999974355817871
 10
930.9536510369089
 20
318.3804574523901
 30
0.0
 10
928.0890720374546
 20
317.6702197187751
 30
0.0
 10
925.5746703185691
 20
316.810815335004
 30
0.0
 10
922.517320488917
 20
315.4462854314279
 30
0.0
 10
921.6157440020861
 20
314.9777859134538
 30
0.0
 10
920.1042544236143
 20
314.0349805004689
 30
0.0
 10
919.4932990142956
 20
313.5604420222642
 30
0.0
 10
919.0849962738494
 20
313.1001370741799
 30
0.0
  0
LINE
  5
11F
330
1F
100
AcDbEntity
  8
Make2D$可见线$普通线
100
AcDbLine
 10
788.4102790346715
 20
302.6746896145751
 30
0.0
 11
788.3368179301315
 21
302.7170097200778
 31
0.0
  0
SPLINE
  5
120
330
1F
100
AcDbEntity
  8
Make2D$可见线$普通线
100
AcDbSpline
210
0.0
220
0.0
230
1.0
 70
     8
 71
     3
 72
    10
 73
     6
 74
     0
 42
0.000000001
 43
0.0000000001
 12
1.0
 22
0.0
 32
0.0
 13
1.0
 23
0.0
 33
0.0
 40
0.0
 40
0.0
 40
0.0
 40
0.0
 40
0.4994579802201125
 40
0.4994579802201125
 40
1.0
 40
1.0
 40
1.0
 40
1.0
 10
791.2445632896392
 20
302.5643076248925
 30
0.0
 10
790.539979855097
 20
302.6670681778314
 30
0.0
 10
789.9317916868586
 20
302.6306880298998
 30
0.0
 10
788.9722825665631
 20
302.5791074692943
 30
0.0
 10
788.6267086791026
 20
302.571084868141
 30
0.0
 10
788.410279550325
 20
302.6746893700538
 30
0.0
  0
LINE
  5
121
330
1F
100
AcDbEntity
  8
Make2D$可见线$普通线
100
AcDbLine
 10
899.0986573093387
 20
315.7433460043976
 30
0.0
 11
899.254472502053
 21
315.0695475404846
 31
0.0
  0
LINE
  5
122
330
1F
100
AcDbEntity
  8
Make2D$可见线$普通线
100
AcDbLine
 10
763.4988328741765
 20
314.6674278179435
 30
0.0
 11
763.0606586161557
 21
312.8893901148895
 31
0.0
  0
ARC
  5
123
330
1F
100
AcDbEntity
  8
Make2D$可见线$普通线
100
AcDbCircle
 10
819.0179731428726
 20
345.5330837766908
 30
0.0
 40
52.6739925114303
100
AcDbArc
 50
232.1523148478685
 51
234.3753568826244
  0
ARC
  5
124
330
1F
100
AcDbEntity
  8
Make2D$可见线$普通线
100
AcDbCircle
 10
765.3647302710787
 20
277.1116336494486
 30
0.0
 40
34.27653540373323
100
AcDbArc
 50
51.50703523118542
 51
56.24212290755788
  0
ARC
  5
125
330
1F
100
AcDbEntity
  8
Make2D$可见线$普通线
100
AcDbCircle
 10
778.8527172125629
 20
297.3043824290076
 30
0.0
 40
9.993351789426528
100
AcDbArc
 50
56.20401021250638
 51
63.60112193908135
  0
ARC
  5
126
330
1F
100
AcDbEntity
  8
Make2D$可见线$普通线
100
AcDbCircle
 10
787.6756962154242
 20
302.6324262643764
 30
0.0
 40
13.90082927963424
100
AcDbArc
 50
339.0557933657774
 51
341.809461364412
  0
ARC
  5
127
330
1F
100
AcDbEntity
  8
Make2D$可见线$普通线
100
AcDbCircle
 10
804.035655982068
 20
297.3600064132848
 30
0.0
 40
3.288921791256643
100
AcDbArc
 50
159.8434655262025
 51
163.5221283154804
  0
LINE
  5
128
330
1F
100
AcDbEntity
  8
Make2D$可见线$普通线
100
AcDbLine
 10
800.9628209641705
 20
298.5358606749289
 30
0.0
 11
800.9481657705383
 21
298.4933248016014
 31
0.0
  0
LINE
  5
129
330
1F
100
AcDbEntity
  8
Make2D$可见线$普通线
100
AcDbLine
 10
800.9911380217027
 20
298.6172338581291
 30
0.0
 11
800.9628257541949
 21
298.5358733298726
 31
0.0
  0
LINE
  5
12A
330
1F
100
AcDbEntity
  8
Make2D$可见线$普通线
100
AcDbLine
 10
801.0025817574656
 20
298.6521746393823
 30
0.0
 11
800.9911400837418
 21
298.6172399352708
 31
0.0
  0
ARC
  5
12B
330
1F
100
AcDbEntity
  8
Make2D$可见线$普通线
100
AcDbCircle
 10
799.560242073938
 20
299.1369690243689
 30
0.0
 40
1.521632940545876
100
AcDbArc
 50
341.4232077301222
 51
9.561898200841147
  0
ARC
  5
12C
330
1F
100
AcDbEntity
  8
Make2D$可见线$普通线
100
AcDbCircle
 10
799.1146382957828
 20
298.9229989934105
 30
0.0
 40
2.001284076250561
100
AcDbArc
 50
13.48745704883221
 51
47.6159281327937
  0
SPLINE
  5
12D
330
1F
100
AcDbEntity
  8
Make2D$可见线$普通线
100
AcDbSpline
210
0.0
220
0.0
230
1.0
 70
     8
 71
     3
 72
     8
 73
     4
 74
     0
 42
0.000000001
 43
0.0000000001
 12
1.0
 22
0.0
 32
0.0
 13
1.0
 23
0.0
 33
0.0
 40
0.0
 40
0.0
 40
0.0
 40
0.0
 40
0.9999976660244796
 40
0.9999976660244796
 40
0.9999976660244796
 40
0.9999976660244796
 10
795.3318314400158
 20
301.9187965011215
 30
0.0
 10
798.0976826764609
 20
301.517631152082
 30
0.0
 10
799.8873112195861
 20
300.982581412507
 30
0.0
 10
800.4636939963561
 20
300.4012370716798
 30
0.0
  0
ARC
  5
12E
330
1F
100
AcDbEntity
  8
Make2D$可见线$普通线
100
AcDbCircle
 10
787.2245107123923
 20
244.5810459209007
 30
0.0
 40
57.90808485016761
100
AcDbArc
 50
81.9519651802825
 51
85.2042353980225
  0
ARC
  5
12F
330
1F
100
AcDbEntity
  8
Make2D$可见线$普通线
100
AcDbCircle
 10
792.0804740236978
 20
303.8969575076347
 30
0.0
 40
1.610618227736752
100
AcDbArc
 50
246.3408020391094
 51
269.4765048638477
  0
LINE
  5
130
330
1F
100
AcDbEntity
  8
Make2D$可见线$普通线
100
AcDbLine
 10
791.2445632896392
 20
302.5643076248925
 30
0.0
 11
791.4341400090907
 21
302.4217139965222
 31
0.0
  0
ARC
  5
131
330
1F
100
AcDbEntity
  8
Make2D$可见线$普通线
100
AcDbCircle
 10
797.5423855062511
 20
350.940964109549
 30
0.0
 40
48.78486915300808
100
AcDbArc
 50
262.5827734032181
 51
270.5748666273449
  0
LINE
  5
132
330
1F
100
AcDbEntity
  8
Make2D$可见线$普通线
100
AcDbLine
 10
859.1923843090754
 20
302.3095306649075
 30
0.0
 11
798.0318596731568
 21
302.1585504796822
 31
0.0
  0
SPLINE
  5
133
330
1F
100
AcDbEntity
  8
Make2D$可见线$普通线
100
AcDbSpline
210
0.0
220
0.0
230
1.0
 70
     8
 71
     3
 72
    14
 73
    10
 74
     0
 42
0.000000001
 43
0.0000000001
 12
1.0
 22
0.0
 32
0.0
 13
1.0
 23
0.0
 33
0.0
 40
0.0
 40
0.0
 40
0.0
 40
0.0
 40
0.7192292509405905
 40
1.611290128282587
 40
3.932146745356206
 40
6.945705965171135
 40
10.58895916908558
 40
19.3584382141795
 40
29.24907130431708
 40
29.24907130431708
 40
29.24907130431708
 40
29.24907130431708
 10
887.9861327811591
 20
306.0268190110928
 30
0.0
 10
887.7939712621201
 20
305.8830910198255
 30
0.0
 10
887.3331117265825
 20
305.6050324074345
 30
0.0
 10
886.1316431983828
 20
305.0749298044573
 30
0.0
 10
884.1401569457926
 20
304.4787859292035
 30
0.0
 10
881.2101855278765
 20
303.8633553957393
 30
0.0
 10
876.1217413065069
 20
303.1079163126262
 30
0.0
 10
868.7086216652547
 20
302.4901535058743
 30
0.0
 10
862.4894718015107
 20
302.3174686144928
 30
0.0
 10
859.1923843090754
 20
302.3095306649072
 30
0.0
  0
ARC
  5
134
330
1F
100
AcDbEntity
  8
Make2D$可见线$普通线
100
AcDbCircle
 10
742.0657669121573
 20
499.4035701598151
 30
0.0
 40
242.2546615858006
100
AcDbArc
 50
307.0378776634545
 51
310.4555024836354
  0
SPLINE
  5
135
330
1F
100
AcDbEntity
  8
Make2D$可见线$普通线
100
AcDbSpline
210
0.0
220
0.0
230
1.0
 70
     8
 71
     3
 72
    10
 73
     6
 74
     0
 42
0.000000001
 43
0.0000000001
 12
1.0
 22
0.0
 32
0.0
 13
1.0
 23
0.0
 33
0.0
 40
-1.0
 40
-1.0
 40
-1.0
 40
-1.0
 40
-0.5001218015796556
 40
-0.5001218015796556
 40
-0.0000356514003682
 40
-0.0000356514003682
 40
-0.0000356514003682
 40
-0.0000356514003682
 10
888.9118265541265
 20
316.832124833646
 30
0.0
 10
891.94440160471
 20
316.8728824797245
 30
0.0
 10
894.9253988547089
 20
316.7038995755274
 30
0.0
 10
899.002795617525
 20
316.0076150492062
 30
0.0
 10
899.7969640732827
 20
315.5327206934146
 30
0.0
 10
899.2545885211325
 20
315.0696465786841
 30
0.0
  0
LINE
  5
136
330
1F
100
AcDbEntity
  8
Make2D$可见线$普通线
100
AcDbLine
 10
770.5820606677803
 20
315.2563305997355
 30
0.0
 11
888.9118265541265
 21
316.832124833646
 31
0.0
  0
SPLINE
  5
137
330
1F
100
AcDbEntity
  8
Make2D$可见线$普通线
100
AcDbSpline
210
0.0
220
0.0
230
1.0
 70
     8
 71
     3
 72
    18
 73
    14
 74
     0
 42
0.000000001
 43
0.0000000001
 12
1.0
 22
0.0
 32
0.0
 13
1.0
 23
0.0
 33
0.0
 40
0.0
 40
0.0
 40
0.0
 40
0.0
 40
0.6697403156213025
 40
1.221663708714869
 40
1.570794326661766
 40
1.821433421286709
 40
2.035993088079372
 40
2.333666204457949
 40
2.785362297697989
 40
3.340906285363816
 40
4.834835409491031
 40
6.71100525809983
 40
11.35919379105693
 40
11.35919379105693
 40
11.35919379105693
 40
11.35919379105693
 10
763.0606586161557
 20
312.8893901148895
 30
0.0
 10
762.8421180296173
 20
312.9427440318173
 30
0.0
 10
762.4539412105878
 20
313.0483215538861
 30
0.0
 10
761.9559525494842
 20
313.2358505478219
 30
0.0
 10
761.6313757590015
 20
313.4252355557639
 30
0.0
 10
761.4298755614773
 20
313.6380569988598
 30
0.0
 10
761.4704599798979
 20
313.9105222392811
 30
0.0
 10
761.7327464507684
 20
314.1175864180325
 30
0.0
 10
762.1220424840026
 20
314.3046154799345
 30
0.0
 10
762.9195275517045
 20
314.5590040897771
 30
0.0
 10
764.203586850057
 20
314.813914054974
 30
0.0
 10
766.8581097444521
 20
315.1404843086741
 30
0.0
 10
769.0329691923325
 20
315.2338014838324
 30
0.0
 10
770.5820188392454
 20
315.2563300463551
 30
0.0
  0
SPLINE
  5
138
330
1F
100
AcDbEntity
  8
Make2D$可见线$普通线
100
AcDbSpline
210
0.0
220
0.0
230
1.0
 70
     8
 71
     3
 72
     8
 73
     4
 74
     0
 42
0.000000001
 43
0.0000000001
 12
1.0
 22
0.0
 32
0.0
 13
1.0
 23
0.0
 33
0.0
 40
-47.88012261316278
 40
-47.88012261316278
 40
-47.88012261316278
 40
-47.88012261316278
 40
-0.0000510967699482
 40
-0.0000510967699482
 40
-0.0000510967699482
 40
-0.0000510967699482
 10
783.2925583648748
 20
306.2572327947114
 30
0.0
 10
778.3614623673038
 20
308.5926431822591
 30
0.0
 10
771.5654021678902
 20
310.8203042142134
 30
0.0
 10
763.0606858444125
 20
312.8893834906348
 30
0.0
  0
SPLINE
  5
139
330
1F
100
AcDbEntity
  8
Make2D$可见线$普通线
100
AcDbSpline
210
0.0
220
0.0
230
1.0
 70
     8
 71
     3
 72
    15
 73
    11
 74
     0
 42
0.000000001
 43
0.0000000001
 12
1.0
 22
0.0
 32
0.0
 13
1.0
 23
0.0
 33
0.0
 40
0.0
 40
0.0
 40
0.0
 40
0.0
 40
21.87507385909873
 40
44.46106855631683
 40
67.36508881427338
 40
90.19640704207576
 40
112.4494395897748
 40
134.1961687470626
 40
155.0271393991663
 40
174.9604464304746
 40
174.9604464304746
 40
174.9604464304746
 40
174.9604464304746
 10
739.9811814696031
 20
206.7642135697306
 30
0.0
 10
747.1268020346706
 20
208.2174452889249
 30
0.0
 10
761.5202438415768
 20
211.7997511547196
 30
0.0
 10
782.8293440438883
 20
218.9347233723981
 30
0.0
 10
803.8266614749386
 20
227.7945688623272
 30
0.0
 10
823.9965967815797
 20
238.1637032517062
 30
0.0
 10
842.9833720325905
 20
249.8480497036946
 30
0.0
 10
860.4337244739822
 20
262.6267248339821
 30
0.0
 10
876.1357702538153
 20
276.3566206674102
 30
0.0
 10
885.4866701910987
 20
286.2382049929372
 30
0.0
 10
889.7881199405138
 20
291.3028473382428
 30
0.0
  0
LINE
  5
13A
330
1F
100
AcDbEntity
  8
Make2D$可见线$普通线
100
AcDbLine
 10
781.4399222350762
 20
285.5912134965824
 30
0.0
 11
748.3758045811583
 21
282.9897593191226
 31
0.0
  0
SPLINE
  5
13B
330
1F
100
AcDbEntity
  8
Make2D$可见线$普通线
100
AcDbSpline
210
0.0
220
0.0
230
1.0
 70
     8
 71
     3
 72
    12
 73
     8
 74
     0
 42
0.000000001
 43
0.0000000001
 12
1.0
 22
0.0
 32
0.0
 13
1.0
 23
0.0
 33
0.0
 40
0.0
 40
0.0
 40
0.0
 40
0.0
 40
2.137877881766268
 40
4.444382216168338
 40
9.47432195201089
 40
14.87186685356792
 40
19.9394692810752
 40
19.9394692810752
 40
19.9394692810752
 40
19.9394692810752
 10
797.9169811309775
 20
295.8914593119089
 30
0.0
 10
797.6169530491497
 20
295.2444625375547
 30
0.0
 10
796.8679010616147
 20
293.9616386435559
 30
0.0
 10
794.850803279639
 20
291.516576550659
 30
0.0
 10
791.5047537959972
 20
288.8544794550514
 30
0.0
 10
786.8332238111766
 20
286.5866314181171
 30
0.0
 10
783.419831834477
 20
285.7604397170114
 30
0.0
 10
781.7347387712971
 20
285.6144099304393
 30
0.0
  0
ARC
  5
13C
330
1F
100
AcDbEntity
  8
Make2D$可见线$普通线
100
AcDbCircle
 10
800.6780440039818
 20
294.6266663234707
 30
0.0
 40
3.036853226630479
100
AcDbArc
 50
90.37660188198254
 51
154.8083768753129
  0
LINE
  5
13D
330
1F
100
AcDbEntity
  8
Make2D$可见线$普通线
100
AcDbLine
 10
886.8075225177881
 20
297.8764848730389
 30
0.0
 11
800.6580830851326
 21
297.6634539488759
 31
0.0
  0
SPLINE
  5
13E
330
1F
100
AcDbEntity
  8
Make2D$可见线$普通线
100
AcDbSpline
210
0.0
220
0.0
230
1.0
 70
     8
 71
     3
 72
    13
 73
     9
 74
     0
 42
0.000000001
 43
0.0000000001
 12
1.0
 22
0.0
 32
0.0
 13
1.0
 23
0.0
 33
0.0
 40
0.0
 40
0.0
 40
0.0
 40
0.0
 40
1.156051174077159
 40
2.320013701852881
 40
4.576587027662513
 40
6.821015958841708
 40
7.972934243457474
 40
9.113674881779273
 40
9.113674881779273
 40
9.113674881779273
 40
9.113674881779273
 10
889.7881236558442
 20
291.3028517130365
 30
0.0
 10
890.0402532617704
 20
291.5951067571998
 30
0.0
 10
890.4558853948033
 20
292.2548436589509
 30
0.0
 10
890.9062753281482
 20
293.7275428070543
 30
0.0
 10
890.6476855958144
 20
295.6802243212694
 30
0.0
 10
889.3519035345439
 20
297.1601898176625
 30
0.0
 10
887.9509185559191
 20
297.771898764579
 30
0.0
 10
887.1887198111426
 20
297.8807288965174
 30
0.0
 10
886.8075257214796
 20
297.8764848812527
 30
0.0
  0
SPLINE
  5
13F
330
1F
100
AcDbEntity
  8
Make2D$可见线$普通线
100
AcDbSpline
210
0.0
220
0.0
230
1.0
 70
     8
 71
     3
 72
    12
 73
     8
 74
     0
 42
0.000000001
 43
0.0000000001
 12
1.0
 22
0.0
 32
0.0
 13
1.0
 23
0.0
 33
0.0
 40
0.0
 40
0.0
 40
0.0
 40
0.0
 40
1.267306212914587
 40
2.518744090015328
 40
5.003796623932646
 40
7.499765409172211
 40
10.02942824888411
 40
10.02942824888411
 40
10.02942824888411
 40
10.02942824888411
 10
734.2323781902624
 20
212.8280927906226
 30
0.0
 10
734.1214305948201
 20
212.4202931989844
 30
0.0
 10
734.0063710403056
 20
211.5822050201045
 30
0.0
 10
734.193932486658
 20
209.911420002039
 30
0.0
 10
735.2226859566563
 20
208.024669776212
 30
0.0
 10
737.4284346461382
 20
206.6699172957369
 30
0.0
 10
739.1554450388185
 20
206.5957680039648
 30
0.0
 10
739.9811814696031
 20
206.7642135697308
 30
0.0
  0
SPLINE
  5
140
330
1F
100
AcDbEntity
  8
Make2D$可见线$普通线
100
AcDbSpline
210
0.0
220
0.0
230
1.0
 70
     8
 71
     3
 72
    10
 73
     6
 74
     0
 42
0.000000001
 43
0.0000000001
 12
1.0
 22
0.0
 32
0.0
 13
1.0
 23
0.0
 33
0.0
 40
-0.9999998915467518
 40
-0.9999998915467518
 40
-0.9999998915467518
 40
-0.9999998915467518
 40
-0.4993713005070754
 40
-0.4993713005070754
 40
0.0
 40
0.0
 40
0.0
 40
0.0
 10
714.4002748571847
 20
194.1049138396936
 30
0.0
 10
713.2739462983423
 20
193.8947836777102
 30
0.0
 10
712.0612413888616
 20
193.8542476352591
 30
0.0
 10
709.7067698331462
 20
193.9951469180332
 30
0.0
 10
708.5619791634899
 20
194.1649535360284
 30
0.0
 10
707.488488215387
 20
194.3835143911783
 30
0.0
  0
SPLINE
  5
141
330
1F
100
AcDbEntity
  8
Make2D$可见线$普通线
100
AcDbSpline
210
0.0
220
0.0
230
1.0
 70
     8
 71
     3
 72
    19
 73
    15
 74
     0
 42
0.000000001
 43
0.0000000001
 12
1.0
 22
0.0
 32
0.0
 13
1.0
 23
0.0
 33
0.0
 40
0.0
 40
0.0
 40
0.0
 40
0.0
 40
35.81463995782952
 40
73.72760306630043
 40
113.8297507102642
 40
152.507604676725
 40
170.1330725149205
 40
187.7430694518822
 40
203.524184777781
 40
218.8120375815173
 40
234.8898464843291
 40
249.5065142815396
 40
263.147944657827
 40
277.6238591249506
 40
277.6238591249506
 40
277.6238591249506
 40
277.6238591249506
 10
716.521769694964
 20
177.8962327590962
 30
0.0
 10
728.4047521206853
 20
179.0611995621543
 30
0.0
 10
752.6727537001543
 20
183.2441006092856
 30
0.0
 10
789.0900179212213
 20
194.1033989545517
 30
0.0
 10
824.9911921083594
 20
209.2254695933909
 30
0.0
 10
853.0950100784498
 20
224.9138664356451
 30
0.0
 10
873.4773390673618
 20
238.7792828521974
 30
0.0
 10
886.9412157915372
 20
249.1751088666456
 30
0.0
 10
899.1431444050077
 20
259.8931363038503
 30
0.0
 10
910.0165027489038
 20
271.2555736573288
 30
0.0
 10
919.8159564784573
 20
283.0552730723148
 30
0.0
 10
928.2697381300327
 20
295.1960733542257
 30
0.0
 10
935.266218254902
 20
307.623747035454
 30
0.0
 10
939.0405317179993
 20
316.2150666604159
 30
0.0
 10
940.7584153005405
 20
320.7244824576217
 30
0.0
  0
SPLINE
  5
142
330
1F
100
AcDbEntity
  8
Make2D$可见线$普通线
100
AcDbSpline
210
0.0
220
0.0
230
1.0
 70
     8
 71
     3
 72
    10
 73
     6
 74
     0
 42
0.000000001
 43
0.0000000001
 12
1.0
 22
0.0
 32
0.0
 13
1.0
 23
0.0
 33
0.0
 40
0.0
 40
0.0
 40
0.0
 40
0.0
 40
0.4996633145860866
 40
0.4996633145860866
 40
1.0
 40
1.0
 40
1.0
 40
1.0
 10
697.7685482302345
 20
186.7081639200051
 30
0.0
 10
699.7180188171401
 20
183.5491527369741
 30
0.0
 10
702.6394128746515
 20
181.1516277276332
 30
0.0
 10
709.2395205520802
 20
178.148279251368
 30
0.0
 10
712.9238842403815
 20
177.5452746052779
 30
0.0
 10
716.521769694964
 20
177.8962327590962
 30
0.0
  0
ARC
  5
143
330
1F
100
AcDbEntity
  8
Make2D$可见线$普通线
100
AcDbCircle
 10
1018.521421925278
 20
325.9350023249875
 30
0.0
 40
3.981658111106386
100
AcDbArc
 50
287.1450792527261
 51
0.2820160104607625
  0
LINE
  5
144
330
1F
100
AcDbEntity
  8
Make2D$可见线$普通线
100
AcDbLine
 10
1020.19566608932
 20
322.7141008735314
 30
0.0
 11
1020.240298127708
 21
322.7506000702083
 31
0.0
  0
ARC
  5
145
330
1F
100
AcDbEntity
  8
Make2D$可见线$普通线
100
AcDbCircle
 10
1015.525199311339
 20
327.5682710307076
 30
0.0
 40
6.446817336754114
100
AcDbArc
 50
271.0408550317856
 51
288.2070378786041
  0
SPLINE
  5
146
330
1F
100
AcDbEntity
  8
Make2D$可见线$普通线
100
AcDbSpline
210
0.0
220
0.0
230
1.0
 70
     8
 71
     3
 72
    18
 73
    14
 74
     0
 42
0.000000001
 43
0.0000000001
 12
1.0
 22
0.0
 32
0.0
 13
1.0
 23
0.0
 33
0.0
 40
0.0
 40
0.0
 40
0.0
 40
0.0
 40
18.81824460985469
 40
28.69600986747276
 40
39.75879375150966
 40
51.32872260694131
 40
63.50824666208641
 40
77.0230469988134
 40
91.26026389956556
 40
120.2091313595575
 40
152.5759648998027
 40
186.7973818708518
 40
224.0826303367429
 40
224.0826303367429
 40
224.0826303367429
 40
224.0826303367429
 10
1005.660258624617
 20
319.771622931532
 30
0.0
 10
1000.17995657826
 20
316.7101864732597
 30
0.0
 10
992.5441945295997
 20
310.8155549121657
 30
0.0
 10
983.7334956856334
 20
300.8844618282985
 30
0.0
 10
977.5143060542887
 20
291.9900052400849
 30
0.0
 10
971.8438147238635
 20
281.8515744008203
 30
0.0
 10
966.7358401940223
 20
270.5180119317461
 30
0.0
 10
962.1621738331951
 20
258.0110923436619
 30
0.0
 10
956.7634415940875
 20
239.8872707319815
 30
0.0
 10
951.7696189666003
 20
215.164973734401
 30
0.0
 10
948.6371467400741
 20
183.4385507973243
 30
0.0
 10
948.2525032048775
 20
148.7880586922222
 30
0.0
 10
949.7555987763321
 20
124.9866781201827
 30
0.0
 10
950.8527494043387
 20
112.6074032549129
 30
0.0
  0
SPLINE
  5
147
330
1F
100
AcDbEntity
  8
Make2D$可见线$普通线
100
AcDbSpline
210
0.0
220
0.0
230
1.0
 70
     8
 71
     3
 72
    10
 73
     6
 74
     0
 42
0.000000001
 43
0.0000000001
 12
1.0
 22
0.0
 32
0.0
 13
1.0
 23
0.0
 33
0.0
 40
0.0
 40
0.0
 40
0.0
 40
0.0
 40
0.4999990614113208
 40
0.4999990614113208
 40
0.9999999452878638
 40
0.9999999452878638
 40
0.9999999452878638
 40
0.9999999452878638
 10
959.156646508422
 20
113.0366502397155
 30
0.0
 10
959.8735623191565
 20
105.6644497716079
 30
0.0
 10
960.6770468457312
 20
98.29255943760836
 30
0.0
 10
962.2916516127225
 20
83.53534393756718
 30
0.0
 10
963.1140112732455
 20
76.15169744765808
 30
0.0
 10
963.937963014876
 20
68.76592563249415
 30
0.0
  0
LINE
  5
148
330
1F
100
AcDbEntity
  8
Make2D$可见线$普通线
100
AcDbLine
 10
959.1473317120426
 20
113.1324622789816
 30
0.0
 11
959.1566306741197
 21
113.0368130225449
 31
0.0
  0
SPLINE
  5
149
330
1F
100
AcDbEntity
  8
Make2D$可见线$普通线
100
AcDbSpline
210
0.0
220
0.0
230
1.0
 70
    12
 71
     2
 72
    60
 73
    57
 74
     0
 42
0.000000001
 43
0.0000000001
 12
1.0
 22
0.0
 32
0.0
 13
1.0
 23
0.0
 33
0.0
 40
0.0
 40
0.0
 40
0.0
 40
11.14694529093991
 40
11.14694529093991
 40
17.46859713986832
 40
17.46859713986832
 40
23.69923950524381
 40
23.69923950524381
 40
29.51091581049747
 40
29.51091581049747
 40
34.72491067046868
 40
34.72491067046868
 40
39.25576033986422
 40
39.25576033986422
 40
43.3119231975149
 40
43.3119231975149
 40
47.15967017078115
 40
47.15967017078115
 40
51.04159337753427
 40
51.04159337753427
 40
54.9967020727634
 40
54.9967020727634
 40
58.96531442469573
 40
58.96531442469573
 40
62.91225229708174
 40
62.91225229708174
 40
66.85103229038548
 40
66.85103229038548
 40
70.91733182587038
 40
70.91733182587038
 40
75.27328453935306
 40
75.27328453935306
 40
80.08371585884825
 40
80.08371585884825
 40
85.47353698255534
 40
85.47353698255534
 40
91.47269239887333
 40
91.47269239887333
 40
98.09906236803354
 40
98.09906236803354
 40
105.3872800099077
 40
105.3872800099077
 40
113.4361451102363
 40
113.4361451102363
 40
122.3595059799232
 40
122.3595059799232
 40
132.2524486451854
 40
132.2524486451854
 40
143.1782771201949
 40
143.1782771201949
 40
155.2142494729299
 40
155.2142494729299
 40
168.5280287940794
 40
168.5280287940794
 40
183.3089002381672
 40
183.3089002381672
 40
199.7460407377954
 40
199.7460407377954
 40
199.7460407377954
 10
992.6392645659735
 20
305.1005479404766
 30
0.0
 41
1.0
 10
988.8182754203784
 20
301.0303964890682
 30
0.0
 41
0.9975299306026232
 10
985.6053765969345
 20
296.4649422905827
 30
0.0
 41
1.0
 10
983.7814862121458
 20
293.8819704818386
 30
0.0
 41
0.9994374717261969
 10
982.1348521754136
 20
291.1825416812278
 30
0.0
 41
1.0
 10
980.5117729513308
 20
288.5224218747824
 30
0.0
 41
0.9995831197621914
 10
979.0449410798051
 20
285.7730532539952
 30
0.0
 41
1.0
 10
977.6764141768418
 20
283.2090367356209
 30
0.0
 41
0.9997202053925914
 10
976.430683154987
 20
280.583165297066
 30
0.0
 41
1.0
 10
975.3127996482984
 20
278.2276624467635
 30
0.0
 41
0.9998210935146458
 10
974.2848092526278
 20
275.831562916545
 30
0.0
 41
1.0
 10
973.3913168792603
 20
273.7495973194185
 30
0.0
 41
0.9998889971588893
 10
972.560254567737
 20
271.6419339679198
 30
0.0
 41
1.0
 10
971.8161534949453
 20
269.7551799853885
 30
0.0
 41
0.9999247513965269
 10
971.1185644077914
 20
267.8507387385632
 30
0.0
 41
1.0
 10
970.4567779057526
 20
266.044190686495
 30
0.0
 41
0.9999416370338672
 10
969.8341788561438
 20
264.2237655542419
 30
0.0
 41
1.0
 10
969.2060297501196
 20
262.3871872660072
 30
0.0
 41
0.9999484094338265
 10
968.6153190926407
 20
260.5382275510985
 30
0.0
 41
1.0
 10
968.0134580725842
 20
258.6544207907698
 30
0.0
 41
0.9999533234716054
 10
967.4481097474932
 20
256.7593361306449
 30
0.0
 41
1.0
 10
966.8807774323183
 20
254.8578043321331
 30
0.0
 41
0.9999584521065351
 10
966.3482051457963
 20
252.9462458328392
 30
0.0
 41
1.0
 10
965.8184412448925
 20
251.0451597039649
 30
0.0
 41
0.9999617529766951
 10
965.3220109314475
 20
249.1350981332318
 30
0.0
 41
1.0
 10
964.8266338494975
 20
247.2289799673679
 30
0.0
 41
0.9999636558118074
 10
964.3638294716843
 20
245.3146923652992
 30
0.0
 41
1.0
 10
963.8860589691734
 20
243.338424767686
 30
0.0
 41
0.999963661548207
 10
963.4420520395511
 20
241.3542987341655
 30
0.0
 41
1.0
 10
962.9664517801511
 20
239.2288272643786
 30
0.0
 41
0.9999614922405505
 10
962.5282286125639
 20
237.0953359869161
 30
0.0
 41
1.0
 10
962.0443667362099
 20
234.7392238654709
 30
0.0
 41
0.9999579620011996
 10
961.6037917311191
 20
232.3746350409394
 30
0.0
 41
1.0
 10
961.110086274424
 20
229.7252475772468
 30
0.0
 41
0.9999529042615612
 10
960.6678966198169
 20
227.0667767159994
 30
0.0
 41
1.0
 10
960.1757325338773
 20
224.1077433539484
 30
0.0
 41
0.9999468638835801
 10
959.74467741728
 20
221.1391922912794
 30
0.0
 41
1.0
 10
959.2686621299999
 20
217.8602512402199
 30
0.0
 41
0.9999419138619806
 10
958.8634352874133
 20
214.5718114618303
 30
0.0
 41
1.0
 10
958.4178015023888
 20
210.9549027271711
 30
0.0
 41
0.9999384910821985
 10
958.052503920243
 20
207.3289992615939
 30
0.0
 41
1.0
 10
957.6489520674272
 20
203.3246717224827
 30
0.0
 41
0.9999335179180391
 10
957.3378477248298
 20
199.3121030655734
 30
0.0
 41
1.0
 10
956.9930710369172
 20
194.8635456244978
 30
0.0
 41
0.9999268414319079
 10
956.7560063405072
 20
190.407949749557
 30
0.0
 41
1.0
 10
956.4933078009265
 20
185.4681984444817
 30
0.0
 41
0.9999210821994358
 10
956.354798739635
 20
180.5234063640573
 30
0.0
 41
1.0
 10
956.2020268787578
 20
175.0623277177561
 30
0.0
 41
0.9999173963159877
 10
956.1896767829558
 20
169.5991265776097
 30
0.0
 41
1.0
 10
956.1762406600237
 20
163.5808187989848
 30
0.0
 41
0.9999161081586851
 10
956.3187045914424
 20
157.5641824400293
 30
0.0
 41
1.0
 10
956.4764338841362
 20
150.9087875115622
 30
0.0
 41
0.9999157207986693
 10
956.8069058433348
 20
144.2597313027593
 30
0.0
 41
1.0
 10
957.1747114623159
 20
136.8780597019423
 30
0.0
 41
0.9999201393410078
 10
957.7289614274832
 20
129.5080418205682
 30
0.0
 41
1.0
 10
958.3473459963279
 20
121.3124311140712
 30
0.0
 41
0.9999385194072931
 10
959.1473232813614
 20
113.1325490445752
 30
0.0
 41
1.0
  0
ARC
  5
14A
330
1F
100
AcDbEntity
  8
Make2D$可见线$普通线
100
AcDbCircle
 10
1039.447328060883
 20
261.2532971346704
 30
0.0
 40
64.13716711345444
100
AcDbArc
 50
121.1822594977123
 51
136.8706098281663
  0
LINE
  5
14B
330
1F
100
AcDbEntity
  8
Make2D$可见线$普通线
100
AcDbLine
 10
1015.302333557328
 20
320.5948499864144
 30
0.0
 11
1014.596417496091
 21
320.3120079437804
 31
0.0
  0
LINE
  5
14C
330
1F
100
AcDbEntity
  8
Make2D$可见线$普通线
100
AcDbLine
 10
1018.92171472903
 20
321.9024656258871
 30
0.0
 11
1019.695183816058
 21
322.1302836313789
 31
0.0
  0
ARC
  5
14D
330
1F
100
AcDbEntity
  8
Make2D$可见线$普通线
100
AcDbCircle
 10
1034.954655750657
 20
271.3708106867667
 30
0.0
 40
53.01416627761325
100
AcDbArc
 50
107.7720969390802
 51
109.0802738054674
  0
SPLINE
  5
14E
330
1F
100
AcDbEntity
  8
Make2D$可见线$普通线
100
AcDbSpline
210
0.0
220
0.0
230
1.0
 70
     8
 71
     3
 72
    20
 73
    16
 74
     0
 42
0.000000001
 43
0.0000000001
 12
1.0
 22
0.0
 32
0.0
 13
1.0
 23
0.0
 33
0.0
 40
0.0
 40
0.0
 40
0.0
 40
0.0
 40
21.07255431173796
 40
40.5889888334412
 40
77.86229065194996
 40
111.5327730462076
 40
141.3813918808179
 40
155.2455022351224
 40
168.2779034003745
 40
179.874047373434
 40
190.7760761999463
 40
201.0658509665591
 40
210.779223419686
 40
219.8317010008138
 40
229.5967837026252
 40
229.5967837026252
 40
229.5967837026252
 40
229.5967837026252
 10
958.9878809313141
 20
113.3541574955866
 30
0.0
 10
958.3142104883109
 20
120.3456516218118
 30
0.0
 10
957.1787288856394
 20
133.8298927162384
 30
0.0
 10
955.8642577852088
 20
159.7533930137402
 30
0.0
 10
956.042753377048
 20
189.9331356279179
 30
0.0
 10
959.3541385578305
 20
223.409568218259
 30
0.0
 10
964.6710387961934
 20
248.6953371503782
 30
0.0
 10
970.3746569691157
 20
266.7452239534364
 30
0.0
 10
975.1508037269627
 20
278.663964195119
 30
0.0
 10
980.5461243577024
 20
289.2244071331017
 30
0.0
 10
986.5328486282588
 20
298.3892103276112
 30
0.0
 10
993.2302299667817
 20
306.2490413643638
 30
0.0
 10
1000.522590556823
 20
312.6636781793161
 30
0.0
 10
1008.55118819046
 20
317.8122984044535
 30
0.0
 10
1014.319331685776
 20
320.3304755552388
 30
0.0
 10
1017.395365431164
 20
321.3938272963824
 30
0.0
  0
ARC
  5
14F
330
1F
100
AcDbEntity
  8
Make2D$可见线$普通线
100
AcDbCircle
 10
-991.4553258018656
 20
255.0252652507574
 30
0.0
 40
2054.211749131604
100
AcDbArc
 50
2.537882731549562
 51
2.827882032288597
  0
SPLINE
  5
150
330
1F
100
AcDbEntity
  8
Make2D$可见线$普通线
100
AcDbSpline
210
0.0
220
0.0
230
1.0
 70
     8
 71
     3
 72
    12
 73
     8
 74
     0
 42
0.000000001
 43
0.0000000001
 12
1.0
 22
0.0
 32
0.0
 13
1.0
 23
0.0
 33
0.0
 40
0.0
 40
0.0
 40
0.0
 40
0.0
 40
1.237400354272761
 40
2.467582243520509
 40
5.327028847061475
 40
8.866450861561262
 40
13.09777525662727
 40
13.09777525662727
 40
13.09777525662727
 40
13.09777525662727
 10
1051.443136900185
 20
365.0703635137234
 30
0.0
 10
1051.857007021281
 20
365.0775373647034
 30
0.0
 10
1052.676806849418
 20
364.9922313969255
 30
0.0
 10
1054.374675357959
 20
364.4166070045644
 30
0.0
 10
1056.435818615064
 20
362.864492944361
 30
0.0
 10
1058.562413846388
 20
360.0021211581789
 30
0.0
 10
1059.706912364683
 20
357.6712512806789
 30
0.0
 10
1060.254900532698
 20
356.3714907580352
 30
0.0
  0
LINE
  5
151
330
1F
100
AcDbEntity
  8
Make2D$可见线$普通线
100
AcDbLine
 10
1051.443136900185
 20
365.0703635137234
 30
0.0
 11
1048.95320261237
 21
365.0283510077443
 31
0.0
  0
LINE
  5
152
330
1F
100
AcDbEntity
  8
Make2D$可见线$普通线
100
AcDbLine
 10
1045.640080033723
 20
361.0316886330884
 30
0.0
 11
1045.758156248829
 21
361.0337499188386
 31
0.0
  0
LINE
  5
153
330
1F
100
AcDbEntity
  8
Make2D$可见线$普通线
100
AcDbLine
 10
1048.953202612371
 20
365.0283510077443
 30
0.0
 11
1036.829157699284
 21
364.8131973679128
 31
0.0
  0
LINE
  5
154
330
1F
100
AcDbEntity
  8
Make2D$可见线$普通线
100
AcDbLine
 10
1036.829157699284
 20
364.8131973679128
 30
0.0
 11
1024.643641942302
 21
364.596954722273
 31
0.0
  0
LINE
  5
155
330
1F
100
AcDbEntity
  8
Make2D$可见线$普通线
100
AcDbLine
 10
1022.09832295246
 20
335.494556374619
 30
0.0
 11
1022.084783885238
 21
335.4459344311699
 31
0.0
  0
ARC
  5
156
330
1F
100
AcDbEntity
  8
Make2D$可见线$普通线
100
AcDbCircle
 10
1021.968799060823
 20
335.5025808409503
 30
0.0
 40
0.1298062061383503
100
AcDbArc
 50
357.9653301815671
 51
25.18307030063823
  0
ARC
  5
157
330
1F
100
AcDbEntity
  8
Make2D$可见线$普通线
100
AcDbCircle
 10
1022.295190017232
 20
357.0577748405203
 30
0.0
 40
0.1362233611957519
100
AcDbArc
 50
0.8725364433214041
 51
29.53381840129708
  0
LINE
  5
158
330
1F
100
AcDbEntity
  8
Make2D$可见线$普通线
100
AcDbLine
 10
1022.41150337065
 20
356.9911809496139
 30
0.0
 11
1022.427341720439
 21
357.0286563041038
 31
0.0
  0
ARC
  5
159
330
1F
100
AcDbEntity
  8
Make2D$可见线$普通线
100
AcDbCircle
 10
1037.556350375705
 20
264.0517896987565
 30
0.0
 40
60.76414571595171
100
AcDbArc
 50
117.6652086895347
 51
121.0230711861768
  0
ARC
  5
15A
330
1F
100
AcDbEntity
  8
Make2D$可见线$普通线
100
AcDbCircle
 10
1037.543561793417
 20
264.0975614548537
 30
0.0
 40
60.71766979602155
100
AcDbArc
 50
112.2056384705552
 51
117.6745588063308
  0
ARC
  5
15B
330
1F
100
AcDbEntity
  8
Make2D$可见线$普通线
100
AcDbCircle
 10
1037.431423916293
 20
264.3333099572231
 30
0.0
 40
60.45707176643234
100
AcDbArc
 50
107.491281593571
 51
111.4709725806899
  0
ARC
  5
15C
330
1F
100
AcDbEntity
  8
Make2D$可见线$普通线
100
AcDbCircle
 10
1019.898611340435
 20
326.1411433058574
 30
0.0
 40
2.611092531854651
100
AcDbArc
 50
355.9031576706772
 51
12.63783828564637
  0
SPLINE
  5
15D
330
1F
100
AcDbEntity
  8
Make2D$可见线$普通线
100
AcDbSpline
210
0.0
220
0.0
230
1.0
 70
     8
 71
     3
 72
    12
 73
     8
 74
     0
 42
0.000000001
 43
0.0000000001
 12
1.0
 22
0.0
 32
0.0
 13
1.0
 23
0.0
 33
0.0
 40
-0.9999999158565842
 40
-0.9999999158565842
 40
-0.9999999158565842
 40
-0.9999999158565842
 40
-0.4999999726444771
 40
-0.4999999726444771
 40
-0.2499999931523324
 40
-0.2499999931523324
 40
-0.0000000061661578
 40
-0.0000000061661578
 40
-0.0000000061661578
 40
-0.0000000061661578
 10
1022.086267553356
 20
335.5578149283801
 30
0.0
 10
1022.061813691482
 20
333.7815663283973
 30
0.0
 10
1022.078834023084
 20
331.9003662241685
 30
0.0
 10
1022.171282258486
 20
329.4353240129058
 30
0.0
 10
1022.21268806465
 20
328.6683267420631
 30
0.0
 10
1022.318291136989
 20
327.311889536204
 30
0.0
 10
1022.383000841403
 20
326.7299641847358
 30
0.0
 10
1022.457362409182
 20
326.2664766687067
 30
0.0
  0
ARC
  5
15E
330
1F
100
AcDbEntity
  8
Make2D$可见线$普通线
100
AcDbCircle
 10
9023.053908482745
 20
224.8680554324818
 30
0.0
 40
8001.733275613256
100
AcDbArc
 50
179.0529420044577
 51
179.2073894341826
  0
SPLINE
  5
15F
330
1F
100
AcDbEntity
  8
Make2D$可见线$普通线
100
AcDbSpline
210
0.0
220
0.0
230
1.0
 70
     8
 71
     3
 72
    10
 73
     6
 74
     0
 42
0.000000001
 43
0.0000000001
 12
1.0
 22
0.0
 32
0.0
 13
1.0
 23
0.0
 33
0.0
 40
-1.0
 40
-1.0
 40
-1.0
 40
-1.0
 40
-0.4994386597215248
 40
-0.4994386597215248
 40
0.0
 40
0.0
 40
0.0
 40
0.0
 10
1023.403975449797
 20
364.5749549811399
 30
0.0
 10
1023.128059530707
 20
364.5694677146266
 30
0.0
 10
1022.890918881467
 20
363.8083671230679
 30
0.0
 10
1022.548350293178
 20
361.0817026516233
 30
0.0
 10
1022.44775410093
 20
359.1812459416224
 30
0.0
 10
1022.413713181696
 20
357.1249244021055
 30
0.0
  0
LINE
  5
160
330
1F
100
AcDbEntity
  8
Make2D$可见线$普通线
100
AcDbLine
 10
1024.643641942302
 20
364.596954722273
 30
0.0
 11
1023.403975449797
 21
364.5749549811399
 31
0.0
  0
LINE
  5
161
330
1F
100
AcDbEntity
  8
Make2D$可见线$普通线
100
AcDbLine
 10
1021.715720560157
 20
325.7184088104295
 30
0.0
 11
1021.678672426087
 21
325.7660439124884
 31
0.0
  0
LINE
  5
162
330
1F
100
AcDbEntity
  8
Make2D$可见线$普通线
100
AcDbLine
 10
1022.457362409182
 20
326.2664766687067
 30
0.0
 11
1022.503031804375
 21
325.9546003967998
 31
0.0
  0
ARC
  5
163
330
1F
100
AcDbEntity
  8
Make2D$可见线$普通线
100
AcDbCircle
 10
10759.92386846666
 20
385.9104498097376
 30
0.0
 40
9738.53624236566
100
AcDbArc
 50
180.1145610846823
 51
180.3432312372755
  0
ARC
  5
164
330
1F
100
AcDbEntity
  8
Make2D$可见线$普通线
100
AcDbCircle
 10
1033.314006383516
 20
327.2736634544889
 30
0.0
 40
11.75542533294163
100
AcDbArc
 50
178.5460951381519
 51
186.8335712002963
  0
LINE
  5
165
330
1F
100
AcDbEntity
  8
Make2D$可见线$普通线
100
AcDbLine
 10
1021.67867108582
 20
325.7660477975803
 30
0.0
 11
1021.642093541513
 21
325.8749307071039
 31
0.0
  0
ARC
  5
166
330
1F
100
AcDbEntity
  8
Make2D$可见线$普通线
100
AcDbCircle
 10
1017.359719276821
 20
284.8889138636191
 30
0.0
 40
36.274303249735
100
AcDbArc
 50
92.71466044591871
 51
98.31001237501613
  0
ARC
  5
167
330
1F
100
AcDbEntity
  8
Make2D$可见线$普通线
100
AcDbCircle
 10
1026.522328664499
 20
207.5422733990235
 30
0.0
 40
114.152649523932
100
AcDbArc
 50
97.25020950119837
 51
100.5292622329563
  0
ARC
  5
168
330
1F
100
AcDbEntity
  8
Make2D$可见线$普通线
100
AcDbCircle
 10
1087.750565260996
 20
8130.661708167196
 30
0.0
 40
7811.320260523084
100
AcDbArc
 50
268.9217540748832
 51
269.3978548524951
  0
SPLINE
  5
169
330
1F
100
AcDbEntity
  8
Make2D$可见线$普通线
100
AcDbSpline
210
0.0
220
0.0
230
1.0
 70
     8
 71
     3
 72
    10
 73
     6
 74
     0
 42
0.000000001
 43
0.0000000001
 12
1.0
 22
0.0
 32
0.0
 13
1.0
 23
0.0
 33
0.0
 40
-0.9999958661196541
 40
-0.9999958661196541
 40
-0.9999958661196541
 40
-0.9999958661196541
 40
-0.5
 40
-0.5
 40
-0.0000037560903799
 40
-0.0000037560903799
 40
-0.0000037560903799
 40
-0.0000037560903799
 10
940.7584207829386
 20
320.7246039866636
 30
0.0
 10
939.074018553205
 20
320.6289621340736
 30
0.0
 10
937.3688144708995
 20
320.2110644855452
 30
0.0
 10
934.0871945169697
 20
319.2765056782994
 30
0.0
 10
932.4884570168556
 20
318.7610084566086
 30
0.0
 10
930.9536856255982
 20
318.3804660285421
 30
0.0
  0
ARC
  5
16A
330
1F
100
AcDbEntity
  8
Make2D$可见线$普通线
100
AcDbCircle
 10
892.9370406550926
 20
-745817.9728925701
 30
0.0
 40
746139.9059724677
100
AcDbArc
 50
89.99723548649365
 51
90.01419061667973
  0
LINE
  5
16B
330
1F
100
AcDbEntity
  8
Make2D$可见线$普通线
100
AcDbLine
 10
1013.009323957744
 20
321.9235767718653
 30
0.0
 11
1017.658106479853
 21
321.923087473788
 31
0.0
  0
ARC
  5
16C
330
1F
100
AcDbEntity
  8
Make2D$可见线$普通线
100
AcDbCircle
 10
1003.607693171165
 20
105.7010846158649
 30
0.0
 40
216.4267612477765
100
AcDbArc
 50
87.51046885826213
 51
89.41183690831313
  0
ARC
  5
16D
330
1F
100
AcDbEntity
  8
Make2D$可见线$普通线
100
AcDbCircle
 10
1086.63381772536
 20
12165.8823590684
 30
0.0
 40
11844.04155858597
100
AcDbArc
 50
269.2949266581636
 51
269.6090854486852
  0
SPLINE
  5
16E
330
1F
100
AcDbEntity
  8
Make2D$可见线$普通线
100
AcDbSpline
210
0.0
220
0.0
230
1.0
 70
     8
 71
     3
 72
    10
 73
     6
 74
     0
 42
0.000000001
 43
0.0000000001
 12
1.0
 22
0.0
 32
0.0
 13
1.0
 23
0.0
 33
0.0
 40
0.0
 40
0.0
 40
0.0
 40
0.0
 40
0.4999503670458824
 40
0.4999503670458824
 40
0.9997848390357871
 40
0.9997848390357871
 40
0.9997848390357871
 40
0.9997848390357871
 10
928.938231954512
 20
321.9322113705502
 30
0.0
 10
930.6743834608656
 20
322.0320385253899
 30
0.0
 10
932.5343568667904
 20
322.2238377959029
 30
0.0
 10
936.4953972741309
 20
322.5885461910439
 30
0.0
 10
938.6368729547639
 20
322.7655938796877
 30
0.0
 10
940.8835808540889
 20
322.7376205553273
 30
0.0
  0
SPLINE
  5
16F
330
1F
100
AcDbEntity
  8
Make2D$可见线$普通线
100
AcDbSpline
210
0.0
220
0.0
230
1.0
 70
     8
 71
     3
 72
    11
 73
     7
 74
     0
 42
0.000000001
 43
0.0000000001
 12
1.0
 22
0.0
 32
0.0
 13
1.0
 23
0.0
 33
0.0
 40
0.0
 40
0.0
 40
0.0
 40
0.0
 40
9.601323351246695
 40
18.76686785777667
 40
36.97458608803667
 40
71.61657728368066
 40
71.61657728368066
 40
71.61657728368066
 40
71.61657728368066
 10
748.3758045811583
 20
282.9897593191226
 30
0.0
 10
747.921097412006
 20
279.8217418289255
 30
0.0
 10
746.9928877106076
 20
273.6353433953523
 30
0.0
 10
744.996958430344
 20
261.4726823461815
 30
0.0
 10
741.2217119386687
 20
241.146838946441
 30
0.0
 10
737.2416082393511
 20
223.9769035591489
 30
0.0
 10
734.2323781902624
 20
212.8280927906226
 30
0.0
  0
ARC
  5
170
330
1F
100
AcDbEntity
  8
Make2D$可见线$普通线
100
AcDbCircle
 10
746.812543670302
 20
318.68140599879
 30
0.0
 40
35.72586496337938
100
AcDbArc
 50
265.6405621119706
 51
272.5078989611972
  0
ARC
  5
171
330
1F
100
AcDbEntity
  8
Make2D$可见线$普通线
100
AcDbCircle
 10
782.8281161961822
 20
854.947015563549
 30
0.0
 40
573.198151126383
100
AcDbArc
 50
265.6632706050668
 51
266.1255398654504
  0
LINE
  5
172
330
1F
100
AcDbEntity
  8
Make2D$可见线$普通线
100
AcDbLine
 10
739.1619208692814
 20
283.4144730577464
 30
0.0
 11
739.4840402960808
 21
283.3900091820869
 31
0.0
  0
SPLINE
  5
173
330
1F
100
AcDbEntity
  8
Make2D$可见线$普通线
100
AcDbSpline
210
0.0
220
0.0
230
1.0
 70
     8
 71
     3
 72
    14
 73
    10
 74
     0
 42
0.000000001
 43
0.0000000001
 12
1.0
 22
0.0
 32
0.0
 13
1.0
 23
0.0
 33
0.0
 40
0.0
 40
0.0
 40
0.0
 40
0.0
 40
2.534109940009676
 40
4.727863644451444
 40
8.77061464183528
 40
10.34234260911156
 40
11.4970036680261
 40
12.35470327922849
 40
12.94957513912047
 40
12.94957513912047
 40
12.94957513912047
 40
12.94957513912047
 10
737.878324721315
 20
295.7670745814887
 30
0.0
 10
737.769090476515
 20
294.9299531067909
 30
0.0
 10
737.5926368353475
 20
293.362175945379
 30
0.0
 10
737.4106403173769
 20
290.4455466654226
 30
0.0
 10
737.4199522445442
 20
287.8364394872115
 30
0.0
 10
737.7461164485649
 20
285.5982037380736
 30
0.0
 10
738.0862225179726
 20
284.4509389790687
 30
0.0
 10
738.5221761883649
 20
283.6825574291533
 30
0.0
 10
738.9599082375412
 20
283.4248392574816
 30
0.0
 10
739.1619208692814
 20
283.4144730577464
 30
0.0
  0
ARC
  5
174
330
1F
100
AcDbEntity
  8
Make2D$可见线$普通线
100
AcDbCircle
 10
148.8324351369857
 20
373.5481628493483
 30
0.0
 40
594.1590340377174
100
AcDbArc
 50
352.4778458034093
 51
353.6364222780126
  0
SPLINE
  5
175
330
1F
100
AcDbEntity
  8
Make2D$可见线$普通线
100
AcDbSpline
210
0.0
220
0.0
230
1.0
 70
     8
 71
     3
 72
    10
 73
     6
 74
     0
 42
0.000000001
 43
0.0000000001
 12
1.0
 22
0.0
 32
0.0
 13
1.0
 23
0.0
 33
0.0
 40
-0.999999920608539
 40
-0.999999920608539
 40
-0.999999920608539
 40
-0.999999920608539
 40
-0.4940251862579974
 40
-0.4940251862579974
 40
-0.0000007106963448
 40
-0.0000007106963448
 40
-0.0000007106963448
 40
-0.0000007106963448
 10
739.002327521077
 20
310.3837995099029
 30
0.0
 10
739.1518660215461
 20
310.2764676368811
 30
0.0
 10
739.2811768545057
 20
309.9913116233172
 30
0.0
 10
739.4061087553209
 20
309.0522085747957
 30
0.0
 10
739.4090610057519
 20
308.3958019224076
 30
0.0
 10
739.3306049115554
 20
307.6932524625672
 30
0.0
  0
SPLINE
  5
176
330
1F
100
AcDbEntity
  8
Make2D$可见线$普通线
100
AcDbSpline
210
0.0
220
0.0
230
1.0
 70
     8
 71
     3
 72
    12
 73
     8
 74
     0
 42
0.000000001
 43
0.0000000001
 12
1.0
 22
0.0
 32
0.0
 13
1.0
 23
0.0
 33
0.0
 40
0.0
 40
0.0
 40
0.0
 40
0.0
 40
4.286766938873239
 40
8.79286980625171
 40
17.37482874643457
 40
25.63197084055628
 40
33.26218554373538
 40
33.26218554373538
 40
33.26218554373538
 40
33.26218554373538
 10
708.1383455883083
 20
321.9101950754766
 30
0.0
 10
709.554792680964
 20
321.7215681489897
 30
0.0
 10
712.4492298686228
 20
321.253609066029
 30
0.0
 10
718.1089576753884
 20
320.0139575212761
 30
0.0
 10
724.9192543423824
 20
317.9157789780879
 30
0.0
 10
732.3963460787486
 20
314.6185719427085
 30
0.0
 10
736.9354372442349
 20
311.8666131077114
 30
0.0
 10
739.0023274506857
 20
310.3837995604263
 30
0.0
  0
SPLINE
  5
177
330
1F
100
AcDbEntity
  8
Make2D$可见线$普通线
100
AcDbSpline
210
0.0
220
0.0
230
1.0
 70
     8
 71
     3
 72
    15
 73
    11
 74
     0
 42
0.000000001
 43
0.0000000001
 12
1.0
 22
0.0
 32
0.0
 13
1.0
 23
0.0
 33
0.0
 40
0.0
 40
0.0
 40
0.0
 40
0.0
 40
0.3605326025879759
 40
0.906965103011675
 40
1.491891439828309
 40
3.815249794809207
 40
4.878506286690809
 40
7.379041042197513
 40
9.550093509373177
 40
11.37558998935973
 40
11.37558998935973
 40
11.37558998935973
 40
11.37558998935973
 10
697.9171761850121
 20
326.7005278000781
 30
0.0
 10
698.0384374510395
 20
326.6928820783244
 30
0.0
 10
698.3281911959184
 20
326.6023207156277
 30
0.0
 10
698.7706838908866
 20
326.3725078373468
 30
0.0
 10
699.7524001348261
 20
325.771092433177
 30
0.0
 10
700.8610828593969
 20
325.0466473494173
 30
0.0
 10
702.5444503022281
 20
324.0380764317522
 30
0.0
 10
704.2266553395461
 20
323.1268045276581
 30
0.0
 10
706.2353350022149
 20
322.3046849600894
 30
0.0
 10
707.5350246845164
 20
321.9916174079292
 30
0.0
 10
708.138276881712
 20
321.9102042725156
 30
0.0
  0
SPLINE
  5
178
330
1F
100
AcDbEntity
  8
Make2D$可见线$普通线
100
AcDbSpline
210
0.0
220
0.0
230
1.0
 70
     8
 71
     3
 72
    10
 73
     6
 74
     0
 42
0.000000001
 43
0.0000000001
 12
1.0
 22
0.0
 32
0.0
 13
1.0
 23
0.0
 33
0.0
 40
-0.9999869584505392
 40
-0.9999869584505392
 40
-0.9999869584505392
 40
-0.9999869584505392
 40
-0.5
 40
-0.5
 40
-0.0000143593849365
 40
-0.0000143593849365
 40
-0.0000143593849365
 40
-0.0000143593849365
 10
707.4884552440731
 20
194.383521111926
 30
0.0
 10
707.0671037298225
 20
194.4694079919805
 30
0.0
 10
706.6428598981593
 20
194.5628417042587
 30
0.0
 10
705.8971781754672
 20
194.78572709125
 30
0.0
 10
705.5641262859808
 20
194.9140850439169
 30
0.0
 10
705.4698636907792
 20
195.0888638386214
 30
0.0
  0
SPLINE
  5
179
330
1F
100
AcDbEntity
  8
Make2D$可见线$普通线
100
AcDbSpline
210
0.0
220
0.0
230
1.0
 70
     8
 71
     3
 72
    17
 73
    13
 74
     0
 42
0.000000001
 43
0.0000000001
 12
1.0
 22
0.0
 32
0.0
 13
1.0
 23
0.0
 33
0.0
 40
0.0
 40
0.0
 40
0.0
 40
0.0
 40
0.6359573802073202
 40
1.383708941752541
 40
3.271318089053511
 40
4.022746099330884
 40
4.637831300353392
 40
5.345190471361978
 40
6.087395799458401
 40
7.312590393996508
 40
7.706668379517335
 40
9.187933858510286
 40
9.187933858510286
 40
9.187933858510286
 40
9.187933858510286
 10
705.4698555698196
 20
195.0888788974644
 30
0.0
 10
705.2603195284546
 20
195.1202347945878
 30
0.0
 10
704.8077101425847
 20
195.2152980366795
 30
0.0
 10
703.7829014405643
 20
195.5960418811635
 30
0.0
 10
702.7996410395363
 20
196.1590598354401
 30
0.0
 10
701.8933707047481
 20
196.7532475860853
 30
0.0
 10
701.3201922461813
 20
197.1404790267688
 30
0.0
 10
700.7618516648881
 20
197.5425843199032
 30
0.0
 10
700.053322442865
 20
198.084606097503
 30
0.0
 10
699.3555537042421
 20
198.4593660966279
 30
0.0
 10
698.561739728787
 20
199.1248423604172
 30
0.0
 10
698.1665341038342
 20
199.61599823297
 30
0.0
 10
697.7704387500321
 20
199.9145704750126
 30
0.0
  0
SPLINE
  5
17A
330
1F
100
AcDbEntity
  8
Make2D$可见线$普通线
100
AcDbSpline
210
0.0
220
0.0
230
1.0
 70
     8
 71
     3
 72
    14
 73
    10
 74
     0
 42
0.000000001
 43
0.0000000001
 12
1.0
 22
0.0
 32
0.0
 13
1.0
 23
0.0
 33
0.0
 40
0.0
 40
0.0
 40
0.0
 40
0.0
 40
0.3110599583387854
 40
0.6183223124511505
 40
1.538617542404493
 40
1.846309169523378
 40
2.92270201223884
 40
3.870275707936914
 40
4.101003678400506
 40
4.101003678400506
 40
4.101003678400506
 40
4.101003678400506
 10
697.7699657760104
 20
322.6076863819108
 30
0.0
 10
697.786467038567
 20
322.7099628455362
 30
0.0
 10
697.8119914809631
 20
322.914875158006
 30
0.0
 10
697.8253178935456
 20
323.4279263735259
 30
0.0
 10
697.7931396034337
 20
323.9390988579357
 30
0.0
 10
697.7835161059793
 20
324.7072184398789
 30
0.0
 10
697.8228204069592
 20
325.4842048876121
 30
0.0
 10
697.79235202165
 20
326.2357534244234
 30
0.0
 10
697.7981763923353
 20
326.6284524347907
 30
0.0
 10
697.8087726694439
 20
326.7049465253631
 30
0.0
  0
LINE
  5
17B
330
1F
100
AcDbEntity
  8
Make2D$可见线$普通线
100
AcDbLine
 10
697.7704387500089
 20
199.9145763740894
 30
0.0
 11
697.7699657760104
 21
322.6076863819108
 31
0.0
  0
SPLINE
  5
17C
330
1F
100
AcDbEntity
  8
Make2D$可见线$普通线
100
AcDbSpline
210
0.0
220
0.0
230
1.0
 70
     8
 71
     3
 72
    12
 73
     8
 74
     0
 42
0.000000001
 43
0.0000000001
 12
1.0
 22
0.0
 32
0.0
 13
1.0
 23
0.0
 33
0.0
 40
0.0
 40
0.0
 40
0.0
 40
0.0
 40
1.893752366696709
 40
3.63507321193241
 40
7.179088872326502
 40
10.5414401247531
 40
13.99633928853025
 40
13.99633928853025
 40
13.99633928853025
 40
13.99633928853025
 10
697.7685020519757
 20
186.7082414088818
 30
0.0
 10
697.445246540643
 20
187.2497703582708
 30
0.0
 10
696.8756047654615
 20
188.3234069671171
 30
0.0
 10
696.0314923955962
 20
190.5651749058729
 30
0.0
 10
695.56643298161
 20
193.4440776930505
 30
0.0
 10
696.1156039970479
 20
196.8984695927434
 30
0.0
 10
697.1337692844222
 20
198.9552471231229
 30
0.0
 10
697.7704387500321
 20
199.9145704750126
 30
0.0
  0
ARC
  5
17D
330
1F
100
AcDbEntity
  8
Make2D$可见线$普通线
100
AcDbCircle
 10
-6255.742530801776
 20
-6.026416784332337
 30
0.0
 40
6756.522012466738
100
AcDbArc
 50
359.9036135594843
 51
0.4124213488889651
  0
ARC
  5
17E
330
1F
100
AcDbEntity
  8
Make2D$可见线$普通线
100
AcDbCircle
 10
762.7699211789065
 20
17.60735038193025
 30
0.0
 40
5.00000724875791
100
AcDbArc
 50
0.0000723137778245
 51
179.9999469077324
  0
ARC
  5
17F
330
1F
100
AcDbEntity
  8
Make2D$可见线$普通线
100
AcDbCircle
 10
762.7699211789042
 20
17.60736500726273
 30
0.0
 40
5.000007248763247
100
AcDbArc
 50
180.0001145014544
 51
359.9999047200557
  0
SPLINE
  5
180
330
1F
100
AcDbEntity
  8
Make2D$可见线$普通线
100
AcDbSpline
210
0.0
220
0.0
230
1.0
 70
     8
 71
     3
 72
    12
 73
     8
 74
     0
 42
0.000000001
 43
0.0000000001
 12
1.0
 22
0.0
 32
0.0
 13
1.0
 23
0.0
 33
0.0
 40
0.0
 40
0.0
 40
0.0
 40
0.0
 40
14.79906127630056
 40
52.4465891153599
 40
63.86066112413338
 40
85.01322085612556
 40
130.4901909948166
 40
130.4901909948166
 40
130.4901909948166
 40
130.4901909948166
 10
950.8527577140012
 20
112.6073084967791
 30
0.0
 10
951.283103442614
 20
107.6930713217923
 30
0.0
 10
952.9392364053483
 20
90.28937564468333
 30
0.0
 10
955.0558603666786
 20
69.10804195562241
 30
0.0
 10
957.3116359750384
 20
45.81212991210919
 30
0.0
 10
959.6883682380285
 20
19.90661198219254
 30
0.0
 10
961.293753117352
 20
-2.248703636732898
 30
0.0
 10
961.9865480321728
 20
-17.39263701976938
 30
0.0
  0
SPLINE
  5
181
330
1F
100
AcDbEntity
  8
Make2D$可见线$普通线
100
AcDbSpline
210
0.0
220
0.0
230
1.0
 70
     8
 71
     3
 72
    14
 73
    10
 74
     0
 42
0.000000001
 43
0.0000000001
 12
1.0
 22
0.0
 32
0.0
 13
1.0
 23
0.0
 33
0.0
 40
0.0
 40
0.0
 40
0.0
 40
0.0
 40
9.839288808646485
 40
21.32620085788887
 40
44.32402832684551
 40
65.69712404459406
 40
101.8642035542589
 40
115.8200888541168
 40
131.3952345705661
 40
131.3952345705661
 40
131.3952345705661
 40
131.3952345705661
 10
971.8816103773247
 20
-17.39264426676664
 30
0.0
 10
971.6914004105565
 20
-14.11839353860978
 30
0.0
 10
971.2372123439122
 20
-7.024089818013181
 30
0.0
 10
970.1192156375237
 20
7.708545026173397
 30
0.0
 10
968.4163622963997
 20
26.25053563375536
 30
0.0
 10
965.5961351025248
 20
52.94825288615016
 30
0.0
 10
962.897562346312
 20
76.62713653015226
 30
0.0
 10
960.5173581560312
 20
98.3967723530011
 30
0.0
 10
959.4841295448041
 20
108.1861424385565
 30
0.0
 10
958.9878816893565
 20
113.3541496283015
 30
0.0
  0
LINE
  5
182
330
1F
100
AcDbEntity
  8
Make2D$可见线$普通线
100
AcDbLine
 10
697.7699279584431
 20
-17.39264315141827
 30
0.0
 11
961.9865480321728
 21
-17.39263701976961
 31
0.0
  0
LINE
  5
183
330
1F
100
AcDbEntity
  8
Make2D$可见线$普通线
100
AcDbLine
 10
500.7755822112617
 20
-17.39264315240234
 30
0.0
 11
697.7699279584431
 21
-17.39264315141827
 31
0.0
  0
LINE
  5
184
330
1F
100
AcDbEntity
  8
Make2D$可见线$普通线
100
AcDbLine
 10
971.8816106237455
 20
-17.39264851373537
 30
0.0
 11
975.7699212133239
 21
-17.39264348011329
 31
0.0
  0
LINE
  5
185
330
1F
100
AcDbEntity
  8
Make2D$可见线$普通线
100
AcDbLine
 10
961.9865480321728
 20
-17.39263701976961
 30
0.0
 11
971.881585419072
 21
-17.39264851353255
 31
0.0
  0
ARC
  5
186
330
1F
100
AcDbEntity
  8
Make2D$可见线$普通线
100
AcDbCircle
 10
1017.469128812059
 20
368.6084743141924
 30
0.0
 40
3.998975821568547
100
AcDbArc
 50
359.9839893644298
 51
86.4605952234247
  0
SPLINE
  5
187
330
1F
100
AcDbEntity
  8
Make2D$可见线$普通线
100
AcDbSpline
210
0.0
220
0.0
230
1.0
 70
     8
 71
     3
 72
     8
 73
     4
 74
     0
 42
0.000000001
 43
0.0000000001
 12
1.0
 22
0.0
 32
0.0
 13
1.0
 23
0.0
 33
0.0
 40
0.0
 40
0.0
 40
0.0
 40
0.0
 40
1.0
 40
1.0
 40
1.0
 40
1.0
 10
1021.40709280896
 20
366.438570009017
 30
0.0
 10
1021.404518731896
 20
367.5925212813554
 30
0.0
 10
1021.426986659951
 20
368.6063478962324
 30
0.0
 10
1021.468104477496
 20
368.6073568471775
 30
0.0
  0
LINE
  5
188
330
1F
100
AcDbEntity
  8
Make2D$可见线$普通线
100
AcDbLine
 10
934.3281981432756
 20
372.6073172632798
 30
0.0
 11
934.5940610945936
 21
372.6073174445455
 31
0.0
  0
SPLINE
  5
189
330
1F
100
AcDbEntity
  8
Make2D$可见线$普通线
100
AcDbSpline
210
0.0
220
0.0
230
1.0
 70
     8
 71
     3
 72
    12
 73
     8
 74
     0
 42
0.000000001
 43
0.0000000001
 12
1.0
 22
0.0
 32
0.0
 13
1.0
 23
0.0
 33
0.0
 40
-0.134917930556092
 40
-0.134917930556092
 40
-0.134917930556092
 40
-0.134917930556092
 40
-0.1250000002179107
 40
-0.1250000002179107
 40
-0.0625000002392965
 40
-0.0625000002392965
 40
-0.0000000002606823
 40
-0.0000000002606823
 40
-0.0000000002606823
 40
-0.0000000002606823
 10
491.0724673533023
 20
149.4454265812585
 30
0.0
 10
491.3312352525772
 20
148.5609668767468
 30
0.0
 10
491.5818932388929
 20
147.6742707900416
 30
0.0
 10
493.3549403017205
 20
141.1859025129697
 30
0.0
 10
494.5762587423187
 20
135.5065069595294
 30
0.0
 10
496.5714487959021
 20
124.0872814192371
 30
0.0
 10
497.343375231269
 20
118.3463407602067
 30
0.0
 10
497.9464895279416
 20
112.6073198308459
 30
0.0
  0
ARC
  5
18A
330
1F
100
AcDbEntity
  8
Make2D$可见线$普通线
100
AcDbCircle
 10
138.2631528200055
 20
-48.65064883197716
 30
0.0
 40
409.3854598826344
100
AcDbArc
 50
35.41974492373546
 51
36.61368468836233
  0
SPLINE
  5
18B
330
1F
100
AcDbEntity
  8
Make2D$可见线$普通线
100
AcDbSpline
210
0.0
220
0.0
230
1.0
 70
     8
 71
     3
 72
    16
 73
    12
 74
     0
 42
0.000000001
 43
0.0000000001
 12
1.0
 22
0.0
 32
0.0
 13
1.0
 23
0.0
 33
0.0
 40
0.0
 40
0.0
 40
0.0
 40
0.0
 40
30.2338232299067
 40
46.99269008019395
 40
61.99764678848882
 40
85.26245367211855
 40
106.9745691003202
 40
125.5784319470768
 40
143.5484820046656
 40
159.9018659946289
 40
178.591963861703
 40
178.591963861703
 40
178.591963861703
 40
178.591963861703
 10
404.1021863619617
 20
365.3466680195461
 30
0.0
 10
405.9558704010315
 20
355.4405584380838
 30
0.0
 10
409.0812310787519
 20
340.0896608947232
 30
0.0
 10
413.6663700930112
 20
319.9379833607099
 30
0.0
 10
417.9906740694732
 20
302.1119842732767
 30
0.0
 10
423.19868365412
 20
282.8037888262716
 30
0.0
 10
429.7465438333788
 20
262.6377975081393
 30
0.0
 10
436.9215426435935
 20
244.5696122655463
 30
0.0
 10
444.620178874668
 20
228.6820676686182
 30
0.0
 10
453.61632541989
 20
213.4501126756297
 30
0.0
 10
460.5456718727742
 20
204.0290051928605
 30
0.0
 10
464.2588828786165
 20
199.0298682057148
 30
0.0
  0
LINE
  5
18C
330
1F
100
AcDbEntity
  8
Make2D$可见线$普通线
100
AcDbLine
 10
934.5940610945936
 20
372.6073174445453
 30
0.0
 11
991.3319009720126
 21
372.6073561300718
 31
0.0
  0
LINE
  5
18D
330
1F
100
AcDbEntity
  8
Make2D$可见线$普通线
100
AcDbLine
 10
874.9750440470825
 20
372.6072767980834
 30
0.0
 11
934.3281981432756
 21
372.6073172632796
 31
0.0
  0
ARC
  5
18E
330
1F
100
AcDbEntity
  8
Make2D$可见线$普通线
100
AcDbCircle
 10
998.9920438303818
 20
48.37691663862615
 30
0.0
 40
690.2247381681457
100
AcDbArc
 50
91.76193297217648
 51
95.87115805783748
  0
ARC
  5
18F
330
1F
100
AcDbEntity
  8
Make2D$可见线$普通线
100
AcDbCircle
 10
995.0628571953179
 20
203.1589547702434
 30
0.0
 40
535.395716143724
100
AcDbArc
 50
89.71030025566786
 51
91.85093861802491
  0
ARC
  5
190
330
1F
100
AcDbEntity
  8
Make2D$可见线$普通线
100
AcDbCircle
 10
998.9448934132776
 20
48.11051413303099
 30
0.0
 40
690.4918646691535
100
AcDbArc
 50
84.16332837623523
 51
88.43773930261273
  0
ARC
  5
191
330
1F
100
AcDbEntity
  8
Make2D$可见线$普通线
100
AcDbCircle
 10
999.1665771320015
 20
-112.8998151155191
 30
0.0
 40
851.4487877552292
100
AcDbArc
 50
88.74804223254895
 51
90.09398395829353
  0
LINE
  5
192
330
1F
100
AcDbEntity
  8
Make2D$可见线$普通线
100
AcDbLine
 10
1074.830372131425
 20
709.6128112065496
 30
0.0
 11
1074.835247857589
 21
709.612020816207
 31
0.0
  0
LINE
  5
193
330
1F
100
AcDbEntity
  8
Make2D$可见线$普通线
100
AcDbLine
 10
1074.830178749677
 20
709.6073543809327
 30
0.0
 11
1074.824483087507
 21
709.6073543601135
 31
0.0
  0
LINE
  5
194
330
1F
100
AcDbEntity
  8
Make2D$可见线$普通线
100
AcDbLine
 10
1074.848608714965
 20
709.6073545168929
 30
0.0
 11
1074.845178445021
 21
709.6073544599635
 31
0.0
  0
LINE
  5
195
330
1F
100
AcDbEntity
  8
Make2D$可见线$普通线
100
AcDbLine
 10
1074.835247857596
 20
709.6120208162054
 30
0.0
 11
1074.844886369877
 21
709.6098103848963
 31
0.0
  0
LINE
  5
196
330
1F
100
AcDbEntity
  8
Make2D$可见线$普通线
100
AcDbLine
 10
1074.848646915368
 20
728.7761751569369
 30
0.0
 11
1074.848646612658
 21
729.0197883711746
 31
0.0
  0
LINE
  5
197
330
1F
100
AcDbEntity
  8
Make2D$可见线$普通线
100
AcDbLine
 10
1074.848608721755
 20
709.6106926304906
 30
0.0
 11
1074.848647073853
 21
728.4639677482537
 31
0.0
  0
ARC
  5
198
330
1F
100
AcDbEntity
  8
Make2D$可见线$普通线
100
AcDbCircle
 10
1072.848629876139
 20
709.607337254809
 30
0.0
 40
1.999978838900378
100
AcDbArc
 50
270.0004945275359
 51
0.0004945275097562
  0
LINE
  5
199
330
1F
100
AcDbEntity
  8
Make2D$可见线$普通线
100
AcDbLine
 10
1069.018298883895
 20
707.6073585406184
 30
0.0
 11
1072.84686562289
 21
707.6073584179189
 31
0.0
  0
LINE
  5
19A
330
1F
100
AcDbEntity
  8
Make2D$可见线$普通线
100
AcDbLine
 10
924.2322545783477
 20
707.6073569227287
 30
0.0
 11
1069.018298883895
 21
707.6073585406184
 31
0.0
  0
LINE
  5
19B
330
1F
100
AcDbEntity
  8
Make2D$可见线$普通线
100
AcDbLine
 10
1033.989544195516
 20
372.6073584070791
 30
0.0
 11
1037.269921184505
 21
372.6073581375135
 31
0.0
  0
LINE
  5
19C
330
1F
100
AcDbEntity
  8
Make2D$可见线$普通线
100
AcDbLine
 10
1033.369707296993
 20
372.607358458014
 30
0.0
 11
1033.82328438459
 21
372.6073584207413
 31
0.0
  0
LINE
  5
19D
330
1F
100
AcDbEntity
  8
Make2D$可见线$普通线
100
AcDbLine
 10
1021.408982725292
 20
372.6073594408626
 30
0.0
 11
1033.087517067313
 21
372.6073584812029
 31
0.0
  0
LINE
  5
19E
330
1F
100
AcDbEntity
  8
Make2D$可见线$普通线
100
AcDbLine
 10
1020.990569401267
 20
372.6073594752443
 30
0.0
 11
1021.299445057586
 21
372.6073594498635
 31
0.0
  0
LINE
  5
19F
330
1F
100
AcDbEntity
  8
Make2D$可见线$普通线
100
AcDbLine
 10
991.3319009720126
 20
372.6073561300718
 30
0.0
 11
1020.980697781989
 21
372.6073594760555
 31
0.0
  0
LINE
  5
1A0
330
1F
100
AcDbEntity
  8
Make2D$可见线$普通线
100
AcDbLine
 10
524.4051023826278
 20
372.6072707146141
 30
0.0
 11
522.1537292212124
 21
372.6072736992512
 31
0.0
  0
SPLINE
  5
1A1
330
1F
100
AcDbEntity
  8
预设值
100
AcDbSpline
210
0.0
220
0.0
230
1.0
 70
    12
 71
     2
 72
     8
 73
     5
 74
     0
 42
0.000000001
 43
0.0000000001
 12
1.0
 22
0.0
 32
0.0
 13
1.0
 23
0.0
 33
0.0
 40
0.0
 40
0.0
 40
0.0
 40
15.79482892876247
 40
15.79482892876247
 40
31.58964914420432
 40
31.58964914420432
 40
31.58964914420432
 10
1037.269921184505
 20
372.6073581375131
 30
0.0
 41
1.0
 10
1045.167336192904
 20
372.607357488544
 30
0.0
 41
0.9999998966717181
 10
1053.064747936608
 20
372.6001765906186
 30
0.0
 41
1.0
 10
1060.962159680311
 20
372.5929956926939
 30
0.0
 41
0.9999990691872175
 10
1068.859561615394
 20
372.6073654747333
 30
0.0
 41
1.0
  0
SPLINE
  5
1A2
330
1F
100
AcDbEntity
  8
预设值
100
AcDbSpline
210
0.0
220
0.0
230
1.0
 70
    12
 71
     2
 72
     8
 73
     5
 74
     0
 42
0.000000001
 43
0.0000000001
 12
1.0
 22
0.0
 32
0.0
 13
1.0
 23
0.0
 33
0.0
 40
0.0
 40
0.0
 40
0.0
 40
59.31219996422082
 40
59.31219996422082
 40
118.624440584415
 40
118.624440584415
 40
118.624440584415
 10
667.631078295987
 20
372.6257278926823
 30
0.0
 41
1.0
 10
697.2871501302183
 20
372.6814373917998
 30
0.0
 41
0.9999987770950939
 10
726.9432511471678
 20
372.6443879942626
 30
0.0
 41
1.0
 10
756.5993521641174
 20
372.6073385967337
 30
0.0
 41
0.9999998052795843
 10
786.2554763239621
 20
372.6073031141641
 30
0.0
 41
1.0
  0
ARC
  5
1A3
330
1F
100
AcDbEntity
  8
Make2D$可见线$普通线
100
AcDbCircle
 10
1017.629666252785
 20
325.9358753583324
 30
0.0
 40
4.012890105377397
100
AcDbArc
 50
270.4089156655455
 51
359.1298028463607
  0
ARC
  5
1A4
330
1F
100
AcDbEntity
  8
Make2D$可见线$普通线
100
AcDbCircle
 10
964.0436513689397
 20
56.70495305592021
 30
0.0
 40
3.999316013081897
100
AcDbArc
 50
7.56622317757178
 51
75.74683544871428
  0
SPLINE
  5
1A5
330
1F
100
AcDbEntity
  8
Make2D$可见线$普通线
100
AcDbSpline
210
0.0
220
0.0
230
1.0
 70
     8
 71
     3
 72
    12
 73
     8
 74
     0
 42
0.000000001
 43
0.0000000001
 12
1.0
 22
0.0
 32
0.0
 13
1.0
 23
0.0
 33
0.0
 40
-0.9999999622058576
 40
-0.9999999622058576
 40
-0.9999999622058576
 40
-0.9999999622058576
 40
-0.5022043135084432
 40
-0.5022043135084432
 40
-0.2529866048259325
 40
-0.2529866048259325
 40
0.0
 40
0.0
 40
0.0
 40
0.0
 10
963.9379632853565
 20
68.76592320795044
 30
0.0
 10
964.3029601048102
 20
65.4942287495669
 30
0.0
 10
964.73449893825
 20
62.28010062132762
 30
0.0
 10
965.3327147543687
 20
58.65864421302194
 30
0.0
 10
965.5137133755461
 20
57.70919776841765
 30
0.0
 10
965.8302916845128
 20
56.37475094092315
 30
0.0
 10
965.9497111351366
 20
56.04424214300707
 30
0.0
 10
966.0349253257073
 20
56.06010846323443
 30
0.0
  0
ENDSEC
  0
SECTION
  2
OBJECTS
  0
DICTIONARY
  5
C
330
0
100
AcDbDictionary
281
     1
  3
ACAD_GROUP
350
D
  3
ACAD_LAYOUT
350
1A
  3
ACAD_MATERIAL
350
3B
  3
ACAD_MLEADERSTYLE
350
1D0
  3
ACAD_MLINESTYLE
350
17
  3
ACAD_PLOTSETTINGS
350
19
  3
ACAD_PLOTSTYLENAME
350
E
  3
ACAD_SCALELIST
350
3F
  3
ACAD_TABLESTYLE
350
1CF
  3
ACAD_VISUALSTYLE
350
2A
  3
AcDbVariableDictionary
350
1A6
  0
DICTIONARY
  5
D
102
{ACAD_REACTORS
330
C
102
}
330
C
100
AcDbDictionary
281
     1
  0
DICTIONARY
  5
1A
102
{ACAD_REACTORS
330
C
102
}
330
C
100
AcDbDictionary
281
     1
  3
Layout1
350
1E
  3
Layout2
350
26
  3
Model
350
22
  0
DICTIONARY
  5
3B
102
{ACAD_REACTORS
330
C
102
}
330
C
100
AcDbDictionary
281
     1
  3
ByBlock
350
3D
  3
ByLayer
350
3C
  3
Global
350
3E
  0
DICTIONARY
  5
1D0
102
{ACAD_REACTORS
330
C
102
}
330
C
100
AcDbDictionary
281
     1
  0
DICTIONARY
  5
17
102
{ACAD_REACTORS
330
C
102
}
330
C
100
AcDbDictionary
281
     1
  3
Standard
350
18
  0
DICTIONARY
  5
19
102
{ACAD_REACTORS
330
C
102
}
330
C
100
AcDbDictionary
281
     1
  0
ACDBDICTIONARYWDFLT
  5
E
102
{ACAD_REACTORS
330
C
102
}
330
C
100
AcDbDictionary
281
     1
  3
Normal
350
F
100
AcDbDictionaryWithDefault
340
F
  0
DICTIONARY
  5
3F
102
{ACAD_REACTORS
330
C
102
}
330
C
100
AcDbDictionary
281
     1
  3
A0
350
40
  3
A1
350
41
  3
A2
350
42
  3
A3
350
43
  3
A4
350
44
  3
A5
350
45
  3
A6
350
46
  3
A7
350
47
  3
A8
350
48
  3
A9
350
49
  3
B0
350
4A
  3
B1
350
4B
  3
B2
350
4C
  3
B3
350
4D
  3
B4
350
4E
  3
B5
350
4F
  3
B6
350
50
  3
B7
350
51
  3
B8
350
52
  3
B9
350
53
  3
C0
350
54
  3
C1
350
55
  3
C2
350
56
  3
C3
350
57
  3
C4
350
58
  3
C5
350
59
  3
C6
350
5A
  3
C7
350
5B
  3
C8
350
5C
  3
C9
350
5D
  3
D0
350
5E
  3
D1
350
5F
  3
D2
350
60
  0
DICTIONARY
  5
1CF
102
{ACAD_REACTORS
330
C
102
}
330
C
100
AcDbDictionary
281
     1
  0
DICTIONARY
  5
2A
102
{ACAD_REACTORS
330
C
102
}
330
C
100
AcDbDictionary
281
     1
  3
2dWireframe
350
2F
  3
3D Hidden
350
31
  3
3dWireframe
350
30
  3
Basic
350
32
  3
Brighten
350
36
  3
ColorChange
350
3A
  3
Conceptual
350
34
  3
Dim
350
35
  3
Facepattern
350
39
  3
Flat
350
2B
  3
FlatWithEdges
350
2C
  3
Gouraud
350
2D
  3
GouraudWithEdges
350
2E
  3
Linepattern
350
38
  3
Realistic
350
33
  3
Thicken
350
37
  0
DICTIONARY
  5
1A6
102
{ACAD_REACTORS
330
C
102
}
330
C
100
AcDbDictionary
281
     1
  3
CANNOSCALE
350
1A7
  3
MSLTSCALE
350
1A8
  0
LAYOUT
  5
1E
102
{ACAD_REACTORS
330
1A
102
}
330
1A
100
AcDbPlotSettings
  1

  2
none_device
  4

  6

 40
0.0
 41
0.0
 42
0.0
 43
0.0
 44
0.0
 45
0.0
 46
0.0
 47
0.0
 48
0.0
 49
0.0
140
0.0
141
0.0
142
1.0
143
1.0
 70
   688
 72
     0
 73
     0
 74
     5
  7

 75
    16
 76
     0
 77
     2
 78
   300
147
1.0
148
0.0
149
0.0
100
AcDbLayout
  1
Layout1
 70
     1
 71
     1
 10
0.0
 20
0.0
 11
12.0
 21
9.0
 12
0.0
 22
0.0
 32
0.0
 14
1.000000000000000E+20
 24
1.000000000000000E+20
 34
1.000000000000000E+20
 15
-1.000000000000000E+20
 25
-1.000000000000000E+20
 35
-1.000000000000000E+20
146
0.0
 13
0.0
 23
0.0
 33
0.0
 16
1.0
 26
0.0
 36
0.0
 17
0.0
 27
1.0
 37
0.0
 76
     0
330
1B
  0
LAYOUT
  5
26
102
{ACAD_REACTORS
330
1A
102
}
330
1A
100
AcDbPlotSettings
  1

  2
none_device
  4

  6

 40
0.0
 41
0.0
 42
0.0
 43
0.0
 44
0.0
 45
0.0
 46
0.0
 47
0.0
 48
0.0
 49
0.0
140
0.0
141
0.0
142
1.0
143
1.0
 70
   688
 72
     0
 73
     0
 74
     5
  7

 75
    16
 76
     0
 77
     2
 78
   300
147
1.0
148
0.0
149
0.0
100
AcDbLayout
  1
Layout2
 70
     1
 71
     2
 10
0.0
 20
0.0
 11
0.0
 21
0.0
 12
0.0
 22
0.0
 32
0.0
 14
0.0
 24
0.0
 34
0.0
 15
0.0
 25
0.0
 35
0.0
146
0.0
 13
0.0
 23
0.0
 33
0.0
 16
1.0
 26
0.0
 36
0.0
 17
0.0
 27
1.0
 37
0.0
 76
     0
330
23
  0
LAYOUT
  5
22
102
{ACAD_REACTORS
330
1A
102
}
330
1A
100
AcDbPlotSettings
  1

  2
none_device
  4
Letter_(8.50_x_11.00_Inches)
  6

 40
6.35
 41
6.35
 42
6.35000508
 43
6.35000508
 44
215.9
 45
279.4
 46
0.0
 47
0.0
 48
0.0
 49
0.0
140
0.0
141
0.0
142
1.0
143
1.0
 70
  1712
 72
     0
 73
     0
 74
     0
  7

 75
     0
 76
     0
 77
     2
 78
   300
147
1.0
148
0.0
149
0.0
100
AcDbLayout
  1
Model
 70
     1
 71
     0
 10
0.0
 20
0.0
 11
12.0
 21
9.0
 12
0.0
 22
0.0
 32
0.0
 14
403.9996356943739
 24
-17.39264851373537
 34
0.0
 15
1074.84864845146
 25
746.6073568471779
 35
0.0
146
0.0
 13
0.0
 23
0.0
 33
0.0
 16
1.0
 26
0.0
 36
0.0
 17
0.0
 27
1.0
 37
0.0
 76
     0
330
1F
331
29
  0
MATERIAL
  5
3D
102
{ACAD_REACTORS
330
3B
102
}
102
{ACAD_XDICTIONARY
360
1CB
102
}
330
3B
100
AcDbMaterial
  1
ByBlock
  0
MATERIAL
  5
3C
102
{ACAD_REACTORS
330
3B
102
}
102
{ACAD_XDICTIONARY
360
1C9
102
}
330
3B
100
AcDbMaterial
  1
ByLayer
  0
MATERIAL
  5
3E
102
{ACAD_REACTORS
330
3B
102
}
102
{ACAD_XDICTIONARY
360
1CD
102
}
330
3B
100
AcDbMaterial
  1
Global
  0
MLINESTYLE
  5
18
102
{ACAD_REACTORS
330
17
102
}
330
17
100
AcDbMlineStyle
  2
Standard
 70
     0
  3

 62
   256
 51
90.0
 52
90.0
 71
     2
 49
0.5
 62
   256
  6
BYLAYER
 49
-0.5
 62
   256
  6
BYLAYER
  0
ACDBPLACEHOLDER
  5
F
102
{ACAD_REACTORS
330
E
102
}
330
E
  0
SCALE
  5
40
102
{ACAD_REACTORS
330
3F
102
}
330
3F
100
AcDbScale
 70
     0
300
1:1
140
1.0
141
1.0
290
     1
  0
SCALE
  5
41
102
{ACAD_REACTORS
330
3F
102
}
330
3F
100
AcDbScale
 70
     0
300
1:2
140
1.0
141
2.0
290
     0
  0
SCALE
  5
42
102
{ACAD_REACTORS
330
3F
102
}
330
3F
100
AcDbScale
 70
     0
300
1:4
140
1.0
141
4.0
290
     0
  0
SCALE
  5
43
102
{ACAD_REACTORS
330
3F
102
}
330
3F
100
AcDbScale
 70
     0
300
1:5
140
1.0
141
5.0
290
     0
  0
SCALE
  5
44
102
{ACAD_REACTORS
330
3F
102
}
330
3F
100
AcDbScale
 70
     0
300
1:8
140
1.0
141
8.0
290
     0
  0
SCALE
  5
45
102
{ACAD_REACTORS
330
3F
102
}
330
3F
100
AcDbScale
 70
     0
300
1:10
140
1.0
141
10.0
290
     0
  0
SCALE
  5
46
102
{ACAD_REACTORS
330
3F
102
}
330
3F
100
AcDbScale
 70
     0
300
1:16
140
1.0
141
16.0
290
     0
  0
SCALE
  5
47
102
{ACAD_REACTORS
330
3F
102
}
330
3F
100
AcDbScale
 70
     0
300
1:20
140
1.0
141
20.0
290
     0
  0
SCALE
  5
48
102
{ACAD_REACTORS
330
3F
102
}
330
3F
100
AcDbScale
 70
     0
300
1:30
140
1.0
141
30.0
290
     0
  0
SCALE
  5
49
102
{ACAD_REACTORS
330
3F
102
}
330
3F
100
AcDbScale
 70
     0
300
1:40
140
1.0
141
40.0
290
     0
  0
SCALE
  5
4A
102
{ACAD_REACTORS
330
3F
102
}
330
3F
100
AcDbScale
 70
     0
300
1:50
140
1.0
141
50.0
290
     0
  0
SCALE
  5
4B
102
{ACAD_REACTORS
330
3F
102
}
330
3F
100
AcDbScale
 70
     0
300
1:100
140
1.0
141
100.0
290
     0
  0
SCALE
  5
4C
102
{ACAD_REACTORS
330
3F
102
}
330
3F
100
AcDbScale
 70
     0
300
2:1
140
2.0
141
1.0
290
     0
  0
SCALE
  5
4D
102
{ACAD_REACTORS
330
3F
102
}
330
3F
100
AcDbScale
 70
     0
300
4:1
140
4.0
141
1.0
290
     0
  0
SCALE
  5
4E
102
{ACAD_REACTORS
330
3F
102
}
330
3F
100
AcDbScale
 70
     0
300
8:1
140
8.0
141
1.0
290
     0
  0
SCALE
  5
4F
102
{ACAD_REACTORS
330
3F
102
}
330
3F
100
AcDbScale
 70
     0
300
10:1
140
10.0
141
1.0
290
     0
  0
SCALE
  5
50
102
{ACAD_REACTORS
330
3F
102
}
330
3F
100
AcDbScale
 70
     0
300
100:1
140
100.0
141
1.0
290
     0
  0
SCALE
  5
51
102
{ACAD_REACTORS
330
3F
102
}
330
3F
100
AcDbScale
 70
     0
300
1/128" = 1'-0"
140
0.0078125
141
12.0
290
     0
  0
SCALE
  5
52
102
{ACAD_REACTORS
330
3F
102
}
330
3F
100
AcDbScale
 70
     0
300
1/64" = 1'-0"
140
0.015625
141
12.0
290
     0
  0
SCALE
  5
53
102
{ACAD_REACTORS
330
3F
102
}
330
3F
100
AcDbScale
 70
     0
300
1/32" = 1'-0"
140
0.03125
141
12.0
290
     0
  0
SCALE
  5
54
102
{ACAD_REACTORS
330
3F
102
}
330
3F
100
AcDbScale
 70
     0
300
1/16" = 1'-0"
140
0.0625
141
12.0
290
     0
  0
SCALE
  5
55
102
{ACAD_REACTORS
330
3F
102
}
330
3F
100
AcDbScale
 70
     0
300
3/32" = 1'-0"
140
0.09375
141
12.0
290
     0
  0
SCALE
  5
56
102
{ACAD_REACTORS
330
3F
102
}
330
3F
100
AcDbScale
 70
     0
300
1/8" = 1'-0"
140
0.125
141
12.0
290
     0
  0
SCALE
  5
57
102
{ACAD_REACTORS
330
3F
102
}
330
3F
100
AcDbScale
 70
     0
300
3/16" = 1'-0"
140
0.1875
141
12.0
290
     0
  0
SCALE
  5
58
102
{ACAD_REACTORS
330
3F
102
}
330
3F
100
AcDbScale
 70
     0
300
1/4" = 1'-0"
140
0.25
141
12.0
290
     0
  0
SCALE
  5
59
102
{ACAD_REACTORS
330
3F
102
}
330
3F
100
AcDbScale
 70
     0
300
3/8" = 1'-0"
140
0.375
141
12.0
290
     0
  0
SCALE
  5
5A
102
{ACAD_REACTORS
330
3F
102
}
330
3F
100
AcDbScale
 70
     0
300
1/2" = 1'-0"
140
0.5
141
12.0
290
     0
  0
SCALE
  5
5B
102
{ACAD_REACTORS
330
3F
102
}
330
3F
100
AcDbScale
 70
     0
300
3/4" = 1'-0"
140
0.75
141
12.0
290
     0
  0
SCALE
  5
5C
102
{ACAD_REACTORS
330
3F
102
}
330
3F
100
AcDbScale
 70
     0
300
1" = 1'-0"
140
1.0
141
12.0
290
     0
  0
SCALE
  5
5D
102
{ACAD_REACTORS
330
3F
102
}
330
3F
100
AcDbScale
 70
     0
300
1-1/2" = 1'-0"
140
1.5
141
12.0
290
     0
  0
SCALE
  5
5E
102
{ACAD_REACTORS
330
3F
102
}
330
3F
100
AcDbScale
 70
     0
300
3" = 1'-0"
140
3.0
141
12.0
290
     0
  0
SCALE
  5
5F
102
{ACAD_REACTORS
330
3F
102
}
330
3F
100
AcDbScale
 70
     0
300
6" = 1'-0"
140
6.0
141
12.0
290
     0
  0
SCALE
  5
60
102
{ACAD_REACTORS
330
3F
102
}
330
3F
100
AcDbScale
 70
     0
300
1'-0" = 1'-0"
140
12.0
141
12.0
290
     0
  0
VISUALSTYLE
  5
2F
102
{ACAD_REACTORS
330
2A
102
}
102
{ACAD_XDICTIONARY
360
1B1
102
}
330
2A
100
AcDbVisualStyle
  2
2dWireframe
 70
     4
 71
     0
 72
     2
 73
     0
 90
        0
 40
0.6
 41
30.0
 62
     5
 63
     7
421
 16777215
 74
     1
 91
        4
 64
     7
 65
   257
 75
     1
175
     1
 42
1.0
 92
        0
 66
   257
 43
1.0
 76
     1
 77
     6
 78
     2
 67
     7
 79
     5
170
     0
171
     0
290
     0
174
     0
 93
        1
 44
0.0
173
     0
291
     0
 45
0.0
1001
ACAD
1000
AcDbSavedByObjectVersion
1070
     0
  0
VISUALSTYLE
  5
31
102
{ACAD_REACTORS
330
2A
102
}
102
{ACAD_XDICTIONARY
360
1B5
102
}
330
2A
100
AcDbVisualStyle
  2
3D Hidden
 70
     6
 71
     1
 72
     2
 73
     2
 90
        0
 40
0.6
 41
30.0
 62
     5
 63
     7
421
 16777215
 74
     2
 91
        2
 64
     7
 65
   257
 75
     2
175
     1
 42
40.0
 92
        0
 66
   257
 43
1.0
 76
     1
 77
     6
 78
     2
 67
     7
 79
     3
170
     0
171
     0
290
     0
174
     0
 93
        1
 44
0.0
173
     0
291
     0
 45
0.0
1001
ACAD
1000
AcDbSavedByObjectVersion
1070
     0
  0
VISUALSTYLE
  5
30
102
{ACAD_REACTORS
330
2A
102
}
102
{ACAD_XDICTIONARY
360
1B3
102
}
330
2A
100
AcDbVisualStyle
  2
3dWireframe
 70
     5
 71
     0
 72
     2
 73
     0
 90
        0
 40
0.6
 41
30.0
 62
     5
 63
     7
421
 16777215
 74
     1
 91
        4
 64
     7
 65
   257
 75
     1
175
     1
 42
1.0
 92
        0
 66
   257
 43
1.0
 76
     1
 77
     6
 78
     2
 67
     7
 79
     5
170
     0
171
     0
290
     0
174
     0
 93
        1
 44
0.0
173
     0
291
     0
 45
0.0
1001
ACAD
1000
AcDbSavedByObjectVersion
1070
     0
  0
VISUALSTYLE
  5
32
102
{ACAD_REACTORS
330
2A
102
}
102
{ACAD_XDICTIONARY
360
1B7
102
}
330
2A
100
AcDbVisualStyle
  2
Basic
 70
     7
 71
     1
 72
     0
 73
     1
 90
        0
 40
0.6
 41
30.0
 62
     5
 63
     7
421
 16777215
 74
     0
 91
        4
 64
     7
 65
   257
 75
     1
175
     1
 42
1.0
 92
        8
 66
     7
 43
1.0
 76
     1
 77
     6
 78
     2
 67
     7
 79
     5
170
     0
171
     0
290
     0
174
     0
 93
        1
 44
0.0
173
     0
291
     1
 45
0.0
1001
ACAD
1000
AcDbSavedByObjectVersion
1070
     0
  0
VISUALSTYLE
  5
36
102
{ACAD_REACTORS
330
2A
102
}
102
{ACAD_XDICTIONARY
360
1BF
102
}
330
2A
100
AcDbVisualStyle
  2
Brighten
 70
    12
 71
     2
 72
     2
 73
     0
 90
        0
 40
0.6
 41
30.0
 62
     5
 63
     7
421
 16777215
 74
     1
 91
        4
 64
     7
 65
   257
 75
     1
175
     1
 42
1.0
 92
        8
 66
     7
 43
1.0
 76
     1
 77
     6
 78
     2
 67
     7
 79
     5
170
     0
171
     0
290
     0
174
     0
 93
        1
 44
50.0
173
     0
291
     1
 45
0.0
1001
ACAD
1000
AcDbSavedByObjectVersion
1070
     0
  0
VISUALSTYLE
  5
3A
102
{ACAD_REACTORS
330
2A
102
}
102
{ACAD_XDICTIONARY
360
1C7
102
}
330
2A
100
AcDbVisualStyle
  2
ColorChange
 70
    16
 71
     2
 72
     2
 73
     3
 90
        0
 40
0.6
 41
30.0
 62
     5
 63
     8
421
  8421504
 74
     1
 91
        4
 64
     7
 65
   257
 75
     1
175
     1
 42
1.0
 92
        8
 66
     8
424
  8421504
 43
1.0
 76
     1
 77
     6
 78
     2
 67
     7
 79
     5
170
     0
171
     0
290
     0
174
     0
 93
        1
 44
0.0
173
     0
291
     1
 45
0.0
1001
ACAD
1000
AcDbSavedByObjectVersion
1070
     0
  0
VISUALSTYLE
  5
34
102
{ACAD_REACTORS
330
2A
102
}
102
{ACAD_XDICTIONARY
360
1BB
102
}
330
2A
100
AcDbVisualStyle
  2
Conceptual
 70
     9
 71
     3
 72
     2
 73
     0
 90
        0
 40
0.6
 41
30.0
 62
     5
 63
     7
421
 16777215
 74
     2
 91
        2
 64
     7
 65
   257
 75
     1
175
     1
 42
40.0
 92
        8
 66
     7
 43
1.0
 76
     1
 77
     6
 78
     2
 67
     7
 79
     3
170
     0
171
     0
290
     0
174
     0
 93
        1
 44
0.0
173
     0
291
     0
 45
0.0
1001
ACAD
1000
AcDbSavedByObjectVersion
1070
     0
  0
VISUALSTYLE
  5
35
102
{ACAD_REACTORS
330
2A
102
}
102
{ACAD_XDICTIONARY
360
1BD
102
}
330
2A
100
AcDbVisualStyle
  2
Dim
 70
    11
 71
     2
 72
     2
 73
     0
 90
        0
 40
0.6
 41
30.0
 62
     5
 63
     7
421
 16777215
 74
     1
 91
        4
 64
     7
 65
   257
 75
     1
175
     1
 42
1.0
 92
        8
 66
     7
 43
1.0
 76
     1
 77
     6
 78
     2
 67
     7
 79
     5
170
     0
171
     0
290
     0
174
     0
 93
        1
 44
-50.0
173
     0
291
     1
 45
0.0
1001
ACAD
1000
AcDbSavedByObjectVersion
1070
     0
  0
VISUALSTYLE
  5
39
102
{ACAD_REACTORS
330
2A
102
}
102
{ACAD_XDICTIONARY
360
1C5
102
}
330
2A
100
AcDbVisualStyle
  2
Facepattern
 70
    15
 71
     2
 72
     2
 73
     0
 90
        0
 40
0.6
 41
30.0
 62
     5
 63
     7
421
 16777215
 74
     1
 91
        4
 64
     7
 65
   257
 75
     1
175
     1
 42
1.0
 92
        8
 66
     7
 43
1.0
 76
     1
 77
     6
 78
     2
 67
     7
 79
     5
170
     0
171
     0
290
     0
174
     0
 93
        1
 44
0.0
173
     0
291
     1
 45
0.0
1001
ACAD
1000
AcDbSavedByObjectVersion
1070
     0
  0
VISUALSTYLE
  5
2B
102
{ACAD_REACTORS
330
2A
102
}
102
{ACAD_XDICTIONARY
360
1A9
102
}
330
2A
100
AcDbVisualStyle
  2
Flat
 70
     0
 71
     2
 72
     1
 73
     1
 90
        2
 40
0.6
 41
30.0
 62
     5
 63
     7
421
 16777215
 74
     0
 91
        4
 64
     7
 65
   257
 75
     1
175
     1
 42
1.0
 92
        8
 66
     7
 43
1.0
 76
     1
 77
     6
 78
     2
 67
     7
 79
     5
170
     0
171
     0
290
     0
174
     0
 93
       13
 44
0.0
173
     0
291
     1
 45
0.0
1001
ACAD
1000
AcDbSavedByObjectVersion
1070
     0
  0
VISUALSTYLE
  5
2C
102
{ACAD_REACTORS
330
2A
102
}
102
{ACAD_XDICTIONARY
360
1AB
102
}
330
2A
100
AcDbVisualStyle
  2
FlatWithEdges
 70
     1
 71
     2
 72
     1
 73
     1
 90
        2
 40
0.6
 41
30.0
 62
     5
 63
     7
421
 16777215
 74
     1
 91
        4
 64
     7
 65
   257
 75
     1
175
     1
 42
1.0
 92
        0
 66
   257
 43
1.0
 76
     1
 77
     6
 78
     2
 67
     7
 79
     5
170
     0
171
     0
290
     0
174
     0
 93
       13
 44
0.0
173
     0
291
     1
 45
0.0
1001
ACAD
1000
AcDbSavedByObjectVersion
1070
     0
  0
VISUALSTYLE
  5
2D
102
{ACAD_REACTORS
330
2A
102
}
102
{ACAD_XDICTIONARY
360
1AD
102
}
330
2A
100
AcDbVisualStyle
  2
Gouraud
 70
     2
 71
     2
 72
     2
 73
     1
 90
        2
 40
0.6
 41
30.0
 62
     5
 63
     7
421
 16777215
 74
     0
 91
        4
 64
     7
 65
   257
 75
     1
175
     1
 42
1.0
 92
        0
 66
     7
 43
1.0
 76
     1
 77
     6
 78
     2
 67
     7
 79
     5
170
     0
171
     0
290
     0
174
     0
 93
       13
 44
0.0
173
     0
291
     1
 45
0.0
1001
ACAD
1000
AcDbSavedByObjectVersion
1070
     0
  0
VISUALSTYLE
  5
2E
102
{ACAD_REACTORS
330
2A
102
}
102
{ACAD_XDICTIONARY
360
1AF
102
}
330
2A
100
AcDbVisualStyle
  2
GouraudWithEdges
 70
     3
 71
     2
 72
     2
 73
     1
 90
        2
 40
0.6
 41
30.0
 62
     5
 63
     7
421
 16777215
 74
     1
 91
        4
 64
     7
 65
   257
 75
     1
175
     1
 42
1.0
 92
        0
 66
   257
 43
1.0
 76
     1
 77
     6
 78
     2
 67
     7
 79
     5
170
     0
171
     0
290
     0
174
     0
 93
       13
 44
0.0
173
     0
291
     1
 45
0.0
1001
ACAD
1000
AcDbSavedByObjectVersion
1070
     0
  0
VISUALSTYLE
  5
38
102
{ACAD_REACTORS
330
2A
102
}
102
{ACAD_XDICTIONARY
360
1C3
102
}
330
2A
100
AcDbVisualStyle
  2
Linepattern
 70
    14
 71
     2
 72
     2
 73
     0
 90
        0
 40
0.6
 41
30.0
 62
     5
 63
     7
421
 16777215
 74
     1
 91
        4
 64
     7
 65
   257
 75
     7
175
     7
 42
1.0
 92
        8
 66
     7
 43
1.0
 76
     1
 77
     6
 78
     2
 67
     7
 79
     5
170
     0
171
     0
290
     0
174
     0
 93
        1
 44
0.0
173
     0
291
     1
 45
0.0
1001
ACAD
1000
AcDbSavedByObjectVersion
1070
     0
  0
VISUALSTYLE
  5
33
102
{ACAD_REACTORS
330
2A
102
}
102
{ACAD_XDICTIONARY
360
1B9
102
}
330
2A
100
AcDbVisualStyle
  2
Realistic
 70
     8
 71
     2
 72
     3
 73
     0
 90
        2
 40
0.6
 41
30.0
 62
     5
 63
     7
421
 16777215
 74
     0
 91
        0
 64
     7
 65
   257
 75
     1
175
     1
 42
1.0
 92
        8
 66
   257
 43
1.0
 76
     1
 77
     6
 78
     2
 67
     7
 79
     3
170
     0
171
     0
290
     0
174
     0
 93
       13
 44
0.0
173
     0
291
     0
 45
0.0
1001
ACAD
1000
AcDbSavedByObjectVersion
1070
     0
  0
VISUALSTYLE
  5
37
102
{ACAD_REACTORS
330
2A
102
}
102
{ACAD_XDICTIONARY
360
1C1
102
}
330
2A
100
AcDbVisualStyle
  2
Thicken
 70
    13
 71
     2
 72
     2
 73
     0
 90
        0
 40
0.6
 41
30.0
 62
     5
 63
     7
421
 16777215
 74
     1
 91
        4
 64
     7
 65
   257
 75
     1
175
     1
 42
1.0
 92
       12
 66
     7
 43
1.0
 76
     1
 77
     6
 78
     2
 67
     7
 79
     5
170
     0
171
     0
290
     0
174
     0
 93
        1
 44
0.0
173
     0
291
     1
 45
0.0
1001
ACAD
1000
AcDbSavedByObjectVersion
1070
     0
  0
DICTIONARYVAR
  5
1A7
102
{ACAD_REACTORS
330
1A6
102
}
330
1A6
100
DictionaryVariables
280
     0
  1
1:1
  0
DICTIONARYVAR
  5
1A8
102
{ACAD_REACTORS
330
1A6
102
}
330
1A6
100
DictionaryVariables
280
     0
  1
1
  0
DICTIONARY
  5
1CB
330
3D
100
AcDbDictionary
280
     1
281
     1
  3
ACAD_XREC_ROUNDTRIP
360
1CC
  0
DICTIONARY
  5
1C9
330
3C
100
AcDbDictionary
280
     1
281
     1
  3
ACAD_XREC_ROUNDTRIP
360
1CA
  0
DICTIONARY
  5
1CD
330
3E
100
AcDbDictionary
280
     1
281
     1
  3
ACAD_XREC_ROUNDTRIP
360
1CE
  0
DICTIONARY
  5
1B1
330
2F
100
AcDbDictionary
280
     1
281
     1
  3
ACAD_XREC_ROUNDTRIP
360
1B2
  0
DICTIONARY
  5
1B5
330
31
100
AcDbDictionary
280
     1
281
     1
  3
ACAD_XREC_ROUNDTRIP
360
1B6
  0
DICTIONARY
  5
1B3
330
30
100
AcDbDictionary
280
     1
281
     1
  3
ACAD_XREC_ROUNDTRIP
360
1B4
  0
DICTIONARY
  5
1B7
330
32
100
AcDbDictionary
280
     1
281
     1
  3
ACAD_XREC_ROUNDTRIP
360
1B8
  0
DICTIONARY
  5
1BF
330
36
100
AcDbDictionary
280
     1
281
     1
  3
ACAD_XREC_ROUNDTRIP
360
1C0
  0
DICTIONARY
  5
1C7
330
3A
100
AcDbDictionary
280
     1
281
     1
  3
ACAD_XREC_ROUNDTRIP
360
1C8
  0
DICTIONARY
  5
1BB
330
34
100
AcDbDictionary
280
     1
281
     1
  3
ACAD_XREC_ROUNDTRIP
360
1BC
  0
DICTIONARY
  5
1BD
330
35
100
AcDbDictionary
280
     1
281
     1
  3
ACAD_XREC_ROUNDTRIP
360
1BE
  0
DICTIONARY
  5
1C5
330
39
100
AcDbDictionary
280
     1
281
     1
  3
ACAD_XREC_ROUNDTRIP
360
1C6
  0
DICTIONARY
  5
1A9
330
2B
100
AcDbDictionary
280
     1
281
     1
  3
ACAD_XREC_ROUNDTRIP
360
1AA
  0
DICTIONARY
  5
1AB
330
2C
100
AcDbDictionary
280
     1
281
     1
  3
ACAD_XREC_ROUNDTRIP
360
1AC
  0
DICTIONARY
  5
1AD
330
2D
100
AcDbDictionary
280
     1
281
     1
  3
ACAD_XREC_ROUNDTRIP
360
1AE
  0
DICTIONARY
  5
1AF
330
2E
100
AcDbDictionary
280
     1
281
     1
  3
ACAD_XREC_ROUNDTRIP
360
1B0
  0
DICTIONARY
  5
1C3
330
38
100
AcDbDictionary
280
     1
281
     1
  3
ACAD_XREC_ROUNDTRIP
360
1C4
  0
DICTIONARY
  5
1B9
330
33
100
AcDbDictionary
280
     1
281
     1
  3
ACAD_XREC_ROUNDTRIP
360
1BA
  0
DICTIONARY
  5
1C1
330
37
100
AcDbDictionary
280
     1
281
     1
  3
ACAD_XREC_ROUNDTRIP
360
1C2
  0
XRECORD
  5
1CC
102
{ACAD_REACTORS
330
1CB
102
}
330
1CB
100
AcDbXrecord
280
     1
102
MATERIAL
148
0.0
149
0.0
149
0.0
 93
        0
 94
      127
282
     0
 72
     1
 77
     1
171
     1
175
     1
179
     1
273
     0
  0
XRECORD
  5
1CA
102
{ACAD_REACTORS
330
1C9
102
}
330
1C9
100
AcDbXrecord
280
     1
102
MATERIAL
148
0.0
149
0.0
149
0.0
 93
        0
 94
      127
282
     0
 72
     1
 77
     1
171
     1
175
     1
179
     1
273
     0
  0
XRECORD
  5
1CE
102
{ACAD_REACTORS
330
1CD
102
}
330
1CD
100
AcDbXrecord
280
     1
102
MATERIAL
148
0.0
149
0.0
149
0.0
 93
        0
 94
      127
282
     0
 72
     1
 77
     1
171
     1
175
     1
179
     1
273
     0
  0
XRECORD
  5
1B2
102
{ACAD_REACTORS
330
1B1
102
}
330
1B1
100
AcDbXrecord
280
     1
102
RTVSPropertyOp0
 70
     1
102
RTVSPropertyOp1
 70
     1
102
RTVSPropertyOp2
 70
     1
102
RTVSPropertyOp3
 70
     1
102
RTVSPropertyOp4
 70
     1
102
RTVSPropertyOp5
 70
     1
102
RTVSPropertyOp6
 70
     1
102
RTVSPropertyOp7
 70
     1
102
RTVSPropertyOp8
 70
     1
102
RTVSPropertyOp9
 70
     1
102
RTVSPropertyOp10
 70
     1
102
RTVSPropertyOp11
 70
     1
102
RTVSPropertyOp12
 70
     1
102
RTVSPropertyOp13
 70
     1
102
RTVSPropertyOp14
 70
     1
102
RTVSPropertyOp15
 70
     1
102
RTVSPropertyOp16
 70
     1
102
RTVSPropertyOp17
 70
     1
102
RTVSPropertyOp18
 70
     1
102
RTVSPropertyOp19
 70
     1
102
RTVSPropertyOp20
 70
     1
102
RTVSPropertyOp21
 70
     1
102
RTVSPropertyOp22
 70
     1
102
RTVSPropertyOp23
 70
     1
102
RTVSPropertyOp24
 70
     1
102
RTVSPropertyOp25
 70
     1
102
RTVSPropertyOp26
 70
     1
102
RTVSPropertyOp27
 70
     1
102
RTVSPropertyOp28
 70
     1
102
RTVSPropertyOp29
 70
     1
102
RTVSPropertyOp30
 70
     1
102
RTVSPropertyOp31
 70
     1
102
RTVSPropertyOp32
 70
     1
102
RTVSPropertyOp33
 70
     1
102
RTVSPropertyOp34
 70
     1
102
RTVSPropertyOp35
 70
     1
102
RTVSPropertyOp36
 70
     1
102
RTVSPropertyOp37
 70
     1
102
RTVSPropertyOp38
 70
     1
102
RTVSPropertyOp39
 70
     1
102
RTVSPropertyOp40
 70
     1
102
RTVSPropertyOp41
 70
     1
102
RTVSPropertyOp42
 70
     1
102
RTVSPropertyOp43
 70
     1
102
RTVSPropertyOp44
 70
     1
102
RTVSPropertyOp45
 70
     1
102
RTVSPropertyOp46
 70
     1
102
RTVSPropertyOp47
 70
     1
102
RTVSPropertyOp48
 70
     1
102
RTVSPropertyOp49
 70
     1
102
RTVSPropertyOp50
 70
     1
102
RTVSPropertyOp51
 70
     0
102
RTVSPropertyOp52
 70
     0
102
RTVSPropertyOp53
 70
     1
102
RTVSPropertyOp54
 70
     1
102
RTVSPropertyOp55
 70
     1
102
RTVSPropertyOp56
 70
     1
102
RTVSPropertyOp57
 70
     1
102
RTVSPost2010Prop28
280
     1
102
RTVSPost2010PropOp28
 70
     1
102
RTVSPost2010Prop29
280
     1
102
RTVSPost2010PropOp29
 70
     1
102
RTVSPost2010Prop30
280
     0
102
RTVSPost2010PropOp30
 70
     1
102
RTVSPost2010Prop31
280
     0
102
RTVSPost2010PropOp31
 70
     1
102
RTVSPost2010Prop32
280
     0
102
RTVSPost2010PropOp32
 70
     1
102
RTVSPost2010Prop33
280
     0
102
RTVSPost2010PropOp33
 70
     1
102
RTVSPost2010Prop34
280
     0
102
RTVSPost2010PropOp34
 70
     1
102
RTVSPost2010Prop35
280
     0
102
RTVSPost2010PropOp35
 70
     1
102
RTVSPost2010Prop36
280
     0
102
RTVSPost2010PropOp36
 70
     1
102
RTVSPost2010Prop37
 90
       50
102
RTVSPost2010PropOp37
 70
     1
102
RTVSPost2010Prop38
140
0.0
102
RTVSPost2010PropOp38
 70
     1
102
RTVSPost2010Prop39
140
1.0
102
RTVSPost2010PropOp39
 70
     1
102
RTVSPost2010Prop40
 90
        0
102
RTVSPost2010PropOp40
 70
     1
102
RTVSPost2010Prop41ColorIndex
 90
       18
102
RTVSPost2010Prop41ColorRGB
 90
        0
102
RTVSPost2010PropOp41
 70
     1
102
RTVSPost2010Prop42
 90
       50
102
RTVSPost2010PropOp42
 70
     1
102
RTVSPost2010Prop43
 90
        3
102
RTVSPost2010PropOp43
 70
     1
102
RTVSPost2010Prop44ColorIndex
 90
        5
102
RTVSPost2010Prop44ColorRGB
 90
      255
102
RTVSPost2010PropOp44
 70
     1
102
RTVSPost2010Prop45
280
     0
102
RTVSPost2010PropOp45
 70
     1
102
RTVSPost2010Prop46
 90
       50
102
RTVSPost2010PropOp46
 70
     1
102
RTVSPost2010Prop47
 90
       50
102
RTVSPost2010PropOp47
 70
     1
102
RTVSPost2010Prop48
 90
       50
102
RTVSPost2010PropOp48
 70
     1
102
RTVSPost2010Prop49
280
     0
102
RTVSPost2010PropOp49
 70
     1
102
RTVSPost2010Prop50
 90
       50
102
RTVSPost2010PropOp50
 70
     1
102
RTVSPost2010Prop51ColorIndex
 90
      256
102
RTVSPost2010Prop51ColorRGB
 90
-16777216
102
RTVSPost2010PropOp51
 70
     0
102
RTVSPost2010Prop52
140
1.0
102
RTVSPost2010PropOp52
 70
     0
102
RTVSPost2010Prop53
 90
        2
102
RTVSPost2010PropOp53
 70
     1
102
RTVSPost2010Prop54
  1
strokes_ogs.tif
102
RTVSPost2010PropOp54
 70
     1
102
RTVSPost2010Prop55
280
     0
102
RTVSPost2010PropOp55
 70
     1
102
RTVSPost2010Prop56
140
1.0
102
RTVSPost2010PropOp56
 70
     1
102
RTVSPost2010Prop57
140
1.0
102
RTVSPost2010PropOp57
 70
     1
  0
XRECORD
  5
1B6
102
{ACAD_REACTORS
330
1B5
102
}
330
1B5
100
AcDbXrecord
280
     1
102
RTVSPropertyOp0
 70
     1
102
RTVSPropertyOp1
 70
     1
102
RTVSPropertyOp2
 70
     1
102
RTVSPropertyOp3
 70
     1
102
RTVSPropertyOp4
 70
     1
102
RTVSPropertyOp5
 70
     1
102
RTVSPropertyOp6
 70
     1
102
RTVSPropertyOp7
 70
     1
102
RTVSPropertyOp8
 70
     1
102
RTVSPropertyOp9
 70
     1
102
RTVSPropertyOp10
 70
     1
102
RTVSPropertyOp11
 70
     1
102
RTVSPropertyOp12
 70
     1
102
RTVSPropertyOp13
 70
     1
102
RTVSPropertyOp14
 70
     1
102
RTVSPropertyOp15
 70
     1
102
RTVSPropertyOp16
 70
     1
102
RTVSPropertyOp17
 70
     1
102
RTVSPropertyOp18
 70
     1
102
RTVSPropertyOp19
 70
     1
102
RTVSPropertyOp20
 70
     1
102
RTVSPropertyOp21
 70
     1
102
RTVSPropertyOp22
 70
     1
102
RTVSPropertyOp23
 70
     1
102
RTVSPropertyOp24
 70
     1
102
RTVSPropertyOp25
 70
     1
102
RTVSPropertyOp26
 70
     1
102
RTVSPropertyOp27
 70
     1
102
RTVSPropertyOp28
 70
     1
102
RTVSPropertyOp29
 70
     1
102
RTVSPropertyOp30
 70
     1
102
RTVSPropertyOp31
 70
     1
102
RTVSPropertyOp32
 70
     1
102
RTVSPropertyOp33
 70
     1
102
RTVSPropertyOp34
 70
     1
102
RTVSPropertyOp35
 70
     1
102
RTVSPropertyOp36
 70
     1
102
RTVSPropertyOp37
 70
     1
102
RTVSPropertyOp38
 70
     1
102
RTVSPropertyOp39
 70
     1
102
RTVSPropertyOp40
 70
     1
102
RTVSPropertyOp41
 70
     1
102
RTVSPropertyOp42
 70
     1
102
RTVSPropertyOp43
 70
     1
102
RTVSPropertyOp44
 70
     1
102
RTVSPropertyOp45
 70
     1
102
RTVSPropertyOp46
 70
     1
102
RTVSPropertyOp47
 70
     1
102
RTVSPropertyOp48
 70
     1
102
RTVSPropertyOp49
 70
     1
102
RTVSPropertyOp50
 70
     1
102
RTVSPropertyOp51
 70
     0
102
RTVSPropertyOp52
 70
     0
102
RTVSPropertyOp53
 70
     1
102
RTVSPropertyOp54
 70
     1
102
RTVSPropertyOp55
 70
     1
102
RTVSPropertyOp56
 70
     1
102
RTVSPropertyOp57
 70
     1
102
RTVSPost2010Prop28
280
     0
102
RTVSPost2010PropOp28
 70
     1
102
RTVSPost2010Prop29
280
     1
102
RTVSPost2010PropOp29
 70
     1
102
RTVSPost2010Prop30
280
     1
102
RTVSPost2010PropOp30
 70
     1
102
RTVSPost2010Prop31
280
     0
102
RTVSPost2010PropOp31
 70
     1
102
RTVSPost2010Prop32
280
     0
102
RTVSPost2010PropOp32
 70
     1
102
RTVSPost2010Prop33
280
     0
102
RTVSPost2010PropOp33
 70
     1
102
RTVSPost2010Prop34
280
     0
102
RTVSPost2010PropOp34
 70
     1
102
RTVSPost2010Prop35
280
     0
102
RTVSPost2010PropOp35
 70
     1
102
RTVSPost2010Prop36
280
     0
102
RTVSPost2010PropOp36
 70
     1
102
RTVSPost2010Prop37
 90
       50
102
RTVSPost2010PropOp37
 70
     1
102
RTVSPost2010Prop38
140
0.0
102
RTVSPost2010PropOp38
 70
     1
102
RTVSPost2010Prop39
140
1.0
102
RTVSPost2010PropOp39
 70
     1
102
RTVSPost2010Prop40
 90
        0
102
RTVSPost2010PropOp40
 70
     1
102
RTVSPost2010Prop41ColorIndex
 90
       18
102
RTVSPost2010Prop41ColorRGB
 90
        0
102
RTVSPost2010PropOp41
 70
     1
102
RTVSPost2010Prop42
 90
       50
102
RTVSPost2010PropOp42
 70
     1
102
RTVSPost2010Prop43
 90
        3
102
RTVSPost2010PropOp43
 70
     1
102
RTVSPost2010Prop44ColorIndex
 90
        5
102
RTVSPost2010Prop44ColorRGB
 90
      255
102
RTVSPost2010PropOp44
 70
     1
102
RTVSPost2010Prop45
280
     0
102
RTVSPost2010PropOp45
 70
     1
102
RTVSPost2010Prop46
 90
       50
102
RTVSPost2010PropOp46
 70
     1
102
RTVSPost2010Prop47
 90
       50
102
RTVSPost2010PropOp47
 70
     1
102
RTVSPost2010Prop48
 90
       50
102
RTVSPost2010PropOp48
 70
     1
102
RTVSPost2010Prop49
280
     0
102
RTVSPost2010PropOp49
 70
     1
102
RTVSPost2010Prop50
 90
       50
102
RTVSPost2010PropOp50
 70
     1
102
RTVSPost2010Prop51ColorIndex
 90
      256
102
RTVSPost2010Prop51ColorRGB
 90
-16777216
102
RTVSPost2010PropOp51
 70
     0
102
RTVSPost2010Prop52
140
1.0
102
RTVSPost2010PropOp52
 70
     0
102
RTVSPost2010Prop53
 90
        2
102
RTVSPost2010PropOp53
 70
     1
102
RTVSPost2010Prop54
  1
strokes_ogs.tif
102
RTVSPost2010PropOp54
 70
     1
102
RTVSPost2010Prop55
280
     0
102
RTVSPost2010PropOp55
 70
     1
102
RTVSPost2010Prop56
140
1.0
102
RTVSPost2010PropOp56
 70
     1
102
RTVSPost2010Prop57
140
1.0
102
RTVSPost2010PropOp57
 70
     1
  0
XRECORD
  5
1B4
102
{ACAD_REACTORS
330
1B3
102
}
330
1B3
100
AcDbXrecord
280
     1
102
RTVSPropertyOp0
 70
     1
102
RTVSPropertyOp1
 70
     1
102
RTVSPropertyOp2
 70
     1
102
RTVSPropertyOp3
 70
     1
102
RTVSPropertyOp4
 70
     1
102
RTVSPropertyOp5
 70
     1
102
RTVSPropertyOp6
 70
     1
102
RTVSPropertyOp7
 70
     1
102
RTVSPropertyOp8
 70
     1
102
RTVSPropertyOp9
 70
     1
102
RTVSPropertyOp10
 70
     1
102
RTVSPropertyOp11
 70
     1
102
RTVSPropertyOp12
 70
     1
102
RTVSPropertyOp13
 70
     1
102
RTVSPropertyOp14
 70
     1
102
RTVSPropertyOp15
 70
     1
102
RTVSPropertyOp16
 70
     1
102
RTVSPropertyOp17
 70
     1
102
RTVSPropertyOp18
 70
     1
102
RTVSPropertyOp19
 70
     1
102
RTVSPropertyOp20
 70
     1
102
RTVSPropertyOp21
 70
     1
102
RTVSPropertyOp22
 70
     1
102
RTVSPropertyOp23
 70
     1
102
RTVSPropertyOp24
 70
     1
102
RTVSPropertyOp25
 70
     1
102
RTVSPropertyOp26
 70
     1
102
RTVSPropertyOp27
 70
     1
102
RTVSPropertyOp28
 70
     1
102
RTVSPropertyOp29
 70
     1
102
RTVSPropertyOp30
 70
     1
102
RTVSPropertyOp31
 70
     1
102
RTVSPropertyOp32
 70
     1
102
RTVSPropertyOp33
 70
     1
102
RTVSPropertyOp34
 70
     1
102
RTVSPropertyOp35
 70
     1
102
RTVSPropertyOp36
 70
     1
102
RTVSPropertyOp37
 70
     1
102
RTVSPropertyOp38
 70
     1
102
RTVSPropertyOp39
 70
     1
102
RTVSPropertyOp40
 70
     1
102
RTVSPropertyOp41
 70
     1
102
RTVSPropertyOp42
 70
     1
102
RTVSPropertyOp43
 70
     1
102
RTVSPropertyOp44
 70
     1
102
RTVSPropertyOp45
 70
     1
102
RTVSPropertyOp46
 70
     1
102
RTVSPropertyOp47
 70
     1
102
RTVSPropertyOp48
 70
     1
102
RTVSPropertyOp49
 70
     1
102
RTVSPropertyOp50
 70
     1
102
RTVSPropertyOp51
 70
     0
102
RTVSPropertyOp52
 70
     0
102
RTVSPropertyOp53
 70
     1
102
RTVSPropertyOp54
 70
     1
102
RTVSPropertyOp55
 70
     1
102
RTVSPropertyOp56
 70
     1
102
RTVSPropertyOp57
 70
     1
102
RTVSPost2010Prop28
280
     0
102
RTVSPost2010PropOp28
 70
     1
102
RTVSPost2010Prop29
280
     1
102
RTVSPost2010PropOp29
 70
     1
102
RTVSPost2010Prop30
280
     1
102
RTVSPost2010PropOp30
 70
     1
102
RTVSPost2010Prop31
280
     0
102
RTVSPost2010PropOp31
 70
     1
102
RTVSPost2010Prop32
280
     0
102
RTVSPost2010PropOp32
 70
     1
102
RTVSPost2010Prop33
280
     0
102
RTVSPost2010PropOp33
 70
     1
102
RTVSPost2010Prop34
280
     0
102
RTVSPost2010PropOp34
 70
     1
102
RTVSPost2010Prop35
280
     0
102
RTVSPost2010PropOp35
 70
     1
102
RTVSPost2010Prop36
280
     0
102
RTVSPost2010PropOp36
 70
     1
102
RTVSPost2010Prop37
 90
       50
102
RTVSPost2010PropOp37
 70
     1
102
RTVSPost2010Prop38
140
0.0
102
RTVSPost2010PropOp38
 70
     1
102
RTVSPost2010Prop39
140
1.0
102
RTVSPost2010PropOp39
 70
     1
102
RTVSPost2010Prop40
 90
        0
102
RTVSPost2010PropOp40
 70
     1
102
RTVSPost2010Prop41ColorIndex
 90
       18
102
RTVSPost2010Prop41ColorRGB
 90
        0
102
RTVSPost2010PropOp41
 70
     1
102
RTVSPost2010Prop42
 90
       50
102
RTVSPost2010PropOp42
 70
     1
102
RTVSPost2010Prop43
 90
        3
102
RTVSPost2010PropOp43
 70
     1
102
RTVSPost2010Prop44ColorIndex
 90
        5
102
RTVSPost2010Prop44ColorRGB
 90
      255
102
RTVSPost2010PropOp44
 70
     1
102
RTVSPost2010Prop45
280
     0
102
RTVSPost2010PropOp45
 70
     1
102
RTVSPost2010Prop46
 90
       50
102
RTVSPost2010PropOp46
 70
     1
102
RTVSPost2010Prop47
 90
       50
102
RTVSPost2010PropOp47
 70
     1
102
RTVSPost2010Prop48
 90
       50
102
RTVSPost2010PropOp48
 70
     1
102
RTVSPost2010Prop49
280
     0
102
RTVSPost2010PropOp49
 70
     1
102
RTVSPost2010Prop50
 90
       50
102
RTVSPost2010PropOp50
 70
     1
102
RTVSPost2010Prop51ColorIndex
 90
      256
102
RTVSPost2010Prop51ColorRGB
 90
-16777216
102
RTVSPost2010PropOp51
 70
     0
102
RTVSPost2010Prop52
140
1.0
102
RTVSPost2010PropOp52
 70
     0
102
RTVSPost2010Prop53
 90
        2
102
RTVSPost2010PropOp53
 70
     1
102
RTVSPost2010Prop54
  1
strokes_ogs.tif
102
RTVSPost2010PropOp54
 70
     1
102
RTVSPost2010Prop55
280
     0
102
RTVSPost2010PropOp55
 70
     1
102
RTVSPost2010Prop56
140
1.0
102
RTVSPost2010PropOp56
 70
     1
102
RTVSPost2010Prop57
140
1.0
102
RTVSPost2010PropOp57
 70
     1
  0
XRECORD
  5
1B8
102
{ACAD_REACTORS
330
1B7
102
}
330
1B7
100
AcDbXrecord
280
     1
102
RTVSPropertyOp0
 70
     1
102
RTVSPropertyOp1
 70
     1
102
RTVSPropertyOp2
 70
     1
102
RTVSPropertyOp3
 70
     1
102
RTVSPropertyOp4
 70
     1
102
RTVSPropertyOp5
 70
     1
102
RTVSPropertyOp6
 70
     1
102
RTVSPropertyOp7
 70
     1
102
RTVSPropertyOp8
 70
     1
102
RTVSPropertyOp9
 70
     1
102
RTVSPropertyOp10
 70
     1
102
RTVSPropertyOp11
 70
     1
102
RTVSPropertyOp12
 70
     1
102
RTVSPropertyOp13
 70
     1
102
RTVSPropertyOp14
 70
     1
102
RTVSPropertyOp15
 70
     1
102
RTVSPropertyOp16
 70
     1
102
RTVSPropertyOp17
 70
     1
102
RTVSPropertyOp18
 70
     1
102
RTVSPropertyOp19
 70
     1
102
RTVSPropertyOp20
 70
     1
102
RTVSPropertyOp21
 70
     1
102
RTVSPropertyOp22
 70
     1
102
RTVSPropertyOp23
 70
     1
102
RTVSPropertyOp24
 70
     1
102
RTVSPropertyOp25
 70
     1
102
RTVSPropertyOp26
 70
     1
102
RTVSPropertyOp27
 70
     1
102
RTVSPropertyOp28
 70
     1
102
RTVSPropertyOp29
 70
     1
102
RTVSPropertyOp30
 70
     1
102
RTVSPropertyOp31
 70
     1
102
RTVSPropertyOp32
 70
     1
102
RTVSPropertyOp33
 70
     1
102
RTVSPropertyOp34
 70
     1
102
RTVSPropertyOp35
 70
     1
102
RTVSPropertyOp36
 70
     1
102
RTVSPropertyOp37
 70
     1
102
RTVSPropertyOp38
 70
     1
102
RTVSPropertyOp39
 70
     1
102
RTVSPropertyOp40
 70
     1
102
RTVSPropertyOp41
 70
     1
102
RTVSPropertyOp42
 70
     1
102
RTVSPropertyOp43
 70
     1
102
RTVSPropertyOp44
 70
     1
102
RTVSPropertyOp45
 70
     1
102
RTVSPropertyOp46
 70
     1
102
RTVSPropertyOp47
 70
     1
102
RTVSPropertyOp48
 70
     1
102
RTVSPropertyOp49
 70
     1
102
RTVSPropertyOp50
 70
     1
102
RTVSPropertyOp51
 70
     0
102
RTVSPropertyOp52
 70
     0
102
RTVSPropertyOp53
 70
     1
102
RTVSPropertyOp54
 70
     1
102
RTVSPropertyOp55
 70
     1
102
RTVSPropertyOp56
 70
     1
102
RTVSPropertyOp57
 70
     1
102
RTVSPost2010Prop28
280
     0
102
RTVSPost2010PropOp28
 70
     1
102
RTVSPost2010Prop29
280
     1
102
RTVSPost2010PropOp29
 70
     1
102
RTVSPost2010Prop30
280
     1
102
RTVSPost2010PropOp30
 70
     1
102
RTVSPost2010Prop31
280
     0
102
RTVSPost2010PropOp31
 70
     1
102
RTVSPost2010Prop32
280
     0
102
RTVSPost2010PropOp32
 70
     1
102
RTVSPost2010Prop33
280
     0
102
RTVSPost2010PropOp33
 70
     1
102
RTVSPost2010Prop34
280
     0
102
RTVSPost2010PropOp34
 70
     1
102
RTVSPost2010Prop35
280
     0
102
RTVSPost2010PropOp35
 70
     1
102
RTVSPost2010Prop36
280
     0
102
RTVSPost2010PropOp36
 70
     1
102
RTVSPost2010Prop37
 90
       50
102
RTVSPost2010PropOp37
 70
     1
102
RTVSPost2010Prop38
140
0.0
102
RTVSPost2010PropOp38
 70
     1
102
RTVSPost2010Prop39
140
1.0
102
RTVSPost2010PropOp39
 70
     1
102
RTVSPost2010Prop40
 90
        0
102
RTVSPost2010PropOp40
 70
     1
102
RTVSPost2010Prop41ColorIndex
 90
       18
102
RTVSPost2010Prop41ColorRGB
 90
        0
102
RTVSPost2010PropOp41
 70
     1
102
RTVSPost2010Prop42
 90
       50
102
RTVSPost2010PropOp42
 70
     1
102
RTVSPost2010Prop43
 90
        3
102
RTVSPost2010PropOp43
 70
     1
102
RTVSPost2010Prop44ColorIndex
 90
        5
102
RTVSPost2010Prop44ColorRGB
 90
      255
102
RTVSPost2010PropOp44
 70
     1
102
RTVSPost2010Prop45
280
     0
102
RTVSPost2010PropOp45
 70
     1
102
RTVSPost2010Prop46
 90
       50
102
RTVSPost2010PropOp46
 70
     1
102
RTVSPost2010Prop47
 90
       50
102
RTVSPost2010PropOp47
 70
     1
102
RTVSPost2010Prop48
 90
       50
102
RTVSPost2010PropOp48
 70
     1
102
RTVSPost2010Prop49
280
     0
102
RTVSPost2010PropOp49
 70
     1
102
RTVSPost2010Prop50
 90
       50
102
RTVSPost2010PropOp50
 70
     1
102
RTVSPost2010Prop51ColorIndex
 90
      256
102
RTVSPost2010Prop51ColorRGB
 90
-16777216
102
RTVSPost2010PropOp51
 70
     0
102
RTVSPost2010Prop52
140
1.0
102
RTVSPost2010PropOp52
 70
     0
102
RTVSPost2010Prop53
 90
        2
102
RTVSPost2010PropOp53
 70
     1
102
RTVSPost2010Prop54
  1
strokes_ogs.tif
102
RTVSPost2010PropOp54
 70
     1
102
RTVSPost2010Prop55
280
     0
102
RTVSPost2010PropOp55
 70
     1
102
RTVSPost2010Prop56
140
1.0
102
RTVSPost2010PropOp56
 70
     1
102
RTVSPost2010Prop57
140
1.0
102
RTVSPost2010PropOp57
 70
     1
  0
XRECORD
  5
1C0
102
{ACAD_REACTORS
330
1BF
102
}
330
1BF
100
AcDbXrecord
280
     1
102
RTVSPropertyOp0
 70
     1
102
RTVSPropertyOp1
 70
     1
102
RTVSPropertyOp2
 70
     1
102
RTVSPropertyOp3
 70
     1
102
RTVSPropertyOp4
 70
     1
102
RTVSPropertyOp5
 70
     1
102
RTVSPropertyOp6
 70
     1
102
RTVSPropertyOp7
 70
     1
102
RTVSPropertyOp8
 70
     1
102
RTVSPropertyOp9
 70
     1
102
RTVSPropertyOp10
 70
     1
102
RTVSPropertyOp11
 70
     1
102
RTVSPropertyOp12
 70
     1
102
RTVSPropertyOp13
 70
     1
102
RTVSPropertyOp14
 70
     1
102
RTVSPropertyOp15
 70
     1
102
RTVSPropertyOp16
 70
     1
102
RTVSPropertyOp17
 70
     1
102
RTVSPropertyOp18
 70
     1
102
RTVSPropertyOp19
 70
     1
102
RTVSPropertyOp20
 70
     1
102
RTVSPropertyOp21
 70
     1
102
RTVSPropertyOp22
 70
     1
102
RTVSPropertyOp23
 70
     1
102
RTVSPropertyOp24
 70
     1
102
RTVSPropertyOp25
 70
     1
102
RTVSPropertyOp26
 70
     1
102
RTVSPropertyOp27
 70
     1
102
RTVSPropertyOp28
 70
     1
102
RTVSPropertyOp29
 70
     1
102
RTVSPropertyOp30
 70
     1
102
RTVSPropertyOp31
 70
     1
102
RTVSPropertyOp32
 70
     1
102
RTVSPropertyOp33
 70
     1
102
RTVSPropertyOp34
 70
     1
102
RTVSPropertyOp35
 70
     1
102
RTVSPropertyOp36
 70
     1
102
RTVSPropertyOp37
 70
     1
102
RTVSPropertyOp38
 70
     1
102
RTVSPropertyOp39
 70
     1
102
RTVSPropertyOp40
 70
     1
102
RTVSPropertyOp41
 70
     1
102
RTVSPropertyOp42
 70
     1
102
RTVSPropertyOp43
 70
     1
102
RTVSPropertyOp44
 70
     1
102
RTVSPropertyOp45
 70
     1
102
RTVSPropertyOp46
 70
     1
102
RTVSPropertyOp47
 70
     1
102
RTVSPropertyOp48
 70
     1
102
RTVSPropertyOp49
 70
     1
102
RTVSPropertyOp50
 70
     1
102
RTVSPropertyOp51
 70
     0
102
RTVSPropertyOp52
 70
     0
102
RTVSPropertyOp53
 70
     1
102
RTVSPropertyOp54
 70
     1
102
RTVSPropertyOp55
 70
     1
102
RTVSPropertyOp56
 70
     1
102
RTVSPropertyOp57
 70
     1
102
RTVSPost2010Prop28
280
     0
102
RTVSPost2010PropOp28
 70
     1
102
RTVSPost2010Prop29
280
     1
102
RTVSPost2010PropOp29
 70
     1
102
RTVSPost2010Prop30
280
     1
102
RTVSPost2010PropOp30
 70
     1
102
RTVSPost2010Prop31
280
     0
102
RTVSPost2010PropOp31
 70
     1
102
RTVSPost2010Prop32
280
     0
102
RTVSPost2010PropOp32
 70
     1
102
RTVSPost2010Prop33
280
     0
102
RTVSPost2010PropOp33
 70
     1
102
RTVSPost2010Prop34
280
     0
102
RTVSPost2010PropOp34
 70
     1
102
RTVSPost2010Prop35
280
     0
102
RTVSPost2010PropOp35
 70
     1
102
RTVSPost2010Prop36
280
     0
102
RTVSPost2010PropOp36
 70
     1
102
RTVSPost2010Prop37
 90
       50
102
RTVSPost2010PropOp37
 70
     1
102
RTVSPost2010Prop38
140
0.0
102
RTVSPost2010PropOp38
 70
     1
102
RTVSPost2010Prop39
140
1.0
102
RTVSPost2010PropOp39
 70
     1
102
RTVSPost2010Prop40
 90
        0
102
RTVSPost2010PropOp40
 70
     1
102
RTVSPost2010Prop41ColorIndex
 90
       18
102
RTVSPost2010Prop41ColorRGB
 90
        0
102
RTVSPost2010PropOp41
 70
     1
102
RTVSPost2010Prop42
 90
       50
102
RTVSPost2010PropOp42
 70
     1
102
RTVSPost2010Prop43
 90
        3
102
RTVSPost2010PropOp43
 70
     1
102
RTVSPost2010Prop44ColorIndex
 90
        5
102
RTVSPost2010Prop44ColorRGB
 90
      255
102
RTVSPost2010PropOp44
 70
     1
102
RTVSPost2010Prop45
280
     0
102
RTVSPost2010PropOp45
 70
     1
102
RTVSPost2010Prop46
 90
       50
102
RTVSPost2010PropOp46
 70
     1
102
RTVSPost2010Prop47
 90
       50
102
RTVSPost2010PropOp47
 70
     1
102
RTVSPost2010Prop48
 90
       50
102
RTVSPost2010PropOp48
 70
     1
102
RTVSPost2010Prop49
280
     0
102
RTVSPost2010PropOp49
 70
     1
102
RTVSPost2010Prop50
 90
       50
102
RTVSPost2010PropOp50
 70
     1
102
RTVSPost2010Prop51ColorIndex
 90
      256
102
RTVSPost2010Prop51ColorRGB
 90
-16777216
102
RTVSPost2010PropOp51
 70
     0
102
RTVSPost2010Prop52
140
1.0
102
RTVSPost2010PropOp52
 70
     0
102
RTVSPost2010Prop53
 90
        2
102
RTVSPost2010PropOp53
 70
     1
102
RTVSPost2010Prop54
  1
strokes_ogs.tif
102
RTVSPost2010PropOp54
 70
     1
102
RTVSPost2010Prop55
280
     0
102
RTVSPost2010PropOp55
 70
     1
102
RTVSPost2010Prop56
140
1.0
102
RTVSPost2010PropOp56
 70
     1
102
RTVSPost2010Prop57
140
1.0
102
RTVSPost2010PropOp57
 70
     1
  0
XRECORD
  5
1C8
102
{ACAD_REACTORS
330
1C7
102
}
330
1C7
100
AcDbXrecord
280
     1
102
RTVSPropertyOp0
 70
     1
102
RTVSPropertyOp1
 70
     1
102
RTVSPropertyOp2
 70
     1
102
RTVSPropertyOp3
 70
     1
102
RTVSPropertyOp4
 70
     1
102
RTVSPropertyOp5
 70
     1
102
RTVSPropertyOp6
 70
     1
102
RTVSPropertyOp7
 70
     1
102
RTVSPropertyOp8
 70
     1
102
RTVSPropertyOp9
 70
     1
102
RTVSPropertyOp10
 70
     1
102
RTVSPropertyOp11
 70
     1
102
RTVSPropertyOp12
 70
     1
102
RTVSPropertyOp13
 70
     1
102
RTVSPropertyOp14
 70
     1
102
RTVSPropertyOp15
 70
     1
102
RTVSPropertyOp16
 70
     1
102
RTVSPropertyOp17
 70
     1
102
RTVSPropertyOp18
 70
     1
102
RTVSPropertyOp19
 70
     1
102
RTVSPropertyOp20
 70
     1
102
RTVSPropertyOp21
 70
     1
102
RTVSPropertyOp22
 70
     1
102
RTVSPropertyOp23
 70
     1
102
RTVSPropertyOp24
 70
     1
102
RTVSPropertyOp25
 70
     1
102
RTVSPropertyOp26
 70
     1
102
RTVSPropertyOp27
 70
     1
102
RTVSPropertyOp28
 70
     1
102
RTVSPropertyOp29
 70
     1
102
RTVSPropertyOp30
 70
     1
102
RTVSPropertyOp31
 70
     1
102
RTVSPropertyOp32
 70
     1
102
RTVSPropertyOp33
 70
     1
102
RTVSPropertyOp34
 70
     1
102
RTVSPropertyOp35
 70
     1
102
RTVSPropertyOp36
 70
     1
102
RTVSPropertyOp37
 70
     1
102
RTVSPropertyOp38
 70
     1
102
RTVSPropertyOp39
 70
     1
102
RTVSPropertyOp40
 70
     1
102
RTVSPropertyOp41
 70
     1
102
RTVSPropertyOp42
 70
     1
102
RTVSPropertyOp43
 70
     1
102
RTVSPropertyOp44
 70
     1
102
RTVSPropertyOp45
 70
     1
102
RTVSPropertyOp46
 70
     1
102
RTVSPropertyOp47
 70
     1
102
RTVSPropertyOp48
 70
     1
102
RTVSPropertyOp49
 70
     1
102
RTVSPropertyOp50
 70
     1
102
RTVSPropertyOp51
 70
     0
102
RTVSPropertyOp52
 70
     0
102
RTVSPropertyOp53
 70
     1
102
RTVSPropertyOp54
 70
     1
102
RTVSPropertyOp55
 70
     1
102
RTVSPropertyOp56
 70
     1
102
RTVSPropertyOp57
 70
     1
102
RTVSPost2010Prop28
280
     0
102
RTVSPost2010PropOp28
 70
     1
102
RTVSPost2010Prop29
280
     1
102
RTVSPost2010PropOp29
 70
     1
102
RTVSPost2010Prop30
280
     1
102
RTVSPost2010PropOp30
 70
     1
102
RTVSPost2010Prop31
280
     0
102
RTVSPost2010PropOp31
 70
     1
102
RTVSPost2010Prop32
280
     0
102
RTVSPost2010PropOp32
 70
     1
102
RTVSPost2010Prop33
280
     0
102
RTVSPost2010PropOp33
 70
     1
102
RTVSPost2010Prop34
280
     0
102
RTVSPost2010PropOp34
 70
     1
102
RTVSPost2010Prop35
280
     0
102
RTVSPost2010PropOp35
 70
     1
102
RTVSPost2010Prop36
280
     0
102
RTVSPost2010PropOp36
 70
     1
102
RTVSPost2010Prop37
 90
       50
102
RTVSPost2010PropOp37
 70
     1
102
RTVSPost2010Prop38
140
0.0
102
RTVSPost2010PropOp38
 70
     1
102
RTVSPost2010Prop39
140
1.0
102
RTVSPost2010PropOp39
 70
     1
102
RTVSPost2010Prop40
 90
        0
102
RTVSPost2010PropOp40
 70
     1
102
RTVSPost2010Prop41ColorIndex
 90
       18
102
RTVSPost2010Prop41ColorRGB
 90
        0
102
RTVSPost2010PropOp41
 70
     1
102
RTVSPost2010Prop42
 90
       50
102
RTVSPost2010PropOp42
 70
     1
102
RTVSPost2010Prop43
 90
        3
102
RTVSPost2010PropOp43
 70
     1
102
RTVSPost2010Prop44ColorIndex
 90
        5
102
RTVSPost2010Prop44ColorRGB
 90
      255
102
RTVSPost2010PropOp44
 70
     1
102
RTVSPost2010Prop45
280
     0
102
RTVSPost2010PropOp45
 70
     1
102
RTVSPost2010Prop46
 90
       50
102
RTVSPost2010PropOp46
 70
     1
102
RTVSPost2010Prop47
 90
       50
102
RTVSPost2010PropOp47
 70
     1
102
RTVSPost2010Prop48
 90
       50
102
RTVSPost2010PropOp48
 70
     1
102
RTVSPost2010Prop49
280
     0
102
RTVSPost2010PropOp49
 70
     1
102
RTVSPost2010Prop50
 90
       50
102
RTVSPost2010PropOp50
 70
     1
102
RTVSPost2010Prop51ColorIndex
 90
      256
102
RTVSPost2010Prop51ColorRGB
 90
-16777216
102
RTVSPost2010PropOp51
 70
     0
102
RTVSPost2010Prop52
140
1.0
102
RTVSPost2010PropOp52
 70
     0
102
RTVSPost2010Prop53
 90
        2
102
RTVSPost2010PropOp53
 70
     1
102
RTVSPost2010Prop54
  1
strokes_ogs.tif
102
RTVSPost2010PropOp54
 70
     1
102
RTVSPost2010Prop55
280
     0
102
RTVSPost2010PropOp55
 70
     1
102
RTVSPost2010Prop56
140
1.0
102
RTVSPost2010PropOp56
 70
     1
102
RTVSPost2010Prop57
140
1.0
102
RTVSPost2010PropOp57
 70
     1
  0
XRECORD
  5
1BC
102
{ACAD_REACTORS
330
1BB
102
}
330
1BB
100
AcDbXrecord
280
     1
102
RTVSPropertyOp0
 70
     1
102
RTVSPropertyOp1
 70
     1
102
RTVSPropertyOp2
 70
     1
102
RTVSPropertyOp3
 70
     1
102
RTVSPropertyOp4
 70
     1
102
RTVSPropertyOp5
 70
     1
102
RTVSPropertyOp6
 70
     1
102
RTVSPropertyOp7
 70
     1
102
RTVSPropertyOp8
 70
     1
102
RTVSPropertyOp9
 70
     1
102
RTVSPropertyOp10
 70
     1
102
RTVSPropertyOp11
 70
     1
102
RTVSPropertyOp12
 70
     1
102
RTVSPropertyOp13
 70
     1
102
RTVSPropertyOp14
 70
     1
102
RTVSPropertyOp15
 70
     1
102
RTVSPropertyOp16
 70
     1
102
RTVSPropertyOp17
 70
     1
102
RTVSPropertyOp18
 70
     1
102
RTVSPropertyOp19
 70
     1
102
RTVSPropertyOp20
 70
     1
102
RTVSPropertyOp21
 70
     1
102
RTVSPropertyOp22
 70
     1
102
RTVSPropertyOp23
 70
     1
102
RTVSPropertyOp24
 70
     1
102
RTVSPropertyOp25
 70
     1
102
RTVSPropertyOp26
 70
     1
102
RTVSPropertyOp27
 70
     1
102
RTVSPropertyOp28
 70
     1
102
RTVSPropertyOp29
 70
     1
102
RTVSPropertyOp30
 70
     1
102
RTVSPropertyOp31
 70
     1
102
RTVSPropertyOp32
 70
     1
102
RTVSPropertyOp33
 70
     1
102
RTVSPropertyOp34
 70
     1
102
RTVSPropertyOp35
 70
     1
102
RTVSPropertyOp36
 70
     1
102
RTVSPropertyOp37
 70
     1
102
RTVSPropertyOp38
 70
     1
102
RTVSPropertyOp39
 70
     1
102
RTVSPropertyOp40
 70
     1
102
RTVSPropertyOp41
 70
     1
102
RTVSPropertyOp42
 70
     1
102
RTVSPropertyOp43
 70
     1
102
RTVSPropertyOp44
 70
     1
102
RTVSPropertyOp45
 70
     1
102
RTVSPropertyOp46
 70
     1
102
RTVSPropertyOp47
 70
     1
102
RTVSPropertyOp48
 70
     1
102
RTVSPropertyOp49
 70
     1
102
RTVSPropertyOp50
 70
     1
102
RTVSPropertyOp51
 70
     0
102
RTVSPropertyOp52
 70
     0
102
RTVSPropertyOp53
 70
     1
102
RTVSPropertyOp54
 70
     1
102
RTVSPropertyOp55
 70
     1
102
RTVSPropertyOp56
 70
     1
102
RTVSPropertyOp57
 70
     1
102
RTVSPost2010Prop28
280
     0
102
RTVSPost2010PropOp28
 70
     1
102
RTVSPost2010Prop29
280
     1
102
RTVSPost2010PropOp29
 70
     1
102
RTVSPost2010Prop30
280
     1
102
RTVSPost2010PropOp30
 70
     1
102
RTVSPost2010Prop31
280
     0
102
RTVSPost2010PropOp31
 70
     1
102
RTVSPost2010Prop32
280
     0
102
RTVSPost2010PropOp32
 70
     1
102
RTVSPost2010Prop33
280
     0
102
RTVSPost2010PropOp33
 70
     1
102
RTVSPost2010Prop34
280
     0
102
RTVSPost2010PropOp34
 70
     1
102
RTVSPost2010Prop35
280
     0
102
RTVSPost2010PropOp35
 70
     1
102
RTVSPost2010Prop36
280
     0
102
RTVSPost2010PropOp36
 70
     1
102
RTVSPost2010Prop37
 90
       50
102
RTVSPost2010PropOp37
 70
     1
102
RTVSPost2010Prop38
140
0.0
102
RTVSPost2010PropOp38
 70
     1
102
RTVSPost2010Prop39
140
1.0
102
RTVSPost2010PropOp39
 70
     1
102
RTVSPost2010Prop40
 90
        0
102
RTVSPost2010PropOp40
 70
     1
102
RTVSPost2010Prop41ColorIndex
 90
       18
102
RTVSPost2010Prop41ColorRGB
 90
        0
102
RTVSPost2010PropOp41
 70
     1
102
RTVSPost2010Prop42
 90
       50
102
RTVSPost2010PropOp42
 70
     1
102
RTVSPost2010Prop43
 90
        3
102
RTVSPost2010PropOp43
 70
     1
102
RTVSPost2010Prop44ColorIndex
 90
        5
102
RTVSPost2010Prop44ColorRGB
 90
      255
102
RTVSPost2010PropOp44
 70
     1
102
RTVSPost2010Prop45
280
     0
102
RTVSPost2010PropOp45
 70
     1
102
RTVSPost2010Prop46
 90
       50
102
RTVSPost2010PropOp46
 70
     1
102
RTVSPost2010Prop47
 90
       50
102
RTVSPost2010PropOp47
 70
     1
102
RTVSPost2010Prop48
 90
       50
102
RTVSPost2010PropOp48
 70
     1
102
RTVSPost2010Prop49
280
     0
102
RTVSPost2010PropOp49
 70
     1
102
RTVSPost2010Prop50
 90
       50
102
RTVSPost2010PropOp50
 70
     1
102
RTVSPost2010Prop51ColorIndex
 90
      256
102
RTVSPost2010Prop51ColorRGB
 90
-16777216
102
RTVSPost2010PropOp51
 70
     0
102
RTVSPost2010Prop52
140
1.0
102
RTVSPost2010PropOp52
 70
     0
102
RTVSPost2010Prop53
 90
        2
102
RTVSPost2010PropOp53
 70
     1
102
RTVSPost2010Prop54
  1
strokes_ogs.tif
102
RTVSPost2010PropOp54
 70
     1
102
RTVSPost2010Prop55
280
     0
102
RTVSPost2010PropOp55
 70
     1
102
RTVSPost2010Prop56
140
1.0
102
RTVSPost2010PropOp56
 70
     1
102
RTVSPost2010Prop57
140
1.0
102
RTVSPost2010PropOp57
 70
     1
  0
XRECORD
  5
1BE
102
{ACAD_REACTORS
330
1BD
102
}
330
1BD
100
AcDbXrecord
280
     1
102
RTVSPropertyOp0
 70
     1
102
RTVSPropertyOp1
 70
     1
102
RTVSPropertyOp2
 70
     1
102
RTVSPropertyOp3
 70
     1
102
RTVSPropertyOp4
 70
     1
102
RTVSPropertyOp5
 70
     1
102
RTVSPropertyOp6
 70
     1
102
RTVSPropertyOp7
 70
     1
102
RTVSPropertyOp8
 70
     1
102
RTVSPropertyOp9
 70
     1
102
RTVSPropertyOp10
 70
     1
102
RTVSPropertyOp11
 70
     1
102
RTVSPropertyOp12
 70
     1
102
RTVSPropertyOp13
 70
     1
102
RTVSPropertyOp14
 70
     1
102
RTVSPropertyOp15
 70
     1
102
RTVSPropertyOp16
 70
     1
102
RTVSPropertyOp17
 70
     1
102
RTVSPropertyOp18
 70
     1
102
RTVSPropertyOp19
 70
     1
102
RTVSPropertyOp20
 70
     1
102
RTVSPropertyOp21
 70
     1
102
RTVSPropertyOp22
 70
     1
102
RTVSPropertyOp23
 70
     1
102
RTVSPropertyOp24
 70
     1
102
RTVSPropertyOp25
 70
     1
102
RTVSPropertyOp26
 70
     1
102
RTVSPropertyOp27
 70
     1
102
RTVSPropertyOp28
 70
     1
102
RTVSPropertyOp29
 70
     1
102
RTVSPropertyOp30
 70
     1
102
RTVSPropertyOp31
 70
     1
102
RTVSPropertyOp32
 70
     1
102
RTVSPropertyOp33
 70
     1
102
RTVSPropertyOp34
 70
     1
102
RTVSPropertyOp35
 70
     1
102
RTVSPropertyOp36
 70
     1
102
RTVSPropertyOp37
 70
     1
102
RTVSPropertyOp38
 70
     1
102
RTVSPropertyOp39
 70
     1
102
RTVSPropertyOp40
 70
     1
102
RTVSPropertyOp41
 70
     1
102
RTVSPropertyOp42
 70
     1
102
RTVSPropertyOp43
 70
     1
102
RTVSPropertyOp44
 70
     1
102
RTVSPropertyOp45
 70
     1
102
RTVSPropertyOp46
 70
     1
102
RTVSPropertyOp47
 70
     1
102
RTVSPropertyOp48
 70
     1
102
RTVSPropertyOp49
 70
     1
102
RTVSPropertyOp50
 70
     1
102
RTVSPropertyOp51
 70
     0
102
RTVSPropertyOp52
 70
     0
102
RTVSPropertyOp53
 70
     1
102
RTVSPropertyOp54
 70
     1
102
RTVSPropertyOp55
 70
     1
102
RTVSPropertyOp56
 70
     1
102
RTVSPropertyOp57
 70
     1
102
RTVSPost2010Prop28
280
     0
102
RTVSPost2010PropOp28
 70
     1
102
RTVSPost2010Prop29
280
     1
102
RTVSPost2010PropOp29
 70
     1
102
RTVSPost2010Prop30
280
     1
102
RTVSPost2010PropOp30
 70
     1
102
RTVSPost2010Prop31
280
     0
102
RTVSPost2010PropOp31
 70
     1
102
RTVSPost2010Prop32
280
     0
102
RTVSPost2010PropOp32
 70
     1
102
RTVSPost2010Prop33
280
     0
102
RTVSPost2010PropOp33
 70
     1
102
RTVSPost2010Prop34
280
     0
102
RTVSPost2010PropOp34
 70
     1
102
RTVSPost2010Prop35
280
     0
102
RTVSPost2010PropOp35
 70
     1
102
RTVSPost2010Prop36
280
     0
102
RTVSPost2010PropOp36
 70
     1
102
RTVSPost2010Prop37
 90
       50
102
RTVSPost2010PropOp37
 70
     1
102
RTVSPost2010Prop38
140
0.0
102
RTVSPost2010PropOp38
 70
     1
102
RTVSPost2010Prop39
140
1.0
102
RTVSPost2010PropOp39
 70
     1
102
RTVSPost2010Prop40
 90
        0
102
RTVSPost2010PropOp40
 70
     1
102
RTVSPost2010Prop41ColorIndex
 90
       18
102
RTVSPost2010Prop41ColorRGB
 90
        0
102
RTVSPost2010PropOp41
 70
     1
102
RTVSPost2010Prop42
 90
       50
102
RTVSPost2010PropOp42
 70
     1
102
RTVSPost2010Prop43
 90
        3
102
RTVSPost2010PropOp43
 70
     1
102
RTVSPost2010Prop44ColorIndex
 90
        5
102
RTVSPost2010Prop44ColorRGB
 90
      255
102
RTVSPost2010PropOp44
 70
     1
102
RTVSPost2010Prop45
280
     0
102
RTVSPost2010PropOp45
 70
     1
102
RTVSPost2010Prop46
 90
       50
102
RTVSPost2010PropOp46
 70
     1
102
RTVSPost2010Prop47
 90
       50
102
RTVSPost2010PropOp47
 70
     1
102
RTVSPost2010Prop48
 90
       50
102
RTVSPost2010PropOp48
 70
     1
102
RTVSPost2010Prop49
280
     0
102
RTVSPost2010PropOp49
 70
     1
102
RTVSPost2010Prop50
 90
       50
102
RTVSPost2010PropOp50
 70
     1
102
RTVSPost2010Prop51ColorIndex
 90
      256
102
RTVSPost2010Prop51ColorRGB
 90
-16777216
102
RTVSPost2010PropOp51
 70
     0
102
RTVSPost2010Prop52
140
1.0
102
RTVSPost2010PropOp52
 70
     0
102
RTVSPost2010Prop53
 90
        2
102
RTVSPost2010PropOp53
 70
     1
102
RTVSPost2010Prop54
  1
strokes_ogs.tif
102
RTVSPost2010PropOp54
 70
     1
102
RTVSPost2010Prop55
280
     0
102
RTVSPost2010PropOp55
 70
     1
102
RTVSPost2010Prop56
140
1.0
102
RTVSPost2010PropOp56
 70
     1
102
RTVSPost2010Prop57
140
1.0
102
RTVSPost2010PropOp57
 70
     1
  0
XRECORD
  5
1C6
102
{ACAD_REACTORS
330
1C5
102
}
330
1C5
100
AcDbXrecord
280
     1
102
RTVSPropertyOp0
 70
     1
102
RTVSPropertyOp1
 70
     1
102
RTVSPropertyOp2
 70
     1
102
RTVSPropertyOp3
 70
     1
102
RTVSPropertyOp4
 70
     1
102
RTVSPropertyOp5
 70
     1
102
RTVSPropertyOp6
 70
     1
102
RTVSPropertyOp7
 70
     1
102
RTVSPropertyOp8
 70
     1
102
RTVSPropertyOp9
 70
     1
102
RTVSPropertyOp10
 70
     1
102
RTVSPropertyOp11
 70
     1
102
RTVSPropertyOp12
 70
     1
102
RTVSPropertyOp13
 70
     1
102
RTVSPropertyOp14
 70
     1
102
RTVSPropertyOp15
 70
     1
102
RTVSPropertyOp16
 70
     1
102
RTVSPropertyOp17
 70
     1
102
RTVSPropertyOp18
 70
     1
102
RTVSPropertyOp19
 70
     1
102
RTVSPropertyOp20
 70
     1
102
RTVSPropertyOp21
 70
     1
102
RTVSPropertyOp22
 70
     1
102
RTVSPropertyOp23
 70
     1
102
RTVSPropertyOp24
 70
     1
102
RTVSPropertyOp25
 70
     1
102
RTVSPropertyOp26
 70
     1
102
RTVSPropertyOp27
 70
     1
102
RTVSPropertyOp28
 70
     1
102
RTVSPropertyOp29
 70
     1
102
RTVSPropertyOp30
 70
     1
102
RTVSPropertyOp31
 70
     1
102
RTVSPropertyOp32
 70
     1
102
RTVSPropertyOp33
 70
     1
102
RTVSPropertyOp34
 70
     1
102
RTVSPropertyOp35
 70
     1
102
RTVSPropertyOp36
 70
     1
102
RTVSPropertyOp37
 70
     1
102
RTVSPropertyOp38
 70
     1
102
RTVSPropertyOp39
 70
     1
102
RTVSPropertyOp40
 70
     1
102
RTVSPropertyOp41
 70
     1
102
RTVSPropertyOp42
 70
     1
102
RTVSPropertyOp43
 70
     1
102
RTVSPropertyOp44
 70
     1
102
RTVSPropertyOp45
 70
     1
102
RTVSPropertyOp46
 70
     1
102
RTVSPropertyOp47
 70
     1
102
RTVSPropertyOp48
 70
     1
102
RTVSPropertyOp49
 70
     1
102
RTVSPropertyOp50
 70
     1
102
RTVSPropertyOp51
 70
     0
102
RTVSPropertyOp52
 70
     0
102
RTVSPropertyOp53
 70
     1
102
RTVSPropertyOp54
 70
     1
102
RTVSPropertyOp55
 70
     1
102
RTVSPropertyOp56
 70
     1
102
RTVSPropertyOp57
 70
     1
102
RTVSPost2010Prop28
280
     0
102
RTVSPost2010PropOp28
 70
     1
102
RTVSPost2010Prop29
280
     1
102
RTVSPost2010PropOp29
 70
     1
102
RTVSPost2010Prop30
280
     1
102
RTVSPost2010PropOp30
 70
     1
102
RTVSPost2010Prop31
280
     0
102
RTVSPost2010PropOp31
 70
     1
102
RTVSPost2010Prop32
280
     0
102
RTVSPost2010PropOp32
 70
     1
102
RTVSPost2010Prop33
280
     0
102
RTVSPost2010PropOp33
 70
     1
102
RTVSPost2010Prop34
280
     0
102
RTVSPost2010PropOp34
 70
     1
102
RTVSPost2010Prop35
280
     0
102
RTVSPost2010PropOp35
 70
     1
102
RTVSPost2010Prop36
280
     0
102
RTVSPost2010PropOp36
 70
     1
102
RTVSPost2010Prop37
 90
       50
102
RTVSPost2010PropOp37
 70
     1
102
RTVSPost2010Prop38
140
0.0
102
RTVSPost2010PropOp38
 70
     1
102
RTVSPost2010Prop39
140
1.0
102
RTVSPost2010PropOp39
 70
     1
102
RTVSPost2010Prop40
 90
        0
102
RTVSPost2010PropOp40
 70
     1
102
RTVSPost2010Prop41ColorIndex
 90
       18
102
RTVSPost2010Prop41ColorRGB
 90
        0
102
RTVSPost2010PropOp41
 70
     1
102
RTVSPost2010Prop42
 90
       50
102
RTVSPost2010PropOp42
 70
     1
102
RTVSPost2010Prop43
 90
        3
102
RTVSPost2010PropOp43
 70
     1
102
RTVSPost2010Prop44ColorIndex
 90
        5
102
RTVSPost2010Prop44ColorRGB
 90
      255
102
RTVSPost2010PropOp44
 70
     1
102
RTVSPost2010Prop45
280
     0
102
RTVSPost2010PropOp45
 70
     1
102
RTVSPost2010Prop46
 90
       50
102
RTVSPost2010PropOp46
 70
     1
102
RTVSPost2010Prop47
 90
       50
102
RTVSPost2010PropOp47
 70
     1
102
RTVSPost2010Prop48
 90
       50
102
RTVSPost2010PropOp48
 70
     1
102
RTVSPost2010Prop49
280
     0
102
RTVSPost2010PropOp49
 70
     1
102
RTVSPost2010Prop50
 90
       50
102
RTVSPost2010PropOp50
 70
     1
102
RTVSPost2010Prop51ColorIndex
 90
      256
102
RTVSPost2010Prop51ColorRGB
 90
-16777216
102
RTVSPost2010PropOp51
 70
     0
102
RTVSPost2010Prop52
140
1.0
102
RTVSPost2010PropOp52
 70
     0
102
RTVSPost2010Prop53
 90
        2
102
RTVSPost2010PropOp53
 70
     1
102
RTVSPost2010Prop54
  1
strokes_ogs.tif
102
RTVSPost2010PropOp54
 70
     1
102
RTVSPost2010Prop55
280
     0
102
RTVSPost2010PropOp55
 70
     1
102
RTVSPost2010Prop56
140
1.0
102
RTVSPost2010PropOp56
 70
     1
102
RTVSPost2010Prop57
140
1.0
102
RTVSPost2010PropOp57
 70
     1
  0
XRECORD
  5
1AA
102
{ACAD_REACTORS
330
1A9
102
}
330
1A9
100
AcDbXrecord
280
     1
102
RTVSPropertyOp0
 70
     1
102
RTVSPropertyOp1
 70
     1
102
RTVSPropertyOp2
 70
     1
102
RTVSPropertyOp3
 70
     1
102
RTVSPropertyOp4
 70
     1
102
RTVSPropertyOp5
 70
     1
102
RTVSPropertyOp6
 70
     1
102
RTVSPropertyOp7
 70
     1
102
RTVSPropertyOp8
 70
     1
102
RTVSPropertyOp9
 70
     1
102
RTVSPropertyOp10
 70
     1
102
RTVSPropertyOp11
 70
     1
102
RTVSPropertyOp12
 70
     1
102
RTVSPropertyOp13
 70
     1
102
RTVSPropertyOp14
 70
     1
102
RTVSPropertyOp15
 70
     1
102
RTVSPropertyOp16
 70
     1
102
RTVSPropertyOp17
 70
     1
102
RTVSPropertyOp18
 70
     1
102
RTVSPropertyOp19
 70
     1
102
RTVSPropertyOp20
 70
     1
102
RTVSPropertyOp21
 70
     1
102
RTVSPropertyOp22
 70
     1
102
RTVSPropertyOp23
 70
     1
102
RTVSPropertyOp24
 70
     1
102
RTVSPropertyOp25
 70
     1
102
RTVSPropertyOp26
 70
     1
102
RTVSPropertyOp27
 70
     1
102
RTVSPropertyOp28
 70
     1
102
RTVSPropertyOp29
 70
     1
102
RTVSPropertyOp30
 70
     1
102
RTVSPropertyOp31
 70
     1
102
RTVSPropertyOp32
 70
     1
102
RTVSPropertyOp33
 70
     1
102
RTVSPropertyOp34
 70
     1
102
RTVSPropertyOp35
 70
     1
102
RTVSPropertyOp36
 70
     1
102
RTVSPropertyOp37
 70
     1
102
RTVSPropertyOp38
 70
     1
102
RTVSPropertyOp39
 70
     1
102
RTVSPropertyOp40
 70
     1
102
RTVSPropertyOp41
 70
     1
102
RTVSPropertyOp42
 70
     1
102
RTVSPropertyOp43
 70
     1
102
RTVSPropertyOp44
 70
     1
102
RTVSPropertyOp45
 70
     1
102
RTVSPropertyOp46
 70
     1
102
RTVSPropertyOp47
 70
     1
102
RTVSPropertyOp48
 70
     1
102
RTVSPropertyOp49
 70
     1
102
RTVSPropertyOp50
 70
     1
102
RTVSPropertyOp51
 70
     0
102
RTVSPropertyOp52
 70
     0
102
RTVSPropertyOp53
 70
     1
102
RTVSPropertyOp54
 70
     1
102
RTVSPropertyOp55
 70
     1
102
RTVSPropertyOp56
 70
     1
102
RTVSPropertyOp57
 70
     1
102
RTVSPost2010Prop28
280
     0
102
RTVSPost2010PropOp28
 70
     1
102
RTVSPost2010Prop29
280
     1
102
RTVSPost2010PropOp29
 70
     1
102
RTVSPost2010Prop30
280
     1
102
RTVSPost2010PropOp30
 70
     1
102
RTVSPost2010Prop31
280
     0
102
RTVSPost2010PropOp31
 70
     1
102
RTVSPost2010Prop32
280
     0
102
RTVSPost2010PropOp32
 70
     1
102
RTVSPost2010Prop33
280
     0
102
RTVSPost2010PropOp33
 70
     1
102
RTVSPost2010Prop34
280
     0
102
RTVSPost2010PropOp34
 70
     1
102
RTVSPost2010Prop35
280
     0
102
RTVSPost2010PropOp35
 70
     1
102
RTVSPost2010Prop36
280
     0
102
RTVSPost2010PropOp36
 70
     1
102
RTVSPost2010Prop37
 90
       50
102
RTVSPost2010PropOp37
 70
     1
102
RTVSPost2010Prop38
140
0.0
102
RTVSPost2010PropOp38
 70
     1
102
RTVSPost2010Prop39
140
1.0
102
RTVSPost2010PropOp39
 70
     1
102
RTVSPost2010Prop40
 90
        0
102
RTVSPost2010PropOp40
 70
     1
102
RTVSPost2010Prop41ColorIndex
 90
       18
102
RTVSPost2010Prop41ColorRGB
 90
        0
102
RTVSPost2010PropOp41
 70
     1
102
RTVSPost2010Prop42
 90
       50
102
RTVSPost2010PropOp42
 70
     1
102
RTVSPost2010Prop43
 90
        3
102
RTVSPost2010PropOp43
 70
     1
102
RTVSPost2010Prop44ColorIndex
 90
        5
102
RTVSPost2010Prop44ColorRGB
 90
      255
102
RTVSPost2010PropOp44
 70
     1
102
RTVSPost2010Prop45
280
     0
102
RTVSPost2010PropOp45
 70
     1
102
RTVSPost2010Prop46
 90
       50
102
RTVSPost2010PropOp46
 70
     1
102
RTVSPost2010Prop47
 90
       50
102
RTVSPost2010PropOp47
 70
     1
102
RTVSPost2010Prop48
 90
       50
102
RTVSPost2010PropOp48
 70
     1
102
RTVSPost2010Prop49
280
     0
102
RTVSPost2010PropOp49
 70
     1
102
RTVSPost2010Prop50
 90
       50
102
RTVSPost2010PropOp50
 70
     1
102
RTVSPost2010Prop51ColorIndex
 90
      256
102
RTVSPost2010Prop51ColorRGB
 90
-16777216
102
RTVSPost2010PropOp51
 70
     0
102
RTVSPost2010Prop52
140
1.0
102
RTVSPost2010PropOp52
 70
     0
102
RTVSPost2010Prop53
 90
        2
102
RTVSPost2010PropOp53
 70
     1
102
RTVSPost2010Prop54
  1
strokes_ogs.tif
102
RTVSPost2010PropOp54
 70
     1
102
RTVSPost2010Prop55
280
     0
102
RTVSPost2010PropOp55
 70
     1
102
RTVSPost2010Prop56
140
1.0
102
RTVSPost2010PropOp56
 70
     1
102
RTVSPost2010Prop57
140
1.0
102
RTVSPost2010PropOp57
 70
     1
  0
XRECORD
  5
1AC
102
{ACAD_REACTORS
330
1AB
102
}
330
1AB
100
AcDbXrecord
280
     1
102
RTVSPropertyOp0
 70
     1
102
RTVSPropertyOp1
 70
     1
102
RTVSPropertyOp2
 70
     1
102
RTVSPropertyOp3
 70
     1
102
RTVSPropertyOp4
 70
     1
102
RTVSPropertyOp5
 70
     1
102
RTVSPropertyOp6
 70
     1
102
RTVSPropertyOp7
 70
     1
102
RTVSPropertyOp8
 70
     1
102
RTVSPropertyOp9
 70
     1
102
RTVSPropertyOp10
 70
     1
102
RTVSPropertyOp11
 70
     1
102
RTVSPropertyOp12
 70
     1
102
RTVSPropertyOp13
 70
     1
102
RTVSPropertyOp14
 70
     1
102
RTVSPropertyOp15
 70
     1
102
RTVSPropertyOp16
 70
     1
102
RTVSPropertyOp17
 70
     1
102
RTVSPropertyOp18
 70
     1
102
RTVSPropertyOp19
 70
     1
102
RTVSPropertyOp20
 70
     1
102
RTVSPropertyOp21
 70
     1
102
RTVSPropertyOp22
 70
     1
102
RTVSPropertyOp23
 70
     1
102
RTVSPropertyOp24
 70
     1
102
RTVSPropertyOp25
 70
     1
102
RTVSPropertyOp26
 70
     1
102
RTVSPropertyOp27
 70
     1
102
RTVSPropertyOp28
 70
     1
102
RTVSPropertyOp29
 70
     1
102
RTVSPropertyOp30
 70
     1
102
RTVSPropertyOp31
 70
     1
102
RTVSPropertyOp32
 70
     1
102
RTVSPropertyOp33
 70
     1
102
RTVSPropertyOp34
 70
     1
102
RTVSPropertyOp35
 70
     1
102
RTVSPropertyOp36
 70
     1
102
RTVSPropertyOp37
 70
     1
102
RTVSPropertyOp38
 70
     1
102
RTVSPropertyOp39
 70
     1
102
RTVSPropertyOp40
 70
     1
102
RTVSPropertyOp41
 70
     1
102
RTVSPropertyOp42
 70
     1
102
RTVSPropertyOp43
 70
     1
102
RTVSPropertyOp44
 70
     1
102
RTVSPropertyOp45
 70
     1
102
RTVSPropertyOp46
 70
     1
102
RTVSPropertyOp47
 70
     1
102
RTVSPropertyOp48
 70
     1
102
RTVSPropertyOp49
 70
     1
102
RTVSPropertyOp50
 70
     1
102
RTVSPropertyOp51
 70
     0
102
RTVSPropertyOp52
 70
     0
102
RTVSPropertyOp53
 70
     1
102
RTVSPropertyOp54
 70
     1
102
RTVSPropertyOp55
 70
     1
102
RTVSPropertyOp56
 70
     1
102
RTVSPropertyOp57
 70
     1
102
RTVSPost2010Prop28
280
     0
102
RTVSPost2010PropOp28
 70
     1
102
RTVSPost2010Prop29
280
     1
102
RTVSPost2010PropOp29
 70
     1
102
RTVSPost2010Prop30
280
     1
102
RTVSPost2010PropOp30
 70
     1
102
RTVSPost2010Prop31
280
     0
102
RTVSPost2010PropOp31
 70
     1
102
RTVSPost2010Prop32
280
     0
102
RTVSPost2010PropOp32
 70
     1
102
RTVSPost2010Prop33
280
     0
102
RTVSPost2010PropOp33
 70
     1
102
RTVSPost2010Prop34
280
     0
102
RTVSPost2010PropOp34
 70
     1
102
RTVSPost2010Prop35
280
     0
102
RTVSPost2010PropOp35
 70
     1
102
RTVSPost2010Prop36
280
     0
102
RTVSPost2010PropOp36
 70
     1
102
RTVSPost2010Prop37
 90
       50
102
RTVSPost2010PropOp37
 70
     1
102
RTVSPost2010Prop38
140
0.0
102
RTVSPost2010PropOp38
 70
     1
102
RTVSPost2010Prop39
140
1.0
102
RTVSPost2010PropOp39
 70
     1
102
RTVSPost2010Prop40
 90
        0
102
RTVSPost2010PropOp40
 70
     1
102
RTVSPost2010Prop41ColorIndex
 90
       18
102
RTVSPost2010Prop41ColorRGB
 90
        0
102
RTVSPost2010PropOp41
 70
     1
102
RTVSPost2010Prop42
 90
       50
102
RTVSPost2010PropOp42
 70
     1
102
RTVSPost2010Prop43
 90
        3
102
RTVSPost2010PropOp43
 70
     1
102
RTVSPost2010Prop44ColorIndex
 90
        5
102
RTVSPost2010Prop44ColorRGB
 90
      255
102
RTVSPost2010PropOp44
 70
     1
102
RTVSPost2010Prop45
280
     0
102
RTVSPost2010PropOp45
 70
     1
102
RTVSPost2010Prop46
 90
       50
102
RTVSPost2010PropOp46
 70
     1
102
RTVSPost2010Prop47
 90
       50
102
RTVSPost2010PropOp47
 70
     1
102
RTVSPost2010Prop48
 90
       50
102
RTVSPost2010PropOp48
 70
     1
102
RTVSPost2010Prop49
280
     0
102
RTVSPost2010PropOp49
 70
     1
102
RTVSPost2010Prop50
 90
       50
102
RTVSPost2010PropOp50
 70
     1
102
RTVSPost2010Prop51ColorIndex
 90
      256
102
RTVSPost2010Prop51ColorRGB
 90
-16777216
102
RTVSPost2010PropOp51
 70
     0
102
RTVSPost2010Prop52
140
1.0
102
RTVSPost2010PropOp52
 70
     0
102
RTVSPost2010Prop53
 90
        2
102
RTVSPost2010PropOp53
 70
     1
102
RTVSPost2010Prop54
  1
strokes_ogs.tif
102
RTVSPost2010PropOp54
 70
     1
102
RTVSPost2010Prop55
280
     0
102
RTVSPost2010PropOp55
 70
     1
102
RTVSPost2010Prop56
140
1.0
102
RTVSPost2010PropOp56
 70
     1
102
RTVSPost2010Prop57
140
1.0
102
RTVSPost2010PropOp57
 70
     1
  0
XRECORD
  5
1AE
102
{ACAD_REACTORS
330
1AD
102
}
330
1AD
100
AcDbXrecord
280
     1
102
RTVSPropertyOp0
 70
     1
102
RTVSPropertyOp1
 70
     1
102
RTVSPropertyOp2
 70
     1
102
RTVSPropertyOp3
 70
     1
102
RTVSPropertyOp4
 70
     1
102
RTVSPropertyOp5
 70
     1
102
RTVSPropertyOp6
 70
     1
102
RTVSPropertyOp7
 70
     1
102
RTVSPropertyOp8
 70
     1
102
RTVSPropertyOp9
 70
     1
102
RTVSPropertyOp10
 70
     1
102
RTVSPropertyOp11
 70
     1
102
RTVSPropertyOp12
 70
     1
102
RTVSPropertyOp13
 70
     1
102
RTVSPropertyOp14
 70
     1
102
RTVSPropertyOp15
 70
     1
102
RTVSPropertyOp16
 70
     1
102
RTVSPropertyOp17
 70
     1
102
RTVSPropertyOp18
 70
     1
102
RTVSPropertyOp19
 70
     1
102
RTVSPropertyOp20
 70
     1
102
RTVSPropertyOp21
 70
     1
102
RTVSPropertyOp22
 70
     1
102
RTVSPropertyOp23
 70
     1
102
RTVSPropertyOp24
 70
     1
102
RTVSPropertyOp25
 70
     1
102
RTVSPropertyOp26
 70
     1
102
RTVSPropertyOp27
 70
     1
102
RTVSPropertyOp28
 70
     1
102
RTVSPropertyOp29
 70
     1
102
RTVSPropertyOp30
 70
     1
102
RTVSPropertyOp31
 70
     1
102
RTVSPropertyOp32
 70
     1
102
RTVSPropertyOp33
 70
     1
102
RTVSPropertyOp34
 70
     1
102
RTVSPropertyOp35
 70
     1
102
RTVSPropertyOp36
 70
     1
102
RTVSPropertyOp37
 70
     1
102
RTVSPropertyOp38
 70
     1
102
RTVSPropertyOp39
 70
     1
102
RTVSPropertyOp40
 70
     1
102
RTVSPropertyOp41
 70
     1
102
RTVSPropertyOp42
 70
     1
102
RTVSPropertyOp43
 70
     1
102
RTVSPropertyOp44
 70
     1
102
RTVSPropertyOp45
 70
     1
102
RTVSPropertyOp46
 70
     1
102
RTVSPropertyOp47
 70
     1
102
RTVSPropertyOp48
 70
     1
102
RTVSPropertyOp49
 70
     1
102
RTVSPropertyOp50
 70
     1
102
RTVSPropertyOp51
 70
     0
102
RTVSPropertyOp52
 70
     0
102
RTVSPropertyOp53
 70
     1
102
RTVSPropertyOp54
 70
     1
102
RTVSPropertyOp55
 70
     1
102
RTVSPropertyOp56
 70
     1
102
RTVSPropertyOp57
 70
     1
102
RTVSPost2010Prop28
280
     0
102
RTVSPost2010PropOp28
 70
     1
102
RTVSPost2010Prop29
280
     1
102
RTVSPost2010PropOp29
 70
     1
102
RTVSPost2010Prop30
280
     1
102
RTVSPost2010PropOp30
 70
     1
102
RTVSPost2010Prop31
280
     0
102
RTVSPost2010PropOp31
 70
     1
102
RTVSPost2010Prop32
280
     0
102
RTVSPost2010PropOp32
 70
     1
102
RTVSPost2010Prop33
280
     0
102
RTVSPost2010PropOp33
 70
     1
102
RTVSPost2010Prop34
280
     0
102
RTVSPost2010PropOp34
 70
     1
102
RTVSPost2010Prop35
280
     0
102
RTVSPost2010PropOp35
 70
     1
102
RTVSPost2010Prop36
280
     0
102
RTVSPost2010PropOp36
 70
     1
102
RTVSPost2010Prop37
 90
       50
102
RTVSPost2010PropOp37
 70
     1
102
RTVSPost2010Prop38
140
0.0
102
RTVSPost2010PropOp38
 70
     1
102
RTVSPost2010Prop39
140
1.0
102
RTVSPost2010PropOp39
 70
     1
102
RTVSPost2010Prop40
 90
        0
102
RTVSPost2010PropOp40
 70
     1
102
RTVSPost2010Prop41ColorIndex
 90
       18
102
RTVSPost2010Prop41ColorRGB
 90
        0
102
RTVSPost2010PropOp41
 70
     1
102
RTVSPost2010Prop42
 90
       50
102
RTVSPost2010PropOp42
 70
     1
102
RTVSPost2010Prop43
 90
        3
102
RTVSPost2010PropOp43
 70
     1
102
RTVSPost2010Prop44ColorIndex
 90
        5
102
RTVSPost2010Prop44ColorRGB
 90
      255
102
RTVSPost2010PropOp44
 70
     1
102
RTVSPost2010Prop45
280
     0
102
RTVSPost2010PropOp45
 70
     1
102
RTVSPost2010Prop46
 90
       50
102
RTVSPost2010PropOp46
 70
     1
102
RTVSPost2010Prop47
 90
       50
102
RTVSPost2010PropOp47
 70
     1
102
RTVSPost2010Prop48
 90
       50
102
RTVSPost2010PropOp48
 70
     1
102
RTVSPost2010Prop49
280
     0
102
RTVSPost2010PropOp49
 70
     1
102
RTVSPost2010Prop50
 90
       50
102
RTVSPost2010PropOp50
 70
     1
102
RTVSPost2010Prop51ColorIndex
 90
      256
102
RTVSPost2010Prop51ColorRGB
 90
-16777216
102
RTVSPost2010PropOp51
 70
     0
102
RTVSPost2010Prop52
140
1.0
102
RTVSPost2010PropOp52
 70
     0
102
RTVSPost2010Prop53
 90
        2
102
RTVSPost2010PropOp53
 70
     1
102
RTVSPost2010Prop54
  1
strokes_ogs.tif
102
RTVSPost2010PropOp54
 70
     1
102
RTVSPost2010Prop55
280
     0
102
RTVSPost2010PropOp55
 70
     1
102
RTVSPost2010Prop56
140
1.0
102
RTVSPost2010PropOp56
 70
     1
102
RTVSPost2010Prop57
140
1.0
102
RTVSPost2010PropOp57
 70
     1
  0
XRECORD
  5
1B0
102
{ACAD_REACTORS
330
1AF
102
}
330
1AF
100
AcDbXrecord
280
     1
102
RTVSPropertyOp0
 70
     1
102
RTVSPropertyOp1
 70
     1
102
RTVSPropertyOp2
 70
     1
102
RTVSPropertyOp3
 70
     1
102
RTVSPropertyOp4
 70
     1
102
RTVSPropertyOp5
 70
     1
102
RTVSPropertyOp6
 70
     1
102
RTVSPropertyOp7
 70
     1
102
RTVSPropertyOp8
 70
     1
102
RTVSPropertyOp9
 70
     1
102
RTVSPropertyOp10
 70
     1
102
RTVSPropertyOp11
 70
     1
102
RTVSPropertyOp12
 70
     1
102
RTVSPropertyOp13
 70
     1
102
RTVSPropertyOp14
 70
     1
102
RTVSPropertyOp15
 70
     1
102
RTVSPropertyOp16
 70
     1
102
RTVSPropertyOp17
 70
     1
102
RTVSPropertyOp18
 70
     1
102
RTVSPropertyOp19
 70
     1
102
RTVSPropertyOp20
 70
     1
102
RTVSPropertyOp21
 70
     1
102
RTVSPropertyOp22
 70
     1
102
RTVSPropertyOp23
 70
     1
102
RTVSPropertyOp24
 70
     1
102
RTVSPropertyOp25
 70
     1
102
RTVSPropertyOp26
 70
     1
102
RTVSPropertyOp27
 70
     1
102
RTVSPropertyOp28
 70
     1
102
RTVSPropertyOp29
 70
     1
102
RTVSPropertyOp30
 70
     1
102
RTVSPropertyOp31
 70
     1
102
RTVSPropertyOp32
 70
     1
102
RTVSPropertyOp33
 70
     1
102
RTVSPropertyOp34
 70
     1
102
RTVSPropertyOp35
 70
     1
102
RTVSPropertyOp36
 70
     1
102
RTVSPropertyOp37
 70
     1
102
RTVSPropertyOp38
 70
     1
102
RTVSPropertyOp39
 70
     1
102
RTVSPropertyOp40
 70
     1
102
RTVSPropertyOp41
 70
     1
102
RTVSPropertyOp42
 70
     1
102
RTVSPropertyOp43
 70
     1
102
RTVSPropertyOp44
 70
     1
102
RTVSPropertyOp45
 70
     1
102
RTVSPropertyOp46
 70
     1
102
RTVSPropertyOp47
 70
     1
102
RTVSPropertyOp48
 70
     1
102
RTVSPropertyOp49
 70
     1
102
RTVSPropertyOp50
 70
     1
102
RTVSPropertyOp51
 70
     0
102
RTVSPropertyOp52
 70
     0
102
RTVSPropertyOp53
 70
     1
102
RTVSPropertyOp54
 70
     1
102
RTVSPropertyOp55
 70
     1
102
RTVSPropertyOp56
 70
     1
102
RTVSPropertyOp57
 70
     1
102
RTVSPost2010Prop28
280
     0
102
RTVSPost2010PropOp28
 70
     1
102
RTVSPost2010Prop29
280
     1
102
RTVSPost2010PropOp29
 70
     1
102
RTVSPost2010Prop30
280
     1
102
RTVSPost2010PropOp30
 70
     1
102
RTVSPost2010Prop31
280
     0
102
RTVSPost2010PropOp31
 70
     1
102
RTVSPost2010Prop32
280
     0
102
RTVSPost2010PropOp32
 70
     1
102
RTVSPost2010Prop33
280
     0
102
RTVSPost2010PropOp33
 70
     1
102
RTVSPost2010Prop34
280
     0
102
RTVSPost2010PropOp34
 70
     1
102
RTVSPost2010Prop35
280
     0
102
RTVSPost2010PropOp35
 70
     1
102
RTVSPost2010Prop36
280
     0
102
RTVSPost2010PropOp36
 70
     1
102
RTVSPost2010Prop37
 90
       50
102
RTVSPost2010PropOp37
 70
     1
102
RTVSPost2010Prop38
140
0.0
102
RTVSPost2010PropOp38
 70
     1
102
RTVSPost2010Prop39
140
1.0
102
RTVSPost2010PropOp39
 70
     1
102
RTVSPost2010Prop40
 90
        0
102
RTVSPost2010PropOp40
 70
     1
102
RTVSPost2010Prop41ColorIndex
 90
       18
102
RTVSPost2010Prop41ColorRGB
 90
        0
102
RTVSPost2010PropOp41
 70
     1
102
RTVSPost2010Prop42
 90
       50
102
RTVSPost2010PropOp42
 70
     1
102
RTVSPost2010Prop43
 90
        3
102
RTVSPost2010PropOp43
 70
     1
102
RTVSPost2010Prop44ColorIndex
 90
        5
102
RTVSPost2010Prop44ColorRGB
 90
      255
102
RTVSPost2010PropOp44
 70
     1
102
RTVSPost2010Prop45
280
     0
102
RTVSPost2010PropOp45
 70
     1
102
RTVSPost2010Prop46
 90
       50
102
RTVSPost2010PropOp46
 70
     1
102
RTVSPost2010Prop47
 90
       50
102
RTVSPost2010PropOp47
 70
     1
102
RTVSPost2010Prop48
 90
       50
102
RTVSPost2010PropOp48
 70
     1
102
RTVSPost2010Prop49
280
     0
102
RTVSPost2010PropOp49
 70
     1
102
RTVSPost2010Prop50
 90
       50
102
RTVSPost2010PropOp50
 70
     1
102
RTVSPost2010Prop51ColorIndex
 90
      256
102
RTVSPost2010Prop51ColorRGB
 90
-16777216
102
RTVSPost2010PropOp51
 70
     0
102
RTVSPost2010Prop52
140
1.0
102
RTVSPost2010PropOp52
 70
     0
102
RTVSPost2010Prop53
 90
        2
102
RTVSPost2010PropOp53
 70
     1
102
RTVSPost2010Prop54
  1
strokes_ogs.tif
102
RTVSPost2010PropOp54
 70
     1
102
RTVSPost2010Prop55
280
     0
102
RTVSPost2010PropOp55
 70
     1
102
RTVSPost2010Prop56
140
1.0
102
RTVSPost2010PropOp56
 70
     1
102
RTVSPost2010Prop57
140
1.0
102
RTVSPost2010PropOp57
 70
     1
  0
XRECORD
  5
1C4
102
{ACAD_REACTORS
330
1C3
102
}
330
1C3
100
AcDbXrecord
280
     1
102
RTVSPropertyOp0
 70
     1
102
RTVSPropertyOp1
 70
     1
102
RTVSPropertyOp2
 70
     1
102
RTVSPropertyOp3
 70
     1
102
RTVSPropertyOp4
 70
     1
102
RTVSPropertyOp5
 70
     1
102
RTVSPropertyOp6
 70
     1
102
RTVSPropertyOp7
 70
     1
102
RTVSPropertyOp8
 70
     1
102
RTVSPropertyOp9
 70
     1
102
RTVSPropertyOp10
 70
     1
102
RTVSPropertyOp11
 70
     1
102
RTVSPropertyOp12
 70
     1
102
RTVSPropertyOp13
 70
     1
102
RTVSPropertyOp14
 70
     1
102
RTVSPropertyOp15
 70
     1
102
RTVSPropertyOp16
 70
     1
102
RTVSPropertyOp17
 70
     1
102
RTVSPropertyOp18
 70
     1
102
RTVSPropertyOp19
 70
     1
102
RTVSPropertyOp20
 70
     1
102
RTVSPropertyOp21
 70
     1
102
RTVSPropertyOp22
 70
     1
102
RTVSPropertyOp23
 70
     1
102
RTVSPropertyOp24
 70
     1
102
RTVSPropertyOp25
 70
     1
102
RTVSPropertyOp26
 70
     1
102
RTVSPropertyOp27
 70
     1
102
RTVSPropertyOp28
 70
     1
102
RTVSPropertyOp29
 70
     1
102
RTVSPropertyOp30
 70
     1
102
RTVSPropertyOp31
 70
     1
102
RTVSPropertyOp32
 70
     1
102
RTVSPropertyOp33
 70
     1
102
RTVSPropertyOp34
 70
     1
102
RTVSPropertyOp35
 70
     1
102
RTVSPropertyOp36
 70
     1
102
RTVSPropertyOp37
 70
     1
102
RTVSPropertyOp38
 70
     1
102
RTVSPropertyOp39
 70
     1
102
RTVSPropertyOp40
 70
     1
102
RTVSPropertyOp41
 70
     1
102
RTVSPropertyOp42
 70
     1
102
RTVSPropertyOp43
 70
     1
102
RTVSPropertyOp44
 70
     1
102
RTVSPropertyOp45
 70
     1
102
RTVSPropertyOp46
 70
     1
102
RTVSPropertyOp47
 70
     1
102
RTVSPropertyOp48
 70
     1
102
RTVSPropertyOp49
 70
     1
102
RTVSPropertyOp50
 70
     1
102
RTVSPropertyOp51
 70
     0
102
RTVSPropertyOp52
 70
     0
102
RTVSPropertyOp53
 70
     1
102
RTVSPropertyOp54
 70
     1
102
RTVSPropertyOp55
 70
     1
102
RTVSPropertyOp56
 70
     1
102
RTVSPropertyOp57
 70
     1
102
RTVSPost2010Prop28
280
     0
102
RTVSPost2010PropOp28
 70
     1
102
RTVSPost2010Prop29
280
     1
102
RTVSPost2010PropOp29
 70
     1
102
RTVSPost2010Prop30
280
     1
102
RTVSPost2010PropOp30
 70
     1
102
RTVSPost2010Prop31
280
     0
102
RTVSPost2010PropOp31
 70
     1
102
RTVSPost2010Prop32
280
     0
102
RTVSPost2010PropOp32
 70
     1
102
RTVSPost2010Prop33
280
     0
102
RTVSPost2010PropOp33
 70
     1
102
RTVSPost2010Prop34
280
     0
102
RTVSPost2010PropOp34
 70
     1
102
RTVSPost2010Prop35
280
     0
102
RTVSPost2010PropOp35
 70
     1
102
RTVSPost2010Prop36
280
     0
102
RTVSPost2010PropOp36
 70
     1
102
RTVSPost2010Prop37
 90
       50
102
RTVSPost2010PropOp37
 70
     1
102
RTVSPost2010Prop38
140
0.0
102
RTVSPost2010PropOp38
 70
     1
102
RTVSPost2010Prop39
140
1.0
102
RTVSPost2010PropOp39
 70
     1
102
RTVSPost2010Prop40
 90
        0
102
RTVSPost2010PropOp40
 70
     1
102
RTVSPost2010Prop41ColorIndex
 90
       18
102
RTVSPost2010Prop41ColorRGB
 90
        0
102
RTVSPost2010PropOp41
 70
     1
102
RTVSPost2010Prop42
 90
       50
102
RTVSPost2010PropOp42
 70
     1
102
RTVSPost2010Prop43
 90
        3
102
RTVSPost2010PropOp43
 70
     1
102
RTVSPost2010Prop44ColorIndex
 90
        5
102
RTVSPost2010Prop44ColorRGB
 90
      255
102
RTVSPost2010PropOp44
 70
     1
102
RTVSPost2010Prop45
280
     0
102
RTVSPost2010PropOp45
 70
     1
102
RTVSPost2010Prop46
 90
       50
102
RTVSPost2010PropOp46
 70
     1
102
RTVSPost2010Prop47
 90
       50
102
RTVSPost2010PropOp47
 70
     1
102
RTVSPost2010Prop48
 90
       50
102
RTVSPost2010PropOp48
 70
     1
102
RTVSPost2010Prop49
280
     0
102
RTVSPost2010PropOp49
 70
     1
102
RTVSPost2010Prop50
 90
       50
102
RTVSPost2010PropOp50
 70
     1
102
RTVSPost2010Prop51ColorIndex
 90
      256
102
RTVSPost2010Prop51ColorRGB
 90
-16777216
102
RTVSPost2010PropOp51
 70
     0
102
RTVSPost2010Prop52
140
1.0
102
RTVSPost2010PropOp52
 70
     0
102
RTVSPost2010Prop53
 90
        2
102
RTVSPost2010PropOp53
 70
     1
102
RTVSPost2010Prop54
  1
strokes_ogs.tif
102
RTVSPost2010PropOp54
 70
     1
102
RTVSPost2010Prop55
280
     0
102
RTVSPost2010PropOp55
 70
     1
102
RTVSPost2010Prop56
140
1.0
102
RTVSPost2010PropOp56
 70
     1
102
RTVSPost2010Prop57
140
1.0
102
RTVSPost2010PropOp57
 70
     1
  0
XRECORD
  5
1BA
102
{ACAD_REACTORS
330
1B9
102
}
330
1B9
100
AcDbXrecord
280
     1
102
RTVSPropertyOp0
 70
     1
102
RTVSPropertyOp1
 70
     1
102
RTVSPropertyOp2
 70
     1
102
RTVSPropertyOp3
 70
     1
102
RTVSPropertyOp4
 70
     1
102
RTVSPropertyOp5
 70
     1
102
RTVSPropertyOp6
 70
     1
102
RTVSPropertyOp7
 70
     1
102
RTVSPropertyOp8
 70
     1
102
RTVSPropertyOp9
 70
     1
102
RTVSPropertyOp10
 70
     1
102
RTVSPropertyOp11
 70
     1
102
RTVSPropertyOp12
 70
     1
102
RTVSPropertyOp13
 70
     1
102
RTVSPropertyOp14
 70
     1
102
RTVSPropertyOp15
 70
     1
102
RTVSPropertyOp16
 70
     1
102
RTVSPropertyOp17
 70
     1
102
RTVSPropertyOp18
 70
     1
102
RTVSPropertyOp19
 70
     1
102
RTVSPropertyOp20
 70
     1
102
RTVSPropertyOp21
 70
     1
102
RTVSPropertyOp22
 70
     1
102
RTVSPropertyOp23
 70
     1
102
RTVSPropertyOp24
 70
     1
102
RTVSPropertyOp25
 70
     1
102
RTVSPropertyOp26
 70
     1
102
RTVSPropertyOp27
 70
     1
102
RTVSPropertyOp28
 70
     1
102
RTVSPropertyOp29
 70
     1
102
RTVSPropertyOp30
 70
     1
102
RTVSPropertyOp31
 70
     1
102
RTVSPropertyOp32
 70
     1
102
RTVSPropertyOp33
 70
     1
102
RTVSPropertyOp34
 70
     1
102
RTVSPropertyOp35
 70
     1
102
RTVSPropertyOp36
 70
     1
102
RTVSPropertyOp37
 70
     1
102
RTVSPropertyOp38
 70
     1
102
RTVSPropertyOp39
 70
     1
102
RTVSPropertyOp40
 70
     1
102
RTVSPropertyOp41
 70
     1
102
RTVSPropertyOp42
 70
     1
102
RTVSPropertyOp43
 70
     1
102
RTVSPropertyOp44
 70
     1
102
RTVSPropertyOp45
 70
     1
102
RTVSPropertyOp46
 70
     1
102
RTVSPropertyOp47
 70
     1
102
RTVSPropertyOp48
 70
     1
102
RTVSPropertyOp49
 70
     1
102
RTVSPropertyOp50
 70
     1
102
RTVSPropertyOp51
 70
     0
102
RTVSPropertyOp52
 70
     0
102
RTVSPropertyOp53
 70
     1
102
RTVSPropertyOp54
 70
     1
102
RTVSPropertyOp55
 70
     1
102
RTVSPropertyOp56
 70
     1
102
RTVSPropertyOp57
 70
     1
102
RTVSPost2010Prop28
280
     0
102
RTVSPost2010PropOp28
 70
     1
102
RTVSPost2010Prop29
280
     1
102
RTVSPost2010PropOp29
 70
     1
102
RTVSPost2010Prop30
280
     1
102
RTVSPost2010PropOp30
 70
     1
102
RTVSPost2010Prop31
280
     0
102
RTVSPost2010PropOp31
 70
     1
102
RTVSPost2010Prop32
280
     0
102
RTVSPost2010PropOp32
 70
     1
102
RTVSPost2010Prop33
280
     0
102
RTVSPost2010PropOp33
 70
     1
102
RTVSPost2010Prop34
280
     0
102
RTVSPost2010PropOp34
 70
     1
102
RTVSPost2010Prop35
280
     0
102
RTVSPost2010PropOp35
 70
     1
102
RTVSPost2010Prop36
280
     0
102
RTVSPost2010PropOp36
 70
     1
102
RTVSPost2010Prop37
 90
       50
102
RTVSPost2010PropOp37
 70
     1
102
RTVSPost2010Prop38
140
0.0
102
RTVSPost2010PropOp38
 70
     1
102
RTVSPost2010Prop39
140
1.0
102
RTVSPost2010PropOp39
 70
     1
102
RTVSPost2010Prop40
 90
        0
102
RTVSPost2010PropOp40
 70
     1
102
RTVSPost2010Prop41ColorIndex
 90
       18
102
RTVSPost2010Prop41ColorRGB
 90
        0
102
RTVSPost2010PropOp41
 70
     1
102
RTVSPost2010Prop42
 90
       50
102
RTVSPost2010PropOp42
 70
     1
102
RTVSPost2010Prop43
 90
        3
102
RTVSPost2010PropOp43
 70
     1
102
RTVSPost2010Prop44ColorIndex
 90
        5
102
RTVSPost2010Prop44ColorRGB
 90
      255
102
RTVSPost2010PropOp44
 70
     1
102
RTVSPost2010Prop45
280
     0
102
RTVSPost2010PropOp45
 70
     1
102
RTVSPost2010Prop46
 90
       50
102
RTVSPost2010PropOp46
 70
     1
102
RTVSPost2010Prop47
 90
       50
102
RTVSPost2010PropOp47
 70
     1
102
RTVSPost2010Prop48
 90
       50
102
RTVSPost2010PropOp48
 70
     1
102
RTVSPost2010Prop49
280
     0
102
RTVSPost2010PropOp49
 70
     1
102
RTVSPost2010Prop50
 90
       50
102
RTVSPost2010PropOp50
 70
     1
102
RTVSPost2010Prop51ColorIndex
 90
      256
102
RTVSPost2010Prop51ColorRGB
 90
-16777216
102
RTVSPost2010PropOp51
 70
     0
102
RTVSPost2010Prop52
140
1.0
102
RTVSPost2010PropOp52
 70
     0
102
RTVSPost2010Prop53
 90
        2
102
RTVSPost2010PropOp53
 70
     1
102
RTVSPost2010Prop54
  1
strokes_ogs.tif
102
RTVSPost2010PropOp54
 70
     1
102
RTVSPost2010Prop55
280
     0
102
RTVSPost2010PropOp55
 70
     1
102
RTVSPost2010Prop56
140
1.0
102
RTVSPost2010PropOp56
 70
     1
102
RTVSPost2010Prop57
140
1.0
102
RTVSPost2010PropOp57
 70
     1
  0
XRECORD
  5
1C2
102
{ACAD_REACTORS
330
1C1
102
}
330
1C1
100
AcDbXrecord
280
     1
102
RTVSPropertyOp0
 70
     1
102
RTVSPropertyOp1
 70
     1
102
RTVSPropertyOp2
 70
     1
102
RTVSPropertyOp3
 70
     1
102
RTVSPropertyOp4
 70
     1
102
RTVSPropertyOp5
 70
     1
102
RTVSPropertyOp6
 70
     1
102
RTVSPropertyOp7
 70
     1
102
RTVSPropertyOp8
 70
     1
102
RTVSPropertyOp9
 70
     1
102
RTVSPropertyOp10
 70
     1
102
RTVSPropertyOp11
 70
     1
102
RTVSPropertyOp12
 70
     1
102
RTVSPropertyOp13
 70
     1
102
RTVSPropertyOp14
 70
     1
102
RTVSPropertyOp15
 70
     1
102
RTVSPropertyOp16
 70
     1
102
RTVSPropertyOp17
 70
     1
102
RTVSPropertyOp18
 70
     1
102
RTVSPropertyOp19
 70
     1
102
RTVSPropertyOp20
 70
     1
102
RTVSPropertyOp21
 70
     1
102
RTVSPropertyOp22
 70
     1
102
RTVSPropertyOp23
 70
     1
102
RTVSPropertyOp24
 70
     1
102
RTVSPropertyOp25
 70
     1
102
RTVSPropertyOp26
 70
     1
102
RTVSPropertyOp27
 70
     1
102
RTVSPropertyOp28
 70
     1
102
RTVSPropertyOp29
 70
     1
102
RTVSPropertyOp30
 70
     1
102
RTVSPropertyOp31
 70
     1
102
RTVSPropertyOp32
 70
     1
102
RTVSPropertyOp33
 70
     1
102
RTVSPropertyOp34
 70
     1
102
RTVSPropertyOp35
 70
     1
102
RTVSPropertyOp36
 70
     1
102
RTVSPropertyOp37
 70
     1
102
RTVSPropertyOp38
 70
     1
102
RTVSPropertyOp39
 70
     1
102
RTVSPropertyOp40
 70
     1
102
RTVSPropertyOp41
 70
     1
102
RTVSPropertyOp42
 70
     1
102
RTVSPropertyOp43
 70
     1
102
RTVSPropertyOp44
 70
     1
102
RTVSPropertyOp45
 70
     1
102
RTVSPropertyOp46
 70
     1
102
RTVSPropertyOp47
 70
     1
102
RTVSPropertyOp48
 70
     1
102
RTVSPropertyOp49
 70
     1
102
RTVSPropertyOp50
 70
     1
102
RTVSPropertyOp51
 70
     0
102
RTVSPropertyOp52
 70
     0
102
RTVSPropertyOp53
 70
     1
102
RTVSPropertyOp54
 70
     1
102
RTVSPropertyOp55
 70
     1
102
RTVSPropertyOp56
 70
     1
102
RTVSPropertyOp57
 70
     1
102
RTVSPost2010Prop28
280
     0
102
RTVSPost2010PropOp28
 70
     1
102
RTVSPost2010Prop29
280
     1
102
RTVSPost2010PropOp29
 70
     1
102
RTVSPost2010Prop30
280
     1
102
RTVSPost2010PropOp30
 70
     1
102
RTVSPost2010Prop31
280
     0
102
RTVSPost2010PropOp31
 70
     1
102
RTVSPost2010Prop32
280
     0
102
RTVSPost2010PropOp32
 70
     1
102
RTVSPost2010Prop33
280
     0
102
RTVSPost2010PropOp33
 70
     1
102
RTVSPost2010Prop34
280
     0
102
RTVSPost2010PropOp34
 70
     1
102
RTVSPost2010Prop35
280
     0
102
RTVSPost2010PropOp35
 70
     1
102
RTVSPost2010Prop36
280
     0
102
RTVSPost2010PropOp36
 70
     1
102
RTVSPost2010Prop37
 90
       50
102
RTVSPost2010PropOp37
 70
     1
102
RTVSPost2010Prop38
140
0.0
102
RTVSPost2010PropOp38
 70
     1
102
RTVSPost2010Prop39
140
1.0
102
RTVSPost2010PropOp39
 70
     1
102
RTVSPost2010Prop40
 90
        0
102
RTVSPost2010PropOp40
 70
     1
102
RTVSPost2010Prop41ColorIndex
 90
       18
102
RTVSPost2010Prop41ColorRGB
 90
        0
102
RTVSPost2010PropOp41
 70
     1
102
RTVSPost2010Prop42
 90
       50
102
RTVSPost2010PropOp42
 70
     1
102
RTVSPost2010Prop43
 90
        3
102
RTVSPost2010PropOp43
 70
     1
102
RTVSPost2010Prop44ColorIndex
 90
        5
102
RTVSPost2010Prop44ColorRGB
 90
      255
102
RTVSPost2010PropOp44
 70
     1
102
RTVSPost2010Prop45
280
     0
102
RTVSPost2010PropOp45
 70
     1
102
RTVSPost2010Prop46
 90
       50
102
RTVSPost2010PropOp46
 70
     1
102
RTVSPost2010Prop47
 90
       50
102
RTVSPost2010PropOp47
 70
     1
102
RTVSPost2010Prop48
 90
       50
102
RTVSPost2010PropOp48
 70
     1
102
RTVSPost2010Prop49
280
     0
102
RTVSPost2010PropOp49
 70
     1
102
RTVSPost2010Prop50
 90
       50
102
RTVSPost2010PropOp50
 70
     1
102
RTVSPost2010Prop51ColorIndex
 90
      256
102
RTVSPost2010Prop51ColorRGB
 90
-16777216
102
RTVSPost2010PropOp51
 70
     0
102
RTVSPost2010Prop52
140
1.0
102
RTVSPost2010PropOp52
 70
     0
102
RTVSPost2010Prop53
 90
        2
102
RTVSPost2010PropOp53
 70
     1
102
RTVSPost2010Prop54
  1
strokes_ogs.tif
102
RTVSPost2010PropOp54
 70
     1
102
RTVSPost2010Prop55
280
     0
102
RTVSPost2010PropOp55
 70
     1
102
RTVSPost2010Prop56
140
1.0
102
RTVSPost2010PropOp56
 70
     1
102
RTVSPost2010Prop57
140
1.0
102
RTVSPost2010PropOp57
 70
     1
  0
ENDSEC
  0
EOF
