  0
SECTION
  2
HEADER
  9
$ACADVER
  1
AC1018
  9
$ACADMAINTVER
 70
     0
  9
$DWGCODEPAGE
  3
ANSI_936
  9
$INSBASE
 10
0.0
 20
0.0
 30
0.0
  9
$EXTMIN
 10
174043.2590353689
 20
-38581.52828898274
 30
0.0
  9
$EXTMAX
 10
175043.2590447041
 20
-37581.52827964757
 30
0.0
  9
$LIMMIN
 10
0.0
 20
0.0
  9
$LIMMAX
 10
12.0
 20
9.0
  9
$ORTHOMODE
 70
     0
  9
$REGENMODE
 70
     1
  9
$FILLMODE
 70
     1
  9
$QTEXTMODE
 70
     0
  9
$MIRRTEXT
 70
     1
  9
$LTSCALE
 40
1.0
  9
$ATTMODE
 70
     1
  9
$TEXTSIZE
 40
0.2
  9
$TRACEWID
 40
0.05
  9
$TEXTSTYLE
  7
Standard
  9
$CLAYER
  8
N141K
  9
$CELTYPE
  6
ByLayer
  9
$CECOLOR
 62
   256
  9
$CELTSCALE
 40
1.0
  9
$DISPSILH
 70
     0
  9
$DIMSCALE
 40
1.0
  9
$DIMASZ
 40
0.18
  9
$DIMEXO
 40
0.0625
  9
$DIMDLI
 40
0.38
  9
$DIMRND
 40
0.0
  9
$DIMDLE
 40
0.0
  9
$DIMEXE
 40
0.18
  9
$DIMTP
 40
0.0
  9
$DIMTM
 40
0.0
  9
$DIMTXT
 40
0.18
  9
$DIMCEN
 40
0.09
  9
$DIMTSZ
 40
0.0
  9
$DIMTOL
 70
     0
  9
$DIMLIM
 70
     0
  9
$DIMTIH
 70
     1
  9
$DIMTOH
 70
     1
  9
$DIMSE1
 70
     0
  9
$DIMSE2
 70
     0
  9
$DIMTAD
 70
     0
  9
$DIMZIN
 70
     0
  9
$DIMBLK
  1

  9
$DIMASO
 70
     1
  9
$DIMSHO
 70
     1
  9
$DIMPOST
  1

  9
$DIMAPOST
  1

  9
$DIMALT
 70
     0
  9
$DIMALTD
 70
     2
  9
$DIMALTF
 40
25.4
  9
$DIMLFAC
 40
1.0
  9
$DIMTOFL
 70
     0
  9
$DIMTVP
 40
0.0
  9
$DIMTIX
 70
     0
  9
$DIMSOXD
 70
     0
  9
$DIMSAH
 70
     0
  9
$DIMBLK1
  1

  9
$DIMBLK2
  1

  9
$DIMSTYLE
  2
Standard
  9
$DIMCLRD
 70
     0
  9
$DIMCLRE
 70
     0
  9
$DIMCLRT
 70
     0
  9
$DIMTFAC
 40
1.0
  9
$DIMGAP
 40
0.09
  9
$DIMJUST
 70
     0
  9
$DIMSD1
 70
     0
  9
$DIMSD2
 70
     0
  9
$DIMTOLJ
 70
     1
  9
$DIMTZIN
 70
     0
  9
$DIMALTZ
 70
     0
  9
$DIMALTTZ
 70
     0
  9
$DIMUPT
 70
     0
  9
$DIMDEC
 70
     4
  9
$DIMTDEC
 70
     4
  9
$DIMALTU
 70
     2
  9
$DIMALTTD
 70
     2
  9
$DIMTXSTY
  7
Standard
  9
$DIMAUNIT
 70
     0
  9
$DIMADEC
 70
     0
  9
$DIMALTRND
 40
0.0
  9
$DIMAZIN
 70
     0
  9
$DIMDSEP
 70
    46
  9
$DIMATFIT
 70
     3
  9
$DIMFRAC
 70
     0
  9
$DIMLDRBLK
  1

  9
$DIMLUNIT
 70
     2
  9
$DIMLWD
 70
    -2
  9
$DIMLWE
 70
    -2
  9
$DIMTMOVE
 70
     2
  9
$LUNITS
 70
     2
  9
$LUPREC
 70
     2
  9
$SKETCHINC
 40
0.1
  9
$FILLETRAD
 40
0.5
  9
$AUNITS
 70
     0
  9
$AUPREC
 70
     0
  9
$MENU
  1
.
  9
$ELEVATION
 40
0.0
  9
$PELEVATION
 40
0.0
  9
$THICKNESS
 40
0.0
  9
$LIMCHECK
 70
     0
  9
$CHAMFERA
 40
0.5
  9
$CHAMFERB
 40
0.5
  9
$CHAMFERC
 40
1.0
  9
$CHAMFERD
 40
0.0
  9
$SKPOLY
 70
     0
  9
$TDCREATE
 40
2456520.843135382
  9
$TDUCREATE
 40
2456520.759802049
  9
$TDUPDATE
 40
2456520.843135394
  9
$TDUUPDATE
 40
2456520.75980206
  9
$TDINDWG
 40
0.0000000116
  9
$TDUSRTIMER
 40
0.0000000116
  9
$USRTIMER
 70
     1
  9
$ANGBASE
 50
0.0
  9
$ANGDIR
 70
     0
  9
$PDMODE
 70
     0
  9
$PDSIZE
 40
0.0
  9
$PLINEWID
 40
0.0
  9
$SPLFRAME
 70
     0
  9
$SPLINETYPE
 70
     6
  9
$SPLINESEGS
 70
     8
  9
$HANDSEED
  5
15A
  9
$SURFTAB1
 70
     6
  9
$SURFTAB2
 70
     6
  9
$SURFTYPE
 70
     6
  9
$SURFU
 70
     6
  9
$SURFV
 70
     6
  9
$UCSBASE
  2

  9
$UCSNAME
  2

  9
$UCSORG
 10
0.0
 20
0.0
 30
0.0
  9
$UCSXDIR
 10
1.0
 20
0.0
 30
0.0
  9
$UCSYDIR
 10
0.0
 20
1.0
 30
0.0
  9
$UCSORTHOREF
  2

  9
$UCSORTHOVIEW
 70
     0
  9
$UCSORGTOP
 10
0.0
 20
0.0
 30
0.0
  9
$UCSORGBOTTOM
 10
0.0
 20
0.0
 30
0.0
  9
$UCSORGLEFT
 10
0.0
 20
0.0
 30
0.0
  9
$UCSORGRIGHT
 10
0.0
 20
0.0
 30
0.0
  9
$UCSORGFRONT
 10
0.0
 20
0.0
 30
0.0
  9
$UCSORGBACK
 10
0.0
 20
0.0
 30
0.0
  9
$PUCSBASE
  2

  9
$PUCSNAME
  2

  9
$PUCSORG
 10
0.0
 20
0.0
 30
0.0
  9
$PUCSXDIR
 10
1.0
 20
0.0
 30
0.0
  9
$PUCSYDIR
 10
0.0
 20
1.0
 30
0.0
  9
$PUCSORTHOREF
  2

  9
$PUCSORTHOVIEW
 70
     0
  9
$PUCSORGTOP
 10
0.0
 20
0.0
 30
0.0
  9
$PUCSORGBOTTOM
 10
0.0
 20
0.0
 30
0.0
  9
$PUCSORGLEFT
 10
0.0
 20
0.0
 30
0.0
  9
$PUCSORGRIGHT
 10
0.0
 20
0.0
 30
0.0
  9
$PUCSORGFRONT
 10
0.0
 20
0.0
 30
0.0
  9
$PUCSORGBACK
 10
0.0
 20
0.0
 30
0.0
  9
$USERI1
 70
     0
  9
$USERI2
 70
     0
  9
$USERI3
 70
     0
  9
$USERI4
 70
     0
  9
$USERI5
 70
     0
  9
$USERR1
 40
0.0
  9
$USERR2
 40
0.0
  9
$USERR3
 40
0.0
  9
$USERR4
 40
0.0
  9
$USERR5
 40
0.0
  9
$WORLDVIEW
 70
     1
  9
$SHADEDGE
 70
     3
  9
$SHADEDIF
 70
    70
  9
$TILEMODE
 70
     1
  9
$MAXACTVP
 70
    64
  9
$PINSBASE
 10
0.0
 20
0.0
 30
0.0
  9
$PLIMCHECK
 70
     0
  9
$PEXTMIN
 10
1.000000000000000E+20
 20
1.000000000000000E+20
 30
1.000000000000000E+20
  9
$PEXTMAX
 10
-1.000000000000000E+20
 20
-1.000000000000000E+20
 30
-1.000000000000000E+20
  9
$PLIMMIN
 10
0.0
 20
0.0
  9
$PLIMMAX
 10
12.0
 20
9.0
  9
$UNITMODE
 70
     0
  9
$VISRETAIN
 70
     1
  9
$PLINEGEN
 70
     0
  9
$PSLTSCALE
 70
     1
  9
$TREEDEPTH
 70
  3020
  9
$CMLSTYLE
  2
Standard
  9
$CMLJUST
 70
     0
  9
$CMLSCALE
 40
1.0
  9
$PROXYGRAPHICS
 70
     1
  9
$MEASUREMENT
 70
     0
  9
$CELWEIGHT
370
    -1
  9
$ENDCAPS
280
     0
  9
$JOINSTYLE
280
     0
  9
$LWDISPLAY
290
     0
  9
$INSUNITS
 70
     4
  9
$HYPERLINKBASE
  1

  9
$STYLESHEET
  1

  9
$XEDIT
290
     1
  9
$CEPSNTYPE
380
     0
  9
$PSTYLEMODE
290
     1
  9
$FINGERPRINTGUID
  2
{133534BE-D652-4D12-9DB8-5B19114D971A}
  9
$VERSIONGUID
  2
{FAEB1C32-E019-11D5-929B-00C0DF256EC4}
  9
$EXTNAMES
290
     1
  9
$PSVPSCALE
 40
0.0
  9
$OLESTARTUP
290
     0
  9
$SORTENTS
280
   127
  9
$INDEXCTL
280
     0
  9
$HIDETEXT
280
     1
  9
$XCLIPFRAME
290
     0
  9
$HALOGAP
280
     0
  9
$OBSCOLOR
 70
   257
  9
$OBSLTYPE
280
     0
  9
$INTERSECTIONDISPLAY
280
     0
  9
$INTERSECTIONCOLOR
 70
   257
  9
$DIMASSOC
280
     2
  9
$PROJECTNAME
  1

  0
ENDSEC
  0
SECTION
  2
CLASSES
  0
CLASS
  1
ACDBDICTIONARYWDFLT
  2
AcDbDictionaryWithDefault
  3
ObjectDBX Classes
 90
        0
 91
        4
280
     0
281
     0
  0
CLASS
  1
VISUALSTYLE
  2
AcDbVisualStyle
  3
ObjectDBX Classes
 90
     4095
 91
        4
280
     0
281
     0
  0
ENDSEC
  0
SECTION
  2
TABLES
  0
TABLE
  2
VPORT
  5
8
330
0
100
AcDbSymbolTable
 70
     1
  0
VPORT
  5
29
330
8
100
AcDbSymbolTableRecord
100
AcDbViewportTableRecord
  2
*Active
 70
     0
 10
0.0
 20
0.0
 11
1.0
 21
1.0
 12
174543.2590400365
 22
-38081.52828431515
 13
0.0
 23
0.0
 14
0.5
 24
0.5
 15
0.5
 25
0.5
 16
0.0
 26
0.0
 36
1.0
 17
0.0
 27
0.0
 37
0.0
 40
1020.000009521873
 41
1.000000000000058
 42
50.0
 43
0.0
 44
0.0
 50
0.0
 51
0.0
 71
     0
 72
   100
 73
     1
 74
     3
 75
     0
 76
     0
 77
     0
 78
     0
281
     0
 65
     1
110
0.0
120
0.0
130
0.0
111
1.0
121
0.0
131
0.0
112
0.0
122
1.0
132
0.0
 79
     0
146
0.0
  0
ENDTAB
  0
TABLE
  2
LTYPE
  5
5
330
0
100
AcDbSymbolTable
 70
     1
  0
LTYPE
  5
14
330
5
100
AcDbSymbolTableRecord
100
AcDbLinetypeTableRecord
  2
ByBlock
 70
     0
  3

 72
    65
 73
     0
 40
0.0
  0
LTYPE
  5
15
330
5
100
AcDbSymbolTableRecord
100
AcDbLinetypeTableRecord
  2
ByLayer
 70
     0
  3

 72
    65
 73
     0
 40
0.0
  0
LTYPE
  5
16
330
5
100
AcDbSymbolTableRecord
100
AcDbLinetypeTableRecord
  2
Continuous
 70
     0
  3
Solid line
 72
    65
 73
     0
 40
0.0
  0
ENDTAB
  0
TABLE
  2
LAYER
  5
2
330
0
100
AcDbSymbolTable
 70
     3
  0
LAYER
  5
10
330
2
100
AcDbSymbolTableRecord
100
AcDbLayerTableRecord
  2
0
 70
     0
 62
     7
  6
Continuous
370
    -3
390
F
  0
LAYER
  5
3B
330
2
100
AcDbSymbolTableRecord
100
AcDbLayerTableRecord
  2
N141K
 70
     0
 62
     7
  6
Continuous
370
    -3
390
F
  0
LAYER
  5
14F
330
2
100
AcDbSymbolTableRecord
100
AcDbLayerTableRecord
  2
MAKE2D VISIBLE LINES
 70
     0
 62
     7
  6
Continuous
370
    -3
390
F
  0
ENDTAB
  0
TABLE
  2
STYLE
  5
3
330
0
100
AcDbSymbolTable
 70
     1
  0
STYLE
  5
11
330
3
100
AcDbSymbolTableRecord
100
AcDbTextStyleTableRecord
  2
Standard
 70
     0
 40
0.0
 41
1.0
 50
0.0
 71
     0
 42
0.2
  3
txt
  4

  0
ENDTAB
  0
TABLE
  2
VIEW
  5
6
330
0
100
AcDbSymbolTable
 70
     0
  0
ENDTAB
  0
TABLE
  2
UCS
  5
7
330
0
100
AcDbSymbolTable
 70
     0
  0
ENDTAB
  0
TABLE
  2
APPID
  5
9
330
0
100
AcDbSymbolTable
 70
     1
  0
APPID
  5
12
330
9
100
AcDbSymbolTableRecord
100
AcDbRegAppTableRecord
  2
ACAD
 70
     0
  0
ENDTAB
  0
TABLE
  2
DIMSTYLE
  5
A
330
0
100
AcDbSymbolTable
 70
     1
100
AcDbDimStyleTable
  0
DIMSTYLE
105
27
330
A
100
AcDbSymbolTableRecord
100
AcDbDimStyleTableRecord
  2
Standard
 70
     0
340
11
  0
ENDTAB
  0
TABLE
  2
BLOCK_RECORD
  5
1
330
0
100
AcDbSymbolTable
 70
     1
  0
BLOCK_RECORD
  5
1F
330
1
100
AcDbSymbolTableRecord
100
AcDbBlockTableRecord
  2
*Model_Space
340
22
  0
BLOCK_RECORD
  5
1B
330
1
100
AcDbSymbolTableRecord
100
AcDbBlockTableRecord
  2
*Paper_Space
340
1E
  0
BLOCK_RECORD
  5
23
330
1
100
AcDbSymbolTableRecord
100
AcDbBlockTableRecord
  2
*Paper_Space0
340
26
  0
ENDTAB
  0
ENDSEC
  0
SECTION
  2
BLOCKS
  0
BLOCK
  5
20
330
1F
100
AcDbEntity
  8
0
100
AcDbBlockBegin
  2
*Model_Space
 70
     0
 10
0.0
 20
0.0
 30
0.0
  3
*Model_Space
  1

  0
ENDBLK
  5
21
330
1F
100
AcDbEntity
  8
0
100
AcDbBlockEnd
  0
BLOCK
  5
1C
330
1B
100
AcDbEntity
 67
     1
  8
0
100
AcDbBlockBegin
  2
*Paper_Space
 70
     0
 10
0.0
 20
0.0
 30
0.0
  3
*Paper_Space
  1

  0
ENDBLK
  5
1D
330
1B
100
AcDbEntity
 67
     1
  8
0
100
AcDbBlockEnd
  0
BLOCK
  5
24
330
23
100
AcDbEntity
  8
0
100
AcDbBlockBegin
  2
*Paper_Space0
 70
     0
 10
0.0
 20
0.0
 30
0.0
  3
*Paper_Space0
  1

  0
ENDBLK
  5
25
330
23
100
AcDbEntity
  8
0
100
AcDbBlockEnd
  0
ENDSEC
  0
SECTION
  2
ENTITIES
  0
POLYLINE
  5
3C
330
1F
100
AcDbEntity
  8
N141K
100
AcDb2dPolyline
 66
     1
 10
0.0
 20
0.0
 30
0.0
  0
VERTEX
  5
3D
330
3C
100
AcDbEntity
  8
N141K
100
AcDbVertex
100
AcDb2dVertex
 10
174453.2577006242
 20
-38141.52871788136
 30
0.0
  0
VERTEX
  5
3E
330
3C
100
AcDbEntity
  8
N141K
100
AcDbVertex
100
AcDb2dVertex
 10
174453.2615117292
 20
-38142.40556938024
 30
0.0
  0
VERTEX
  5
3F
330
3C
100
AcDbEntity
  8
N141K
100
AcDbVertex
100
AcDb2dVertex
 10
174453.2859762135
 20
-38143.3064645743
 30
0.0
  0
VERTEX
  5
40
330
3C
100
AcDbEntity
  8
N141K
100
AcDbVertex
100
AcDb2dVertex
 10
174453.3108420568
 20
-38143.77086660031
 30
0.0
  0
VERTEX
  5
41
330
3C
100
AcDbEntity
  8
N141K
100
AcDbVertex
100
AcDb2dVertex
 10
174453.3460160621
 20
-38144.24603556313
 30
0.0
  0
VERTEX
  5
42
330
3C
100
AcDbEntity
  8
N141K
100
AcDbVertex
100
AcDb2dVertex
 10
174453.3925047714
 20
-38144.73242013887
 30
0.0
  0
VERTEX
  5
43
330
3C
100
AcDbEntity
  8
N141K
100
AcDbVertex
100
AcDb2dVertex
 10
174453.4510180898
 20
-38145.2300055852
 30
0.0
  0
VERTEX
  5
44
330
3C
100
AcDbEntity
  8
N141K
100
AcDbVertex
100
AcDb2dVertex
 10
174453.521993942
 20
-38145.73836043425
 30
0.0
  0
VERTEX
  5
45
330
3C
100
AcDbEntity
  8
N141K
100
AcDbVertex
100
AcDb2dVertex
 10
174453.6056229278
 20
-38146.25668318522
 30
0.0
  0
VERTEX
  5
46
330
3C
100
AcDbEntity
  8
N141K
100
AcDbVertex
100
AcDb2dVertex
 10
174453.701872978
 20
-38146.78384899713
 30
0.0
  0
VERTEX
  5
47
330
3C
100
AcDbEntity
  8
N141K
100
AcDbVertex
100
AcDb2dVertex
 10
174453.8105140103
 20
-38147.3184563816
 30
0.0
  0
VERTEX
  5
48
330
3C
100
AcDbEntity
  8
N141K
100
AcDbVertex
100
AcDb2dVertex
 10
174453.9311425848
 20
-38147.85887389556
 30
0.0
  0
VERTEX
  5
49
330
3C
100
AcDbEntity
  8
N141K
100
AcDbVertex
100
AcDb2dVertex
 10
174454.0632065606
 20
-38148.4032868339
 30
0.0
  0
VERTEX
  5
4A
330
3C
100
AcDbEntity
  8
N141K
100
AcDbVertex
100
AcDb2dVertex
 10
174454.3588365779
 20
-38149.4962040102
 30
0.0
  0
VERTEX
  5
4B
330
3C
100
AcDbEntity
  8
N141K
100
AcDbVertex
100
AcDb2dVertex
 10
174454.6909498236
 20
-38150.58079935455
 30
0.0
  0
VERTEX
  5
4C
330
3C
100
AcDbEntity
  8
N141K
100
AcDbVertex
100
AcDb2dVertex
 10
174455.0522908075
 20
-38151.64072045441
 30
0.0
  0
VERTEX
  5
4D
330
3C
100
AcDbEntity
  8
N141K
100
AcDbVertex
100
AcDb2dVertex
 10
174455.4355917748
 20
-38152.66116520806
 30
0.0
  0
VERTEX
  5
4E
330
3C
100
AcDbEntity
  8
N141K
100
AcDbVertex
100
AcDb2dVertex
 10
174455.8343616916
 20
-38153.63037599202
 30
0.0
  0
VERTEX
  5
4F
330
3C
100
AcDbEntity
  8
N141K
100
AcDbVertex
100
AcDb2dVertex
 10
174456.2436752324
 20
-38154.54113382848
 30
0.0
  0
VERTEX
  5
50
330
3C
100
AcDbEntity
  8
N141K
100
AcDbVertex
100
AcDb2dVertex
 10
174456.660961766
 20
-38155.39225255272
 30
0.0
  0
VERTEX
  5
51
330
3C
100
AcDbEntity
  8
N141K
100
AcDbVertex
100
AcDb2dVertex
 10
174457.0867943417
 20
-38156.19007298056
 30
0.0
  0
VERTEX
  5
52
330
3C
100
AcDbEntity
  8
N141K
100
AcDbVertex
100
AcDb2dVertex
 10
174457.5256786764
 20
-38156.94995707577
 30
0.0
 42
0.1235796512800258
  0
VERTEX
  5
53
330
3C
100
AcDbEntity
  8
N141K
100
AcDbVertex
100
AcDb2dVertex
 10
174467.8287965747
 20
-38167.25613822116
 30
0.0
  0
VERTEX
  5
54
330
3C
100
AcDbEntity
  8
N141K
100
AcDbVertex
100
AcDb2dVertex
 10
174468.5890317976
 20
-38167.69551796064
 30
0.0
  0
VERTEX
  5
55
330
3C
100
AcDbEntity
  8
N141K
100
AcDbVertex
100
AcDb2dVertex
 10
174469.3872262676
 20
-38168.12182987866
 30
0.0
  0
VERTEX
  5
56
330
3C
100
AcDbEntity
  8
N141K
100
AcDbVertex
100
AcDb2dVertex
 10
174470.2387414914
 20
-38168.53958329524
 30
0.0
  0
VERTEX
  5
57
330
3C
100
AcDbEntity
  8
N141K
100
AcDbVertex
100
AcDb2dVertex
 10
174471.149917467
 20
-38168.94935117257
 30
0.0
  0
VERTEX
  5
58
330
3C
100
AcDbEntity
  8
N141K
100
AcDbVertex
100
AcDb2dVertex
 10
174472.1195668987
 20
-38169.34855987084
 30
0.0
  0
VERTEX
  5
59
330
3C
100
AcDbEntity
  8
N141K
100
AcDbVertex
100
AcDb2dVertex
 10
174473.1404694133
 20
-38169.73227890417
 30
0.0
  0
VERTEX
  5
5A
330
3C
100
AcDbEntity
  8
N141K
100
AcDbVertex
100
AcDb2dVertex
 10
174474.2008657746
 20
-38170.09401069664
 30
0.0
  0
VERTEX
  5
5B
330
3C
100
AcDbEntity
  8
N141K
100
AcDbVertex
100
AcDb2dVertex
 10
174475.2859520999
 20
-38170.42648033818
 30
0.0
  0
VERTEX
  5
5C
330
3C
100
AcDbEntity
  8
N141K
100
AcDbVertex
100
AcDb2dVertex
 10
174476.3793740749
 20
-38170.72242534047
 30
0.0
  0
VERTEX
  5
5D
330
3C
100
AcDbEntity
  8
N141K
100
AcDbVertex
100
AcDb2dVertex
 10
174476.9240439787
 20
-38170.8546293249
 30
0.0
  0
VERTEX
  5
5E
330
3C
100
AcDbEntity
  8
N141K
100
AcDbVertex
100
AcDb2dVertex
 10
174477.4647211691
 20
-38170.97538539298
 30
0.0
  0
VERTEX
  5
5F
330
3C
100
AcDbEntity
  8
N141K
100
AcDbVertex
100
AcDb2dVertex
 10
174477.9995906908
 20
-38171.08414091548
 30
0.0
  0
VERTEX
  5
60
330
3C
100
AcDbEntity
  8
N141K
100
AcDbVertex
100
AcDb2dVertex
 10
174478.5270208518
 20
-38171.18049211882
 30
0.0
  0
VERTEX
  5
61
330
3C
100
AcDbEntity
  8
N141K
100
AcDbVertex
100
AcDb2dVertex
 10
174479.045609918
 20
-38171.26420876484
 30
0.0
  0
VERTEX
  5
62
330
3C
100
AcDbEntity
  8
N141K
100
AcDbVertex
100
AcDb2dVertex
 10
174479.554232807
 20
-38171.33525883076
 30
0.0
  0
VERTEX
  5
63
330
3C
100
AcDbEntity
  8
N141K
100
AcDbVertex
100
AcDb2dVertex
 10
174480.0520877826
 20
-38171.39383318901
 30
0.0
  0
VERTEX
  5
64
330
3C
100
AcDbEntity
  8
N141K
100
AcDbVertex
100
AcDb2dVertex
 10
174480.5387431491
 20
-38171.44037028711
 30
0.0
  0
VERTEX
  5
65
330
3C
100
AcDbEntity
  8
N141K
100
AcDbVertex
100
AcDb2dVertex
 10
174481.0141839453
 20
-38171.47558082754
 30
0.0
  0
VERTEX
  5
66
330
3C
100
AcDbEntity
  8
N141K
100
AcDbVertex
100
AcDb2dVertex
 10
174481.4788586387
 20
-38171.50047244767
 30
0.0
  0
VERTEX
  5
67
330
3C
100
AcDbEntity
  8
N141K
100
AcDbVertex
100
AcDb2dVertex
 10
174482.3803008975
 20
-38171.52496222971
 30
0.0
  0
VERTEX
  5
68
330
3C
100
AcDbEntity
  8
N141K
100
AcDbVertex
100
AcDb2dVertex
 10
174483.2577006242
 20
-38171.52877726387
 30
0.0
  0
VERTEX
  5
69
330
3C
100
AcDbEntity
  8
N141K
100
AcDbVertex
100
AcDb2dVertex
 10
174603.2577006244
 20
-38171.52877726102
 30
0.0
  0
VERTEX
  5
6A
330
3C
100
AcDbEntity
  8
N141K
100
AcDbVertex
100
AcDb2dVertex
 10
174604.134556841
 20
-38171.5249660015
 30
0.0
  0
VERTEX
  5
6B
330
3C
100
AcDbEntity
  8
N141K
100
AcDbVertex
100
AcDb2dVertex
 10
174605.0354566409
 20
-38171.50050054491
 30
0.0
  0
VERTEX
  5
6C
330
3C
100
AcDbEntity
  8
N141K
100
AcDbVertex
100
AcDb2dVertex
 10
174605.4998609056
 20
-38171.47563373059
 30
0.0
  0
VERTEX
  5
6D
330
3C
100
AcDbEntity
  8
N141K
100
AcDbVertex
100
AcDb2dVertex
 10
174605.9750320584
 20
-38171.44045837086
 30
0.0
  0
VERTEX
  5
6E
330
3C
100
AcDbEntity
  8
N141K
100
AcDbVertex
100
AcDb2dVertex
 10
174606.4614187741
 20
-38171.39396789863
 30
0.0
  0
VERTEX
  5
6F
330
3C
100
AcDbEntity
  8
N141K
100
AcDbVertex
100
AcDb2dVertex
 10
174606.9590063111
 20
-38171.33545239735
 30
0.0
  0
VERTEX
  5
70
330
3C
100
AcDbEntity
  8
N141K
100
AcDbVertex
100
AcDb2dVertex
 10
174607.4673632045
 20
-38171.26447394386
 30
0.0
  0
VERTEX
  5
71
330
3C
100
AcDbEntity
  8
N141K
100
AcDbVertex
100
AcDb2dVertex
 10
174607.9856879579
 20
-38171.18084195118
 30
0.0
  0
VERTEX
  5
72
330
3C
100
AcDbEntity
  8
N141K
100
AcDbVertex
100
AcDb2dVertex
 10
174608.5128557365
 20
-38171.08458851134
 30
0.0
  0
VERTEX
  5
73
330
3C
100
AcDbEntity
  8
N141K
100
AcDbVertex
100
AcDb2dVertex
 10
174609.0474650589
 20
-38170.97594373822
 30
0.0
  0
VERTEX
  5
74
330
3C
100
AcDbEntity
  8
N141K
100
AcDbVertex
100
AcDb2dVertex
 10
174609.5878844901
 20
-38170.85531111037
 30
0.0
  0
VERTEX
  5
75
330
3C
100
AcDbEntity
  8
N141K
100
AcDbVertex
100
AcDb2dVertex
 10
174610.132299334
 20
-38170.72324281382
 30
0.0
  0
VERTEX
  5
76
330
3C
100
AcDbEntity
  8
N141K
100
AcDbVertex
100
AcDb2dVertex
 10
174611.2252203223
 20
-38170.42760355309
 30
0.0
  0
VERTEX
  5
77
330
3C
100
AcDbEntity
  8
N141K
100
AcDbVertex
100
AcDb2dVertex
 10
174612.309819541
 20
-38170.09548062125
 30
0.0
  0
VERTEX
  5
78
330
3C
100
AcDbEntity
  8
N141K
100
AcDbVertex
100
AcDb2dVertex
 10
174613.3697446447
 20
-38169.73412994396
 30
0.0
  0
VERTEX
  5
79
330
3C
100
AcDbEntity
  8
N141K
100
AcDbVertex
100
AcDb2dVertex
 10
174614.3901935845
 20
-38169.35081967763
 30
0.0
  0
VERTEX
  5
7A
330
3C
100
AcDbEntity
  8
N141K
100
AcDbVertex
100
AcDb2dVertex
 10
174615.3594087667
 20
-38168.95204117983
 30
0.0
  0
VERTEX
  5
7B
330
3C
100
AcDbEntity
  8
N141K
100
AcDbVertex
100
AcDb2dVertex
 10
174616.2701712124
 20
-38168.54271997953
 30
0.0
  0
VERTEX
  5
7C
330
3C
100
AcDbEntity
  8
N141K
100
AcDbVertex
100
AcDb2dVertex
 10
174617.1212947166
 20
-38168.12542674749
 30
0.0
  0
VERTEX
  5
7D
330
3C
100
AcDbEntity
  8
N141K
100
AcDbVertex
100
AcDb2dVertex
 10
174617.9191200068
 20
-38167.69958826657
 30
0.0
  0
VERTEX
  5
7E
330
3C
100
AcDbEntity
  8
N141K
100
AcDbVertex
100
AcDb2dVertex
 10
174618.6790089026
 20
-38167.26069840206
 30
0.0
 42
0.1235806242343237
  0
VERTEX
  5
7F
330
3C
100
AcDbEntity
  8
N141K
100
AcDbVertex
100
AcDb2dVertex
 10
174628.9852219073
 20
-38156.95745370941
 30
0.0
  0
VERTEX
  5
80
330
3C
100
AcDbEntity
  8
N141K
100
AcDbVertex
100
AcDb2dVertex
 10
174629.4245897282
 20
-38156.19722781032
 30
0.0
  0
VERTEX
  5
81
330
3C
100
AcDbEntity
  8
N141K
100
AcDbVertex
100
AcDb2dVertex
 10
174629.850889568
 20
-38155.39904302497
 30
0.0
  0
VERTEX
  5
82
330
3C
100
AcDbEntity
  8
N141K
100
AcDbVertex
100
AcDb2dVertex
 10
174630.2686302857
 20
-38154.54753769752
 30
0.0
  0
VERTEX
  5
83
330
3C
100
AcDbEntity
  8
N141K
100
AcDbVertex
100
AcDb2dVertex
 10
174630.6783846782
 20
-38153.63637173187
 30
0.0
  0
VERTEX
  5
84
330
3C
100
AcDbEntity
  8
N141K
100
AcDbVertex
100
AcDb2dVertex
 10
174631.0775791834
 20
-38152.6667323685
 30
0.0
  0
VERTEX
  5
85
330
3C
100
AcDbEntity
  8
N141K
100
AcDbVertex
100
AcDb2dVertex
 10
174631.4612835832
 20
-38151.64583996136
 30
0.0
  0
VERTEX
  5
86
330
3C
100
AcDbEntity
  8
N141K
100
AcDbVertex
100
AcDb2dVertex
 10
174631.8230007071
 20
-38150.58545375488
 30
0.0
  0
VERTEX
  5
87
330
3C
100
AcDbEntity
  8
N141K
100
AcDbVertex
100
AcDb2dVertex
 10
174632.1554561346
 20
-38149.50037766076
 30
0.0
  0
VERTEX
  5
88
330
3C
100
AcDbEntity
  8
N141K
100
AcDbVertex
100
AcDb2dVertex
 10
174632.4513878993
 20
-38148.40696603493
 30
0.0
  0
VERTEX
  5
89
330
3C
100
AcDbEntity
  8
N141K
100
AcDbVertex
100
AcDb2dVertex
 10
174632.5835857898
 20
-38147.86230136448
 30
0.0
  0
VERTEX
  5
8A
330
3C
100
AcDbEntity
  8
N141K
100
AcDbVertex
100
AcDb2dVertex
 10
174632.7043361914
 20
-38147.32162945445
 30
0.0
  0
VERTEX
  5
8B
330
3C
100
AcDbEntity
  8
N141K
100
AcDbVertex
100
AcDb2dVertex
 10
174632.8130865253
 20
-38146.78676526556
 30
0.0
  0
VERTEX
  5
8C
330
3C
100
AcDbEntity
  8
N141K
100
AcDbVertex
100
AcDb2dVertex
 10
174632.9094330609
 20
-38146.25934049442
 30
0.0
  0
VERTEX
  5
8D
330
3C
100
AcDbEntity
  8
N141K
100
AcDbVertex
100
AcDb2dVertex
 10
174632.9931455932
 20
-38145.74075687915
 30
0.0
  0
VERTEX
  5
8E
330
3C
100
AcDbEntity
  8
N141K
100
AcDbVertex
100
AcDb2dVertex
 10
174633.0641921213
 20
-38145.23213950485
 30
0.0
  0
VERTEX
  5
8F
330
3C
100
AcDbEntity
  8
N141K
100
AcDbVertex
100
AcDb2dVertex
 10
174633.1227635269
 20
-38144.73429010912
 30
0.0
  0
VERTEX
  5
90
330
3C
100
AcDbEntity
  8
N141K
100
AcDbVertex
100
AcDb2dVertex
 10
174633.1692982521
 20
-38144.24764038763
 30
0.0
  0
VERTEX
  5
91
330
3C
100
AcDbEntity
  8
N141K
100
AcDbVertex
100
AcDb2dVertex
 10
174633.204506978
 20
-38143.7722052996
 30
0.0
  0
VERTEX
  5
92
330
3C
100
AcDbEntity
  8
N141K
100
AcDbVertex
100
AcDb2dVertex
 10
174633.2293973025
 20
-38143.30753637337
 30
0.0
  0
VERTEX
  5
93
330
3C
100
AcDbEntity
  8
N141K
100
AcDbVertex
100
AcDb2dVertex
 10
174633.253885794
 20
-38142.40610579833
 30
0.0
  0
VERTEX
  5
94
330
3C
100
AcDbEntity
  8
N141K
100
AcDbVertex
100
AcDb2dVertex
 10
174633.2577006242
 20
-38141.52871788136
 30
0.0
  0
VERTEX
  5
95
330
3C
100
AcDbEntity
  8
N141K
100
AcDbVertex
100
AcDb2dVertex
 10
174633.2577006242
 20
-38021.52871788137
 30
0.0
  0
VERTEX
  5
96
330
3C
100
AcDbEntity
  8
N141K
100
AcDbVertex
100
AcDb2dVertex
 10
174633.2538896762
 20
-38020.65188904538
 30
0.0
  0
VERTEX
  5
97
330
3C
100
AcDbEntity
  8
N141K
100
AcDbVertex
100
AcDb2dVertex
 10
174633.2294262032
 20
-38019.75101647073
 30
0.0
  0
VERTEX
  5
98
330
3C
100
AcDbEntity
  8
N141K
100
AcDbVertex
100
AcDb2dVertex
 10
174633.2045613913
 20
-38019.28662572124
 30
0.0
  0
VERTEX
  5
99
330
3C
100
AcDbEntity
  8
N141K
100
AcDbVertex
100
AcDb2dVertex
 10
174633.1693888488
 20
-38018.81146800233
 30
0.0
  0
VERTEX
  5
9A
330
3C
100
AcDbEntity
  8
N141K
100
AcDbVertex
100
AcDb2dVertex
 10
174633.1229020785
 20
-38018.32509462927
 30
0.0
  0
VERTEX
  5
9B
330
3C
100
AcDbEntity
  8
N141K
100
AcDbVertex
100
AcDb2dVertex
 10
174633.0643912078
 20
-38017.8275203352
 30
0.0
  0
VERTEX
  5
9C
330
3C
100
AcDbEntity
  8
N141K
100
AcDbVertex
100
AcDb2dVertex
 10
174632.9934183339
 20
-38017.31917657836
 30
0.0
  0
VERTEX
  5
9D
330
3C
100
AcDbEntity
  8
N141K
100
AcDbVertex
100
AcDb2dVertex
 10
174632.9097928691
 20
-38016.80086484951
 30
0.0
  0
VERTEX
  5
9E
330
3C
100
AcDbEntity
  8
N141K
100
AcDbVertex
100
AcDb2dVertex
 10
174632.8135468854
 20
-38016.27370997929
 30
0.0
  0
VERTEX
  5
9F
330
3C
100
AcDbEntity
  8
N141K
100
AcDbVertex
100
AcDb2dVertex
 10
174632.7049104603
 20
-38015.73911344551
 30
0.0
  0
VERTEX
  5
A0
330
3C
100
AcDbEntity
  8
N141K
100
AcDbVertex
100
AcDb2dVertex
 10
174632.5842870213
 20
-38015.19870668051
 30
0.0
  0
VERTEX
  5
A1
330
3C
100
AcDbEntity
  8
N141K
100
AcDbVertex
100
AcDb2dVertex
 10
174632.4522286911
 20
-38014.65430437851
 30
0.0
  0
VERTEX
  5
A2
330
3C
100
AcDbEntity
  8
N141K
100
AcDbVertex
100
AcDb2dVertex
 10
174632.1566113967
 20
-38013.56140809377
 30
0.0
  0
VERTEX
  5
A3
330
3C
100
AcDbEntity
  8
N141K
100
AcDbVertex
100
AcDb2dVertex
 10
174631.8245125819
 20
-38012.47683306152
 30
0.0
  0
VERTEX
  5
A4
330
3C
100
AcDbEntity
  8
N141K
100
AcDbVertex
100
AcDb2dVertex
 10
174631.4631874647
 20
-38011.4169316119
 30
0.0
  0
VERTEX
  5
A5
330
3C
100
AcDbEntity
  8
N141K
100
AcDbVertex
100
AcDb2dVertex
 10
174631.0799035198
 20
-38010.39650576991
 30
0.0
  0
VERTEX
  5
A6
330
3C
100
AcDbEntity
  8
N141K
100
AcDbVertex
100
AcDb2dVertex
 10
174630.6811515226
 20
-38009.42731309037
 30
0.0
  0
VERTEX
  5
A7
330
3C
100
AcDbEntity
  8
N141K
100
AcDbVertex
100
AcDb2dVertex
 10
174630.2718565929
 20
-38008.51657249288
 30
0.0
  0
VERTEX
  5
A8
330
3C
100
AcDbEntity
  8
N141K
100
AcDbVertex
100
AcDb2dVertex
 10
174629.8545892381
 20
-38007.66547009676
 30
0.0
  0
VERTEX
  5
A9
330
3C
100
AcDbEntity
  8
N141K
100
AcDbVertex
100
AcDb2dVertex
 10
174629.4287763977
 20
-38006.86766505604
 30
0.0
  0
VERTEX
  5
AA
330
3C
100
AcDbEntity
  8
N141K
100
AcDbVertex
100
AcDb2dVertex
 10
174628.9899124865
 20
-38006.10779539438
 30
0.0
 42
0.1235808922402008
  0
VERTEX
  5
AB
330
3C
100
AcDbEntity
  8
N141K
100
AcDbVertex
100
AcDb2dVertex
 10
174618.6835173997
 20
-37995.79944550403
 30
0.0
  0
VERTEX
  5
AC
330
3C
100
AcDbEntity
  8
N141K
100
AcDbVertex
100
AcDb2dVertex
 10
174617.8148376909
 20
-37995.29816460833
 30
0.0
  0
VERTEX
  5
AD
330
3C
100
AcDbEntity
  8
N141K
100
AcDbVertex
100
AcDb2dVertex
 10
174616.92641216
 20
-37994.82438896352
 30
0.0
  0
VERTEX
  5
AE
330
3C
100
AcDbEntity
  8
N141K
100
AcDbVertex
100
AcDb2dVertex
 10
174616.0195416876
 20
-37994.37923668425
 30
0.0
  0
VERTEX
  5
AF
330
3C
100
AcDbEntity
  8
N141K
100
AcDbVertex
100
AcDb2dVertex
 10
174615.0956086149
 20
-37993.96374269415
 30
0.0
  0
VERTEX
  5
B0
330
3C
100
AcDbEntity
  8
N141K
100
AcDbVertex
100
AcDb2dVertex
 10
174614.1560700798
 20
-37993.57885145628
 30
0.0
  0
VERTEX
  5
B1
330
3C
100
AcDbEntity
  8
N141K
100
AcDbVertex
100
AcDb2dVertex
 10
174613.2024505924
 20
-37993.22541035963
 30
0.0
  0
VERTEX
  5
B2
330
3C
100
AcDbEntity
  8
N141K
100
AcDbVertex
100
AcDb2dVertex
 10
174612.2363339243
 20
-37992.90416385365
 30
0.0
  0
VERTEX
  5
B3
330
3C
100
AcDbEntity
  8
N141K
100
AcDbVertex
100
AcDb2dVertex
 10
174611.2593544011
 20
-37992.61574841249
 30
0.0
  0
VERTEX
  5
B4
330
3C
100
AcDbEntity
  8
N141K
100
AcDbVertex
100
AcDb2dVertex
 10
174610.2731876988
 20
-37992.36068839819
 30
0.0
  0
VERTEX
  5
B5
330
3C
100
AcDbEntity
  8
N141K
100
AcDbVertex
100
AcDb2dVertex
 10
174609.2795412488
 20
-37992.1393928785
 30
0.0
  0
VERTEX
  5
B6
330
3C
100
AcDbEntity
  8
N141K
100
AcDbVertex
100
AcDb2dVertex
 10
174608.2801443706
 20
-37991.9521534394
 30
0.0
  0
VERTEX
  5
B7
330
3C
100
AcDbEntity
  8
N141K
100
AcDbVertex
100
AcDb2dVertex
 10
174607.2767382492
 20
-37991.79914301699
 30
0.0
  0
VERTEX
  5
B8
330
3C
100
AcDbEntity
  8
N141K
100
AcDbVertex
100
AcDb2dVertex
 10
174606.27106588
 20
-37991.68041575645
 30
0.0
  0
VERTEX
  5
B9
330
3C
100
AcDbEntity
  8
N141K
100
AcDbVertex
100
AcDb2dVertex
 10
174605.264862101
 20
-37991.59590788969
 30
0.0
  0
VERTEX
  5
BA
330
3C
100
AcDbEntity
  8
N141K
100
AcDbVertex
100
AcDb2dVertex
 10
174604.2598438306
 20
-37991.54543960677
 30
0.0
  0
VERTEX
  5
BB
330
3C
100
AcDbEntity
  8
N141K
100
AcDbVertex
100
AcDb2dVertex
 10
174483.2577006242
 20
-37991.52871788137
 30
0.0
  0
VERTEX
  5
BC
330
3C
100
AcDbEntity
  8
N141K
100
AcDbVertex
100
AcDb2dVertex
 10
174482.3808775031
 20
-37991.53252879001
 30
0.0
  0
VERTEX
  5
BD
330
3C
100
AcDbEntity
  8
N141K
100
AcDbVertex
100
AcDb2dVertex
 10
174481.4800106323
 20
-37991.55699200903
 30
0.0
  0
VERTEX
  5
BE
330
3C
100
AcDbEntity
  8
N141K
100
AcDbVertex
100
AcDb2dVertex
 10
174481.0156227262
 20
-37991.58185656181
 30
0.0
  0
VERTEX
  5
BF
330
3C
100
AcDbEntity
  8
N141K
100
AcDbVertex
100
AcDb2dVertex
 10
174480.5404678425
 20
-37991.61702873684
 30
0.0
  0
VERTEX
  5
C0
330
3C
100
AcDbEntity
  8
N141K
100
AcDbVertex
100
AcDb2dVertex
 10
174480.0540972942
 20
-37991.66351502007
 30
0.0
  0
VERTEX
  5
C1
330
3C
100
AcDbEntity
  8
N141K
100
AcDbVertex
100
AcDb2dVertex
 10
174479.556525812
 20
-37991.72202527576
 30
0.0
  0
VERTEX
  5
C2
330
3C
100
AcDbEntity
  8
N141K
100
AcDbVertex
100
AcDb2dVertex
 10
174479.0481848518
 20
-37991.7929974011
 30
0.0
  0
VERTEX
  5
C3
330
3C
100
AcDbEntity
  8
N141K
100
AcDbVertex
100
AcDb2dVertex
 10
174478.5298759018
 20
-37991.87662198087
 30
0.0
  0
VERTEX
  5
C4
330
3C
100
AcDbEntity
  8
N141K
100
AcDbVertex
100
AcDb2dVertex
 10
174478.00272379
 20
-37991.97286694209
 30
0.0
  0
VERTEX
  5
C5
330
3C
100
AcDbEntity
  8
N141K
100
AcDbVertex
100
AcDb2dVertex
 10
174477.4681299916
 20
-37992.0815022087
 30
0.0
  0
VERTEX
  5
C6
330
3C
100
AcDbEntity
  8
N141K
100
AcDbVertex
100
AcDb2dVertex
 10
174476.9277259361
 20
-37992.20212435615
 30
0.0
  0
VERTEX
  5
C7
330
3C
100
AcDbEntity
  8
N141K
100
AcDbVertex
100
AcDb2dVertex
 10
174476.383326315
 20
-37992.33418126607
 30
0.0
  0
VERTEX
  5
C8
330
3C
100
AcDbEntity
  8
N141K
100
AcDbVertex
100
AcDb2dVertex
 10
174475.2904352956
 20
-37992.62979535876
 30
0.0
  0
VERTEX
  5
C9
330
3C
100
AcDbEntity
  8
N141K
100
AcDbVertex
100
AcDb2dVertex
 10
174474.2058653817
 20
-37992.96189054034
 30
0.0
  0
VERTEX
  5
CA
330
3C
100
AcDbEntity
  8
N141K
100
AcDbVertex
100
AcDb2dVertex
 10
174473.1459688829
 20
-37993.32321166093
 30
0.0
  0
VERTEX
  5
CB
330
3C
100
AcDbEntity
  8
N141K
100
AcDbVertex
100
AcDb2dVertex
 10
174472.1255478048
 20
-37993.7064913159
 30
0.0
  0
VERTEX
  5
CC
330
3C
100
AcDbEntity
  8
N141K
100
AcDbVertex
100
AcDb2dVertex
 10
174471.1563596849
 20
-37994.10523879474
 30
0.0
  0
VERTEX
  5
CD
330
3C
100
AcDbEntity
  8
N141K
100
AcDbVertex
100
AcDb2dVertex
 10
174470.2456234285
 20
-37994.51452902972
 30
0.0
  0
VERTEX
  5
CE
330
3C
100
AcDbEntity
  8
N141K
100
AcDbVertex
100
AcDb2dVertex
 10
174469.3945251435
 20
-37994.93179154469
 30
0.0
  0
VERTEX
  5
CF
330
3C
100
AcDbEntity
  8
N141K
100
AcDbVertex
100
AcDb2dVertex
 10
174468.5967239767
 20
-37995.35759940385
 30
0.0
  0
VERTEX
  5
D0
330
3C
100
AcDbEntity
  8
N141K
100
AcDbVertex
100
AcDb2dVertex
 10
174467.8368579489
 20
-37995.79645816051
 30
0.0
 42
0.1235800781211975
  0
VERTEX
  5
D1
330
3C
100
AcDbEntity
  8
N141K
100
AcDbVertex
100
AcDb2dVertex
 10
174457.530492341
 20
-38006.09946044861
 30
0.0
  0
VERTEX
  5
D2
330
3C
100
AcDbEntity
  8
N141K
100
AcDbVertex
100
AcDb2dVertex
 10
174457.0910908626
 20
-38006.85971011678
 30
0.0
  0
VERTEX
  5
D3
330
3C
100
AcDbEntity
  8
N141K
100
AcDbVertex
100
AcDb2dVertex
 10
174456.6647584988
 20
-38007.65792024229
 30
0.0
  0
VERTEX
  5
D4
330
3C
100
AcDbEntity
  8
N141K
100
AcDbVertex
100
AcDb2dVertex
 10
174456.2469861737
 20
-38008.50945245928
 30
0.0
  0
VERTEX
  5
D5
330
3C
100
AcDbEntity
  8
N141K
100
AcDbVertex
100
AcDb2dVertex
 10
174455.837201109
 20
-38009.42064681373
 30
0.0
  0
VERTEX
  5
D6
330
3C
100
AcDbEntity
  8
N141K
100
AcDbVertex
100
AcDb2dVertex
 10
174455.4379770705
 20
-38010.39031599032
 30
0.0
  0
VERTEX
  5
D7
330
3C
100
AcDbEntity
  8
N141K
100
AcDbVertex
100
AcDb2dVertex
 10
174455.0542446159
 20
-38011.41123953937
 30
0.0
  0
VERTEX
  5
D8
330
3C
100
AcDbEntity
  8
N141K
100
AcDbVertex
100
AcDb2dVertex
 10
174454.6925013414
 20
-38012.47165810386
 30
0.0
  0
VERTEX
  5
D9
330
3C
100
AcDbEntity
  8
N141K
100
AcDbVertex
100
AcDb2dVertex
 10
174454.3600221292
 20
-38013.55676764627
 30
0.0
  0
VERTEX
  5
DA
330
3C
100
AcDbEntity
  8
N141K
100
AcDbVertex
100
AcDb2dVertex
 10
174454.0640693946
 20
-38014.6502136756
 30
0.0
  0
VERTEX
  5
DB
330
3C
100
AcDbEntity
  8
N141K
100
AcDbVertex
100
AcDb2dVertex
 10
174453.931862199
 20
-38015.19489586221
 30
0.0
  0
VERTEX
  5
DC
330
3C
100
AcDbEntity
  8
N141K
100
AcDbVertex
100
AcDb2dVertex
 10
174453.811103333
 20
-38015.73558547429
 30
0.0
  0
VERTEX
  5
DD
330
3C
100
AcDbEntity
  8
N141K
100
AcDbVertex
100
AcDb2dVertex
 10
174453.7023454054
 20
-38016.27046753337
 30
0.0
  0
VERTEX
  5
DE
330
3C
100
AcDbEntity
  8
N141K
100
AcDbVertex
100
AcDb2dVertex
 10
174453.6059921671
 20
-38016.79791032514
 30
0.0
  0
VERTEX
  5
DF
330
3C
100
AcDbEntity
  8
N141K
100
AcDbVertex
100
AcDb2dVertex
 10
174453.5222738314
 20
-38017.31651209414
 30
0.0
  0
VERTEX
  5
E0
330
3C
100
AcDbEntity
  8
N141K
100
AcDbVertex
100
AcDb2dVertex
 10
174453.4512223942
 20
-38017.82514773827
 30
0.0
  0
VERTEX
  5
E1
330
3C
100
AcDbEntity
  8
N141K
100
AcDbVertex
100
AcDb2dVertex
 10
174453.3926469542
 20
-38018.32301550343
 30
0.0
  0
VERTEX
  5
E2
330
3C
100
AcDbEntity
  8
N141K
100
AcDbVertex
100
AcDb2dVertex
 10
174453.3461090332
 20
-38018.80968367809
 30
0.0
  0
VERTEX
  5
E3
330
3C
100
AcDbEntity
  8
N141K
100
AcDbVertex
100
AcDb2dVertex
 10
174453.3108978961
 20
-38019.28513728787
 30
0.0
  0
VERTEX
  5
E4
330
3C
100
AcDbEntity
  8
N141K
100
AcDbVertex
100
AcDb2dVertex
 10
174453.2860058716
 20
-38019.7498247902
 30
0.0
  0
VERTEX
  5
E5
330
3C
100
AcDbEntity
  8
N141K
100
AcDbVertex
100
AcDb2dVertex
 10
174453.2615157131
 20
-38020.65129262835
 30
0.0
  0
VERTEX
  5
E6
330
3C
100
AcDbEntity
  8
N141K
100
AcDbVertex
100
AcDb2dVertex
 10
174453.2577006242
 20
-38021.52871788135
 30
0.0
  0
VERTEX
  5
E7
330
3C
100
AcDbEntity
  8
N141K
100
AcDbVertex
100
AcDb2dVertex
 10
174453.2577006242
 20
-38141.52871788136
 30
0.0
  0
SEQEND
  5
E8
330
3C
100
AcDbEntity
  8
N141K
  0
POLYLINE
  5
E9
330
1F
100
AcDbEntity
  8
N141K
100
AcDb2dPolyline
 66
     1
 10
0.0
 20
0.0
 30
0.0
  0
VERTEX
  5
EA
330
E9
100
AcDbEntity
  8
N141K
100
AcDbVertex
100
AcDb2dVertex
 10
174458.5028688931
 20
-38145.01991819157
 30
0.0
 42
-0.03523263570484
  0
VERTEX
  5
EB
330
E9
100
AcDbEntity
  8
N141K
100
AcDbVertex
100
AcDb2dVertex
 10
174458.2577006242
 20
-38141.52871788136
 30
0.0
  0
VERTEX
  5
EC
330
E9
100
AcDbEntity
  8
N141K
100
AcDbVertex
100
AcDb2dVertex
 10
174458.2709776843
 20
-38020.71404349648
 30
0.0
  0
VERTEX
  5
ED
330
E9
100
AcDbEntity
  8
N141K
100
AcDbVertex
100
AcDb2dVertex
 10
174458.3110016874
 20
-38019.89715250004
 30
0.0
  0
VERTEX
  5
EE
330
E9
100
AcDbEntity
  8
N141K
100
AcDbVertex
100
AcDb2dVertex
 10
174458.3779910996
 20
-38019.07935486414
 30
0.0
  0
VERTEX
  5
EF
330
E9
100
AcDbEntity
  8
N141K
100
AcDbVertex
100
AcDb2dVertex
 10
174458.4720789945
 20
-38018.26198067742
 30
0.0
  0
VERTEX
  5
F0
330
E9
100
AcDbEntity
  8
N141K
100
AcDbVertex
100
AcDb2dVertex
 10
174458.5933110421
 20
-38017.44637317809
 30
0.0
  0
VERTEX
  5
F1
330
E9
100
AcDbEntity
  8
N141K
100
AcDbVertex
100
AcDb2dVertex
 10
174458.7416441831
 20
-38016.63388156497
 30
0.0
  0
VERTEX
  5
F2
330
E9
100
AcDbEntity
  8
N141K
100
AcDbVertex
100
AcDb2dVertex
 10
174458.9169460138
 20
-38015.82585366489
 30
0.0
  0
VERTEX
  5
F3
330
E9
100
AcDbEntity
  8
N141K
100
AcDbVertex
100
AcDb2dVertex
 10
174459.1189949001
 20
-38015.02362853915
 30
0.0
  0
VERTEX
  5
F4
330
E9
100
AcDbEntity
  8
N141K
100
AcDbVertex
100
AcDb2dVertex
 10
174459.3474808244
 20
-38014.22852911329
 30
0.0
  0
VERTEX
  5
F5
330
E9
100
AcDbEntity
  8
N141K
100
AcDbVertex
100
AcDb2dVertex
 10
174459.6020069619
 20
-38013.44185491522
 30
0.0
  0
VERTEX
  5
F6
330
E9
100
AcDbEntity
  8
N141K
100
AcDbVertex
100
AcDb2dVertex
 10
174459.8820919672
 20
-38012.66487500501
 30
0.0
  0
VERTEX
  5
F7
330
E9
100
AcDbEntity
  8
N141K
100
AcDbVertex
100
AcDb2dVertex
 10
174460.187172946
 20
-38011.89882117738
 30
0.0
  0
VERTEX
  5
F8
330
E9
100
AcDbEntity
  8
N141K
100
AcDbVertex
100
AcDb2dVertex
 10
174460.5166090728
 20
-38011.14488151238
 30
0.0
  0
VERTEX
  5
F9
330
E9
100
AcDbEntity
  8
N141K
100
AcDbVertex
100
AcDb2dVertex
 10
174460.8696858071
 20
-38010.4041943451
 30
0.0
  0
VERTEX
  5
FA
330
E9
100
AcDbEntity
  8
N141K
100
AcDbVertex
100
AcDb2dVertex
 10
174461.245619653
 20
-38009.67784271683
 30
0.0
  0
VERTEX
  5
FB
330
E9
100
AcDbEntity
  8
N141K
100
AcDbVertex
100
AcDb2dVertex
 10
174461.6435633984
 20
-38008.9668493624
 30
0.0
 42
-0.1300814291008326
  0
VERTEX
  5
FC
330
E9
100
AcDbEntity
  8
N141K
100
AcDbVertex
100
AcDb2dVertex
 10
174470.663989586
 20
-37999.93313563379
 30
0.0
 42
-0.0837022263818051
  0
VERTEX
  5
FD
330
E9
100
AcDbEntity
  8
N141K
100
AcDbVertex
100
AcDb2dVertex
 10
174479.7660640767
 20
-37996.77394778232
 30
0.0
  0
VERTEX
  5
FE
330
E9
100
AcDbEntity
  8
N141K
100
AcDbVertex
100
AcDb2dVertex
 10
174480.2001652978
 20
-37996.71646719989
 30
0.0
  0
VERTEX
  5
FF
330
E9
100
AcDbEntity
  8
N141K
100
AcDbVertex
100
AcDb2dVertex
 10
174481.0710535952
 20
-37996.62437807274
 30
0.0
  0
VERTEX
  5
100
330
E9
100
AcDbEntity
  8
N141K
100
AcDbVertex
100
AcDb2dVertex
 10
174481.5075752512
 20
-37996.58975508918
 30
0.0
  0
VERTEX
  5
101
330
E9
100
AcDbEntity
  8
N141K
100
AcDbVertex
100
AcDb2dVertex
 10
174481.9446336294
 20
-37996.56292373805
 30
0.0
  0
VERTEX
  5
102
330
E9
100
AcDbEntity
  8
N141K
100
AcDbVertex
100
AcDb2dVertex
 10
174482.3820983926
 20
-37996.54385138561
 30
0.0
  0
VERTEX
  5
103
330
E9
100
AcDbEntity
  8
N141K
100
AcDbVertex
100
AcDb2dVertex
 10
174603.2640316498
 20
-37996.52871429528
 30
0.0
  0
VERTEX
  5
104
330
E9
100
AcDbEntity
  8
N141K
100
AcDbVertex
100
AcDb2dVertex
 10
174603.7336482771
 20
-37996.53304240343
 30
0.0
  0
VERTEX
  5
105
330
E9
100
AcDbEntity
  8
N141K
100
AcDbVertex
100
AcDb2dVertex
 10
174604.1639982702
 20
-37996.54486240387
 30
0.0
  0
VERTEX
  5
106
330
E9
100
AcDbEntity
  8
N141K
100
AcDbVertex
100
AcDb2dVertex
 10
174605.0237570562
 20
-37996.59093720942
 30
0.0
  0
VERTEX
  5
107
330
E9
100
AcDbEntity
  8
N141K
100
AcDbVertex
100
AcDb2dVertex
 10
174605.8814110373
 20
-37996.6667416921
 30
0.0
  0
VERTEX
  5
108
330
E9
100
AcDbEntity
  8
N141K
100
AcDbVertex
100
AcDb2dVertex
 10
174606.7359403676
 20
-37996.77205577703
 30
0.0
 42
-0.0838664470265008
  0
VERTEX
  5
109
330
E9
100
AcDbEntity
  8
N141K
100
AcDbVertex
100
AcDb2dVertex
 10
174615.8195105274
 20
-37999.91454656207
 30
0.0
 42
-0.1300821202702077
  0
VERTEX
  5
10A
330
E9
100
AcDbEntity
  8
N141K
100
AcDbVertex
100
AcDb2dVertex
 10
174624.8532828729
 20
-38008.93500684257
 30
0.0
  0
VERTEX
  5
10B
330
E9
100
AcDbEntity
  8
N141K
100
AcDbVertex
100
AcDb2dVertex
 10
174625.253341051
 20
-38009.64737971687
 30
0.0
  0
VERTEX
  5
10C
330
E9
100
AcDbEntity
  8
N141K
100
AcDbVertex
100
AcDb2dVertex
 10
174625.6312932015
 20
-38010.37523434364
 30
0.0
  0
VERTEX
  5
10D
330
E9
100
AcDbEntity
  8
N141K
100
AcDbVertex
100
AcDb2dVertex
 10
174625.9862829772
 20
-38011.11754104845
 30
0.0
  0
VERTEX
  5
10E
330
E9
100
AcDbEntity
  8
N141K
100
AcDbVertex
100
AcDb2dVertex
 10
174626.3175183352
 20
-38011.87320903339
 30
0.0
  0
VERTEX
  5
10F
330
E9
100
AcDbEntity
  8
N141K
100
AcDbVertex
100
AcDb2dVertex
 10
174626.6242768609
 20
-38012.64109144834
 30
0.0
  0
VERTEX
  5
110
330
E9
100
AcDbEntity
  8
N141K
100
AcDbVertex
100
AcDb2dVertex
 10
174626.9059106071
 20
-38013.4199910089
 30
0.0
  0
VERTEX
  5
111
330
E9
100
AcDbEntity
  8
N141K
100
AcDbVertex
100
AcDb2dVertex
 10
174627.1618503804
 20
-38014.20866610519
 30
0.0
  0
VERTEX
  5
112
330
E9
100
AcDbEntity
  8
N141K
100
AcDbVertex
100
AcDb2dVertex
 10
174627.3916094202
 20
-38015.00583733764
 30
0.0
  0
VERTEX
  5
113
330
E9
100
AcDbEntity
  8
N141K
100
AcDbVertex
100
AcDb2dVertex
 10
174627.5947864202
 20
-38015.81019440816
 30
0.0
  0
VERTEX
  5
114
330
E9
100
AcDbEntity
  8
N141K
100
AcDbVertex
100
AcDb2dVertex
 10
174627.7710678546
 20
-38016.62040328926
 30
0.0
  0
VERTEX
  5
115
330
E9
100
AcDbEntity
  8
N141K
100
AcDbVertex
100
AcDb2dVertex
 10
174627.9202295807
 20
-38017.4351135886
 30
0.0
  0
VERTEX
  5
116
330
E9
100
AcDbEntity
  8
N141K
100
AcDbVertex
100
AcDb2dVertex
 10
174628.0421377012
 20
-38018.25296602423
 30
0.0
  0
VERTEX
  5
117
330
E9
100
AcDbEntity
  8
N141K
100
AcDbVertex
100
AcDb2dVertex
 10
174628.1367486789
 20
-38019.07259992343
 30
0.0
  0
VERTEX
  5
118
330
E9
100
AcDbEntity
  8
N141K
100
AcDbVertex
100
AcDb2dVertex
 10
174628.204108712
 20
-38019.89266065955
 30
0.0
  0
VERTEX
  5
119
330
E9
100
AcDbEntity
  8
N141K
100
AcDbVertex
100
AcDb2dVertex
 10
174628.2443523849
 20
-38020.71180694227
 30
0.0
  0
VERTEX
  5
11A
330
E9
100
AcDbEntity
  8
N141K
100
AcDbVertex
100
AcDb2dVertex
 10
174628.2577006242
 20
-38141.52871788135
 30
0.0
  0
VERTEX
  5
11B
330
E9
100
AcDbEntity
  8
N141K
100
AcDbVertex
100
AcDb2dVertex
 10
174628.2444251902
 20
-38142.34334101332
 30
0.0
  0
VERTEX
  5
11C
330
E9
100
AcDbEntity
  8
N141K
100
AcDbVertex
100
AcDb2dVertex
 10
174628.2044062111
 20
-38143.16018032875
 30
0.0
  0
VERTEX
  5
11D
330
E9
100
AcDbEntity
  8
N141K
100
AcDbVertex
100
AcDb2dVertex
 10
174628.1374252768
 20
-38143.9779261049
 30
0.0
  0
VERTEX
  5
11E
330
E9
100
AcDbEntity
  8
N141K
100
AcDbVertex
100
AcDb2dVertex
 10
174628.0433493484
 20
-38144.79524850914
 30
0.0
  0
VERTEX
  5
11F
330
E9
100
AcDbEntity
  8
N141K
100
AcDbVertex
100
AcDb2dVertex
 10
174627.9221327678
 20
-38145.61080456337
 30
0.0
  0
VERTEX
  5
120
330
E9
100
AcDbEntity
  8
N141K
100
AcDbVertex
100
AcDb2dVertex
 10
174627.7738185835
 20
-38146.42324533084
 30
0.0
  0
VERTEX
  5
121
330
E9
100
AcDbEntity
  8
N141K
100
AcDbVertex
100
AcDb2dVertex
 10
174627.5985391651
 20
-38147.2312232464
 30
0.0
  0
VERTEX
  5
122
330
E9
100
AcDbEntity
  8
N141K
100
AcDbVertex
100
AcDb2dVertex
 10
174627.3965160896
 20
-38148.03339950762
 30
0.0
  0
VERTEX
  5
123
330
E9
100
AcDbEntity
  8
N141K
100
AcDbVertex
100
AcDb2dVertex
 10
174627.1680592944
 20
-38148.82845144259
 30
0.0
  0
VERTEX
  5
124
330
E9
100
AcDbEntity
  8
N141K
100
AcDbVertex
100
AcDb2dVertex
 10
174626.9135655024
 20
-38149.61507976946
 30
0.0
  0
VERTEX
  5
125
330
E9
100
AcDbEntity
  8
N141K
100
AcDbVertex
100
AcDb2dVertex
 10
174626.6335159352
 20
-38150.39201566442
 30
0.0
  0
VERTEX
  5
126
330
E9
100
AcDbEntity
  8
N141K
100
AcDbVertex
100
AcDb2dVertex
 10
174626.3284733435
 20
-38151.1580275571
 30
0.0
  0
VERTEX
  5
127
330
E9
100
AcDbEntity
  8
N141K
100
AcDbVertex
100
AcDb2dVertex
 10
174625.9990783903
 20
-38151.91192757782
 30
0.0
  0
VERTEX
  5
128
330
E9
100
AcDbEntity
  8
N141K
100
AcDbVertex
100
AcDb2dVertex
 10
174625.6460454365
 20
-38152.65257758617
 30
0.0
  0
VERTEX
  5
129
330
E9
100
AcDbEntity
  8
N141K
100
AcDbVertex
100
AcDb2dVertex
 10
174625.2701577829
 20
-38153.37889471835
 30
0.0
  0
VERTEX
  5
12A
330
E9
100
AcDbEntity
  8
N141K
100
AcDbVertex
100
AcDb2dVertex
 10
174624.8722624331
 20
-38154.08985639825
 30
0.0
 42
-0.1300899815613691
  0
VERTEX
  5
12B
330
E9
100
AcDbEntity
  8
N141K
100
AcDbVertex
100
AcDb2dVertex
 10
174615.8514116629
 20
-38163.12430012993
 30
0.0
  0
VERTEX
  5
12C
330
E9
100
AcDbEntity
  8
N141K
100
AcDbVertex
100
AcDb2dVertex
 10
174615.1390387886
 20
-38163.52435830803
 30
0.0
  0
VERTEX
  5
12D
330
E9
100
AcDbEntity
  8
N141K
100
AcDbVertex
100
AcDb2dVertex
 10
174614.4111841619
 20
-38163.90231045848
 30
0.0
  0
VERTEX
  5
12E
330
E9
100
AcDbEntity
  8
N141K
100
AcDbVertex
100
AcDb2dVertex
 10
174613.6688774571
 20
-38164.25730023431
 30
0.0
  0
VERTEX
  5
12F
330
E9
100
AcDbEntity
  8
N141K
100
AcDbVertex
100
AcDb2dVertex
 10
174612.9132094722
 20
-38164.58853559228
 30
0.0
  0
VERTEX
  5
130
330
E9
100
AcDbEntity
  8
N141K
100
AcDbVertex
100
AcDb2dVertex
 10
174612.1453270573
 20
-38164.89529411798
 30
0.0
  0
VERTEX
  5
131
330
E9
100
AcDbEntity
  8
N141K
100
AcDbVertex
100
AcDb2dVertex
 10
174611.3664274967
 20
-38165.17692786416
 30
0.0
  0
VERTEX
  5
132
330
E9
100
AcDbEntity
  8
N141K
100
AcDbVertex
100
AcDb2dVertex
 10
174610.5777524004
 20
-38165.43286763751
 30
0.0
  0
VERTEX
  5
133
330
E9
100
AcDbEntity
  8
N141K
100
AcDbVertex
100
AcDb2dVertex
 10
174609.780581168
 20
-38165.66262667735
 30
0.0
  0
VERTEX
  5
134
330
E9
100
AcDbEntity
  8
N141K
100
AcDbVertex
100
AcDb2dVertex
 10
174608.9762240975
 20
-38165.86580367732
 30
0.0
  0
VERTEX
  5
135
330
E9
100
AcDbEntity
  8
N141K
100
AcDbVertex
100
AcDb2dVertex
 10
174608.1660152163
 20
-38166.04208511167
 30
0.0
  0
VERTEX
  5
136
330
E9
100
AcDbEntity
  8
N141K
100
AcDbVertex
100
AcDb2dVertex
 10
174607.351304917
 20
-38166.19124683786
 30
0.0
  0
VERTEX
  5
137
330
E9
100
AcDbEntity
  8
N141K
100
AcDbVertex
100
AcDb2dVertex
 10
174606.5334524813
 20
-38166.31315495836
 30
0.0
  0
VERTEX
  5
138
330
E9
100
AcDbEntity
  8
N141K
100
AcDbVertex
100
AcDb2dVertex
 10
174605.7138185821
 20
-38166.40776593606
 30
0.0
  0
VERTEX
  5
139
330
E9
100
AcDbEntity
  8
N141K
100
AcDbVertex
100
AcDb2dVertex
 10
174604.893757846
 20
-38166.47512596911
 30
0.0
  0
VERTEX
  5
13A
330
E9
100
AcDbEntity
  8
N141K
100
AcDbVertex
100
AcDb2dVertex
 10
174604.0746115633
 20
-38166.5153696421
 30
0.0
  0
VERTEX
  5
13B
330
E9
100
AcDbEntity
  8
N141K
100
AcDbVertex
100
AcDb2dVertex
 10
174483.2577006242
 20
-38166.52871788136
 30
0.0
  0
VERTEX
  5
13C
330
E9
100
AcDbEntity
  8
N141K
100
AcDbVertex
100
AcDb2dVertex
 10
174482.4430717101
 20
-38166.51544226393
 30
0.0
  0
VERTEX
  5
13D
330
E9
100
AcDbEntity
  8
N141K
100
AcDbVertex
100
AcDb2dVertex
 10
174481.6262265643
 20
-38166.4754227181
 30
0.0
  0
VERTEX
  5
13E
330
E9
100
AcDbEntity
  8
N141K
100
AcDbVertex
100
AcDb2dVertex
 10
174480.8084749377
 20
-38166.40844082744
 30
0.0
  0
VERTEX
  5
13F
330
E9
100
AcDbEntity
  8
N141K
100
AcDbVertex
100
AcDb2dVertex
 10
174479.9911466916
 20
-38166.31436354909
 30
0.0
  0
VERTEX
  5
140
330
E9
100
AcDbEntity
  8
N141K
100
AcDbVertex
100
AcDb2dVertex
 10
174479.1755848336
 20
-38166.19314522365
 30
0.0
  0
VERTEX
  5
141
330
E9
100
AcDbEntity
  8
N141K
100
AcDbVertex
100
AcDb2dVertex
 10
174478.36313833
 20
-38166.04482890089
 30
0.0
  0
VERTEX
  5
142
330
E9
100
AcDbEntity
  8
N141K
100
AcDbVertex
100
AcDb2dVertex
 10
174477.5551547754
 20
-38165.86954695416
 30
0.0
  0
VERTEX
  5
143
330
E9
100
AcDbEntity
  8
N141K
100
AcDbVertex
100
AcDb2dVertex
 10
174476.7529730016
 20
-38165.66752096691
 30
0.0
  0
VERTEX
  5
144
330
E9
100
AcDbEntity
  8
N141K
100
AcDbVertex
100
AcDb2dVertex
 10
174475.957915709
 20
-38165.43906088562
 30
0.0
  0
VERTEX
  5
145
330
E9
100
AcDbEntity
  8
N141K
100
AcDbVertex
100
AcDb2dVertex
 10
174475.1712822071
 20
-38165.18456344464
 30
0.0
  0
VERTEX
  5
146
330
E9
100
AcDbEntity
  8
N141K
100
AcDbVertex
100
AcDb2dVertex
 10
174474.3943413465
 20
-38164.90450987966
 30
0.0
  0
VERTEX
  5
147
330
E9
100
AcDbEntity
  8
N141K
100
AcDbVertex
100
AcDb2dVertex
 10
174473.6283247229
 20
-38164.59946295741
 30
0.0
  0
VERTEX
  5
148
330
E9
100
AcDbEntity
  8
N141K
100
AcDbVertex
100
AcDb2dVertex
 10
174472.8744202297
 20
-38164.27006335932
 30
0.0
  0
VERTEX
  5
149
330
E9
100
AcDbEntity
  8
N141K
100
AcDbVertex
100
AcDb2dVertex
 10
174472.1337660292
 20
-38163.91702546648
 30
0.0
  0
VERTEX
  5
14A
330
E9
100
AcDbEntity
  8
N141K
100
AcDbVertex
100
AcDb2dVertex
 10
174471.4074450053
 20
-38163.54113260183
 30
0.0
  0
VERTEX
  5
14B
330
E9
100
AcDbEntity
  8
N141K
100
AcDbVertex
100
AcDb2dVertex
 10
174470.6964797519
 20
-38163.14323179236
 30
0.0
 42
-0.1300890172063026
  0
VERTEX
  5
14C
330
E9
100
AcDbEntity
  8
N141K
100
AcDbVertex
100
AcDb2dVertex
 10
174461.6621183764
 20
-38154.1224289197
 30
0.0
 42
-0.1296788543673756
  0
VERTEX
  5
14D
330
E9
100
AcDbEntity
  8
N141K
100
AcDbVertex
100
AcDb2dVertex
 10
174458.2577006242
 20
-38141.52871788136
 30
0.0
  0
SEQEND
  5
14E
330
E9
100
AcDbEntity
  8
N141K
  0
ARC
  5
150
330
1F
100
AcDbEntity
  8
MAKE2D VISIBLE LINES
100
AcDbCircle
 10
174046.2590544514
 20
-38578.52826990032
 30
0.0
 40
3.000014449104316
100
AcDbArc
 50
180.0002757682543
 51
269.9997242318846
  0
ARC
  5
151
330
1F
100
AcDbEntity
  8
MAKE2D VISIBLE LINES
100
AcDbCircle
 10
175040.2590772022
 20
-38578.52832148082
 30
0.0
 40
2.99996750192311
100
AcDbArc
 50
269.9993525796546
 51
0.000647420623311
  0
ARC
  5
152
330
1F
100
AcDbEntity
  8
MAKE2D VISIBLE LINES
100
AcDbCircle
 10
174046.2590028709
 20
-37584.52824714949
 30
0.0
 40
2.999967501894006
100
AcDbArc
 50
89.99935257798707
 51
180.0006474206233
  0
ARC
  5
153
330
1F
100
AcDbEntity
  8
MAKE2D VISIBLE LINES
100
AcDbCircle
 10
175040.2590772023
 20
-37584.52824714941
 30
0.0
 40
2.999967501843075
100
AcDbArc
 50
359.999352578126
 51
90.00064742312465
  0
LINE
  5
154
330
1F
100
AcDbEntity
  8
MAKE2D VISIBLE LINES
100
AcDbLine
 10
174043.2590400366
 20
-37584.52828431516
 30
0.0
 11
174043.2590400365
 21
-38578.52828431516
 31
0.0
  0
LINE
  5
155
330
1F
100
AcDbEntity
  8
MAKE2D VISIBLE LINES
100
AcDbLine
 10
175043.2590400366
 20
-38578.52828431516
 30
0.0
 11
175043.2590400366
 21
-37584.52828431516
 31
0.0
  0
LINE
  5
156
330
1F
100
AcDbEntity
  8
MAKE2D VISIBLE LINES
100
AcDbLine
 10
174046.2590400366
 20
-38581.52828431516
 30
0.0
 11
175040.2590400366
 21
-38581.52828431516
 31
0.0
  0
LINE
  5
157
330
1F
100
AcDbEntity
  8
MAKE2D VISIBLE LINES
100
AcDbLine
 10
175040.2590400366
 20
-37581.52828431516
 30
0.0
 11
174046.2590400366
 21
-37581.52828431515
 31
0.0
  0
ENDSEC
  0
SECTION
  2
OBJECTS
  0
DICTIONARY
  5
C
330
0
100
AcDbDictionary
281
     1
  3
ACAD_GROUP
350
D
  3
ACAD_LAYOUT
350
1A
  3
ACAD_MLEADERSTYLE
350
159
  3
ACAD_MLINESTYLE
350
17
  3
ACAD_PLOTSETTINGS
350
19
  3
ACAD_PLOTSTYLENAME
350
E
  3
ACAD_TABLESTYLE
350
158
  3
ACAD_VISUALSTYLE
350
2A
  0
DICTIONARY
  5
D
102
{ACAD_REACTORS
330
C
102
}
330
C
100
AcDbDictionary
281
     1
  0
DICTIONARY
  5
1A
102
{ACAD_REACTORS
330
C
102
}
330
C
100
AcDbDictionary
281
     1
  3
Layout1
350
1E
  3
Layout2
350
26
  3
Model
350
22
  0
DICTIONARY
  5
159
102
{ACAD_REACTORS
330
C
102
}
330
C
100
AcDbDictionary
281
     1
  0
DICTIONARY
  5
17
102
{ACAD_REACTORS
330
C
102
}
330
C
100
AcDbDictionary
281
     1
  3
Standard
350
18
  0
DICTIONARY
  5
19
102
{ACAD_REACTORS
330
C
102
}
330
C
100
AcDbDictionary
281
     1
  0
ACDBDICTIONARYWDFLT
  5
E
102
{ACAD_REACTORS
330
C
102
}
330
C
100
AcDbDictionary
281
     1
  3
Normal
350
F
100
AcDbDictionaryWithDefault
340
F
  0
DICTIONARY
  5
158
102
{ACAD_REACTORS
330
C
102
}
330
C
100
AcDbDictionary
281
     1
  0
DICTIONARY
  5
2A
102
{ACAD_REACTORS
330
C
102
}
330
C
100
AcDbDictionary
281
     1
  3
2dWireframe
350
2F
  3
3D Hidden
350
31
  3
3dWireframe
350
30
  3
Basic
350
32
  3
Brighten
350
36
  3
ColorChange
350
3A
  3
Conceptual
350
34
  3
Dim
350
35
  3
Facepattern
350
39
  3
Flat
350
2B
  3
FlatWithEdges
350
2C
  3
Gouraud
350
2D
  3
GouraudWithEdges
350
2E
  3
Linepattern
350
38
  3
Realistic
350
33
  3
Thicken
350
37
  0
LAYOUT
  5
1E
102
{ACAD_REACTORS
330
1A
102
}
330
1A
100
AcDbPlotSettings
  1

  2
none_device
  4

  6

 40
0.0
 41
0.0
 42
0.0
 43
0.0
 44
0.0
 45
0.0
 46
0.0
 47
0.0
 48
0.0
 49
0.0
140
0.0
141
0.0
142
1.0
143
1.0
 70
   688
 72
     0
 73
     0
 74
     5
  7

 75
    16
 76
     0
 77
     2
 78
   300
147
1.0
148
0.0
149
0.0
100
AcDbLayout
  1
Layout1
 70
     1
 71
     1
 10
0.0
 20
0.0
 11
12.0
 21
9.0
 12
0.0
 22
0.0
 32
0.0
 14
1.000000000000000E+20
 24
1.000000000000000E+20
 34
1.000000000000000E+20
 15
-1.000000000000000E+20
 25
-1.000000000000000E+20
 35
-1.000000000000000E+20
146
0.0
 13
0.0
 23
0.0
 33
0.0
 16
1.0
 26
0.0
 36
0.0
 17
0.0
 27
1.0
 37
0.0
 76
     0
330
1B
  0
LAYOUT
  5
26
102
{ACAD_REACTORS
330
1A
102
}
330
1A
100
AcDbPlotSettings
  1

  2
none_device
  4

  6

 40
0.0
 41
0.0
 42
0.0
 43
0.0
 44
0.0
 45
0.0
 46
0.0
 47
0.0
 48
0.0
 49
0.0
140
0.0
141
0.0
142
1.0
143
1.0
 70
   688
 72
     0
 73
     0
 74
     5
  7

 75
    16
 76
     0
 77
     2
 78
   300
147
1.0
148
0.0
149
0.0
100
AcDbLayout
  1
Layout2
 70
     1
 71
     2
 10
0.0
 20
0.0
 11
0.0
 21
0.0
 12
0.0
 22
0.0
 32
0.0
 14
0.0
 24
0.0
 34
0.0
 15
0.0
 25
0.0
 35
0.0
146
0.0
 13
0.0
 23
0.0
 33
0.0
 16
1.0
 26
0.0
 36
0.0
 17
0.0
 27
1.0
 37
0.0
 76
     0
330
23
  0
LAYOUT
  5
22
102
{ACAD_REACTORS
330
1A
102
}
330
1A
100
AcDbPlotSettings
  1

  2
none_device
  4

  6

 40
0.0
 41
0.0
 42
0.0
 43
0.0
 44
0.0
 45
0.0
 46
0.0
 47
0.0
 48
0.0
 49
0.0
140
0.0
141
0.0
142
1.0
143
1.0
 70
  1712
 72
     0
 73
     0
 74
     0
  7

 75
     0
 76
     0
 77
     2
 78
   300
147
1.0
148
0.0
149
0.0
100
AcDbLayout
  1
Model
 70
     1
 71
     0
 10
0.0
 20
0.0
 11
12.0
 21
9.0
 12
0.0
 22
0.0
 32
0.0
 14
174043.2590353689
 24
-38581.52828898274
 34
0.0
 15
175043.2590447041
 25
-37581.52827964757
 35
0.0
146
0.0
 13
0.0
 23
0.0
 33
0.0
 16
1.0
 26
0.0
 36
0.0
 17
0.0
 27
1.0
 37
0.0
 76
     0
330
1F
331
29
  0
MLINESTYLE
  5
18
102
{ACAD_REACTORS
330
17
102
}
330
17
100
AcDbMlineStyle
  2
Standard
 70
     0
  3

 62
   256
 51
90.0
 52
90.0
 71
     2
 49
0.5
 62
   256
  6
BYLAYER
 49
-0.5
 62
   256
  6
BYLAYER
  0
ACDBPLACEHOLDER
  5
F
102
{ACAD_REACTORS
330
E
102
}
330
E
  0
VISUALSTYLE
  5
2F
102
{ACAD_REACTORS
330
2A
102
}
330
2A
100
AcDbVisualStyle
  2
2dWireframe
 70
     4
 71
     0
 72
     2
 73
     0
 90
        0
 40
-0.6
 41
-30.0
 62
     5
 63
     7
421
 16777215
 74
     1
 91
        4
 64
     7
 65
   257
 75
     1
175
     1
 42
1.0
 92
        0
 66
   257
 43
1.0
 76
     1
 77
     6
 78
     2
 67
     7
 79
     5
170
     0
171
     0
290
     0
174
     0
 93
        1
 44
0.0
173
     0
291
     0
 45
0.0
1001
ACAD
1000
AcDbSavedByObjectVersion
1070
     0
  0
VISUALSTYLE
  5
31
102
{ACAD_REACTORS
330
2A
102
}
330
2A
100
AcDbVisualStyle
  2
3D Hidden
 70
     6
 71
     1
 72
     2
 73
     2
 90
        0
 40
-0.6
 41
-30.0
 62
     5
 63
     7
421
 16777215
 74
     2
 91
        2
 64
     7
 65
   257
 75
     2
175
     1
 42
40.0
 92
        0
 66
   257
 43
1.0
 76
     1
 77
     6
 78
     2
 67
     7
 79
     3
170
     0
171
     0
290
     0
174
     0
 93
        1
 44
0.0
173
     0
291
     0
 45
0.0
1001
ACAD
1000
AcDbSavedByObjectVersion
1070
     0
  0
VISUALSTYLE
  5
30
102
{ACAD_REACTORS
330
2A
102
}
330
2A
100
AcDbVisualStyle
  2
3dWireframe
 70
     5
 71
     0
 72
     2
 73
     0
 90
        0
 40
-0.6
 41
-30.0
 62
     5
 63
     7
421
 16777215
 74
     1
 91
        4
 64
     7
 65
   257
 75
     1
175
     1
 42
1.0
 92
        0
 66
   257
 43
1.0
 76
     1
 77
     6
 78
     2
 67
     7
 79
     5
170
     0
171
     0
290
     0
174
     0
 93
        1
 44
0.0
173
     0
291
     0
 45
0.0
1001
ACAD
1000
AcDbSavedByObjectVersion
1070
     0
  0
VISUALSTYLE
  5
32
102
{ACAD_REACTORS
330
2A
102
}
330
2A
100
AcDbVisualStyle
  2
Basic
 70
     7
 71
     1
 72
     0
 73
     1
 90
        0
 40
-0.6
 41
-30.0
 62
     5
 63
     7
421
 16777215
 74
     0
 91
        4
 64
     7
 65
   257
 75
     1
175
     1
 42
1.0
 92
        8
 66
     7
 43
1.0
 76
     1
 77
     6
 78
     2
 67
     7
 79
     5
170
     0
171
     0
290
     0
174
     0
 93
        1
 44
0.0
173
     0
291
     1
 45
0.0
1001
ACAD
1000
AcDbSavedByObjectVersion
1070
     0
  0
VISUALSTYLE
  5
36
102
{ACAD_REACTORS
330
2A
102
}
330
2A
100
AcDbVisualStyle
  2
Brighten
 70
    12
 71
     2
 72
     2
 73
     0
 90
        0
 40
-0.6
 41
-30.0
 62
     5
 63
     7
421
 16777215
 74
     1
 91
        4
 64
     7
 65
   257
 75
     1
175
     1
 42
1.0
 92
        8
 66
     7
 43
1.0
 76
     1
 77
     6
 78
     2
 67
     7
 79
     5
170
     0
171
     0
290
     0
174
     0
 93
        1
 44
50.0
173
     0
291
     1
 45
0.0
1001
ACAD
1000
AcDbSavedByObjectVersion
1070
     0
  0
VISUALSTYLE
  5
3A
102
{ACAD_REACTORS
330
2A
102
}
330
2A
100
AcDbVisualStyle
  2
ColorChange
 70
    16
 71
     2
 72
     2
 73
     3
 90
        0
 40
-0.6
 41
-30.0
 62
     5
 63
     8
421
  8421504
 74
     1
 91
        4
 64
     7
 65
   257
 75
     1
175
     1
 42
1.0
 92
        8
 66
     8
424
  8421504
 43
1.0
 76
     1
 77
     6
 78
     2
 67
     7
 79
     5
170
     0
171
     0
290
     0
174
     0
 93
        1
 44
0.0
173
     0
291
     1
 45
0.0
1001
ACAD
1000
AcDbSavedByObjectVersion
1070
     0
  0
VISUALSTYLE
  5
34
102
{ACAD_REACTORS
330
2A
102
}
330
2A
100
AcDbVisualStyle
  2
Conceptual
 70
     9
 71
     3
 72
     2
 73
     0
 90
        0
 40
-0.6
 41
-30.0
 62
     5
 63
     7
421
 16777215
 74
     2
 91
        2
 64
     7
 65
   257
 75
     1
175
     1
 42
40.0
 92
        8
 66
     7
 43
1.0
 76
     1
 77
     6
 78
     2
 67
     7
 79
     3
170
     0
171
     0
290
     0
174
     0
 93
        1
 44
0.0
173
     0
291
     0
 45
0.0
1001
ACAD
1000
AcDbSavedByObjectVersion
1070
     0
  0
VISUALSTYLE
  5
35
102
{ACAD_REACTORS
330
2A
102
}
330
2A
100
AcDbVisualStyle
  2
Dim
 70
    11
 71
     2
 72
     2
 73
     0
 90
        0
 40
-0.6
 41
-30.0
 62
     5
 63
     7
421
 16777215
 74
     1
 91
        4
 64
     7
 65
   257
 75
     1
175
     1
 42
1.0
 92
        8
 66
     7
 43
1.0
 76
     1
 77
     6
 78
     2
 67
     7
 79
     5
170
     0
171
     0
290
     0
174
     0
 93
        1
 44
-50.0
173
     0
291
     1
 45
0.0
1001
ACAD
1000
AcDbSavedByObjectVersion
1070
     0
  0
VISUALSTYLE
  5
39
102
{ACAD_REACTORS
330
2A
102
}
330
2A
100
AcDbVisualStyle
  2
Facepattern
 70
    15
 71
     2
 72
     2
 73
     0
 90
        0
 40
-0.6
 41
-30.0
 62
     5
 63
     7
421
 16777215
 74
     1
 91
        4
 64
     7
 65
   257
 75
     1
175
     1
 42
1.0
 92
        8
 66
     7
 43
1.0
 76
     1
 77
     6
 78
     2
 67
     7
 79
     5
170
     0
171
     0
290
     0
174
     0
 93
        1
 44
0.0
173
     0
291
     1
 45
0.0
1001
ACAD
1000
AcDbSavedByObjectVersion
1070
     0
  0
VISUALSTYLE
  5
2B
102
{ACAD_REACTORS
330
2A
102
}
330
2A
100
AcDbVisualStyle
  2
Flat
 70
     0
 71
     2
 72
     1
 73
     1
 90
        2
 40
-0.6
 41
30.0
 62
     5
 63
     7
421
 16777215
 74
     0
 91
        4
 64
     7
 65
   257
 75
     1
175
     1
 42
1.0
 92
        8
 66
     7
 43
1.0
 76
     1
 77
     6
 78
     2
 67
     7
 79
     5
170
     0
171
     0
290
     0
174
     0
 93
       13
 44
0.0
173
     0
291
     1
 45
0.0
1001
ACAD
1000
AcDbSavedByObjectVersion
1070
     0
  0
VISUALSTYLE
  5
2C
102
{ACAD_REACTORS
330
2A
102
}
330
2A
100
AcDbVisualStyle
  2
FlatWithEdges
 70
     1
 71
     2
 72
     1
 73
     1
 90
        2
 40
-0.6
 41
30.0
 62
     5
 63
     7
421
 16777215
 74
     1
 91
        4
 64
     7
 65
   257
 75
     1
175
     1
 42
1.0
 92
        0
 66
   257
 43
1.0
 76
     1
 77
     6
 78
     2
 67
     7
 79
     5
170
     0
171
     0
290
     0
174
     0
 93
       13
 44
0.0
173
     0
291
     1
 45
0.0
1001
ACAD
1000
AcDbSavedByObjectVersion
1070
     0
  0
VISUALSTYLE
  5
2D
102
{ACAD_REACTORS
330
2A
102
}
330
2A
100
AcDbVisualStyle
  2
Gouraud
 70
     2
 71
     2
 72
     2
 73
     1
 90
        2
 40
-0.6
 41
30.0
 62
     5
 63
     7
421
 16777215
 74
     0
 91
        4
 64
     7
 65
   257
 75
     1
175
     1
 42
1.0
 92
        0
 66
     7
 43
1.0
 76
     1
 77
     6
 78
     2
 67
     7
 79
     5
170
     0
171
     0
290
     0
174
     0
 93
       13
 44
0.0
173
     0
291
     1
 45
0.0
1001
ACAD
1000
AcDbSavedByObjectVersion
1070
     0
  0
VISUALSTYLE
  5
2E
102
{ACAD_REACTORS
330
2A
102
}
330
2A
100
AcDbVisualStyle
  2
GouraudWithEdges
 70
     3
 71
     2
 72
     2
 73
     1
 90
        2
 40
-0.6
 41
30.0
 62
     5
 63
     7
421
 16777215
 74
     1
 91
        4
 64
     7
 65
   257
 75
     1
175
     1
 42
1.0
 92
        0
 66
   257
 43
1.0
 76
     1
 77
     6
 78
     2
 67
     7
 79
     5
170
     0
171
     0
290
     0
174
     0
 93
       13
 44
0.0
173
     0
291
     1
 45
0.0
1001
ACAD
1000
AcDbSavedByObjectVersion
1070
     0
  0
VISUALSTYLE
  5
38
102
{ACAD_REACTORS
330
2A
102
}
330
2A
100
AcDbVisualStyle
  2
Linepattern
 70
    14
 71
     2
 72
     2
 73
     0
 90
        0
 40
-0.6
 41
-30.0
 62
     5
 63
     7
421
 16777215
 74
     1
 91
        4
 64
     7
 65
   257
 75
     7
175
     7
 42
1.0
 92
        8
 66
     7
 43
1.0
 76
     1
 77
     6
 78
     2
 67
     7
 79
     5
170
     0
171
     0
290
     0
174
     0
 93
        1
 44
0.0
173
     0
291
     1
 45
0.0
1001
ACAD
1000
AcDbSavedByObjectVersion
1070
     0
  0
VISUALSTYLE
  5
33
102
{ACAD_REACTORS
330
2A
102
}
330
2A
100
AcDbVisualStyle
  2
Realistic
 70
     8
 71
     2
 72
     2
 73
     0
 90
        0
 40
-0.6
 41
-30.0
 62
     5
 63
     7
421
 16777215
 74
     1
 91
        0
 64
     7
 65
   257
 75
     1
175
     1
 42
1.0
 92
        8
 66
     8
424
  7895160
 43
1.0
 76
     1
 77
     6
 78
     2
 67
     7
 79
     5
170
     0
171
     0
290
     0
174
     0
 93
       13
 44
0.0
173
     0
291
     0
 45
0.0
1001
ACAD
1000
AcDbSavedByObjectVersion
1070
     0
  0
VISUALSTYLE
  5
37
102
{ACAD_REACTORS
330
2A
102
}
330
2A
100
AcDbVisualStyle
  2
Thicken
 70
    13
 71
     2
 72
     2
 73
     0
 90
        0
 40
-0.6
 41
-30.0
 62
     5
 63
     7
421
 16777215
 74
     1
 91
        4
 64
     7
 65
   257
 75
     1
175
     1
 42
1.0
 92
       12
 66
     7
 43
1.0
 76
     1
 77
     6
 78
     2
 67
     7
 79
     5
170
     0
171
     0
290
     0
174
     0
 93
        1
 44
0.0
173
     0
291
     1
 45
0.0
1001
ACAD
1000
AcDbSavedByObjectVersion
1070
     0
  0
ENDSEC
  0
EOF
