  0
SECTION
  2
HEADER
  9
$ACADVER
  1
AC1018
  9
$ACADMAINTVER
 70
     0
  9
$DWGCODEPAGE
  3
ANSI_936
  9
$INSBASE
 10
0.0
 20
0.0
 30
0.0
  9
$EXTMIN
 10
1484.148067362936
 20
956.000000002391
 30
0.0
  9
$EXTMAX
 10
2684.035315014337
 20
1415.943663178619
 30
0.0
  9
$LIMMIN
 10
0.0
 20
0.0
  9
$LIMMAX
 10
12.0
 20
9.0
  9
$ORTHOMODE
 70
     0
  9
$REGENMODE
 70
     1
  9
$FILLMODE
 70
     1
  9
$QTEXTMODE
 70
     0
  9
$MIRRTEXT
 70
     1
  9
$LTSCALE
 40
1.0
  9
$ATTMODE
 70
     1
  9
$TEXTSIZE
 40
0.2
  9
$TRACEWID
 40
0.05
  9
$TEXTSTYLE
  7
Standard
  9
$CLAYER
  8
0
  9
$CELTYPE
  6
ByLayer
  9
$CECOLOR
 62
   256
  9
$CELTSCALE
 40
1.0
  9
$DISPSILH
 70
     0
  9
$DIMSCALE
 40
1.0
  9
$DIMASZ
 40
0.18
  9
$DIMEXO
 40
0.0625
  9
$DIMDLI
 40
0.38
  9
$DIMRND
 40
0.0
  9
$DIMDLE
 40
0.0
  9
$DIMEXE
 40
0.18
  9
$DIMTP
 40
0.0
  9
$DIMTM
 40
0.0
  9
$DIMTXT
 40
0.18
  9
$DIMCEN
 40
0.09
  9
$DIMTSZ
 40
0.0
  9
$DIMTOL
 70
     0
  9
$DIMLIM
 70
     0
  9
$DIMTIH
 70
     1
  9
$DIMTOH
 70
     1
  9
$DIMSE1
 70
     0
  9
$DIMSE2
 70
     0
  9
$DIMTAD
 70
     0
  9
$DIMZIN
 70
     0
  9
$DIMBLK
  1

  9
$DIMASO
 70
     1
  9
$DIMSHO
 70
     1
  9
$DIMPOST
  1

  9
$DIMAPOST
  1

  9
$DIMALT
 70
     0
  9
$DIMALTD
 70
     2
  9
$DIMALTF
 40
25.4
  9
$DIMLFAC
 40
1.0
  9
$DIMTOFL
 70
     0
  9
$DIMTVP
 40
0.0
  9
$DIMTIX
 70
     0
  9
$DIMSOXD
 70
     0
  9
$DIMSAH
 70
     0
  9
$DIMBLK1
  1

  9
$DIMBLK2
  1

  9
$DIMSTYLE
  2
Standard
  9
$DIMCLRD
 70
     0
  9
$DIMCLRE
 70
     0
  9
$DIMCLRT
 70
     0
  9
$DIMTFAC
 40
1.0
  9
$DIMGAP
 40
0.09
  9
$DIMJUST
 70
     0
  9
$DIMSD1
 70
     0
  9
$DIMSD2
 70
     0
  9
$DIMTOLJ
 70
     1
  9
$DIMTZIN
 70
     0
  9
$DIMALTZ
 70
     0
  9
$DIMALTTZ
 70
     0
  9
$DIMUPT
 70
     0
  9
$DIMDEC
 70
     4
  9
$DIMTDEC
 70
     4
  9
$DIMALTU
 70
     2
  9
$DIMALTTD
 70
     2
  9
$DIMTXSTY
  7
Standard
  9
$DIMAUNIT
 70
     0
  9
$DIMADEC
 70
     0
  9
$DIMALTRND
 40
0.0
  9
$DIMAZIN
 70
     0
  9
$DIMDSEP
 70
    46
  9
$DIMATFIT
 70
     3
  9
$DIMFRAC
 70
     0
  9
$DIMLDRBLK
  1

  9
$DIMLUNIT
 70
     2
  9
$DIMLWD
 70
    -2
  9
$DIMLWE
 70
    -2
  9
$DIMTMOVE
 70
     2
  9
$LUNITS
 70
     2
  9
$LUPREC
 70
     3
  9
$SKETCHINC
 40
0.1
  9
$FILLETRAD
 40
0.5
  9
$AUNITS
 70
     0
  9
$AUPREC
 70
     0
  9
$MENU
  1
.
  9
$ELEVATION
 40
0.0
  9
$PELEVATION
 40
0.0
  9
$THICKNESS
 40
0.0
  9
$LIMCHECK
 70
     0
  9
$CHAMFERA
 40
0.5
  9
$CHAMFERB
 40
0.5
  9
$CHAMFERC
 40
1.0
  9
$CHAMFERD
 40
0.0
  9
$SKPOLY
 70
     0
  9
$TDCREATE
 40
2456881.409205509
  9
$TDUCREATE
 40
2456881.075872176
  9
$TDUPDATE
 40
2456881.40920559
  9
$TDUUPDATE
 40
2456881.075872257
  9
$TDINDWG
 40
0.0000000116
  9
$TDUSRTIMER
 40
0.0000000116
  9
$USRTIMER
 70
     1
  9
$ANGBASE
 50
0.0
  9
$ANGDIR
 70
     0
  9
$PDMODE
 70
     0
  9
$PDSIZE
 40
0.0
  9
$PLINEWID
 40
0.0
  9
$SPLFRAME
 70
     0
  9
$SPLINETYPE
 70
     6
  9
$SPLINESEGS
 70
     8
  9
$HANDSEED
  5
591
  9
$SURFTAB1
 70
     6
  9
$SURFTAB2
 70
     6
  9
$SURFTYPE
 70
     6
  9
$SURFU
 70
     6
  9
$SURFV
 70
     6
  9
$UCSBASE
  2

  9
$UCSNAME
  2

  9
$UCSORG
 10
0.0
 20
0.0
 30
0.0
  9
$UCSXDIR
 10
1.0
 20
0.0
 30
0.0
  9
$UCSYDIR
 10
0.0
 20
1.0
 30
0.0
  9
$UCSORTHOREF
  2

  9
$UCSORTHOVIEW
 70
     0
  9
$UCSORGTOP
 10
0.0
 20
0.0
 30
0.0
  9
$UCSORGBOTTOM
 10
0.0
 20
0.0
 30
0.0
  9
$UCSORGLEFT
 10
0.0
 20
0.0
 30
0.0
  9
$UCSORGRIGHT
 10
0.0
 20
0.0
 30
0.0
  9
$UCSORGFRONT
 10
0.0
 20
0.0
 30
0.0
  9
$UCSORGBACK
 10
0.0
 20
0.0
 30
0.0
  9
$PUCSBASE
  2

  9
$PUCSNAME
  2

  9
$PUCSORG
 10
0.0
 20
0.0
 30
0.0
  9
$PUCSXDIR
 10
1.0
 20
0.0
 30
0.0
  9
$PUCSYDIR
 10
0.0
 20
1.0
 30
0.0
  9
$PUCSORTHOREF
  2

  9
$PUCSORTHOVIEW
 70
     0
  9
$PUCSORGTOP
 10
0.0
 20
0.0
 30
0.0
  9
$PUCSORGBOTTOM
 10
0.0
 20
0.0
 30
0.0
  9
$PUCSORGLEFT
 10
0.0
 20
0.0
 30
0.0
  9
$PUCSORGRIGHT
 10
0.0
 20
0.0
 30
0.0
  9
$PUCSORGFRONT
 10
0.0
 20
0.0
 30
0.0
  9
$PUCSORGBACK
 10
0.0
 20
0.0
 30
0.0
  9
$USERI1
 70
     0
  9
$USERI2
 70
     0
  9
$USERI3
 70
     0
  9
$USERI4
 70
     0
  9
$USERI5
 70
     0
  9
$USERR1
 40
0.0
  9
$USERR2
 40
0.0
  9
$USERR3
 40
0.0
  9
$USERR4
 40
0.0
  9
$USERR5
 40
0.0
  9
$WORLDVIEW
 70
     1
  9
$SHADEDGE
 70
     3
  9
$SHADEDIF
 70
    70
  9
$TILEMODE
 70
     1
  9
$MAXACTVP
 70
    64
  9
$PINSBASE
 10
0.0
 20
0.0
 30
0.0
  9
$PLIMCHECK
 70
     0
  9
$PEXTMIN
 10
1.000000000000000E+20
 20
1.000000000000000E+20
 30
1.000000000000000E+20
  9
$PEXTMAX
 10
-1.000000000000000E+20
 20
-1.000000000000000E+20
 30
-1.000000000000000E+20
  9
$PLIMMIN
 10
0.0
 20
0.0
  9
$PLIMMAX
 10
12.0
 20
9.0
  9
$UNITMODE
 70
     0
  9
$VISRETAIN
 70
     1
  9
$PLINEGEN
 70
     0
  9
$PSLTSCALE
 70
     1
  9
$TREEDEPTH
 70
  3020
  9
$CMLSTYLE
  2
Standard
  9
$CMLJUST
 70
     0
  9
$CMLSCALE
 40
1.0
  9
$PROXYGRAPHICS
 70
     1
  9
$MEASUREMENT
 70
     0
  9
$CELWEIGHT
370
    -1
  9
$ENDCAPS
280
     0
  9
$JOINSTYLE
280
     0
  9
$LWDISPLAY
290
     0
  9
$INSUNITS
 70
     4
  9
$HYPERLINKBASE
  1

  9
$STYLESHEET
  1

  9
$XEDIT
290
     1
  9
$CEPSNTYPE
380
     0
  9
$PSTYLEMODE
290
     1
  9
$FINGERPRINTGUID
  2
{B0223FA5-D5C3-49CA-8268-633050BD3584}
  9
$VERSIONGUID
  2
{FAEB1C32-E019-11D5-929B-00C0DF256EC4}
  9
$EXTNAMES
290
     1
  9
$PSVPSCALE
 40
0.0
  9
$OLESTARTUP
290
     0
  9
$SORTENTS
280
   127
  9
$INDEXCTL
280
     0
  9
$HIDETEXT
280
     1
  9
$XCLIPFRAME
290
     0
  9
$HALOGAP
280
     0
  9
$OBSCOLOR
 70
   257
  9
$OBSLTYPE
280
     0
  9
$INTERSECTIONDISPLAY
280
     0
  9
$INTERSECTIONCOLOR
 70
   257
  9
$DIMASSOC
280
     2
  9
$PROJECTNAME
  1

  0
ENDSEC
  0
SECTION
  2
CLASSES
  0
CLASS
  1
ACDBDICTIONARYWDFLT
  2
AcDbDictionaryWithDefault
  3
ObjectDBX Classes
 90
        0
 91
        4
280
     0
281
     0
  0
CLASS
  1
VISUALSTYLE
  2
AcDbVisualStyle
  3
ObjectDBX Classes
 90
     4095
 91
        4
280
     0
281
     0
  0
CLASS
  1
MATERIAL
  2
AcDbMaterial
  3
ObjectDBX Classes
 90
     1153
 91
        4
280
     0
281
     0
  0
CLASS
  1
SCALE
  2
AcDbScale
  3
ObjectDBX Classes
 90
     1153
 91
        4
280
     0
281
     0
  0
CLASS
  1
SUN
  2
AcDbSun
  3
SCENEOE
 90
     1153
 91
        4
280
     0
281
     0
  0
CLASS
  1
DICTIONARYVAR
  2
AcDbDictionaryVar
  3
ObjectDBX Classes
 90
        0
 91
        4
280
     0
281
     0
  0
ENDSEC
  0
SECTION
  2
TABLES
  0
TABLE
  2
VPORT
  5
8
330
0
100
AcDbSymbolTable
 70
     1
  0
VPORT
  5
29
330
8
100
AcDbSymbolTableRecord
100
AcDbViewportTableRecord
  2
*Active
 70
     0
 10
0.0
 20
0.0
 11
1.0
 21
1.0
 12
2084.091691188637
 22
1185.971831590407
 13
0.0
 23
0.0
 14
0.5
 24
0.5
 15
0.5
 25
0.5
 16
0.0
 26
0.0
 36
1.0
 17
0.0
 27
0.0
 37
0.0
 40
469.142536439552
 41
2.608770037977669
 42
50.0
 43
0.0
 44
0.0
 50
0.0
 51
0.0
 71
     0
 72
   100
 73
     1
 74
     3
 75
     0
 76
     0
 77
     0
 78
     0
281
     0
 65
     1
110
0.0
120
0.0
130
0.0
111
1.0
121
0.0
131
0.0
112
0.0
122
1.0
132
0.0
 79
     0
146
0.0
  0
ENDTAB
  0
TABLE
  2
LTYPE
  5
5
330
0
100
AcDbSymbolTable
 70
     1
  0
LTYPE
  5
14
330
5
100
AcDbSymbolTableRecord
100
AcDbLinetypeTableRecord
  2
ByBlock
 70
     0
  3

 72
    65
 73
     0
 40
0.0
  0
LTYPE
  5
15
330
5
100
AcDbSymbolTableRecord
100
AcDbLinetypeTableRecord
  2
ByLayer
 70
     0
  3

 72
    65
 73
     0
 40
0.0
  0
LTYPE
  5
16
330
5
100
AcDbSymbolTableRecord
100
AcDbLinetypeTableRecord
  2
Continuous
 70
     0
  3
Solid line
 72
    65
 73
     0
 40
0.0
  0
ENDTAB
  0
TABLE
  2
LAYER
  5
2
330
0
100
AcDbSymbolTable
 70
     2
  0
LAYER
  5
10
330
2
100
AcDbSymbolTableRecord
100
AcDbLayerTableRecord
  2
0
 70
     0
 62
     7
  6
Continuous
370
    -3
390
F
  0
LAYER
  5
62
330
2
100
AcDbSymbolTableRecord
100
AcDbLayerTableRecord
  2
Make2D$可见线$普通线
 70
     0
 62
    18
420
        0
  6
Continuous
370
    -3
390
F
  0
ENDTAB
  0
TABLE
  2
STYLE
  5
3
330
0
100
AcDbSymbolTable
 70
     1
  0
STYLE
  5
11
330
3
100
AcDbSymbolTableRecord
100
AcDbTextStyleTableRecord
  2
Standard
 70
     0
 40
0.0
 41
1.0
 50
0.0
 71
     0
 42
0.2
  3
txt
  4

  0
ENDTAB
  0
TABLE
  2
VIEW
  5
6
330
0
100
AcDbSymbolTable
 70
     0
  0
ENDTAB
  0
TABLE
  2
UCS
  5
7
330
0
100
AcDbSymbolTable
 70
     0
  0
ENDTAB
  0
TABLE
  2
APPID
  5
9
330
0
100
AcDbSymbolTable
 70
     1
  0
APPID
  5
12
330
9
100
AcDbSymbolTableRecord
100
AcDbRegAppTableRecord
  2
ACAD
 70
     0
  0
ENDTAB
  0
TABLE
  2
DIMSTYLE
  5
A
330
0
100
AcDbSymbolTable
 70
     1
100
AcDbDimStyleTable
  0
DIMSTYLE
105
27
330
A
100
AcDbSymbolTableRecord
100
AcDbDimStyleTableRecord
  2
Standard
 70
     0
178
     0
340
11
  0
ENDTAB
  0
TABLE
  2
BLOCK_RECORD
  5
1
330
0
100
AcDbSymbolTable
 70
     1
  0
BLOCK_RECORD
  5
1F
330
1
100
AcDbSymbolTableRecord
100
AcDbBlockTableRecord
  2
*Model_Space
340
22
  0
BLOCK_RECORD
  5
1B
330
1
100
AcDbSymbolTableRecord
100
AcDbBlockTableRecord
  2
*Paper_Space
340
1E
  0
BLOCK_RECORD
  5
23
330
1
100
AcDbSymbolTableRecord
100
AcDbBlockTableRecord
  2
*Paper_Space0
340
26
  0
ENDTAB
  0
ENDSEC
  0
SECTION
  2
BLOCKS
  0
BLOCK
  5
20
330
1F
100
AcDbEntity
  8
0
100
AcDbBlockBegin
  2
*Model_Space
 70
     0
 10
0.0
 20
0.0
 30
0.0
  3
*Model_Space
  1
*Model_Space
  0
ENDBLK
  5
21
330
1F
100
AcDbEntity
  8
0
100
AcDbBlockEnd
  0
BLOCK
  5
1C
330
1B
100
AcDbEntity
 67
     1
  8
0
100
AcDbBlockBegin
  2
*Paper_Space
 70
     0
 10
0.0
 20
0.0
 30
0.0
  3
*Paper_Space
  1
*Paper_Space
  0
ENDBLK
  5
1D
330
1B
100
AcDbEntity
 67
     1
  8
0
100
AcDbBlockEnd
  0
BLOCK
  5
24
330
23
100
AcDbEntity
  8
0
100
AcDbBlockBegin
  2
*Paper_Space0
 70
     0
 10
0.0
 20
0.0
 30
0.0
  3
*Paper_Space0
  1
*Paper_Space0
  0
ENDBLK
  5
25
330
23
100
AcDbEntity
  8
0
100
AcDbBlockEnd
  0
ENDSEC
  0
SECTION
  2
ENTITIES
  0
ARC
  5
63
330
1F
100
AcDbEntity
  8
Make2D$可见线$普通线
100
AcDbCircle
 10
2184.241790998371
 20
1302.88071813396
 30
0.0
 40
18.70012606709786
100
AcDbArc
 50
341.0810312995249
 51
341.7718205861673
  0
ARC
  5
64
330
1F
100
AcDbEntity
  8
Make2D$可见线$普通线
100
AcDbCircle
 10
2184.24179102373
 20
1302.880718125455
 30
0.0
 40
18.70012604035255
100
AcDbArc
 50
328.3070352763279
 51
341.0603514339284
  0
ARC
  5
65
330
1F
100
AcDbEntity
  8
Make2D$可见线$普通线
100
AcDbCircle
 10
2184.241791023819
 20
1302.880718125414
 30
0.0
 40
18.70012604025407
100
AcDbArc
 50
295.3485725257174
 51
310.1662179063715
  0
ARC
  5
66
330
1F
100
AcDbEntity
  8
Make2D$可见线$普通线
100
AcDbCircle
 10
2184.241791023819
 20
1302.880718125443
 30
0.0
 40
18.70012604028254
100
AcDbArc
 50
263.0739735608459
 51
276.9258861512226
  0
ARC
  5
67
330
1F
100
AcDbEntity
  8
Make2D$可见线$普通线
100
AcDbCircle
 10
2184.241791023844
 20
1302.880718125452
 30
0.0
 40
18.70012604029852
100
AcDbArc
 50
231.2272160860908
 51
243.2280741967183
  0
ARC
  5
68
330
1F
100
AcDbEntity
  8
Make2D$可见线$普通线
100
AcDbCircle
 10
2184.241791023586
 20
1302.880718125303
 30
0.0
 40
18.70012603999694
100
AcDbArc
 50
202.4998772490176
 51
208.9039289393708
  0
ARC
  5
69
330
1F
100
AcDbEntity
  8
Make2D$可见线$普通线
100
AcDbCircle
 10
2184.241791025444
 20
1302.880718126015
 30
0.0
 40
18.70012604198644
100
AcDbArc
 50
201.0753446034005
 51
201.7875834067409
  0
ARC
  5
6A
330
1F
100
AcDbEntity
  8
Make2D$可见线$普通线
100
AcDbCircle
 10
2184.241791023781
 20
1302.880718124005
 30
0.0
 40
18.70012604021294
100
AcDbArc
 50
148.3067843489796
 51
161.93360442566
  0
ARC
  5
6B
330
1F
100
AcDbEntity
  8
Make2D$可见线$普通线
100
AcDbCircle
 10
2184.241791023839
 20
1302.880718123955
 30
0.0
 40
18.70012604029209
100
AcDbArc
 50
115.1756246291649
 51
129.8119210759298
  0
ARC
  5
6C
330
1F
100
AcDbEntity
  8
Make2D$可见线$普通线
100
AcDbCircle
 10
2184.241791023819
 20
1302.88071812401
 30
0.0
 40
18.70012604023185
100
AcDbArc
 50
82.86598370984416
 51
97.06987366540424
  0
ARC
  5
6D
330
1F
100
AcDbEntity
  8
Make2D$可见线$普通线
100
AcDbCircle
 10
2184.241791023806
 20
1302.880718123966
 30
0.0
 40
18.70012604027892
100
AcDbArc
 50
51.66724422272014
 51
63.30068089092835
  0
ARC
  5
6E
330
1F
100
AcDbEntity
  8
Make2D$可见线$普通线
100
AcDbCircle
 10
2184.241791037788
 20
1302.880718131525
 30
0.0
 40
18.70012602438166
100
AcDbArc
 50
28.0664535847238
 51
28.79269664329173
  0
ARC
  5
6F
330
1F
100
AcDbEntity
  8
Make2D$可见线$普通线
100
AcDbCircle
 10
2184.241791023609
 20
1302.880718123907
 30
0.0
 40
18.70012604047776
100
AcDbArc
 50
24.46343765614317
 51
27.34157822017385
  0
ARC
  5
70
330
1F
100
AcDbEntity
  8
Make2D$可见线$普通线
100
AcDbCircle
 10
2184.241791028873
 20
1302.880718126206
 30
0.0
 40
18.70012603473473
100
AcDbArc
 50
23.02402299238753
 51
24.45682326908194
  0
ARC
  5
71
330
1F
100
AcDbEntity
  8
Make2D$可见线$普通线
100
AcDbCircle
 10
1983.941107907818
 20
1302.880718178448
 30
0.0
 40
18.70000001197065
100
AcDbArc
 50
336.9959409900757
 51
338.4018390204677
  0
ARC
  5
72
330
1F
100
AcDbEntity
  8
Make2D$可见线$普通线
100
AcDbCircle
 10
1983.941107907468
 20
1302.880718178638
 30
0.0
 40
18.70000001236742
100
AcDbArc
 50
329.841415933541
 51
336.9759605033497
  0
ARC
  5
73
330
1F
100
AcDbEntity
  8
Make2D$可见线$普通线
100
AcDbCircle
 10
1983.94110790596
 20
1302.880718179022
 30
0.0
 40
18.70000001376203
100
AcDbArc
 50
295.1757130508029
 51
309.8120218269281
  0
ARC
  5
74
330
1F
100
AcDbEntity
  8
Make2D$可见线$普通线
100
AcDbCircle
 10
1983.941107909318
 20
1302.880718165773
 30
0.0
 40
18.69999999996075
100
AcDbArc
 50
262.866049263994
 51
277.066049355773
  0
ARC
  5
75
330
1F
100
AcDbEntity
  8
Make2D$可见线$普通线
100
AcDbCircle
 10
1983.941107905916
 20
1302.88071815254
 30
0.0
 40
18.69999998616105
100
AcDbArc
 50
230.1879782512785
 51
244.1038353739766
  0
ARC
  5
76
330
1F
100
AcDbEntity
  8
Make2D$可见线$普通线
100
AcDbCircle
 10
1983.941107908084
 20
1302.88071815331
 30
0.0
 40
18.69999998832678
100
AcDbArc
 50
199.4731693533371
 51
210.9791057494068
  0
ARC
  5
77
330
1F
100
AcDbEntity
  8
Make2D$可见线$普通线
100
AcDbCircle
 10
1983.941107933394
 20
1302.880718152232
 30
0.0
 40
18.70000001447124
100
AcDbArc
 50
156.9960489673862
 51
158.4018390936615
  0
ARC
  5
78
330
1F
100
AcDbEntity
  8
Make2D$可见线$普通线
100
AcDbCircle
 10
1983.9411079315
 20
1302.880718152948
 30
0.0
 40
18.700000012448
100
AcDbArc
 50
149.841550232136
 51
156.9759605750766
  0
ARC
  5
79
330
1F
100
AcDbEntity
  8
Make2D$可见线$普通线
100
AcDbCircle
 10
1983.941107932954
 20
1302.880718152579
 30
0.0
 40
18.70000001379157
100
AcDbArc
 50
115.1757130752364
 51
129.812021867841
  0
ARC
  5
7A
330
1F
100
AcDbEntity
  8
Make2D$可见线$普通线
100
AcDbCircle
 10
1983.941107929578
 20
1302.880718165848
 30
0.0
 40
18.69999999996444
100
AcDbArc
 50
82.86604925780573
 51
97.06685926771559
  0
ARC
  5
7B
330
1F
100
AcDbEntity
  8
Make2D$可见线$普通线
100
AcDbCircle
 10
1983.941107932991
 20
1302.880718179097
 30
0.0
 40
18.6999999861455
100
AcDbArc
 50
50.18797821035786
 51
64.1038353487849
  0
ARC
  5
7C
330
1F
100
AcDbEntity
  8
Make2D$可见线$普通线
100
AcDbCircle
 10
1983.941107930821
 20
1302.88071817832
 30
0.0
 40
18.6999999883162
100
AcDbArc
 50
19.47316927781891
 51
30.97910568641305
  0
POLYLINE
  5
7D
330
1F
100
AcDbEntity
  8
Make2D$可见线$普通线
100
AcDb2dPolyline
 66
     1
 10
0.0
 20
0.0
 30
0.0
  0
VERTEX
  5
7E
330
7D
100
AcDbEntity
  8
Make2D$可见线$普通线
100
AcDbVertex
100
AcDb2dVertex
 10
1490.149418572348
 20
1415.943663049369
 30
0.0
  0
VERTEX
  5
7F
330
7D
100
AcDbEntity
  8
Make2D$可见线$普通线
100
AcDbVertex
100
AcDb2dVertex
 10
2678.033963805148
 20
1415.943663049369
 30
0.0
  0
VERTEX
  5
80
330
7D
100
AcDbEntity
  8
Make2D$可见线$普通线
100
AcDbVertex
100
AcDb2dVertex
 10
2680.035273926908
 20
1415.943663178422
 30
0.0
 42
-0.4142177592747033
  0
VERTEX
  5
81
330
7D
100
AcDbEntity
  8
Make2D$可见线$普通线
100
AcDbVertex
100
AcDb2dVertex
 10
2684.035315014298
 20
1411.943644093787
 30
0.0
  0
VERTEX
  5
82
330
7D
100
AcDbEntity
  8
Make2D$可见线$普通线
100
AcDbVertex
100
AcDb2dVertex
 10
2684.035296151397
 20
962.0001601349923
 30
0.0
 42
-0.414219926364376
  0
VERTEX
  5
83
330
7D
100
AcDbEntity
  8
Make2D$可见线$普通线
100
AcDbVertex
100
AcDb2dVertex
 10
2678.0352676042
 20
956.0000582229801
 30
0.0
  0
VERTEX
  5
84
330
7D
100
AcDbEntity
  8
Make2D$可见线$普通线
100
AcDbVertex
100
AcDb2dVertex
 10
2084.091689664112
 20
956.000000002391
 30
0.0
  0
VERTEX
  5
85
330
7D
100
AcDbEntity
  8
Make2D$可见线$普通线
100
AcDbVertex
100
AcDb2dVertex
 10
1490.148188495456
 20
956.0000582235259
 30
0.0
 42
-0.4142235251417303
  0
VERTEX
  5
86
330
7D
100
AcDbEntity
  8
Make2D$可见线$普通线
100
AcDbVertex
100
AcDb2dVertex
 10
1484.1480862261
 20
962.0001601349923
 30
0.0
  0
VERTEX
  5
87
330
7D
100
AcDbEntity
  8
Make2D$可见线$普通线
100
AcDbVertex
100
AcDb2dVertex
 10
1484.148067362976
 20
1411.943644093762
 30
0.0
 42
-0.4142177810572171
  0
VERTEX
  5
88
330
7D
100
AcDbEntity
  8
Make2D$可见线$普通线
100
AcDbVertex
100
AcDb2dVertex
 10
1488.148108453093
 20
1415.943663142914
 30
0.0
  0
VERTEX
  5
89
330
7D
100
AcDbEntity
  8
Make2D$可见线$普通线
100
AcDbVertex
100
AcDb2dVertex
 10
1490.149418572348
 20
1415.943663049369
 30
0.0
  0
SEQEND
  5
8A
330
7D
100
AcDbEntity
  8
Make2D$可见线$普通线
  0
POLYLINE
  5
8B
330
1F
100
AcDbEntity
  8
Make2D$可见线$普通线
100
AcDb2dPolyline
 66
     1
 10
0.0
 20
0.0
 30
0.0
  0
VERTEX
  5
8C
330
8B
100
AcDbEntity
  8
Make2D$可见线$普通线
100
AcDbVertex
100
AcDb2dVertex
 10
1858.690672940306
 20
1318.533593180428
 30
0.0
  0
VERTEX
  5
8D
330
8B
100
AcDbEntity
  8
Make2D$可见线$普通线
100
AcDbVertex
100
AcDb2dVertex
 10
1858.301440750277
 20
1319.46470598228
 30
0.0
  0
VERTEX
  5
8E
330
8B
100
AcDbEntity
  8
Make2D$可见线$普通线
100
AcDbVertex
100
AcDb2dVertex
 10
1857.891081185626
 20
1320.38671096241
 30
0.0
  0
VERTEX
  5
8F
330
8B
100
AcDbEntity
  8
Make2D$可见线$普通线
100
AcDbVertex
100
AcDb2dVertex
 10
1857.459467723893
 20
1321.2989455197
 30
0.0
  0
VERTEX
  5
90
330
8B
100
AcDbEntity
  8
Make2D$可见线$普通线
100
AcDbVertex
100
AcDb2dVertex
 10
1857.006473842621
 20
1322.200747053033
 30
0.0
  0
VERTEX
  5
91
330
8B
100
AcDbEntity
  8
Make2D$可见线$普通线
100
AcDbVertex
100
AcDb2dVertex
 10
1856.525564854749
 20
1323.10323543385
 30
0.0
  0
VERTEX
  5
92
330
8B
100
AcDbEntity
  8
Make2D$可见线$普通线
100
AcDbVertex
100
AcDb2dVertex
 10
1856.022741249929
 20
1323.99370488826
 30
0.0
  0
VERTEX
  5
93
330
8B
100
AcDbEntity
  8
Make2D$可见线$普通线
100
AcDbVertex
100
AcDb2dVertex
 10
1855.498171404775
 20
1324.871529305117
 30
0.0
  0
VERTEX
  5
94
330
8B
100
AcDbEntity
  8
Make2D$可见线$普通线
100
AcDbVertex
100
AcDb2dVertex
 10
1854.952023695897
 20
1325.736082573276
 30
0.0
  0
VERTEX
  5
95
330
8B
100
AcDbEntity
  8
Make2D$可见线$普通线
100
AcDbVertex
100
AcDb2dVertex
 10
1854.400432735996
 20
1326.563519327108
 30
0.0
  0
VERTEX
  5
96
330
8B
100
AcDbEntity
  8
Make2D$可见线$普通线
100
AcDbVertex
100
AcDb2dVertex
 10
1853.829011533673
 20
1327.377397061318
 30
0.0
  0
VERTEX
  5
97
330
8B
100
AcDbEntity
  8
Make2D$可见线$普通线
100
AcDbVertex
100
AcDb2dVertex
 10
1853.238175831076
 20
1328.177298766966
 30
0.0
  0
VERTEX
  5
98
330
8B
100
AcDbEntity
  8
Make2D$可见线$普通线
100
AcDbVertex
100
AcDb2dVertex
 10
1852.628341370352
 20
1328.962807435113
 30
0.0
  0
VERTEX
  5
99
330
8B
100
AcDbEntity
  8
Make2D$可见线$普通线
100
AcDbVertex
100
AcDb2dVertex
 10
1851.989207240158
 20
1329.746401715165
 30
0.0
  0
VERTEX
  5
9A
330
8B
100
AcDbEntity
  8
Make2D$可见线$普通线
100
AcDbVertex
100
AcDb2dVertex
 10
1851.331478099109
 20
1330.514465862685
 30
0.0
  0
VERTEX
  5
9B
330
8B
100
AcDbEntity
  8
Make2D$可见线$普通线
100
AcDbVertex
100
AcDb2dVertex
 10
1850.655773560804
 20
1331.266783162557
 30
0.0
  0
VERTEX
  5
9C
330
8B
100
AcDbEntity
  8
Make2D$可见线$普通线
100
AcDbVertex
100
AcDb2dVertex
 10
1849.96271323884
 20
1332.00313689966
 30
0.0
  0
VERTEX
  5
9D
330
8B
100
AcDbEntity
  8
Make2D$可见线$普通线
100
AcDbVertex
100
AcDb2dVertex
 10
1849.224777074067
 20
1332.751246676292
 30
0.0
  0
VERTEX
  5
9E
330
8B
100
AcDbEntity
  8
Make2D$可见线$普通线
100
AcDbVertex
100
AcDb2dVertex
 10
1848.469536621594
 20
1333.48189381867
 30
0.0
  0
VERTEX
  5
9F
330
8B
100
AcDbEntity
  8
Make2D$可见线$普通线
100
AcDbVertex
100
AcDb2dVertex
 10
1847.697761388778
 20
1334.195089166183
 30
0.0
  0
VERTEX
  5
A0
330
8B
100
AcDbEntity
  8
Make2D$可见线$普通线
100
AcDbVertex
100
AcDb2dVertex
 10
1846.91022088297
 20
1334.89084355822
 30
0.0
  0
VERTEX
  5
A1
330
8B
100
AcDbEntity
  8
Make2D$可见线$普通线
100
AcDbVertex
100
AcDb2dVertex
 10
1846.088231630616
 20
1335.585246717743
 30
0.0
  0
VERTEX
  5
A2
330
8B
100
AcDbEntity
  8
Make2D$可见线$普通线
100
AcDbVertex
100
AcDb2dVertex
 10
1845.25123251753
 20
1336.261486151132
 30
0.0
  0
VERTEX
  5
A3
330
8B
100
AcDbEntity
  8
Make2D$可见线$普通线
100
AcDbVertex
100
AcDb2dVertex
 10
1844.399937713997
 20
1336.919674737306
 30
0.0
  0
VERTEX
  5
A4
330
8B
100
AcDbEntity
  8
Make2D$可见线$普通线
100
AcDbVertex
100
AcDb2dVertex
 10
1843.535061390299
 20
1337.559925355178
 30
0.0
  0
VERTEX
  5
A5
330
8B
100
AcDbEntity
  8
Make2D$可见线$普通线
100
AcDbVertex
100
AcDb2dVertex
 10
1842.66029187086
 20
1338.180281423314
 30
0.0
  0
VERTEX
  5
A6
330
8B
100
AcDbEntity
  8
Make2D$可见线$普通线
100
AcDbVertex
100
AcDb2dVertex
 10
1841.773344669898
 20
1338.783087398958
 30
0.0
  0
VERTEX
  5
A7
330
8B
100
AcDbEntity
  8
Make2D$可见线$普通线
100
AcDbVertex
100
AcDb2dVertex
 10
1840.825066780748
 20
1339.400348091593
 30
0.0
  0
VERTEX
  5
A8
330
8B
100
AcDbEntity
  8
Make2D$可见线$普通线
100
AcDbVertex
100
AcDb2dVertex
 10
1839.864959376894
 20
1339.999079972882
 30
0.0
  0
VERTEX
  5
A9
330
8B
100
AcDbEntity
  8
Make2D$可见线$普通线
100
AcDbVertex
100
AcDb2dVertex
 10
1838.895411411007
 20
1340.579102800293
 30
0.0
  0
VERTEX
  5
AA
330
8B
100
AcDbEntity
  8
Make2D$可见线$普通线
100
AcDbVertex
100
AcDb2dVertex
 10
1837.915450091048
 20
1341.141338000124
 30
0.0
  0
VERTEX
  5
AB
330
8B
100
AcDbEntity
  8
Make2D$可见线$普通线
100
AcDbVertex
100
AcDb2dVertex
 10
1836.853908510564
 20
1341.72424394195
 30
0.0
  0
VERTEX
  5
AC
330
8B
100
AcDbEntity
  8
Make2D$可见线$普通线
100
AcDbVertex
100
AcDb2dVertex
 10
1835.781703796503
 20
1342.287296587318
 30
0.0
  0
VERTEX
  5
AD
330
8B
100
AcDbEntity
  8
Make2D$可见线$普通线
100
AcDbVertex
100
AcDb2dVertex
 10
1835.434884529113
 20
1342.52223686815
 30
0.0
  0
VERTEX
  5
AE
330
8B
100
AcDbEntity
  8
Make2D$可见线$普通线
100
AcDbVertex
100
AcDb2dVertex
 10
1834.480075604104
 20
1343.008845185913
 30
0.0
  0
VERTEX
  5
AF
330
8B
100
AcDbEntity
  8
Make2D$可见线$普通线
100
AcDbVertex
100
AcDb2dVertex
 10
1833.525336653079
 20
1343.476893107606
 30
0.0
  0
VERTEX
  5
B0
330
8B
100
AcDbEntity
  8
Make2D$可见线$普通线
100
AcDbVertex
100
AcDb2dVertex
 10
1832.5720195821
 20
1343.926761279629
 30
0.0
  0
VERTEX
  5
B1
330
8B
100
AcDbEntity
  8
Make2D$可见线$普通线
100
AcDbVertex
100
AcDb2dVertex
 10
1831.621476297228
 20
1344.358830348379
 30
0.0
  0
VERTEX
  5
B2
330
8B
100
AcDbEntity
  8
Make2D$可见线$普通线
100
AcDbVertex
100
AcDb2dVertex
 10
1830.675058704525
 20
1344.773480960253
 30
0.0
  0
VERTEX
  5
B3
330
8B
100
AcDbEntity
  8
Make2D$可见线$普通线
100
AcDbVertex
100
AcDb2dVertex
 10
1829.734118710053
 20
1345.171093761648
 30
0.0
  0
VERTEX
  5
B4
330
8B
100
AcDbEntity
  8
Make2D$可见线$普通线
100
AcDbVertex
100
AcDb2dVertex
 10
1828.800008219872
 20
1345.552049398962
 30
0.0
  0
VERTEX
  5
B5
330
8B
100
AcDbEntity
  8
Make2D$可见线$普通线
100
AcDbVertex
100
AcDb2dVertex
 10
1827.874079140045
 20
1345.916728518593
 30
0.0
  0
VERTEX
  5
B6
330
8B
100
AcDbEntity
  8
Make2D$可见线$普通线
100
AcDbVertex
100
AcDb2dVertex
 10
1826.957404664928
 20
1346.265579102541
 30
0.0
  0
VERTEX
  5
B7
330
8B
100
AcDbEntity
  8
Make2D$可见线$普通线
100
AcDbVertex
100
AcDb2dVertex
 10
1826.049943142062
 20
1346.599318475226
 30
0.0
  0
VERTEX
  5
B8
330
8B
100
AcDbEntity
  8
Make2D$可见线$普通线
100
AcDbVertex
100
AcDb2dVertex
 10
1824.26137749642
 20
1347.224602226906
 30
0.0
  0
VERTEX
  5
B9
330
8B
100
AcDbEntity
  8
Make2D$可见线$普通线
100
AcDbVertex
100
AcDb2dVertex
 10
1822.505819289803
 20
1347.798857053823
 30
0.0
  0
VERTEX
  5
BA
330
8B
100
AcDbEntity
  8
Make2D$可见线$普通线
100
AcDbVertex
100
AcDb2dVertex
 10
1820.780705608893
 20
1348.328360236166
 30
0.0
  0
VERTEX
  5
BB
330
8B
100
AcDbEntity
  8
Make2D$可见线$普通线
100
AcDbVertex
100
AcDb2dVertex
 10
1819.083986102222
 20
1348.818782042301
 30
0.0
  0
VERTEX
  5
BC
330
8B
100
AcDbEntity
  8
Make2D$可见线$普通线
100
AcDbVertex
100
AcDb2dVertex
 10
1817.415660665728
 20
1349.273364693288
 30
0.0
  0
VERTEX
  5
BD
330
8B
100
AcDbEntity
  8
Make2D$可见线$普通线
100
AcDbVertex
100
AcDb2dVertex
 10
1815.776241757196
 20
1349.694743398361
 30
0.0
  0
VERTEX
  5
BE
330
8B
100
AcDbEntity
  8
Make2D$可见线$普通线
100
AcDbVertex
100
AcDb2dVertex
 10
1814.166241834411
 20
1350.085553366753
 30
0.0
  0
VERTEX
  5
BF
330
8B
100
AcDbEntity
  8
Make2D$可见线$普通线
100
AcDbVertex
100
AcDb2dVertex
 10
1812.586073508461
 20
1350.448320662027
 30
0.0
  0
VERTEX
  5
C0
330
8B
100
AcDbEntity
  8
Make2D$可见线$普通线
100
AcDbVertex
100
AcDb2dVertex
 10
1811.035750003643
 20
1350.785134765052
 30
0.0
  0
VERTEX
  5
C1
330
8B
100
AcDbEntity
  8
Make2D$可见线$普通线
100
AcDbVertex
100
AcDb2dVertex
 10
1809.515184697559
 20
1351.097976011029
 30
0.0
  0
VERTEX
  5
C2
330
8B
100
AcDbEntity
  8
Make2D$可见线$普通线
100
AcDbVertex
100
AcDb2dVertex
 10
1808.024290967808
 20
1351.388824735157
 30
0.0
  0
VERTEX
  5
C3
330
8B
100
AcDbEntity
  8
Make2D$可见线$普通线
100
AcDbVertex
100
AcDb2dVertex
 10
1806.562830899092
 20
1351.659568720017
 30
0.0
  0
VERTEX
  5
C4
330
8B
100
AcDbEntity
  8
Make2D$可见线$普通线
100
AcDbVertex
100
AcDb2dVertex
 10
1805.129961404507
 20
1351.91172553773
 30
0.0
  0
VERTEX
  5
C5
330
8B
100
AcDbEntity
  8
Make2D$可见线$普通线
100
AcDbVertex
100
AcDb2dVertex
 10
1803.724688104249
 20
1352.146720207799
 30
0.0
  0
VERTEX
  5
C6
330
8B
100
AcDbEntity
  8
Make2D$可见线$普通线
100
AcDbVertex
100
AcDb2dVertex
 10
1802.346016618516
 20
1352.365977749727
 30
0.0
  0
VERTEX
  5
C7
330
8B
100
AcDbEntity
  8
Make2D$可见线$普通线
100
AcDbVertex
100
AcDb2dVertex
 10
1799.667894914716
 20
1352.762014765766
 30
0.0
  0
VERTEX
  5
C8
330
8B
100
AcDbEntity
  8
Make2D$可见线$普通线
100
AcDbVertex
100
AcDb2dVertex
 10
1797.104607971227
 20
1353.106402934839
 30
0.0
  0
VERTEX
  5
C9
330
8B
100
AcDbEntity
  8
Make2D$可见线$普通线
100
AcDbVertex
100
AcDb2dVertex
 10
1795.219523458127
 20
1353.3579965841
 30
0.0
  0
VERTEX
  5
CA
330
8B
100
AcDbEntity
  8
Make2D$可见线$普通线
100
AcDbVertex
100
AcDb2dVertex
 10
1792.531203337564
 20
1353.693624933755
 30
0.0
  0
VERTEX
  5
CB
330
8B
100
AcDbEntity
  8
Make2D$可见线$普通线
100
AcDbVertex
100
AcDb2dVertex
 10
1789.839324601951
 20
1353.99923010224
 30
0.0
  0
VERTEX
  5
CC
330
8B
100
AcDbEntity
  8
Make2D$可见线$普通线
100
AcDbVertex
100
AcDb2dVertex
 10
1786.951584974485
 20
1354.295937331166
 30
0.0
  0
VERTEX
  5
CD
330
8B
100
AcDbEntity
  8
Make2D$可见线$普通线
100
AcDbVertex
100
AcDb2dVertex
 10
1784.060974534516
 20
1354.563376786468
 30
0.0
  0
VERTEX
  5
CE
330
8B
100
AcDbEntity
  8
Make2D$可见线$普通线
100
AcDbVertex
100
AcDb2dVertex
 10
1780.940973457113
 20
1354.821818680058
 30
0.0
  0
VERTEX
  5
CF
330
8B
100
AcDbEntity
  8
Make2D$可见线$普通线
100
AcDbVertex
100
AcDb2dVertex
 10
1777.818728793036
 20
1355.051647771843
 30
0.0
  0
VERTEX
  5
D0
330
8B
100
AcDbEntity
  8
Make2D$可见线$普通线
100
AcDbVertex
100
AcDb2dVertex
 10
1774.694628945341
 20
1355.255309878171
 30
0.0
  0
VERTEX
  5
D1
330
8B
100
AcDbEntity
  8
Make2D$可见线$普通线
100
AcDbVertex
100
AcDb2dVertex
 10
1771.569062317086
 20
1355.435250815388
 30
0.0
  0
VERTEX
  5
D2
330
8B
100
AcDbEntity
  8
Make2D$可见线$普通线
100
AcDbVertex
100
AcDb2dVertex
 10
1768.141642328023
 20
1355.608088581852
 30
0.0
  0
VERTEX
  5
D3
330
8B
100
AcDbEntity
  8
Make2D$可见线$普通线
100
AcDbVertex
100
AcDb2dVertex
 10
1764.713154788619
 20
1355.758252735511
 30
0.0
  0
VERTEX
  5
D4
330
8B
100
AcDbEntity
  8
Make2D$可见线$普通线
100
AcDbVertex
100
AcDb2dVertex
 10
1761.283827911522
 20
1355.888633823259
 30
0.0
  0
VERTEX
  5
D5
330
8B
100
AcDbEntity
  8
Make2D$可见线$普通线
100
AcDbVertex
100
AcDb2dVertex
 10
1757.853889909379
 20
1356.00212239199
 30
0.0
  0
VERTEX
  5
D6
330
8B
100
AcDbEntity
  8
Make2D$可见线$普通线
100
AcDbVertex
100
AcDb2dVertex
 10
1754.106747749649
 20
1356.110214881361
 30
0.0
  0
VERTEX
  5
D7
330
8B
100
AcDbEntity
  8
Make2D$可见线$普通线
100
AcDbVertex
100
AcDb2dVertex
 10
1747.122025441342
 20
1356.280544380281
 30
0.0
  0
VERTEX
  5
D8
330
8B
100
AcDbEntity
  8
Make2D$可见线$普通线
100
AcDbVertex
100
AcDb2dVertex
 10
1736.959574373722
 20
1356.505819616756
 30
0.0
  0
VERTEX
  5
D9
330
8B
100
AcDbEntity
  8
Make2D$可见线$普通线
100
AcDbVertex
100
AcDb2dVertex
 10
1736.217185000979
 20
1356.52333943841
 30
0.0
  0
VERTEX
  5
DA
330
8B
100
AcDbEntity
  8
Make2D$可见线$普通线
100
AcDbVertex
100
AcDb2dVertex
 10
1726.729149930574
 20
1356.768744941784
 30
0.0
  0
VERTEX
  5
DB
330
8B
100
AcDbEntity
  8
Make2D$可见线$普通线
100
AcDbVertex
100
AcDb2dVertex
 10
1703.036666160279
 20
1357.307271800869
 30
0.0
  0
VERTEX
  5
DC
330
8B
100
AcDbEntity
  8
Make2D$可见线$普通线
100
AcDbVertex
100
AcDb2dVertex
 10
1671.847374336772
 20
1358.057417645721
 30
0.0
  0
VERTEX
  5
DD
330
8B
100
AcDbEntity
  8
Make2D$可见线$普通线
100
AcDbVertex
100
AcDb2dVertex
 10
1588.091839467739
 20
1360.047897196664
 30
0.0
  0
VERTEX
  5
DE
330
8B
100
AcDbEntity
  8
Make2D$可见线$普通线
100
AcDbVertex
100
AcDb2dVertex
 10
1553.091520307267
 20
1360.866115133546
 30
0.0
  0
VERTEX
  5
DF
330
8B
100
AcDbEntity
  8
Make2D$可见线$普通线
100
AcDbVertex
100
AcDb2dVertex
 10
1527.646133552442
 20
1361.49293764706
 30
0.0
  0
VERTEX
  5
E0
330
8B
100
AcDbEntity
  8
Make2D$可见线$普通线
100
AcDbVertex
100
AcDb2dVertex
 10
1527.362883084012
 20
1361.494911291258
 30
0.0
  0
VERTEX
  5
E1
330
8B
100
AcDbEntity
  8
Make2D$可见线$普通线
100
AcDbVertex
100
AcDb2dVertex
 10
1527.083048181744
 20
1361.487485436602
 30
0.0
  0
VERTEX
  5
E2
330
8B
100
AcDbEntity
  8
Make2D$可见线$普通线
100
AcDbVertex
100
AcDb2dVertex
 10
1526.806555602728
 20
1361.470741407636
 30
0.0
  0
VERTEX
  5
E3
330
8B
100
AcDbEntity
  8
Make2D$可见线$普通线
100
AcDbVertex
100
AcDb2dVertex
 10
1526.533332104056
 20
1361.444760528902
 30
0.0
  0
VERTEX
  5
E4
330
8B
100
AcDbEntity
  8
Make2D$可见线$普通线
100
AcDbVertex
100
AcDb2dVertex
 10
1526.263304442818
 20
1361.409624124944
 30
0.0
  0
VERTEX
  5
E5
330
8B
100
AcDbEntity
  8
Make2D$可见线$普通线
100
AcDbVertex
100
AcDb2dVertex
 10
1525.996399376106
 20
1361.365413520303
 30
0.0
  0
VERTEX
  5
E6
330
8B
100
AcDbEntity
  8
Make2D$可见线$普通线
100
AcDbVertex
100
AcDb2dVertex
 10
1525.732543661011
 20
1361.312210039524
 30
0.0
  0
VERTEX
  5
E7
330
8B
100
AcDbEntity
  8
Make2D$可见线$普通线
100
AcDbVertex
100
AcDb2dVertex
 10
1525.471664054623
 20
1361.250095007148
 30
0.0
  0
VERTEX
  5
E8
330
8B
100
AcDbEntity
  8
Make2D$可见线$普通线
100
AcDbVertex
100
AcDb2dVertex
 10
1525.213737309974
 20
1361.179150214103
 30
0.0
  0
VERTEX
  5
E9
330
8B
100
AcDbEntity
  8
Make2D$可见线$普通线
100
AcDbVertex
100
AcDb2dVertex
 10
1524.958940163845
 20
1361.099459316854
 30
0.0
  0
VERTEX
  5
EA
330
8B
100
AcDbEntity
  8
Make2D$可见线$普通线
100
AcDbVertex
100
AcDb2dVertex
 10
1524.707499348958
 20
1361.011106438251
 30
0.0
  0
VERTEX
  5
EB
330
8B
100
AcDbEntity
  8
Make2D$可见线$普通线
100
AcDbVertex
100
AcDb2dVertex
 10
1524.583108419706
 20
1360.963708044332
 30
0.0
  0
VERTEX
  5
EC
330
8B
100
AcDbEntity
  8
Make2D$可见线$普通线
100
AcDbVertex
100
AcDb2dVertex
 10
1524.459641598035
 20
1360.914175701143
 30
0.0
  0
VERTEX
  5
ED
330
8B
100
AcDbEntity
  8
Make2D$可见线$普通线
100
AcDbVertex
100
AcDb2dVertex
 10
1524.337127225535
 20
1360.862519924039
 30
0.0
  0
VERTEX
  5
EE
330
8B
100
AcDbEntity
  8
Make2D$可见线$普通线
100
AcDbVertex
100
AcDb2dVertex
 10
1524.215593643797
 20
1360.808751228378
 30
0.0
  0
VERTEX
  5
EF
330
8B
100
AcDbEntity
  8
Make2D$可见线$普通线
100
AcDbVertex
100
AcDb2dVertex
 10
1524.09506919441
 20
1360.752880129515
 30
0.0
  0
VERTEX
  5
F0
330
8B
100
AcDbEntity
  8
Make2D$可见线$普通线
100
AcDbVertex
100
AcDb2dVertex
 10
1523.975582218966
 20
1360.694917142807
 30
0.0
  0
VERTEX
  5
F1
330
8B
100
AcDbEntity
  8
Make2D$可见线$普通线
100
AcDbVertex
100
AcDb2dVertex
 10
1523.857161059054
 20
1360.634872783609
 30
0.0
  0
VERTEX
  5
F2
330
8B
100
AcDbEntity
  8
Make2D$可见线$普通线
100
AcDbVertex
100
AcDb2dVertex
 10
1523.739834056264
 20
1360.572757567279
 30
0.0
  0
VERTEX
  5
F3
330
8B
100
AcDbEntity
  8
Make2D$可见线$普通线
100
AcDbVertex
100
AcDb2dVertex
 10
1523.623629552187
 20
1360.508582009171
 30
0.0
  0
VERTEX
  5
F4
330
8B
100
AcDbEntity
  8
Make2D$可见线$普通线
100
AcDbVertex
100
AcDb2dVertex
 10
1523.508575888412
 20
1360.442356624642
 30
0.0
  0
VERTEX
  5
F5
330
8B
100
AcDbEntity
  8
Make2D$可见线$普通线
100
AcDbVertex
100
AcDb2dVertex
 10
1523.394699605792
 20
1360.374092265622
 30
0.0
  0
VERTEX
  5
F6
330
8B
100
AcDbEntity
  8
Make2D$可见线$普通线
100
AcDbVertex
100
AcDb2dVertex
 10
1523.28202004222
 20
1360.303801130331
 30
0.0
  0
VERTEX
  5
F7
330
8B
100
AcDbEntity
  8
Make2D$可见线$普通线
100
AcDbVertex
100
AcDb2dVertex
 10
1523.170554734853
 20
1360.231495753562
 30
0.0
  0
VERTEX
  5
F8
330
8B
100
AcDbEntity
  8
Make2D$可见线$普通线
100
AcDbVertex
100
AcDb2dVertex
 10
1523.060321220848
 20
1360.15718867011
 30
0.0
  0
VERTEX
  5
F9
330
8B
100
AcDbEntity
  8
Make2D$可见线$普通线
100
AcDbVertex
100
AcDb2dVertex
 10
1522.951337037361
 20
1360.080892414767
 30
0.0
  0
VERTEX
  5
FA
330
8B
100
AcDbEntity
  8
Make2D$可见线$普通线
100
AcDbVertex
100
AcDb2dVertex
 10
1522.843619721547
 20
1360.002619522328
 30
0.0
  0
VERTEX
  5
FB
330
8B
100
AcDbEntity
  8
Make2D$可见线$普通线
100
AcDbVertex
100
AcDb2dVertex
 10
1522.737186810563
 20
1359.922382527586
 30
0.0
  0
VERTEX
  5
FC
330
8B
100
AcDbEntity
  8
Make2D$可见线$普通线
100
AcDbVertex
100
AcDb2dVertex
 10
1522.632055841565
 20
1359.840193965334
 30
0.0
  0
VERTEX
  5
FD
330
8B
100
AcDbEntity
  8
Make2D$可见线$普通线
100
AcDbVertex
100
AcDb2dVertex
 10
1522.528244351708
 20
1359.756066370367
 30
0.0
  0
VERTEX
  5
FE
330
8B
100
AcDbEntity
  8
Make2D$可见线$普通线
100
AcDbVertex
100
AcDb2dVertex
 10
1522.42576987815
 20
1359.670012277478
 30
0.0
  0
VERTEX
  5
FF
330
8B
100
AcDbEntity
  8
Make2D$可见线$普通线
100
AcDbVertex
100
AcDb2dVertex
 10
1522.224902128553
 20
1359.492174737107
 30
0.0
  0
VERTEX
  5
100
330
8B
100
AcDbEntity
  8
Make2D$可见线$普通线
100
AcDbVertex
100
AcDb2dVertex
 10
1522.029592890022
 20
1359.306781622571
 30
0.0
  0
VERTEX
  5
101
330
8B
100
AcDbEntity
  8
Make2D$可见线$普通线
100
AcDbVertex
100
AcDb2dVertex
 10
1521.839982459806
 20
1359.113933212218
 30
0.0
  0
VERTEX
  5
102
330
8B
100
AcDbEntity
  8
Make2D$可见线$普通线
100
AcDbVertex
100
AcDb2dVertex
 10
1521.656216792413
 20
1358.913731792533
 30
0.0
  0
VERTEX
  5
103
330
8B
100
AcDbEntity
  8
Make2D$可见线$普通线
100
AcDbVertex
100
AcDb2dVertex
 10
1521.478464471381
 20
1358.706287682538
 30
0.0
  0
VERTEX
  5
104
330
8B
100
AcDbEntity
  8
Make2D$可见线$普通线
100
AcDbVertex
100
AcDb2dVertex
 10
1521.306899737509
 20
1358.491713209391
 30
0.0
  0
VERTEX
  5
105
330
8B
100
AcDbEntity
  8
Make2D$可见线$普通线
100
AcDbVertex
100
AcDb2dVertex
 10
1521.141696831593
 20
1358.27012070025
 30
0.0
  0
VERTEX
  5
106
330
8B
100
AcDbEntity
  8
Make2D$可见线$普通线
100
AcDbVertex
100
AcDb2dVertex
 10
1520.983029994432
 20
1358.041622482274
 30
0.0
  0
VERTEX
  5
107
330
8B
100
AcDbEntity
  8
Make2D$可见线$普通线
100
AcDbVertex
100
AcDb2dVertex
 10
1520.831073466823
 20
1357.80633088262
 30
0.0
  0
VERTEX
  5
108
330
8B
100
AcDbEntity
  8
Make2D$可见线$普通线
100
AcDbVertex
100
AcDb2dVertex
 10
1520.686001489564
 20
1357.564358228446
 30
0.0
  0
VERTEX
  5
109
330
8B
100
AcDbEntity
  8
Make2D$可见线$普通线
100
AcDbVertex
100
AcDb2dVertex
 10
1520.547988303452
 20
1357.315816846909
 30
0.0
  0
VERTEX
  5
10A
330
8B
100
AcDbEntity
  8
Make2D$可见线$普通线
100
AcDbVertex
100
AcDb2dVertex
 10
1520.417204950219
 20
1357.060851205966
 30
0.0
  0
VERTEX
  5
10B
330
8B
100
AcDbEntity
  8
Make2D$可见线$普通线
100
AcDbVertex
100
AcDb2dVertex
 10
1520.29380967534
 20
1356.799734336761
 30
0.0
  0
VERTEX
  5
10C
330
8B
100
AcDbEntity
  8
Make2D$可见线$普通线
100
AcDbVertex
100
AcDb2dVertex
 10
1520.177957525221
 20
1356.532771411236
 30
0.0
  0
VERTEX
  5
10D
330
8B
100
AcDbEntity
  8
Make2D$可见线$普通线
100
AcDbVertex
100
AcDb2dVertex
 10
1520.069803546271
 20
1356.260267601334
 30
0.0
  0
VERTEX
  5
10E
330
8B
100
AcDbEntity
  8
Make2D$可见线$普通线
100
AcDbVertex
100
AcDb2dVertex
 10
1519.969502784897
 20
1355.982528078996
 30
0.0
  0
VERTEX
  5
10F
330
8B
100
AcDbEntity
  8
Make2D$可见线$普通线
100
AcDbVertex
100
AcDb2dVertex
 10
1519.877210287508
 20
1355.699858016164
 30
0.0
  0
VERTEX
  5
110
330
8B
100
AcDbEntity
  8
Make2D$可见线$普通线
100
AcDbVertex
100
AcDb2dVertex
 10
1519.793081100511
 20
1355.412562584781
 30
0.0
  0
VERTEX
  5
111
330
8B
100
AcDbEntity
  8
Make2D$可见线$普通线
100
AcDbVertex
100
AcDb2dVertex
 10
1519.717270270315
 20
1355.120946956789
 30
0.0
  0
VERTEX
  5
112
330
8B
100
AcDbEntity
  8
Make2D$可见线$普通线
100
AcDbVertex
100
AcDb2dVertex
 10
1519.649924437776
 20
1354.825248773328
 30
0.0
  0
VERTEX
  5
113
330
8B
100
AcDbEntity
  8
Make2D$可见线$普通线
100
AcDbVertex
100
AcDb2dVertex
 10
1519.59115652721
 20
1354.525435128392
 30
0.0
  0
VERTEX
  5
114
330
8B
100
AcDbEntity
  8
Make2D$可见线$普通线
100
AcDbVertex
100
AcDb2dVertex
 10
1519.54107106142
 20
1354.22140558326
 30
0.0
  0
VERTEX
  5
115
330
8B
100
AcDbEntity
  8
Make2D$可见线$普通线
100
AcDbVertex
100
AcDb2dVertex
 10
1519.499772563209
 20
1353.913059699212
 30
0.0
  0
VERTEX
  5
116
330
8B
100
AcDbEntity
  8
Make2D$可见线$普通线
100
AcDbVertex
100
AcDb2dVertex
 10
1519.467365555381
 20
1353.600297037524
 30
0.0
  0
VERTEX
  5
117
330
8B
100
AcDbEntity
  8
Make2D$可见线$普通线
100
AcDbVertex
100
AcDb2dVertex
 10
1519.443954560741
 20
1353.283017159476
 30
0.0
  0
VERTEX
  5
118
330
8B
100
AcDbEntity
  8
Make2D$可见线$普通线
100
AcDbVertex
100
AcDb2dVertex
 10
1519.429644102091
 20
1352.961119626347
 30
0.0
  0
VERTEX
  5
119
330
8B
100
AcDbEntity
  8
Make2D$可见线$普通线
100
AcDbVertex
100
AcDb2dVertex
 10
1519.424538702233
 20
1352.634503999414
 30
0.0
 42
0.0002641707041054
  0
VERTEX
  5
11A
330
8B
100
AcDbEntity
  8
Make2D$可见线$普通线
100
AcDbVertex
100
AcDb2dVertex
 10
1519.341299083546
 20
1242.943664613693
 30
0.0
 42
0.0005847388672402
  0
VERTEX
  5
11B
330
8B
100
AcDbEntity
  8
Make2D$可见线$普通线
100
AcDbVertex
100
AcDb2dVertex
 10
1519.570482752461
 20
999.2015897833662
 30
0.0
  0
VERTEX
  5
11C
330
8B
100
AcDbEntity
  8
Make2D$可见线$普通线
100
AcDbVertex
100
AcDb2dVertex
 10
1519.57588440339
 20
998.9033388431276
 30
0.0
  0
VERTEX
  5
11D
330
8B
100
AcDbEntity
  8
Make2D$可见线$普通线
100
AcDbVertex
100
AcDb2dVertex
 10
1519.590596538788
 20
998.6083935568274
 30
0.0
  0
VERTEX
  5
11E
330
8B
100
AcDbEntity
  8
Make2D$可见线$普通线
100
AcDbVertex
100
AcDb2dVertex
 10
1519.614557902767
 20
998.3166431907324
 30
0.0
  0
VERTEX
  5
11F
330
8B
100
AcDbEntity
  8
Make2D$可见线$普通线
100
AcDbVertex
100
AcDb2dVertex
 10
1519.64770723944
 20
998.0279770111096
 30
0.0
  0
VERTEX
  5
120
330
8B
100
AcDbEntity
  8
Make2D$可见线$普通线
100
AcDbVertex
100
AcDb2dVertex
 10
1519.689983292918
 20
997.7422842842257
 30
0.0
  0
VERTEX
  5
121
330
8B
100
AcDbEntity
  8
Make2D$可见线$普通线
100
AcDbVertex
100
AcDb2dVertex
 10
1519.741324807316
 20
997.4594542763477
 30
0.0
  0
VERTEX
  5
122
330
8B
100
AcDbEntity
  8
Make2D$可见线$普通线
100
AcDbVertex
100
AcDb2dVertex
 10
1519.801670526746
 20
997.1793762537425
 30
0.0
  0
VERTEX
  5
123
330
8B
100
AcDbEntity
  8
Make2D$可见线$普通线
100
AcDbVertex
100
AcDb2dVertex
 10
1519.870959195322
 20
996.9019394826769
 30
0.0
  0
VERTEX
  5
124
330
8B
100
AcDbEntity
  8
Make2D$可见线$普通线
100
AcDbVertex
100
AcDb2dVertex
 10
1519.949120067645
 20
996.627107059255
 30
0.0
  0
VERTEX
  5
125
330
8B
100
AcDbEntity
  8
Make2D$可见线$普通线
100
AcDbVertex
100
AcDb2dVertex
 10
1520.036044440287
 20
996.3551373989278
 30
0.0
  0
VERTEX
  5
126
330
8B
100
AcDbEntity
  8
Make2D$可见线$普通线
100
AcDbVertex
100
AcDb2dVertex
 10
1520.131614120305
 20
996.0863627469834
 30
0.0
  0
VERTEX
  5
127
330
8B
100
AcDbEntity
  8
Make2D$可见线$普通线
100
AcDbVertex
100
AcDb2dVertex
 10
1520.235710914761
 20
995.8211153487096
 30
0.0
  0
VERTEX
  5
128
330
8B
100
AcDbEntity
  8
Make2D$可见线$普通线
100
AcDbVertex
100
AcDb2dVertex
 10
1520.348216630714
 20
995.5597274493946
 30
0.0
  0
VERTEX
  5
129
330
8B
100
AcDbEntity
  8
Make2D$可见线$普通线
100
AcDbVertex
100
AcDb2dVertex
 10
1520.469013075223
 20
995.3025312943269
 30
0.0
  0
VERTEX
  5
12A
330
8B
100
AcDbEntity
  8
Make2D$可见线$普通线
100
AcDbVertex
100
AcDb2dVertex
 10
1520.597982055349
 20
995.0498591287942
 30
0.0
  0
VERTEX
  5
12B
330
8B
100
AcDbEntity
  8
Make2D$可见线$普通线
100
AcDbVertex
100
AcDb2dVertex
 10
1520.735005378151
 20
994.8020431980847
 30
0.0
  0
VERTEX
  5
12C
330
8B
100
AcDbEntity
  8
Make2D$可见线$普通线
100
AcDbVertex
100
AcDb2dVertex
 10
1520.879956786986
 20
994.5593893151422
 30
0.0
  0
VERTEX
  5
12D
330
8B
100
AcDbEntity
  8
Make2D$可见线$普通线
100
AcDbVertex
100
AcDb2dVertex
 10
1521.032677770396
 20
994.3220975635352
 30
0.0
  0
VERTEX
  5
12E
330
8B
100
AcDbEntity
  8
Make2D$可见线$普通线
100
AcDbVertex
100
AcDb2dVertex
 10
1521.19300175322
 20
994.0903415944877
 30
0.0
  0
VERTEX
  5
12F
330
8B
100
AcDbEntity
  8
Make2D$可见线$普通线
100
AcDbVertex
100
AcDb2dVertex
 10
1521.360762160296
 20
993.8642950592242
 30
0.0
  0
VERTEX
  5
130
330
8B
100
AcDbEntity
  8
Make2D$可见线$普通线
100
AcDbVertex
100
AcDb2dVertex
 10
1521.535792416464
 20
993.6441316089686
 30
0.0
  0
VERTEX
  5
131
330
8B
100
AcDbEntity
  8
Make2D$可见线$普通线
100
AcDbVertex
100
AcDb2dVertex
 10
1521.717925946562
 20
993.4300248949451
 30
0.0
  0
VERTEX
  5
132
330
8B
100
AcDbEntity
  8
Make2D$可见线$普通线
100
AcDbVertex
100
AcDb2dVertex
 10
1521.906996175429
 20
993.2221485683779
 30
0.0
  0
VERTEX
  5
133
330
8B
100
AcDbEntity
  8
Make2D$可见线$普通线
100
AcDbVertex
100
AcDb2dVertex
 10
1522.102836527905
 20
993.0206762804912
 30
0.0
  0
VERTEX
  5
134
330
8B
100
AcDbEntity
  8
Make2D$可见线$普通线
100
AcDbVertex
100
AcDb2dVertex
 10
1522.305279164441
 20
992.8257808541468
 30
0.0
  0
VERTEX
  5
135
330
8B
100
AcDbEntity
  8
Make2D$可见线$普通线
100
AcDbVertex
100
AcDb2dVertex
 10
1522.514151187946
 20
992.6376317987574
 30
0.0
  0
VERTEX
  5
136
330
8B
100
AcDbEntity
  8
Make2D$可见线$普通线
100
AcDbVertex
100
AcDb2dVertex
 10
1522.729278436943
 20
992.4563977953735
 30
0.0
  0
VERTEX
  5
137
330
8B
100
AcDbEntity
  8
Make2D$可见线$普通线
100
AcDbVertex
100
AcDb2dVertex
 10
1522.950486749953
 20
992.2822475250455
 30
0.0
  0
VERTEX
  5
138
330
8B
100
AcDbEntity
  8
Make2D$可见线$普通线
100
AcDbVertex
100
AcDb2dVertex
 10
1523.177601965499
 20
992.1153496688237
 30
0.0
  0
VERTEX
  5
139
330
8B
100
AcDbEntity
  8
Make2D$可见线$普通线
100
AcDbVertex
100
AcDb2dVertex
 10
1523.410449922102
 20
991.9558729077588
 30
0.0
  0
VERTEX
  5
13A
330
8B
100
AcDbEntity
  8
Make2D$可见线$普通线
100
AcDbVertex
100
AcDb2dVertex
 10
1523.648856458286
 20
991.8039859229011
 30
0.0
  0
VERTEX
  5
13B
330
8B
100
AcDbEntity
  8
Make2D$可见线$普通线
100
AcDbVertex
100
AcDb2dVertex
 10
1523.892647412573
 20
991.6598573953007
 30
0.0
  0
VERTEX
  5
13C
330
8B
100
AcDbEntity
  8
Make2D$可见线$普通线
100
AcDbVertex
100
AcDb2dVertex
 10
1524.141621739537
 20
991.5236477249675
 30
0.0
  0
VERTEX
  5
13D
330
8B
100
AcDbEntity
  8
Make2D$可见线$普通线
100
AcDbVertex
100
AcDb2dVertex
 10
1524.395470857965
 20
991.395484187746
 30
0.0
  0
VERTEX
  5
13E
330
8B
100
AcDbEntity
  8
Make2D$可见线$普通线
100
AcDbVertex
100
AcDb2dVertex
 10
1524.653859302695
 20
991.27548577844
 30
0.0
  0
VERTEX
  5
13F
330
8B
100
AcDbEntity
  8
Make2D$可见线$普通线
100
AcDbVertex
100
AcDb2dVertex
 10
1524.916451608566
 20
991.1637714918531
 30
0.0
  0
VERTEX
  5
140
330
8B
100
AcDbEntity
  8
Make2D$可见线$普通线
100
AcDbVertex
100
AcDb2dVertex
 10
1525.182912310417
 20
991.0604603227894
 30
0.0
  0
VERTEX
  5
141
330
8B
100
AcDbEntity
  8
Make2D$可见线$普通线
100
AcDbVertex
100
AcDb2dVertex
 10
1525.452905943087
 20
990.9656712660521
 30
0.0
  0
VERTEX
  5
142
330
8B
100
AcDbEntity
  8
Make2D$可见线$普通线
100
AcDbVertex
100
AcDb2dVertex
 10
1525.726097041415
 20
990.8795233164453
 30
0.0
  0
VERTEX
  5
143
330
8B
100
AcDbEntity
  8
Make2D$可见线$普通线
100
AcDbVertex
100
AcDb2dVertex
 10
1526.002150140239
 20
990.8021354687728
 30
0.0
  0
VERTEX
  5
144
330
8B
100
AcDbEntity
  8
Make2D$可见线$普通线
100
AcDbVertex
100
AcDb2dVertex
 10
1526.280804362932
 20
990.7336174217023
 30
0.0
  0
VERTEX
  5
145
330
8B
100
AcDbEntity
  8
Make2D$可见线$普通线
100
AcDbVertex
100
AcDb2dVertex
 10
1526.562097186998
 20
990.6740416893599
 30
0.0
  0
VERTEX
  5
146
330
8B
100
AcDbEntity
  8
Make2D$可见线$普通线
100
AcDbVertex
100
AcDb2dVertex
 10
1526.846140678478
 20
990.6234714897352
 30
0.0
  0
VERTEX
  5
147
330
8B
100
AcDbEntity
  8
Make2D$可见线$普通线
100
AcDbVertex
100
AcDb2dVertex
 10
1527.133046903409
 20
990.5819700408183
 30
0.0
  0
VERTEX
  5
148
330
8B
100
AcDbEntity
  8
Make2D$可见线$普通线
100
AcDbVertex
100
AcDb2dVertex
 10
1527.42292792783
 20
990.5496005605992
 30
0.0
  0
VERTEX
  5
149
330
8B
100
AcDbEntity
  8
Make2D$可见线$普通线
100
AcDbVertex
100
AcDb2dVertex
 10
1527.71589581778
 20
990.5264262670676
 30
0.0
  0
VERTEX
  5
14A
330
8B
100
AcDbEntity
  8
Make2D$可见线$普通线
100
AcDbVertex
100
AcDb2dVertex
 10
1528.012062639297
 20
990.5125103782138
 30
0.0
  0
VERTEX
  5
14B
330
8B
100
AcDbEntity
  8
Make2D$可见线$普通线
100
AcDbVertex
100
AcDb2dVertex
 10
1528.311540458421
 20
990.5079161120275
 30
0.0
  0
VERTEX
  5
14C
330
8B
100
AcDbEntity
  8
Make2D$可见线$普通线
100
AcDbVertex
100
AcDb2dVertex
 10
1736.196562877867
 20
990.6135652728062
 30
0.0
 42
0.0005103237043673
  0
VERTEX
  5
14D
330
8B
100
AcDbEntity
  8
Make2D$可见线$普通线
100
AcDbVertex
100
AcDb2dVertex
 10
1795.577932894895
 20
990.6521315490467
 30
0.0
 42
0.0004578097021646
  0
VERTEX
  5
14E
330
8B
100
AcDbEntity
  8
Make2D$可见线$普通线
100
AcDbVertex
100
AcDb2dVertex
 10
1835.591690368726
 20
990.7924292780808
 30
0.0
  0
VERTEX
  5
14F
330
8B
100
AcDbEntity
  8
Make2D$可见线$普通线
100
AcDbVertex
100
AcDb2dVertex
 10
1859.489442632022
 20
990.9116211013583
 30
0.0
  0
VERTEX
  5
150
330
8B
100
AcDbEntity
  8
Make2D$可见线$普通线
100
AcDbVertex
100
AcDb2dVertex
 10
1883.724370356024
 20
991.0499721173196
 30
0.0
  0
VERTEX
  5
151
330
8B
100
AcDbEntity
  8
Make2D$可见线$普通线
100
AcDbVertex
100
AcDb2dVertex
 10
1933.183534009802
 20
991.3492966587839
 30
0.0
  0
VERTEX
  5
152
330
8B
100
AcDbEntity
  8
Make2D$可见线$普通线
100
AcDbVertex
100
AcDb2dVertex
 10
1958.34929903744
 20
991.4901237019279
 30
0.0
  0
VERTEX
  5
153
330
8B
100
AcDbEntity
  8
Make2D$可见线$普通线
100
AcDbVertex
100
AcDb2dVertex
 10
1983.80346199583
 20
991.6105324959708
 30
0.0
  0
VERTEX
  5
154
330
8B
100
AcDbEntity
  8
Make2D$可见线$普通线
100
AcDbVertex
100
AcDb2dVertex
 10
1984.08421941293
 20
991.6149300261552
 30
0.0
  0
VERTEX
  5
155
330
8B
100
AcDbEntity
  8
Make2D$可见线$普通线
100
AcDbVertex
100
AcDb2dVertex
 10
1984.36479755967
 20
991.6263335421268
 30
0.0
  0
VERTEX
  5
156
330
8B
100
AcDbEntity
  8
Make2D$可见线$普通线
100
AcDbVertex
100
AcDb2dVertex
 10
1984.644996711191
 20
991.644823193671
 30
0.0
  0
VERTEX
  5
157
330
8B
100
AcDbEntity
  8
Make2D$可见线$普通线
100
AcDbVertex
100
AcDb2dVertex
 10
1984.924617142632
 20
991.6704791305735
 30
0.0
  0
VERTEX
  5
158
330
8B
100
AcDbEntity
  8
Make2D$可见线$普通线
100
AcDbVertex
100
AcDb2dVertex
 10
1985.203459129133
 20
991.7033815026203
 30
0.0
  0
VERTEX
  5
159
330
8B
100
AcDbEntity
  8
Make2D$可见线$普通线
100
AcDbVertex
100
AcDb2dVertex
 10
1985.481322945835
 20
991.7436104595971
 30
0.0
  0
VERTEX
  5
15A
330
8B
100
AcDbEntity
  8
Make2D$可见线$普通线
100
AcDbVertex
100
AcDb2dVertex
 10
1985.758008867876
 20
991.7912461512894
 30
0.0
  0
VERTEX
  5
15B
330
8B
100
AcDbEntity
  8
Make2D$可见线$普通线
100
AcDbVertex
100
AcDb2dVertex
 10
1986.033317170397
 20
991.8463687274831
 30
0.0
  0
VERTEX
  5
15C
330
8B
100
AcDbEntity
  8
Make2D$可见线$普通线
100
AcDbVertex
100
AcDb2dVertex
 10
1986.291634884338
 20
991.905308639305
 30
0.0
  0
VERTEX
  5
15D
330
8B
100
AcDbEntity
  8
Make2D$可见线$普通线
100
AcDbVertex
100
AcDb2dVertex
 10
1986.548335428403
 20
991.9710036203455
 30
0.0
  0
VERTEX
  5
15E
330
8B
100
AcDbEntity
  8
Make2D$可见线$普通线
100
AcDbVertex
100
AcDb2dVertex
 10
1986.803205931436
 20
992.043471861883
 30
0.0
  0
VERTEX
  5
15F
330
8B
100
AcDbEntity
  8
Make2D$可见线$普通线
100
AcDbVertex
100
AcDb2dVertex
 10
1987.056033522279
 20
992.1227315551953
 30
0.0
  0
VERTEX
  5
160
330
8B
100
AcDbEntity
  8
Make2D$可见线$普通线
100
AcDbVertex
100
AcDb2dVertex
 10
1987.306605329778
 20
992.2088008915606
 30
0.0
  0
VERTEX
  5
161
330
8B
100
AcDbEntity
  8
Make2D$可见线$普通线
100
AcDbVertex
100
AcDb2dVertex
 10
1987.554708482774
 20
992.301698062257
 30
0.0
  0
VERTEX
  5
162
330
8B
100
AcDbEntity
  8
Make2D$可见线$普通线
100
AcDbVertex
100
AcDb2dVertex
 10
1987.800130110112
 20
992.4014412585625
 30
0.0
  0
VERTEX
  5
163
330
8B
100
AcDbEntity
  8
Make2D$可见线$普通线
100
AcDbVertex
100
AcDb2dVertex
 10
1988.042657340634
 20
992.5080486717553
 30
0.0
  0
VERTEX
  5
164
330
8B
100
AcDbEntity
  8
Make2D$可见线$普通线
100
AcDbVertex
100
AcDb2dVertex
 10
1988.259124850009
 20
992.6103033406266
 30
0.0
  0
VERTEX
  5
165
330
8B
100
AcDbEntity
  8
Make2D$可见线$普通线
100
AcDbVertex
100
AcDb2dVertex
 10
1988.472825822545
 20
992.718228338784
 30
0.0
  0
VERTEX
  5
166
330
8B
100
AcDbEntity
  8
Make2D$可见线$普通线
100
AcDbVertex
100
AcDb2dVertex
 10
1988.683530748277
 20
992.8318746364389
 30
0.0
  0
VERTEX
  5
167
330
8B
100
AcDbEntity
  8
Make2D$可见线$普通线
100
AcDbVertex
100
AcDb2dVertex
 10
1988.89101011724
 20
992.951293203803
 30
0.0
  0
VERTEX
  5
168
330
8B
100
AcDbEntity
  8
Make2D$可见线$普通线
100
AcDbVertex
100
AcDb2dVertex
 10
1989.113285095669
 20
993.0881151225904
 30
0.0
  0
VERTEX
  5
169
330
8B
100
AcDbEntity
  8
Make2D$可见线$普通线
100
AcDbVertex
100
AcDb2dVertex
 10
1989.331175921071
 20
993.2318129332957
 30
0.0
  0
VERTEX
  5
16A
330
8B
100
AcDbEntity
  8
Make2D$可见线$普通线
100
AcDbVertex
100
AcDb2dVertex
 10
1989.544405732342
 20
993.3823400142887
 30
0.0
  0
VERTEX
  5
16B
330
8B
100
AcDbEntity
  8
Make2D$可见线$普通线
100
AcDbVertex
100
AcDb2dVertex
 10
1989.752697668374
 20
993.5396497439392
 30
0.0
  0
VERTEX
  5
16C
330
8B
100
AcDbEntity
  8
Make2D$可见线$普通线
100
AcDbVertex
100
AcDb2dVertex
 10
1989.947749939248
 20
993.6969889140096
 30
0.0
  0
VERTEX
  5
16D
330
8B
100
AcDbEntity
  8
Make2D$可见线$普通线
100
AcDbVertex
100
AcDb2dVertex
 10
1990.137739781031
 20
993.8604158554333
 30
0.0
  0
VERTEX
  5
16E
330
8B
100
AcDbEntity
  8
Make2D$可见线$普通线
100
AcDbVertex
100
AcDb2dVertex
 10
1990.322410492167
 20
994.0298106411457
 30
0.0
  0
VERTEX
  5
16F
330
8B
100
AcDbEntity
  8
Make2D$可见线$普通线
100
AcDbVertex
100
AcDb2dVertex
 10
1990.501505371098
 20
994.2050533440822
 30
0.0
  0
VERTEX
  5
170
330
8B
100
AcDbEntity
  8
Make2D$可见线$普通线
100
AcDbVertex
100
AcDb2dVertex
 10
1990.674767716267
 20
994.3860240371787
 30
0.0
  0
VERTEX
  5
171
330
8B
100
AcDbEntity
  8
Make2D$可见线$普通线
100
AcDbVertex
100
AcDb2dVertex
 10
1990.841940826117
 20
994.5726027933702
 30
0.0
  0
VERTEX
  5
172
330
8B
100
AcDbEntity
  8
Make2D$可见线$普通线
100
AcDbVertex
100
AcDb2dVertex
 10
1991.002767999091
 20
994.7646696855925
 30
0.0
  0
VERTEX
  5
173
330
8B
100
AcDbEntity
  8
Make2D$可见线$普通线
100
AcDbVertex
100
AcDb2dVertex
 10
1991.156992533632
 20
994.9621047867811
 30
0.0
  0
VERTEX
  5
174
330
8B
100
AcDbEntity
  8
Make2D$可见线$普通线
100
AcDbVertex
100
AcDb2dVertex
 10
1991.299612140021
 20
995.1579952210132
 30
0.0
  0
VERTEX
  5
175
330
8B
100
AcDbEntity
  8
Make2D$可见线$普通线
100
AcDbVertex
100
AcDb2dVertex
 10
1991.435628157586
 20
995.3585681055436
 30
0.0
  0
VERTEX
  5
176
330
8B
100
AcDbEntity
  8
Make2D$可见线$普通线
100
AcDbVertex
100
AcDb2dVertex
 10
1991.564850930496
 20
995.5635984027058
 30
0.0
  0
VERTEX
  5
177
330
8B
100
AcDbEntity
  8
Make2D$可见线$普通线
100
AcDbVertex
100
AcDb2dVertex
 10
1991.68709080292
 20
995.7728610748334
 30
0.0
  0
VERTEX
  5
178
330
8B
100
AcDbEntity
  8
Make2D$可见线$普通线
100
AcDbVertex
100
AcDb2dVertex
 10
1991.802158119027
 20
995.9861310842596
 30
0.0
  0
VERTEX
  5
179
330
8B
100
AcDbEntity
  8
Make2D$可见线$普通线
100
AcDbVertex
100
AcDb2dVertex
 10
1991.909863222987
 20
996.2031833933179
 30
0.0
  0
VERTEX
  5
17A
330
8B
100
AcDbEntity
  8
Make2D$可见线$普通线
100
AcDbVertex
100
AcDb2dVertex
 10
1992.010016458968
 20
996.4237929643418
 30
0.0
  0
VERTEX
  5
17B
330
8B
100
AcDbEntity
  8
Make2D$可见线$普通线
100
AcDbVertex
100
AcDb2dVertex
 10
1992.057201859019
 20
996.5353613988202
 30
0.0
  0
VERTEX
  5
17C
330
8B
100
AcDbEntity
  8
Make2D$可见线$普通线
100
AcDbVertex
100
AcDb2dVertex
 10
1992.10242817114
 20
996.6477347596649
 30
0.0
  0
VERTEX
  5
17D
330
8B
100
AcDbEntity
  8
Make2D$可见线$普通线
100
AcDbVertex
100
AcDb2dVertex
 10
1992.145611458215
 20
996.7607126146406
 30
0.0
  0
VERTEX
  5
17E
330
8B
100
AcDbEntity
  8
Make2D$可见线$普通线
100
AcDbVertex
100
AcDb2dVertex
 10
1992.186814586785
 20
996.8744287362732
 30
0.0
  0
VERTEX
  5
17F
330
8B
100
AcDbEntity
  8
Make2D$可见线$普通线
100
AcDbVertex
100
AcDb2dVertex
 10
1992.263267048395
 20
997.1039310093045
 30
0.0
  0
VERTEX
  5
180
330
8B
100
AcDbEntity
  8
Make2D$可见线$普通线
100
AcDbVertex
100
AcDb2dVertex
 10
1992.331758915941
 20
997.3359520383517
 30
0.0
  0
VERTEX
  5
181
330
8B
100
AcDbEntity
  8
Make2D$可见线$普通线
100
AcDbVertex
100
AcDb2dVertex
 10
1992.392263549398
 20
997.5702022830081
 30
0.0
  0
VERTEX
  5
182
330
8B
100
AcDbEntity
  8
Make2D$可见线$普通线
100
AcDbVertex
100
AcDb2dVertex
 10
1992.444754308739
 20
997.8063922028668
 30
0.0
  0
VERTEX
  5
183
330
8B
100
AcDbEntity
  8
Make2D$可见线$普通线
100
AcDbVertex
100
AcDb2dVertex
 10
1992.489204553937
 20
998.0442322575211
 30
0.0
  0
VERTEX
  5
184
330
8B
100
AcDbEntity
  8
Make2D$可见线$普通线
100
AcDbVertex
100
AcDb2dVertex
 10
1992.525587644966
 20
998.2834329065643
 30
0.0
  0
VERTEX
  5
185
330
8B
100
AcDbEntity
  8
Make2D$可见线$普通线
100
AcDbVertex
100
AcDb2dVertex
 10
1992.553876941799
 20
998.5237046095891
 30
0.0
  0
VERTEX
  5
186
330
8B
100
AcDbEntity
  8
Make2D$可见线$普通线
100
AcDbVertex
100
AcDb2dVertex
 10
1992.57449430554
 20
998.7711928592257
 30
0.0
  0
VERTEX
  5
187
330
8B
100
AcDbEntity
  8
Make2D$可见线$普通线
100
AcDbVertex
100
AcDb2dVertex
 10
1992.586659903027
 20
999.0192359321371
 30
0.0
  0
VERTEX
  5
188
330
8B
100
AcDbEntity
  8
Make2D$可见线$普通线
100
AcDbVertex
100
AcDb2dVertex
 10
1992.590480680954
 20
999.2675649579164
 30
0.0
  0
VERTEX
  5
189
330
8B
100
AcDbEntity
  8
Make2D$可见线$普通线
100
AcDbVertex
100
AcDb2dVertex
 10
1992.586063586019
 20
999.5159110661573
 30
0.0
  0
VERTEX
  5
18A
330
8B
100
AcDbEntity
  8
Make2D$可见线$普通线
100
AcDbVertex
100
AcDb2dVertex
 10
1992.573515564916
 20
999.764005386453
 30
0.0
  0
VERTEX
  5
18B
330
8B
100
AcDbEntity
  8
Make2D$可见线$普通线
100
AcDbVertex
100
AcDb2dVertex
 10
1992.552943564341
 20
1000.011579048397
 30
0.0
  0
VERTEX
  5
18C
330
8B
100
AcDbEntity
  8
Make2D$可见线$普通线
100
AcDbVertex
100
AcDb2dVertex
 10
1992.52445453099
 20
1000.258363181583
 30
0.0
  0
VERTEX
  5
18D
330
8B
100
AcDbEntity
  8
Make2D$可见线$普通线
100
AcDbVertex
100
AcDb2dVertex
 10
1992.488155411558
 20
1000.504088915605
 30
0.0
  0
VERTEX
  5
18E
330
8B
100
AcDbEntity
  8
Make2D$可见线$普通线
100
AcDbVertex
100
AcDb2dVertex
 10
1992.442545214295
 20
1000.756669008122
 30
0.0
  0
VERTEX
  5
18F
330
8B
100
AcDbEntity
  8
Make2D$可见线$普通线
100
AcDbVertex
100
AcDb2dVertex
 10
1992.388821027156
 20
1001.007622428443
 30
0.0
  0
VERTEX
  5
190
330
8B
100
AcDbEntity
  8
Make2D$可见线$普通线
100
AcDbVertex
100
AcDb2dVertex
 10
1992.327097131337
 20
1001.256740255403
 30
0.0
  0
VERTEX
  5
191
330
8B
100
AcDbEntity
  8
Make2D$可见线$普通线
100
AcDbVertex
100
AcDb2dVertex
 10
1992.257487808033
 20
1001.50381356784
 30
0.0
  0
VERTEX
  5
192
330
8B
100
AcDbEntity
  8
Make2D$可见线$普通线
100
AcDbVertex
100
AcDb2dVertex
 10
1992.186267248642
 20
1001.730199830143
 30
0.0
  0
VERTEX
  5
193
330
8B
100
AcDbEntity
  8
Make2D$可见线$普通线
100
AcDbVertex
100
AcDb2dVertex
 10
1992.108717034852
 20
1001.954522132806
 30
0.0
  0
VERTEX
  5
194
330
8B
100
AcDbEntity
  8
Make2D$可见线$普通线
100
AcDbVertex
100
AcDb2dVertex
 10
1992.025147306719
 20
1002.176641888486
 30
0.0
  0
VERTEX
  5
195
330
8B
100
AcDbEntity
  8
Make2D$可见线$普通线
100
AcDbVertex
100
AcDb2dVertex
 10
1991.935868204296
 20
1002.396420509839
 30
0.0
  0
VERTEX
  5
196
330
8B
100
AcDbEntity
  8
Make2D$可见线$普通线
100
AcDbVertex
100
AcDb2dVertex
 10
1980.47019289723
 20
1029.58239515547
 30
0.0
  0
VERTEX
  5
197
330
8B
100
AcDbEntity
  8
Make2D$可见线$普通线
100
AcDbVertex
100
AcDb2dVertex
 10
1968.292602972996
 20
1058.52660563983
 30
0.0
  0
VERTEX
  5
198
330
8B
100
AcDbEntity
  8
Make2D$可见线$普通线
100
AcDbVertex
100
AcDb2dVertex
 10
1955.377703613941
 20
1089.28668425188
 30
0.0
  0
VERTEX
  5
199
330
8B
100
AcDbEntity
  8
Make2D$可见线$普通线
100
AcDbVertex
100
AcDb2dVertex
 10
1913.145026391931
 20
1189.967481197286
 30
0.0
  0
VERTEX
  5
19A
330
8B
100
AcDbEntity
  8
Make2D$可见线$普通线
100
AcDbVertex
100
AcDb2dVertex
 10
1900.941719276468
 20
1218.997891866565
 30
0.0
  0
VERTEX
  5
19B
330
8B
100
AcDbEntity
  8
Make2D$可见线$普通线
100
AcDbVertex
100
AcDb2dVertex
 10
1890.875999224061
 20
1242.872094530171
 30
0.0
 42
0.0018198194944869
  0
VERTEX
  5
19C
330
8B
100
AcDbEntity
  8
Make2D$可见线$普通线
100
AcDbVertex
100
AcDb2dVertex
 10
1869.705572130018
 20
1292.943808706212
 30
0.0
  0
VERTEX
  5
19D
330
8B
100
AcDbEntity
  8
Make2D$可见线$普通线
100
AcDbVertex
100
AcDb2dVertex
 10
1859.264593260958
 20
1317.264617821997
 30
0.0
 42
0.0085817109770893
  0
VERTEX
  5
19E
330
8B
100
AcDbEntity
  8
Make2D$可见线$普通线
100
AcDbVertex
100
AcDb2dVertex
 10
1858.690672940306
 20
1318.533593180428
 30
0.0
  0
SEQEND
  5
19F
330
8B
100
AcDbEntity
  8
Make2D$可见线$普通线
  0
POLYLINE
  5
1A0
330
1F
100
AcDbEntity
  8
Make2D$可见线$普通线
100
AcDb2dPolyline
 66
     1
 10
0.0
 20
0.0
 30
0.0
  0
VERTEX
  5
1A1
330
1A0
100
AcDbEntity
  8
Make2D$可见线$普通线
100
AcDbVertex
100
AcDb2dVertex
 10
1512.788357578424
 20
963.3765619502797
 30
0.0
  0
VERTEX
  5
1A2
330
1A0
100
AcDbEntity
  8
Make2D$可见线$普通线
100
AcDbVertex
100
AcDb2dVertex
 10
1512.313304588853
 20
963.381208132146
 30
0.0
  0
VERTEX
  5
1A3
330
1A0
100
AcDbEntity
  8
Make2D$可见线$普通线
100
AcDbVertex
100
AcDb2dVertex
 10
1511.838431340626
 20
963.3960324674212
 30
0.0
  0
VERTEX
  5
1A4
330
1A0
100
AcDbEntity
  8
Make2D$可见线$普通线
100
AcDbVertex
100
AcDb2dVertex
 10
1511.36399373401
 20
963.4212499781154
 30
0.0
  0
VERTEX
  5
1A5
330
1A0
100
AcDbEntity
  8
Make2D$可见线$普通线
100
AcDbVertex
100
AcDb2dVertex
 10
1510.890247669269
 20
963.4570756862388
 30
0.0
  0
VERTEX
  5
1A6
330
1A0
100
AcDbEntity
  8
Make2D$可见线$普通线
100
AcDbVertex
100
AcDb2dVertex
 10
1510.369122462429
 20
963.509065917239
 30
0.0
  0
VERTEX
  5
1A7
330
1A0
100
AcDbEntity
  8
Make2D$可见线$普通线
100
AcDbVertex
100
AcDb2dVertex
 10
1509.849479716266
 20
963.574184300888
 30
0.0
  0
VERTEX
  5
1A8
330
1A0
100
AcDbEntity
  8
Make2D$可见线$普通线
100
AcDbVertex
100
AcDb2dVertex
 10
1509.331650595022
 20
963.6524070163412
 30
0.0
  0
VERTEX
  5
1A9
330
1A0
100
AcDbEntity
  8
Make2D$可见线$普通线
100
AcDbVertex
100
AcDb2dVertex
 10
1508.815966262939
 20
963.7437102427547
 30
0.0
  0
VERTEX
  5
1AA
330
1A0
100
AcDbEntity
  8
Make2D$可见线$普通线
100
AcDbVertex
100
AcDb2dVertex
 10
1508.308809616284
 20
963.8467499210233
 30
0.0
  0
VERTEX
  5
1AB
330
1A0
100
AcDbEntity
  8
Make2D$可见线$普通线
100
AcDbVertex
100
AcDb2dVertex
 10
1507.804386123365
 20
963.9624557555112
 30
0.0
  0
VERTEX
  5
1AC
330
1A0
100
AcDbEntity
  8
Make2D$可见线$普通线
100
AcDbVertex
100
AcDb2dVertex
 10
1507.303011189651
 20
964.0907441512487
 30
0.0
  0
VERTEX
  5
1AD
330
1A0
100
AcDbEntity
  8
Make2D$可见线$普通线
100
AcDbVertex
100
AcDb2dVertex
 10
1506.805000220616
 20
964.2315315132669
 30
0.0
  0
VERTEX
  5
1AE
330
1A0
100
AcDbEntity
  8
Make2D$可见线$普通线
100
AcDbVertex
100
AcDb2dVertex
 10
1506.310668621728
 20
964.3847342465959
 30
0.0
  0
VERTEX
  5
1AF
330
1A0
100
AcDbEntity
  8
Make2D$可见线$普通线
100
AcDbVertex
100
AcDb2dVertex
 10
1505.82033179846
 20
964.5502687562667
 30
0.0
  0
VERTEX
  5
1B0
330
1A0
100
AcDbEntity
  8
Make2D$可见线$普通线
100
AcDbVertex
100
AcDb2dVertex
 10
1505.334305156282
 20
964.7280514473099
 30
0.0
  0
VERTEX
  5
1B1
330
1A0
100
AcDbEntity
  8
Make2D$可见线$普通线
100
AcDbVertex
100
AcDb2dVertex
 10
1504.852904100665
 20
964.917998724756
 30
0.0
  0
VERTEX
  5
1B2
330
1A0
100
AcDbEntity
  8
Make2D$可见线$普通线
100
AcDbVertex
100
AcDb2dVertex
 10
1504.435433895028
 20
965.0942548295836
 30
0.0
  0
VERTEX
  5
1B3
330
1A0
100
AcDbEntity
  8
Make2D$可见线$普通线
100
AcDbVertex
100
AcDb2dVertex
 10
1504.022007902577
 20
965.2797847373553
 30
0.0
  0
VERTEX
  5
1B4
330
1A0
100
AcDbEntity
  8
Make2D$可见线$普通线
100
AcDbVertex
100
AcDb2dVertex
 10
1503.612882030134
 20
965.47459963808
 30
0.0
  0
VERTEX
  5
1B5
330
1A0
100
AcDbEntity
  8
Make2D$可见线$普通线
100
AcDbVertex
100
AcDb2dVertex
 10
1503.208312184521
 20
965.6787107217675
 30
0.0
  0
VERTEX
  5
1B6
330
1A0
100
AcDbEntity
  8
Make2D$可见线$普通线
100
AcDbVertex
100
AcDb2dVertex
 10
1502.764361918229
 20
965.9164299800075
 30
0.0
  0
VERTEX
  5
1B7
330
1A0
100
AcDbEntity
  8
Make2D$可见线$普通线
100
AcDbVertex
100
AcDb2dVertex
 10
1502.326658604101
 20
966.165485853327
 30
0.0
  0
VERTEX
  5
1B8
330
1A0
100
AcDbEntity
  8
Make2D$可见线$普通线
100
AcDbVertex
100
AcDb2dVertex
 10
1501.895506510074
 20
966.4257204553172
 30
0.0
  0
VERTEX
  5
1B9
330
1A0
100
AcDbEntity
  8
Make2D$可见线$普通线
100
AcDbVertex
100
AcDb2dVertex
 10
1501.471209904087
 20
966.6969758995691
 30
0.0
  0
VERTEX
  5
1BA
330
1A0
100
AcDbEntity
  8
Make2D$可见线$普通线
100
AcDbVertex
100
AcDb2dVertex
 10
1501.056876949182
 20
966.9771277359398
 30
0.0
  0
VERTEX
  5
1BB
330
1A0
100
AcDbEntity
  8
Make2D$可见线$普通线
100
AcDbVertex
100
AcDb2dVertex
 10
1500.649845749047
 20
967.2677780970671
 30
0.0
  0
VERTEX
  5
1BC
330
1A0
100
AcDbEntity
  8
Make2D$可见线$普通线
100
AcDbVertex
100
AcDb2dVertex
 10
1500.25035541481
 20
967.5687098930425
 30
0.0
  0
VERTEX
  5
1BD
330
1A0
100
AcDbEntity
  8
Make2D$可见线$普通线
100
AcDbVertex
100
AcDb2dVertex
 10
1499.858645057593
 20
967.8797060339582
 30
0.0
  0
VERTEX
  5
1BE
330
1A0
100
AcDbEntity
  8
Make2D$可见线$普通线
100
AcDbVertex
100
AcDb2dVertex
 10
1499.474953788522
 20
968.2005494299055
 30
0.0
  0
VERTEX
  5
1BF
330
1A0
100
AcDbEntity
  8
Make2D$可见线$普通线
100
AcDbVertex
100
AcDb2dVertex
 10
1499.099520718721
 20
968.5310229909768
 30
0.0
  0
VERTEX
  5
1C0
330
1A0
100
AcDbEntity
  8
Make2D$可见线$普通线
100
AcDbVertex
100
AcDb2dVertex
 10
1498.732584959315
 20
968.8709096272635
 30
0.0
  0
VERTEX
  5
1C1
330
1A0
100
AcDbEntity
  8
Make2D$可见线$普通线
100
AcDbVertex
100
AcDb2dVertex
 10
1498.374385621428
 20
969.2199922488574
 30
0.0
  0
VERTEX
  5
1C2
330
1A0
100
AcDbEntity
  8
Make2D$可见线$普通线
100
AcDbVertex
100
AcDb2dVertex
 10
1498.025001333745
 20
969.5782151485317
 30
0.0
  0
VERTEX
  5
1C3
330
1A0
100
AcDbEntity
  8
Make2D$可见线$普通线
100
AcDbVertex
100
AcDb2dVertex
 10
1497.684818575141
 20
969.9451860633471
 30
0.0
  0
VERTEX
  5
1C4
330
1A0
100
AcDbEntity
  8
Make2D$可见线$普通线
100
AcDbVertex
100
AcDb2dVertex
 10
1497.354055169209
 20
970.3206659371391
 30
0.0
  0
VERTEX
  5
1C5
330
1A0
100
AcDbEntity
  8
Make2D$可见线$普通线
100
AcDbVertex
100
AcDb2dVertex
 10
1497.032928939538
 20
970.7044157137433
 30
0.0
  0
VERTEX
  5
1C6
330
1A0
100
AcDbEntity
  8
Make2D$可见线$普通线
100
AcDbVertex
100
AcDb2dVertex
 10
1496.721657709721
 20
971.0961963369955
 30
0.0
  0
VERTEX
  5
1C7
330
1A0
100
AcDbEntity
  8
Make2D$可见线$普通线
100
AcDbVertex
100
AcDb2dVertex
 10
1496.420459303349
 20
971.4957687507315
 30
0.0
  0
VERTEX
  5
1C8
330
1A0
100
AcDbEntity
  8
Make2D$可见线$普通线
100
AcDbVertex
100
AcDb2dVertex
 10
1496.129551544013
 20
971.9028938987869
 30
0.0
  0
VERTEX
  5
1C9
330
1A0
100
AcDbEntity
  8
Make2D$可见线$普通线
100
AcDbVertex
100
AcDb2dVertex
 10
1495.849152255304
 20
972.3173327249974
 30
0.0
  0
VERTEX
  5
1CA
330
1A0
100
AcDbEntity
  8
Make2D$可见线$普通线
100
AcDbVertex
100
AcDb2dVertex
 10
1495.577642676505
 20
972.7417690363638
 30
0.0
  0
VERTEX
  5
1CB
330
1A0
100
AcDbEntity
  8
Make2D$可见线$普通线
100
AcDbVertex
100
AcDb2dVertex
 10
1495.317154279901
 20
973.1730673995705
 30
0.0
  0
VERTEX
  5
1CC
330
1A0
100
AcDbEntity
  8
Make2D$可见线$普通线
100
AcDbVertex
100
AcDb2dVertex
 10
1495.067833344155
 20
973.6109172278843
 30
0.0
  0
VERTEX
  5
1CD
330
1A0
100
AcDbEntity
  8
Make2D$可见线$普通线
100
AcDbVertex
100
AcDb2dVertex
 10
1494.829826147929
 20
974.0550079345712
 30
0.0
  0
VERTEX
  5
1CE
330
1A0
100
AcDbEntity
  8
Make2D$可见线$普通线
100
AcDbVertex
100
AcDb2dVertex
 10
1494.625593177581
 20
974.4593648807746
 30
0.0
  0
VERTEX
  5
1CF
330
1A0
100
AcDbEntity
  8
Make2D$可见线$普通线
100
AcDbVertex
100
AcDb2dVertex
 10
1494.430628949031
 20
974.8682676071707
 30
0.0
  0
VERTEX
  5
1D0
330
1A0
100
AcDbEntity
  8
Make2D$可见线$普通线
100
AcDbVertex
100
AcDb2dVertex
 10
1494.244937830703
 20
975.281467797198
 30
0.0
  0
VERTEX
  5
1D1
330
1A0
100
AcDbEntity
  8
Make2D$可见线$普通线
100
AcDbVertex
100
AcDb2dVertex
 10
1494.068524191018
 20
975.6987171342953
 30
0.0
  0
VERTEX
  5
1D2
330
1A0
100
AcDbEntity
  8
Make2D$可见线$普通线
100
AcDbVertex
100
AcDb2dVertex
 10
1493.878399231087
 20
976.179924539807
 30
0.0
  0
VERTEX
  5
1D3
330
1A0
100
AcDbEntity
  8
Make2D$可见线$普通线
100
AcDbVertex
100
AcDb2dVertex
 10
1493.700459302175
 20
976.6657721526963
 30
0.0
  0
VERTEX
  5
1D4
330
1A0
100
AcDbEntity
  8
Make2D$可见线$普通线
100
AcDbVertex
100
AcDb2dVertex
 10
1493.534781096702
 20
977.1559419276967
 30
0.0
  0
VERTEX
  5
1D5
330
1A0
100
AcDbEntity
  8
Make2D$可见线$普通线
100
AcDbVertex
100
AcDb2dVertex
 10
1493.381441307089
 20
977.6501158195422
 30
0.0
  0
VERTEX
  5
1D6
330
1A0
100
AcDbEntity
  8
Make2D$可见线$普通线
100
AcDbVertex
100
AcDb2dVertex
 10
1493.240516625755
 20
978.1479757829663
 30
0.0
  0
VERTEX
  5
1D7
330
1A0
100
AcDbEntity
  8
Make2D$可见线$普通线
100
AcDbVertex
100
AcDb2dVertex
 10
1493.112083745121
 20
978.649203772703
 30
0.0
  0
VERTEX
  5
1D8
330
1A0
100
AcDbEntity
  8
Make2D$可见线$普通线
100
AcDbVertex
100
AcDb2dVertex
 10
1492.996219357608
 20
979.1534817434862
 30
0.0
  0
VERTEX
  5
1D9
330
1A0
100
AcDbEntity
  8
Make2D$可见线$普通线
100
AcDbVertex
100
AcDb2dVertex
 10
1492.893000155634
 20
979.6604916500495
 30
0.0
  0
VERTEX
  5
1DA
330
1A0
100
AcDbEntity
  8
Make2D$可见线$普通线
100
AcDbVertex
100
AcDb2dVertex
 10
1492.801319408032
 20
980.1770573649792
 30
0.0
  0
VERTEX
  5
1DB
330
1A0
100
AcDbEntity
  8
Make2D$可见线$普通线
100
AcDbVertex
100
AcDb2dVertex
 10
1492.722750165231
 20
980.6957759148735
 30
0.0
  0
VERTEX
  5
1DC
330
1A0
100
AcDbEntity
  8
Make2D$可见线$普通线
100
AcDbVertex
100
AcDb2dVertex
 10
1492.657323653904
 20
981.2163182401696
 30
0.0
  0
VERTEX
  5
1DD
330
1A0
100
AcDbEntity
  8
Make2D$可见线$普通线
100
AcDbVertex
100
AcDb2dVertex
 10
1492.605071100722
 20
981.7383552813045
 30
0.0
  0
VERTEX
  5
1DE
330
1A0
100
AcDbEntity
  8
Make2D$可见线$普通线
100
AcDbVertex
100
AcDb2dVertex
 10
1492.569022246911
 20
982.2134360296577
 30
0.0
  0
VERTEX
  5
1DF
330
1A0
100
AcDbEntity
  8
Make2D$可见线$普通线
100
AcDbVertex
100
AcDb2dVertex
 10
1492.543659012846
 20
982.6892165794031
 30
0.0
  0
VERTEX
  5
1E0
330
1A0
100
AcDbEntity
  8
Make2D$可见线$普通线
100
AcDbVertex
100
AcDb2dVertex
 10
1492.52877729271
 20
983.1654354673142
 30
0.0
  0
VERTEX
  5
1E1
330
1A0
100
AcDbEntity
  8
Make2D$可见线$普通线
100
AcDbVertex
100
AcDb2dVertex
 10
1492.524172980683
 20
983.6418312301645
 30
0.0
 42
0.0006144300104624
  0
VERTEX
  5
1E2
330
1A0
100
AcDbEntity
  8
Make2D$可见线$普通线
100
AcDbVertex
100
AcDb2dVertex
 10
1492.526603586826
 20
1386.266383199052
 30
0.0
  0
VERTEX
  5
1E3
330
1A0
100
AcDbEntity
  8
Make2D$可见线$普通线
100
AcDbVertex
100
AcDb2dVertex
 10
1492.531223208235
 20
1386.807931079925
 30
0.0
  0
VERTEX
  5
1E4
330
1A0
100
AcDbEntity
  8
Make2D$可见线$普通线
100
AcDbVertex
100
AcDb2dVertex
 10
1492.546979829108
 20
1387.349303224713
 30
0.0
  0
VERTEX
  5
1E5
330
1A0
100
AcDbEntity
  8
Make2D$可见线$普通线
100
AcDbVertex
100
AcDb2dVertex
 10
1492.573987073923
 20
1387.890239747475
 30
0.0
  0
VERTEX
  5
1E6
330
1A0
100
AcDbEntity
  8
Make2D$可见线$普通线
100
AcDbVertex
100
AcDb2dVertex
 10
1492.612358567159
 20
1388.430480762274
 30
0.0
  0
VERTEX
  5
1E7
330
1A0
100
AcDbEntity
  8
Make2D$可见线$普通线
100
AcDbVertex
100
AcDb2dVertex
 10
1492.662207933295
 20
1388.969766383168
 30
0.0
  0
VERTEX
  5
1E8
330
1A0
100
AcDbEntity
  8
Make2D$可见线$普通线
100
AcDbVertex
100
AcDb2dVertex
 10
1492.723648796811
 20
1389.507836724219
 30
0.0
  0
VERTEX
  5
1E9
330
1A0
100
AcDbEntity
  8
Make2D$可见线$普通线
100
AcDbVertex
100
AcDb2dVertex
 10
1492.796794782185
 20
1390.044431899488
 30
0.0
  0
VERTEX
  5
1EA
330
1A0
100
AcDbEntity
  8
Make2D$可见线$普通线
100
AcDbVertex
100
AcDb2dVertex
 10
1492.881759513896
 20
1390.579292023035
 30
0.0
  0
VERTEX
  5
1EB
330
1A0
100
AcDbEntity
  8
Make2D$可见线$普通线
100
AcDbVertex
100
AcDb2dVertex
 10
1492.972001781367
 20
1391.077683900717
 30
0.0
  0
VERTEX
  5
1EC
330
1A0
100
AcDbEntity
  8
Make2D$可见线$普通线
100
AcDbVertex
100
AcDb2dVertex
 10
1493.072703718814
 20
1391.574082074265
 30
0.0
  0
VERTEX
  5
1ED
330
1A0
100
AcDbEntity
  8
Make2D$可见线$普通线
100
AcDbVertex
100
AcDb2dVertex
 10
1493.183889086474
 20
1392.068237588318
 30
0.0
  0
VERTEX
  5
1EE
330
1A0
100
AcDbEntity
  8
Make2D$可见线$普通线
100
AcDbVertex
100
AcDb2dVertex
 10
1493.305581644584
 20
1392.559901487516
 30
0.0
  0
VERTEX
  5
1EF
330
1A0
100
AcDbEntity
  8
Make2D$可见线$普通线
100
AcDbVertex
100
AcDb2dVertex
 10
1493.437805153382
 20
1393.0488248165
 30
0.0
  0
VERTEX
  5
1F0
330
1A0
100
AcDbEntity
  8
Make2D$可见线$普通线
100
AcDbVertex
100
AcDb2dVertex
 10
1493.580583373105
 20
1393.53475861991
 30
0.0
  0
VERTEX
  5
1F1
330
1A0
100
AcDbEntity
  8
Make2D$可见线$普通线
100
AcDbVertex
100
AcDb2dVertex
 10
1493.73394006399
 20
1394.017453942387
 30
0.0
  0
VERTEX
  5
1F2
330
1A0
100
AcDbEntity
  8
Make2D$可见线$普通线
100
AcDbVertex
100
AcDb2dVertex
 10
1493.897898986274
 20
1394.49666182857
 30
0.0
  0
VERTEX
  5
1F3
330
1A0
100
AcDbEntity
  8
Make2D$可见线$普通线
100
AcDbVertex
100
AcDb2dVertex
 10
1494.064294010918
 20
1394.950507928797
 30
0.0
  0
VERTEX
  5
1F4
330
1A0
100
AcDbEntity
  8
Make2D$可见线$普通线
100
AcDbVertex
100
AcDb2dVertex
 10
1494.240442108934
 20
1395.400661545511
 30
0.0
  0
VERTEX
  5
1F5
330
1A0
100
AcDbEntity
  8
Make2D$可见线$普通线
100
AcDbVertex
100
AcDb2dVertex
 10
1494.42641806688
 20
1395.846833347703
 30
0.0
  0
VERTEX
  5
1F6
330
1A0
100
AcDbEntity
  8
Make2D$可见线$普通线
100
AcDbVertex
100
AcDb2dVertex
 10
1494.622296671313
 20
1396.288734004367
 30
0.0
  0
VERTEX
  5
1F7
330
1A0
100
AcDbEntity
  8
Make2D$可见线$普通线
100
AcDbVertex
100
AcDb2dVertex
 10
1494.846163197968
 20
1396.763171781308
 30
0.0
  0
VERTEX
  5
1F8
330
1A0
100
AcDbEntity
  8
Make2D$可见线$普通线
100
AcDbVertex
100
AcDb2dVertex
 10
1495.081768200432
 20
1397.231883098145
 30
0.0
  0
VERTEX
  5
1F9
330
1A0
100
AcDbEntity
  8
Make2D$可见线$普通线
100
AcDbVertex
100
AcDb2dVertex
 10
1495.329097459995
 20
1397.6945134063
 30
0.0
  0
VERTEX
  5
1FA
330
1A0
100
AcDbEntity
  8
Make2D$可见线$普通线
100
AcDbVertex
100
AcDb2dVertex
 10
1495.58813675795
 20
1398.150708157195
 30
0.0
  0
VERTEX
  5
1FB
330
1A0
100
AcDbEntity
  8
Make2D$可见线$普通线
100
AcDbVertex
100
AcDb2dVertex
 10
1495.845254435429
 20
1398.578144569523
 30
0.0
  0
VERTEX
  5
1FC
330
1A0
100
AcDbEntity
  8
Make2D$可见线$普通线
100
AcDbVertex
100
AcDb2dVertex
 10
1496.112853535699
 20
1398.999112759772
 30
0.0
  0
VERTEX
  5
1FD
330
1A0
100
AcDbEntity
  8
Make2D$可见线$普通线
100
AcDbVertex
100
AcDb2dVertex
 10
1496.390843089604
 20
1399.413282396341
 30
0.0
  0
VERTEX
  5
1FE
330
1A0
100
AcDbEntity
  8
Make2D$可见线$普通线
100
AcDbVertex
100
AcDb2dVertex
 10
1496.679132127986
 20
1399.82032314763
 30
0.0
  0
VERTEX
  5
1FF
330
1A0
100
AcDbEntity
  8
Make2D$可见线$普通线
100
AcDbVertex
100
AcDb2dVertex
 10
1496.97762968169
 20
1400.219904682039
 30
0.0
  0
VERTEX
  5
200
330
1A0
100
AcDbEntity
  8
Make2D$可见线$普通线
100
AcDbVertex
100
AcDb2dVertex
 10
1497.286244781559
 20
1400.611696667968
 30
0.0
  0
VERTEX
  5
201
330
1A0
100
AcDbEntity
  8
Make2D$可见线$普通线
100
AcDbVertex
100
AcDb2dVertex
 10
1497.604886458437
 20
1400.995368773817
 30
0.0
  0
VERTEX
  5
202
330
1A0
100
AcDbEntity
  8
Make2D$可见线$普通线
100
AcDbVertex
100
AcDb2dVertex
 10
1497.933463743166
 20
1401.370590667985
 30
0.0
  0
VERTEX
  5
203
330
1A0
100
AcDbEntity
  8
Make2D$可见线$普通线
100
AcDbVertex
100
AcDb2dVertex
 10
1498.254680666612
 20
1401.718886890469
 30
0.0
  0
VERTEX
  5
204
330
1A0
100
AcDbEntity
  8
Make2D$可见线$普通线
100
AcDbVertex
100
AcDb2dVertex
 10
1498.58460433279
 20
1402.058979932972
 30
0.0
  0
VERTEX
  5
205
330
1A0
100
AcDbEntity
  8
Make2D$可见线$普通线
100
AcDbVertex
100
AcDb2dVertex
 10
1498.923058615087
 20
1402.390589345964
 30
0.0
  0
VERTEX
  5
206
330
1A0
100
AcDbEntity
  8
Make2D$可见线$普通线
100
AcDbVertex
100
AcDb2dVertex
 10
1499.269867386887
 20
1402.713434679915
 30
0.0
  0
VERTEX
  5
207
330
1A0
100
AcDbEntity
  8
Make2D$可见线$普通线
100
AcDbVertex
100
AcDb2dVertex
 10
1499.624854521576
 20
1403.027235485294
 30
0.0
  0
VERTEX
  5
208
330
1A0
100
AcDbEntity
  8
Make2D$可见线$普通线
100
AcDbVertex
100
AcDb2dVertex
 10
1499.987843892539
 20
1403.331711312571
 30
0.0
  0
VERTEX
  5
209
330
1A0
100
AcDbEntity
  8
Make2D$可见线$普通线
100
AcDbVertex
100
AcDb2dVertex
 10
1500.358659373163
 20
1403.626581712215
 30
0.0
  0
VERTEX
  5
20A
330
1A0
100
AcDbEntity
  8
Make2D$可见线$普通线
100
AcDbVertex
100
AcDb2dVertex
 10
1500.737124836832
 20
1403.911566234694
 30
0.0
  0
VERTEX
  5
20B
330
1A0
100
AcDbEntity
  8
Make2D$可见线$普通线
100
AcDbVertex
100
AcDb2dVertex
 10
1501.133986945099
 20
1404.193968117524
 30
0.0
  0
VERTEX
  5
20C
330
1A0
100
AcDbEntity
  8
Make2D$可见线$普通线
100
AcDbVertex
100
AcDb2dVertex
 10
1501.538437756999
 20
1404.465420352008
 30
0.0
  0
VERTEX
  5
20D
330
1A0
100
AcDbEntity
  8
Make2D$可见线$普通线
100
AcDbVertex
100
AcDb2dVertex
 10
1501.950166520707
 20
1404.725718538343
 30
0.0
  0
VERTEX
  5
20E
330
1A0
100
AcDbEntity
  8
Make2D$可见线$普通线
100
AcDbVertex
100
AcDb2dVertex
 10
1502.368862484394
 20
1404.974658276727
 30
0.0
  0
VERTEX
  5
20F
330
1A0
100
AcDbEntity
  8
Make2D$可见线$普通线
100
AcDbVertex
100
AcDb2dVertex
 10
1502.794214896236
 20
1405.212035167357
 30
0.0
  0
VERTEX
  5
210
330
1A0
100
AcDbEntity
  8
Make2D$可见线$普通线
100
AcDbVertex
100
AcDb2dVertex
 10
1503.225913004403
 20
1405.43764481043
 30
0.0
  0
VERTEX
  5
211
330
1A0
100
AcDbEntity
  8
Make2D$可见线$普通线
100
AcDbVertex
100
AcDb2dVertex
 10
1503.663646057069
 20
1405.651282806143
 30
0.0
  0
VERTEX
  5
212
330
1A0
100
AcDbEntity
  8
Make2D$可见线$普通线
100
AcDbVertex
100
AcDb2dVertex
 10
1504.107103302408
 20
1405.852744754694
 30
0.0
  0
VERTEX
  5
213
330
1A0
100
AcDbEntity
  8
Make2D$可见线$普通线
100
AcDbVertex
100
AcDb2dVertex
 10
1504.533637339548
 20
1406.032786442031
 30
0.0
  0
VERTEX
  5
214
330
1A0
100
AcDbEntity
  8
Make2D$可见线$普通线
100
AcDbVertex
100
AcDb2dVertex
 10
1504.964750153791
 20
1406.201588111674
 30
0.0
  0
VERTEX
  5
215
330
1A0
100
AcDbEntity
  8
Make2D$可见线$普通线
100
AcDbVertex
100
AcDb2dVertex
 10
1505.400129460028
 20
1406.359095521867
 30
0.0
  0
VERTEX
  5
216
330
1A0
100
AcDbEntity
  8
Make2D$可见线$普通线
100
AcDbVertex
100
AcDb2dVertex
 10
1505.839462973147
 20
1406.505254430855
 30
0.0
  0
VERTEX
  5
217
330
1A0
100
AcDbEntity
  8
Make2D$可见线$普通线
100
AcDbVertex
100
AcDb2dVertex
 10
1506.282438408037
 20
1406.640010596886
 30
0.0
  0
VERTEX
  5
218
330
1A0
100
AcDbEntity
  8
Make2D$可见线$普通线
100
AcDbVertex
100
AcDb2dVertex
 10
1506.728743479586
 20
1406.763309778205
 30
0.0
  0
VERTEX
  5
219
330
1A0
100
AcDbEntity
  8
Make2D$可见线$普通线
100
AcDbVertex
100
AcDb2dVertex
 10
1507.178065902684
 20
1406.875097733056
 30
0.0
  0
VERTEX
  5
21A
330
1A0
100
AcDbEntity
  8
Make2D$可见线$普通线
100
AcDbVertex
100
AcDb2dVertex
 10
1507.630093392219
 20
1406.975320219688
 30
0.0
  0
VERTEX
  5
21B
330
1A0
100
AcDbEntity
  8
Make2D$可见线$普通线
100
AcDbVertex
100
AcDb2dVertex
 10
1508.093729499716
 20
1407.065602438872
 30
0.0
  0
VERTEX
  5
21C
330
1A0
100
AcDbEntity
  8
Make2D$可见线$普通线
100
AcDbVertex
100
AcDb2dVertex
 10
1508.559548459752
 20
1407.143780335487
 30
0.0
  0
VERTEX
  5
21D
330
1A0
100
AcDbEntity
  8
Make2D$可见线$普通线
100
AcDbVertex
100
AcDb2dVertex
 10
1509.027242590906
 20
1407.209843998598
 30
0.0
  0
VERTEX
  5
21E
330
1A0
100
AcDbEntity
  8
Make2D$可见线$普通线
100
AcDbVertex
100
AcDb2dVertex
 10
1509.496504211754
 20
1407.263783517272
 30
0.0
  0
VERTEX
  5
21F
330
1A0
100
AcDbEntity
  8
Make2D$可见线$普通线
100
AcDbVertex
100
AcDb2dVertex
 10
1509.979603314802
 20
1407.306563936097
 30
0.0
  0
VERTEX
  5
220
330
1A0
100
AcDbEntity
  8
Make2D$可见线$普通线
100
AcDbVertex
100
AcDb2dVertex
 10
1510.46367047623
 20
1407.336691470198
 30
0.0
  0
VERTEX
  5
221
330
1A0
100
AcDbEntity
  8
Make2D$可见线$普通线
100
AcDbVertex
100
AcDb2dVertex
 10
1510.948345747783
 20
1407.354304154209
 30
0.0
  0
VERTEX
  5
222
330
1A0
100
AcDbEntity
  8
Make2D$可见线$普通线
100
AcDbVertex
100
AcDb2dVertex
 10
1511.433269181207
 20
1407.359540022756
 30
0.0
 42
0.0003881222239268
  0
VERTEX
  5
223
330
1A0
100
AcDbEntity
  8
Make2D$可见线$普通线
100
AcDbVertex
100
AcDb2dVertex
 10
1762.919459527724
 20
1407.129685794149
 30
0.0
  0
VERTEX
  5
224
330
1A0
100
AcDbEntity
  8
Make2D$可见线$普通线
100
AcDbVertex
100
AcDb2dVertex
 10
1766.069605854468
 20
1407.109973817275
 30
0.0
  0
VERTEX
  5
225
330
1A0
100
AcDbEntity
  8
Make2D$可见线$普通线
100
AcDbVertex
100
AcDb2dVertex
 10
1769.219230007252
 20
1407.050907919047
 30
0.0
  0
VERTEX
  5
226
330
1A0
100
AcDbEntity
  8
Make2D$可见线$普通线
100
AcDbVertex
100
AcDb2dVertex
 10
1772.367902700964
 20
1406.953304544126
 30
0.0
  0
VERTEX
  5
227
330
1A0
100
AcDbEntity
  8
Make2D$可见线$普通线
100
AcDbVertex
100
AcDb2dVertex
 10
1775.515194650488
 20
1406.817980137171
 30
0.0
  0
VERTEX
  5
228
330
1A0
100
AcDbEntity
  8
Make2D$可见线$普通线
100
AcDbVertex
100
AcDb2dVertex
 10
1777.160522125575
 20
1406.732436063099
 30
0.0
  0
VERTEX
  5
229
330
1A0
100
AcDbEntity
  8
Make2D$可见线$普通线
100
AcDbVertex
100
AcDb2dVertex
 10
1778.805291712468
 20
1406.636790869563
 30
0.0
  0
VERTEX
  5
22A
330
1A0
100
AcDbEntity
  8
Make2D$可见线$普通线
100
AcDbVertex
100
AcDb2dVertex
 10
1780.449440611075
 20
1406.531037761069
 30
0.0
  0
VERTEX
  5
22B
330
1A0
100
AcDbEntity
  8
Make2D$可见线$普通线
100
AcDbVertex
100
AcDb2dVertex
 10
1782.092906021303
 20
1406.415169942126
 30
0.0
  0
VERTEX
  5
22C
330
1A0
100
AcDbEntity
  8
Make2D$可见线$普通线
100
AcDbVertex
100
AcDb2dVertex
 10
1783.735625143063
 20
1406.289180617242
 30
0.0
  0
VERTEX
  5
22D
330
1A0
100
AcDbEntity
  8
Make2D$可见线$普通线
100
AcDbVertex
100
AcDb2dVertex
 10
1785.377535176261
 20
1406.153062990923
 30
0.0
  0
VERTEX
  5
22E
330
1A0
100
AcDbEntity
  8
Make2D$可见线$普通线
100
AcDbVertex
100
AcDb2dVertex
 10
1787.018573320807
 20
1406.00681026768
 30
0.0
  0
VERTEX
  5
22F
330
1A0
100
AcDbEntity
  8
Make2D$可见线$普通线
100
AcDbVertex
100
AcDb2dVertex
 10
1788.658676776609
 20
1405.850415652018
 30
0.0
  0
VERTEX
  5
230
330
1A0
100
AcDbEntity
  8
Make2D$可见线$普通线
100
AcDbVertex
100
AcDb2dVertex
 10
1790.330177696007
 20
1405.680480914848
 30
0.0
  0
VERTEX
  5
231
330
1A0
100
AcDbEntity
  8
Make2D$可见线$普通线
100
AcDbVertex
100
AcDb2dVertex
 10
1792.000575135824
 20
1405.500006043123
 30
0.0
  0
VERTEX
  5
232
330
1A0
100
AcDbEntity
  8
Make2D$可见线$普通线
100
AcDbVertex
100
AcDb2dVertex
 10
1793.669802936185
 20
1405.309004838936
 30
0.0
  0
VERTEX
  5
233
330
1A0
100
AcDbEntity
  8
Make2D$可见线$普通线
100
AcDbVertex
100
AcDb2dVertex
 10
1795.337794937215
 20
1405.107491104384
 30
0.0
  0
VERTEX
  5
234
330
1A0
100
AcDbEntity
  8
Make2D$可见线$普通线
100
AcDbVertex
100
AcDb2dVertex
 10
1798.496520786045
 20
1404.69646204628
 30
0.0
  0
VERTEX
  5
235
330
1A0
100
AcDbEntity
  8
Make2D$可见线$普通线
100
AcDbVertex
100
AcDb2dVertex
 10
1801.649967895386
 20
1404.246797808999
 30
0.0
  0
VERTEX
  5
236
330
1A0
100
AcDbEntity
  8
Make2D$可见线$普通线
100
AcDbVertex
100
AcDb2dVertex
 10
1804.620150047396
 20
1403.786434383139
 30
0.0
  0
VERTEX
  5
237
330
1A0
100
AcDbEntity
  8
Make2D$可见线$普通线
100
AcDbVertex
100
AcDb2dVertex
 10
1807.584712190458
 20
1403.2911218634
 30
0.0
  0
VERTEX
  5
238
330
1A0
100
AcDbEntity
  8
Make2D$可见线$普通线
100
AcDbVertex
100
AcDb2dVertex
 10
1810.705820697002
 20
1402.730681683108
 30
0.0
  0
VERTEX
  5
239
330
1A0
100
AcDbEntity
  8
Make2D$可见线$普通线
100
AcDbVertex
100
AcDb2dVertex
 10
1812.263632383725
 20
1402.435576099339
 30
0.0
  0
VERTEX
  5
23A
330
1A0
100
AcDbEntity
  8
Make2D$可见线$普通线
100
AcDbVertex
100
AcDb2dVertex
 10
1813.819490215942
 20
1402.130332713986
 30
0.0
  0
VERTEX
  5
23B
330
1A0
100
AcDbEntity
  8
Make2D$可见线$普通线
100
AcDbVertex
100
AcDb2dVertex
 10
1816.801126286446
 20
1401.515302919812
 30
0.0
  0
VERTEX
  5
23C
330
1A0
100
AcDbEntity
  8
Make2D$可见线$普通线
100
AcDbVertex
100
AcDb2dVertex
 10
1819.774537579148
 20
1400.861702210088
 30
0.0
  0
VERTEX
  5
23D
330
1A0
100
AcDbEntity
  8
Make2D$可见线$普通线
100
AcDbVertex
100
AcDb2dVertex
 10
1821.257948279235
 20
1400.520249804696
 30
0.0
  0
VERTEX
  5
23E
330
1A0
100
AcDbEntity
  8
Make2D$可见线$普通线
100
AcDbVertex
100
AcDb2dVertex
 10
1822.739049999363
 20
1400.168929121775
 30
0.0
  0
VERTEX
  5
23F
330
1A0
100
AcDbEntity
  8
Make2D$可见线$普通线
100
AcDbVertex
100
AcDb2dVertex
 10
1824.217758477699
 20
1399.807664978445
 30
0.0
  0
VERTEX
  5
240
330
1A0
100
AcDbEntity
  8
Make2D$可见线$普通线
100
AcDbVertex
100
AcDb2dVertex
 10
1825.693989452407
 20
1399.436382191827
 30
0.0
  0
VERTEX
  5
241
330
1A0
100
AcDbEntity
  8
Make2D$可见线$普通线
100
AcDbVertex
100
AcDb2dVertex
 10
1827.18946670414
 20
1399.049274215593
 30
0.0
  0
VERTEX
  5
242
330
1A0
100
AcDbEntity
  8
Make2D$可见线$普通线
100
AcDbVertex
100
AcDb2dVertex
 10
1828.682189741833
 20
1398.651662425541
 30
0.0
  0
VERTEX
  5
243
330
1A0
100
AcDbEntity
  8
Make2D$可见线$普通线
100
AcDbVertex
100
AcDb2dVertex
 10
1830.17204258418
 20
1398.243438129102
 30
0.0
  0
VERTEX
  5
244
330
1A0
100
AcDbEntity
  8
Make2D$可见线$普通线
100
AcDbVertex
100
AcDb2dVertex
 10
1831.658909249873
 20
1397.824492633702
 30
0.0
  0
VERTEX
  5
245
330
1A0
100
AcDbEntity
  8
Make2D$可见线$普通线
100
AcDbVertex
100
AcDb2dVertex
 10
1833.142673757606
 20
1397.394717246768
 30
0.0
  0
VERTEX
  5
246
330
1A0
100
AcDbEntity
  8
Make2D$可见线$普通线
100
AcDbVertex
100
AcDb2dVertex
 10
1834.623220126073
 20
1396.95400327573
 30
0.0
  0
VERTEX
  5
247
330
1A0
100
AcDbEntity
  8
Make2D$可见线$普通线
100
AcDbVertex
100
AcDb2dVertex
 10
1836.100432373965
 20
1396.502242028014
 30
0.0
  0
VERTEX
  5
248
330
1A0
100
AcDbEntity
  8
Make2D$可见线$普通线
100
AcDbVertex
100
AcDb2dVertex
 10
1837.574194519977
 20
1396.039324811049
 30
0.0
  0
VERTEX
  5
249
330
1A0
100
AcDbEntity
  8
Make2D$可见线$普通线
100
AcDbVertex
100
AcDb2dVertex
 10
1839.988337563228
 20
1395.253585512622
 30
0.0
  0
VERTEX
  5
24A
330
1A0
100
AcDbEntity
  8
Make2D$可见线$普通线
100
AcDbVertex
100
AcDb2dVertex
 10
1842.40351824618
 20
1394.431003242346
 30
0.0
  0
VERTEX
  5
24B
330
1A0
100
AcDbEntity
  8
Make2D$可见线$普通线
100
AcDbVertex
100
AcDb2dVertex
 10
1843.813787345369
 20
1393.933700326469
 30
0.0
  0
VERTEX
  5
24C
330
1A0
100
AcDbEntity
  8
Make2D$可见线$普通线
100
AcDbVertex
100
AcDb2dVertex
 10
1845.220021956504
 20
1393.425103270178
 30
0.0
  0
VERTEX
  5
24D
330
1A0
100
AcDbEntity
  8
Make2D$可见线$普通线
100
AcDbVertex
100
AcDb2dVertex
 10
1846.622045311546
 20
1392.905017532281
 30
0.0
  0
VERTEX
  5
24E
330
1A0
100
AcDbEntity
  8
Make2D$可见线$普通线
100
AcDbVertex
100
AcDb2dVertex
 10
1848.019680642453
 20
1392.373248571582
 30
0.0
  0
VERTEX
  5
24F
330
1A0
100
AcDbEntity
  8
Make2D$可见线$普通线
100
AcDbVertex
100
AcDb2dVertex
 10
1849.413192828072
 20
1391.829417993434
 30
0.0
  0
VERTEX
  5
250
330
1A0
100
AcDbEntity
  8
Make2D$可见线$普通线
100
AcDbVertex
100
AcDb2dVertex
 10
1850.801912828002
 20
1391.273470197096
 30
0.0
  0
VERTEX
  5
251
330
1A0
100
AcDbEntity
  8
Make2D$可见线$普通线
100
AcDbVertex
100
AcDb2dVertex
 10
1852.185616200412
 20
1390.705173408777
 30
0.0
  0
VERTEX
  5
252
330
1A0
100
AcDbEntity
  8
Make2D$可见线$普通线
100
AcDbVertex
100
AcDb2dVertex
 10
1853.564078503476
 20
1390.124295854686
 30
0.0
  0
VERTEX
  5
253
330
1A0
100
AcDbEntity
  8
Make2D$可见线$普通线
100
AcDbVertex
100
AcDb2dVertex
 10
1854.733683567051
 20
1389.619541262969
 30
0.0
  0
VERTEX
  5
254
330
1A0
100
AcDbEntity
  8
Make2D$可见线$普通线
100
AcDbVertex
100
AcDb2dVertex
 10
1855.899211696259
 20
1389.105437944898
 30
0.0
  0
VERTEX
  5
255
330
1A0
100
AcDbEntity
  8
Make2D$可见线$普通线
100
AcDbVertex
100
AcDb2dVertex
 10
1857.060549686718
 20
1388.581929159016
 30
0.0
  0
VERTEX
  5
256
330
1A0
100
AcDbEntity
  8
Make2D$可见线$普通线
100
AcDbVertex
100
AcDb2dVertex
 10
1858.21758433405
 20
1388.048958163864
 30
0.0
  0
VERTEX
  5
257
330
1A0
100
AcDbEntity
  8
Make2D$可见线$普通线
100
AcDbVertex
100
AcDb2dVertex
 10
1859.343072577306
 20
1387.519361677978
 30
0.0
  0
VERTEX
  5
258
330
1A0
100
AcDbEntity
  8
Make2D$可见线$普通线
100
AcDbVertex
100
AcDb2dVertex
 10
1860.464203559431
 20
1386.980597683239
 30
0.0
  0
VERTEX
  5
259
330
1A0
100
AcDbEntity
  8
Make2D$可见线$普通线
100
AcDbVertex
100
AcDb2dVertex
 10
1861.580830768311
 20
1386.432574065625
 30
0.0
  0
VERTEX
  5
25A
330
1A0
100
AcDbEntity
  8
Make2D$可见线$普通线
100
AcDbVertex
100
AcDb2dVertex
 10
1862.692807691835
 20
1385.875198711117
 30
0.0
  0
VERTEX
  5
25B
330
1A0
100
AcDbEntity
  8
Make2D$可见线$普通线
100
AcDbVertex
100
AcDb2dVertex
 10
1863.799987817889
 20
1385.308379505695
 30
0.0
  0
VERTEX
  5
25C
330
1A0
100
AcDbEntity
  8
Make2D$可见线$普通线
100
AcDbVertex
100
AcDb2dVertex
 10
1864.902224634362
 20
1384.732024335339
 30
0.0
  0
VERTEX
  5
25D
330
1A0
100
AcDbEntity
  8
Make2D$可见线$普通线
100
AcDbVertex
100
AcDb2dVertex
 10
1865.99937162914
 20
1384.14604108603
 30
0.0
  0
VERTEX
  5
25E
330
1A0
100
AcDbEntity
  8
Make2D$可见线$普通线
100
AcDbVertex
100
AcDb2dVertex
 10
1867.091282290111
 20
1383.550337643748
 30
0.0
  0
VERTEX
  5
25F
330
1A0
100
AcDbEntity
  8
Make2D$可见线$普通线
100
AcDbVertex
100
AcDb2dVertex
 10
1868.134721204361
 20
1382.96904341706
 30
0.0
  0
VERTEX
  5
260
330
1A0
100
AcDbEntity
  8
Make2D$可见线$普通线
100
AcDbVertex
100
AcDb2dVertex
 10
1869.172935713804
 20
1382.378463052863
 30
0.0
  0
VERTEX
  5
261
330
1A0
100
AcDbEntity
  8
Make2D$可见线$普通线
100
AcDbVertex
100
AcDb2dVertex
 10
1870.205664998949
 20
1381.778358456936
 30
0.0
  0
VERTEX
  5
262
330
1A0
100
AcDbEntity
  8
Make2D$可见线$普通线
100
AcDbVertex
100
AcDb2dVertex
 10
1871.232648240301
 20
1381.168491535058
 30
0.0
  0
VERTEX
  5
263
330
1A0
100
AcDbEntity
  8
Make2D$可见线$普通线
100
AcDbVertex
100
AcDb2dVertex
 10
1872.377753201584
 20
1380.472383462917
 30
0.0
  0
VERTEX
  5
264
330
1A0
100
AcDbEntity
  8
Make2D$可见线$普通线
100
AcDbVertex
100
AcDb2dVertex
 10
1873.515111137406
 20
1379.763687337224
 30
0.0
  0
VERTEX
  5
265
330
1A0
100
AcDbEntity
  8
Make2D$可见线$普通线
100
AcDbVertex
100
AcDb2dVertex
 10
1874.644536472717
 20
1379.042403651506
 30
0.0
  0
VERTEX
  5
266
330
1A0
100
AcDbEntity
  8
Make2D$可见线$普通线
100
AcDbVertex
100
AcDb2dVertex
 10
1875.765843632469
 20
1378.308532899292
 30
0.0
  0
VERTEX
  5
267
330
1A0
100
AcDbEntity
  8
Make2D$可见线$普通线
100
AcDbVertex
100
AcDb2dVertex
 10
1876.735178889465
 20
1377.659429861793
 30
0.0
  0
VERTEX
  5
268
330
1A0
100
AcDbEntity
  8
Make2D$可见线$普通线
100
AcDbVertex
100
AcDb2dVertex
 10
1877.697997362259
 20
1377.000694460925
 30
0.0
  0
VERTEX
  5
269
330
1A0
100
AcDbEntity
  8
Make2D$可见线$普通线
100
AcDbVertex
100
AcDb2dVertex
 10
1878.654074708835
 20
1376.332232226069
 30
0.0
  0
VERTEX
  5
26A
330
1A0
100
AcDbEntity
  8
Make2D$可见线$普通线
100
AcDbVertex
100
AcDb2dVertex
 10
1879.603186587176
 20
1375.653948686608
 30
0.0
  0
VERTEX
  5
26B
330
1A0
100
AcDbEntity
  8
Make2D$可见线$普通线
100
AcDbVertex
100
AcDb2dVertex
 10
1880.545108655265
 20
1374.96574937192
 30
0.0
  0
VERTEX
  5
26C
330
1A0
100
AcDbEntity
  8
Make2D$可见线$普通线
100
AcDbVertex
100
AcDb2dVertex
 10
1881.479616571086
 20
1374.267539811389
 30
0.0
  0
VERTEX
  5
26D
330
1A0
100
AcDbEntity
  8
Make2D$可见线$普通线
100
AcDbVertex
100
AcDb2dVertex
 10
1882.406485992621
 20
1373.559225534393
 30
0.0
  0
VERTEX
  5
26E
330
1A0
100
AcDbEntity
  8
Make2D$可见线$普通线
100
AcDbVertex
100
AcDb2dVertex
 10
1883.325492577854
 20
1372.840712070316
 30
0.0
  0
VERTEX
  5
26F
330
1A0
100
AcDbEntity
  8
Make2D$可见线$普通线
100
AcDbVertex
100
AcDb2dVertex
 10
1884.222964846541
 20
1372.122787400889
 30
0.0
  0
VERTEX
  5
270
330
1A0
100
AcDbEntity
  8
Make2D$可见线$普通线
100
AcDbVertex
100
AcDb2dVertex
 10
1885.112328408131
 20
1371.394817427649
 30
0.0
  0
VERTEX
  5
271
330
1A0
100
AcDbEntity
  8
Make2D$可见线$普通线
100
AcDbVertex
100
AcDb2dVertex
 10
1885.993323807071
 20
1370.656747662541
 30
0.0
  0
VERTEX
  5
272
330
1A0
100
AcDbEntity
  8
Make2D$可见线$普通线
100
AcDbVertex
100
AcDb2dVertex
 10
1886.865691587804
 20
1369.908523617507
 30
0.0
  0
VERTEX
  5
273
330
1A0
100
AcDbEntity
  8
Make2D$可见线$普通线
100
AcDbVertex
100
AcDb2dVertex
 10
1887.729172294776
 20
1369.150090804495
 30
0.0
  0
VERTEX
  5
274
330
1A0
100
AcDbEntity
  8
Make2D$可见线$普通线
100
AcDbVertex
100
AcDb2dVertex
 10
1888.583506472432
 20
1368.381394735446
 30
0.0
  0
VERTEX
  5
275
330
1A0
100
AcDbEntity
  8
Make2D$可见线$普通线
100
AcDbVertex
100
AcDb2dVertex
 10
1889.428434665217
 20
1367.602380922306
 30
0.0
  0
VERTEX
  5
276
330
1A0
100
AcDbEntity
  8
Make2D$可见线$普通线
100
AcDbVertex
100
AcDb2dVertex
 10
1890.263697417577
 20
1366.812994877019
 30
0.0
  0
VERTEX
  5
277
330
1A0
100
AcDbEntity
  8
Make2D$可见线$普通线
100
AcDbVertex
100
AcDb2dVertex
 10
1891.079874581465
 20
1366.022188908918
 30
0.0
  0
VERTEX
  5
278
330
1A0
100
AcDbEntity
  8
Make2D$可见线$普通线
100
AcDbVertex
100
AcDb2dVertex
 10
1891.886110823659
 20
1365.221226852337
 30
0.0
  0
VERTEX
  5
279
330
1A0
100
AcDbEntity
  8
Make2D$可见线$普通线
100
AcDbVertex
100
AcDb2dVertex
 10
1892.682169638841
 20
1364.410147711468
 30
0.0
  0
VERTEX
  5
27A
330
1A0
100
AcDbEntity
  8
Make2D$可见线$普通线
100
AcDbVertex
100
AcDb2dVertex
 10
1893.467814521694
 20
1363.588990490506
 30
0.0
  0
VERTEX
  5
27B
330
1A0
100
AcDbEntity
  8
Make2D$可见线$普通线
100
AcDbVertex
100
AcDb2dVertex
 10
1894.242808966903
 20
1362.757794193646
 30
0.0
  0
VERTEX
  5
27C
330
1A0
100
AcDbEntity
  8
Make2D$可见线$普通线
100
AcDbVertex
100
AcDb2dVertex
 10
1895.006916469153
 20
1361.916597825082
 30
0.0
  0
VERTEX
  5
27D
330
1A0
100
AcDbEntity
  8
Make2D$可见线$普通线
100
AcDbVertex
100
AcDb2dVertex
 10
1895.759900523125
 20
1361.065440389008
 30
0.0
  0
VERTEX
  5
27E
330
1A0
100
AcDbEntity
  8
Make2D$可见线$普通线
100
AcDbVertex
100
AcDb2dVertex
 10
1896.501524623506
 20
1360.20436088962
 30
0.0
  0
VERTEX
  5
27F
330
1A0
100
AcDbEntity
  8
Make2D$可见线$普通线
100
AcDbVertex
100
AcDb2dVertex
 10
1897.146894619524
 20
1359.435604330151
 30
0.0
  0
VERTEX
  5
280
330
1A0
100
AcDbEntity
  8
Make2D$可见线$普通线
100
AcDbVertex
100
AcDb2dVertex
 10
1897.78295614346
 20
1358.659126482571
 30
0.0
  0
VERTEX
  5
281
330
1A0
100
AcDbEntity
  8
Make2D$可见线$普通线
100
AcDbVertex
100
AcDb2dVertex
 10
1898.409447024993
 20
1357.874915751514
 30
0.0
  0
VERTEX
  5
282
330
1A0
100
AcDbEntity
  8
Make2D$可见线$普通线
100
AcDbVertex
100
AcDb2dVertex
 10
1899.026105093801
 20
1357.082960541614
 30
0.0
  0
VERTEX
  5
283
330
1A0
100
AcDbEntity
  8
Make2D$可见线$普通线
100
AcDbVertex
100
AcDb2dVertex
 10
1899.693345447452
 20
1356.202140558511
 30
0.0
  0
VERTEX
  5
284
330
1A0
100
AcDbEntity
  8
Make2D$可见线$普通线
100
AcDbVertex
100
AcDb2dVertex
 10
1900.348207528113
 20
1355.312076948742
 30
0.0
  0
VERTEX
  5
285
330
1A0
100
AcDbEntity
  8
Make2D$可见线$普通线
100
AcDbVertex
100
AcDb2dVertex
 10
1900.990548412267
 20
1354.412926624308
 30
0.0
  0
VERTEX
  5
286
330
1A0
100
AcDbEntity
  8
Make2D$可见线$普通线
100
AcDbVertex
100
AcDb2dVertex
 10
1901.620225176395
 20
1353.504846497209
 30
0.0
  0
VERTEX
  5
287
330
1A0
100
AcDbEntity
  8
Make2D$可见线$普通线
100
AcDbVertex
100
AcDb2dVertex
 10
1902.198089775083
 20
1352.646778080841
 30
0.0
  0
VERTEX
  5
288
330
1A0
100
AcDbEntity
  8
Make2D$可见线$普通线
100
AcDbVertex
100
AcDb2dVertex
 10
1902.764543383139
 20
1351.781129223023
 30
0.0
  0
VERTEX
  5
289
330
1A0
100
AcDbEntity
  8
Make2D$可见线$普通线
100
AcDbVertex
100
AcDb2dVertex
 10
1903.319399123681
 20
1350.908008057922
 30
0.0
  0
VERTEX
  5
28A
330
1A0
100
AcDbEntity
  8
Make2D$可见线$普通线
100
AcDbVertex
100
AcDb2dVertex
 10
1903.862470119828
 20
1350.027522719707
 30
0.0
  0
VERTEX
  5
28B
330
1A0
100
AcDbEntity
  8
Make2D$可见线$普通线
100
AcDbVertex
100
AcDb2dVertex
 10
1904.3935694947
 20
1349.139781342547
 30
0.0
  0
VERTEX
  5
28C
330
1A0
100
AcDbEntity
  8
Make2D$可见线$普通线
100
AcDbVertex
100
AcDb2dVertex
 10
1904.912510371415
 20
1348.244892060611
 30
0.0
  0
VERTEX
  5
28D
330
1A0
100
AcDbEntity
  8
Make2D$可见线$普通线
100
AcDbVertex
100
AcDb2dVertex
 10
1905.419105873093
 20
1347.342963008066
 30
0.0
  0
VERTEX
  5
28E
330
1A0
100
AcDbEntity
  8
Make2D$可见线$普通线
100
AcDbVertex
100
AcDb2dVertex
 10
1905.913169122852
 20
1346.434102319082
 30
0.0
  0
VERTEX
  5
28F
330
1A0
100
AcDbEntity
  8
Make2D$可见线$普通线
100
AcDbVertex
100
AcDb2dVertex
 10
1906.414209656855
 20
1345.480299094966
 30
0.0
  0
VERTEX
  5
290
330
1A0
100
AcDbEntity
  8
Make2D$可见线$普通线
100
AcDbVertex
100
AcDb2dVertex
 10
1906.901286600532
 20
1344.519278047997
 30
0.0
  0
VERTEX
  5
291
330
1A0
100
AcDbEntity
  8
Make2D$可见线$普通线
100
AcDbVertex
100
AcDb2dVertex
 10
1907.374232580997
 20
1343.551222689371
 30
0.0
  0
VERTEX
  5
292
330
1A0
100
AcDbEntity
  8
Make2D$可见线$普通线
100
AcDbVertex
100
AcDb2dVertex
 10
1907.832880225366
 20
1342.576316530285
 30
0.0
  0
VERTEX
  5
293
330
1A0
100
AcDbEntity
  8
Make2D$可见线$普通线
100
AcDbVertex
100
AcDb2dVertex
 10
1908.254615393972
 20
1341.645358223684
 30
0.0
  0
VERTEX
  5
294
330
1A0
100
AcDbEntity
  8
Make2D$可见线$普通线
100
AcDbVertex
100
AcDb2dVertex
 10
1908.663344003137
 20
1340.708617456223
 30
0.0
  0
VERTEX
  5
295
330
1A0
100
AcDbEntity
  8
Make2D$可见线$普通线
100
AcDbVertex
100
AcDb2dVertex
 10
1909.059076553071
 20
1339.766311369429
 30
0.0
  0
VERTEX
  5
296
330
1A0
100
AcDbEntity
  8
Make2D$可见线$普通线
100
AcDbVertex
100
AcDb2dVertex
 10
1909.441823543989
 20
1338.818657104827
 30
0.0
  0
VERTEX
  5
297
330
1A0
100
AcDbEntity
  8
Make2D$可见线$普通线
100
AcDbVertex
100
AcDb2dVertex
 10
1917.797451058087
 20
1317.759778053557
 30
0.0
  0
VERTEX
  5
298
330
1A0
100
AcDbEntity
  8
Make2D$可见线$普通线
100
AcDbVertex
100
AcDb2dVertex
 10
1926.027878130491
 20
1297.110420870235
 30
0.0
  0
VERTEX
  5
299
330
1A0
100
AcDbEntity
  8
Make2D$可见线$普通线
100
AcDbVertex
100
AcDb2dVertex
 10
1934.130050867931
 20
1276.869394911458
 30
0.0
  0
VERTEX
  5
29A
330
1A0
100
AcDbEntity
  8
Make2D$可见线$普通线
100
AcDbVertex
100
AcDb2dVertex
 10
1942.100915377136
 20
1257.035509533824
 30
0.0
  0
VERTEX
  5
29B
330
1A0
100
AcDbEntity
  8
Make2D$可见线$普通线
100
AcDbVertex
100
AcDb2dVertex
 10
1949.937421424401
 20
1237.607573140232
 30
0.0
  0
VERTEX
  5
29C
330
1A0
100
AcDbEntity
  8
Make2D$可见线$普通线
100
AcDbVertex
100
AcDb2dVertex
 10
1957.636533414288
 20
1218.584390318805
 30
0.0
  0
VERTEX
  5
29D
330
1A0
100
AcDbEntity
  8
Make2D$可见线$普通线
100
AcDbVertex
100
AcDb2dVertex
 10
1965.195219410921
 20
1199.964764703965
 30
0.0
  0
VERTEX
  5
29E
330
1A0
100
AcDbEntity
  8
Make2D$可见线$普通线
100
AcDbVertex
100
AcDb2dVertex
 10
1972.61044747843
 20
1181.747499930138
 30
0.0
  0
VERTEX
  5
29F
330
1A0
100
AcDbEntity
  8
Make2D$可见线$普通线
100
AcDbVertex
100
AcDb2dVertex
 10
1979.879269202911
 20
1163.931410841157
 30
0.0
  0
VERTEX
  5
2A0
330
1A0
100
AcDbEntity
  8
Make2D$可见线$普通线
100
AcDbVertex
100
AcDb2dVertex
 10
1986.999070258397
 20
1146.515357118362
 30
0.0
  0
VERTEX
  5
2A1
330
1A0
100
AcDbEntity
  8
Make2D$可见线$普通线
100
AcDbVertex
100
AcDb2dVertex
 10
2000.7814871464
 20
1112.878839334332
 30
0.0
  0
VERTEX
  5
2A2
330
1A0
100
AcDbEntity
  8
Make2D$可见线$普通线
100
AcDbVertex
100
AcDb2dVertex
 10
2038.313210073248
 20
1021.467158607942
 30
0.0
  0
VERTEX
  5
2A3
330
1A0
100
AcDbEntity
  8
Make2D$可见线$普通线
100
AcDbVertex
100
AcDb2dVertex
 10
2049.507334728372
 20
994.1447477387036
 30
0.0
  0
VERTEX
  5
2A4
330
1A0
100
AcDbEntity
  8
Make2D$可见线$普通线
100
AcDbVertex
100
AcDb2dVertex
 10
2049.76962698607
 20
993.4767458911526
 30
0.0
  0
VERTEX
  5
2A5
330
1A0
100
AcDbEntity
  8
Make2D$可见线$普通线
100
AcDbVertex
100
AcDb2dVertex
 10
2050.012268745072
 20
992.8012313121851
 30
0.0
  0
VERTEX
  5
2A6
330
1A0
100
AcDbEntity
  8
Make2D$可见线$普通线
100
AcDbVertex
100
AcDb2dVertex
 10
2050.234631567067
 20
992.1187501571106
 30
0.0
  0
VERTEX
  5
2A7
330
1A0
100
AcDbEntity
  8
Make2D$可见线$普通线
100
AcDbVertex
100
AcDb2dVertex
 10
2050.436087013746
 20
991.4298485812386
 30
0.0
  0
VERTEX
  5
2A8
330
1A0
100
AcDbEntity
  8
Make2D$可见线$普通线
100
AcDbVertex
100
AcDb2dVertex
 10
2050.623255631575
 20
990.7052590618432
 30
0.0
  0
VERTEX
  5
2A9
330
1A0
100
AcDbEntity
  8
Make2D$可见线$普通线
100
AcDbVertex
100
AcDb2dVertex
 10
2050.7865738375
 20
989.9749779361607
 30
0.0
  0
VERTEX
  5
2AA
330
1A0
100
AcDbEntity
  8
Make2D$可见线$普通线
100
AcDbVertex
100
AcDb2dVertex
 10
2050.925607839132
 20
989.2397008857147
 30
0.0
  0
VERTEX
  5
2AB
330
1A0
100
AcDbEntity
  8
Make2D$可见线$普通线
100
AcDbVertex
100
AcDb2dVertex
 10
2051.039923844079
 20
988.5001235920279
 30
0.0
  0
VERTEX
  5
2AC
330
1A0
100
AcDbEntity
  8
Make2D$可见线$普通线
100
AcDbVertex
100
AcDb2dVertex
 10
2051.122330910292
 20
987.8219736101486
 30
0.0
  0
VERTEX
  5
2AD
330
1A0
100
AcDbEntity
  8
Make2D$可见线$普通线
100
AcDbVertex
100
AcDb2dVertex
 10
2051.183536142605
 20
987.1415332380172
 30
0.0
  0
VERTEX
  5
2AE
330
1A0
100
AcDbEntity
  8
Make2D$可见线$普通线
100
AcDbVertex
100
AcDb2dVertex
 10
2051.223289954259
 20
986.4595148009232
 30
0.0
  0
VERTEX
  5
2AF
330
1A0
100
AcDbEntity
  8
Make2D$可见线$普通线
100
AcDbVertex
100
AcDb2dVertex
 10
2051.241342758493
 20
985.7766306241554
 30
0.0
  0
VERTEX
  5
2B0
330
1A0
100
AcDbEntity
  8
Make2D$可见线$普通线
100
AcDbVertex
100
AcDb2dVertex
 10
2051.237444968551
 20
985.0935930330028
 30
0.0
  0
VERTEX
  5
2B1
330
1A0
100
AcDbEntity
  8
Make2D$可见线$普通线
100
AcDbVertex
100
AcDb2dVertex
 10
2051.211346997673
 20
984.4111143527546
 30
0.0
  0
VERTEX
  5
2B2
330
1A0
100
AcDbEntity
  8
Make2D$可见线$普通线
100
AcDbVertex
100
AcDb2dVertex
 10
2051.162799259099
 20
983.7299069087001
 30
0.0
  0
VERTEX
  5
2B3
330
1A0
100
AcDbEntity
  8
Make2D$可见线$普通线
100
AcDbVertex
100
AcDb2dVertex
 10
2051.091552166071
 20
983.0506830261281
 30
0.0
  0
VERTEX
  5
2B4
330
1A0
100
AcDbEntity
  8
Make2D$可见线$普通线
100
AcDbVertex
100
AcDb2dVertex
 10
2050.997124763752
 20
982.3722417887833
 30
0.0
  0
VERTEX
  5
2B5
330
1A0
100
AcDbEntity
  8
Make2D$可见线$普通线
100
AcDbVertex
100
AcDb2dVertex
 10
2050.879788418423
 20
981.6973058721182
 30
0.0
  0
VERTEX
  5
2B6
330
1A0
100
AcDbEntity
  8
Make2D$可见线$普通线
100
AcDbVertex
100
AcDb2dVertex
 10
2050.739714278243
 20
981.0266693034291
 30
0.0
  0
VERTEX
  5
2B7
330
1A0
100
AcDbEntity
  8
Make2D$可见线$普通线
100
AcDbVertex
100
AcDb2dVertex
 10
2050.577073491373
 20
980.3611261100124
 30
0.0
  0
VERTEX
  5
2B8
330
1A0
100
AcDbEntity
  8
Make2D$可见线$普通线
100
AcDbVertex
100
AcDb2dVertex
 10
2050.392037205972
 20
979.701470319164
 30
0.0
  0
VERTEX
  5
2B9
330
1A0
100
AcDbEntity
  8
Make2D$可见线$普通线
100
AcDbVertex
100
AcDb2dVertex
 10
2050.1847765702
 20
979.0484959581797
 30
0.0
  0
VERTEX
  5
2BA
330
1A0
100
AcDbEntity
  8
Make2D$可见线$普通线
100
AcDbVertex
100
AcDb2dVertex
 10
2049.955462732216
 20
978.4029970543561
 30
0.0
  0
VERTEX
  5
2BB
330
1A0
100
AcDbEntity
  8
Make2D$可见线$普通线
100
AcDbVertex
100
AcDb2dVertex
 10
2049.704266840181
 20
977.7657676349891
 30
0.0
  0
VERTEX
  5
2BC
330
1A0
100
AcDbEntity
  8
Make2D$可见线$普通线
100
AcDbVertex
100
AcDb2dVertex
 10
2049.425340130004
 20
977.1242063290975
 30
0.0
  0
VERTEX
  5
2BD
330
1A0
100
AcDbEntity
  8
Make2D$可见线$普通线
100
AcDbVertex
100
AcDb2dVertex
 10
2049.124329027559
 20
976.4927042670422
 30
0.0
  0
VERTEX
  5
2BE
330
1A0
100
AcDbEntity
  8
Make2D$可见线$普通线
100
AcDbVertex
100
AcDb2dVertex
 10
2048.801800429289
 20
975.8718646053605
 30
0.0
  0
VERTEX
  5
2BF
330
1A0
100
AcDbEntity
  8
Make2D$可见线$普通线
100
AcDbVertex
100
AcDb2dVertex
 10
2048.458321231636
 20
975.2622905005901
 30
0.0
  0
VERTEX
  5
2C0
330
1A0
100
AcDbEntity
  8
Make2D$可见线$普通线
100
AcDbVertex
100
AcDb2dVertex
 10
2048.094458331045
 20
974.6645851092683
 30
0.0
  0
VERTEX
  5
2C1
330
1A0
100
AcDbEntity
  8
Make2D$可见线$普通线
100
AcDbVertex
100
AcDb2dVertex
 10
2047.710778623957
 20
974.0793515879325
 30
0.0
  0
VERTEX
  5
2C2
330
1A0
100
AcDbEntity
  8
Make2D$可见线$普通线
100
AcDbVertex
100
AcDb2dVertex
 10
2047.307849006817
 20
973.5071930931203
 30
0.0
  0
VERTEX
  5
2C3
330
1A0
100
AcDbEntity
  8
Make2D$可见线$普通线
100
AcDbVertex
100
AcDb2dVertex
 10
2046.886236376066
 20
972.9487127813696
 30
0.0
  0
VERTEX
  5
2C4
330
1A0
100
AcDbEntity
  8
Make2D$可见线$普通线
100
AcDbVertex
100
AcDb2dVertex
 10
2046.426344425633
 20
972.3803390959195
 30
0.0
  0
VERTEX
  5
2C5
330
1A0
100
AcDbEntity
  8
Make2D$可见线$普通线
100
AcDbVertex
100
AcDb2dVertex
 10
2045.947452401944
 20
971.8279245930288
 30
0.0
  0
VERTEX
  5
2C6
330
1A0
100
AcDbEntity
  8
Make2D$可见线$普通线
100
AcDbVertex
100
AcDb2dVertex
 10
2045.450341883402
 20
971.2918341376344
 30
0.0
  0
VERTEX
  5
2C7
330
1A0
100
AcDbEntity
  8
Make2D$可见线$普通线
100
AcDbVertex
100
AcDb2dVertex
 10
2044.935794448412
 20
970.7724325946731
 30
0.0
  0
VERTEX
  5
2C8
330
1A0
100
AcDbEntity
  8
Make2D$可见线$普通线
100
AcDbVertex
100
AcDb2dVertex
 10
2044.431317508941
 20
970.2945631685293
 30
0.0
  0
VERTEX
  5
2C9
330
1A0
100
AcDbEntity
  8
Make2D$可见线$普通线
100
AcDbVertex
100
AcDb2dVertex
 10
2043.912494384249
 20
969.8322664298595
 30
0.0
  0
VERTEX
  5
2CA
330
1A0
100
AcDbEntity
  8
Make2D$可见线$普通线
100
AcDbVertex
100
AcDb2dVertex
 10
2043.380023402226
 20
969.385710648854
 30
0.0
  0
VERTEX
  5
2CB
330
1A0
100
AcDbEntity
  8
Make2D$可见线$普通线
100
AcDbVertex
100
AcDb2dVertex
 10
2042.834602890763
 20
968.9550640957033
 30
0.0
  0
VERTEX
  5
2CC
330
1A0
100
AcDbEntity
  8
Make2D$可见线$普通线
100
AcDbVertex
100
AcDb2dVertex
 10
2042.252815496687
 20
968.5231286630728
 30
0.0
  0
VERTEX
  5
2CD
330
1A0
100
AcDbEntity
  8
Make2D$可见线$普通线
100
AcDbVertex
100
AcDb2dVertex
 10
2041.65837380949
 20
968.1088031878259
 30
0.0
  0
VERTEX
  5
2CE
330
1A0
100
AcDbEntity
  8
Make2D$可见线$普通线
100
AcDbVertex
100
AcDb2dVertex
 10
2041.051944236494
 20
967.7122166044066
 30
0.0
  0
VERTEX
  5
2CF
330
1A0
100
AcDbEntity
  8
Make2D$可见线$普通线
100
AcDbVertex
100
AcDb2dVertex
 10
2040.434193185022
 20
967.3334978472597
 30
0.0
  0
VERTEX
  5
2D0
330
1A0
100
AcDbEntity
  8
Make2D$可见线$普通线
100
AcDbVertex
100
AcDb2dVertex
 10
2039.773547841666
 20
966.954887354688
 30
0.0
  0
VERTEX
  5
2D1
330
1A0
100
AcDbEntity
  8
Make2D$可见线$普通线
100
AcDbVertex
100
AcDb2dVertex
 10
2039.101886745656
 20
966.5961549402646
 30
0.0
  0
VERTEX
  5
2D2
330
1A0
100
AcDbEntity
  8
Make2D$可见线$普通线
100
AcDbVertex
100
AcDb2dVertex
 10
2038.419960687502
 20
966.2573046091486
 30
0.0
  0
VERTEX
  5
2D3
330
1A0
100
AcDbEntity
  8
Make2D$可见线$普通线
100
AcDbVertex
100
AcDb2dVertex
 10
2037.728520457716
 20
965.938340366499
 30
0.0
  0
VERTEX
  5
2D4
330
1A0
100
AcDbEntity
  8
Make2D$可见线$普通线
100
AcDbVertex
100
AcDb2dVertex
 10
2036.988384359413
 20
965.6228588764584
 30
0.0
  0
VERTEX
  5
2D5
330
1A0
100
AcDbEntity
  8
Make2D$可见线$普通线
100
AcDbVertex
100
AcDb2dVertex
 10
2036.239289111237
 20
965.3292511927523
 30
0.0
  0
VERTEX
  5
2D6
330
1A0
100
AcDbEntity
  8
Make2D$可见线$普通线
100
AcDbVertex
100
AcDb2dVertex
 10
2035.48206019625
 20
965.0571831106134
 30
0.0
  0
VERTEX
  5
2D7
330
1A0
100
AcDbEntity
  8
Make2D$可见线$普通线
100
AcDbVertex
100
AcDb2dVertex
 10
2034.717523097516
 20
964.8063204252742
 30
0.0
  0
VERTEX
  5
2D8
330
1A0
100
AcDbEntity
  8
Make2D$可见线$普通线
100
AcDbVertex
100
AcDb2dVertex
 10
2033.985299737689
 20
964.5874267855972
 30
0.0
  0
VERTEX
  5
2D9
330
1A0
100
AcDbEntity
  8
Make2D$可见线$普通线
100
AcDbVertex
100
AcDb2dVertex
 10
2033.247726547039
 20
964.3873708261808
 30
0.0
  0
VERTEX
  5
2DA
330
1A0
100
AcDbEntity
  8
Make2D$可见线$普通线
100
AcDbVertex
100
AcDb2dVertex
 10
2032.505302119135
 20
964.2061611011844
 30
0.0
  0
VERTEX
  5
2DB
330
1A0
100
AcDbEntity
  8
Make2D$可见线$普通线
100
AcDbVertex
100
AcDb2dVertex
 10
2031.758525047547
 20
964.0438061647675
 30
0.0
  0
VERTEX
  5
2DC
330
1A0
100
AcDbEntity
  8
Make2D$可见线$普通线
100
AcDbVertex
100
AcDb2dVertex
 10
2030.981219729507
 20
963.8955532667102
 30
0.0
  0
VERTEX
  5
2DD
330
1A0
100
AcDbEntity
  8
Make2D$可见线$普通线
100
AcDbVertex
100
AcDb2dVertex
 10
2030.200333091198
 20
963.7674085592072
 30
0.0
  0
VERTEX
  5
2DE
330
1A0
100
AcDbEntity
  8
Make2D$可见线$普通线
100
AcDbVertex
100
AcDb2dVertex
 10
2029.416415951086
 20
963.659255807369
 30
0.0
  0
VERTEX
  5
2DF
330
1A0
100
AcDbEntity
  8
Make2D$可见线$普通线
100
AcDbVertex
100
AcDb2dVertex
 10
2028.630019127635
 20
963.5709787763061
 30
0.0
  0
VERTEX
  5
2E0
330
1A0
100
AcDbEntity
  8
Make2D$可见线$普通线
100
AcDbVertex
100
AcDb2dVertex
 10
2027.805882043847
 20
963.4997679903531
 30
0.0
  0
VERTEX
  5
2E1
330
1A0
100
AcDbEntity
  8
Make2D$可见线$普通线
100
AcDbVertex
100
AcDb2dVertex
 10
2026.980184796982
 20
963.449707110186
 30
0.0
  0
VERTEX
  5
2E2
330
1A0
100
AcDbEntity
  8
Make2D$可见线$普通线
100
AcDbVertex
100
AcDb2dVertex
 10
2026.153475057038
 20
963.4203531874301
 30
0.0
  0
VERTEX
  5
2E3
330
1A0
100
AcDbEntity
  8
Make2D$可见线$普通线
100
AcDbVertex
100
AcDb2dVertex
 10
2025.326300494017
 20
963.411263273702
 30
0.0
 42
0.0005782286913139
  0
VERTEX
  5
2E4
330
1A0
100
AcDbEntity
  8
Make2D$可见线$普通线
100
AcDbVertex
100
AcDb2dVertex
 10
1512.788357578424
 20
963.3765619502519
 30
0.0
  0
SEQEND
  5
2E5
330
1A0
100
AcDbEntity
  8
Make2D$可见线$普通线
  0
POLYLINE
  5
2E6
330
1F
100
AcDbEntity
  8
Make2D$可见线$普通线
100
AcDb2dPolyline
 66
     1
 10
0.0
 20
0.0
 30
0.0
  0
VERTEX
  5
2E7
330
2E6
100
AcDbEntity
  8
Make2D$可见线$普通线
100
AcDbVertex
100
AcDb2dVertex
 10
2675.656778790667
 20
1386.266383199052
 30
0.0
  0
VERTEX
  5
2E8
330
2E6
100
AcDbEntity
  8
Make2D$可见线$普通线
100
AcDbVertex
100
AcDb2dVertex
 10
2675.652159187395
 20
1386.807930868172
 30
0.0
  0
VERTEX
  5
2E9
330
2E6
100
AcDbEntity
  8
Make2D$可见线$普通线
100
AcDbVertex
100
AcDb2dVertex
 10
2675.636402579681
 20
1387.349302886288
 30
0.0
  0
VERTEX
  5
2EA
330
2E6
100
AcDbEntity
  8
Make2D$可见线$普通线
100
AcDbVertex
100
AcDb2dVertex
 10
2675.609395342944
 20
1387.89023935517
 30
0.0
  0
VERTEX
  5
2EB
330
2E6
100
AcDbEntity
  8
Make2D$可见线$普通线
100
AcDbVertex
100
AcDb2dVertex
 10
2675.571023852604
 20
1388.430480376589
 30
0.0
  0
VERTEX
  5
2EC
330
2E6
100
AcDbEntity
  8
Make2D$可见线$普通线
100
AcDbVertex
100
AcDb2dVertex
 10
2675.521174484079
 20
1388.969766052315
 30
0.0
  0
VERTEX
  5
2ED
330
2E6
100
AcDbEntity
  8
Make2D$可见线$普通线
100
AcDbVertex
100
AcDb2dVertex
 10
2675.45973361279
 20
1389.507836484118
 30
0.0
  0
VERTEX
  5
2EE
330
2E6
100
AcDbEntity
  8
Make2D$可见线$普通线
100
AcDbVertex
100
AcDb2dVertex
 10
2675.386587614156
 20
1390.044431773767
 30
0.0
  0
VERTEX
  5
2EF
330
2E6
100
AcDbEntity
  8
Make2D$可见线$普通线
100
AcDbVertex
100
AcDb2dVertex
 10
2675.301622863597
 20
1390.579292023034
 30
0.0
  0
VERTEX
  5
2F0
330
2E6
100
AcDbEntity
  8
Make2D$可见线$普通线
100
AcDbVertex
100
AcDb2dVertex
 10
2675.211380596126
 20
1391.077683900717
 30
0.0
  0
VERTEX
  5
2F1
330
2E6
100
AcDbEntity
  8
Make2D$可见线$普通线
100
AcDbVertex
100
AcDb2dVertex
 10
2675.11067865868
 20
1391.574082074265
 30
0.0
  0
VERTEX
  5
2F2
330
2E6
100
AcDbEntity
  8
Make2D$可见线$普通线
100
AcDbVertex
100
AcDb2dVertex
 10
2674.99949329102
 20
1392.068237588318
 30
0.0
  0
VERTEX
  5
2F3
330
2E6
100
AcDbEntity
  8
Make2D$可见线$普通线
100
AcDbVertex
100
AcDb2dVertex
 10
2674.877800732911
 20
1392.559901487516
 30
0.0
  0
VERTEX
  5
2F4
330
2E6
100
AcDbEntity
  8
Make2D$可见线$普通线
100
AcDbVertex
100
AcDb2dVertex
 10
2674.745577224114
 20
1393.0488248165
 30
0.0
  0
VERTEX
  5
2F5
330
2E6
100
AcDbEntity
  8
Make2D$可见线$普通线
100
AcDbVertex
100
AcDb2dVertex
 10
2674.602799004392
 20
1393.534758619911
 30
0.0
  0
VERTEX
  5
2F6
330
2E6
100
AcDbEntity
  8
Make2D$可见线$普通线
100
AcDbVertex
100
AcDb2dVertex
 10
2674.449442313508
 20
1394.017453942388
 30
0.0
  0
VERTEX
  5
2F7
330
2E6
100
AcDbEntity
  8
Make2D$可见线$普通线
100
AcDbVertex
100
AcDb2dVertex
 10
2674.285483391225
 20
1394.496661828571
 30
0.0
  0
VERTEX
  5
2F8
330
2E6
100
AcDbEntity
  8
Make2D$可见线$普通线
100
AcDbVertex
100
AcDb2dVertex
 10
2674.119088366581
 20
1394.950507928798
 30
0.0
  0
VERTEX
  5
2F9
330
2E6
100
AcDbEntity
  8
Make2D$可见线$普通线
100
AcDbVertex
100
AcDb2dVertex
 10
2673.942940268565
 20
1395.400661545511
 30
0.0
  0
VERTEX
  5
2FA
330
2E6
100
AcDbEntity
  8
Make2D$可见线$普通线
100
AcDbVertex
100
AcDb2dVertex
 10
2673.75696431062
 20
1395.846833347704
 30
0.0
  0
VERTEX
  5
2FB
330
2E6
100
AcDbEntity
  8
Make2D$可见线$普通线
100
AcDbVertex
100
AcDb2dVertex
 10
2673.561085706187
 20
1396.288734004368
 30
0.0
  0
VERTEX
  5
2FC
330
2E6
100
AcDbEntity
  8
Make2D$可见线$普通线
100
AcDbVertex
100
AcDb2dVertex
 10
2673.33721917953
 20
1396.763171781309
 30
0.0
  0
VERTEX
  5
2FD
330
2E6
100
AcDbEntity
  8
Make2D$可见线$普通线
100
AcDbVertex
100
AcDb2dVertex
 10
2673.101614177066
 20
1397.231883098145
 30
0.0
  0
VERTEX
  5
2FE
330
2E6
100
AcDbEntity
  8
Make2D$可见线$普通线
100
AcDbVertex
100
AcDb2dVertex
 10
2672.854284917502
 20
1397.6945134063
 30
0.0
  0
VERTEX
  5
2FF
330
2E6
100
AcDbEntity
  8
Make2D$可见线$普通线
100
AcDbVertex
100
AcDb2dVertex
 10
2672.595245619546
 20
1398.150708157195
 30
0.0
  0
VERTEX
  5
300
330
2E6
100
AcDbEntity
  8
Make2D$可见线$普通线
100
AcDbVertex
100
AcDb2dVertex
 10
2672.338127942066
 20
1398.578144569523
 30
0.0
  0
VERTEX
  5
301
330
2E6
100
AcDbEntity
  8
Make2D$可见线$普通线
100
AcDbVertex
100
AcDb2dVertex
 10
2672.070528841795
 20
1398.999112759772
 30
0.0
  0
VERTEX
  5
302
330
2E6
100
AcDbEntity
  8
Make2D$可见线$普通线
100
AcDbVertex
100
AcDb2dVertex
 10
2671.79253928789
 20
1399.413282396341
 30
0.0
  0
VERTEX
  5
303
330
2E6
100
AcDbEntity
  8
Make2D$可见线$普通线
100
AcDbVertex
100
AcDb2dVertex
 10
2671.504250249506
 20
1399.82032314763
 30
0.0
  0
VERTEX
  5
304
330
2E6
100
AcDbEntity
  8
Make2D$可见线$普通线
100
AcDbVertex
100
AcDb2dVertex
 10
2671.205752695801
 20
1400.21990468204
 30
0.0
  0
VERTEX
  5
305
330
2E6
100
AcDbEntity
  8
Make2D$可见线$普通线
100
AcDbVertex
100
AcDb2dVertex
 10
2670.897137595932
 20
1400.611696667969
 30
0.0
  0
VERTEX
  5
306
330
2E6
100
AcDbEntity
  8
Make2D$可见线$普通线
100
AcDbVertex
100
AcDb2dVertex
 10
2670.578495919054
 20
1400.995368773818
 30
0.0
  0
VERTEX
  5
307
330
2E6
100
AcDbEntity
  8
Make2D$可见线$普通线
100
AcDbVertex
100
AcDb2dVertex
 10
2670.249918634324
 20
1401.370590667986
 30
0.0
  0
VERTEX
  5
308
330
2E6
100
AcDbEntity
  8
Make2D$可见线$普通线
100
AcDbVertex
100
AcDb2dVertex
 10
2669.928701710878
 20
1401.71888689047
 30
0.0
  0
VERTEX
  5
309
330
2E6
100
AcDbEntity
  8
Make2D$可见线$普通线
100
AcDbVertex
100
AcDb2dVertex
 10
2669.5987780447
 20
1402.058979932973
 30
0.0
  0
VERTEX
  5
30A
330
2E6
100
AcDbEntity
  8
Make2D$可见线$普通线
100
AcDbVertex
100
AcDb2dVertex
 10
2669.260323762404
 20
1402.390589345965
 30
0.0
  0
VERTEX
  5
30B
330
2E6
100
AcDbEntity
  8
Make2D$可见线$普通线
100
AcDbVertex
100
AcDb2dVertex
 10
2668.913514990605
 20
1402.713434679916
 30
0.0
  0
VERTEX
  5
30C
330
2E6
100
AcDbEntity
  8
Make2D$可见线$普通线
100
AcDbVertex
100
AcDb2dVertex
 10
2668.558527855916
 20
1403.027235485295
 30
0.0
  0
VERTEX
  5
30D
330
2E6
100
AcDbEntity
  8
Make2D$可见线$普通线
100
AcDbVertex
100
AcDb2dVertex
 10
2668.195538484953
 20
1403.331711312572
 30
0.0
  0
VERTEX
  5
30E
330
2E6
100
AcDbEntity
  8
Make2D$可见线$普通线
100
AcDbVertex
100
AcDb2dVertex
 10
2667.824723004329
 20
1403.626581712215
 30
0.0
  0
VERTEX
  5
30F
330
2E6
100
AcDbEntity
  8
Make2D$可见线$普通线
100
AcDbVertex
100
AcDb2dVertex
 10
2667.446257540661
 20
1403.911566234695
 30
0.0
  0
VERTEX
  5
310
330
2E6
100
AcDbEntity
  8
Make2D$可见线$普通线
100
AcDbVertex
100
AcDb2dVertex
 10
2667.049395432395
 20
1404.193968117524
 30
0.0
  0
VERTEX
  5
311
330
2E6
100
AcDbEntity
  8
Make2D$可见线$普通线
100
AcDbVertex
100
AcDb2dVertex
 10
2666.644944620495
 20
1404.465420352009
 30
0.0
  0
VERTEX
  5
312
330
2E6
100
AcDbEntity
  8
Make2D$可见线$普通线
100
AcDbVertex
100
AcDb2dVertex
 10
2666.233215856788
 20
1404.725718538344
 30
0.0
  0
VERTEX
  5
313
330
2E6
100
AcDbEntity
  8
Make2D$可见线$普通线
100
AcDbVertex
100
AcDb2dVertex
 10
2665.814519893101
 20
1404.974658276728
 30
0.0
  0
VERTEX
  5
314
330
2E6
100
AcDbEntity
  8
Make2D$可见线$普通线
100
AcDbVertex
100
AcDb2dVertex
 10
2665.38916748126
 20
1405.212035167358
 30
0.0
  0
VERTEX
  5
315
330
2E6
100
AcDbEntity
  8
Make2D$可见线$普通线
100
AcDbVertex
100
AcDb2dVertex
 10
2664.957469373093
 20
1405.437644810431
 30
0.0
  0
VERTEX
  5
316
330
2E6
100
AcDbEntity
  8
Make2D$可见线$普通线
100
AcDbVertex
100
AcDb2dVertex
 10
2664.519736320427
 20
1405.651282806144
 30
0.0
  0
VERTEX
  5
317
330
2E6
100
AcDbEntity
  8
Make2D$可见线$普通线
100
AcDbVertex
100
AcDb2dVertex
 10
2664.076279075088
 20
1405.852744754694
 30
0.0
  0
VERTEX
  5
318
330
2E6
100
AcDbEntity
  8
Make2D$可见线$普通线
100
AcDbVertex
100
AcDb2dVertex
 10
2663.64974503795
 20
1406.032786442032
 30
0.0
  0
VERTEX
  5
319
330
2E6
100
AcDbEntity
  8
Make2D$可见线$普通线
100
AcDbVertex
100
AcDb2dVertex
 10
2663.218632223707
 20
1406.201588111674
 30
0.0
  0
VERTEX
  5
31A
330
2E6
100
AcDbEntity
  8
Make2D$可见线$普通线
100
AcDbVertex
100
AcDb2dVertex
 10
2662.78325291747
 20
1406.359095521867
 30
0.0
  0
VERTEX
  5
31B
330
2E6
100
AcDbEntity
  8
Make2D$可见线$普通线
100
AcDbVertex
100
AcDb2dVertex
 10
2662.343919404351
 20
1406.505254430856
 30
0.0
  0
VERTEX
  5
31C
330
2E6
100
AcDbEntity
  8
Make2D$可见线$普通线
100
AcDbVertex
100
AcDb2dVertex
 10
2661.900943969461
 20
1406.640010596886
 30
0.0
  0
VERTEX
  5
31D
330
2E6
100
AcDbEntity
  8
Make2D$可见线$普通线
100
AcDbVertex
100
AcDb2dVertex
 10
2661.454638897912
 20
1406.763309778205
 30
0.0
  0
VERTEX
  5
31E
330
2E6
100
AcDbEntity
  8
Make2D$可见线$普通线
100
AcDbVertex
100
AcDb2dVertex
 10
2661.005316474813
 20
1406.875097733057
 30
0.0
  0
VERTEX
  5
31F
330
2E6
100
AcDbEntity
  8
Make2D$可见线$普通线
100
AcDbVertex
100
AcDb2dVertex
 10
2660.553288985278
 20
1406.975320219688
 30
0.0
  0
VERTEX
  5
320
330
2E6
100
AcDbEntity
  8
Make2D$可见线$普通线
100
AcDbVertex
100
AcDb2dVertex
 10
2660.08965287778
 20
1407.065602438873
 30
0.0
  0
VERTEX
  5
321
330
2E6
100
AcDbEntity
  8
Make2D$可见线$普通线
100
AcDbVertex
100
AcDb2dVertex
 10
2659.623833917743
 20
1407.143780335487
 30
0.0
  0
VERTEX
  5
322
330
2E6
100
AcDbEntity
  8
Make2D$可见线$普通线
100
AcDbVertex
100
AcDb2dVertex
 10
2659.15613978659
 20
1407.209843998598
 30
0.0
  0
VERTEX
  5
323
330
2E6
100
AcDbEntity
  8
Make2D$可见线$普通线
100
AcDbVertex
100
AcDb2dVertex
 10
2658.686878165741
 20
1407.263783517272
 30
0.0
  0
VERTEX
  5
324
330
2E6
100
AcDbEntity
  8
Make2D$可见线$普通线
100
AcDbVertex
100
AcDb2dVertex
 10
2658.203779062693
 20
1407.306563936097
 30
0.0
  0
VERTEX
  5
325
330
2E6
100
AcDbEntity
  8
Make2D$可见线$普通线
100
AcDbVertex
100
AcDb2dVertex
 10
2657.719711901265
 20
1407.336691470198
 30
0.0
  0
VERTEX
  5
326
330
2E6
100
AcDbEntity
  8
Make2D$可见线$普通线
100
AcDbVertex
100
AcDb2dVertex
 10
2657.235036629712
 20
1407.354304154209
 30
0.0
  0
VERTEX
  5
327
330
2E6
100
AcDbEntity
  8
Make2D$可见线$普通线
100
AcDbVertex
100
AcDb2dVertex
 10
2656.750113196289
 20
1407.359540022762
 30
0.0
 42
-0.0003881222236829
  0
VERTEX
  5
328
330
2E6
100
AcDbEntity
  8
Make2D$可见线$普通线
100
AcDbVertex
100
AcDb2dVertex
 10
2405.263922849758
 20
1407.129685794149
 30
0.0
  0
VERTEX
  5
329
330
2E6
100
AcDbEntity
  8
Make2D$可见线$普通线
100
AcDbVertex
100
AcDb2dVertex
 10
2402.113776523029
 20
1407.109973817275
 30
0.0
  0
VERTEX
  5
32A
330
2E6
100
AcDbEntity
  8
Make2D$可见线$普通线
100
AcDbVertex
100
AcDb2dVertex
 10
2398.964152370257
 20
1407.050907919047
 30
0.0
  0
VERTEX
  5
32B
330
2E6
100
AcDbEntity
  8
Make2D$可见线$普通线
100
AcDbVertex
100
AcDb2dVertex
 10
2395.815479676558
 20
1406.953304544126
 30
0.0
  0
VERTEX
  5
32C
330
2E6
100
AcDbEntity
  8
Make2D$可见线$普通线
100
AcDbVertex
100
AcDb2dVertex
 10
2392.668187727045
 20
1406.817980137171
 30
0.0
  0
VERTEX
  5
32D
330
2E6
100
AcDbEntity
  8
Make2D$可见线$普通线
100
AcDbVertex
100
AcDb2dVertex
 10
2391.022860251952
 20
1406.732436063099
 30
0.0
  0
VERTEX
  5
32E
330
2E6
100
AcDbEntity
  8
Make2D$可见线$普通线
100
AcDbVertex
100
AcDb2dVertex
 10
2389.378090665053
 20
1406.636790869562
 30
0.0
  0
VERTEX
  5
32F
330
2E6
100
AcDbEntity
  8
Make2D$可见线$普通线
100
AcDbVertex
100
AcDb2dVertex
 10
2387.733941766441
 20
1406.531037761069
 30
0.0
  0
VERTEX
  5
330
330
2E6
100
AcDbEntity
  8
Make2D$可见线$普通线
100
AcDbVertex
100
AcDb2dVertex
 10
2386.090476356206
 20
1406.415169942126
 30
0.0
  0
VERTEX
  5
331
330
2E6
100
AcDbEntity
  8
Make2D$可见线$普通线
100
AcDbVertex
100
AcDb2dVertex
 10
2384.44775723444
 20
1406.289180617241
 30
0.0
  0
VERTEX
  5
332
330
2E6
100
AcDbEntity
  8
Make2D$可见线$普通线
100
AcDbVertex
100
AcDb2dVertex
 10
2382.805847201236
 20
1406.153062990923
 30
0.0
  0
VERTEX
  5
333
330
2E6
100
AcDbEntity
  8
Make2D$可见线$普通线
100
AcDbVertex
100
AcDb2dVertex
 10
2381.164809056685
 20
1406.006810267679
 30
0.0
  0
VERTEX
  5
334
330
2E6
100
AcDbEntity
  8
Make2D$可见线$普通线
100
AcDbVertex
100
AcDb2dVertex
 10
2379.524705600878
 20
1405.850415652017
 30
0.0
  0
VERTEX
  5
335
330
2E6
100
AcDbEntity
  8
Make2D$可见线$普通线
100
AcDbVertex
100
AcDb2dVertex
 10
2377.853204681475
 20
1405.680480914848
 30
0.0
  0
VERTEX
  5
336
330
2E6
100
AcDbEntity
  8
Make2D$可见线$普通线
100
AcDbVertex
100
AcDb2dVertex
 10
2376.182807241655
 20
1405.500006043123
 30
0.0
  0
VERTEX
  5
337
330
2E6
100
AcDbEntity
  8
Make2D$可见线$普通线
100
AcDbVertex
100
AcDb2dVertex
 10
2374.513579441291
 20
1405.309004838937
 30
0.0
  0
VERTEX
  5
338
330
2E6
100
AcDbEntity
  8
Make2D$可见线$普通线
100
AcDbVertex
100
AcDb2dVertex
 10
2372.845587440257
 20
1405.107491104384
 30
0.0
  0
VERTEX
  5
339
330
2E6
100
AcDbEntity
  8
Make2D$可见线$普通线
100
AcDbVertex
100
AcDb2dVertex
 10
2369.686861591424
 20
1404.696462046281
 30
0.0
  0
VERTEX
  5
33A
330
2E6
100
AcDbEntity
  8
Make2D$可见线$普通线
100
AcDbVertex
100
AcDb2dVertex
 10
2366.533414482081
 20
1404.246797808999
 30
0.0
  0
VERTEX
  5
33B
330
2E6
100
AcDbEntity
  8
Make2D$可见线$普通线
100
AcDbVertex
100
AcDb2dVertex
 10
2363.563232330075
 20
1403.786434383139
 30
0.0
  0
VERTEX
  5
33C
330
2E6
100
AcDbEntity
  8
Make2D$可见线$普通线
100
AcDbVertex
100
AcDb2dVertex
 10
2360.598670187017
 20
1403.291121863401
 30
0.0
  0
VERTEX
  5
33D
330
2E6
100
AcDbEntity
  8
Make2D$可见线$普通线
100
AcDbVertex
100
AcDb2dVertex
 10
2357.477561680483
 20
1402.730681683109
 30
0.0
  0
VERTEX
  5
33E
330
2E6
100
AcDbEntity
  8
Make2D$可见线$普通线
100
AcDbVertex
100
AcDb2dVertex
 10
2355.919749993765
 20
1402.435576099339
 30
0.0
  0
VERTEX
  5
33F
330
2E6
100
AcDbEntity
  8
Make2D$可见线$普通线
100
AcDbVertex
100
AcDb2dVertex
 10
2354.363892161553
 20
1402.130332713986
 30
0.0
  0
VERTEX
  5
340
330
2E6
100
AcDbEntity
  8
Make2D$可见线$普通线
100
AcDbVertex
100
AcDb2dVertex
 10
2351.382256091055
 20
1401.51530291981
 30
0.0
  0
VERTEX
  5
341
330
2E6
100
AcDbEntity
  8
Make2D$可见线$普通线
100
AcDbVertex
100
AcDb2dVertex
 10
2348.408844798359
 20
1400.861702210086
 30
0.0
  0
VERTEX
  5
342
330
2E6
100
AcDbEntity
  8
Make2D$可见线$普通线
100
AcDbVertex
100
AcDb2dVertex
 10
2346.925434098277
 20
1400.520249804693
 30
0.0
  0
VERTEX
  5
343
330
2E6
100
AcDbEntity
  8
Make2D$可见线$普通线
100
AcDbVertex
100
AcDb2dVertex
 10
2345.444332378151
 20
1400.168929121773
 30
0.0
  0
VERTEX
  5
344
330
2E6
100
AcDbEntity
  8
Make2D$可见线$普通线
100
AcDbVertex
100
AcDb2dVertex
 10
2343.965623899819
 20
1399.807664978444
 30
0.0
  0
VERTEX
  5
345
330
2E6
100
AcDbEntity
  8
Make2D$可见线$普通线
100
AcDbVertex
100
AcDb2dVertex
 10
2342.489392925115
 20
1399.436382191827
 30
0.0
  0
VERTEX
  5
346
330
2E6
100
AcDbEntity
  8
Make2D$可见线$普通线
100
AcDbVertex
100
AcDb2dVertex
 10
2340.993915673379
 20
1399.049274215592
 30
0.0
  0
VERTEX
  5
347
330
2E6
100
AcDbEntity
  8
Make2D$可见线$普通线
100
AcDbVertex
100
AcDb2dVertex
 10
2339.501192635682
 20
1398.651662425541
 30
0.0
  0
VERTEX
  5
348
330
2E6
100
AcDbEntity
  8
Make2D$可见线$普通线
100
AcDbVertex
100
AcDb2dVertex
 10
2338.011339793332
 20
1398.243438129102
 30
0.0
  0
VERTEX
  5
349
330
2E6
100
AcDbEntity
  8
Make2D$可见线$普通线
100
AcDbVertex
100
AcDb2dVertex
 10
2336.524473127636
 20
1397.824492633702
 30
0.0
  0
VERTEX
  5
34A
330
2E6
100
AcDbEntity
  8
Make2D$可见线$普通线
100
AcDbVertex
100
AcDb2dVertex
 10
2335.040708619899
 20
1397.394717246769
 30
0.0
  0
VERTEX
  5
34B
330
2E6
100
AcDbEntity
  8
Make2D$可见线$普通线
100
AcDbVertex
100
AcDb2dVertex
 10
2333.56016225143
 20
1396.954003275731
 30
0.0
  0
VERTEX
  5
34C
330
2E6
100
AcDbEntity
  8
Make2D$可见线$普通线
100
AcDbVertex
100
AcDb2dVertex
 10
2332.082950003533
 20
1396.502242028015
 30
0.0
  0
VERTEX
  5
34D
330
2E6
100
AcDbEntity
  8
Make2D$可见线$普通线
100
AcDbVertex
100
AcDb2dVertex
 10
2330.609187857518
 20
1396.039324811049
 30
0.0
  0
VERTEX
  5
34E
330
2E6
100
AcDbEntity
  8
Make2D$可见线$普通线
100
AcDbVertex
100
AcDb2dVertex
 10
2328.195044814266
 20
1395.253585512621
 30
0.0
  0
VERTEX
  5
34F
330
2E6
100
AcDbEntity
  8
Make2D$可见线$普通线
100
AcDbVertex
100
AcDb2dVertex
 10
2325.779864131315
 20
1394.431003242346
 30
0.0
  0
VERTEX
  5
350
330
2E6
100
AcDbEntity
  8
Make2D$可见线$普通线
100
AcDbVertex
100
AcDb2dVertex
 10
2324.369595032129
 20
1393.933700326469
 30
0.0
  0
VERTEX
  5
351
330
2E6
100
AcDbEntity
  8
Make2D$可见线$普通线
100
AcDbVertex
100
AcDb2dVertex
 10
2322.963360420997
 20
1393.425103270179
 30
0.0
  0
VERTEX
  5
352
330
2E6
100
AcDbEntity
  8
Make2D$可见线$普通线
100
AcDbVertex
100
AcDb2dVertex
 10
2321.561337065959
 20
1392.905017532281
 30
0.0
  0
VERTEX
  5
353
330
2E6
100
AcDbEntity
  8
Make2D$可见线$普通线
100
AcDbVertex
100
AcDb2dVertex
 10
2320.163701735056
 20
1392.373248571582
 30
0.0
  0
VERTEX
  5
354
330
2E6
100
AcDbEntity
  8
Make2D$可见线$普通线
100
AcDbVertex
100
AcDb2dVertex
 10
2318.770189549441
 20
1391.829417993433
 30
0.0
  0
VERTEX
  5
355
330
2E6
100
AcDbEntity
  8
Make2D$可见线$普通线
100
AcDbVertex
100
AcDb2dVertex
 10
2317.381469549515
 20
1391.273470197095
 30
0.0
  0
VERTEX
  5
356
330
2E6
100
AcDbEntity
  8
Make2D$可见线$普通线
100
AcDbVertex
100
AcDb2dVertex
 10
2315.997766177107
 20
1390.705173408776
 30
0.0
  0
VERTEX
  5
357
330
2E6
100
AcDbEntity
  8
Make2D$可见线$普通线
100
AcDbVertex
100
AcDb2dVertex
 10
2314.619303874046
 20
1390.124295854686
 30
0.0
  0
VERTEX
  5
358
330
2E6
100
AcDbEntity
  8
Make2D$可见线$普通线
100
AcDbVertex
100
AcDb2dVertex
 10
2313.449698810471
 20
1389.619541262968
 30
0.0
  0
VERTEX
  5
359
330
2E6
100
AcDbEntity
  8
Make2D$可见线$普通线
100
AcDbVertex
100
AcDb2dVertex
 10
2312.284170681263
 20
1389.105437944898
 30
0.0
  0
VERTEX
  5
35A
330
2E6
100
AcDbEntity
  8
Make2D$可见线$普通线
100
AcDbVertex
100
AcDb2dVertex
 10
2311.122832690803
 20
1388.581929159015
 30
0.0
  0
VERTEX
  5
35B
330
2E6
100
AcDbEntity
  8
Make2D$可见线$普通线
100
AcDbVertex
100
AcDb2dVertex
 10
2309.965798043471
 20
1388.048958163864
 30
0.0
  0
VERTEX
  5
35C
330
2E6
100
AcDbEntity
  8
Make2D$可见线$普通线
100
AcDbVertex
100
AcDb2dVertex
 10
2308.840309800212
 20
1387.519361677978
 30
0.0
  0
VERTEX
  5
35D
330
2E6
100
AcDbEntity
  8
Make2D$可见线$普通线
100
AcDbVertex
100
AcDb2dVertex
 10
2307.719178818085
 20
1386.980597683238
 30
0.0
  0
VERTEX
  5
35E
330
2E6
100
AcDbEntity
  8
Make2D$可见线$普通线
100
AcDbVertex
100
AcDb2dVertex
 10
2306.602551609203
 20
1386.432574065624
 30
0.0
  0
VERTEX
  5
35F
330
2E6
100
AcDbEntity
  8
Make2D$可见线$普通线
100
AcDbVertex
100
AcDb2dVertex
 10
2305.490574685677
 20
1385.875198711116
 30
0.0
  0
VERTEX
  5
360
330
2E6
100
AcDbEntity
  8
Make2D$可见线$普通线
100
AcDbVertex
100
AcDb2dVertex
 10
2304.38339455962
 20
1385.308379505695
 30
0.0
  0
VERTEX
  5
361
330
2E6
100
AcDbEntity
  8
Make2D$可见线$普通线
100
AcDbVertex
100
AcDb2dVertex
 10
2303.281157743145
 20
1384.732024335339
 30
0.0
  0
VERTEX
  5
362
330
2E6
100
AcDbEntity
  8
Make2D$可见线$普通线
100
AcDbVertex
100
AcDb2dVertex
 10
2302.184010748364
 20
1384.146041086031
 30
0.0
  0
VERTEX
  5
363
330
2E6
100
AcDbEntity
  8
Make2D$可见线$普通线
100
AcDbVertex
100
AcDb2dVertex
 10
2301.09210008739
 20
1383.550337643749
 30
0.0
  0
VERTEX
  5
364
330
2E6
100
AcDbEntity
  8
Make2D$可见线$普通线
100
AcDbVertex
100
AcDb2dVertex
 10
2300.048661173136
 20
1382.969043417061
 30
0.0
  0
VERTEX
  5
365
330
2E6
100
AcDbEntity
  8
Make2D$可见线$普通线
100
AcDbVertex
100
AcDb2dVertex
 10
2299.010446663689
 20
1382.378463052864
 30
0.0
  0
VERTEX
  5
366
330
2E6
100
AcDbEntity
  8
Make2D$可见线$普通线
100
AcDbVertex
100
AcDb2dVertex
 10
2297.977717378541
 20
1381.778358456937
 30
0.0
  0
VERTEX
  5
367
330
2E6
100
AcDbEntity
  8
Make2D$可见线$普通线
100
AcDbVertex
100
AcDb2dVertex
 10
2296.950734137185
 20
1381.168491535058
 30
0.0
  0
VERTEX
  5
368
330
2E6
100
AcDbEntity
  8
Make2D$可见线$普通线
100
AcDbVertex
100
AcDb2dVertex
 10
2295.8056291759
 20
1380.472383462917
 30
0.0
  0
VERTEX
  5
369
330
2E6
100
AcDbEntity
  8
Make2D$可见线$普通线
100
AcDbVertex
100
AcDb2dVertex
 10
2294.668271240076
 20
1379.763687337224
 30
0.0
  0
VERTEX
  5
36A
330
2E6
100
AcDbEntity
  8
Make2D$可见线$普通线
100
AcDbVertex
100
AcDb2dVertex
 10
2293.538845904764
 20
1379.042403651507
 30
0.0
  0
VERTEX
  5
36B
330
2E6
100
AcDbEntity
  8
Make2D$可见线$普通线
100
AcDbVertex
100
AcDb2dVertex
 10
2292.41753874501
 20
1378.308532899292
 30
0.0
  0
VERTEX
  5
36C
330
2E6
100
AcDbEntity
  8
Make2D$可见线$普通线
100
AcDbVertex
100
AcDb2dVertex
 10
2291.448203488014
 20
1377.659429861793
 30
0.0
  0
VERTEX
  5
36D
330
2E6
100
AcDbEntity
  8
Make2D$可见线$普通线
100
AcDbVertex
100
AcDb2dVertex
 10
2290.485385015219
 20
1377.000694460926
 30
0.0
  0
VERTEX
  5
36E
330
2E6
100
AcDbEntity
  8
Make2D$可见线$普通线
100
AcDbVertex
100
AcDb2dVertex
 10
2289.529307668641
 20
1376.332232226071
 30
0.0
  0
VERTEX
  5
36F
330
2E6
100
AcDbEntity
  8
Make2D$可见线$普通线
100
AcDbVertex
100
AcDb2dVertex
 10
2288.580195790299
 20
1375.653948686609
 30
0.0
  0
VERTEX
  5
370
330
2E6
100
AcDbEntity
  8
Make2D$可见线$普通线
100
AcDbVertex
100
AcDb2dVertex
 10
2287.638273722209
 20
1374.965749371921
 30
0.0
  0
VERTEX
  5
371
330
2E6
100
AcDbEntity
  8
Make2D$可见线$普通线
100
AcDbVertex
100
AcDb2dVertex
 10
2286.703765806387
 20
1374.267539811389
 30
0.0
  0
VERTEX
  5
372
330
2E6
100
AcDbEntity
  8
Make2D$可见线$普通线
100
AcDbVertex
100
AcDb2dVertex
 10
2285.776896384852
 20
1373.559225534394
 30
0.0
  0
VERTEX
  5
373
330
2E6
100
AcDbEntity
  8
Make2D$可见线$普通线
100
AcDbVertex
100
AcDb2dVertex
 10
2284.857889799619
 20
1372.840712070315
 30
0.0
  0
VERTEX
  5
374
330
2E6
100
AcDbEntity
  8
Make2D$可见线$普通线
100
AcDbVertex
100
AcDb2dVertex
 10
2283.960417530932
 20
1372.122787400888
 30
0.0
  0
VERTEX
  5
375
330
2E6
100
AcDbEntity
  8
Make2D$可见线$普通线
100
AcDbVertex
100
AcDb2dVertex
 10
2283.071053969343
 20
1371.394817427649
 30
0.0
  0
VERTEX
  5
376
330
2E6
100
AcDbEntity
  8
Make2D$可见线$普通线
100
AcDbVertex
100
AcDb2dVertex
 10
2282.190058570405
 20
1370.65674766254
 30
0.0
  0
VERTEX
  5
377
330
2E6
100
AcDbEntity
  8
Make2D$可见线$普通线
100
AcDbVertex
100
AcDb2dVertex
 10
2281.317690789674
 20
1369.908523617507
 30
0.0
  0
VERTEX
  5
378
330
2E6
100
AcDbEntity
  8
Make2D$可见线$普通线
100
AcDbVertex
100
AcDb2dVertex
 10
2280.454210082703
 20
1369.150090804494
 30
0.0
  0
VERTEX
  5
379
330
2E6
100
AcDbEntity
  8
Make2D$可见线$普通线
100
AcDbVertex
100
AcDb2dVertex
 10
2279.599875905049
 20
1368.381394735446
 30
0.0
  0
VERTEX
  5
37A
330
2E6
100
AcDbEntity
  8
Make2D$可见线$普通线
100
AcDbVertex
100
AcDb2dVertex
 10
2278.754947712265
 20
1367.602380922306
 30
0.0
  0
VERTEX
  5
37B
330
2E6
100
AcDbEntity
  8
Make2D$可见线$普通线
100
AcDbVertex
100
AcDb2dVertex
 10
2277.919684959907
 20
1366.812994877019
 30
0.0
  0
VERTEX
  5
37C
330
2E6
100
AcDbEntity
  8
Make2D$可见线$普通线
100
AcDbVertex
100
AcDb2dVertex
 10
2277.103507796018
 20
1366.022188908918
 30
0.0
  0
VERTEX
  5
37D
330
2E6
100
AcDbEntity
  8
Make2D$可见线$普通线
100
AcDbVertex
100
AcDb2dVertex
 10
2276.297271553825
 20
1365.221226852336
 30
0.0
  0
VERTEX
  5
37E
330
2E6
100
AcDbEntity
  8
Make2D$可见线$普通线
100
AcDbVertex
100
AcDb2dVertex
 10
2275.501212738644
 20
1364.410147711467
 30
0.0
  0
VERTEX
  5
37F
330
2E6
100
AcDbEntity
  8
Make2D$可见线$普通线
100
AcDbVertex
100
AcDb2dVertex
 10
2274.71556785579
 20
1363.588990490505
 30
0.0
  0
VERTEX
  5
380
330
2E6
100
AcDbEntity
  8
Make2D$可见线$普通线
100
AcDbVertex
100
AcDb2dVertex
 10
2273.94057341058
 20
1362.757794193645
 30
0.0
  0
VERTEX
  5
381
330
2E6
100
AcDbEntity
  8
Make2D$可见线$普通线
100
AcDbVertex
100
AcDb2dVertex
 10
2273.17646590833
 20
1361.916597825081
 30
0.0
  0
VERTEX
  5
382
330
2E6
100
AcDbEntity
  8
Make2D$可见线$普通线
100
AcDbVertex
100
AcDb2dVertex
 10
2272.423481854356
 20
1361.065440389008
 30
0.0
  0
VERTEX
  5
383
330
2E6
100
AcDbEntity
  8
Make2D$可见线$普通线
100
AcDbVertex
100
AcDb2dVertex
 10
2271.681857753974
 20
1360.20436088962
 30
0.0
  0
VERTEX
  5
384
330
2E6
100
AcDbEntity
  8
Make2D$可见线$普通线
100
AcDbVertex
100
AcDb2dVertex
 10
2271.036487757956
 20
1359.435604330151
 30
0.0
  0
VERTEX
  5
385
330
2E6
100
AcDbEntity
  8
Make2D$可见线$普通线
100
AcDbVertex
100
AcDb2dVertex
 10
2270.400426234019
 20
1358.659126482571
 30
0.0
  0
VERTEX
  5
386
330
2E6
100
AcDbEntity
  8
Make2D$可见线$普通线
100
AcDbVertex
100
AcDb2dVertex
 10
2269.773935352485
 20
1357.874915751514
 30
0.0
  0
VERTEX
  5
387
330
2E6
100
AcDbEntity
  8
Make2D$可见线$普通线
100
AcDbVertex
100
AcDb2dVertex
 10
2269.157277283677
 20
1357.082960541615
 30
0.0
  0
VERTEX
  5
388
330
2E6
100
AcDbEntity
  8
Make2D$可见线$普通线
100
AcDbVertex
100
AcDb2dVertex
 10
2268.490036930028
 20
1356.202140558512
 30
0.0
  0
VERTEX
  5
389
330
2E6
100
AcDbEntity
  8
Make2D$可见线$普通线
100
AcDbVertex
100
AcDb2dVertex
 10
2267.835174849368
 20
1355.312076948743
 30
0.0
  0
VERTEX
  5
38A
330
2E6
100
AcDbEntity
  8
Make2D$可见线$普通线
100
AcDbVertex
100
AcDb2dVertex
 10
2267.192833965216
 20
1354.412926624309
 30
0.0
  0
VERTEX
  5
38B
330
2E6
100
AcDbEntity
  8
Make2D$可见线$普通线
100
AcDbVertex
100
AcDb2dVertex
 10
2266.563157201091
 20
1353.504846497209
 30
0.0
  0
VERTEX
  5
38C
330
2E6
100
AcDbEntity
  8
Make2D$可见线$普通线
100
AcDbVertex
100
AcDb2dVertex
 10
2265.985292602405
 20
1352.646778080841
 30
0.0
  0
VERTEX
  5
38D
330
2E6
100
AcDbEntity
  8
Make2D$可见线$普通线
100
AcDbVertex
100
AcDb2dVertex
 10
2265.418838994353
 20
1351.781129223022
 30
0.0
  0
VERTEX
  5
38E
330
2E6
100
AcDbEntity
  8
Make2D$可见线$普通线
100
AcDbVertex
100
AcDb2dVertex
 10
2264.863983253814
 20
1350.908008057921
 30
0.0
  0
VERTEX
  5
38F
330
2E6
100
AcDbEntity
  8
Make2D$可见线$普通线
100
AcDbVertex
100
AcDb2dVertex
 10
2264.32091225767
 20
1350.027522719706
 30
0.0
  0
VERTEX
  5
390
330
2E6
100
AcDbEntity
  8
Make2D$可见线$普通线
100
AcDbVertex
100
AcDb2dVertex
 10
2263.789812882801
 20
1349.139781342546
 30
0.0
  0
VERTEX
  5
391
330
2E6
100
AcDbEntity
  8
Make2D$可见线$普通线
100
AcDbVertex
100
AcDb2dVertex
 10
2263.270872006089
 20
1348.24489206061
 30
0.0
  0
VERTEX
  5
392
330
2E6
100
AcDbEntity
  8
Make2D$可见线$普通线
100
AcDbVertex
100
AcDb2dVertex
 10
2262.764276504415
 20
1347.342963008066
 30
0.0
  0
VERTEX
  5
393
330
2E6
100
AcDbEntity
  8
Make2D$可见线$普通线
100
AcDbVertex
100
AcDb2dVertex
 10
2262.270213254659
 20
1346.434102319082
 30
0.0
  0
VERTEX
  5
394
330
2E6
100
AcDbEntity
  8
Make2D$可见线$普通线
100
AcDbVertex
100
AcDb2dVertex
 10
2261.769172720659
 20
1345.480299094965
 30
0.0
  0
VERTEX
  5
395
330
2E6
100
AcDbEntity
  8
Make2D$可见线$普通线
100
AcDbVertex
100
AcDb2dVertex
 10
2261.282095776985
 20
1344.519278047996
 30
0.0
  0
VERTEX
  5
396
330
2E6
100
AcDbEntity
  8
Make2D$可见线$普通线
100
AcDbVertex
100
AcDb2dVertex
 10
2260.809149796522
 20
1343.55122268937
 30
0.0
  0
VERTEX
  5
397
330
2E6
100
AcDbEntity
  8
Make2D$可见线$普通线
100
AcDbVertex
100
AcDb2dVertex
 10
2260.350502152153
 20
1342.576316530285
 30
0.0
  0
VERTEX
  5
398
330
2E6
100
AcDbEntity
  8
Make2D$可见线$普通线
100
AcDbVertex
100
AcDb2dVertex
 10
2259.928766983546
 20
1341.645358223683
 30
0.0
  0
VERTEX
  5
399
330
2E6
100
AcDbEntity
  8
Make2D$可见线$普通线
100
AcDbVertex
100
AcDb2dVertex
 10
2259.52003837438
 20
1340.708617456222
 30
0.0
  0
VERTEX
  5
39A
330
2E6
100
AcDbEntity
  8
Make2D$可见线$普通线
100
AcDbVertex
100
AcDb2dVertex
 10
2259.124305824441
 20
1339.766311369428
 30
0.0
  0
VERTEX
  5
39B
330
2E6
100
AcDbEntity
  8
Make2D$可见线$普通线
100
AcDbVertex
100
AcDb2dVertex
 10
2258.741558833517
 20
1338.818657104827
 30
0.0
  0
VERTEX
  5
39C
330
2E6
100
AcDbEntity
  8
Make2D$可见线$普通线
100
AcDbVertex
100
AcDb2dVertex
 10
2250.385931319423
 20
1317.759778053557
 30
0.0
  0
VERTEX
  5
39D
330
2E6
100
AcDbEntity
  8
Make2D$可见线$普通线
100
AcDbVertex
100
AcDb2dVertex
 10
2242.15550424702
 20
1297.110420870235
 30
0.0
  0
VERTEX
  5
39E
330
2E6
100
AcDbEntity
  8
Make2D$可见线$普通线
100
AcDbVertex
100
AcDb2dVertex
 10
2234.053331509578
 20
1276.869394911458
 30
0.0
  0
VERTEX
  5
39F
330
2E6
100
AcDbEntity
  8
Make2D$可见线$普通线
100
AcDbVertex
100
AcDb2dVertex
 10
2226.08246700037
 20
1257.035509533824
 30
0.0
  0
VERTEX
  5
3A0
330
2E6
100
AcDbEntity
  8
Make2D$可见线$普通线
100
AcDbVertex
100
AcDb2dVertex
 10
2218.245960953103
 20
1237.607573140232
 30
0.0
  0
VERTEX
  5
3A1
330
2E6
100
AcDbEntity
  8
Make2D$可见线$普通线
100
AcDbVertex
100
AcDb2dVertex
 10
2210.546848963215
 20
1218.584390318805
 30
0.0
  0
VERTEX
  5
3A2
330
2E6
100
AcDbEntity
  8
Make2D$可见线$普通线
100
AcDbVertex
100
AcDb2dVertex
 10
2202.988162966581
 20
1199.964764703965
 30
0.0
  0
VERTEX
  5
3A3
330
2E6
100
AcDbEntity
  8
Make2D$可见线$普通线
100
AcDbVertex
100
AcDb2dVertex
 10
2195.572934899072
 20
1181.747499930138
 30
0.0
  0
VERTEX
  5
3A4
330
2E6
100
AcDbEntity
  8
Make2D$可见线$普通线
100
AcDbVertex
100
AcDb2dVertex
 10
2188.30411317459
 20
1163.931410841157
 30
0.0
  0
VERTEX
  5
3A5
330
2E6
100
AcDbEntity
  8
Make2D$可见线$普通线
100
AcDbVertex
100
AcDb2dVertex
 10
2181.184312119103
 20
1146.515357118362
 30
0.0
  0
VERTEX
  5
3A6
330
2E6
100
AcDbEntity
  8
Make2D$可见线$普通线
100
AcDbVertex
100
AcDb2dVertex
 10
2167.401895231099
 20
1112.878839334332
 30
0.0
  0
VERTEX
  5
3A7
330
2E6
100
AcDbEntity
  8
Make2D$可见线$普通线
100
AcDbVertex
100
AcDb2dVertex
 10
2129.870172304249
 20
1021.467158607942
 30
0.0
  0
VERTEX
  5
3A8
330
2E6
100
AcDbEntity
  8
Make2D$可见线$普通线
100
AcDbVertex
100
AcDb2dVertex
 10
2118.676047649123
 20
994.1447477387036
 30
0.0
  0
VERTEX
  5
3A9
330
2E6
100
AcDbEntity
  8
Make2D$可见线$普通线
100
AcDbVertex
100
AcDb2dVertex
 10
2118.413755391427
 20
993.4767458911525
 30
0.0
  0
VERTEX
  5
3AA
330
2E6
100
AcDbEntity
  8
Make2D$可见线$普通线
100
AcDbVertex
100
AcDb2dVertex
 10
2118.171113632426
 20
992.8012313121851
 30
0.0
  0
VERTEX
  5
3AB
330
2E6
100
AcDbEntity
  8
Make2D$可见线$普通线
100
AcDbVertex
100
AcDb2dVertex
 10
2117.948750810431
 20
992.1187501571106
 30
0.0
  0
VERTEX
  5
3AC
330
2E6
100
AcDbEntity
  8
Make2D$可见线$普通线
100
AcDbVertex
100
AcDb2dVertex
 10
2117.747295363752
 20
991.4298485812385
 30
0.0
  0
VERTEX
  5
3AD
330
2E6
100
AcDbEntity
  8
Make2D$可见线$普通线
100
AcDbVertex
100
AcDb2dVertex
 10
2117.560126745922
 20
990.705259061843
 30
0.0
  0
VERTEX
  5
3AE
330
2E6
100
AcDbEntity
  8
Make2D$可见线$普通线
100
AcDbVertex
100
AcDb2dVertex
 10
2117.396808539997
 20
989.9749779361607
 30
0.0
  0
VERTEX
  5
3AF
330
2E6
100
AcDbEntity
  8
Make2D$可见线$普通线
100
AcDbVertex
100
AcDb2dVertex
 10
2117.257774538364
 20
989.2397008857147
 30
0.0
  0
VERTEX
  5
3B0
330
2E6
100
AcDbEntity
  8
Make2D$可见线$普通线
100
AcDbVertex
100
AcDb2dVertex
 10
2117.143458533417
 20
988.500123592028
 30
0.0
  0
VERTEX
  5
3B1
330
2E6
100
AcDbEntity
  8
Make2D$可见线$普通线
100
AcDbVertex
100
AcDb2dVertex
 10
2117.061051467204
 20
987.8219736101487
 30
0.0
  0
VERTEX
  5
3B2
330
2E6
100
AcDbEntity
  8
Make2D$可见线$普通线
100
AcDbVertex
100
AcDb2dVertex
 10
2116.999846234892
 20
987.1415332380175
 30
0.0
  0
VERTEX
  5
3B3
330
2E6
100
AcDbEntity
  8
Make2D$可见线$普通线
100
AcDbVertex
100
AcDb2dVertex
 10
2116.960092423238
 20
986.4595148009234
 30
0.0
  0
VERTEX
  5
3B4
330
2E6
100
AcDbEntity
  8
Make2D$可见线$普通线
100
AcDbVertex
100
AcDb2dVertex
 10
2116.942039619004
 20
985.7766306241555
 30
0.0
  0
VERTEX
  5
3B5
330
2E6
100
AcDbEntity
  8
Make2D$可见线$普通线
100
AcDbVertex
100
AcDb2dVertex
 10
2116.945937408947
 20
985.0935930330029
 30
0.0
  0
VERTEX
  5
3B6
330
2E6
100
AcDbEntity
  8
Make2D$可见线$普通线
100
AcDbVertex
100
AcDb2dVertex
 10
2116.972035379825
 20
984.4111143527548
 30
0.0
  0
VERTEX
  5
3B7
330
2E6
100
AcDbEntity
  8
Make2D$可见线$普通线
100
AcDbVertex
100
AcDb2dVertex
 10
2117.020583118398
 20
983.7299069087003
 30
0.0
  0
VERTEX
  5
3B8
330
2E6
100
AcDbEntity
  8
Make2D$可见线$普通线
100
AcDbVertex
100
AcDb2dVertex
 10
2117.091830211426
 20
983.0506830261285
 30
0.0
  0
VERTEX
  5
3B9
330
2E6
100
AcDbEntity
  8
Make2D$可见线$普通线
100
AcDbVertex
100
AcDb2dVertex
 10
2117.186257613744
 20
982.3722417887834
 30
0.0
  0
VERTEX
  5
3BA
330
2E6
100
AcDbEntity
  8
Make2D$可见线$普通线
100
AcDbVertex
100
AcDb2dVertex
 10
2117.303593959073
 20
981.6973058721184
 30
0.0
  0
VERTEX
  5
3BB
330
2E6
100
AcDbEntity
  8
Make2D$可见线$普通线
100
AcDbVertex
100
AcDb2dVertex
 10
2117.443668099252
 20
981.0266693034293
 30
0.0
  0
VERTEX
  5
3BC
330
2E6
100
AcDbEntity
  8
Make2D$可见线$普通线
100
AcDbVertex
100
AcDb2dVertex
 10
2117.606308886122
 20
980.3611261100126
 30
0.0
  0
VERTEX
  5
3BD
330
2E6
100
AcDbEntity
  8
Make2D$可见线$普通线
100
AcDbVertex
100
AcDb2dVertex
 10
2117.791345171523
 20
979.7014703191642
 30
0.0
  0
VERTEX
  5
3BE
330
2E6
100
AcDbEntity
  8
Make2D$可见线$普通线
100
AcDbVertex
100
AcDb2dVertex
 10
2117.998605807295
 20
979.04849595818
 30
0.0
  0
VERTEX
  5
3BF
330
2E6
100
AcDbEntity
  8
Make2D$可见线$普通线
100
AcDbVertex
100
AcDb2dVertex
 10
2118.227919645278
 20
978.4029970543563
 30
0.0
  0
VERTEX
  5
3C0
330
2E6
100
AcDbEntity
  8
Make2D$可见线$普通线
100
AcDbVertex
100
AcDb2dVertex
 10
2118.479115537313
 20
977.7657676349893
 30
0.0
  0
VERTEX
  5
3C1
330
2E6
100
AcDbEntity
  8
Make2D$可见线$普通线
100
AcDbVertex
100
AcDb2dVertex
 10
2118.758042247491
 20
977.1242063290974
 30
0.0
  0
VERTEX
  5
3C2
330
2E6
100
AcDbEntity
  8
Make2D$可见线$普通线
100
AcDbVertex
100
AcDb2dVertex
 10
2119.059053349936
 20
976.4927042670422
 30
0.0
  0
VERTEX
  5
3C3
330
2E6
100
AcDbEntity
  8
Make2D$可见线$普通线
100
AcDbVertex
100
AcDb2dVertex
 10
2119.381581948207
 20
975.8718646053605
 30
0.0
  0
VERTEX
  5
3C4
330
2E6
100
AcDbEntity
  8
Make2D$可见线$普通线
100
AcDbVertex
100
AcDb2dVertex
 10
2119.725061145859
 20
975.2622905005899
 30
0.0
  0
VERTEX
  5
3C5
330
2E6
100
AcDbEntity
  8
Make2D$可见线$普通线
100
AcDbVertex
100
AcDb2dVertex
 10
2120.088924046451
 20
974.664585109268
 30
0.0
  0
VERTEX
  5
3C6
330
2E6
100
AcDbEntity
  8
Make2D$可见线$普通线
100
AcDbVertex
100
AcDb2dVertex
 10
2120.472603753539
 20
974.0793515879323
 30
0.0
  0
VERTEX
  5
3C7
330
2E6
100
AcDbEntity
  8
Make2D$可见线$普通线
100
AcDbVertex
100
AcDb2dVertex
 10
2120.87553337068
 20
973.5071930931201
 30
0.0
  0
VERTEX
  5
3C8
330
2E6
100
AcDbEntity
  8
Make2D$可见线$普通线
100
AcDbVertex
100
AcDb2dVertex
 10
2121.297146001432
 20
972.9487127813692
 30
0.0
  0
VERTEX
  5
3C9
330
2E6
100
AcDbEntity
  8
Make2D$可见线$普通线
100
AcDbVertex
100
AcDb2dVertex
 10
2121.757037951865
 20
972.3803390959191
 30
0.0
  0
VERTEX
  5
3CA
330
2E6
100
AcDbEntity
  8
Make2D$可见线$普通线
100
AcDbVertex
100
AcDb2dVertex
 10
2122.235929975555
 20
971.8279245930286
 30
0.0
  0
VERTEX
  5
3CB
330
2E6
100
AcDbEntity
  8
Make2D$可见线$普通线
100
AcDbVertex
100
AcDb2dVertex
 10
2122.733040494098
 20
971.2918341376343
 30
0.0
  0
VERTEX
  5
3CC
330
2E6
100
AcDbEntity
  8
Make2D$可见线$普通线
100
AcDbVertex
100
AcDb2dVertex
 10
2123.247587929088
 20
970.772432594673
 30
0.0
  0
VERTEX
  5
3CD
330
2E6
100
AcDbEntity
  8
Make2D$可见线$普通线
100
AcDbVertex
100
AcDb2dVertex
 10
2123.75206486856
 20
970.2945631685291
 30
0.0
  0
VERTEX
  5
3CE
330
2E6
100
AcDbEntity
  8
Make2D$可见线$普通线
100
AcDbVertex
100
AcDb2dVertex
 10
2124.270887993252
 20
969.8322664298594
 30
0.0
  0
VERTEX
  5
3CF
330
2E6
100
AcDbEntity
  8
Make2D$可见线$普通线
100
AcDbVertex
100
AcDb2dVertex
 10
2124.803358975274
 20
969.3857106488541
 30
0.0
  0
VERTEX
  5
3D0
330
2E6
100
AcDbEntity
  8
Make2D$可见线$普通线
100
AcDbVertex
100
AcDb2dVertex
 10
2125.348779486736
 20
968.9550640957034
 30
0.0
  0
VERTEX
  5
3D1
330
2E6
100
AcDbEntity
  8
Make2D$可见线$普通线
100
AcDbVertex
100
AcDb2dVertex
 10
2125.930566880813
 20
968.5231286630731
 30
0.0
  0
VERTEX
  5
3D2
330
2E6
100
AcDbEntity
  8
Make2D$可见线$普通线
100
AcDbVertex
100
AcDb2dVertex
 10
2126.52500856801
 20
968.1088031878261
 30
0.0
  0
VERTEX
  5
3D3
330
2E6
100
AcDbEntity
  8
Make2D$可见线$普通线
100
AcDbVertex
100
AcDb2dVertex
 10
2127.131438141005
 20
967.7122166044069
 30
0.0
  0
VERTEX
  5
3D4
330
2E6
100
AcDbEntity
  8
Make2D$可见线$普通线
100
AcDbVertex
100
AcDb2dVertex
 10
2127.749189192476
 20
967.3334978472599
 30
0.0
  0
VERTEX
  5
3D5
330
2E6
100
AcDbEntity
  8
Make2D$可见线$普通线
100
AcDbVertex
100
AcDb2dVertex
 10
2128.409834535832
 20
966.9548873546883
 30
0.0
  0
VERTEX
  5
3D6
330
2E6
100
AcDbEntity
  8
Make2D$可见线$普通线
100
AcDbVertex
100
AcDb2dVertex
 10
2129.081495631842
 20
966.5961549402648
 30
0.0
  0
VERTEX
  5
3D7
330
2E6
100
AcDbEntity
  8
Make2D$可见线$普通线
100
AcDbVertex
100
AcDb2dVertex
 10
2129.763421689996
 20
966.2573046091486
 30
0.0
  0
VERTEX
  5
3D8
330
2E6
100
AcDbEntity
  8
Make2D$可见线$普通线
100
AcDbVertex
100
AcDb2dVertex
 10
2130.454861919782
 20
965.938340366499
 30
0.0
  0
VERTEX
  5
3D9
330
2E6
100
AcDbEntity
  8
Make2D$可见线$普通线
100
AcDbVertex
100
AcDb2dVertex
 10
2131.194998018085
 20
965.6228588764583
 30
0.0
  0
VERTEX
  5
3DA
330
2E6
100
AcDbEntity
  8
Make2D$可见线$普通线
100
AcDbVertex
100
AcDb2dVertex
 10
2131.944093266263
 20
965.3292511927523
 30
0.0
  0
VERTEX
  5
3DB
330
2E6
100
AcDbEntity
  8
Make2D$可见线$普通线
100
AcDbVertex
100
AcDb2dVertex
 10
2132.701322181251
 20
965.0571831106133
 30
0.0
  0
VERTEX
  5
3DC
330
2E6
100
AcDbEntity
  8
Make2D$可见线$普通线
100
AcDbVertex
100
AcDb2dVertex
 10
2133.465859279984
 20
964.8063204252741
 30
0.0
  0
VERTEX
  5
3DD
330
2E6
100
AcDbEntity
  8
Make2D$可见线$普通线
100
AcDbVertex
100
AcDb2dVertex
 10
2134.198082639809
 20
964.5874267855972
 30
0.0
  0
VERTEX
  5
3DE
330
2E6
100
AcDbEntity
  8
Make2D$可见线$普通线
100
AcDbVertex
100
AcDb2dVertex
 10
2134.935655830459
 20
964.3873708261808
 30
0.0
  0
VERTEX
  5
3DF
330
2E6
100
AcDbEntity
  8
Make2D$可见线$普通线
100
AcDbVertex
100
AcDb2dVertex
 10
2135.678080258361
 20
964.2061611011845
 30
0.0
  0
VERTEX
  5
3E0
330
2E6
100
AcDbEntity
  8
Make2D$可见线$普通线
100
AcDbVertex
100
AcDb2dVertex
 10
2136.424857329947
 20
964.0438061647676
 30
0.0
  0
VERTEX
  5
3E1
330
2E6
100
AcDbEntity
  8
Make2D$可见线$普通线
100
AcDbVertex
100
AcDb2dVertex
 10
2137.202162647987
 20
963.8955532667103
 30
0.0
  0
VERTEX
  5
3E2
330
2E6
100
AcDbEntity
  8
Make2D$可见线$普通线
100
AcDbVertex
100
AcDb2dVertex
 10
2137.983049286296
 20
963.7674085592073
 30
0.0
  0
VERTEX
  5
3E3
330
2E6
100
AcDbEntity
  8
Make2D$可见线$普通线
100
AcDbVertex
100
AcDb2dVertex
 10
2138.766966426408
 20
963.6592558073692
 30
0.0
  0
VERTEX
  5
3E4
330
2E6
100
AcDbEntity
  8
Make2D$可见线$普通线
100
AcDbVertex
100
AcDb2dVertex
 10
2139.55336324986
 20
963.5709787763062
 30
0.0
  0
VERTEX
  5
3E5
330
2E6
100
AcDbEntity
  8
Make2D$可见线$普通线
100
AcDbVertex
100
AcDb2dVertex
 10
2140.377500333649
 20
963.4997679903531
 30
0.0
  0
VERTEX
  5
3E6
330
2E6
100
AcDbEntity
  8
Make2D$可见线$普通线
100
AcDbVertex
100
AcDb2dVertex
 10
2141.203197580514
 20
963.449707110186
 30
0.0
  0
VERTEX
  5
3E7
330
2E6
100
AcDbEntity
  8
Make2D$可见线$普通线
100
AcDbVertex
100
AcDb2dVertex
 10
2142.029907320458
 20
963.4203531874301
 30
0.0
  0
VERTEX
  5
3E8
330
2E6
100
AcDbEntity
  8
Make2D$可见线$普通线
100
AcDbVertex
100
AcDb2dVertex
 10
2142.857081883479
 20
963.411263273723
 30
0.0
 42
-0.0005782288290816
  0
VERTEX
  5
3E9
330
2E6
100
AcDbEntity
  8
Make2D$可见线$普通线
100
AcDbVertex
100
AcDb2dVertex
 10
2655.395024799072
 20
963.376561950281
 30
0.0
  0
VERTEX
  5
3EA
330
2E6
100
AcDbEntity
  8
Make2D$可见线$普通线
100
AcDbVertex
100
AcDb2dVertex
 10
2655.870077788642
 20
963.3812081321465
 30
0.0
  0
VERTEX
  5
3EB
330
2E6
100
AcDbEntity
  8
Make2D$可见线$普通线
100
AcDbVertex
100
AcDb2dVertex
 10
2656.344951036868
 20
963.3960324674213
 30
0.0
  0
VERTEX
  5
3EC
330
2E6
100
AcDbEntity
  8
Make2D$可见线$普通线
100
AcDbVertex
100
AcDb2dVertex
 10
2656.819388643486
 20
963.4212499781154
 30
0.0
  0
VERTEX
  5
3ED
330
2E6
100
AcDbEntity
  8
Make2D$可见线$普通线
100
AcDbVertex
100
AcDb2dVertex
 10
2657.293134708229
 20
963.4570756862387
 30
0.0
  0
VERTEX
  5
3EE
330
2E6
100
AcDbEntity
  8
Make2D$可见线$普通线
100
AcDbVertex
100
AcDb2dVertex
 10
2657.814259915069
 20
963.5090659172388
 30
0.0
  0
VERTEX
  5
3EF
330
2E6
100
AcDbEntity
  8
Make2D$可见线$普通线
100
AcDbVertex
100
AcDb2dVertex
 10
2658.333902661231
 20
963.5741843008877
 30
0.0
  0
VERTEX
  5
3F0
330
2E6
100
AcDbEntity
  8
Make2D$可见线$普通线
100
AcDbVertex
100
AcDb2dVertex
 10
2658.851731782475
 20
963.652407016341
 30
0.0
  0
VERTEX
  5
3F1
330
2E6
100
AcDbEntity
  8
Make2D$可见线$普通线
100
AcDbVertex
100
AcDb2dVertex
 10
2659.367416114556
 20
963.7437102427546
 30
0.0
  0
VERTEX
  5
3F2
330
2E6
100
AcDbEntity
  8
Make2D$可见线$普通线
100
AcDbVertex
100
AcDb2dVertex
 10
2659.874572761211
 20
963.8467499210235
 30
0.0
  0
VERTEX
  5
3F3
330
2E6
100
AcDbEntity
  8
Make2D$可见线$普通线
100
AcDbVertex
100
AcDb2dVertex
 10
2660.378996254131
 20
963.9624557555114
 30
0.0
  0
VERTEX
  5
3F4
330
2E6
100
AcDbEntity
  8
Make2D$可见线$普通线
100
AcDbVertex
100
AcDb2dVertex
 10
2660.880371187845
 20
964.0907441512493
 30
0.0
  0
VERTEX
  5
3F5
330
2E6
100
AcDbEntity
  8
Make2D$可见线$普通线
100
AcDbVertex
100
AcDb2dVertex
 10
2661.378382156882
 20
964.2315315132674
 30
0.0
  0
VERTEX
  5
3F6
330
2E6
100
AcDbEntity
  8
Make2D$可见线$普通线
100
AcDbVertex
100
AcDb2dVertex
 10
2661.872713755771
 20
964.3847342465965
 30
0.0
  0
VERTEX
  5
3F7
330
2E6
100
AcDbEntity
  8
Make2D$可见线$普通线
100
AcDbVertex
100
AcDb2dVertex
 10
2662.363050579041
 20
964.5502687562672
 30
0.0
  0
VERTEX
  5
3F8
330
2E6
100
AcDbEntity
  8
Make2D$可见线$普通线
100
AcDbVertex
100
AcDb2dVertex
 10
2662.849077221221
 20
964.7280514473101
 30
0.0
  0
VERTEX
  5
3F9
330
2E6
100
AcDbEntity
  8
Make2D$可见线$普通线
100
AcDbVertex
100
AcDb2dVertex
 10
2663.330478276839
 20
964.9179987247558
 30
0.0
  0
VERTEX
  5
3FA
330
2E6
100
AcDbEntity
  8
Make2D$可见线$普通线
100
AcDbVertex
100
AcDb2dVertex
 10
2663.747948482479
 20
965.0942548295841
 30
0.0
  0
VERTEX
  5
3FB
330
2E6
100
AcDbEntity
  8
Make2D$可见线$普通线
100
AcDbVertex
100
AcDb2dVertex
 10
2664.161374474935
 20
965.2797847373562
 30
0.0
  0
VERTEX
  5
3FC
330
2E6
100
AcDbEntity
  8
Make2D$可见线$普通线
100
AcDbVertex
100
AcDb2dVertex
 10
2664.570500347383
 20
965.4745996380811
 30
0.0
  0
VERTEX
  5
3FD
330
2E6
100
AcDbEntity
  8
Make2D$可见线$普通线
100
AcDbVertex
100
AcDb2dVertex
 10
2664.975070193
 20
965.6787107217681
 30
0.0
  0
VERTEX
  5
3FE
330
2E6
100
AcDbEntity
  8
Make2D$可见线$普通线
100
AcDbVertex
100
AcDb2dVertex
 10
2665.4190204593
 20
965.9164299800074
 30
0.0
  0
VERTEX
  5
3FF
330
2E6
100
AcDbEntity
  8
Make2D$可见线$普通线
100
AcDbVertex
100
AcDb2dVertex
 10
2665.856723773435
 20
966.1654858533261
 30
0.0
  0
VERTEX
  5
400
330
2E6
100
AcDbEntity
  8
Make2D$可见线$普通线
100
AcDbVertex
100
AcDb2dVertex
 10
2666.28787586747
 20
966.4257204553157
 30
0.0
  0
VERTEX
  5
401
330
2E6
100
AcDbEntity
  8
Make2D$可见线$普通线
100
AcDbVertex
100
AcDb2dVertex
 10
2666.712172473464
 20
966.6969758995676
 30
0.0
  0
VERTEX
  5
402
330
2E6
100
AcDbEntity
  8
Make2D$可见线$普通线
100
AcDbVertex
100
AcDb2dVertex
 10
2667.12650542837
 20
966.9771277359359
 30
0.0
  0
VERTEX
  5
403
330
2E6
100
AcDbEntity
  8
Make2D$可见线$普通线
100
AcDbVertex
100
AcDb2dVertex
 10
2667.533536628504
 20
967.2677780970614
 30
0.0
  0
VERTEX
  5
404
330
2E6
100
AcDbEntity
  8
Make2D$可见线$普通线
100
AcDbVertex
100
AcDb2dVertex
 10
2667.933026962742
 20
967.5687098930362
 30
0.0
  0
VERTEX
  5
405
330
2E6
100
AcDbEntity
  8
Make2D$可见线$普通线
100
AcDbVertex
100
AcDb2dVertex
 10
2668.324737319957
 20
967.8797060339517
 30
0.0
  0
VERTEX
  5
406
330
2E6
100
AcDbEntity
  8
Make2D$可见线$普通线
100
AcDbVertex
100
AcDb2dVertex
 10
2668.708428589027
 20
968.2005494298999
 30
0.0
  0
VERTEX
  5
407
330
2E6
100
AcDbEntity
  8
Make2D$可见线$普通线
100
AcDbVertex
100
AcDb2dVertex
 10
2669.083861658826
 20
968.5310229909724
 30
0.0
  0
VERTEX
  5
408
330
2E6
100
AcDbEntity
  8
Make2D$可见线$普通线
100
AcDbVertex
100
AcDb2dVertex
 10
2669.450797418229
 20
968.8709096272609
 30
0.0
  0
VERTEX
  5
409
330
2E6
100
AcDbEntity
  8
Make2D$可见线$普通线
100
AcDbVertex
100
AcDb2dVertex
 10
2669.808996756112
 20
969.2199922488572
 30
0.0
  0
VERTEX
  5
40A
330
2E6
100
AcDbEntity
  8
Make2D$可见线$普通线
100
AcDbVertex
100
AcDb2dVertex
 10
2670.158381043789
 20
969.5782151485323
 30
0.0
  0
VERTEX
  5
40B
330
2E6
100
AcDbEntity
  8
Make2D$可见线$普通线
100
AcDbVertex
100
AcDb2dVertex
 10
2670.498563802386
 20
969.9451860633484
 30
0.0
  0
VERTEX
  5
40C
330
2E6
100
AcDbEntity
  8
Make2D$可见线$普通线
100
AcDbVertex
100
AcDb2dVertex
 10
2670.829327208312
 20
970.3206659371411
 30
0.0
  0
VERTEX
  5
40D
330
2E6
100
AcDbEntity
  8
Make2D$可见线$普通线
100
AcDbVertex
100
AcDb2dVertex
 10
2671.150453437976
 20
970.7044157137461
 30
0.0
  0
VERTEX
  5
40E
330
2E6
100
AcDbEntity
  8
Make2D$可见线$普通线
100
AcDbVertex
100
AcDb2dVertex
 10
2671.461724667787
 20
971.0961963369989
 30
0.0
  0
VERTEX
  5
40F
330
2E6
100
AcDbEntity
  8
Make2D$可见线$普通线
100
AcDbVertex
100
AcDb2dVertex
 10
2671.762923074155
 20
971.4957687507348
 30
0.0
  0
VERTEX
  5
410
330
2E6
100
AcDbEntity
  8
Make2D$可见线$普通线
100
AcDbVertex
100
AcDb2dVertex
 10
2672.053830833486
 20
971.9028938987894
 30
0.0
  0
VERTEX
  5
411
330
2E6
100
AcDbEntity
  8
Make2D$可见线$普通线
100
AcDbVertex
100
AcDb2dVertex
 10
2672.334230122192
 20
972.3173327249983
 30
0.0
  0
VERTEX
  5
412
330
2E6
100
AcDbEntity
  8
Make2D$可见线$普通线
100
AcDbVertex
100
AcDb2dVertex
 10
2672.605739700991
 20
972.741769036365
 30
0.0
  0
VERTEX
  5
413
330
2E6
100
AcDbEntity
  8
Make2D$可见线$普通线
100
AcDbVertex
100
AcDb2dVertex
 10
2672.866228097596
 20
973.1730673995716
 30
0.0
  0
VERTEX
  5
414
330
2E6
100
AcDbEntity
  8
Make2D$可见线$普通线
100
AcDbVertex
100
AcDb2dVertex
 10
2673.115549033344
 20
973.6109172278847
 30
0.0
  0
VERTEX
  5
415
330
2E6
100
AcDbEntity
  8
Make2D$可见线$普通线
100
AcDbVertex
100
AcDb2dVertex
 10
2673.35355622957
 20
974.055007934571
 30
0.0
  0
VERTEX
  5
416
330
2E6
100
AcDbEntity
  8
Make2D$可见线$普通线
100
AcDbVertex
100
AcDb2dVertex
 10
2673.557789199919
 20
974.4593648807742
 30
0.0
  0
VERTEX
  5
417
330
2E6
100
AcDbEntity
  8
Make2D$可见线$普通线
100
AcDbVertex
100
AcDb2dVertex
 10
2673.752753428469
 20
974.8682676071703
 30
0.0
  0
VERTEX
  5
418
330
2E6
100
AcDbEntity
  8
Make2D$可见线$普通线
100
AcDbVertex
100
AcDb2dVertex
 10
2673.938444546797
 20
975.2814677971977
 30
0.0
  0
VERTEX
  5
419
330
2E6
100
AcDbEntity
  8
Make2D$可见线$普通线
100
AcDbVertex
100
AcDb2dVertex
 10
2674.114858186481
 20
975.6987171342951
 30
0.0
  0
VERTEX
  5
41A
330
2E6
100
AcDbEntity
  8
Make2D$可见线$普通线
100
AcDbVertex
100
AcDb2dVertex
 10
2674.304983146412
 20
976.1799245398072
 30
0.0
  0
VERTEX
  5
41B
330
2E6
100
AcDbEntity
  8
Make2D$可见线$普通线
100
AcDbVertex
100
AcDb2dVertex
 10
2674.482923075324
 20
976.6657721526965
 30
0.0
  0
VERTEX
  5
41C
330
2E6
100
AcDbEntity
  8
Make2D$可见线$普通线
100
AcDbVertex
100
AcDb2dVertex
 10
2674.648601280796
 20
977.1559419276969
 30
0.0
  0
VERTEX
  5
41D
330
2E6
100
AcDbEntity
  8
Make2D$可见线$普通线
100
AcDbVertex
100
AcDb2dVertex
 10
2674.80194107041
 20
977.6501158195423
 30
0.0
  0
VERTEX
  5
41E
330
2E6
100
AcDbEntity
  8
Make2D$可见线$普通线
100
AcDbVertex
100
AcDb2dVertex
 10
2674.942865751745
 20
978.1479757829663
 30
0.0
  0
VERTEX
  5
41F
330
2E6
100
AcDbEntity
  8
Make2D$可见线$普通线
100
AcDbVertex
100
AcDb2dVertex
 10
2675.071298632379
 20
978.649203772703
 30
0.0
  0
VERTEX
  5
420
330
2E6
100
AcDbEntity
  8
Make2D$可见线$普通线
100
AcDbVertex
100
AcDb2dVertex
 10
2675.187163019893
 20
979.1534817434862
 30
0.0
  0
VERTEX
  5
421
330
2E6
100
AcDbEntity
  8
Make2D$可见线$普通线
100
AcDbVertex
100
AcDb2dVertex
 10
2675.290382221866
 20
979.6604916500495
 30
0.0
  0
VERTEX
  5
422
330
2E6
100
AcDbEntity
  8
Make2D$可见线$普通线
100
AcDbVertex
100
AcDb2dVertex
 10
2675.382062969467
 20
980.1770573649792
 30
0.0
  0
VERTEX
  5
423
330
2E6
100
AcDbEntity
  8
Make2D$可见线$普通线
100
AcDbVertex
100
AcDb2dVertex
 10
2675.460632212268
 20
980.6957759148736
 30
0.0
  0
VERTEX
  5
424
330
2E6
100
AcDbEntity
  8
Make2D$可见线$普通线
100
AcDbVertex
100
AcDb2dVertex
 10
2675.526058723594
 20
981.2163182401697
 30
0.0
  0
VERTEX
  5
425
330
2E6
100
AcDbEntity
  8
Make2D$可见线$普通线
100
AcDbVertex
100
AcDb2dVertex
 10
2675.578311276775
 20
981.7383552813046
 30
0.0
  0
VERTEX
  5
426
330
2E6
100
AcDbEntity
  8
Make2D$可见线$普通线
100
AcDbVertex
100
AcDb2dVertex
 10
2675.614360130586
 20
982.2134360296577
 30
0.0
  0
VERTEX
  5
427
330
2E6
100
AcDbEntity
  8
Make2D$可见线$普通线
100
AcDbVertex
100
AcDb2dVertex
 10
2675.63972336465
 20
982.689216579403
 30
0.0
  0
VERTEX
  5
428
330
2E6
100
AcDbEntity
  8
Make2D$可见线$普通线
100
AcDbVertex
100
AcDb2dVertex
 10
2675.654605084786
 20
983.165435467314
 30
0.0
  0
VERTEX
  5
429
330
2E6
100
AcDbEntity
  8
Make2D$可见线$普通线
100
AcDbVertex
100
AcDb2dVertex
 10
2675.659209396823
 20
983.6418312301644
 30
0.0
 42
-0.000614430010414
  0
VERTEX
  5
42A
330
2E6
100
AcDbEntity
  8
Make2D$可见线$普通线
100
AcDbVertex
100
AcDb2dVertex
 10
2675.656778790668
 20
1386.266383199052
 30
0.0
  0
SEQEND
  5
42B
330
2E6
100
AcDbEntity
  8
Make2D$可见线$普通线
  0
POLYLINE
  5
42C
330
1F
100
AcDbEntity
  8
Make2D$可见线$普通线
100
AcDb2dPolyline
 66
     1
 10
0.0
 20
0.0
 30
0.0
  0
VERTEX
  5
42D
330
42C
100
AcDbEntity
  8
Make2D$可见线$普通线
100
AcDbVertex
100
AcDb2dVertex
 10
2373.883882196084
 20
1264.330150264253
 30
0.0
 42
0.0253784022503528
  0
VERTEX
  5
42E
330
42C
100
AcDbEntity
  8
Make2D$可见线$普通线
100
AcDbVertex
100
AcDb2dVertex
 10
2371.507631006913
 20
1268.399786404525
 30
0.0
 42
39.44120920299203
  0
VERTEX
  5
42F
330
42C
100
AcDbEntity
  8
Make2D$可见线$普通线
100
AcDbVertex
100
AcDb2dVertex
 10
2373.883882196084
 20
1264.330150264253
 30
0.0
  0
SEQEND
  5
430
330
42C
100
AcDbEntity
  8
Make2D$可见线$普通线
  0
POLYLINE
  5
431
330
1F
100
AcDbEntity
  8
Make2D$可见线$普通线
100
AcDb2dPolyline
 66
     1
 10
0.0
 20
0.0
 30
0.0
  0
VERTEX
  5
432
330
431
100
AcDbEntity
  8
Make2D$可见线$普通线
100
AcDbVertex
100
AcDb2dVertex
 10
2332.591677783998
 20
1205.447860864815
 30
0.0
  0
VERTEX
  5
433
330
431
100
AcDbEntity
  8
Make2D$可见线$普通线
100
AcDbVertex
100
AcDb2dVertex
 10
2332.58907410451
 20
1205.447860937463
 30
0.0
 42
-3.775074457881872
  0
VERTEX
  5
434
330
431
100
AcDbEntity
  8
Make2D$可见线$普通线
100
AcDbVertex
100
AcDb2dVertex
 10
2364.85036896605
 20
1223.826432701706
 30
0.0
 42
-0.2648758208573899
  0
VERTEX
  5
435
330
431
100
AcDbEntity
  8
Make2D$可见线$普通线
100
AcDbVertex
100
AcDb2dVertex
 10
2332.591677783998
 20
1205.447860864815
 30
0.0
  0
SEQEND
  5
436
330
431
100
AcDbEntity
  8
Make2D$可见线$普通线
  0
POLYLINE
  5
437
330
1F
100
AcDbEntity
  8
Make2D$可见线$普通线
100
AcDb2dPolyline
 66
     1
 10
0.0
 20
0.0
 30
0.0
  0
VERTEX
  5
438
330
437
100
AcDbEntity
  8
Make2D$可见线$普通线
100
AcDbVertex
100
AcDb2dVertex
 10
1835.594009451943
 20
1205.447860864815
 30
0.0
  0
VERTEX
  5
439
330
437
100
AcDbEntity
  8
Make2D$可见线$普通线
100
AcDbVertex
100
AcDb2dVertex
 10
1835.596613131429
 20
1205.447860937462
 30
0.0
 42
47413.01392298029
  0
VERTEX
  5
43A
330
437
100
AcDbEntity
  8
Make2D$可见线$普通线
100
AcDbVertex
100
AcDb2dVertex
 10
1835.594009451943
 20
1205.447860864815
 30
0.0
  0
SEQEND
  5
43B
330
437
100
AcDbEntity
  8
Make2D$可见线$普通线
  0
POLYLINE
  5
43C
330
1F
100
AcDbEntity
  8
Make2D$可见线$普通线
100
AcDb2dPolyline
 66
     1
 10
0.0
 20
0.0
 30
0.0
  0
VERTEX
  5
43D
330
43C
100
AcDbEntity
  8
Make2D$可见线$普通线
100
AcDbVertex
100
AcDb2dVertex
 10
2332.401678580985
 20
1342.287296587318
 30
0.0
  0
VERTEX
  5
43E
330
43C
100
AcDbEntity
  8
Make2D$可见线$普通线
100
AcDbVertex
100
AcDb2dVertex
 10
2332.74849784835
 20
1342.52223686815
 30
0.0
  0
VERTEX
  5
43F
330
43C
100
AcDbEntity
  8
Make2D$可见线$普通线
100
AcDbVertex
100
AcDb2dVertex
 10
2333.703306773372
 20
1343.008845185913
 30
0.0
  0
VERTEX
  5
440
330
43C
100
AcDbEntity
  8
Make2D$可见线$普通线
100
AcDbVertex
100
AcDb2dVertex
 10
2334.658045724406
 20
1343.476893107606
 30
0.0
  0
VERTEX
  5
441
330
43C
100
AcDbEntity
  8
Make2D$可见线$普通线
100
AcDbVertex
100
AcDb2dVertex
 10
2335.611362795393
 20
1343.926761279629
 30
0.0
  0
VERTEX
  5
442
330
43C
100
AcDbEntity
  8
Make2D$可见线$普通线
100
AcDbVertex
100
AcDb2dVertex
 10
2336.561906080271
 20
1344.358830348379
 30
0.0
  0
VERTEX
  5
443
330
43C
100
AcDbEntity
  8
Make2D$可见线$普通线
100
AcDbVertex
100
AcDb2dVertex
 10
2337.508323672978
 20
1344.773480960253
 30
0.0
  0
VERTEX
  5
444
330
43C
100
AcDbEntity
  8
Make2D$可见线$普通线
100
AcDbVertex
100
AcDb2dVertex
 10
2338.449263667453
 20
1345.171093761648
 30
0.0
  0
VERTEX
  5
445
330
43C
100
AcDbEntity
  8
Make2D$可见线$普通线
100
AcDbVertex
100
AcDb2dVertex
 10
2339.383374157636
 20
1345.552049398962
 30
0.0
  0
VERTEX
  5
446
330
43C
100
AcDbEntity
  8
Make2D$可见线$普通线
100
AcDbVertex
100
AcDb2dVertex
 10
2340.309303237465
 20
1345.916728518593
 30
0.0
  0
VERTEX
  5
447
330
43C
100
AcDbEntity
  8
Make2D$可见线$普通线
100
AcDbVertex
100
AcDb2dVertex
 10
2341.225977712581
 20
1346.265579102541
 30
0.0
  0
VERTEX
  5
448
330
43C
100
AcDbEntity
  8
Make2D$可见线$普通线
100
AcDbVertex
100
AcDb2dVertex
 10
2342.133439235447
 20
1346.599318475226
 30
0.0
  0
VERTEX
  5
449
330
43C
100
AcDbEntity
  8
Make2D$可见线$普通线
100
AcDbVertex
100
AcDb2dVertex
 10
2343.922004881088
 20
1347.224602226906
 30
0.0
  0
VERTEX
  5
44A
330
43C
100
AcDbEntity
  8
Make2D$可见线$普通线
100
AcDbVertex
100
AcDb2dVertex
 10
2345.677563087704
 20
1347.798857053823
 30
0.0
  0
VERTEX
  5
44B
330
43C
100
AcDbEntity
  8
Make2D$可见线$普通线
100
AcDbVertex
100
AcDb2dVertex
 10
2347.402676768614
 20
1348.328360236166
 30
0.0
  0
VERTEX
  5
44C
330
43C
100
AcDbEntity
  8
Make2D$可见线$普通线
100
AcDbVertex
100
AcDb2dVertex
 10
2349.099396275289
 20
1348.818782042301
 30
0.0
  0
VERTEX
  5
44D
330
43C
100
AcDbEntity
  8
Make2D$可见线$普通线
100
AcDbVertex
100
AcDb2dVertex
 10
2350.767721711789
 20
1349.273364693288
 30
0.0
  0
VERTEX
  5
44E
330
43C
100
AcDbEntity
  8
Make2D$可见线$普通线
100
AcDbVertex
100
AcDb2dVertex
 10
2352.407140620327
 20
1349.694743398361
 30
0.0
  0
VERTEX
  5
44F
330
43C
100
AcDbEntity
  8
Make2D$可见线$普通线
100
AcDbVertex
100
AcDb2dVertex
 10
2354.017140543116
 20
1350.085553366754
 30
0.0
  0
VERTEX
  5
450
330
43C
100
AcDbEntity
  8
Make2D$可见线$普通线
100
AcDbVertex
100
AcDb2dVertex
 10
2355.597308869065
 20
1350.448320662027
 30
0.0
  0
VERTEX
  5
451
330
43C
100
AcDbEntity
  8
Make2D$可见线$普通线
100
AcDbVertex
100
AcDb2dVertex
 10
2357.147632373877
 20
1350.785134765053
 30
0.0
  0
VERTEX
  5
452
330
43C
100
AcDbEntity
  8
Make2D$可见线$普通线
100
AcDbVertex
100
AcDb2dVertex
 10
2358.668197679954
 20
1351.097976011029
 30
0.0
  0
VERTEX
  5
453
330
43C
100
AcDbEntity
  8
Make2D$可见线$普通线
100
AcDbVertex
100
AcDb2dVertex
 10
2360.159091409695
 20
1351.388824735157
 30
0.0
  0
VERTEX
  5
454
330
43C
100
AcDbEntity
  8
Make2D$可见线$普通线
100
AcDbVertex
100
AcDb2dVertex
 10
2361.6205514784
 20
1351.659568720017
 30
0.0
  0
VERTEX
  5
455
330
43C
100
AcDbEntity
  8
Make2D$可见线$普通线
100
AcDbVertex
100
AcDb2dVertex
 10
2363.053420972975
 20
1351.91172553773
 30
0.0
  0
VERTEX
  5
456
330
43C
100
AcDbEntity
  8
Make2D$可见线$普通线
100
AcDbVertex
100
AcDb2dVertex
 10
2364.458694273227
 20
1352.146720207799
 30
0.0
  0
VERTEX
  5
457
330
43C
100
AcDbEntity
  8
Make2D$可见线$普通线
100
AcDbVertex
100
AcDb2dVertex
 10
2365.837365758959
 20
1352.365977749727
 30
0.0
  0
VERTEX
  5
458
330
43C
100
AcDbEntity
  8
Make2D$可见线$普通线
100
AcDbVertex
100
AcDb2dVertex
 10
2368.515487462774
 20
1352.762014765766
 30
0.0
  0
VERTEX
  5
459
330
43C
100
AcDbEntity
  8
Make2D$可见线$普通线
100
AcDbVertex
100
AcDb2dVertex
 10
2371.078774406267
 20
1353.106402934839
 30
0.0
  0
VERTEX
  5
45A
330
43C
100
AcDbEntity
  8
Make2D$可见线$普通线
100
AcDbVertex
100
AcDb2dVertex
 10
2372.963858919384
 20
1353.3579965841
 30
0.0
  0
VERTEX
  5
45B
330
43C
100
AcDbEntity
  8
Make2D$可见线$普通线
100
AcDbVertex
100
AcDb2dVertex
 10
2375.652179039944
 20
1353.693624933755
 30
0.0
  0
VERTEX
  5
45C
330
43C
100
AcDbEntity
  8
Make2D$可见线$普通线
100
AcDbVertex
100
AcDb2dVertex
 10
2378.344057775563
 20
1353.99923010224
 30
0.0
  0
VERTEX
  5
45D
330
43C
100
AcDbEntity
  8
Make2D$可见线$普通线
100
AcDbVertex
100
AcDb2dVertex
 10
2381.231797403015
 20
1354.295937331165
 30
0.0
  0
VERTEX
  5
45E
330
43C
100
AcDbEntity
  8
Make2D$可见线$普通线
100
AcDbVertex
100
AcDb2dVertex
 10
2384.12240784297
 20
1354.563376786467
 30
0.0
  0
VERTEX
  5
45F
330
43C
100
AcDbEntity
  8
Make2D$可见线$普通线
100
AcDbVertex
100
AcDb2dVertex
 10
2387.242408920381
 20
1354.821818680058
 30
0.0
  0
VERTEX
  5
460
330
43C
100
AcDbEntity
  8
Make2D$可见线$普通线
100
AcDbVertex
100
AcDb2dVertex
 10
2390.364653584467
 20
1355.051647771844
 30
0.0
  0
VERTEX
  5
461
330
43C
100
AcDbEntity
  8
Make2D$可见线$普通线
100
AcDbVertex
100
AcDb2dVertex
 10
2393.488753432171
 20
1355.255309878171
 30
0.0
  0
VERTEX
  5
462
330
43C
100
AcDbEntity
  8
Make2D$可见线$普通线
100
AcDbVertex
100
AcDb2dVertex
 10
2396.614320060434
 20
1355.435250815389
 30
0.0
  0
VERTEX
  5
463
330
43C
100
AcDbEntity
  8
Make2D$可见线$普通线
100
AcDbVertex
100
AcDb2dVertex
 10
2400.0417400495
 20
1355.608088581852
 30
0.0
  0
VERTEX
  5
464
330
43C
100
AcDbEntity
  8
Make2D$可见线$普通线
100
AcDbVertex
100
AcDb2dVertex
 10
2403.470227588905
 20
1355.758252735511
 30
0.0
  0
VERTEX
  5
465
330
43C
100
AcDbEntity
  8
Make2D$可见线$普通线
100
AcDbVertex
100
AcDb2dVertex
 10
2406.899554466003
 20
1355.88863382326
 30
0.0
  0
VERTEX
  5
466
330
43C
100
AcDbEntity
  8
Make2D$可见线$普通线
100
AcDbVertex
100
AcDb2dVertex
 10
2410.329492468146
 20
1356.00212239199
 30
0.0
  0
VERTEX
  5
467
330
43C
100
AcDbEntity
  8
Make2D$可见线$普通线
100
AcDbVertex
100
AcDb2dVertex
 10
2414.076634627858
 20
1356.110214881361
 30
0.0
  0
VERTEX
  5
468
330
43C
100
AcDbEntity
  8
Make2D$可见线$普通线
100
AcDbVertex
100
AcDb2dVertex
 10
2421.061356936148
 20
1356.280544380281
 30
0.0
  0
VERTEX
  5
469
330
43C
100
AcDbEntity
  8
Make2D$可见线$普通线
100
AcDbVertex
100
AcDb2dVertex
 10
2431.223808003791
 20
1356.505819616756
 30
0.0
  0
VERTEX
  5
46A
330
43C
100
AcDbEntity
  8
Make2D$可见线$普通线
100
AcDbVertex
100
AcDb2dVertex
 10
2431.96619737651
 20
1356.52333943841
 30
0.0
  0
VERTEX
  5
46B
330
43C
100
AcDbEntity
  8
Make2D$可见线$普通线
100
AcDbVertex
100
AcDb2dVertex
 10
2441.454232446912
 20
1356.768744941784
 30
0.0
  0
VERTEX
  5
46C
330
43C
100
AcDbEntity
  8
Make2D$可见线$普通线
100
AcDbVertex
100
AcDb2dVertex
 10
2465.146716217208
 20
1357.307271800868
 30
0.0
  0
VERTEX
  5
46D
330
43C
100
AcDbEntity
  8
Make2D$可见线$普通线
100
AcDbVertex
100
AcDb2dVertex
 10
2496.336008040718
 20
1358.05741764572
 30
0.0
  0
VERTEX
  5
46E
330
43C
100
AcDbEntity
  8
Make2D$可见线$普通线
100
AcDbVertex
100
AcDb2dVertex
 10
2580.091542909754
 20
1360.047897196665
 30
0.0
  0
VERTEX
  5
46F
330
43C
100
AcDbEntity
  8
Make2D$可见线$普通线
100
AcDbVertex
100
AcDb2dVertex
 10
2615.091862070228
 20
1360.866115133545
 30
0.0
  0
VERTEX
  5
470
330
43C
100
AcDbEntity
  8
Make2D$可见线$普通线
100
AcDbVertex
100
AcDb2dVertex
 10
2640.537248825054
 20
1361.49293764706
 30
0.0
  0
VERTEX
  5
471
330
43C
100
AcDbEntity
  8
Make2D$可见线$普通线
100
AcDbVertex
100
AcDb2dVertex
 10
2640.820499293484
 20
1361.494911291258
 30
0.0
  0
VERTEX
  5
472
330
43C
100
AcDbEntity
  8
Make2D$可见线$普通线
100
AcDbVertex
100
AcDb2dVertex
 10
2641.100334195752
 20
1361.487485436602
 30
0.0
  0
VERTEX
  5
473
330
43C
100
AcDbEntity
  8
Make2D$可见线$普通线
100
AcDbVertex
100
AcDb2dVertex
 10
2641.376826774768
 20
1361.470741407636
 30
0.0
  0
VERTEX
  5
474
330
43C
100
AcDbEntity
  8
Make2D$可见线$普通线
100
AcDbVertex
100
AcDb2dVertex
 10
2641.65005027344
 20
1361.444760528902
 30
0.0
  0
VERTEX
  5
475
330
43C
100
AcDbEntity
  8
Make2D$可见线$普通线
100
AcDbVertex
100
AcDb2dVertex
 10
2641.920077934677
 20
1361.409624124944
 30
0.0
  0
VERTEX
  5
476
330
43C
100
AcDbEntity
  8
Make2D$可见线$普通线
100
AcDbVertex
100
AcDb2dVertex
 10
2642.186983001389
 20
1361.365413520303
 30
0.0
  0
VERTEX
  5
477
330
43C
100
AcDbEntity
  8
Make2D$可见线$普通线
100
AcDbVertex
100
AcDb2dVertex
 10
2642.450838716485
 20
1361.312210039524
 30
0.0
  0
VERTEX
  5
478
330
43C
100
AcDbEntity
  8
Make2D$可见线$普通线
100
AcDbVertex
100
AcDb2dVertex
 10
2642.711718322872
 20
1361.250095007148
 30
0.0
  0
VERTEX
  5
479
330
43C
100
AcDbEntity
  8
Make2D$可见线$普通线
100
AcDbVertex
100
AcDb2dVertex
 10
2642.969645067522
 20
1361.179150214103
 30
0.0
  0
VERTEX
  5
47A
330
43C
100
AcDbEntity
  8
Make2D$可见线$普通线
100
AcDbVertex
100
AcDb2dVertex
 10
2643.224442213651
 20
1361.099459316854
 30
0.0
  0
VERTEX
  5
47B
330
43C
100
AcDbEntity
  8
Make2D$可见线$普通线
100
AcDbVertex
100
AcDb2dVertex
 10
2643.475883028538
 20
1361.011106438251
 30
0.0
  0
VERTEX
  5
47C
330
43C
100
AcDbEntity
  8
Make2D$可见线$普通线
100
AcDbVertex
100
AcDb2dVertex
 10
2643.60027395779
 20
1360.963708044332
 30
0.0
  0
VERTEX
  5
47D
330
43C
100
AcDbEntity
  8
Make2D$可见线$普通线
100
AcDbVertex
100
AcDb2dVertex
 10
2643.723740779461
 20
1360.914175701143
 30
0.0
  0
VERTEX
  5
47E
330
43C
100
AcDbEntity
  8
Make2D$可见线$普通线
100
AcDbVertex
100
AcDb2dVertex
 10
2643.846255151961
 20
1360.862519924039
 30
0.0
  0
VERTEX
  5
47F
330
43C
100
AcDbEntity
  8
Make2D$可见线$普通线
100
AcDbVertex
100
AcDb2dVertex
 10
2643.967788733699
 20
1360.808751228378
 30
0.0
  0
VERTEX
  5
480
330
43C
100
AcDbEntity
  8
Make2D$可见线$普通线
100
AcDbVertex
100
AcDb2dVertex
 10
2644.088313183086
 20
1360.752880129515
 30
0.0
  0
VERTEX
  5
481
330
43C
100
AcDbEntity
  8
Make2D$可见线$普通线
100
AcDbVertex
100
AcDb2dVertex
 10
2644.20780015853
 20
1360.694917142807
 30
0.0
  0
VERTEX
  5
482
330
43C
100
AcDbEntity
  8
Make2D$可见线$普通线
100
AcDbVertex
100
AcDb2dVertex
 10
2644.326221318442
 20
1360.634872783609
 30
0.0
  0
VERTEX
  5
483
330
43C
100
AcDbEntity
  8
Make2D$可见线$普通线
100
AcDbVertex
100
AcDb2dVertex
 10
2644.443548321232
 20
1360.572757567279
 30
0.0
  0
VERTEX
  5
484
330
43C
100
AcDbEntity
  8
Make2D$可见线$普通线
100
AcDbVertex
100
AcDb2dVertex
 10
2644.559752825309
 20
1360.508582009171
 30
0.0
  0
VERTEX
  5
485
330
43C
100
AcDbEntity
  8
Make2D$可见线$普通线
100
AcDbVertex
100
AcDb2dVertex
 10
2644.674806489083
 20
1360.442356624642
 30
0.0
  0
VERTEX
  5
486
330
43C
100
AcDbEntity
  8
Make2D$可见线$普通线
100
AcDbVertex
100
AcDb2dVertex
 10
2644.788682771704
 20
1360.374092265622
 30
0.0
  0
VERTEX
  5
487
330
43C
100
AcDbEntity
  8
Make2D$可见线$普通线
100
AcDbVertex
100
AcDb2dVertex
 10
2644.901362335276
 20
1360.303801130331
 30
0.0
  0
VERTEX
  5
488
330
43C
100
AcDbEntity
  8
Make2D$可见线$普通线
100
AcDbVertex
100
AcDb2dVertex
 10
2645.012827642642
 20
1360.231495753562
 30
0.0
  0
VERTEX
  5
489
330
43C
100
AcDbEntity
  8
Make2D$可见线$普通线
100
AcDbVertex
100
AcDb2dVertex
 10
2645.123061156647
 20
1360.15718867011
 30
0.0
  0
VERTEX
  5
48A
330
43C
100
AcDbEntity
  8
Make2D$可见线$普通线
100
AcDbVertex
100
AcDb2dVertex
 10
2645.232045340135
 20
1360.080892414767
 30
0.0
  0
VERTEX
  5
48B
330
43C
100
AcDbEntity
  8
Make2D$可见线$普通线
100
AcDbVertex
100
AcDb2dVertex
 10
2645.339762655949
 20
1360.002619522328
 30
0.0
  0
VERTEX
  5
48C
330
43C
100
AcDbEntity
  8
Make2D$可见线$普通线
100
AcDbVertex
100
AcDb2dVertex
 10
2645.446195566933
 20
1359.922382527586
 30
0.0
  0
VERTEX
  5
48D
330
43C
100
AcDbEntity
  8
Make2D$可见线$普通线
100
AcDbVertex
100
AcDb2dVertex
 10
2645.551326535931
 20
1359.840193965334
 30
0.0
  0
VERTEX
  5
48E
330
43C
100
AcDbEntity
  8
Make2D$可见线$普通线
100
AcDbVertex
100
AcDb2dVertex
 10
2645.655138025787
 20
1359.756066370367
 30
0.0
  0
VERTEX
  5
48F
330
43C
100
AcDbEntity
  8
Make2D$可见线$普通线
100
AcDbVertex
100
AcDb2dVertex
 10
2645.757612499346
 20
1359.670012277478
 30
0.0
  0
VERTEX
  5
490
330
43C
100
AcDbEntity
  8
Make2D$可见线$普通线
100
AcDbVertex
100
AcDb2dVertex
 10
2645.958480248943
 20
1359.492174737107
 30
0.0
  0
VERTEX
  5
491
330
43C
100
AcDbEntity
  8
Make2D$可见线$普通线
100
AcDbVertex
100
AcDb2dVertex
 10
2646.153789487475
 20
1359.306781622571
 30
0.0
  0
VERTEX
  5
492
330
43C
100
AcDbEntity
  8
Make2D$可见线$普通线
100
AcDbVertex
100
AcDb2dVertex
 10
2646.34339991769
 20
1359.113933212218
 30
0.0
  0
VERTEX
  5
493
330
43C
100
AcDbEntity
  8
Make2D$可见线$普通线
100
AcDbVertex
100
AcDb2dVertex
 10
2646.527165585083
 20
1358.913731792533
 30
0.0
  0
VERTEX
  5
494
330
43C
100
AcDbEntity
  8
Make2D$可见线$普通线
100
AcDbVertex
100
AcDb2dVertex
 10
2646.704917906115
 20
1358.706287682538
 30
0.0
  0
VERTEX
  5
495
330
43C
100
AcDbEntity
  8
Make2D$可见线$普通线
100
AcDbVertex
100
AcDb2dVertex
 10
2646.876482639987
 20
1358.491713209391
 30
0.0
  0
VERTEX
  5
496
330
43C
100
AcDbEntity
  8
Make2D$可见线$普通线
100
AcDbVertex
100
AcDb2dVertex
 10
2647.041685545903
 20
1358.27012070025
 30
0.0
  0
VERTEX
  5
497
330
43C
100
AcDbEntity
  8
Make2D$可见线$普通线
100
AcDbVertex
100
AcDb2dVertex
 10
2647.200352383064
 20
1358.041622482274
 30
0.0
  0
VERTEX
  5
498
330
43C
100
AcDbEntity
  8
Make2D$可见线$普通线
100
AcDbVertex
100
AcDb2dVertex
 10
2647.352308910673
 20
1357.80633088262
 30
0.0
  0
VERTEX
  5
499
330
43C
100
AcDbEntity
  8
Make2D$可见线$普通线
100
AcDbVertex
100
AcDb2dVertex
 10
2647.497380887932
 20
1357.564358228446
 30
0.0
  0
VERTEX
  5
49A
330
43C
100
AcDbEntity
  8
Make2D$可见线$普通线
100
AcDbVertex
100
AcDb2dVertex
 10
2647.635394074044
 20
1357.315816846909
 30
0.0
  0
VERTEX
  5
49B
330
43C
100
AcDbEntity
  8
Make2D$可见线$普通线
100
AcDbVertex
100
AcDb2dVertex
 10
2647.766177427276
 20
1357.060851205966
 30
0.0
  0
VERTEX
  5
49C
330
43C
100
AcDbEntity
  8
Make2D$可见线$普通线
100
AcDbVertex
100
AcDb2dVertex
 10
2647.889572702156
 20
1356.799734336761
 30
0.0
  0
VERTEX
  5
49D
330
43C
100
AcDbEntity
  8
Make2D$可见线$普通线
100
AcDbVertex
100
AcDb2dVertex
 10
2648.005424852275
 20
1356.532771411236
 30
0.0
  0
VERTEX
  5
49E
330
43C
100
AcDbEntity
  8
Make2D$可见线$普通线
100
AcDbVertex
100
AcDb2dVertex
 10
2648.113578831225
 20
1356.260267601334
 30
0.0
  0
VERTEX
  5
49F
330
43C
100
AcDbEntity
  8
Make2D$可见线$普通线
100
AcDbVertex
100
AcDb2dVertex
 10
2648.213879592599
 20
1355.982528078996
 30
0.0
  0
VERTEX
  5
4A0
330
43C
100
AcDbEntity
  8
Make2D$可见线$普通线
100
AcDbVertex
100
AcDb2dVertex
 10
2648.306172089989
 20
1355.699858016164
 30
0.0
  0
VERTEX
  5
4A1
330
43C
100
AcDbEntity
  8
Make2D$可见线$普通线
100
AcDbVertex
100
AcDb2dVertex
 10
2648.390301276985
 20
1355.412562584781
 30
0.0
  0
VERTEX
  5
4A2
330
43C
100
AcDbEntity
  8
Make2D$可见线$普通线
100
AcDbVertex
100
AcDb2dVertex
 10
2648.466112107181
 20
1355.120946956789
 30
0.0
  0
VERTEX
  5
4A3
330
43C
100
AcDbEntity
  8
Make2D$可见线$普通线
100
AcDbVertex
100
AcDb2dVertex
 10
2648.533457939719
 20
1354.825248773328
 30
0.0
  0
VERTEX
  5
4A4
330
43C
100
AcDbEntity
  8
Make2D$可见线$普通线
100
AcDbVertex
100
AcDb2dVertex
 10
2648.592225850286
 20
1354.525435128392
 30
0.0
  0
VERTEX
  5
4A5
330
43C
100
AcDbEntity
  8
Make2D$可见线$普通线
100
AcDbVertex
100
AcDb2dVertex
 10
2648.642311316076
 20
1354.22140558326
 30
0.0
  0
VERTEX
  5
4A6
330
43C
100
AcDbEntity
  8
Make2D$可见线$普通线
100
AcDbVertex
100
AcDb2dVertex
 10
2648.683609814287
 20
1353.913059699212
 30
0.0
  0
VERTEX
  5
4A7
330
43C
100
AcDbEntity
  8
Make2D$可见线$普通线
100
AcDbVertex
100
AcDb2dVertex
 10
2648.716016822114
 20
1353.600297037524
 30
0.0
  0
VERTEX
  5
4A8
330
43C
100
AcDbEntity
  8
Make2D$可见线$普通线
100
AcDbVertex
100
AcDb2dVertex
 10
2648.739427816755
 20
1353.283017159476
 30
0.0
  0
VERTEX
  5
4A9
330
43C
100
AcDbEntity
  8
Make2D$可见线$普通线
100
AcDbVertex
100
AcDb2dVertex
 10
2648.753738275404
 20
1352.961119626347
 30
0.0
  0
VERTEX
  5
4AA
330
43C
100
AcDbEntity
  8
Make2D$可见线$普通线
100
AcDbVertex
100
AcDb2dVertex
 10
2648.758843675262
 20
1352.634503999414
 30
0.0
 42
-0.0002641707042451
  0
VERTEX
  5
4AB
330
43C
100
AcDbEntity
  8
Make2D$可见线$普通线
100
AcDbVertex
100
AcDb2dVertex
 10
2648.842083293958
 20
1242.943664613693
 30
0.0
 42
-0.0005847388670811
  0
VERTEX
  5
4AC
330
43C
100
AcDbEntity
  8
Make2D$可见线$普通线
100
AcDbVertex
100
AcDb2dVertex
 10
2648.612899625034
 20
999.2015897833662
 30
0.0
  0
VERTEX
  5
4AD
330
43C
100
AcDbEntity
  8
Make2D$可见线$普通线
100
AcDbVertex
100
AcDb2dVertex
 10
2648.607497974105
 20
998.9033388431276
 30
0.0
  0
VERTEX
  5
4AE
330
43C
100
AcDbEntity
  8
Make2D$可见线$普通线
100
AcDbVertex
100
AcDb2dVertex
 10
2648.592785838707
 20
998.6083935568274
 30
0.0
  0
VERTEX
  5
4AF
330
43C
100
AcDbEntity
  8
Make2D$可见线$普通线
100
AcDbVertex
100
AcDb2dVertex
 10
2648.568824474729
 20
998.3166431907324
 30
0.0
  0
VERTEX
  5
4B0
330
43C
100
AcDbEntity
  8
Make2D$可见线$普通线
100
AcDbVertex
100
AcDb2dVertex
 10
2648.535675138057
 20
998.0279770111096
 30
0.0
  0
VERTEX
  5
4B1
330
43C
100
AcDbEntity
  8
Make2D$可见线$普通线
100
AcDbVertex
100
AcDb2dVertex
 10
2648.493399084578
 20
997.7422842842258
 30
0.0
  0
VERTEX
  5
4B2
330
43C
100
AcDbEntity
  8
Make2D$可见线$普通线
100
AcDbVertex
100
AcDb2dVertex
 10
2648.44205757018
 20
997.4594542763477
 30
0.0
  0
VERTEX
  5
4B3
330
43C
100
AcDbEntity
  8
Make2D$可见线$普通线
100
AcDbVertex
100
AcDb2dVertex
 10
2648.38171185075
 20
997.1793762537425
 30
0.0
  0
VERTEX
  5
4B4
330
43C
100
AcDbEntity
  8
Make2D$可见线$普通线
100
AcDbVertex
100
AcDb2dVertex
 10
2648.312423182175
 20
996.901939482677
 30
0.0
  0
VERTEX
  5
4B5
330
43C
100
AcDbEntity
  8
Make2D$可见线$普通线
100
AcDbVertex
100
AcDb2dVertex
 10
2648.234262309851
 20
996.6271070592551
 30
0.0
  0
VERTEX
  5
4B6
330
43C
100
AcDbEntity
  8
Make2D$可见线$普通线
100
AcDbVertex
100
AcDb2dVertex
 10
2648.14733793721
 20
996.355137398928
 30
0.0
  0
VERTEX
  5
4B7
330
43C
100
AcDbEntity
  8
Make2D$可见线$普通线
100
AcDbVertex
100
AcDb2dVertex
 10
2648.051768257191
 20
996.0863627469836
 30
0.0
  0
VERTEX
  5
4B8
330
43C
100
AcDbEntity
  8
Make2D$可见线$普通线
100
AcDbVertex
100
AcDb2dVertex
 10
2647.947671462735
 20
995.8211153487099
 30
0.0
  0
VERTEX
  5
4B9
330
43C
100
AcDbEntity
  8
Make2D$可见线$普通线
100
AcDbVertex
100
AcDb2dVertex
 10
2647.835165746783
 20
995.5597274493953
 30
0.0
  0
VERTEX
  5
4BA
330
43C
100
AcDbEntity
  8
Make2D$可见线$普通线
100
AcDbVertex
100
AcDb2dVertex
 10
2647.714369302274
 20
995.3025312943275
 30
0.0
  0
VERTEX
  5
4BB
330
43C
100
AcDbEntity
  8
Make2D$可见线$普通线
100
AcDbVertex
100
AcDb2dVertex
 10
2647.585400322148
 20
995.049859128795
 30
0.0
  0
VERTEX
  5
4BC
330
43C
100
AcDbEntity
  8
Make2D$可见线$普通线
100
AcDbVertex
100
AcDb2dVertex
 10
2647.448376999345
 20
994.8020431980856
 30
0.0
  0
VERTEX
  5
4BD
330
43C
100
AcDbEntity
  8
Make2D$可见线$普通线
100
AcDbVertex
100
AcDb2dVertex
 10
2647.30342559051
 20
994.5593893151429
 30
0.0
  0
VERTEX
  5
4BE
330
43C
100
AcDbEntity
  8
Make2D$可见线$普通线
100
AcDbVertex
100
AcDb2dVertex
 10
2647.1507046071
 20
994.3220975635356
 30
0.0
  0
VERTEX
  5
4BF
330
43C
100
AcDbEntity
  8
Make2D$可见线$普通线
100
AcDbVertex
100
AcDb2dVertex
 10
2646.990380624276
 20
994.0903415944881
 30
0.0
  0
VERTEX
  5
4C0
330
43C
100
AcDbEntity
  8
Make2D$可见线$普通线
100
AcDbVertex
100
AcDb2dVertex
 10
2646.8226202172
 20
993.8642950592243
 30
0.0
  0
VERTEX
  5
4C1
330
43C
100
AcDbEntity
  8
Make2D$可见线$普通线
100
AcDbVertex
100
AcDb2dVertex
 10
2646.647589961032
 20
993.6441316089686
 30
0.0
  0
VERTEX
  5
4C2
330
43C
100
AcDbEntity
  8
Make2D$可见线$普通线
100
AcDbVertex
100
AcDb2dVertex
 10
2646.465456430934
 20
993.4300248949448
 30
0.0
  0
VERTEX
  5
4C3
330
43C
100
AcDbEntity
  8
Make2D$可见线$普通线
100
AcDbVertex
100
AcDb2dVertex
 10
2646.276386202067
 20
993.2221485683774
 30
0.0
  0
VERTEX
  5
4C4
330
43C
100
AcDbEntity
  8
Make2D$可见线$普通线
100
AcDbVertex
100
AcDb2dVertex
 10
2646.080545849591
 20
993.0206762804905
 30
0.0
  0
VERTEX
  5
4C5
330
43C
100
AcDbEntity
  8
Make2D$可见线$普通线
100
AcDbVertex
100
AcDb2dVertex
 10
2645.878103213055
 20
992.8257808541462
 30
0.0
  0
VERTEX
  5
4C6
330
43C
100
AcDbEntity
  8
Make2D$可见线$普通线
100
AcDbVertex
100
AcDb2dVertex
 10
2645.66923118955
 20
992.637631798757
 30
0.0
  0
VERTEX
  5
4C7
330
43C
100
AcDbEntity
  8
Make2D$可见线$普通线
100
AcDbVertex
100
AcDb2dVertex
 10
2645.454103940554
 20
992.456397795373
 30
0.0
  0
VERTEX
  5
4C8
330
43C
100
AcDbEntity
  8
Make2D$可见线$普通线
100
AcDbVertex
100
AcDb2dVertex
 10
2645.232895627543
 20
992.2822475250452
 30
0.0
  0
VERTEX
  5
4C9
330
43C
100
AcDbEntity
  8
Make2D$可见线$普通线
100
AcDbVertex
100
AcDb2dVertex
 10
2645.005780411998
 20
992.1153496688235
 30
0.0
  0
VERTEX
  5
4CA
330
43C
100
AcDbEntity
  8
Make2D$可见线$普通线
100
AcDbVertex
100
AcDb2dVertex
 10
2644.772932455394
 20
991.9558729077586
 30
0.0
  0
VERTEX
  5
4CB
330
43C
100
AcDbEntity
  8
Make2D$可见线$普通线
100
AcDbVertex
100
AcDb2dVertex
 10
2644.53452591921
 20
991.8039859229009
 30
0.0
  0
VERTEX
  5
4CC
330
43C
100
AcDbEntity
  8
Make2D$可见线$普通线
100
AcDbVertex
100
AcDb2dVertex
 10
2644.290734964923
 20
991.6598573953006
 30
0.0
  0
VERTEX
  5
4CD
330
43C
100
AcDbEntity
  8
Make2D$可见线$普通线
100
AcDbVertex
100
AcDb2dVertex
 10
2644.041760637959
 20
991.5236477249674
 30
0.0
  0
VERTEX
  5
4CE
330
43C
100
AcDbEntity
  8
Make2D$可见线$普通线
100
AcDbVertex
100
AcDb2dVertex
 10
2643.787911519531
 20
991.395484187746
 30
0.0
  0
VERTEX
  5
4CF
330
43C
100
AcDbEntity
  8
Make2D$可见线$普通线
100
AcDbVertex
100
AcDb2dVertex
 10
2643.529523074802
 20
991.27548577844
 30
0.0
  0
VERTEX
  5
4D0
330
43C
100
AcDbEntity
  8
Make2D$可见线$普通线
100
AcDbVertex
100
AcDb2dVertex
 10
2643.26693076893
 20
991.1637714918531
 30
0.0
  0
VERTEX
  5
4D1
330
43C
100
AcDbEntity
  8
Make2D$可见线$普通线
100
AcDbVertex
100
AcDb2dVertex
 10
2643.000470067079
 20
991.0604603227894
 30
0.0
  0
VERTEX
  5
4D2
330
43C
100
AcDbEntity
  8
Make2D$可见线$普通线
100
AcDbVertex
100
AcDb2dVertex
 10
2642.730476434409
 20
990.9656712660521
 30
0.0
  0
VERTEX
  5
4D3
330
43C
100
AcDbEntity
  8
Make2D$可见线$普通线
100
AcDbVertex
100
AcDb2dVertex
 10
2642.457285336081
 20
990.8795233164453
 30
0.0
  0
VERTEX
  5
4D4
330
43C
100
AcDbEntity
  8
Make2D$可见线$普通线
100
AcDbVertex
100
AcDb2dVertex
 10
2642.181232237257
 20
990.8021354687728
 30
0.0
  0
VERTEX
  5
4D5
330
43C
100
AcDbEntity
  8
Make2D$可见线$普通线
100
AcDbVertex
100
AcDb2dVertex
 10
2641.902578014565
 20
990.7336174217023
 30
0.0
  0
VERTEX
  5
4D6
330
43C
100
AcDbEntity
  8
Make2D$可见线$普通线
100
AcDbVertex
100
AcDb2dVertex
 10
2641.621285190497
 20
990.6740416893599
 30
0.0
  0
VERTEX
  5
4D7
330
43C
100
AcDbEntity
  8
Make2D$可见线$普通线
100
AcDbVertex
100
AcDb2dVertex
 10
2641.337241699018
 20
990.6234714897352
 30
0.0
  0
VERTEX
  5
4D8
330
43C
100
AcDbEntity
  8
Make2D$可见线$普通线
100
AcDbVertex
100
AcDb2dVertex
 10
2641.050335474087
 20
990.5819700408183
 30
0.0
  0
VERTEX
  5
4D9
330
43C
100
AcDbEntity
  8
Make2D$可见线$普通线
100
AcDbVertex
100
AcDb2dVertex
 10
2640.760454449666
 20
990.5496005605992
 30
0.0
  0
VERTEX
  5
4DA
330
43C
100
AcDbEntity
  8
Make2D$可见线$普通线
100
AcDbVertex
100
AcDb2dVertex
 10
2640.467486559716
 20
990.5264262670676
 30
0.0
  0
VERTEX
  5
4DB
330
43C
100
AcDbEntity
  8
Make2D$可见线$普通线
100
AcDbVertex
100
AcDb2dVertex
 10
2640.171319738199
 20
990.5125103782138
 30
0.0
  0
VERTEX
  5
4DC
330
43C
100
AcDbEntity
  8
Make2D$可见线$普通线
100
AcDbVertex
100
AcDb2dVertex
 10
2639.871841919075
 20
990.5079161120275
 30
0.0
  0
VERTEX
  5
4DD
330
43C
100
AcDbEntity
  8
Make2D$可见线$普通线
100
AcDbVertex
100
AcDb2dVertex
 10
2431.986819499627
 20
990.6135652728095
 30
0.0
 42
-0.0005103237043081
  0
VERTEX
  5
4DE
330
43C
100
AcDbEntity
  8
Make2D$可见线$普通线
100
AcDbVertex
100
AcDb2dVertex
 10
2372.605449482616
 20
990.6521315490421
 30
0.0
 42
-0.0004578097022704
  0
VERTEX
  5
4DF
330
43C
100
AcDbEntity
  8
Make2D$可见线$普通线
100
AcDbVertex
100
AcDb2dVertex
 10
2332.591692008808
 20
990.7924292780808
 30
0.0
  0
VERTEX
  5
4E0
330
43C
100
AcDbEntity
  8
Make2D$可见线$普通线
100
AcDbVertex
100
AcDb2dVertex
 10
2308.693939745464
 20
990.9116211013583
 30
0.0
  0
VERTEX
  5
4E1
330
43C
100
AcDbEntity
  8
Make2D$可见线$普通线
100
AcDbVertex
100
AcDb2dVertex
 10
2284.459012021481
 20
991.0499721173196
 30
0.0
  0
VERTEX
  5
4E2
330
43C
100
AcDbEntity
  8
Make2D$可见线$普通线
100
AcDbVertex
100
AcDb2dVertex
 10
2234.999848367677
 20
991.3492966587839
 30
0.0
  0
VERTEX
  5
4E3
330
43C
100
AcDbEntity
  8
Make2D$可见线$普通线
100
AcDbVertex
100
AcDb2dVertex
 10
2209.834083340046
 20
991.4901237019279
 30
0.0
  0
VERTEX
  5
4E4
330
43C
100
AcDbEntity
  8
Make2D$可见线$普通线
100
AcDbVertex
100
AcDb2dVertex
 10
2184.379920381666
 20
991.6105324959708
 30
0.0
  0
VERTEX
  5
4E5
330
43C
100
AcDbEntity
  8
Make2D$可见线$普通线
100
AcDbVertex
100
AcDb2dVertex
 10
2184.099162964566
 20
991.6149300261552
 30
0.0
  0
VERTEX
  5
4E6
330
43C
100
AcDbEntity
  8
Make2D$可见线$普通线
100
AcDbVertex
100
AcDb2dVertex
 10
2183.818584817825
 20
991.6263335421265
 30
0.0
  0
VERTEX
  5
4E7
330
43C
100
AcDbEntity
  8
Make2D$可见线$普通线
100
AcDbVertex
100
AcDb2dVertex
 10
2183.538385666304
 20
991.6448231936708
 30
0.0
  0
VERTEX
  5
4E8
330
43C
100
AcDbEntity
  8
Make2D$可见线$普通线
100
AcDbVertex
100
AcDb2dVertex
 10
2183.258765234864
 20
991.6704791305734
 30
0.0
  0
VERTEX
  5
4E9
330
43C
100
AcDbEntity
  8
Make2D$可见线$普通线
100
AcDbVertex
100
AcDb2dVertex
 10
2182.979923248363
 20
991.7033815026202
 30
0.0
  0
VERTEX
  5
4EA
330
43C
100
AcDbEntity
  8
Make2D$可见线$普通线
100
AcDbVertex
100
AcDb2dVertex
 10
2182.702059431662
 20
991.743610459597
 30
0.0
  0
VERTEX
  5
4EB
330
43C
100
AcDbEntity
  8
Make2D$可见线$普通线
100
AcDbVertex
100
AcDb2dVertex
 10
2182.425373509622
 20
991.7912461512892
 30
0.0
  0
VERTEX
  5
4EC
330
43C
100
AcDbEntity
  8
Make2D$可见线$普通线
100
AcDbVertex
100
AcDb2dVertex
 10
2182.150065207101
 20
991.846368727483
 30
0.0
  0
VERTEX
  5
4ED
330
43C
100
AcDbEntity
  8
Make2D$可见线$普通线
100
AcDbVertex
100
AcDb2dVertex
 10
2181.89174749316
 20
991.9053086393047
 30
0.0
  0
VERTEX
  5
4EE
330
43C
100
AcDbEntity
  8
Make2D$可见线$普通线
100
AcDbVertex
100
AcDb2dVertex
 10
2181.635046949095
 20
991.9710036203453
 30
0.0
  0
VERTEX
  5
4EF
330
43C
100
AcDbEntity
  8
Make2D$可见线$普通线
100
AcDbVertex
100
AcDb2dVertex
 10
2181.380176446063
 20
992.0434718618827
 30
0.0
  0
VERTEX
  5
4F0
330
43C
100
AcDbEntity
  8
Make2D$可见线$普通线
100
AcDbVertex
100
AcDb2dVertex
 10
2181.127348855219
 20
992.1227315551951
 30
0.0
  0
VERTEX
  5
4F1
330
43C
100
AcDbEntity
  8
Make2D$可见线$普通线
100
AcDbVertex
100
AcDb2dVertex
 10
2180.876777047721
 20
992.2088008915604
 30
0.0
  0
VERTEX
  5
4F2
330
43C
100
AcDbEntity
  8
Make2D$可见线$普通线
100
AcDbVertex
100
AcDb2dVertex
 10
2180.628673894725
 20
992.3016980622567
 30
0.0
  0
VERTEX
  5
4F3
330
43C
100
AcDbEntity
  8
Make2D$可见线$普通线
100
AcDbVertex
100
AcDb2dVertex
 10
2180.383252267387
 20
992.4014412585623
 30
0.0
  0
VERTEX
  5
4F4
330
43C
100
AcDbEntity
  8
Make2D$可见线$普通线
100
AcDbVertex
100
AcDb2dVertex
 10
2180.140725036865
 20
992.5080486717552
 30
0.0
  0
VERTEX
  5
4F5
330
43C
100
AcDbEntity
  8
Make2D$可见线$普通线
100
AcDbVertex
100
AcDb2dVertex
 10
2179.924257527491
 20
992.6103033406264
 30
0.0
  0
VERTEX
  5
4F6
330
43C
100
AcDbEntity
  8
Make2D$可见线$普通线
100
AcDbVertex
100
AcDb2dVertex
 10
2179.710556554956
 20
992.7182283387839
 30
0.0
  0
VERTEX
  5
4F7
330
43C
100
AcDbEntity
  8
Make2D$可见线$普通线
100
AcDbVertex
100
AcDb2dVertex
 10
2179.499851629225
 20
992.8318746364389
 30
0.0
  0
VERTEX
  5
4F8
330
43C
100
AcDbEntity
  8
Make2D$可见线$普通线
100
AcDbVertex
100
AcDb2dVertex
 10
2179.292372260262
 20
992.9512932038028
 30
0.0
  0
VERTEX
  5
4F9
330
43C
100
AcDbEntity
  8
Make2D$可见线$普通线
100
AcDbVertex
100
AcDb2dVertex
 10
2179.070097281831
 20
993.0881151225901
 30
0.0
  0
VERTEX
  5
4FA
330
43C
100
AcDbEntity
  8
Make2D$可见线$普通线
100
AcDbVertex
100
AcDb2dVertex
 10
2178.852206456427
 20
993.2318129332956
 30
0.0
  0
VERTEX
  5
4FB
330
43C
100
AcDbEntity
  8
Make2D$可见线$普通线
100
AcDbVertex
100
AcDb2dVertex
 10
2178.638976645154
 20
993.3823400142887
 30
0.0
  0
VERTEX
  5
4FC
330
43C
100
AcDbEntity
  8
Make2D$可见线$普通线
100
AcDbVertex
100
AcDb2dVertex
 10
2178.430684709119
 20
993.5396497439392
 30
0.0
  0
VERTEX
  5
4FD
330
43C
100
AcDbEntity
  8
Make2D$可见线$普通线
100
AcDbVertex
100
AcDb2dVertex
 10
2178.235632438244
 20
993.6969889140096
 30
0.0
  0
VERTEX
  5
4FE
330
43C
100
AcDbEntity
  8
Make2D$可见线$普通线
100
AcDbVertex
100
AcDb2dVertex
 10
2178.045642596461
 20
993.8604158554333
 30
0.0
  0
VERTEX
  5
4FF
330
43C
100
AcDbEntity
  8
Make2D$可见线$普通线
100
AcDbVertex
100
AcDb2dVertex
 10
2177.860971885325
 20
994.0298106411457
 30
0.0
  0
VERTEX
  5
500
330
43C
100
AcDbEntity
  8
Make2D$可见线$普通线
100
AcDbVertex
100
AcDb2dVertex
 10
2177.681877006395
 20
994.2050533440823
 30
0.0
  0
VERTEX
  5
501
330
43C
100
AcDbEntity
  8
Make2D$可见线$普通线
100
AcDbVertex
100
AcDb2dVertex
 10
2177.508614661227
 20
994.3860240371788
 30
0.0
  0
VERTEX
  5
502
330
43C
100
AcDbEntity
  8
Make2D$可见线$普通线
100
AcDbVertex
100
AcDb2dVertex
 10
2177.341441551377
 20
994.5726027933704
 30
0.0
  0
VERTEX
  5
503
330
43C
100
AcDbEntity
  8
Make2D$可见线$普通线
100
AcDbVertex
100
AcDb2dVertex
 10
2177.180614378404
 20
994.7646696855927
 30
0.0
  0
VERTEX
  5
504
330
43C
100
AcDbEntity
  8
Make2D$可见线$普通线
100
AcDbVertex
100
AcDb2dVertex
 10
2177.026389843864
 20
994.9621047867812
 30
0.0
  0
VERTEX
  5
505
330
43C
100
AcDbEntity
  8
Make2D$可见线$普通线
100
AcDbVertex
100
AcDb2dVertex
 10
2176.883770237476
 20
995.1579952210133
 30
0.0
  0
VERTEX
  5
506
330
43C
100
AcDbEntity
  8
Make2D$可见线$普通线
100
AcDbVertex
100
AcDb2dVertex
 10
2176.747754219911
 20
995.3585681055437
 30
0.0
  0
VERTEX
  5
507
330
43C
100
AcDbEntity
  8
Make2D$可见线$普通线
100
AcDbVertex
100
AcDb2dVertex
 10
2176.618531447002
 20
995.5635984027058
 30
0.0
  0
VERTEX
  5
508
330
43C
100
AcDbEntity
  8
Make2D$可见线$普通线
100
AcDbVertex
100
AcDb2dVertex
 10
2176.496291574578
 20
995.7728610748334
 30
0.0
  0
VERTEX
  5
509
330
43C
100
AcDbEntity
  8
Make2D$可见线$普通线
100
AcDbVertex
100
AcDb2dVertex
 10
2176.381224258471
 20
995.9861310842596
 30
0.0
  0
VERTEX
  5
50A
330
43C
100
AcDbEntity
  8
Make2D$可见线$普通线
100
AcDbVertex
100
AcDb2dVertex
 10
2176.273519154512
 20
996.2031833933179
 30
0.0
  0
VERTEX
  5
50B
330
43C
100
AcDbEntity
  8
Make2D$可见线$普通线
100
AcDbVertex
100
AcDb2dVertex
 10
2176.17336591853
 20
996.4237929643418
 30
0.0
  0
VERTEX
  5
50C
330
43C
100
AcDbEntity
  8
Make2D$可见线$普通线
100
AcDbVertex
100
AcDb2dVertex
 10
2176.126180518479
 20
996.5353613988202
 30
0.0
  0
VERTEX
  5
50D
330
43C
100
AcDbEntity
  8
Make2D$可见线$普通线
100
AcDbVertex
100
AcDb2dVertex
 10
2176.080954206358
 20
996.6477347596649
 30
0.0
  0
VERTEX
  5
50E
330
43C
100
AcDbEntity
  8
Make2D$可见线$普通线
100
AcDbVertex
100
AcDb2dVertex
 10
2176.037770919282
 20
996.7607126146409
 30
0.0
  0
VERTEX
  5
50F
330
43C
100
AcDbEntity
  8
Make2D$可见线$普通线
100
AcDbVertex
100
AcDb2dVertex
 10
2175.996567790712
 20
996.8744287362733
 30
0.0
  0
VERTEX
  5
510
330
43C
100
AcDbEntity
  8
Make2D$可见线$普通线
100
AcDbVertex
100
AcDb2dVertex
 10
2175.920115329102
 20
997.1039310093045
 30
0.0
  0
VERTEX
  5
511
330
43C
100
AcDbEntity
  8
Make2D$可见线$普通线
100
AcDbVertex
100
AcDb2dVertex
 10
2175.851623461555
 20
997.3359520383517
 30
0.0
  0
VERTEX
  5
512
330
43C
100
AcDbEntity
  8
Make2D$可见线$普通线
100
AcDbVertex
100
AcDb2dVertex
 10
2175.791118828099
 20
997.570202283008
 30
0.0
  0
VERTEX
  5
513
330
43C
100
AcDbEntity
  8
Make2D$可见线$普通线
100
AcDbVertex
100
AcDb2dVertex
 10
2175.738628068758
 20
997.8063922028667
 30
0.0
  0
VERTEX
  5
514
330
43C
100
AcDbEntity
  8
Make2D$可见线$普通线
100
AcDbVertex
100
AcDb2dVertex
 10
2175.694177823559
 20
998.044232257521
 30
0.0
  0
VERTEX
  5
515
330
43C
100
AcDbEntity
  8
Make2D$可见线$普通线
100
AcDbVertex
100
AcDb2dVertex
 10
2175.65779473253
 20
998.283432906564
 30
0.0
  0
VERTEX
  5
516
330
43C
100
AcDbEntity
  8
Make2D$可见线$普通线
100
AcDbVertex
100
AcDb2dVertex
 10
2175.629505435697
 20
998.5237046095889
 30
0.0
  0
VERTEX
  5
517
330
43C
100
AcDbEntity
  8
Make2D$可见线$普通线
100
AcDbVertex
100
AcDb2dVertex
 10
2175.608888071955
 20
998.7711928592255
 30
0.0
  0
VERTEX
  5
518
330
43C
100
AcDbEntity
  8
Make2D$可见线$普通线
100
AcDbVertex
100
AcDb2dVertex
 10
2175.596722474468
 20
999.019235932137
 30
0.0
  0
VERTEX
  5
519
330
43C
100
AcDbEntity
  8
Make2D$可见线$普通线
100
AcDbVertex
100
AcDb2dVertex
 10
2175.59290169654
 20
999.2675649579163
 30
0.0
  0
VERTEX
  5
51A
330
43C
100
AcDbEntity
  8
Make2D$可见线$普通线
100
AcDbVertex
100
AcDb2dVertex
 10
2175.597318791476
 20
999.5159110661571
 30
0.0
  0
VERTEX
  5
51B
330
43C
100
AcDbEntity
  8
Make2D$可见线$普通线
100
AcDbVertex
100
AcDb2dVertex
 10
2175.609866812579
 20
999.7640053864528
 30
0.0
  0
VERTEX
  5
51C
330
43C
100
AcDbEntity
  8
Make2D$可见线$普通线
100
AcDbVertex
100
AcDb2dVertex
 10
2175.630438813154
 20
1000.011579048397
 30
0.0
  0
VERTEX
  5
51D
330
43C
100
AcDbEntity
  8
Make2D$可见线$普通线
100
AcDbVertex
100
AcDb2dVertex
 10
2175.658927846504
 20
1000.258363181583
 30
0.0
  0
VERTEX
  5
51E
330
43C
100
AcDbEntity
  8
Make2D$可见线$普通线
100
AcDbVertex
100
AcDb2dVertex
 10
2175.695226965935
 20
1000.504088915605
 30
0.0
  0
VERTEX
  5
51F
330
43C
100
AcDbEntity
  8
Make2D$可见线$普通线
100
AcDbVertex
100
AcDb2dVertex
 10
2175.740837163198
 20
1000.756669008122
 30
0.0
  0
VERTEX
  5
520
330
43C
100
AcDbEntity
  8
Make2D$可见线$普通线
100
AcDbVertex
100
AcDb2dVertex
 10
2175.794561350338
 20
1001.007622428443
 30
0.0
  0
VERTEX
  5
521
330
43C
100
AcDbEntity
  8
Make2D$可见线$普通线
100
AcDbVertex
100
AcDb2dVertex
 10
2175.856285246157
 20
1001.256740255403
 30
0.0
  0
VERTEX
  5
522
330
43C
100
AcDbEntity
  8
Make2D$可见线$普通线
100
AcDbVertex
100
AcDb2dVertex
 10
2175.925894569461
 20
1001.50381356784
 30
0.0
  0
VERTEX
  5
523
330
43C
100
AcDbEntity
  8
Make2D$可见线$普通线
100
AcDbVertex
100
AcDb2dVertex
 10
2175.997115128852
 20
1001.730199830143
 30
0.0
  0
VERTEX
  5
524
330
43C
100
AcDbEntity
  8
Make2D$可见线$普通线
100
AcDbVertex
100
AcDb2dVertex
 10
2176.074665342643
 20
1001.954522132806
 30
0.0
  0
VERTEX
  5
525
330
43C
100
AcDbEntity
  8
Make2D$可见线$普通线
100
AcDbVertex
100
AcDb2dVertex
 10
2176.158235070777
 20
1002.176641888486
 30
0.0
  0
VERTEX
  5
526
330
43C
100
AcDbEntity
  8
Make2D$可见线$普通线
100
AcDbVertex
100
AcDb2dVertex
 10
2176.2475141732
 20
1002.396420509839
 30
0.0
  0
VERTEX
  5
527
330
43C
100
AcDbEntity
  8
Make2D$可见线$普通线
100
AcDbVertex
100
AcDb2dVertex
 10
2187.713189480266
 20
1029.58239515547
 30
0.0
  0
VERTEX
  5
528
330
43C
100
AcDbEntity
  8
Make2D$可见线$普通线
100
AcDbVertex
100
AcDb2dVertex
 10
2199.890779404501
 20
1058.526605639829
 30
0.0
  0
VERTEX
  5
529
330
43C
100
AcDbEntity
  8
Make2D$可见线$普通线
100
AcDbVertex
100
AcDb2dVertex
 10
2212.805678763553
 20
1089.286684251881
 30
0.0
  0
VERTEX
  5
52A
330
43C
100
AcDbEntity
  8
Make2D$可见线$普通线
100
AcDbVertex
100
AcDb2dVertex
 10
2255.038355985555
 20
1189.967481197282
 30
0.0
  0
VERTEX
  5
52B
330
43C
100
AcDbEntity
  8
Make2D$可见线$普通线
100
AcDbVertex
100
AcDb2dVertex
 10
2267.241663101021
 20
1218.997891866563
 30
0.0
  0
VERTEX
  5
52C
330
43C
100
AcDbEntity
  8
Make2D$可见线$普通线
100
AcDbVertex
100
AcDb2dVertex
 10
2277.307383153452
 20
1242.87209453017
 30
0.0
 42
-0.0018198194953336
  0
VERTEX
  5
52D
330
43C
100
AcDbEntity
  8
Make2D$可见线$普通线
100
AcDbVertex
100
AcDb2dVertex
 10
2298.477810247458
 20
1292.943808706212
 30
0.0
  0
VERTEX
  5
52E
330
43C
100
AcDbEntity
  8
Make2D$可见线$普通线
100
AcDbVertex
100
AcDb2dVertex
 10
2308.918789116548
 20
1317.264617821998
 30
0.0
 42
-0.008581710977333
  0
VERTEX
  5
52F
330
43C
100
AcDbEntity
  8
Make2D$可见线$普通线
100
AcDbVertex
100
AcDb2dVertex
 10
2309.492709437216
 20
1318.533593180428
 30
0.0
  0
VERTEX
  5
530
330
43C
100
AcDbEntity
  8
Make2D$可见线$普通线
100
AcDbVertex
100
AcDb2dVertex
 10
2309.881941627228
 20
1319.46470598228
 30
0.0
  0
VERTEX
  5
531
330
43C
100
AcDbEntity
  8
Make2D$可见线$普通线
100
AcDbVertex
100
AcDb2dVertex
 10
2310.292301191864
 20
1320.386710962409
 30
0.0
  0
VERTEX
  5
532
330
43C
100
AcDbEntity
  8
Make2D$可见线$普通线
100
AcDbVertex
100
AcDb2dVertex
 10
2310.723914653583
 20
1321.2989455197
 30
0.0
  0
VERTEX
  5
533
330
43C
100
AcDbEntity
  8
Make2D$可见线$普通线
100
AcDbVertex
100
AcDb2dVertex
 10
2311.176908534843
 20
1322.200747053032
 30
0.0
  0
VERTEX
  5
534
330
43C
100
AcDbEntity
  8
Make2D$可见线$普通线
100
AcDbVertex
100
AcDb2dVertex
 10
2311.657817522709
 20
1323.103235433853
 30
0.0
  0
VERTEX
  5
535
330
43C
100
AcDbEntity
  8
Make2D$可见线$普通线
100
AcDbVertex
100
AcDb2dVertex
 10
2312.160641127525
 20
1323.993704888263
 30
0.0
  0
VERTEX
  5
536
330
43C
100
AcDbEntity
  8
Make2D$可见线$普通线
100
AcDbVertex
100
AcDb2dVertex
 10
2312.68521097268
 20
1324.87152930512
 30
0.0
  0
VERTEX
  5
537
330
43C
100
AcDbEntity
  8
Make2D$可见线$普通线
100
AcDbVertex
100
AcDb2dVertex
 10
2313.23135868156
 20
1325.736082573277
 30
0.0
  0
VERTEX
  5
538
330
43C
100
AcDbEntity
  8
Make2D$可见线$普通线
100
AcDbVertex
100
AcDb2dVertex
 10
2313.782949641467
 20
1326.563519327109
 30
0.0
  0
VERTEX
  5
539
330
43C
100
AcDbEntity
  8
Make2D$可见线$普通线
100
AcDbVertex
100
AcDb2dVertex
 10
2314.354370843798
 20
1327.377397061318
 30
0.0
  0
VERTEX
  5
53A
330
43C
100
AcDbEntity
  8
Make2D$可见线$普通线
100
AcDbVertex
100
AcDb2dVertex
 10
2314.945206546404
 20
1328.177298766965
 30
0.0
  0
VERTEX
  5
53B
330
43C
100
AcDbEntity
  8
Make2D$可见线$普通线
100
AcDbVertex
100
AcDb2dVertex
 10
2315.555041007135
 20
1328.962807435112
 30
0.0
  0
VERTEX
  5
53C
330
43C
100
AcDbEntity
  8
Make2D$可见线$普通线
100
AcDbVertex
100
AcDb2dVertex
 10
2316.194175137334
 20
1329.746401715164
 30
0.0
  0
VERTEX
  5
53D
330
43C
100
AcDbEntity
  8
Make2D$可见线$普通线
100
AcDbVertex
100
AcDb2dVertex
 10
2316.851904278387
 20
1330.514465862686
 30
0.0
  0
VERTEX
  5
53E
330
43C
100
AcDbEntity
  8
Make2D$可见线$普通线
100
AcDbVertex
100
AcDb2dVertex
 10
2317.527608816697
 20
1331.266783162558
 30
0.0
  0
VERTEX
  5
53F
330
43C
100
AcDbEntity
  8
Make2D$可见线$普通线
100
AcDbVertex
100
AcDb2dVertex
 10
2318.220669138664
 20
1332.003136899661
 30
0.0
  0
VERTEX
  5
540
330
43C
100
AcDbEntity
  8
Make2D$可见线$普通线
100
AcDbVertex
100
AcDb2dVertex
 10
2318.958605303442
 20
1332.751246676293
 30
0.0
  0
VERTEX
  5
541
330
43C
100
AcDbEntity
  8
Make2D$可见线$普通线
100
AcDbVertex
100
AcDb2dVertex
 10
2319.713845755919
 20
1333.481893818671
 30
0.0
  0
VERTEX
  5
542
330
43C
100
AcDbEntity
  8
Make2D$可见线$普通线
100
AcDbVertex
100
AcDb2dVertex
 10
2320.485620988741
 20
1334.195089166183
 30
0.0
  0
VERTEX
  5
543
330
43C
100
AcDbEntity
  8
Make2D$可见线$普通线
100
AcDbVertex
100
AcDb2dVertex
 10
2321.273161494551
 20
1334.89084355822
 30
0.0
  0
VERTEX
  5
544
330
43C
100
AcDbEntity
  8
Make2D$可见线$普通线
100
AcDbVertex
100
AcDb2dVertex
 10
2322.095150746908
 20
1335.585246717742
 30
0.0
  0
VERTEX
  5
545
330
43C
100
AcDbEntity
  8
Make2D$可见线$普通线
100
AcDbVertex
100
AcDb2dVertex
 10
2322.932149859995
 20
1336.261486151132
 30
0.0
  0
VERTEX
  5
546
330
43C
100
AcDbEntity
  8
Make2D$可见线$普通线
100
AcDbVertex
100
AcDb2dVertex
 10
2323.78344466353
 20
1336.919674737306
 30
0.0
  0
VERTEX
  5
547
330
43C
100
AcDbEntity
  8
Make2D$可见线$普通线
100
AcDbVertex
100
AcDb2dVertex
 10
2324.648320987229
 20
1337.559925355179
 30
0.0
  0
VERTEX
  5
548
330
43C
100
AcDbEntity
  8
Make2D$可见线$普通线
100
AcDbVertex
100
AcDb2dVertex
 10
2325.52309050667
 20
1338.180281423315
 30
0.0
  0
VERTEX
  5
549
330
43C
100
AcDbEntity
  8
Make2D$可见线$普通线
100
AcDbVertex
100
AcDb2dVertex
 10
2326.410037707635
 20
1338.783087398958
 30
0.0
  0
VERTEX
  5
54A
330
43C
100
AcDbEntity
  8
Make2D$可见线$普通线
100
AcDbVertex
100
AcDb2dVertex
 10
2327.358315596786
 20
1339.400348091593
 30
0.0
  0
VERTEX
  5
54B
330
43C
100
AcDbEntity
  8
Make2D$可见线$普通线
100
AcDbVertex
100
AcDb2dVertex
 10
2328.318423000641
 20
1339.999079972883
 30
0.0
  0
VERTEX
  5
54C
330
43C
100
AcDbEntity
  8
Make2D$可见线$普通线
100
AcDbVertex
100
AcDb2dVertex
 10
2329.287970966526
 20
1340.579102800292
 30
0.0
  0
VERTEX
  5
54D
330
43C
100
AcDbEntity
  8
Make2D$可见线$普通线
100
AcDbVertex
100
AcDb2dVertex
 10
2330.267932286484
 20
1341.141338000124
 30
0.0
  0
VERTEX
  5
54E
330
43C
100
AcDbEntity
  8
Make2D$可见线$普通线
100
AcDbVertex
100
AcDb2dVertex
 10
2331.329473866947
 20
1341.724243941946
 30
0.0
  0
VERTEX
  5
54F
330
43C
100
AcDbEntity
  8
Make2D$可见线$普通线
100
AcDbVertex
100
AcDb2dVertex
 10
2332.401678580985
 20
1342.287296587318
 30
0.0
  0
SEQEND
  5
550
330
43C
100
AcDbEntity
  8
Make2D$可见线$普通线
  0
POLYLINE
  5
551
330
1F
100
AcDbEntity
  8
Make2D$可见线$普通线
100
AcDb2dPolyline
 66
     1
 10
0.0
 20
0.0
 30
0.0
  0
VERTEX
  5
552
330
551
100
AcDbEntity
  8
Make2D$可见线$普通线
100
AcDbVertex
100
AcDb2dVertex
 10
2165.541496765676
 20
1302.880741018562
 30
0.0
 42
-1.000190468383008
  0
VERTEX
  5
553
330
551
100
AcDbEntity
  8
Make2D$可见线$普通线
100
AcDbVertex
100
AcDb2dVertex
 10
2202.941496765648
 20
1302.880718124977
 30
0.0
 42
-1.000191691937359
  0
VERTEX
  5
554
330
551
100
AcDbEntity
  8
Make2D$可见线$普通线
100
AcDbVertex
100
AcDb2dVertex
 10
2165.541496765677
 20
1302.880741018562
 30
0.0
  0
SEQEND
  5
555
330
551
100
AcDbEntity
  8
Make2D$可见线$普通线
  0
POLYLINE
  5
556
330
1F
100
AcDbEntity
  8
Make2D$可见线$普通线
100
AcDb2dPolyline
 66
     1
 10
0.0
 20
0.0
 30
0.0
  0
VERTEX
  5
557
330
556
100
AcDbEntity
  8
Make2D$可见线$普通线
100
AcDbVertex
100
AcDb2dVertex
 10
1965.241107919448
 20
1302.880718124977
 30
0.0
 42
-1.000191080040489
  0
VERTEX
  5
558
330
556
100
AcDbEntity
  8
Make2D$可见线$普通线
100
AcDbVertex
100
AcDb2dVertex
 10
2002.641107919448
 20
1302.880718124977
 30
0.0
 42
-1.00019107969999
  0
VERTEX
  5
559
330
556
100
AcDbEntity
  8
Make2D$可见线$普通线
100
AcDbVertex
100
AcDb2dVertex
 10
1965.241107919448
 20
1302.880718124977
 30
0.0
  0
SEQEND
  5
55A
330
556
100
AcDbEntity
  8
Make2D$可见线$普通线
  0
POLYLINE
  5
55B
330
1F
100
AcDbEntity
  8
Make2D$可见线$普通线
100
AcDb2dPolyline
 66
     1
 10
0.0
 20
0.0
 30
0.0
  0
VERTEX
  5
55C
330
55B
100
AcDbEntity
  8
Make2D$可见线$普通线
100
AcDbVertex
100
AcDb2dVertex
 10
1795.577732218515
 20
1219.263516508182
 30
0.0
  0
VERTEX
  5
55D
330
55B
100
AcDbEntity
  8
Make2D$可见线$普通线
100
AcDbVertex
100
AcDb2dVertex
 10
1795.575426549017
 20
1219.267412510546
 30
0.0
 42
-0.2585437972199404
  0
VERTEX
  5
55E
330
55B
100
AcDbEntity
  8
Make2D$可见线$普通线
100
AcDbVertex
100
AcDb2dVertex
 10
1794.299348948349
 20
1264.325406519262
 30
0.0
 42
-0.0253856150504722
  0
VERTEX
  5
55F
330
55B
100
AcDbEntity
  8
Make2D$可见线$普通线
100
AcDbVertex
100
AcDb2dVertex
 10
1796.675874305784
 20
1268.396449933426
 30
0.0
 42
-1.677781607954257
  0
VERTEX
  5
560
330
55B
100
AcDbEntity
  8
Make2D$可见线$普通线
100
AcDbVertex
100
AcDb2dVertex
 10
1835.59717508545
 20
1196.447861983801
 30
0.0
  0
VERTEX
  5
561
330
55B
100
AcDbEntity
  8
Make2D$可见线$普通线
100
AcDbVertex
100
AcDb2dVertex
 10
1835.594872092883
 20
1196.447860871537
 30
0.0
 42
-0.2650581260728736
  0
VERTEX
  5
562
330
55B
100
AcDbEntity
  8
Make2D$可见线$普通线
100
AcDbVertex
100
AcDb2dVertex
 10
1795.577732218515
 20
1219.263516508182
 30
0.0
  0
SEQEND
  5
563
330
55B
100
AcDbEntity
  8
Make2D$可见线$普通线
  0
CIRCLE
  5
564
330
1F
100
AcDbEntity
  8
Make2D$可见线$普通线
100
AcDbCircle
 10
2332.591640123791
 20
1242.947911929771
 30
0.0
 40
26.50005106498286
  0
CIRCLE
  5
565
330
1F
100
AcDbEntity
  8
Make2D$可见线$普通线
100
AcDbCircle
 10
1835.594047112149
 20
1242.947911929771
 30
0.0
 40
26.50005106498331
  0
ENDSEC
  0
SECTION
  2
OBJECTS
  0
DICTIONARY
  5
C
330
0
100
AcDbDictionary
281
     1
  3
ACAD_GROUP
350
D
  3
ACAD_LAYOUT
350
1A
  3
ACAD_MATERIAL
350
3B
  3
ACAD_MLEADERSTYLE
350
590
  3
ACAD_MLINESTYLE
350
17
  3
ACAD_PLOTSETTINGS
350
19
  3
ACAD_PLOTSTYLENAME
350
E
  3
ACAD_SCALELIST
350
3F
  3
ACAD_TABLESTYLE
350
58F
  3
ACAD_VISUALSTYLE
350
2A
  3
AcDbVariableDictionary
350
566
  0
DICTIONARY
  5
D
102
{ACAD_REACTORS
330
C
102
}
330
C
100
AcDbDictionary
281
     1
  0
DICTIONARY
  5
1A
102
{ACAD_REACTORS
330
C
102
}
330
C
100
AcDbDictionary
281
     1
  3
Layout1
350
1E
  3
Layout2
350
26
  3
Model
350
22
  0
DICTIONARY
  5
3B
102
{ACAD_REACTORS
330
C
102
}
330
C
100
AcDbDictionary
281
     1
  3
ByBlock
350
3D
  3
ByLayer
350
3C
  3
Global
350
3E
  0
DICTIONARY
  5
590
102
{ACAD_REACTORS
330
C
102
}
330
C
100
AcDbDictionary
281
     1
  0
DICTIONARY
  5
17
102
{ACAD_REACTORS
330
C
102
}
330
C
100
AcDbDictionary
281
     1
  3
Standard
350
18
  0
DICTIONARY
  5
19
102
{ACAD_REACTORS
330
C
102
}
330
C
100
AcDbDictionary
281
     1
  0
ACDBDICTIONARYWDFLT
  5
E
102
{ACAD_REACTORS
330
C
102
}
330
C
100
AcDbDictionary
281
     1
  3
Normal
350
F
100
AcDbDictionaryWithDefault
340
F
  0
DICTIONARY
  5
3F
102
{ACAD_REACTORS
330
C
102
}
330
C
100
AcDbDictionary
281
     1
  3
A0
350
40
  3
A1
350
41
  3
A2
350
42
  3
A3
350
43
  3
A4
350
44
  3
A5
350
45
  3
A6
350
46
  3
A7
350
47
  3
A8
350
48
  3
A9
350
49
  3
B0
350
4A
  3
B1
350
4B
  3
B2
350
4C
  3
B3
350
4D
  3
B4
350
4E
  3
B5
350
4F
  3
B6
350
50
  3
B7
350
51
  3
B8
350
52
  3
B9
350
53
  3
C0
350
54
  3
C1
350
55
  3
C2
350
56
  3
C3
350
57
  3
C4
350
58
  3
C5
350
59
  3
C6
350
5A
  3
C7
350
5B
  3
C8
350
5C
  3
C9
350
5D
  3
D0
350
5E
  3
D1
350
5F
  3
D2
350
60
  0
DICTIONARY
  5
58F
102
{ACAD_REACTORS
330
C
102
}
330
C
100
AcDbDictionary
281
     1
  0
DICTIONARY
  5
2A
102
{ACAD_REACTORS
330
C
102
}
330
C
100
AcDbDictionary
281
     1
  3
2dWireframe
350
2F
  3
3D Hidden
350
31
  3
3dWireframe
350
30
  3
Basic
350
32
  3
Brighten
350
36
  3
ColorChange
350
3A
  3
Conceptual
350
34
  3
Dim
350
35
  3
Facepattern
350
39
  3
Flat
350
2B
  3
FlatWithEdges
350
2C
  3
Gouraud
350
2D
  3
GouraudWithEdges
350
2E
  3
Linepattern
350
38
  3
Realistic
350
33
  3
Thicken
350
37
  0
DICTIONARY
  5
566
102
{ACAD_REACTORS
330
C
102
}
330
C
100
AcDbDictionary
281
     1
  3
CANNOSCALE
350
567
  3
MSLTSCALE
350
568
  0
LAYOUT
  5
1E
102
{ACAD_REACTORS
330
1A
102
}
330
1A
100
AcDbPlotSettings
  1

  2
none_device
  4

  6

 40
0.0
 41
0.0
 42
0.0
 43
0.0
 44
0.0
 45
0.0
 46
0.0
 47
0.0
 48
0.0
 49
0.0
140
0.0
141
0.0
142
1.0
143
1.0
 70
   688
 72
     0
 73
     0
 74
     5
  7

 75
    16
 76
     0
 77
     2
 78
   300
147
1.0
148
0.0
149
0.0
100
AcDbLayout
  1
Layout1
 70
     1
 71
     1
 10
0.0
 20
0.0
 11
12.0
 21
9.0
 12
0.0
 22
0.0
 32
0.0
 14
1.000000000000000E+20
 24
1.000000000000000E+20
 34
1.000000000000000E+20
 15
-1.000000000000000E+20
 25
-1.000000000000000E+20
 35
-1.000000000000000E+20
146
0.0
 13
0.0
 23
0.0
 33
0.0
 16
1.0
 26
0.0
 36
0.0
 17
0.0
 27
1.0
 37
0.0
 76
     0
330
1B
  0
LAYOUT
  5
26
102
{ACAD_REACTORS
330
1A
102
}
330
1A
100
AcDbPlotSettings
  1

  2
none_device
  4

  6

 40
0.0
 41
0.0
 42
0.0
 43
0.0
 44
0.0
 45
0.0
 46
0.0
 47
0.0
 48
0.0
 49
0.0
140
0.0
141
0.0
142
1.0
143
1.0
 70
   688
 72
     0
 73
     0
 74
     5
  7

 75
    16
 76
     0
 77
     2
 78
   300
147
1.0
148
0.0
149
0.0
100
AcDbLayout
  1
Layout2
 70
     1
 71
     2
 10
0.0
 20
0.0
 11
0.0
 21
0.0
 12
0.0
 22
0.0
 32
0.0
 14
0.0
 24
0.0
 34
0.0
 15
0.0
 25
0.0
 35
0.0
146
0.0
 13
0.0
 23
0.0
 33
0.0
 16
1.0
 26
0.0
 36
0.0
 17
0.0
 27
1.0
 37
0.0
 76
     0
330
23
  0
LAYOUT
  5
22
102
{ACAD_REACTORS
330
1A
102
}
330
1A
100
AcDbPlotSettings
  1

  2
none_device
  4
Letter_(8.50_x_11.00_Inches)
  6

 40
6.35
 41
6.35
 42
6.35000508
 43
6.35000508
 44
215.9
 45
279.4
 46
0.0
 47
0.0
 48
0.0
 49
0.0
140
0.0
141
0.0
142
1.0
143
1.0
 70
  1712
 72
     0
 73
     0
 74
     0
  7

 75
     0
 76
     0
 77
     2
 78
   300
147
1.0
148
0.0
149
0.0
100
AcDbLayout
  1
Model
 70
     1
 71
     0
 10
0.0
 20
0.0
 11
12.0
 21
9.0
 12
0.0
 22
0.0
 32
0.0
 14
1484.148067362936
 24
956.000000002391
 34
0.0
 15
2684.035315014337
 25
1415.943663178619
 35
0.0
146
0.0
 13
0.0
 23
0.0
 33
0.0
 16
1.0
 26
0.0
 36
0.0
 17
0.0
 27
1.0
 37
0.0
 76
     0
330
1F
331
29
  0
MATERIAL
  5
3D
102
{ACAD_REACTORS
330
3B
102
}
102
{ACAD_XDICTIONARY
360
58B
102
}
330
3B
100
AcDbMaterial
  1
ByBlock
  0
MATERIAL
  5
3C
102
{ACAD_REACTORS
330
3B
102
}
102
{ACAD_XDICTIONARY
360
589
102
}
330
3B
100
AcDbMaterial
  1
ByLayer
  0
MATERIAL
  5
3E
102
{ACAD_REACTORS
330
3B
102
}
102
{ACAD_XDICTIONARY
360
58D
102
}
330
3B
100
AcDbMaterial
  1
Global
  0
MLINESTYLE
  5
18
102
{ACAD_REACTORS
330
17
102
}
330
17
100
AcDbMlineStyle
  2
Standard
 70
     0
  3

 62
   256
 51
90.0
 52
90.0
 71
     2
 49
0.5
 62
   256
  6
BYLAYER
 49
-0.5
 62
   256
  6
BYLAYER
  0
ACDBPLACEHOLDER
  5
F
102
{ACAD_REACTORS
330
E
102
}
330
E
  0
SCALE
  5
40
102
{ACAD_REACTORS
330
3F
102
}
330
3F
100
AcDbScale
 70
     0
300
1:1
140
1.0
141
1.0
290
     1
  0
SCALE
  5
41
102
{ACAD_REACTORS
330
3F
102
}
330
3F
100
AcDbScale
 70
     0
300
1:2
140
1.0
141
2.0
290
     0
  0
SCALE
  5
42
102
{ACAD_REACTORS
330
3F
102
}
330
3F
100
AcDbScale
 70
     0
300
1:4
140
1.0
141
4.0
290
     0
  0
SCALE
  5
43
102
{ACAD_REACTORS
330
3F
102
}
330
3F
100
AcDbScale
 70
     0
300
1:5
140
1.0
141
5.0
290
     0
  0
SCALE
  5
44
102
{ACAD_REACTORS
330
3F
102
}
330
3F
100
AcDbScale
 70
     0
300
1:8
140
1.0
141
8.0
290
     0
  0
SCALE
  5
45
102
{ACAD_REACTORS
330
3F
102
}
330
3F
100
AcDbScale
 70
     0
300
1:10
140
1.0
141
10.0
290
     0
  0
SCALE
  5
46
102
{ACAD_REACTORS
330
3F
102
}
330
3F
100
AcDbScale
 70
     0
300
1:16
140
1.0
141
16.0
290
     0
  0
SCALE
  5
47
102
{ACAD_REACTORS
330
3F
102
}
330
3F
100
AcDbScale
 70
     0
300
1:20
140
1.0
141
20.0
290
     0
  0
SCALE
  5
48
102
{ACAD_REACTORS
330
3F
102
}
330
3F
100
AcDbScale
 70
     0
300
1:30
140
1.0
141
30.0
290
     0
  0
SCALE
  5
49
102
{ACAD_REACTORS
330
3F
102
}
330
3F
100
AcDbScale
 70
     0
300
1:40
140
1.0
141
40.0
290
     0
  0
SCALE
  5
4A
102
{ACAD_REACTORS
330
3F
102
}
330
3F
100
AcDbScale
 70
     0
300
1:50
140
1.0
141
50.0
290
     0
  0
SCALE
  5
4B
102
{ACAD_REACTORS
330
3F
102
}
330
3F
100
AcDbScale
 70
     0
300
1:100
140
1.0
141
100.0
290
     0
  0
SCALE
  5
4C
102
{ACAD_REACTORS
330
3F
102
}
330
3F
100
AcDbScale
 70
     0
300
2:1
140
2.0
141
1.0
290
     0
  0
SCALE
  5
4D
102
{ACAD_REACTORS
330
3F
102
}
330
3F
100
AcDbScale
 70
     0
300
4:1
140
4.0
141
1.0
290
     0
  0
SCALE
  5
4E
102
{ACAD_REACTORS
330
3F
102
}
330
3F
100
AcDbScale
 70
     0
300
8:1
140
8.0
141
1.0
290
     0
  0
SCALE
  5
4F
102
{ACAD_REACTORS
330
3F
102
}
330
3F
100
AcDbScale
 70
     0
300
10:1
140
10.0
141
1.0
290
     0
  0
SCALE
  5
50
102
{ACAD_REACTORS
330
3F
102
}
330
3F
100
AcDbScale
 70
     0
300
100:1
140
100.0
141
1.0
290
     0
  0
SCALE
  5
51
102
{ACAD_REACTORS
330
3F
102
}
330
3F
100
AcDbScale
 70
     0
300
1/128" = 1'-0"
140
0.0078125
141
12.0
290
     0
  0
SCALE
  5
52
102
{ACAD_REACTORS
330
3F
102
}
330
3F
100
AcDbScale
 70
     0
300
1/64" = 1'-0"
140
0.015625
141
12.0
290
     0
  0
SCALE
  5
53
102
{ACAD_REACTORS
330
3F
102
}
330
3F
100
AcDbScale
 70
     0
300
1/32" = 1'-0"
140
0.03125
141
12.0
290
     0
  0
SCALE
  5
54
102
{ACAD_REACTORS
330
3F
102
}
330
3F
100
AcDbScale
 70
     0
300
1/16" = 1'-0"
140
0.0625
141
12.0
290
     0
  0
SCALE
  5
55
102
{ACAD_REACTORS
330
3F
102
}
330
3F
100
AcDbScale
 70
     0
300
3/32" = 1'-0"
140
0.09375
141
12.0
290
     0
  0
SCALE
  5
56
102
{ACAD_REACTORS
330
3F
102
}
330
3F
100
AcDbScale
 70
     0
300
1/8" = 1'-0"
140
0.125
141
12.0
290
     0
  0
SCALE
  5
57
102
{ACAD_REACTORS
330
3F
102
}
330
3F
100
AcDbScale
 70
     0
300
3/16" = 1'-0"
140
0.1875
141
12.0
290
     0
  0
SCALE
  5
58
102
{ACAD_REACTORS
330
3F
102
}
330
3F
100
AcDbScale
 70
     0
300
1/4" = 1'-0"
140
0.25
141
12.0
290
     0
  0
SCALE
  5
59
102
{ACAD_REACTORS
330
3F
102
}
330
3F
100
AcDbScale
 70
     0
300
3/8" = 1'-0"
140
0.375
141
12.0
290
     0
  0
SCALE
  5
5A
102
{ACAD_REACTORS
330
3F
102
}
330
3F
100
AcDbScale
 70
     0
300
1/2" = 1'-0"
140
0.5
141
12.0
290
     0
  0
SCALE
  5
5B
102
{ACAD_REACTORS
330
3F
102
}
330
3F
100
AcDbScale
 70
     0
300
3/4" = 1'-0"
140
0.75
141
12.0
290
     0
  0
SCALE
  5
5C
102
{ACAD_REACTORS
330
3F
102
}
330
3F
100
AcDbScale
 70
     0
300
1" = 1'-0"
140
1.0
141
12.0
290
     0
  0
SCALE
  5
5D
102
{ACAD_REACTORS
330
3F
102
}
330
3F
100
AcDbScale
 70
     0
300
1-1/2" = 1'-0"
140
1.5
141
12.0
290
     0
  0
SCALE
  5
5E
102
{ACAD_REACTORS
330
3F
102
}
330
3F
100
AcDbScale
 70
     0
300
3" = 1'-0"
140
3.0
141
12.0
290
     0
  0
SCALE
  5
5F
102
{ACAD_REACTORS
330
3F
102
}
330
3F
100
AcDbScale
 70
     0
300
6" = 1'-0"
140
6.0
141
12.0
290
     0
  0
SCALE
  5
60
102
{ACAD_REACTORS
330
3F
102
}
330
3F
100
AcDbScale
 70
     0
300
1'-0" = 1'-0"
140
12.0
141
12.0
290
     0
  0
VISUALSTYLE
  5
2F
102
{ACAD_REACTORS
330
2A
102
}
102
{ACAD_XDICTIONARY
360
571
102
}
330
2A
100
AcDbVisualStyle
  2
2dWireframe
 70
     4
 71
     0
 72
     2
 73
     0
 90
        0
 40
0.6
 41
30.0
 62
     5
 63
     7
421
 16777215
 74
     1
 91
        4
 64
     7
 65
   257
 75
     1
175
     1
 42
1.0
 92
        0
 66
   257
 43
1.0
 76
     1
 77
     6
 78
     2
 67
     7
 79
     5
170
     0
171
     0
290
     0
174
     0
 93
        1
 44
0.0
173
     0
291
     0
 45
0.0
1001
ACAD
1000
AcDbSavedByObjectVersion
1070
     0
  0
VISUALSTYLE
  5
31
102
{ACAD_REACTORS
330
2A
102
}
102
{ACAD_XDICTIONARY
360
575
102
}
330
2A
100
AcDbVisualStyle
  2
3D Hidden
 70
     6
 71
     1
 72
     2
 73
     2
 90
        0
 40
0.6
 41
30.0
 62
     5
 63
     7
421
 16777215
 74
     2
 91
        2
 64
     7
 65
   257
 75
     2
175
     1
 42
40.0
 92
        0
 66
   257
 43
1.0
 76
     1
 77
     6
 78
     2
 67
     7
 79
     3
170
     0
171
     0
290
     0
174
     0
 93
        1
 44
0.0
173
     0
291
     0
 45
0.0
1001
ACAD
1000
AcDbSavedByObjectVersion
1070
     0
  0
VISUALSTYLE
  5
30
102
{ACAD_REACTORS
330
2A
102
}
102
{ACAD_XDICTIONARY
360
573
102
}
330
2A
100
AcDbVisualStyle
  2
3dWireframe
 70
     5
 71
     0
 72
     2
 73
     0
 90
        0
 40
0.6
 41
30.0
 62
     5
 63
     7
421
 16777215
 74
     1
 91
        4
 64
     7
 65
   257
 75
     1
175
     1
 42
1.0
 92
        0
 66
   257
 43
1.0
 76
     1
 77
     6
 78
     2
 67
     7
 79
     5
170
     0
171
     0
290
     0
174
     0
 93
        1
 44
0.0
173
     0
291
     0
 45
0.0
1001
ACAD
1000
AcDbSavedByObjectVersion
1070
     0
  0
VISUALSTYLE
  5
32
102
{ACAD_REACTORS
330
2A
102
}
102
{ACAD_XDICTIONARY
360
577
102
}
330
2A
100
AcDbVisualStyle
  2
Basic
 70
     7
 71
     1
 72
     0
 73
     1
 90
        0
 40
0.6
 41
30.0
 62
     5
 63
     7
421
 16777215
 74
     0
 91
        4
 64
     7
 65
   257
 75
     1
175
     1
 42
1.0
 92
        8
 66
     7
 43
1.0
 76
     1
 77
     6
 78
     2
 67
     7
 79
     5
170
     0
171
     0
290
     0
174
     0
 93
        1
 44
0.0
173
     0
291
     1
 45
0.0
1001
ACAD
1000
AcDbSavedByObjectVersion
1070
     0
  0
VISUALSTYLE
  5
36
102
{ACAD_REACTORS
330
2A
102
}
102
{ACAD_XDICTIONARY
360
57F
102
}
330
2A
100
AcDbVisualStyle
  2
Brighten
 70
    12
 71
     2
 72
     2
 73
     0
 90
        0
 40
0.6
 41
30.0
 62
     5
 63
     7
421
 16777215
 74
     1
 91
        4
 64
     7
 65
   257
 75
     1
175
     1
 42
1.0
 92
        8
 66
     7
 43
1.0
 76
     1
 77
     6
 78
     2
 67
     7
 79
     5
170
     0
171
     0
290
     0
174
     0
 93
        1
 44
50.0
173
     0
291
     1
 45
0.0
1001
ACAD
1000
AcDbSavedByObjectVersion
1070
     0
  0
VISUALSTYLE
  5
3A
102
{ACAD_REACTORS
330
2A
102
}
102
{ACAD_XDICTIONARY
360
587
102
}
330
2A
100
AcDbVisualStyle
  2
ColorChange
 70
    16
 71
     2
 72
     2
 73
     3
 90
        0
 40
0.6
 41
30.0
 62
     5
 63
     8
421
  8421504
 74
     1
 91
        4
 64
     7
 65
   257
 75
     1
175
     1
 42
1.0
 92
        8
 66
     8
424
  8421504
 43
1.0
 76
     1
 77
     6
 78
     2
 67
     7
 79
     5
170
     0
171
     0
290
     0
174
     0
 93
        1
 44
0.0
173
     0
291
     1
 45
0.0
1001
ACAD
1000
AcDbSavedByObjectVersion
1070
     0
  0
VISUALSTYLE
  5
34
102
{ACAD_REACTORS
330
2A
102
}
102
{ACAD_XDICTIONARY
360
57B
102
}
330
2A
100
AcDbVisualStyle
  2
Conceptual
 70
     9
 71
     3
 72
     2
 73
     0
 90
        0
 40
0.6
 41
30.0
 62
     5
 63
     7
421
 16777215
 74
     2
 91
        2
 64
     7
 65
   257
 75
     1
175
     1
 42
40.0
 92
        8
 66
     7
 43
1.0
 76
     1
 77
     6
 78
     2
 67
     7
 79
     3
170
     0
171
     0
290
     0
174
     0
 93
        1
 44
0.0
173
     0
291
     0
 45
0.0
1001
ACAD
1000
AcDbSavedByObjectVersion
1070
     0
  0
VISUALSTYLE
  5
35
102
{ACAD_REACTORS
330
2A
102
}
102
{ACAD_XDICTIONARY
360
57D
102
}
330
2A
100
AcDbVisualStyle
  2
Dim
 70
    11
 71
     2
 72
     2
 73
     0
 90
        0
 40
0.6
 41
30.0
 62
     5
 63
     7
421
 16777215
 74
     1
 91
        4
 64
     7
 65
   257
 75
     1
175
     1
 42
1.0
 92
        8
 66
     7
 43
1.0
 76
     1
 77
     6
 78
     2
 67
     7
 79
     5
170
     0
171
     0
290
     0
174
     0
 93
        1
 44
-50.0
173
     0
291
     1
 45
0.0
1001
ACAD
1000
AcDbSavedByObjectVersion
1070
     0
  0
VISUALSTYLE
  5
39
102
{ACAD_REACTORS
330
2A
102
}
102
{ACAD_XDICTIONARY
360
585
102
}
330
2A
100
AcDbVisualStyle
  2
Facepattern
 70
    15
 71
     2
 72
     2
 73
     0
 90
        0
 40
0.6
 41
30.0
 62
     5
 63
     7
421
 16777215
 74
     1
 91
        4
 64
     7
 65
   257
 75
     1
175
     1
 42
1.0
 92
        8
 66
     7
 43
1.0
 76
     1
 77
     6
 78
     2
 67
     7
 79
     5
170
     0
171
     0
290
     0
174
     0
 93
        1
 44
0.0
173
     0
291
     1
 45
0.0
1001
ACAD
1000
AcDbSavedByObjectVersion
1070
     0
  0
VISUALSTYLE
  5
2B
102
{ACAD_REACTORS
330
2A
102
}
102
{ACAD_XDICTIONARY
360
569
102
}
330
2A
100
AcDbVisualStyle
  2
Flat
 70
     0
 71
     2
 72
     1
 73
     1
 90
        2
 40
0.6
 41
30.0
 62
     5
 63
     7
421
 16777215
 74
     0
 91
        4
 64
     7
 65
   257
 75
     1
175
     1
 42
1.0
 92
        8
 66
     7
 43
1.0
 76
     1
 77
     6
 78
     2
 67
     7
 79
     5
170
     0
171
     0
290
     0
174
     0
 93
       13
 44
0.0
173
     0
291
     1
 45
0.0
1001
ACAD
1000
AcDbSavedByObjectVersion
1070
     0
  0
VISUALSTYLE
  5
2C
102
{ACAD_REACTORS
330
2A
102
}
102
{ACAD_XDICTIONARY
360
56B
102
}
330
2A
100
AcDbVisualStyle
  2
FlatWithEdges
 70
     1
 71
     2
 72
     1
 73
     1
 90
        2
 40
0.6
 41
30.0
 62
     5
 63
     7
421
 16777215
 74
     1
 91
        4
 64
     7
 65
   257
 75
     1
175
     1
 42
1.0
 92
        0
 66
   257
 43
1.0
 76
     1
 77
     6
 78
     2
 67
     7
 79
     5
170
     0
171
     0
290
     0
174
     0
 93
       13
 44
0.0
173
     0
291
     1
 45
0.0
1001
ACAD
1000
AcDbSavedByObjectVersion
1070
     0
  0
VISUALSTYLE
  5
2D
102
{ACAD_REACTORS
330
2A
102
}
102
{ACAD_XDICTIONARY
360
56D
102
}
330
2A
100
AcDbVisualStyle
  2
Gouraud
 70
     2
 71
     2
 72
     2
 73
     1
 90
        2
 40
0.6
 41
30.0
 62
     5
 63
     7
421
 16777215
 74
     0
 91
        4
 64
     7
 65
   257
 75
     1
175
     1
 42
1.0
 92
        0
 66
     7
 43
1.0
 76
     1
 77
     6
 78
     2
 67
     7
 79
     5
170
     0
171
     0
290
     0
174
     0
 93
       13
 44
0.0
173
     0
291
     1
 45
0.0
1001
ACAD
1000
AcDbSavedByObjectVersion
1070
     0
  0
VISUALSTYLE
  5
2E
102
{ACAD_REACTORS
330
2A
102
}
102
{ACAD_XDICTIONARY
360
56F
102
}
330
2A
100
AcDbVisualStyle
  2
GouraudWithEdges
 70
     3
 71
     2
 72
     2
 73
     1
 90
        2
 40
0.6
 41
30.0
 62
     5
 63
     7
421
 16777215
 74
     1
 91
        4
 64
     7
 65
   257
 75
     1
175
     1
 42
1.0
 92
        0
 66
   257
 43
1.0
 76
     1
 77
     6
 78
     2
 67
     7
 79
     5
170
     0
171
     0
290
     0
174
     0
 93
       13
 44
0.0
173
     0
291
     1
 45
0.0
1001
ACAD
1000
AcDbSavedByObjectVersion
1070
     0
  0
VISUALSTYLE
  5
38
102
{ACAD_REACTORS
330
2A
102
}
102
{ACAD_XDICTIONARY
360
583
102
}
330
2A
100
AcDbVisualStyle
  2
Linepattern
 70
    14
 71
     2
 72
     2
 73
     0
 90
        0
 40
0.6
 41
30.0
 62
     5
 63
     7
421
 16777215
 74
     1
 91
        4
 64
     7
 65
   257
 75
     7
175
     7
 42
1.0
 92
        8
 66
     7
 43
1.0
 76
     1
 77
     6
 78
     2
 67
     7
 79
     5
170
     0
171
     0
290
     0
174
     0
 93
        1
 44
0.0
173
     0
291
     1
 45
0.0
1001
ACAD
1000
AcDbSavedByObjectVersion
1070
     0
  0
VISUALSTYLE
  5
33
102
{ACAD_REACTORS
330
2A
102
}
102
{ACAD_XDICTIONARY
360
579
102
}
330
2A
100
AcDbVisualStyle
  2
Realistic
 70
     8
 71
     2
 72
     3
 73
     0
 90
        2
 40
0.6
 41
30.0
 62
     5
 63
     7
421
 16777215
 74
     0
 91
        0
 64
     7
 65
   257
 75
     1
175
     1
 42
1.0
 92
        8
 66
   257
 43
1.0
 76
     1
 77
     6
 78
     2
 67
     7
 79
     3
170
     0
171
     0
290
     0
174
     0
 93
       13
 44
0.0
173
     0
291
     0
 45
0.0
1001
ACAD
1000
AcDbSavedByObjectVersion
1070
     0
  0
VISUALSTYLE
  5
37
102
{ACAD_REACTORS
330
2A
102
}
102
{ACAD_XDICTIONARY
360
581
102
}
330
2A
100
AcDbVisualStyle
  2
Thicken
 70
    13
 71
     2
 72
     2
 73
     0
 90
        0
 40
0.6
 41
30.0
 62
     5
 63
     7
421
 16777215
 74
     1
 91
        4
 64
     7
 65
   257
 75
     1
175
     1
 42
1.0
 92
       12
 66
     7
 43
1.0
 76
     1
 77
     6
 78
     2
 67
     7
 79
     5
170
     0
171
     0
290
     0
174
     0
 93
        1
 44
0.0
173
     0
291
     1
 45
0.0
1001
ACAD
1000
AcDbSavedByObjectVersion
1070
     0
  0
DICTIONARYVAR
  5
567
102
{ACAD_REACTORS
330
566
102
}
330
566
100
DictionaryVariables
280
     0
  1
1:1
  0
DICTIONARYVAR
  5
568
102
{ACAD_REACTORS
330
566
102
}
330
566
100
DictionaryVariables
280
     0
  1
1
  0
DICTIONARY
  5
58B
330
3D
100
AcDbDictionary
280
     1
281
     1
  3
ACAD_XREC_ROUNDTRIP
360
58C
  0
DICTIONARY
  5
589
330
3C
100
AcDbDictionary
280
     1
281
     1
  3
ACAD_XREC_ROUNDTRIP
360
58A
  0
DICTIONARY
  5
58D
330
3E
100
AcDbDictionary
280
     1
281
     1
  3
ACAD_XREC_ROUNDTRIP
360
58E
  0
DICTIONARY
  5
571
330
2F
100
AcDbDictionary
280
     1
281
     1
  3
ACAD_XREC_ROUNDTRIP
360
572
  0
DICTIONARY
  5
575
330
31
100
AcDbDictionary
280
     1
281
     1
  3
ACAD_XREC_ROUNDTRIP
360
576
  0
DICTIONARY
  5
573
330
30
100
AcDbDictionary
280
     1
281
     1
  3
ACAD_XREC_ROUNDTRIP
360
574
  0
DICTIONARY
  5
577
330
32
100
AcDbDictionary
280
     1
281
     1
  3
ACAD_XREC_ROUNDTRIP
360
578
  0
DICTIONARY
  5
57F
330
36
100
AcDbDictionary
280
     1
281
     1
  3
ACAD_XREC_ROUNDTRIP
360
580
  0
DICTIONARY
  5
587
330
3A
100
AcDbDictionary
280
     1
281
     1
  3
ACAD_XREC_ROUNDTRIP
360
588
  0
DICTIONARY
  5
57B
330
34
100
AcDbDictionary
280
     1
281
     1
  3
ACAD_XREC_ROUNDTRIP
360
57C
  0
DICTIONARY
  5
57D
330
35
100
AcDbDictionary
280
     1
281
     1
  3
ACAD_XREC_ROUNDTRIP
360
57E
  0
DICTIONARY
  5
585
330
39
100
AcDbDictionary
280
     1
281
     1
  3
ACAD_XREC_ROUNDTRIP
360
586
  0
DICTIONARY
  5
569
330
2B
100
AcDbDictionary
280
     1
281
     1
  3
ACAD_XREC_ROUNDTRIP
360
56A
  0
DICTIONARY
  5
56B
330
2C
100
AcDbDictionary
280
     1
281
     1
  3
ACAD_XREC_ROUNDTRIP
360
56C
  0
DICTIONARY
  5
56D
330
2D
100
AcDbDictionary
280
     1
281
     1
  3
ACAD_XREC_ROUNDTRIP
360
56E
  0
DICTIONARY
  5
56F
330
2E
100
AcDbDictionary
280
     1
281
     1
  3
ACAD_XREC_ROUNDTRIP
360
570
  0
DICTIONARY
  5
583
330
38
100
AcDbDictionary
280
     1
281
     1
  3
ACAD_XREC_ROUNDTRIP
360
584
  0
DICTIONARY
  5
579
330
33
100
AcDbDictionary
280
     1
281
     1
  3
ACAD_XREC_ROUNDTRIP
360
57A
  0
DICTIONARY
  5
581
330
37
100
AcDbDictionary
280
     1
281
     1
  3
ACAD_XREC_ROUNDTRIP
360
582
  0
XRECORD
  5
58C
102
{ACAD_REACTORS
330
58B
102
}
330
58B
100
AcDbXrecord
280
     1
102
MATERIAL
148
0.0
149
0.0
149
0.0
 93
        0
 94
      127
282
     0
 72
     1
 77
     1
171
     1
175
     1
179
     1
273
     0
  0
XRECORD
  5
58A
102
{ACAD_REACTORS
330
589
102
}
330
589
100
AcDbXrecord
280
     1
102
MATERIAL
148
0.0
149
0.0
149
0.0
 93
        0
 94
      127
282
     0
 72
     1
 77
     1
171
     1
175
     1
179
     1
273
     0
  0
XRECORD
  5
58E
102
{ACAD_REACTORS
330
58D
102
}
330
58D
100
AcDbXrecord
280
     1
102
MATERIAL
148
0.0
149
0.0
149
0.0
 93
        0
 94
      127
282
     0
 72
     1
 77
     1
171
     1
175
     1
179
     1
273
     0
  0
XRECORD
  5
572
102
{ACAD_REACTORS
330
571
102
}
330
571
100
AcDbXrecord
280
     1
102
RTVSPropertyOp0
 70
     1
102
RTVSPropertyOp1
 70
     1
102
RTVSPropertyOp2
 70
     1
102
RTVSPropertyOp3
 70
     1
102
RTVSPropertyOp4
 70
     1
102
RTVSPropertyOp5
 70
     1
102
RTVSPropertyOp6
 70
     1
102
RTVSPropertyOp7
 70
     1
102
RTVSPropertyOp8
 70
     1
102
RTVSPropertyOp9
 70
     1
102
RTVSPropertyOp10
 70
     1
102
RTVSPropertyOp11
 70
     1
102
RTVSPropertyOp12
 70
     1
102
RTVSPropertyOp13
 70
     1
102
RTVSPropertyOp14
 70
     1
102
RTVSPropertyOp15
 70
     1
102
RTVSPropertyOp16
 70
     1
102
RTVSPropertyOp17
 70
     1
102
RTVSPropertyOp18
 70
     1
102
RTVSPropertyOp19
 70
     1
102
RTVSPropertyOp20
 70
     1
102
RTVSPropertyOp21
 70
     1
102
RTVSPropertyOp22
 70
     1
102
RTVSPropertyOp23
 70
     1
102
RTVSPropertyOp24
 70
     1
102
RTVSPropertyOp25
 70
     1
102
RTVSPropertyOp26
 70
     1
102
RTVSPropertyOp27
 70
     1
102
RTVSPropertyOp28
 70
     1
102
RTVSPropertyOp29
 70
     1
102
RTVSPropertyOp30
 70
     1
102
RTVSPropertyOp31
 70
     1
102
RTVSPropertyOp32
 70
     1
102
RTVSPropertyOp33
 70
     1
102
RTVSPropertyOp34
 70
     1
102
RTVSPropertyOp35
 70
     1
102
RTVSPropertyOp36
 70
     1
102
RTVSPropertyOp37
 70
     1
102
RTVSPropertyOp38
 70
     1
102
RTVSPropertyOp39
 70
     1
102
RTVSPropertyOp40
 70
     1
102
RTVSPropertyOp41
 70
     1
102
RTVSPropertyOp42
 70
     1
102
RTVSPropertyOp43
 70
     1
102
RTVSPropertyOp44
 70
     1
102
RTVSPropertyOp45
 70
     1
102
RTVSPropertyOp46
 70
     1
102
RTVSPropertyOp47
 70
     1
102
RTVSPropertyOp48
 70
     1
102
RTVSPropertyOp49
 70
     1
102
RTVSPropertyOp50
 70
     1
102
RTVSPropertyOp51
 70
     0
102
RTVSPropertyOp52
 70
     0
102
RTVSPropertyOp53
 70
     1
102
RTVSPropertyOp54
 70
     1
102
RTVSPropertyOp55
 70
     1
102
RTVSPropertyOp56
 70
     1
102
RTVSPropertyOp57
 70
     1
102
RTVSPost2010Prop28
280
     1
102
RTVSPost2010PropOp28
 70
     1
102
RTVSPost2010Prop29
280
     1
102
RTVSPost2010PropOp29
 70
     1
102
RTVSPost2010Prop30
280
     0
102
RTVSPost2010PropOp30
 70
     1
102
RTVSPost2010Prop31
280
     0
102
RTVSPost2010PropOp31
 70
     1
102
RTVSPost2010Prop32
280
     0
102
RTVSPost2010PropOp32
 70
     1
102
RTVSPost2010Prop33
280
     0
102
RTVSPost2010PropOp33
 70
     1
102
RTVSPost2010Prop34
280
     0
102
RTVSPost2010PropOp34
 70
     1
102
RTVSPost2010Prop35
280
     0
102
RTVSPost2010PropOp35
 70
     1
102
RTVSPost2010Prop36
280
     0
102
RTVSPost2010PropOp36
 70
     1
102
RTVSPost2010Prop37
 90
       50
102
RTVSPost2010PropOp37
 70
     1
102
RTVSPost2010Prop38
140
0.0
102
RTVSPost2010PropOp38
 70
     1
102
RTVSPost2010Prop39
140
1.0
102
RTVSPost2010PropOp39
 70
     1
102
RTVSPost2010Prop40
 90
        0
102
RTVSPost2010PropOp40
 70
     1
102
RTVSPost2010Prop41ColorIndex
 90
       18
102
RTVSPost2010Prop41ColorRGB
 90
        0
102
RTVSPost2010PropOp41
 70
     1
102
RTVSPost2010Prop42
 90
       50
102
RTVSPost2010PropOp42
 70
     1
102
RTVSPost2010Prop43
 90
        3
102
RTVSPost2010PropOp43
 70
     1
102
RTVSPost2010Prop44ColorIndex
 90
        5
102
RTVSPost2010Prop44ColorRGB
 90
      255
102
RTVSPost2010PropOp44
 70
     1
102
RTVSPost2010Prop45
280
     0
102
RTVSPost2010PropOp45
 70
     1
102
RTVSPost2010Prop46
 90
       50
102
RTVSPost2010PropOp46
 70
     1
102
RTVSPost2010Prop47
 90
       50
102
RTVSPost2010PropOp47
 70
     1
102
RTVSPost2010Prop48
 90
       50
102
RTVSPost2010PropOp48
 70
     1
102
RTVSPost2010Prop49
280
     0
102
RTVSPost2010PropOp49
 70
     1
102
RTVSPost2010Prop50
 90
       50
102
RTVSPost2010PropOp50
 70
     1
102
RTVSPost2010Prop51ColorIndex
 90
      256
102
RTVSPost2010Prop51ColorRGB
 90
-16777216
102
RTVSPost2010PropOp51
 70
     0
102
RTVSPost2010Prop52
140
1.0
102
RTVSPost2010PropOp52
 70
     0
102
RTVSPost2010Prop53
 90
        2
102
RTVSPost2010PropOp53
 70
     1
102
RTVSPost2010Prop54
  1
strokes_ogs.tif
102
RTVSPost2010PropOp54
 70
     1
102
RTVSPost2010Prop55
280
     0
102
RTVSPost2010PropOp55
 70
     1
102
RTVSPost2010Prop56
140
1.0
102
RTVSPost2010PropOp56
 70
     1
102
RTVSPost2010Prop57
140
1.0
102
RTVSPost2010PropOp57
 70
     1
  0
XRECORD
  5
576
102
{ACAD_REACTORS
330
575
102
}
330
575
100
AcDbXrecord
280
     1
102
RTVSPropertyOp0
 70
     1
102
RTVSPropertyOp1
 70
     1
102
RTVSPropertyOp2
 70
     1
102
RTVSPropertyOp3
 70
     1
102
RTVSPropertyOp4
 70
     1
102
RTVSPropertyOp5
 70
     1
102
RTVSPropertyOp6
 70
     1
102
RTVSPropertyOp7
 70
     1
102
RTVSPropertyOp8
 70
     1
102
RTVSPropertyOp9
 70
     1
102
RTVSPropertyOp10
 70
     1
102
RTVSPropertyOp11
 70
     1
102
RTVSPropertyOp12
 70
     1
102
RTVSPropertyOp13
 70
     1
102
RTVSPropertyOp14
 70
     1
102
RTVSPropertyOp15
 70
     1
102
RTVSPropertyOp16
 70
     1
102
RTVSPropertyOp17
 70
     1
102
RTVSPropertyOp18
 70
     1
102
RTVSPropertyOp19
 70
     1
102
RTVSPropertyOp20
 70
     1
102
RTVSPropertyOp21
 70
     1
102
RTVSPropertyOp22
 70
     1
102
RTVSPropertyOp23
 70
     1
102
RTVSPropertyOp24
 70
     1
102
RTVSPropertyOp25
 70
     1
102
RTVSPropertyOp26
 70
     1
102
RTVSPropertyOp27
 70
     1
102
RTVSPropertyOp28
 70
     1
102
RTVSPropertyOp29
 70
     1
102
RTVSPropertyOp30
 70
     1
102
RTVSPropertyOp31
 70
     1
102
RTVSPropertyOp32
 70
     1
102
RTVSPropertyOp33
 70
     1
102
RTVSPropertyOp34
 70
     1
102
RTVSPropertyOp35
 70
     1
102
RTVSPropertyOp36
 70
     1
102
RTVSPropertyOp37
 70
     1
102
RTVSPropertyOp38
 70
     1
102
RTVSPropertyOp39
 70
     1
102
RTVSPropertyOp40
 70
     1
102
RTVSPropertyOp41
 70
     1
102
RTVSPropertyOp42
 70
     1
102
RTVSPropertyOp43
 70
     1
102
RTVSPropertyOp44
 70
     1
102
RTVSPropertyOp45
 70
     1
102
RTVSPropertyOp46
 70
     1
102
RTVSPropertyOp47
 70
     1
102
RTVSPropertyOp48
 70
     1
102
RTVSPropertyOp49
 70
     1
102
RTVSPropertyOp50
 70
     1
102
RTVSPropertyOp51
 70
     0
102
RTVSPropertyOp52
 70
     0
102
RTVSPropertyOp53
 70
     1
102
RTVSPropertyOp54
 70
     1
102
RTVSPropertyOp55
 70
     1
102
RTVSPropertyOp56
 70
     1
102
RTVSPropertyOp57
 70
     1
102
RTVSPost2010Prop28
280
     0
102
RTVSPost2010PropOp28
 70
     1
102
RTVSPost2010Prop29
280
     1
102
RTVSPost2010PropOp29
 70
     1
102
RTVSPost2010Prop30
280
     1
102
RTVSPost2010PropOp30
 70
     1
102
RTVSPost2010Prop31
280
     0
102
RTVSPost2010PropOp31
 70
     1
102
RTVSPost2010Prop32
280
     0
102
RTVSPost2010PropOp32
 70
     1
102
RTVSPost2010Prop33
280
     0
102
RTVSPost2010PropOp33
 70
     1
102
RTVSPost2010Prop34
280
     0
102
RTVSPost2010PropOp34
 70
     1
102
RTVSPost2010Prop35
280
     0
102
RTVSPost2010PropOp35
 70
     1
102
RTVSPost2010Prop36
280
     0
102
RTVSPost2010PropOp36
 70
     1
102
RTVSPost2010Prop37
 90
       50
102
RTVSPost2010PropOp37
 70
     1
102
RTVSPost2010Prop38
140
0.0
102
RTVSPost2010PropOp38
 70
     1
102
RTVSPost2010Prop39
140
1.0
102
RTVSPost2010PropOp39
 70
     1
102
RTVSPost2010Prop40
 90
        0
102
RTVSPost2010PropOp40
 70
     1
102
RTVSPost2010Prop41ColorIndex
 90
       18
102
RTVSPost2010Prop41ColorRGB
 90
        0
102
RTVSPost2010PropOp41
 70
     1
102
RTVSPost2010Prop42
 90
       50
102
RTVSPost2010PropOp42
 70
     1
102
RTVSPost2010Prop43
 90
        3
102
RTVSPost2010PropOp43
 70
     1
102
RTVSPost2010Prop44ColorIndex
 90
        5
102
RTVSPost2010Prop44ColorRGB
 90
      255
102
RTVSPost2010PropOp44
 70
     1
102
RTVSPost2010Prop45
280
     0
102
RTVSPost2010PropOp45
 70
     1
102
RTVSPost2010Prop46
 90
       50
102
RTVSPost2010PropOp46
 70
     1
102
RTVSPost2010Prop47
 90
       50
102
RTVSPost2010PropOp47
 70
     1
102
RTVSPost2010Prop48
 90
       50
102
RTVSPost2010PropOp48
 70
     1
102
RTVSPost2010Prop49
280
     0
102
RTVSPost2010PropOp49
 70
     1
102
RTVSPost2010Prop50
 90
       50
102
RTVSPost2010PropOp50
 70
     1
102
RTVSPost2010Prop51ColorIndex
 90
      256
102
RTVSPost2010Prop51ColorRGB
 90
-16777216
102
RTVSPost2010PropOp51
 70
     0
102
RTVSPost2010Prop52
140
1.0
102
RTVSPost2010PropOp52
 70
     0
102
RTVSPost2010Prop53
 90
        2
102
RTVSPost2010PropOp53
 70
     1
102
RTVSPost2010Prop54
  1
strokes_ogs.tif
102
RTVSPost2010PropOp54
 70
     1
102
RTVSPost2010Prop55
280
     0
102
RTVSPost2010PropOp55
 70
     1
102
RTVSPost2010Prop56
140
1.0
102
RTVSPost2010PropOp56
 70
     1
102
RTVSPost2010Prop57
140
1.0
102
RTVSPost2010PropOp57
 70
     1
  0
XRECORD
  5
574
102
{ACAD_REACTORS
330
573
102
}
330
573
100
AcDbXrecord
280
     1
102
RTVSPropertyOp0
 70
     1
102
RTVSPropertyOp1
 70
     1
102
RTVSPropertyOp2
 70
     1
102
RTVSPropertyOp3
 70
     1
102
RTVSPropertyOp4
 70
     1
102
RTVSPropertyOp5
 70
     1
102
RTVSPropertyOp6
 70
     1
102
RTVSPropertyOp7
 70
     1
102
RTVSPropertyOp8
 70
     1
102
RTVSPropertyOp9
 70
     1
102
RTVSPropertyOp10
 70
     1
102
RTVSPropertyOp11
 70
     1
102
RTVSPropertyOp12
 70
     1
102
RTVSPropertyOp13
 70
     1
102
RTVSPropertyOp14
 70
     1
102
RTVSPropertyOp15
 70
     1
102
RTVSPropertyOp16
 70
     1
102
RTVSPropertyOp17
 70
     1
102
RTVSPropertyOp18
 70
     1
102
RTVSPropertyOp19
 70
     1
102
RTVSPropertyOp20
 70
     1
102
RTVSPropertyOp21
 70
     1
102
RTVSPropertyOp22
 70
     1
102
RTVSPropertyOp23
 70
     1
102
RTVSPropertyOp24
 70
     1
102
RTVSPropertyOp25
 70
     1
102
RTVSPropertyOp26
 70
     1
102
RTVSPropertyOp27
 70
     1
102
RTVSPropertyOp28
 70
     1
102
RTVSPropertyOp29
 70
     1
102
RTVSPropertyOp30
 70
     1
102
RTVSPropertyOp31
 70
     1
102
RTVSPropertyOp32
 70
     1
102
RTVSPropertyOp33
 70
     1
102
RTVSPropertyOp34
 70
     1
102
RTVSPropertyOp35
 70
     1
102
RTVSPropertyOp36
 70
     1
102
RTVSPropertyOp37
 70
     1
102
RTVSPropertyOp38
 70
     1
102
RTVSPropertyOp39
 70
     1
102
RTVSPropertyOp40
 70
     1
102
RTVSPropertyOp41
 70
     1
102
RTVSPropertyOp42
 70
     1
102
RTVSPropertyOp43
 70
     1
102
RTVSPropertyOp44
 70
     1
102
RTVSPropertyOp45
 70
     1
102
RTVSPropertyOp46
 70
     1
102
RTVSPropertyOp47
 70
     1
102
RTVSPropertyOp48
 70
     1
102
RTVSPropertyOp49
 70
     1
102
RTVSPropertyOp50
 70
     1
102
RTVSPropertyOp51
 70
     0
102
RTVSPropertyOp52
 70
     0
102
RTVSPropertyOp53
 70
     1
102
RTVSPropertyOp54
 70
     1
102
RTVSPropertyOp55
 70
     1
102
RTVSPropertyOp56
 70
     1
102
RTVSPropertyOp57
 70
     1
102
RTVSPost2010Prop28
280
     0
102
RTVSPost2010PropOp28
 70
     1
102
RTVSPost2010Prop29
280
     1
102
RTVSPost2010PropOp29
 70
     1
102
RTVSPost2010Prop30
280
     1
102
RTVSPost2010PropOp30
 70
     1
102
RTVSPost2010Prop31
280
     0
102
RTVSPost2010PropOp31
 70
     1
102
RTVSPost2010Prop32
280
     0
102
RTVSPost2010PropOp32
 70
     1
102
RTVSPost2010Prop33
280
     0
102
RTVSPost2010PropOp33
 70
     1
102
RTVSPost2010Prop34
280
     0
102
RTVSPost2010PropOp34
 70
     1
102
RTVSPost2010Prop35
280
     0
102
RTVSPost2010PropOp35
 70
     1
102
RTVSPost2010Prop36
280
     0
102
RTVSPost2010PropOp36
 70
     1
102
RTVSPost2010Prop37
 90
       50
102
RTVSPost2010PropOp37
 70
     1
102
RTVSPost2010Prop38
140
0.0
102
RTVSPost2010PropOp38
 70
     1
102
RTVSPost2010Prop39
140
1.0
102
RTVSPost2010PropOp39
 70
     1
102
RTVSPost2010Prop40
 90
        0
102
RTVSPost2010PropOp40
 70
     1
102
RTVSPost2010Prop41ColorIndex
 90
       18
102
RTVSPost2010Prop41ColorRGB
 90
        0
102
RTVSPost2010PropOp41
 70
     1
102
RTVSPost2010Prop42
 90
       50
102
RTVSPost2010PropOp42
 70
     1
102
RTVSPost2010Prop43
 90
        3
102
RTVSPost2010PropOp43
 70
     1
102
RTVSPost2010Prop44ColorIndex
 90
        5
102
RTVSPost2010Prop44ColorRGB
 90
      255
102
RTVSPost2010PropOp44
 70
     1
102
RTVSPost2010Prop45
280
     0
102
RTVSPost2010PropOp45
 70
     1
102
RTVSPost2010Prop46
 90
       50
102
RTVSPost2010PropOp46
 70
     1
102
RTVSPost2010Prop47
 90
       50
102
RTVSPost2010PropOp47
 70
     1
102
RTVSPost2010Prop48
 90
       50
102
RTVSPost2010PropOp48
 70
     1
102
RTVSPost2010Prop49
280
     0
102
RTVSPost2010PropOp49
 70
     1
102
RTVSPost2010Prop50
 90
       50
102
RTVSPost2010PropOp50
 70
     1
102
RTVSPost2010Prop51ColorIndex
 90
      256
102
RTVSPost2010Prop51ColorRGB
 90
-16777216
102
RTVSPost2010PropOp51
 70
     0
102
RTVSPost2010Prop52
140
1.0
102
RTVSPost2010PropOp52
 70
     0
102
RTVSPost2010Prop53
 90
        2
102
RTVSPost2010PropOp53
 70
     1
102
RTVSPost2010Prop54
  1
strokes_ogs.tif
102
RTVSPost2010PropOp54
 70
     1
102
RTVSPost2010Prop55
280
     0
102
RTVSPost2010PropOp55
 70
     1
102
RTVSPost2010Prop56
140
1.0
102
RTVSPost2010PropOp56
 70
     1
102
RTVSPost2010Prop57
140
1.0
102
RTVSPost2010PropOp57
 70
     1
  0
XRECORD
  5
578
102
{ACAD_REACTORS
330
577
102
}
330
577
100
AcDbXrecord
280
     1
102
RTVSPropertyOp0
 70
     1
102
RTVSPropertyOp1
 70
     1
102
RTVSPropertyOp2
 70
     1
102
RTVSPropertyOp3
 70
     1
102
RTVSPropertyOp4
 70
     1
102
RTVSPropertyOp5
 70
     1
102
RTVSPropertyOp6
 70
     1
102
RTVSPropertyOp7
 70
     1
102
RTVSPropertyOp8
 70
     1
102
RTVSPropertyOp9
 70
     1
102
RTVSPropertyOp10
 70
     1
102
RTVSPropertyOp11
 70
     1
102
RTVSPropertyOp12
 70
     1
102
RTVSPropertyOp13
 70
     1
102
RTVSPropertyOp14
 70
     1
102
RTVSPropertyOp15
 70
     1
102
RTVSPropertyOp16
 70
     1
102
RTVSPropertyOp17
 70
     1
102
RTVSPropertyOp18
 70
     1
102
RTVSPropertyOp19
 70
     1
102
RTVSPropertyOp20
 70
     1
102
RTVSPropertyOp21
 70
     1
102
RTVSPropertyOp22
 70
     1
102
RTVSPropertyOp23
 70
     1
102
RTVSPropertyOp24
 70
     1
102
RTVSPropertyOp25
 70
     1
102
RTVSPropertyOp26
 70
     1
102
RTVSPropertyOp27
 70
     1
102
RTVSPropertyOp28
 70
     1
102
RTVSPropertyOp29
 70
     1
102
RTVSPropertyOp30
 70
     1
102
RTVSPropertyOp31
 70
     1
102
RTVSPropertyOp32
 70
     1
102
RTVSPropertyOp33
 70
     1
102
RTVSPropertyOp34
 70
     1
102
RTVSPropertyOp35
 70
     1
102
RTVSPropertyOp36
 70
     1
102
RTVSPropertyOp37
 70
     1
102
RTVSPropertyOp38
 70
     1
102
RTVSPropertyOp39
 70
     1
102
RTVSPropertyOp40
 70
     1
102
RTVSPropertyOp41
 70
     1
102
RTVSPropertyOp42
 70
     1
102
RTVSPropertyOp43
 70
     1
102
RTVSPropertyOp44
 70
     1
102
RTVSPropertyOp45
 70
     1
102
RTVSPropertyOp46
 70
     1
102
RTVSPropertyOp47
 70
     1
102
RTVSPropertyOp48
 70
     1
102
RTVSPropertyOp49
 70
     1
102
RTVSPropertyOp50
 70
     1
102
RTVSPropertyOp51
 70
     0
102
RTVSPropertyOp52
 70
     0
102
RTVSPropertyOp53
 70
     1
102
RTVSPropertyOp54
 70
     1
102
RTVSPropertyOp55
 70
     1
102
RTVSPropertyOp56
 70
     1
102
RTVSPropertyOp57
 70
     1
102
RTVSPost2010Prop28
280
     0
102
RTVSPost2010PropOp28
 70
     1
102
RTVSPost2010Prop29
280
     1
102
RTVSPost2010PropOp29
 70
     1
102
RTVSPost2010Prop30
280
     1
102
RTVSPost2010PropOp30
 70
     1
102
RTVSPost2010Prop31
280
     0
102
RTVSPost2010PropOp31
 70
     1
102
RTVSPost2010Prop32
280
     0
102
RTVSPost2010PropOp32
 70
     1
102
RTVSPost2010Prop33
280
     0
102
RTVSPost2010PropOp33
 70
     1
102
RTVSPost2010Prop34
280
     0
102
RTVSPost2010PropOp34
 70
     1
102
RTVSPost2010Prop35
280
     0
102
RTVSPost2010PropOp35
 70
     1
102
RTVSPost2010Prop36
280
     0
102
RTVSPost2010PropOp36
 70
     1
102
RTVSPost2010Prop37
 90
       50
102
RTVSPost2010PropOp37
 70
     1
102
RTVSPost2010Prop38
140
0.0
102
RTVSPost2010PropOp38
 70
     1
102
RTVSPost2010Prop39
140
1.0
102
RTVSPost2010PropOp39
 70
     1
102
RTVSPost2010Prop40
 90
        0
102
RTVSPost2010PropOp40
 70
     1
102
RTVSPost2010Prop41ColorIndex
 90
       18
102
RTVSPost2010Prop41ColorRGB
 90
        0
102
RTVSPost2010PropOp41
 70
     1
102
RTVSPost2010Prop42
 90
       50
102
RTVSPost2010PropOp42
 70
     1
102
RTVSPost2010Prop43
 90
        3
102
RTVSPost2010PropOp43
 70
     1
102
RTVSPost2010Prop44ColorIndex
 90
        5
102
RTVSPost2010Prop44ColorRGB
 90
      255
102
RTVSPost2010PropOp44
 70
     1
102
RTVSPost2010Prop45
280
     0
102
RTVSPost2010PropOp45
 70
     1
102
RTVSPost2010Prop46
 90
       50
102
RTVSPost2010PropOp46
 70
     1
102
RTVSPost2010Prop47
 90
       50
102
RTVSPost2010PropOp47
 70
     1
102
RTVSPost2010Prop48
 90
       50
102
RTVSPost2010PropOp48
 70
     1
102
RTVSPost2010Prop49
280
     0
102
RTVSPost2010PropOp49
 70
     1
102
RTVSPost2010Prop50
 90
       50
102
RTVSPost2010PropOp50
 70
     1
102
RTVSPost2010Prop51ColorIndex
 90
      256
102
RTVSPost2010Prop51ColorRGB
 90
-16777216
102
RTVSPost2010PropOp51
 70
     0
102
RTVSPost2010Prop52
140
1.0
102
RTVSPost2010PropOp52
 70
     0
102
RTVSPost2010Prop53
 90
        2
102
RTVSPost2010PropOp53
 70
     1
102
RTVSPost2010Prop54
  1
strokes_ogs.tif
102
RTVSPost2010PropOp54
 70
     1
102
RTVSPost2010Prop55
280
     0
102
RTVSPost2010PropOp55
 70
     1
102
RTVSPost2010Prop56
140
1.0
102
RTVSPost2010PropOp56
 70
     1
102
RTVSPost2010Prop57
140
1.0
102
RTVSPost2010PropOp57
 70
     1
  0
XRECORD
  5
580
102
{ACAD_REACTORS
330
57F
102
}
330
57F
100
AcDbXrecord
280
     1
102
RTVSPropertyOp0
 70
     1
102
RTVSPropertyOp1
 70
     1
102
RTVSPropertyOp2
 70
     1
102
RTVSPropertyOp3
 70
     1
102
RTVSPropertyOp4
 70
     1
102
RTVSPropertyOp5
 70
     1
102
RTVSPropertyOp6
 70
     1
102
RTVSPropertyOp7
 70
     1
102
RTVSPropertyOp8
 70
     1
102
RTVSPropertyOp9
 70
     1
102
RTVSPropertyOp10
 70
     1
102
RTVSPropertyOp11
 70
     1
102
RTVSPropertyOp12
 70
     1
102
RTVSPropertyOp13
 70
     1
102
RTVSPropertyOp14
 70
     1
102
RTVSPropertyOp15
 70
     1
102
RTVSPropertyOp16
 70
     1
102
RTVSPropertyOp17
 70
     1
102
RTVSPropertyOp18
 70
     1
102
RTVSPropertyOp19
 70
     1
102
RTVSPropertyOp20
 70
     1
102
RTVSPropertyOp21
 70
     1
102
RTVSPropertyOp22
 70
     1
102
RTVSPropertyOp23
 70
     1
102
RTVSPropertyOp24
 70
     1
102
RTVSPropertyOp25
 70
     1
102
RTVSPropertyOp26
 70
     1
102
RTVSPropertyOp27
 70
     1
102
RTVSPropertyOp28
 70
     1
102
RTVSPropertyOp29
 70
     1
102
RTVSPropertyOp30
 70
     1
102
RTVSPropertyOp31
 70
     1
102
RTVSPropertyOp32
 70
     1
102
RTVSPropertyOp33
 70
     1
102
RTVSPropertyOp34
 70
     1
102
RTVSPropertyOp35
 70
     1
102
RTVSPropertyOp36
 70
     1
102
RTVSPropertyOp37
 70
     1
102
RTVSPropertyOp38
 70
     1
102
RTVSPropertyOp39
 70
     1
102
RTVSPropertyOp40
 70
     1
102
RTVSPropertyOp41
 70
     1
102
RTVSPropertyOp42
 70
     1
102
RTVSPropertyOp43
 70
     1
102
RTVSPropertyOp44
 70
     1
102
RTVSPropertyOp45
 70
     1
102
RTVSPropertyOp46
 70
     1
102
RTVSPropertyOp47
 70
     1
102
RTVSPropertyOp48
 70
     1
102
RTVSPropertyOp49
 70
     1
102
RTVSPropertyOp50
 70
     1
102
RTVSPropertyOp51
 70
     0
102
RTVSPropertyOp52
 70
     0
102
RTVSPropertyOp53
 70
     1
102
RTVSPropertyOp54
 70
     1
102
RTVSPropertyOp55
 70
     1
102
RTVSPropertyOp56
 70
     1
102
RTVSPropertyOp57
 70
     1
102
RTVSPost2010Prop28
280
     0
102
RTVSPost2010PropOp28
 70
     1
102
RTVSPost2010Prop29
280
     1
102
RTVSPost2010PropOp29
 70
     1
102
RTVSPost2010Prop30
280
     1
102
RTVSPost2010PropOp30
 70
     1
102
RTVSPost2010Prop31
280
     0
102
RTVSPost2010PropOp31
 70
     1
102
RTVSPost2010Prop32
280
     0
102
RTVSPost2010PropOp32
 70
     1
102
RTVSPost2010Prop33
280
     0
102
RTVSPost2010PropOp33
 70
     1
102
RTVSPost2010Prop34
280
     0
102
RTVSPost2010PropOp34
 70
     1
102
RTVSPost2010Prop35
280
     0
102
RTVSPost2010PropOp35
 70
     1
102
RTVSPost2010Prop36
280
     0
102
RTVSPost2010PropOp36
 70
     1
102
RTVSPost2010Prop37
 90
       50
102
RTVSPost2010PropOp37
 70
     1
102
RTVSPost2010Prop38
140
0.0
102
RTVSPost2010PropOp38
 70
     1
102
RTVSPost2010Prop39
140
1.0
102
RTVSPost2010PropOp39
 70
     1
102
RTVSPost2010Prop40
 90
        0
102
RTVSPost2010PropOp40
 70
     1
102
RTVSPost2010Prop41ColorIndex
 90
       18
102
RTVSPost2010Prop41ColorRGB
 90
        0
102
RTVSPost2010PropOp41
 70
     1
102
RTVSPost2010Prop42
 90
       50
102
RTVSPost2010PropOp42
 70
     1
102
RTVSPost2010Prop43
 90
        3
102
RTVSPost2010PropOp43
 70
     1
102
RTVSPost2010Prop44ColorIndex
 90
        5
102
RTVSPost2010Prop44ColorRGB
 90
      255
102
RTVSPost2010PropOp44
 70
     1
102
RTVSPost2010Prop45
280
     0
102
RTVSPost2010PropOp45
 70
     1
102
RTVSPost2010Prop46
 90
       50
102
RTVSPost2010PropOp46
 70
     1
102
RTVSPost2010Prop47
 90
       50
102
RTVSPost2010PropOp47
 70
     1
102
RTVSPost2010Prop48
 90
       50
102
RTVSPost2010PropOp48
 70
     1
102
RTVSPost2010Prop49
280
     0
102
RTVSPost2010PropOp49
 70
     1
102
RTVSPost2010Prop50
 90
       50
102
RTVSPost2010PropOp50
 70
     1
102
RTVSPost2010Prop51ColorIndex
 90
      256
102
RTVSPost2010Prop51ColorRGB
 90
-16777216
102
RTVSPost2010PropOp51
 70
     0
102
RTVSPost2010Prop52
140
1.0
102
RTVSPost2010PropOp52
 70
     0
102
RTVSPost2010Prop53
 90
        2
102
RTVSPost2010PropOp53
 70
     1
102
RTVSPost2010Prop54
  1
strokes_ogs.tif
102
RTVSPost2010PropOp54
 70
     1
102
RTVSPost2010Prop55
280
     0
102
RTVSPost2010PropOp55
 70
     1
102
RTVSPost2010Prop56
140
1.0
102
RTVSPost2010PropOp56
 70
     1
102
RTVSPost2010Prop57
140
1.0
102
RTVSPost2010PropOp57
 70
     1
  0
XRECORD
  5
588
102
{ACAD_REACTORS
330
587
102
}
330
587
100
AcDbXrecord
280
     1
102
RTVSPropertyOp0
 70
     1
102
RTVSPropertyOp1
 70
     1
102
RTVSPropertyOp2
 70
     1
102
RTVSPropertyOp3
 70
     1
102
RTVSPropertyOp4
 70
     1
102
RTVSPropertyOp5
 70
     1
102
RTVSPropertyOp6
 70
     1
102
RTVSPropertyOp7
 70
     1
102
RTVSPropertyOp8
 70
     1
102
RTVSPropertyOp9
 70
     1
102
RTVSPropertyOp10
 70
     1
102
RTVSPropertyOp11
 70
     1
102
RTVSPropertyOp12
 70
     1
102
RTVSPropertyOp13
 70
     1
102
RTVSPropertyOp14
 70
     1
102
RTVSPropertyOp15
 70
     1
102
RTVSPropertyOp16
 70
     1
102
RTVSPropertyOp17
 70
     1
102
RTVSPropertyOp18
 70
     1
102
RTVSPropertyOp19
 70
     1
102
RTVSPropertyOp20
 70
     1
102
RTVSPropertyOp21
 70
     1
102
RTVSPropertyOp22
 70
     1
102
RTVSPropertyOp23
 70
     1
102
RTVSPropertyOp24
 70
     1
102
RTVSPropertyOp25
 70
     1
102
RTVSPropertyOp26
 70
     1
102
RTVSPropertyOp27
 70
     1
102
RTVSPropertyOp28
 70
     1
102
RTVSPropertyOp29
 70
     1
102
RTVSPropertyOp30
 70
     1
102
RTVSPropertyOp31
 70
     1
102
RTVSPropertyOp32
 70
     1
102
RTVSPropertyOp33
 70
     1
102
RTVSPropertyOp34
 70
     1
102
RTVSPropertyOp35
 70
     1
102
RTVSPropertyOp36
 70
     1
102
RTVSPropertyOp37
 70
     1
102
RTVSPropertyOp38
 70
     1
102
RTVSPropertyOp39
 70
     1
102
RTVSPropertyOp40
 70
     1
102
RTVSPropertyOp41
 70
     1
102
RTVSPropertyOp42
 70
     1
102
RTVSPropertyOp43
 70
     1
102
RTVSPropertyOp44
 70
     1
102
RTVSPropertyOp45
 70
     1
102
RTVSPropertyOp46
 70
     1
102
RTVSPropertyOp47
 70
     1
102
RTVSPropertyOp48
 70
     1
102
RTVSPropertyOp49
 70
     1
102
RTVSPropertyOp50
 70
     1
102
RTVSPropertyOp51
 70
     0
102
RTVSPropertyOp52
 70
     0
102
RTVSPropertyOp53
 70
     1
102
RTVSPropertyOp54
 70
     1
102
RTVSPropertyOp55
 70
     1
102
RTVSPropertyOp56
 70
     1
102
RTVSPropertyOp57
 70
     1
102
RTVSPost2010Prop28
280
     0
102
RTVSPost2010PropOp28
 70
     1
102
RTVSPost2010Prop29
280
     1
102
RTVSPost2010PropOp29
 70
     1
102
RTVSPost2010Prop30
280
     1
102
RTVSPost2010PropOp30
 70
     1
102
RTVSPost2010Prop31
280
     0
102
RTVSPost2010PropOp31
 70
     1
102
RTVSPost2010Prop32
280
     0
102
RTVSPost2010PropOp32
 70
     1
102
RTVSPost2010Prop33
280
     0
102
RTVSPost2010PropOp33
 70
     1
102
RTVSPost2010Prop34
280
     0
102
RTVSPost2010PropOp34
 70
     1
102
RTVSPost2010Prop35
280
     0
102
RTVSPost2010PropOp35
 70
     1
102
RTVSPost2010Prop36
280
     0
102
RTVSPost2010PropOp36
 70
     1
102
RTVSPost2010Prop37
 90
       50
102
RTVSPost2010PropOp37
 70
     1
102
RTVSPost2010Prop38
140
0.0
102
RTVSPost2010PropOp38
 70
     1
102
RTVSPost2010Prop39
140
1.0
102
RTVSPost2010PropOp39
 70
     1
102
RTVSPost2010Prop40
 90
        0
102
RTVSPost2010PropOp40
 70
     1
102
RTVSPost2010Prop41ColorIndex
 90
       18
102
RTVSPost2010Prop41ColorRGB
 90
        0
102
RTVSPost2010PropOp41
 70
     1
102
RTVSPost2010Prop42
 90
       50
102
RTVSPost2010PropOp42
 70
     1
102
RTVSPost2010Prop43
 90
        3
102
RTVSPost2010PropOp43
 70
     1
102
RTVSPost2010Prop44ColorIndex
 90
        5
102
RTVSPost2010Prop44ColorRGB
 90
      255
102
RTVSPost2010PropOp44
 70
     1
102
RTVSPost2010Prop45
280
     0
102
RTVSPost2010PropOp45
 70
     1
102
RTVSPost2010Prop46
 90
       50
102
RTVSPost2010PropOp46
 70
     1
102
RTVSPost2010Prop47
 90
       50
102
RTVSPost2010PropOp47
 70
     1
102
RTVSPost2010Prop48
 90
       50
102
RTVSPost2010PropOp48
 70
     1
102
RTVSPost2010Prop49
280
     0
102
RTVSPost2010PropOp49
 70
     1
102
RTVSPost2010Prop50
 90
       50
102
RTVSPost2010PropOp50
 70
     1
102
RTVSPost2010Prop51ColorIndex
 90
      256
102
RTVSPost2010Prop51ColorRGB
 90
-16777216
102
RTVSPost2010PropOp51
 70
     0
102
RTVSPost2010Prop52
140
1.0
102
RTVSPost2010PropOp52
 70
     0
102
RTVSPost2010Prop53
 90
        2
102
RTVSPost2010PropOp53
 70
     1
102
RTVSPost2010Prop54
  1
strokes_ogs.tif
102
RTVSPost2010PropOp54
 70
     1
102
RTVSPost2010Prop55
280
     0
102
RTVSPost2010PropOp55
 70
     1
102
RTVSPost2010Prop56
140
1.0
102
RTVSPost2010PropOp56
 70
     1
102
RTVSPost2010Prop57
140
1.0
102
RTVSPost2010PropOp57
 70
     1
  0
XRECORD
  5
57C
102
{ACAD_REACTORS
330
57B
102
}
330
57B
100
AcDbXrecord
280
     1
102
RTVSPropertyOp0
 70
     1
102
RTVSPropertyOp1
 70
     1
102
RTVSPropertyOp2
 70
     1
102
RTVSPropertyOp3
 70
     1
102
RTVSPropertyOp4
 70
     1
102
RTVSPropertyOp5
 70
     1
102
RTVSPropertyOp6
 70
     1
102
RTVSPropertyOp7
 70
     1
102
RTVSPropertyOp8
 70
     1
102
RTVSPropertyOp9
 70
     1
102
RTVSPropertyOp10
 70
     1
102
RTVSPropertyOp11
 70
     1
102
RTVSPropertyOp12
 70
     1
102
RTVSPropertyOp13
 70
     1
102
RTVSPropertyOp14
 70
     1
102
RTVSPropertyOp15
 70
     1
102
RTVSPropertyOp16
 70
     1
102
RTVSPropertyOp17
 70
     1
102
RTVSPropertyOp18
 70
     1
102
RTVSPropertyOp19
 70
     1
102
RTVSPropertyOp20
 70
     1
102
RTVSPropertyOp21
 70
     1
102
RTVSPropertyOp22
 70
     1
102
RTVSPropertyOp23
 70
     1
102
RTVSPropertyOp24
 70
     1
102
RTVSPropertyOp25
 70
     1
102
RTVSPropertyOp26
 70
     1
102
RTVSPropertyOp27
 70
     1
102
RTVSPropertyOp28
 70
     1
102
RTVSPropertyOp29
 70
     1
102
RTVSPropertyOp30
 70
     1
102
RTVSPropertyOp31
 70
     1
102
RTVSPropertyOp32
 70
     1
102
RTVSPropertyOp33
 70
     1
102
RTVSPropertyOp34
 70
     1
102
RTVSPropertyOp35
 70
     1
102
RTVSPropertyOp36
 70
     1
102
RTVSPropertyOp37
 70
     1
102
RTVSPropertyOp38
 70
     1
102
RTVSPropertyOp39
 70
     1
102
RTVSPropertyOp40
 70
     1
102
RTVSPropertyOp41
 70
     1
102
RTVSPropertyOp42
 70
     1
102
RTVSPropertyOp43
 70
     1
102
RTVSPropertyOp44
 70
     1
102
RTVSPropertyOp45
 70
     1
102
RTVSPropertyOp46
 70
     1
102
RTVSPropertyOp47
 70
     1
102
RTVSPropertyOp48
 70
     1
102
RTVSPropertyOp49
 70
     1
102
RTVSPropertyOp50
 70
     1
102
RTVSPropertyOp51
 70
     0
102
RTVSPropertyOp52
 70
     0
102
RTVSPropertyOp53
 70
     1
102
RTVSPropertyOp54
 70
     1
102
RTVSPropertyOp55
 70
     1
102
RTVSPropertyOp56
 70
     1
102
RTVSPropertyOp57
 70
     1
102
RTVSPost2010Prop28
280
     0
102
RTVSPost2010PropOp28
 70
     1
102
RTVSPost2010Prop29
280
     1
102
RTVSPost2010PropOp29
 70
     1
102
RTVSPost2010Prop30
280
     1
102
RTVSPost2010PropOp30
 70
     1
102
RTVSPost2010Prop31
280
     0
102
RTVSPost2010PropOp31
 70
     1
102
RTVSPost2010Prop32
280
     0
102
RTVSPost2010PropOp32
 70
     1
102
RTVSPost2010Prop33
280
     0
102
RTVSPost2010PropOp33
 70
     1
102
RTVSPost2010Prop34
280
     0
102
RTVSPost2010PropOp34
 70
     1
102
RTVSPost2010Prop35
280
     0
102
RTVSPost2010PropOp35
 70
     1
102
RTVSPost2010Prop36
280
     0
102
RTVSPost2010PropOp36
 70
     1
102
RTVSPost2010Prop37
 90
       50
102
RTVSPost2010PropOp37
 70
     1
102
RTVSPost2010Prop38
140
0.0
102
RTVSPost2010PropOp38
 70
     1
102
RTVSPost2010Prop39
140
1.0
102
RTVSPost2010PropOp39
 70
     1
102
RTVSPost2010Prop40
 90
        0
102
RTVSPost2010PropOp40
 70
     1
102
RTVSPost2010Prop41ColorIndex
 90
       18
102
RTVSPost2010Prop41ColorRGB
 90
        0
102
RTVSPost2010PropOp41
 70
     1
102
RTVSPost2010Prop42
 90
       50
102
RTVSPost2010PropOp42
 70
     1
102
RTVSPost2010Prop43
 90
        3
102
RTVSPost2010PropOp43
 70
     1
102
RTVSPost2010Prop44ColorIndex
 90
        5
102
RTVSPost2010Prop44ColorRGB
 90
      255
102
RTVSPost2010PropOp44
 70
     1
102
RTVSPost2010Prop45
280
     0
102
RTVSPost2010PropOp45
 70
     1
102
RTVSPost2010Prop46
 90
       50
102
RTVSPost2010PropOp46
 70
     1
102
RTVSPost2010Prop47
 90
       50
102
RTVSPost2010PropOp47
 70
     1
102
RTVSPost2010Prop48
 90
       50
102
RTVSPost2010PropOp48
 70
     1
102
RTVSPost2010Prop49
280
     0
102
RTVSPost2010PropOp49
 70
     1
102
RTVSPost2010Prop50
 90
       50
102
RTVSPost2010PropOp50
 70
     1
102
RTVSPost2010Prop51ColorIndex
 90
      256
102
RTVSPost2010Prop51ColorRGB
 90
-16777216
102
RTVSPost2010PropOp51
 70
     0
102
RTVSPost2010Prop52
140
1.0
102
RTVSPost2010PropOp52
 70
     0
102
RTVSPost2010Prop53
 90
        2
102
RTVSPost2010PropOp53
 70
     1
102
RTVSPost2010Prop54
  1
strokes_ogs.tif
102
RTVSPost2010PropOp54
 70
     1
102
RTVSPost2010Prop55
280
     0
102
RTVSPost2010PropOp55
 70
     1
102
RTVSPost2010Prop56
140
1.0
102
RTVSPost2010PropOp56
 70
     1
102
RTVSPost2010Prop57
140
1.0
102
RTVSPost2010PropOp57
 70
     1
  0
XRECORD
  5
57E
102
{ACAD_REACTORS
330
57D
102
}
330
57D
100
AcDbXrecord
280
     1
102
RTVSPropertyOp0
 70
     1
102
RTVSPropertyOp1
 70
     1
102
RTVSPropertyOp2
 70
     1
102
RTVSPropertyOp3
 70
     1
102
RTVSPropertyOp4
 70
     1
102
RTVSPropertyOp5
 70
     1
102
RTVSPropertyOp6
 70
     1
102
RTVSPropertyOp7
 70
     1
102
RTVSPropertyOp8
 70
     1
102
RTVSPropertyOp9
 70
     1
102
RTVSPropertyOp10
 70
     1
102
RTVSPropertyOp11
 70
     1
102
RTVSPropertyOp12
 70
     1
102
RTVSPropertyOp13
 70
     1
102
RTVSPropertyOp14
 70
     1
102
RTVSPropertyOp15
 70
     1
102
RTVSPropertyOp16
 70
     1
102
RTVSPropertyOp17
 70
     1
102
RTVSPropertyOp18
 70
     1
102
RTVSPropertyOp19
 70
     1
102
RTVSPropertyOp20
 70
     1
102
RTVSPropertyOp21
 70
     1
102
RTVSPropertyOp22
 70
     1
102
RTVSPropertyOp23
 70
     1
102
RTVSPropertyOp24
 70
     1
102
RTVSPropertyOp25
 70
     1
102
RTVSPropertyOp26
 70
     1
102
RTVSPropertyOp27
 70
     1
102
RTVSPropertyOp28
 70
     1
102
RTVSPropertyOp29
 70
     1
102
RTVSPropertyOp30
 70
     1
102
RTVSPropertyOp31
 70
     1
102
RTVSPropertyOp32
 70
     1
102
RTVSPropertyOp33
 70
     1
102
RTVSPropertyOp34
 70
     1
102
RTVSPropertyOp35
 70
     1
102
RTVSPropertyOp36
 70
     1
102
RTVSPropertyOp37
 70
     1
102
RTVSPropertyOp38
 70
     1
102
RTVSPropertyOp39
 70
     1
102
RTVSPropertyOp40
 70
     1
102
RTVSPropertyOp41
 70
     1
102
RTVSPropertyOp42
 70
     1
102
RTVSPropertyOp43
 70
     1
102
RTVSPropertyOp44
 70
     1
102
RTVSPropertyOp45
 70
     1
102
RTVSPropertyOp46
 70
     1
102
RTVSPropertyOp47
 70
     1
102
RTVSPropertyOp48
 70
     1
102
RTVSPropertyOp49
 70
     1
102
RTVSPropertyOp50
 70
     1
102
RTVSPropertyOp51
 70
     0
102
RTVSPropertyOp52
 70
     0
102
RTVSPropertyOp53
 70
     1
102
RTVSPropertyOp54
 70
     1
102
RTVSPropertyOp55
 70
     1
102
RTVSPropertyOp56
 70
     1
102
RTVSPropertyOp57
 70
     1
102
RTVSPost2010Prop28
280
     0
102
RTVSPost2010PropOp28
 70
     1
102
RTVSPost2010Prop29
280
     1
102
RTVSPost2010PropOp29
 70
     1
102
RTVSPost2010Prop30
280
     1
102
RTVSPost2010PropOp30
 70
     1
102
RTVSPost2010Prop31
280
     0
102
RTVSPost2010PropOp31
 70
     1
102
RTVSPost2010Prop32
280
     0
102
RTVSPost2010PropOp32
 70
     1
102
RTVSPost2010Prop33
280
     0
102
RTVSPost2010PropOp33
 70
     1
102
RTVSPost2010Prop34
280
     0
102
RTVSPost2010PropOp34
 70
     1
102
RTVSPost2010Prop35
280
     0
102
RTVSPost2010PropOp35
 70
     1
102
RTVSPost2010Prop36
280
     0
102
RTVSPost2010PropOp36
 70
     1
102
RTVSPost2010Prop37
 90
       50
102
RTVSPost2010PropOp37
 70
     1
102
RTVSPost2010Prop38
140
0.0
102
RTVSPost2010PropOp38
 70
     1
102
RTVSPost2010Prop39
140
1.0
102
RTVSPost2010PropOp39
 70
     1
102
RTVSPost2010Prop40
 90
        0
102
RTVSPost2010PropOp40
 70
     1
102
RTVSPost2010Prop41ColorIndex
 90
       18
102
RTVSPost2010Prop41ColorRGB
 90
        0
102
RTVSPost2010PropOp41
 70
     1
102
RTVSPost2010Prop42
 90
       50
102
RTVSPost2010PropOp42
 70
     1
102
RTVSPost2010Prop43
 90
        3
102
RTVSPost2010PropOp43
 70
     1
102
RTVSPost2010Prop44ColorIndex
 90
        5
102
RTVSPost2010Prop44ColorRGB
 90
      255
102
RTVSPost2010PropOp44
 70
     1
102
RTVSPost2010Prop45
280
     0
102
RTVSPost2010PropOp45
 70
     1
102
RTVSPost2010Prop46
 90
       50
102
RTVSPost2010PropOp46
 70
     1
102
RTVSPost2010Prop47
 90
       50
102
RTVSPost2010PropOp47
 70
     1
102
RTVSPost2010Prop48
 90
       50
102
RTVSPost2010PropOp48
 70
     1
102
RTVSPost2010Prop49
280
     0
102
RTVSPost2010PropOp49
 70
     1
102
RTVSPost2010Prop50
 90
       50
102
RTVSPost2010PropOp50
 70
     1
102
RTVSPost2010Prop51ColorIndex
 90
      256
102
RTVSPost2010Prop51ColorRGB
 90
-16777216
102
RTVSPost2010PropOp51
 70
     0
102
RTVSPost2010Prop52
140
1.0
102
RTVSPost2010PropOp52
 70
     0
102
RTVSPost2010Prop53
 90
        2
102
RTVSPost2010PropOp53
 70
     1
102
RTVSPost2010Prop54
  1
strokes_ogs.tif
102
RTVSPost2010PropOp54
 70
     1
102
RTVSPost2010Prop55
280
     0
102
RTVSPost2010PropOp55
 70
     1
102
RTVSPost2010Prop56
140
1.0
102
RTVSPost2010PropOp56
 70
     1
102
RTVSPost2010Prop57
140
1.0
102
RTVSPost2010PropOp57
 70
     1
  0
XRECORD
  5
586
102
{ACAD_REACTORS
330
585
102
}
330
585
100
AcDbXrecord
280
     1
102
RTVSPropertyOp0
 70
     1
102
RTVSPropertyOp1
 70
     1
102
RTVSPropertyOp2
 70
     1
102
RTVSPropertyOp3
 70
     1
102
RTVSPropertyOp4
 70
     1
102
RTVSPropertyOp5
 70
     1
102
RTVSPropertyOp6
 70
     1
102
RTVSPropertyOp7
 70
     1
102
RTVSPropertyOp8
 70
     1
102
RTVSPropertyOp9
 70
     1
102
RTVSPropertyOp10
 70
     1
102
RTVSPropertyOp11
 70
     1
102
RTVSPropertyOp12
 70
     1
102
RTVSPropertyOp13
 70
     1
102
RTVSPropertyOp14
 70
     1
102
RTVSPropertyOp15
 70
     1
102
RTVSPropertyOp16
 70
     1
102
RTVSPropertyOp17
 70
     1
102
RTVSPropertyOp18
 70
     1
102
RTVSPropertyOp19
 70
     1
102
RTVSPropertyOp20
 70
     1
102
RTVSPropertyOp21
 70
     1
102
RTVSPropertyOp22
 70
     1
102
RTVSPropertyOp23
 70
     1
102
RTVSPropertyOp24
 70
     1
102
RTVSPropertyOp25
 70
     1
102
RTVSPropertyOp26
 70
     1
102
RTVSPropertyOp27
 70
     1
102
RTVSPropertyOp28
 70
     1
102
RTVSPropertyOp29
 70
     1
102
RTVSPropertyOp30
 70
     1
102
RTVSPropertyOp31
 70
     1
102
RTVSPropertyOp32
 70
     1
102
RTVSPropertyOp33
 70
     1
102
RTVSPropertyOp34
 70
     1
102
RTVSPropertyOp35
 70
     1
102
RTVSPropertyOp36
 70
     1
102
RTVSPropertyOp37
 70
     1
102
RTVSPropertyOp38
 70
     1
102
RTVSPropertyOp39
 70
     1
102
RTVSPropertyOp40
 70
     1
102
RTVSPropertyOp41
 70
     1
102
RTVSPropertyOp42
 70
     1
102
RTVSPropertyOp43
 70
     1
102
RTVSPropertyOp44
 70
     1
102
RTVSPropertyOp45
 70
     1
102
RTVSPropertyOp46
 70
     1
102
RTVSPropertyOp47
 70
     1
102
RTVSPropertyOp48
 70
     1
102
RTVSPropertyOp49
 70
     1
102
RTVSPropertyOp50
 70
     1
102
RTVSPropertyOp51
 70
     0
102
RTVSPropertyOp52
 70
     0
102
RTVSPropertyOp53
 70
     1
102
RTVSPropertyOp54
 70
     1
102
RTVSPropertyOp55
 70
     1
102
RTVSPropertyOp56
 70
     1
102
RTVSPropertyOp57
 70
     1
102
RTVSPost2010Prop28
280
     0
102
RTVSPost2010PropOp28
 70
     1
102
RTVSPost2010Prop29
280
     1
102
RTVSPost2010PropOp29
 70
     1
102
RTVSPost2010Prop30
280
     1
102
RTVSPost2010PropOp30
 70
     1
102
RTVSPost2010Prop31
280
     0
102
RTVSPost2010PropOp31
 70
     1
102
RTVSPost2010Prop32
280
     0
102
RTVSPost2010PropOp32
 70
     1
102
RTVSPost2010Prop33
280
     0
102
RTVSPost2010PropOp33
 70
     1
102
RTVSPost2010Prop34
280
     0
102
RTVSPost2010PropOp34
 70
     1
102
RTVSPost2010Prop35
280
     0
102
RTVSPost2010PropOp35
 70
     1
102
RTVSPost2010Prop36
280
     0
102
RTVSPost2010PropOp36
 70
     1
102
RTVSPost2010Prop37
 90
       50
102
RTVSPost2010PropOp37
 70
     1
102
RTVSPost2010Prop38
140
0.0
102
RTVSPost2010PropOp38
 70
     1
102
RTVSPost2010Prop39
140
1.0
102
RTVSPost2010PropOp39
 70
     1
102
RTVSPost2010Prop40
 90
        0
102
RTVSPost2010PropOp40
 70
     1
102
RTVSPost2010Prop41ColorIndex
 90
       18
102
RTVSPost2010Prop41ColorRGB
 90
        0
102
RTVSPost2010PropOp41
 70
     1
102
RTVSPost2010Prop42
 90
       50
102
RTVSPost2010PropOp42
 70
     1
102
RTVSPost2010Prop43
 90
        3
102
RTVSPost2010PropOp43
 70
     1
102
RTVSPost2010Prop44ColorIndex
 90
        5
102
RTVSPost2010Prop44ColorRGB
 90
      255
102
RTVSPost2010PropOp44
 70
     1
102
RTVSPost2010Prop45
280
     0
102
RTVSPost2010PropOp45
 70
     1
102
RTVSPost2010Prop46
 90
       50
102
RTVSPost2010PropOp46
 70
     1
102
RTVSPost2010Prop47
 90
       50
102
RTVSPost2010PropOp47
 70
     1
102
RTVSPost2010Prop48
 90
       50
102
RTVSPost2010PropOp48
 70
     1
102
RTVSPost2010Prop49
280
     0
102
RTVSPost2010PropOp49
 70
     1
102
RTVSPost2010Prop50
 90
       50
102
RTVSPost2010PropOp50
 70
     1
102
RTVSPost2010Prop51ColorIndex
 90
      256
102
RTVSPost2010Prop51ColorRGB
 90
-16777216
102
RTVSPost2010PropOp51
 70
     0
102
RTVSPost2010Prop52
140
1.0
102
RTVSPost2010PropOp52
 70
     0
102
RTVSPost2010Prop53
 90
        2
102
RTVSPost2010PropOp53
 70
     1
102
RTVSPost2010Prop54
  1
strokes_ogs.tif
102
RTVSPost2010PropOp54
 70
     1
102
RTVSPost2010Prop55
280
     0
102
RTVSPost2010PropOp55
 70
     1
102
RTVSPost2010Prop56
140
1.0
102
RTVSPost2010PropOp56
 70
     1
102
RTVSPost2010Prop57
140
1.0
102
RTVSPost2010PropOp57
 70
     1
  0
XRECORD
  5
56A
102
{ACAD_REACTORS
330
569
102
}
330
569
100
AcDbXrecord
280
     1
102
RTVSPropertyOp0
 70
     1
102
RTVSPropertyOp1
 70
     1
102
RTVSPropertyOp2
 70
     1
102
RTVSPropertyOp3
 70
     1
102
RTVSPropertyOp4
 70
     1
102
RTVSPropertyOp5
 70
     1
102
RTVSPropertyOp6
 70
     1
102
RTVSPropertyOp7
 70
     1
102
RTVSPropertyOp8
 70
     1
102
RTVSPropertyOp9
 70
     1
102
RTVSPropertyOp10
 70
     1
102
RTVSPropertyOp11
 70
     1
102
RTVSPropertyOp12
 70
     1
102
RTVSPropertyOp13
 70
     1
102
RTVSPropertyOp14
 70
     1
102
RTVSPropertyOp15
 70
     1
102
RTVSPropertyOp16
 70
     1
102
RTVSPropertyOp17
 70
     1
102
RTVSPropertyOp18
 70
     1
102
RTVSPropertyOp19
 70
     1
102
RTVSPropertyOp20
 70
     1
102
RTVSPropertyOp21
 70
     1
102
RTVSPropertyOp22
 70
     1
102
RTVSPropertyOp23
 70
     1
102
RTVSPropertyOp24
 70
     1
102
RTVSPropertyOp25
 70
     1
102
RTVSPropertyOp26
 70
     1
102
RTVSPropertyOp27
 70
     1
102
RTVSPropertyOp28
 70
     1
102
RTVSPropertyOp29
 70
     1
102
RTVSPropertyOp30
 70
     1
102
RTVSPropertyOp31
 70
     1
102
RTVSPropertyOp32
 70
     1
102
RTVSPropertyOp33
 70
     1
102
RTVSPropertyOp34
 70
     1
102
RTVSPropertyOp35
 70
     1
102
RTVSPropertyOp36
 70
     1
102
RTVSPropertyOp37
 70
     1
102
RTVSPropertyOp38
 70
     1
102
RTVSPropertyOp39
 70
     1
102
RTVSPropertyOp40
 70
     1
102
RTVSPropertyOp41
 70
     1
102
RTVSPropertyOp42
 70
     1
102
RTVSPropertyOp43
 70
     1
102
RTVSPropertyOp44
 70
     1
102
RTVSPropertyOp45
 70
     1
102
RTVSPropertyOp46
 70
     1
102
RTVSPropertyOp47
 70
     1
102
RTVSPropertyOp48
 70
     1
102
RTVSPropertyOp49
 70
     1
102
RTVSPropertyOp50
 70
     1
102
RTVSPropertyOp51
 70
     0
102
RTVSPropertyOp52
 70
     0
102
RTVSPropertyOp53
 70
     1
102
RTVSPropertyOp54
 70
     1
102
RTVSPropertyOp55
 70
     1
102
RTVSPropertyOp56
 70
     1
102
RTVSPropertyOp57
 70
     1
102
RTVSPost2010Prop28
280
     0
102
RTVSPost2010PropOp28
 70
     1
102
RTVSPost2010Prop29
280
     1
102
RTVSPost2010PropOp29
 70
     1
102
RTVSPost2010Prop30
280
     1
102
RTVSPost2010PropOp30
 70
     1
102
RTVSPost2010Prop31
280
     0
102
RTVSPost2010PropOp31
 70
     1
102
RTVSPost2010Prop32
280
     0
102
RTVSPost2010PropOp32
 70
     1
102
RTVSPost2010Prop33
280
     0
102
RTVSPost2010PropOp33
 70
     1
102
RTVSPost2010Prop34
280
     0
102
RTVSPost2010PropOp34
 70
     1
102
RTVSPost2010Prop35
280
     0
102
RTVSPost2010PropOp35
 70
     1
102
RTVSPost2010Prop36
280
     0
102
RTVSPost2010PropOp36
 70
     1
102
RTVSPost2010Prop37
 90
       50
102
RTVSPost2010PropOp37
 70
     1
102
RTVSPost2010Prop38
140
0.0
102
RTVSPost2010PropOp38
 70
     1
102
RTVSPost2010Prop39
140
1.0
102
RTVSPost2010PropOp39
 70
     1
102
RTVSPost2010Prop40
 90
        0
102
RTVSPost2010PropOp40
 70
     1
102
RTVSPost2010Prop41ColorIndex
 90
       18
102
RTVSPost2010Prop41ColorRGB
 90
        0
102
RTVSPost2010PropOp41
 70
     1
102
RTVSPost2010Prop42
 90
       50
102
RTVSPost2010PropOp42
 70
     1
102
RTVSPost2010Prop43
 90
        3
102
RTVSPost2010PropOp43
 70
     1
102
RTVSPost2010Prop44ColorIndex
 90
        5
102
RTVSPost2010Prop44ColorRGB
 90
      255
102
RTVSPost2010PropOp44
 70
     1
102
RTVSPost2010Prop45
280
     0
102
RTVSPost2010PropOp45
 70
     1
102
RTVSPost2010Prop46
 90
       50
102
RTVSPost2010PropOp46
 70
     1
102
RTVSPost2010Prop47
 90
       50
102
RTVSPost2010PropOp47
 70
     1
102
RTVSPost2010Prop48
 90
       50
102
RTVSPost2010PropOp48
 70
     1
102
RTVSPost2010Prop49
280
     0
102
RTVSPost2010PropOp49
 70
     1
102
RTVSPost2010Prop50
 90
       50
102
RTVSPost2010PropOp50
 70
     1
102
RTVSPost2010Prop51ColorIndex
 90
      256
102
RTVSPost2010Prop51ColorRGB
 90
-16777216
102
RTVSPost2010PropOp51
 70
     0
102
RTVSPost2010Prop52
140
1.0
102
RTVSPost2010PropOp52
 70
     0
102
RTVSPost2010Prop53
 90
        2
102
RTVSPost2010PropOp53
 70
     1
102
RTVSPost2010Prop54
  1
strokes_ogs.tif
102
RTVSPost2010PropOp54
 70
     1
102
RTVSPost2010Prop55
280
     0
102
RTVSPost2010PropOp55
 70
     1
102
RTVSPost2010Prop56
140
1.0
102
RTVSPost2010PropOp56
 70
     1
102
RTVSPost2010Prop57
140
1.0
102
RTVSPost2010PropOp57
 70
     1
  0
XRECORD
  5
56C
102
{ACAD_REACTORS
330
56B
102
}
330
56B
100
AcDbXrecord
280
     1
102
RTVSPropertyOp0
 70
     1
102
RTVSPropertyOp1
 70
     1
102
RTVSPropertyOp2
 70
     1
102
RTVSPropertyOp3
 70
     1
102
RTVSPropertyOp4
 70
     1
102
RTVSPropertyOp5
 70
     1
102
RTVSPropertyOp6
 70
     1
102
RTVSPropertyOp7
 70
     1
102
RTVSPropertyOp8
 70
     1
102
RTVSPropertyOp9
 70
     1
102
RTVSPropertyOp10
 70
     1
102
RTVSPropertyOp11
 70
     1
102
RTVSPropertyOp12
 70
     1
102
RTVSPropertyOp13
 70
     1
102
RTVSPropertyOp14
 70
     1
102
RTVSPropertyOp15
 70
     1
102
RTVSPropertyOp16
 70
     1
102
RTVSPropertyOp17
 70
     1
102
RTVSPropertyOp18
 70
     1
102
RTVSPropertyOp19
 70
     1
102
RTVSPropertyOp20
 70
     1
102
RTVSPropertyOp21
 70
     1
102
RTVSPropertyOp22
 70
     1
102
RTVSPropertyOp23
 70
     1
102
RTVSPropertyOp24
 70
     1
102
RTVSPropertyOp25
 70
     1
102
RTVSPropertyOp26
 70
     1
102
RTVSPropertyOp27
 70
     1
102
RTVSPropertyOp28
 70
     1
102
RTVSPropertyOp29
 70
     1
102
RTVSPropertyOp30
 70
     1
102
RTVSPropertyOp31
 70
     1
102
RTVSPropertyOp32
 70
     1
102
RTVSPropertyOp33
 70
     1
102
RTVSPropertyOp34
 70
     1
102
RTVSPropertyOp35
 70
     1
102
RTVSPropertyOp36
 70
     1
102
RTVSPropertyOp37
 70
     1
102
RTVSPropertyOp38
 70
     1
102
RTVSPropertyOp39
 70
     1
102
RTVSPropertyOp40
 70
     1
102
RTVSPropertyOp41
 70
     1
102
RTVSPropertyOp42
 70
     1
102
RTVSPropertyOp43
 70
     1
102
RTVSPropertyOp44
 70
     1
102
RTVSPropertyOp45
 70
     1
102
RTVSPropertyOp46
 70
     1
102
RTVSPropertyOp47
 70
     1
102
RTVSPropertyOp48
 70
     1
102
RTVSPropertyOp49
 70
     1
102
RTVSPropertyOp50
 70
     1
102
RTVSPropertyOp51
 70
     0
102
RTVSPropertyOp52
 70
     0
102
RTVSPropertyOp53
 70
     1
102
RTVSPropertyOp54
 70
     1
102
RTVSPropertyOp55
 70
     1
102
RTVSPropertyOp56
 70
     1
102
RTVSPropertyOp57
 70
     1
102
RTVSPost2010Prop28
280
     0
102
RTVSPost2010PropOp28
 70
     1
102
RTVSPost2010Prop29
280
     1
102
RTVSPost2010PropOp29
 70
     1
102
RTVSPost2010Prop30
280
     1
102
RTVSPost2010PropOp30
 70
     1
102
RTVSPost2010Prop31
280
     0
102
RTVSPost2010PropOp31
 70
     1
102
RTVSPost2010Prop32
280
     0
102
RTVSPost2010PropOp32
 70
     1
102
RTVSPost2010Prop33
280
     0
102
RTVSPost2010PropOp33
 70
     1
102
RTVSPost2010Prop34
280
     0
102
RTVSPost2010PropOp34
 70
     1
102
RTVSPost2010Prop35
280
     0
102
RTVSPost2010PropOp35
 70
     1
102
RTVSPost2010Prop36
280
     0
102
RTVSPost2010PropOp36
 70
     1
102
RTVSPost2010Prop37
 90
       50
102
RTVSPost2010PropOp37
 70
     1
102
RTVSPost2010Prop38
140
0.0
102
RTVSPost2010PropOp38
 70
     1
102
RTVSPost2010Prop39
140
1.0
102
RTVSPost2010PropOp39
 70
     1
102
RTVSPost2010Prop40
 90
        0
102
RTVSPost2010PropOp40
 70
     1
102
RTVSPost2010Prop41ColorIndex
 90
       18
102
RTVSPost2010Prop41ColorRGB
 90
        0
102
RTVSPost2010PropOp41
 70
     1
102
RTVSPost2010Prop42
 90
       50
102
RTVSPost2010PropOp42
 70
     1
102
RTVSPost2010Prop43
 90
        3
102
RTVSPost2010PropOp43
 70
     1
102
RTVSPost2010Prop44ColorIndex
 90
        5
102
RTVSPost2010Prop44ColorRGB
 90
      255
102
RTVSPost2010PropOp44
 70
     1
102
RTVSPost2010Prop45
280
     0
102
RTVSPost2010PropOp45
 70
     1
102
RTVSPost2010Prop46
 90
       50
102
RTVSPost2010PropOp46
 70
     1
102
RTVSPost2010Prop47
 90
       50
102
RTVSPost2010PropOp47
 70
     1
102
RTVSPost2010Prop48
 90
       50
102
RTVSPost2010PropOp48
 70
     1
102
RTVSPost2010Prop49
280
     0
102
RTVSPost2010PropOp49
 70
     1
102
RTVSPost2010Prop50
 90
       50
102
RTVSPost2010PropOp50
 70
     1
102
RTVSPost2010Prop51ColorIndex
 90
      256
102
RTVSPost2010Prop51ColorRGB
 90
-16777216
102
RTVSPost2010PropOp51
 70
     0
102
RTVSPost2010Prop52
140
1.0
102
RTVSPost2010PropOp52
 70
     0
102
RTVSPost2010Prop53
 90
        2
102
RTVSPost2010PropOp53
 70
     1
102
RTVSPost2010Prop54
  1
strokes_ogs.tif
102
RTVSPost2010PropOp54
 70
     1
102
RTVSPost2010Prop55
280
     0
102
RTVSPost2010PropOp55
 70
     1
102
RTVSPost2010Prop56
140
1.0
102
RTVSPost2010PropOp56
 70
     1
102
RTVSPost2010Prop57
140
1.0
102
RTVSPost2010PropOp57
 70
     1
  0
XRECORD
  5
56E
102
{ACAD_REACTORS
330
56D
102
}
330
56D
100
AcDbXrecord
280
     1
102
RTVSPropertyOp0
 70
     1
102
RTVSPropertyOp1
 70
     1
102
RTVSPropertyOp2
 70
     1
102
RTVSPropertyOp3
 70
     1
102
RTVSPropertyOp4
 70
     1
102
RTVSPropertyOp5
 70
     1
102
RTVSPropertyOp6
 70
     1
102
RTVSPropertyOp7
 70
     1
102
RTVSPropertyOp8
 70
     1
102
RTVSPropertyOp9
 70
     1
102
RTVSPropertyOp10
 70
     1
102
RTVSPropertyOp11
 70
     1
102
RTVSPropertyOp12
 70
     1
102
RTVSPropertyOp13
 70
     1
102
RTVSPropertyOp14
 70
     1
102
RTVSPropertyOp15
 70
     1
102
RTVSPropertyOp16
 70
     1
102
RTVSPropertyOp17
 70
     1
102
RTVSPropertyOp18
 70
     1
102
RTVSPropertyOp19
 70
     1
102
RTVSPropertyOp20
 70
     1
102
RTVSPropertyOp21
 70
     1
102
RTVSPropertyOp22
 70
     1
102
RTVSPropertyOp23
 70
     1
102
RTVSPropertyOp24
 70
     1
102
RTVSPropertyOp25
 70
     1
102
RTVSPropertyOp26
 70
     1
102
RTVSPropertyOp27
 70
     1
102
RTVSPropertyOp28
 70
     1
102
RTVSPropertyOp29
 70
     1
102
RTVSPropertyOp30
 70
     1
102
RTVSPropertyOp31
 70
     1
102
RTVSPropertyOp32
 70
     1
102
RTVSPropertyOp33
 70
     1
102
RTVSPropertyOp34
 70
     1
102
RTVSPropertyOp35
 70
     1
102
RTVSPropertyOp36
 70
     1
102
RTVSPropertyOp37
 70
     1
102
RTVSPropertyOp38
 70
     1
102
RTVSPropertyOp39
 70
     1
102
RTVSPropertyOp40
 70
     1
102
RTVSPropertyOp41
 70
     1
102
RTVSPropertyOp42
 70
     1
102
RTVSPropertyOp43
 70
     1
102
RTVSPropertyOp44
 70
     1
102
RTVSPropertyOp45
 70
     1
102
RTVSPropertyOp46
 70
     1
102
RTVSPropertyOp47
 70
     1
102
RTVSPropertyOp48
 70
     1
102
RTVSPropertyOp49
 70
     1
102
RTVSPropertyOp50
 70
     1
102
RTVSPropertyOp51
 70
     0
102
RTVSPropertyOp52
 70
     0
102
RTVSPropertyOp53
 70
     1
102
RTVSPropertyOp54
 70
     1
102
RTVSPropertyOp55
 70
     1
102
RTVSPropertyOp56
 70
     1
102
RTVSPropertyOp57
 70
     1
102
RTVSPost2010Prop28
280
     0
102
RTVSPost2010PropOp28
 70
     1
102
RTVSPost2010Prop29
280
     1
102
RTVSPost2010PropOp29
 70
     1
102
RTVSPost2010Prop30
280
     1
102
RTVSPost2010PropOp30
 70
     1
102
RTVSPost2010Prop31
280
     0
102
RTVSPost2010PropOp31
 70
     1
102
RTVSPost2010Prop32
280
     0
102
RTVSPost2010PropOp32
 70
     1
102
RTVSPost2010Prop33
280
     0
102
RTVSPost2010PropOp33
 70
     1
102
RTVSPost2010Prop34
280
     0
102
RTVSPost2010PropOp34
 70
     1
102
RTVSPost2010Prop35
280
     0
102
RTVSPost2010PropOp35
 70
     1
102
RTVSPost2010Prop36
280
     0
102
RTVSPost2010PropOp36
 70
     1
102
RTVSPost2010Prop37
 90
       50
102
RTVSPost2010PropOp37
 70
     1
102
RTVSPost2010Prop38
140
0.0
102
RTVSPost2010PropOp38
 70
     1
102
RTVSPost2010Prop39
140
1.0
102
RTVSPost2010PropOp39
 70
     1
102
RTVSPost2010Prop40
 90
        0
102
RTVSPost2010PropOp40
 70
     1
102
RTVSPost2010Prop41ColorIndex
 90
       18
102
RTVSPost2010Prop41ColorRGB
 90
        0
102
RTVSPost2010PropOp41
 70
     1
102
RTVSPost2010Prop42
 90
       50
102
RTVSPost2010PropOp42
 70
     1
102
RTVSPost2010Prop43
 90
        3
102
RTVSPost2010PropOp43
 70
     1
102
RTVSPost2010Prop44ColorIndex
 90
        5
102
RTVSPost2010Prop44ColorRGB
 90
      255
102
RTVSPost2010PropOp44
 70
     1
102
RTVSPost2010Prop45
280
     0
102
RTVSPost2010PropOp45
 70
     1
102
RTVSPost2010Prop46
 90
       50
102
RTVSPost2010PropOp46
 70
     1
102
RTVSPost2010Prop47
 90
       50
102
RTVSPost2010PropOp47
 70
     1
102
RTVSPost2010Prop48
 90
       50
102
RTVSPost2010PropOp48
 70
     1
102
RTVSPost2010Prop49
280
     0
102
RTVSPost2010PropOp49
 70
     1
102
RTVSPost2010Prop50
 90
       50
102
RTVSPost2010PropOp50
 70
     1
102
RTVSPost2010Prop51ColorIndex
 90
      256
102
RTVSPost2010Prop51ColorRGB
 90
-16777216
102
RTVSPost2010PropOp51
 70
     0
102
RTVSPost2010Prop52
140
1.0
102
RTVSPost2010PropOp52
 70
     0
102
RTVSPost2010Prop53
 90
        2
102
RTVSPost2010PropOp53
 70
     1
102
RTVSPost2010Prop54
  1
strokes_ogs.tif
102
RTVSPost2010PropOp54
 70
     1
102
RTVSPost2010Prop55
280
     0
102
RTVSPost2010PropOp55
 70
     1
102
RTVSPost2010Prop56
140
1.0
102
RTVSPost2010PropOp56
 70
     1
102
RTVSPost2010Prop57
140
1.0
102
RTVSPost2010PropOp57
 70
     1
  0
XRECORD
  5
570
102
{ACAD_REACTORS
330
56F
102
}
330
56F
100
AcDbXrecord
280
     1
102
RTVSPropertyOp0
 70
     1
102
RTVSPropertyOp1
 70
     1
102
RTVSPropertyOp2
 70
     1
102
RTVSPropertyOp3
 70
     1
102
RTVSPropertyOp4
 70
     1
102
RTVSPropertyOp5
 70
     1
102
RTVSPropertyOp6
 70
     1
102
RTVSPropertyOp7
 70
     1
102
RTVSPropertyOp8
 70
     1
102
RTVSPropertyOp9
 70
     1
102
RTVSPropertyOp10
 70
     1
102
RTVSPropertyOp11
 70
     1
102
RTVSPropertyOp12
 70
     1
102
RTVSPropertyOp13
 70
     1
102
RTVSPropertyOp14
 70
     1
102
RTVSPropertyOp15
 70
     1
102
RTVSPropertyOp16
 70
     1
102
RTVSPropertyOp17
 70
     1
102
RTVSPropertyOp18
 70
     1
102
RTVSPropertyOp19
 70
     1
102
RTVSPropertyOp20
 70
     1
102
RTVSPropertyOp21
 70
     1
102
RTVSPropertyOp22
 70
     1
102
RTVSPropertyOp23
 70
     1
102
RTVSPropertyOp24
 70
     1
102
RTVSPropertyOp25
 70
     1
102
RTVSPropertyOp26
 70
     1
102
RTVSPropertyOp27
 70
     1
102
RTVSPropertyOp28
 70
     1
102
RTVSPropertyOp29
 70
     1
102
RTVSPropertyOp30
 70
     1
102
RTVSPropertyOp31
 70
     1
102
RTVSPropertyOp32
 70
     1
102
RTVSPropertyOp33
 70
     1
102
RTVSPropertyOp34
 70
     1
102
RTVSPropertyOp35
 70
     1
102
RTVSPropertyOp36
 70
     1
102
RTVSPropertyOp37
 70
     1
102
RTVSPropertyOp38
 70
     1
102
RTVSPropertyOp39
 70
     1
102
RTVSPropertyOp40
 70
     1
102
RTVSPropertyOp41
 70
     1
102
RTVSPropertyOp42
 70
     1
102
RTVSPropertyOp43
 70
     1
102
RTVSPropertyOp44
 70
     1
102
RTVSPropertyOp45
 70
     1
102
RTVSPropertyOp46
 70
     1
102
RTVSPropertyOp47
 70
     1
102
RTVSPropertyOp48
 70
     1
102
RTVSPropertyOp49
 70
     1
102
RTVSPropertyOp50
 70
     1
102
RTVSPropertyOp51
 70
     0
102
RTVSPropertyOp52
 70
     0
102
RTVSPropertyOp53
 70
     1
102
RTVSPropertyOp54
 70
     1
102
RTVSPropertyOp55
 70
     1
102
RTVSPropertyOp56
 70
     1
102
RTVSPropertyOp57
 70
     1
102
RTVSPost2010Prop28
280
     0
102
RTVSPost2010PropOp28
 70
     1
102
RTVSPost2010Prop29
280
     1
102
RTVSPost2010PropOp29
 70
     1
102
RTVSPost2010Prop30
280
     1
102
RTVSPost2010PropOp30
 70
     1
102
RTVSPost2010Prop31
280
     0
102
RTVSPost2010PropOp31
 70
     1
102
RTVSPost2010Prop32
280
     0
102
RTVSPost2010PropOp32
 70
     1
102
RTVSPost2010Prop33
280
     0
102
RTVSPost2010PropOp33
 70
     1
102
RTVSPost2010Prop34
280
     0
102
RTVSPost2010PropOp34
 70
     1
102
RTVSPost2010Prop35
280
     0
102
RTVSPost2010PropOp35
 70
     1
102
RTVSPost2010Prop36
280
     0
102
RTVSPost2010PropOp36
 70
     1
102
RTVSPost2010Prop37
 90
       50
102
RTVSPost2010PropOp37
 70
     1
102
RTVSPost2010Prop38
140
0.0
102
RTVSPost2010PropOp38
 70
     1
102
RTVSPost2010Prop39
140
1.0
102
RTVSPost2010PropOp39
 70
     1
102
RTVSPost2010Prop40
 90
        0
102
RTVSPost2010PropOp40
 70
     1
102
RTVSPost2010Prop41ColorIndex
 90
       18
102
RTVSPost2010Prop41ColorRGB
 90
        0
102
RTVSPost2010PropOp41
 70
     1
102
RTVSPost2010Prop42
 90
       50
102
RTVSPost2010PropOp42
 70
     1
102
RTVSPost2010Prop43
 90
        3
102
RTVSPost2010PropOp43
 70
     1
102
RTVSPost2010Prop44ColorIndex
 90
        5
102
RTVSPost2010Prop44ColorRGB
 90
      255
102
RTVSPost2010PropOp44
 70
     1
102
RTVSPost2010Prop45
280
     0
102
RTVSPost2010PropOp45
 70
     1
102
RTVSPost2010Prop46
 90
       50
102
RTVSPost2010PropOp46
 70
     1
102
RTVSPost2010Prop47
 90
       50
102
RTVSPost2010PropOp47
 70
     1
102
RTVSPost2010Prop48
 90
       50
102
RTVSPost2010PropOp48
 70
     1
102
RTVSPost2010Prop49
280
     0
102
RTVSPost2010PropOp49
 70
     1
102
RTVSPost2010Prop50
 90
       50
102
RTVSPost2010PropOp50
 70
     1
102
RTVSPost2010Prop51ColorIndex
 90
      256
102
RTVSPost2010Prop51ColorRGB
 90
-16777216
102
RTVSPost2010PropOp51
 70
     0
102
RTVSPost2010Prop52
140
1.0
102
RTVSPost2010PropOp52
 70
     0
102
RTVSPost2010Prop53
 90
        2
102
RTVSPost2010PropOp53
 70
     1
102
RTVSPost2010Prop54
  1
strokes_ogs.tif
102
RTVSPost2010PropOp54
 70
     1
102
RTVSPost2010Prop55
280
     0
102
RTVSPost2010PropOp55
 70
     1
102
RTVSPost2010Prop56
140
1.0
102
RTVSPost2010PropOp56
 70
     1
102
RTVSPost2010Prop57
140
1.0
102
RTVSPost2010PropOp57
 70
     1
  0
XRECORD
  5
584
102
{ACAD_REACTORS
330
583
102
}
330
583
100
AcDbXrecord
280
     1
102
RTVSPropertyOp0
 70
     1
102
RTVSPropertyOp1
 70
     1
102
RTVSPropertyOp2
 70
     1
102
RTVSPropertyOp3
 70
     1
102
RTVSPropertyOp4
 70
     1
102
RTVSPropertyOp5
 70
     1
102
RTVSPropertyOp6
 70
     1
102
RTVSPropertyOp7
 70
     1
102
RTVSPropertyOp8
 70
     1
102
RTVSPropertyOp9
 70
     1
102
RTVSPropertyOp10
 70
     1
102
RTVSPropertyOp11
 70
     1
102
RTVSPropertyOp12
 70
     1
102
RTVSPropertyOp13
 70
     1
102
RTVSPropertyOp14
 70
     1
102
RTVSPropertyOp15
 70
     1
102
RTVSPropertyOp16
 70
     1
102
RTVSPropertyOp17
 70
     1
102
RTVSPropertyOp18
 70
     1
102
RTVSPropertyOp19
 70
     1
102
RTVSPropertyOp20
 70
     1
102
RTVSPropertyOp21
 70
     1
102
RTVSPropertyOp22
 70
     1
102
RTVSPropertyOp23
 70
     1
102
RTVSPropertyOp24
 70
     1
102
RTVSPropertyOp25
 70
     1
102
RTVSPropertyOp26
 70
     1
102
RTVSPropertyOp27
 70
     1
102
RTVSPropertyOp28
 70
     1
102
RTVSPropertyOp29
 70
     1
102
RTVSPropertyOp30
 70
     1
102
RTVSPropertyOp31
 70
     1
102
RTVSPropertyOp32
 70
     1
102
RTVSPropertyOp33
 70
     1
102
RTVSPropertyOp34
 70
     1
102
RTVSPropertyOp35
 70
     1
102
RTVSPropertyOp36
 70
     1
102
RTVSPropertyOp37
 70
     1
102
RTVSPropertyOp38
 70
     1
102
RTVSPropertyOp39
 70
     1
102
RTVSPropertyOp40
 70
     1
102
RTVSPropertyOp41
 70
     1
102
RTVSPropertyOp42
 70
     1
102
RTVSPropertyOp43
 70
     1
102
RTVSPropertyOp44
 70
     1
102
RTVSPropertyOp45
 70
     1
102
RTVSPropertyOp46
 70
     1
102
RTVSPropertyOp47
 70
     1
102
RTVSPropertyOp48
 70
     1
102
RTVSPropertyOp49
 70
     1
102
RTVSPropertyOp50
 70
     1
102
RTVSPropertyOp51
 70
     0
102
RTVSPropertyOp52
 70
     0
102
RTVSPropertyOp53
 70
     1
102
RTVSPropertyOp54
 70
     1
102
RTVSPropertyOp55
 70
     1
102
RTVSPropertyOp56
 70
     1
102
RTVSPropertyOp57
 70
     1
102
RTVSPost2010Prop28
280
     0
102
RTVSPost2010PropOp28
 70
     1
102
RTVSPost2010Prop29
280
     1
102
RTVSPost2010PropOp29
 70
     1
102
RTVSPost2010Prop30
280
     1
102
RTVSPost2010PropOp30
 70
     1
102
RTVSPost2010Prop31
280
     0
102
RTVSPost2010PropOp31
 70
     1
102
RTVSPost2010Prop32
280
     0
102
RTVSPost2010PropOp32
 70
     1
102
RTVSPost2010Prop33
280
     0
102
RTVSPost2010PropOp33
 70
     1
102
RTVSPost2010Prop34
280
     0
102
RTVSPost2010PropOp34
 70
     1
102
RTVSPost2010Prop35
280
     0
102
RTVSPost2010PropOp35
 70
     1
102
RTVSPost2010Prop36
280
     0
102
RTVSPost2010PropOp36
 70
     1
102
RTVSPost2010Prop37
 90
       50
102
RTVSPost2010PropOp37
 70
     1
102
RTVSPost2010Prop38
140
0.0
102
RTVSPost2010PropOp38
 70
     1
102
RTVSPost2010Prop39
140
1.0
102
RTVSPost2010PropOp39
 70
     1
102
RTVSPost2010Prop40
 90
        0
102
RTVSPost2010PropOp40
 70
     1
102
RTVSPost2010Prop41ColorIndex
 90
       18
102
RTVSPost2010Prop41ColorRGB
 90
        0
102
RTVSPost2010PropOp41
 70
     1
102
RTVSPost2010Prop42
 90
       50
102
RTVSPost2010PropOp42
 70
     1
102
RTVSPost2010Prop43
 90
        3
102
RTVSPost2010PropOp43
 70
     1
102
RTVSPost2010Prop44ColorIndex
 90
        5
102
RTVSPost2010Prop44ColorRGB
 90
      255
102
RTVSPost2010PropOp44
 70
     1
102
RTVSPost2010Prop45
280
     0
102
RTVSPost2010PropOp45
 70
     1
102
RTVSPost2010Prop46
 90
       50
102
RTVSPost2010PropOp46
 70
     1
102
RTVSPost2010Prop47
 90
       50
102
RTVSPost2010PropOp47
 70
     1
102
RTVSPost2010Prop48
 90
       50
102
RTVSPost2010PropOp48
 70
     1
102
RTVSPost2010Prop49
280
     0
102
RTVSPost2010PropOp49
 70
     1
102
RTVSPost2010Prop50
 90
       50
102
RTVSPost2010PropOp50
 70
     1
102
RTVSPost2010Prop51ColorIndex
 90
      256
102
RTVSPost2010Prop51ColorRGB
 90
-16777216
102
RTVSPost2010PropOp51
 70
     0
102
RTVSPost2010Prop52
140
1.0
102
RTVSPost2010PropOp52
 70
     0
102
RTVSPost2010Prop53
 90
        2
102
RTVSPost2010PropOp53
 70
     1
102
RTVSPost2010Prop54
  1
strokes_ogs.tif
102
RTVSPost2010PropOp54
 70
     1
102
RTVSPost2010Prop55
280
     0
102
RTVSPost2010PropOp55
 70
     1
102
RTVSPost2010Prop56
140
1.0
102
RTVSPost2010PropOp56
 70
     1
102
RTVSPost2010Prop57
140
1.0
102
RTVSPost2010PropOp57
 70
     1
  0
XRECORD
  5
57A
102
{ACAD_REACTORS
330
579
102
}
330
579
100
AcDbXrecord
280
     1
102
RTVSPropertyOp0
 70
     1
102
RTVSPropertyOp1
 70
     1
102
RTVSPropertyOp2
 70
     1
102
RTVSPropertyOp3
 70
     1
102
RTVSPropertyOp4
 70
     1
102
RTVSPropertyOp5
 70
     1
102
RTVSPropertyOp6
 70
     1
102
RTVSPropertyOp7
 70
     1
102
RTVSPropertyOp8
 70
     1
102
RTVSPropertyOp9
 70
     1
102
RTVSPropertyOp10
 70
     1
102
RTVSPropertyOp11
 70
     1
102
RTVSPropertyOp12
 70
     1
102
RTVSPropertyOp13
 70
     1
102
RTVSPropertyOp14
 70
     1
102
RTVSPropertyOp15
 70
     1
102
RTVSPropertyOp16
 70
     1
102
RTVSPropertyOp17
 70
     1
102
RTVSPropertyOp18
 70
     1
102
RTVSPropertyOp19
 70
     1
102
RTVSPropertyOp20
 70
     1
102
RTVSPropertyOp21
 70
     1
102
RTVSPropertyOp22
 70
     1
102
RTVSPropertyOp23
 70
     1
102
RTVSPropertyOp24
 70
     1
102
RTVSPropertyOp25
 70
     1
102
RTVSPropertyOp26
 70
     1
102
RTVSPropertyOp27
 70
     1
102
RTVSPropertyOp28
 70
     1
102
RTVSPropertyOp29
 70
     1
102
RTVSPropertyOp30
 70
     1
102
RTVSPropertyOp31
 70
     1
102
RTVSPropertyOp32
 70
     1
102
RTVSPropertyOp33
 70
     1
102
RTVSPropertyOp34
 70
     1
102
RTVSPropertyOp35
 70
     1
102
RTVSPropertyOp36
 70
     1
102
RTVSPropertyOp37
 70
     1
102
RTVSPropertyOp38
 70
     1
102
RTVSPropertyOp39
 70
     1
102
RTVSPropertyOp40
 70
     1
102
RTVSPropertyOp41
 70
     1
102
RTVSPropertyOp42
 70
     1
102
RTVSPropertyOp43
 70
     1
102
RTVSPropertyOp44
 70
     1
102
RTVSPropertyOp45
 70
     1
102
RTVSPropertyOp46
 70
     1
102
RTVSPropertyOp47
 70
     1
102
RTVSPropertyOp48
 70
     1
102
RTVSPropertyOp49
 70
     1
102
RTVSPropertyOp50
 70
     1
102
RTVSPropertyOp51
 70
     0
102
RTVSPropertyOp52
 70
     0
102
RTVSPropertyOp53
 70
     1
102
RTVSPropertyOp54
 70
     1
102
RTVSPropertyOp55
 70
     1
102
RTVSPropertyOp56
 70
     1
102
RTVSPropertyOp57
 70
     1
102
RTVSPost2010Prop28
280
     0
102
RTVSPost2010PropOp28
 70
     1
102
RTVSPost2010Prop29
280
     1
102
RTVSPost2010PropOp29
 70
     1
102
RTVSPost2010Prop30
280
     1
102
RTVSPost2010PropOp30
 70
     1
102
RTVSPost2010Prop31
280
     0
102
RTVSPost2010PropOp31
 70
     1
102
RTVSPost2010Prop32
280
     0
102
RTVSPost2010PropOp32
 70
     1
102
RTVSPost2010Prop33
280
     0
102
RTVSPost2010PropOp33
 70
     1
102
RTVSPost2010Prop34
280
     0
102
RTVSPost2010PropOp34
 70
     1
102
RTVSPost2010Prop35
280
     0
102
RTVSPost2010PropOp35
 70
     1
102
RTVSPost2010Prop36
280
     0
102
RTVSPost2010PropOp36
 70
     1
102
RTVSPost2010Prop37
 90
       50
102
RTVSPost2010PropOp37
 70
     1
102
RTVSPost2010Prop38
140
0.0
102
RTVSPost2010PropOp38
 70
     1
102
RTVSPost2010Prop39
140
1.0
102
RTVSPost2010PropOp39
 70
     1
102
RTVSPost2010Prop40
 90
        0
102
RTVSPost2010PropOp40
 70
     1
102
RTVSPost2010Prop41ColorIndex
 90
       18
102
RTVSPost2010Prop41ColorRGB
 90
        0
102
RTVSPost2010PropOp41
 70
     1
102
RTVSPost2010Prop42
 90
       50
102
RTVSPost2010PropOp42
 70
     1
102
RTVSPost2010Prop43
 90
        3
102
RTVSPost2010PropOp43
 70
     1
102
RTVSPost2010Prop44ColorIndex
 90
        5
102
RTVSPost2010Prop44ColorRGB
 90
      255
102
RTVSPost2010PropOp44
 70
     1
102
RTVSPost2010Prop45
280
     0
102
RTVSPost2010PropOp45
 70
     1
102
RTVSPost2010Prop46
 90
       50
102
RTVSPost2010PropOp46
 70
     1
102
RTVSPost2010Prop47
 90
       50
102
RTVSPost2010PropOp47
 70
     1
102
RTVSPost2010Prop48
 90
       50
102
RTVSPost2010PropOp48
 70
     1
102
RTVSPost2010Prop49
280
     0
102
RTVSPost2010PropOp49
 70
     1
102
RTVSPost2010Prop50
 90
       50
102
RTVSPost2010PropOp50
 70
     1
102
RTVSPost2010Prop51ColorIndex
 90
      256
102
RTVSPost2010Prop51ColorRGB
 90
-16777216
102
RTVSPost2010PropOp51
 70
     0
102
RTVSPost2010Prop52
140
1.0
102
RTVSPost2010PropOp52
 70
     0
102
RTVSPost2010Prop53
 90
        2
102
RTVSPost2010PropOp53
 70
     1
102
RTVSPost2010Prop54
  1
strokes_ogs.tif
102
RTVSPost2010PropOp54
 70
     1
102
RTVSPost2010Prop55
280
     0
102
RTVSPost2010PropOp55
 70
     1
102
RTVSPost2010Prop56
140
1.0
102
RTVSPost2010PropOp56
 70
     1
102
RTVSPost2010Prop57
140
1.0
102
RTVSPost2010PropOp57
 70
     1
  0
XRECORD
  5
582
102
{ACAD_REACTORS
330
581
102
}
330
581
100
AcDbXrecord
280
     1
102
RTVSPropertyOp0
 70
     1
102
RTVSPropertyOp1
 70
     1
102
RTVSPropertyOp2
 70
     1
102
RTVSPropertyOp3
 70
     1
102
RTVSPropertyOp4
 70
     1
102
RTVSPropertyOp5
 70
     1
102
RTVSPropertyOp6
 70
     1
102
RTVSPropertyOp7
 70
     1
102
RTVSPropertyOp8
 70
     1
102
RTVSPropertyOp9
 70
     1
102
RTVSPropertyOp10
 70
     1
102
RTVSPropertyOp11
 70
     1
102
RTVSPropertyOp12
 70
     1
102
RTVSPropertyOp13
 70
     1
102
RTVSPropertyOp14
 70
     1
102
RTVSPropertyOp15
 70
     1
102
RTVSPropertyOp16
 70
     1
102
RTVSPropertyOp17
 70
     1
102
RTVSPropertyOp18
 70
     1
102
RTVSPropertyOp19
 70
     1
102
RTVSPropertyOp20
 70
     1
102
RTVSPropertyOp21
 70
     1
102
RTVSPropertyOp22
 70
     1
102
RTVSPropertyOp23
 70
     1
102
RTVSPropertyOp24
 70
     1
102
RTVSPropertyOp25
 70
     1
102
RTVSPropertyOp26
 70
     1
102
RTVSPropertyOp27
 70
     1
102
RTVSPropertyOp28
 70
     1
102
RTVSPropertyOp29
 70
     1
102
RTVSPropertyOp30
 70
     1
102
RTVSPropertyOp31
 70
     1
102
RTVSPropertyOp32
 70
     1
102
RTVSPropertyOp33
 70
     1
102
RTVSPropertyOp34
 70
     1
102
RTVSPropertyOp35
 70
     1
102
RTVSPropertyOp36
 70
     1
102
RTVSPropertyOp37
 70
     1
102
RTVSPropertyOp38
 70
     1
102
RTVSPropertyOp39
 70
     1
102
RTVSPropertyOp40
 70
     1
102
RTVSPropertyOp41
 70
     1
102
RTVSPropertyOp42
 70
     1
102
RTVSPropertyOp43
 70
     1
102
RTVSPropertyOp44
 70
     1
102
RTVSPropertyOp45
 70
     1
102
RTVSPropertyOp46
 70
     1
102
RTVSPropertyOp47
 70
     1
102
RTVSPropertyOp48
 70
     1
102
RTVSPropertyOp49
 70
     1
102
RTVSPropertyOp50
 70
     1
102
RTVSPropertyOp51
 70
     0
102
RTVSPropertyOp52
 70
     0
102
RTVSPropertyOp53
 70
     1
102
RTVSPropertyOp54
 70
     1
102
RTVSPropertyOp55
 70
     1
102
RTVSPropertyOp56
 70
     1
102
RTVSPropertyOp57
 70
     1
102
RTVSPost2010Prop28
280
     0
102
RTVSPost2010PropOp28
 70
     1
102
RTVSPost2010Prop29
280
     1
102
RTVSPost2010PropOp29
 70
     1
102
RTVSPost2010Prop30
280
     1
102
RTVSPost2010PropOp30
 70
     1
102
RTVSPost2010Prop31
280
     0
102
RTVSPost2010PropOp31
 70
     1
102
RTVSPost2010Prop32
280
     0
102
RTVSPost2010PropOp32
 70
     1
102
RTVSPost2010Prop33
280
     0
102
RTVSPost2010PropOp33
 70
     1
102
RTVSPost2010Prop34
280
     0
102
RTVSPost2010PropOp34
 70
     1
102
RTVSPost2010Prop35
280
     0
102
RTVSPost2010PropOp35
 70
     1
102
RTVSPost2010Prop36
280
     0
102
RTVSPost2010PropOp36
 70
     1
102
RTVSPost2010Prop37
 90
       50
102
RTVSPost2010PropOp37
 70
     1
102
RTVSPost2010Prop38
140
0.0
102
RTVSPost2010PropOp38
 70
     1
102
RTVSPost2010Prop39
140
1.0
102
RTVSPost2010PropOp39
 70
     1
102
RTVSPost2010Prop40
 90
        0
102
RTVSPost2010PropOp40
 70
     1
102
RTVSPost2010Prop41ColorIndex
 90
       18
102
RTVSPost2010Prop41ColorRGB
 90
        0
102
RTVSPost2010PropOp41
 70
     1
102
RTVSPost2010Prop42
 90
       50
102
RTVSPost2010PropOp42
 70
     1
102
RTVSPost2010Prop43
 90
        3
102
RTVSPost2010PropOp43
 70
     1
102
RTVSPost2010Prop44ColorIndex
 90
        5
102
RTVSPost2010Prop44ColorRGB
 90
      255
102
RTVSPost2010PropOp44
 70
     1
102
RTVSPost2010Prop45
280
     0
102
RTVSPost2010PropOp45
 70
     1
102
RTVSPost2010Prop46
 90
       50
102
RTVSPost2010PropOp46
 70
     1
102
RTVSPost2010Prop47
 90
       50
102
RTVSPost2010PropOp47
 70
     1
102
RTVSPost2010Prop48
 90
       50
102
RTVSPost2010PropOp48
 70
     1
102
RTVSPost2010Prop49
280
     0
102
RTVSPost2010PropOp49
 70
     1
102
RTVSPost2010Prop50
 90
       50
102
RTVSPost2010PropOp50
 70
     1
102
RTVSPost2010Prop51ColorIndex
 90
      256
102
RTVSPost2010Prop51ColorRGB
 90
-16777216
102
RTVSPost2010PropOp51
 70
     0
102
RTVSPost2010Prop52
140
1.0
102
RTVSPost2010PropOp52
 70
     0
102
RTVSPost2010Prop53
 90
        2
102
RTVSPost2010PropOp53
 70
     1
102
RTVSPost2010Prop54
  1
strokes_ogs.tif
102
RTVSPost2010PropOp54
 70
     1
102
RTVSPost2010Prop55
280
     0
102
RTVSPost2010PropOp55
 70
     1
102
RTVSPost2010Prop56
140
1.0
102
RTVSPost2010PropOp56
 70
     1
102
RTVSPost2010Prop57
140
1.0
102
RTVSPost2010PropOp57
 70
     1
  0
ENDSEC
  0
EOF
