  0
SECTION
  2
HEADER
  9
$ACADVER
  1
AC1018
  9
$ACADMAINTVER
 70
     0
  9
$DWGCODEPAGE
  3
ANSI_936
  9
$INSBASE
 10
0.0
 20
0.0
 30
0.0
  9
$EXTMIN
 10
18025.82192340261
 20
24960.25434240371
 30
0.0
  9
$EXTMAX
 10
19225.82192340261
 20
25450.25434240372
 30
0.0
  9
$LIMMIN
 10
0.0
 20
0.0
  9
$LIMMAX
 10
12.0
 20
9.0
  9
$ORTHOMODE
 70
     0
  9
$REGENMODE
 70
     1
  9
$FILLMODE
 70
     1
  9
$QTEXTMODE
 70
     0
  9
$MIRRTEXT
 70
     1
  9
$LTSCALE
 40
1.0
  9
$ATTMODE
 70
     1
  9
$TEXTSIZE
 40
0.2
  9
$TRACEWID
 40
0.05
  9
$TEXTSTYLE
  7
Standard
  9
$CLAYER
  8
0
  9
$CELTYPE
  6
ByLayer
  9
$CECOLOR
 62
   256
  9
$CELTSCALE
 40
1.0
  9
$DISPSILH
 70
     0
  9
$DIMSCALE
 40
1.0
  9
$DIMASZ
 40
0.18
  9
$DIMEXO
 40
0.0625
  9
$DIMDLI
 40
0.38
  9
$DIMRND
 40
0.0
  9
$DIMDLE
 40
0.0
  9
$DIMEXE
 40
0.18
  9
$DIMTP
 40
0.0
  9
$DIMTM
 40
0.0
  9
$DIMTXT
 40
0.18
  9
$DIMCEN
 40
0.09
  9
$DIMTSZ
 40
0.0
  9
$DIMTOL
 70
     0
  9
$DIMLIM
 70
     0
  9
$DIMTIH
 70
     1
  9
$DIMTOH
 70
     1
  9
$DIMSE1
 70
     0
  9
$DIMSE2
 70
     0
  9
$DIMTAD
 70
     0
  9
$DIMZIN
 70
     0
  9
$DIMBLK
  1

  9
$DIMASO
 70
     1
  9
$DIMSHO
 70
     1
  9
$DIMPOST
  1

  9
$DIMAPOST
  1

  9
$DIMALT
 70
     0
  9
$DIMALTD
 70
     2
  9
$DIMALTF
 40
25.4
  9
$DIMLFAC
 40
1.0
  9
$DIMTOFL
 70
     0
  9
$DIMTVP
 40
0.0
  9
$DIMTIX
 70
     0
  9
$DIMSOXD
 70
     0
  9
$DIMSAH
 70
     0
  9
$DIMBLK1
  1

  9
$DIMBLK2
  1

  9
$DIMSTYLE
  2
Standard
  9
$DIMCLRD
 70
     0
  9
$DIMCLRE
 70
     0
  9
$DIMCLRT
 70
     0
  9
$DIMTFAC
 40
1.0
  9
$DIMGAP
 40
0.09
  9
$DIMJUST
 70
     0
  9
$DIMSD1
 70
     0
  9
$DIMSD2
 70
     0
  9
$DIMTOLJ
 70
     1
  9
$DIMTZIN
 70
     0
  9
$DIMALTZ
 70
     0
  9
$DIMALTTZ
 70
     0
  9
$DIMUPT
 70
     0
  9
$DIMDEC
 70
     4
  9
$DIMTDEC
 70
     4
  9
$DIMALTU
 70
     2
  9
$DIMALTTD
 70
     2
  9
$DIMTXSTY
  7
Standard
  9
$DIMAUNIT
 70
     0
  9
$DIMADEC
 70
     0
  9
$DIMALTRND
 40
0.0
  9
$DIMAZIN
 70
     0
  9
$DIMDSEP
 70
    46
  9
$DIMATFIT
 70
     3
  9
$DIMFRAC
 70
     0
  9
$DIMLDRBLK
  1

  9
$DIMLUNIT
 70
     2
  9
$DIMLWD
 70
    -2
  9
$DIMLWE
 70
    -2
  9
$DIMTMOVE
 70
     2
  9
$LUNITS
 70
     2
  9
$LUPREC
 70
     2
  9
$SKETCHINC
 40
0.1
  9
$FILLETRAD
 40
0.5
  9
$AUNITS
 70
     0
  9
$AUPREC
 70
     0
  9
$MENU
  1
.
  9
$ELEVATION
 40
0.0
  9
$PELEVATION
 40
0.0
  9
$THICKNESS
 40
0.0
  9
$LIMCHECK
 70
     0
  9
$CHAMFERA
 40
0.5
  9
$CHAMFERB
 40
0.5
  9
$CHAMFERC
 40
1.0
  9
$CHAMFERD
 40
0.0
  9
$SKPOLY
 70
     0
  9
$TDCREATE
 40
2456436.04584581
  9
$TDUCREATE
 40
2456435.962512477
  9
$TDUPDATE
 40
2456436.045845822
  9
$TDUUPDATE
 40
2456435.962512488
  9
$TDINDWG
 40
0.0000000116
  9
$TDUSRTIMER
 40
0.0000000116
  9
$USRTIMER
 70
     1
  9
$ANGBASE
 50
0.0
  9
$ANGDIR
 70
     0
  9
$PDMODE
 70
     0
  9
$PDSIZE
 40
0.0
  9
$PLINEWID
 40
0.0
  9
$SPLFRAME
 70
     0
  9
$SPLINETYPE
 70
     6
  9
$SPLINESEGS
 70
     8
  9
$HANDSEED
  5
6F
  9
$SURFTAB1
 70
     6
  9
$SURFTAB2
 70
     6
  9
$SURFTYPE
 70
     6
  9
$SURFU
 70
     6
  9
$SURFV
 70
     6
  9
$UCSBASE
  2

  9
$UCSNAME
  2

  9
$UCSORG
 10
0.0
 20
0.0
 30
0.0
  9
$UCSXDIR
 10
1.0
 20
0.0
 30
0.0
  9
$UCSYDIR
 10
0.0
 20
1.0
 30
0.0
  9
$UCSORTHOREF
  2

  9
$UCSORTHOVIEW
 70
     0
  9
$UCSORGTOP
 10
0.0
 20
0.0
 30
0.0
  9
$UCSORGBOTTOM
 10
0.0
 20
0.0
 30
0.0
  9
$UCSORGLEFT
 10
0.0
 20
0.0
 30
0.0
  9
$UCSORGRIGHT
 10
0.0
 20
0.0
 30
0.0
  9
$UCSORGFRONT
 10
0.0
 20
0.0
 30
0.0
  9
$UCSORGBACK
 10
0.0
 20
0.0
 30
0.0
  9
$PUCSBASE
  2

  9
$PUCSNAME
  2

  9
$PUCSORG
 10
0.0
 20
0.0
 30
0.0
  9
$PUCSXDIR
 10
1.0
 20
0.0
 30
0.0
  9
$PUCSYDIR
 10
0.0
 20
1.0
 30
0.0
  9
$PUCSORTHOREF
  2

  9
$PUCSORTHOVIEW
 70
     0
  9
$PUCSORGTOP
 10
0.0
 20
0.0
 30
0.0
  9
$PUCSORGBOTTOM
 10
0.0
 20
0.0
 30
0.0
  9
$PUCSORGLEFT
 10
0.0
 20
0.0
 30
0.0
  9
$PUCSORGRIGHT
 10
0.0
 20
0.0
 30
0.0
  9
$PUCSORGFRONT
 10
0.0
 20
0.0
 30
0.0
  9
$PUCSORGBACK
 10
0.0
 20
0.0
 30
0.0
  9
$USERI1
 70
     0
  9
$USERI2
 70
     0
  9
$USERI3
 70
     0
  9
$USERI4
 70
     0
  9
$USERI5
 70
     0
  9
$USERR1
 40
0.0
  9
$USERR2
 40
0.0
  9
$USERR3
 40
0.0
  9
$USERR4
 40
0.0
  9
$USERR5
 40
0.0
  9
$WORLDVIEW
 70
     1
  9
$SHADEDGE
 70
     3
  9
$SHADEDIF
 70
    70
  9
$TILEMODE
 70
     1
  9
$MAXACTVP
 70
    64
  9
$PINSBASE
 10
0.0
 20
0.0
 30
0.0
  9
$PLIMCHECK
 70
     0
  9
$PEXTMIN
 10
1.000000000000000E+20
 20
1.000000000000000E+20
 30
1.000000000000000E+20
  9
$PEXTMAX
 10
-1.000000000000000E+20
 20
-1.000000000000000E+20
 30
-1.000000000000000E+20
  9
$PLIMMIN
 10
0.0
 20
0.0
  9
$PLIMMAX
 10
12.0
 20
9.0
  9
$UNITMODE
 70
     0
  9
$VISRETAIN
 70
     1
  9
$PLINEGEN
 70
     0
  9
$PSLTSCALE
 70
     1
  9
$TREEDEPTH
 70
  3020
  9
$CMLSTYLE
  2
Standard
  9
$CMLJUST
 70
     0
  9
$CMLSCALE
 40
1.0
  9
$PROXYGRAPHICS
 70
     1
  9
$MEASUREMENT
 70
     0
  9
$CELWEIGHT
370
    -1
  9
$ENDCAPS
280
     0
  9
$JOINSTYLE
280
     0
  9
$LWDISPLAY
290
     0
  9
$INSUNITS
 70
     4
  9
$HYPERLINKBASE
  1

  9
$STYLESHEET
  1

  9
$XEDIT
290
     1
  9
$CEPSNTYPE
380
     0
  9
$PSTYLEMODE
290
     1
  9
$FINGERPRINTGUID
  2
{EC2B90C8-27BE-4E63-8393-1DD46E824BCD}
  9
$VERSIONGUID
  2
{FAEB1C32-E019-11D5-929B-00C0DF256EC4}
  9
$EXTNAMES
290
     1
  9
$PSVPSCALE
 40
0.0
  9
$OLESTARTUP
290
     0
  9
$SORTENTS
280
   127
  9
$INDEXCTL
280
     0
  9
$HIDETEXT
280
     1
  9
$XCLIPFRAME
290
     0
  9
$HALOGAP
280
     0
  9
$OBSCOLOR
 70
   257
  9
$OBSLTYPE
280
     0
  9
$INTERSECTIONDISPLAY
280
     0
  9
$INTERSECTIONCOLOR
 70
   257
  9
$DIMASSOC
280
     2
  9
$PROJECTNAME
  1

  0
ENDSEC
  0
SECTION
  2
CLASSES
  0
CLASS
  1
ACDBDICTIONARYWDFLT
  2
AcDbDictionaryWithDefault
  3
ObjectDBX Classes
 90
        0
 91
        4
280
     0
281
     0
  0
CLASS
  1
VISUALSTYLE
  2
AcDbVisualStyle
  3
ObjectDBX Classes
 90
     4095
 91
        4
280
     0
281
     0
  0
ENDSEC
  0
SECTION
  2
TABLES
  0
TABLE
  2
VPORT
  5
8
330
0
100
AcDbSymbolTable
 70
     1
  0
VPORT
  5
29
330
8
100
AcDbSymbolTableRecord
100
AcDbViewportTableRecord
  2
*Active
 70
     0
 10
0.0
 20
0.0
 11
1.0
 21
1.0
 12
18625.82192340261
 22
25205.25434240372
 13
0.0
 23
0.0
 14
0.5
 24
0.5
 15
0.5
 25
0.5
 16
0.0
 26
0.0
 36
1.0
 17
0.0
 27
0.0
 37
0.0
 40
499.8000000000075
 41
2.448979591836698
 42
50.0
 43
0.0
 44
0.0
 50
0.0
 51
0.0
 71
     0
 72
   100
 73
     1
 74
     3
 75
     0
 76
     0
 77
     0
 78
     0
281
     0
 65
     1
110
0.0
120
0.0
130
0.0
111
1.0
121
0.0
131
0.0
112
0.0
122
1.0
132
0.0
 79
     0
146
0.0
  0
ENDTAB
  0
TABLE
  2
LTYPE
  5
5
330
0
100
AcDbSymbolTable
 70
     1
  0
LTYPE
  5
14
330
5
100
AcDbSymbolTableRecord
100
AcDbLinetypeTableRecord
  2
ByBlock
 70
     0
  3

 72
    65
 73
     0
 40
0.0
  0
LTYPE
  5
15
330
5
100
AcDbSymbolTableRecord
100
AcDbLinetypeTableRecord
  2
ByLayer
 70
     0
  3

 72
    65
 73
     0
 40
0.0
  0
LTYPE
  5
16
330
5
100
AcDbSymbolTableRecord
100
AcDbLinetypeTableRecord
  2
Continuous
 70
     0
  3
Solid line
 72
    65
 73
     0
 40
0.0
  0
ENDTAB
  0
TABLE
  2
LAYER
  5
2
330
0
100
AcDbSymbolTable
 70
     2
  0
LAYER
  5
10
330
2
100
AcDbSymbolTableRecord
100
AcDbLayerTableRecord
  2
0
 70
     0
 62
     7
  6
Continuous
370
    -3
390
F
  0
LAYER
  5
3B
330
2
100
AcDbSymbolTableRecord
100
AcDbLayerTableRecord
  2
MAKE2D VISIBLE LINES
 70
     0
 62
     7
  6
Continuous
370
    -3
390
F
  0
ENDTAB
  0
TABLE
  2
STYLE
  5
3
330
0
100
AcDbSymbolTable
 70
     1
  0
STYLE
  5
11
330
3
100
AcDbSymbolTableRecord
100
AcDbTextStyleTableRecord
  2
Standard
 70
     0
 40
0.0
 41
1.0
 50
0.0
 71
     0
 42
0.2
  3
txt
  4

  0
ENDTAB
  0
TABLE
  2
VIEW
  5
6
330
0
100
AcDbSymbolTable
 70
     0
  0
ENDTAB
  0
TABLE
  2
UCS
  5
7
330
0
100
AcDbSymbolTable
 70
     0
  0
ENDTAB
  0
TABLE
  2
APPID
  5
9
330
0
100
AcDbSymbolTable
 70
     1
  0
APPID
  5
12
330
9
100
AcDbSymbolTableRecord
100
AcDbRegAppTableRecord
  2
ACAD
 70
     0
  0
ENDTAB
  0
TABLE
  2
DIMSTYLE
  5
A
330
0
100
AcDbSymbolTable
 70
     1
100
AcDbDimStyleTable
  0
DIMSTYLE
105
27
330
A
100
AcDbSymbolTableRecord
100
AcDbDimStyleTableRecord
  2
Standard
 70
     0
340
11
  0
ENDTAB
  0
TABLE
  2
BLOCK_RECORD
  5
1
330
0
100
AcDbSymbolTable
 70
     1
  0
BLOCK_RECORD
  5
1F
330
1
100
AcDbSymbolTableRecord
100
AcDbBlockTableRecord
  2
*Model_Space
340
22
  0
BLOCK_RECORD
  5
1B
330
1
100
AcDbSymbolTableRecord
100
AcDbBlockTableRecord
  2
*Paper_Space
340
1E
  0
BLOCK_RECORD
  5
23
330
1
100
AcDbSymbolTableRecord
100
AcDbBlockTableRecord
  2
*Paper_Space0
340
26
  0
ENDTAB
  0
ENDSEC
  0
SECTION
  2
BLOCKS
  0
BLOCK
  5
20
330
1F
100
AcDbEntity
  8
0
100
AcDbBlockBegin
  2
*Model_Space
 70
     0
 10
0.0
 20
0.0
 30
0.0
  3
*Model_Space
  1

  0
ENDBLK
  5
21
330
1F
100
AcDbEntity
  8
0
100
AcDbBlockEnd
  0
BLOCK
  5
1C
330
1B
100
AcDbEntity
 67
     1
  8
0
100
AcDbBlockBegin
  2
*Paper_Space
 70
     0
 10
0.0
 20
0.0
 30
0.0
  3
*Paper_Space
  1

  0
ENDBLK
  5
1D
330
1B
100
AcDbEntity
 67
     1
  8
0
100
AcDbBlockEnd
  0
BLOCK
  5
24
330
23
100
AcDbEntity
  8
0
100
AcDbBlockBegin
  2
*Paper_Space0
 70
     0
 10
0.0
 20
0.0
 30
0.0
  3
*Paper_Space0
  1

  0
ENDBLK
  5
25
330
23
100
AcDbEntity
  8
0
100
AcDbBlockEnd
  0
ENDSEC
  0
SECTION
  2
ENTITIES
  0
SPLINE
  5
3C
330
1F
100
AcDbEntity
  8
MAKE2D VISIBLE LINES
100
AcDbSpline
210
0.0
220
0.0
230
1.0
 70
    12
 71
     2
 72
    40
 73
    37
 74
     0
 42
0.0000000001
 43
0.0000000001
 40
0.0
 40
0.0
 40
0.0
 40
0.1920293255581567
 40
0.1920293255581567
 40
0.9595895416679199
 40
0.9595895416679199
 40
1.727685442048932
 40
1.727685442048932
 40
2.495855623029484
 40
2.495855623029484
 40
4.032813921357493
 40
4.032813921357493
 40
4.799632975168325
 40
4.799632975168325
 40
5.183878199412435
 40
5.183878199412435
 40
5.375712175045528
 40
5.375712175045528
 40
5.471668170128723
 40
5.471668170128723
 40
5.519736718965186
 40
5.519736718965186
 40
5.568029287120561
 40
5.568029287120561
 40
6.336290027950207
 40
6.336290027950207
 40
6.528046244893966
 40
6.528046244893966
 40
6.576865680874443
 40
6.576865680874443
 40
6.624005053978516
 40
6.624005053978516
 40
7.969549268444434
 40
7.969549268444434
 40
8.54511005203346
 40
8.54511005203346
 40
10.16997571810895
 40
10.16997571810895
 40
10.16997571810895
 10
18082.04187028797
 20
25299.67628354801
 30
0.0
 41
1.0
 10
18082.13782948252
 20
25299.67954704272
 30
0.0
 41
0.9999998416162039
 10
18082.23379228979
 20
25299.68270251967
 30
0.0
 41
1.0
 10
18082.61736955974
 20
25299.69520380173
 30
0.0
 41
0.9999967780811038
 10
18083.00100535431
 20
25299.70575753056
 30
0.0
 41
1.0
 10
18083.38490904453
 20
25299.7163151829
 30
0.0
 41
0.9999965455692962
 10
18083.76886293082
 20
25299.7248545384
 30
0.0
 41
1.0
 10
18084.15285413217
 20
25299.73338637805
 30
0.0
 41
0.9999965516870559
 10
18084.53688484852
 20
25299.73990127727
 30
0.0
 41
1.0
 10
18085.30526103816
 20
25299.7529260017
 30
0.0
 41
0.9999855103648826
 10
18086.07373292204
 20
25299.75767741457
 30
0.0
 41
1.0
 10
18086.45713603713
 20
25299.76005701656
 30
0.0
 41
0.9999961947924644
 10
18086.84054644565
 20
25299.76032120552
 30
0.0
 41
1.0
 10
18087.03266904755
 20
25299.76039857464
 30
0.0
 41
0.999999958222892
 10
18087.22479166206
 20
25299.76036487482
 30
0.0
 41
1.0
 10
18087.32070864979
 20
25299.76037004774
 30
0.0
 41
0.9999999992486162
 10
18087.41662563763
 20
25299.76036778411
 30
0.0
 41
1.0
 10
18087.46460363517
 20
25299.76036815438
 30
0.0
 41
0.9999999999845665
 10
18087.51258163271
 20
25299.76036799154
 30
0.0
 41
1.0
 10
18087.53661590712
 20
25299.76036802079
 30
0.0
 41
0.9999999999996126
 10
18087.56065018155
 20
25299.76036800774
 30
0.0
 41
1.0
 10
18087.58479646563
 20
25299.76036801053
 30
0.0
 41
0.9999999999999966
 10
18087.6089427497
 20
25299.76036800927
 30
0.0
 41
1.0
 10
18087.99307312012
 20
25299.76036795672
 30
0.0
 41
1.0
 10
18088.37720349053
 20
25299.76036795697
 30
0.0
 41
1.0
 10
18088.473081599
 20
25299.76036795648
 30
0.0
 41
1.0
 10
18088.56895970747
 20
25299.76036795649
 30
0.0
 41
1.0
 10
18088.59336942546
 20
25299.76036801606
 30
0.0
 41
1.0
 10
18088.61777914345
 20
25299.76036801606
 30
0.0
 41
1.0
 10
18088.64134883001
 20
25299.76036801608
 30
0.0
 41
1.0
 10
18088.66491851656
 20
25299.76036801608
 30
0.0
 41
1.0
 10
18089.33769062379
 20
25299.76036771801
 30
0.0
 41
1.0
 10
18090.01046273102
 20
25299.76036771798
 30
0.0
 41
1.0
 10
18090.29824312282
 20
25299.7603681949
 30
0.0
 41
1.0
 10
18090.58602351461
 20
25299.76036819493
 30
0.0
 41
1.0
 10
18091.39845634765
 20
25299.7603677181
 30
0.0
 41
1.0
 10
18092.21088918069
 20
25299.76036771817
 30
0.0
 41
1.0
  0
SPLINE
  5
3D
330
1F
100
AcDbEntity
  8
MAKE2D VISIBLE LINES
100
AcDbSpline
210
0.0
220
0.0
230
1.0
 70
    24
 71
     2
 72
     6
 73
     3
 74
     0
 42
0.0000000001
 43
0.0000000001
 40
0.0
 40
0.0
 40
0.0
 40
0.463225934404971
 40
0.463225934404971
 40
0.463225934404971
 10
18092.21088918069
 20
25299.76036800942
 30
0.0
 10
18092.20944236356
 20
25299.99197645766
 30
0.0
 10
18092.20799554644
 20
25300.2235849059
 30
0.0
  0
SPLINE
  5
3E
330
1F
100
AcDbEntity
  8
MAKE2D VISIBLE LINES
100
AcDbSpline
210
0.0
220
0.0
230
1.0
 70
    12
 71
     3
 72
    38
 73
    34
 74
     0
 42
0.0000000001
 43
0.0000000001
 40
0.0
 40
0.0
 40
0.0
 40
0.0
 40
0.2083666081688158
 40
0.2083666081688158
 40
0.2083666081688158
 40
0.313008980594535
 40
0.313008980594535
 40
0.313008980594535
 40
0.3643332742158692
 40
0.3643332742158692
 40
0.3643332742158692
 40
0.41690952938011
 40
0.41690952938011
 40
0.41690952938011
 40
1.248576239948353
 40
1.248576239948353
 40
1.248576239948353
 40
1.456713409750638
 40
1.456713409750638
 40
1.456713409750638
 40
1.508877235639421
 40
1.508877235639421
 40
1.508877235639421
 40
1.561390244931374
 40
1.561390244931374
 40
1.561390244931374
 40
3.017071910664583
 40
3.017071910664583
 40
3.017071910664583
 40
3.641269955791415
 40
3.641269955791415
 40
3.641269955791415
 40
24.79771811428333
 40
24.79771811428333
 40
24.79771811428333
 40
24.79771811428333
 10
18067.41027744353
 20
25300.22355245363
 30
0.0
 41
1.0
 10
18067.47973297154
 20
25300.22358921224
 30
0.0
 41
0.9999999517083432
 10
18067.5491885085
 20
25300.22359953437
 30
0.0
 41
0.9999999517083435
 10
18067.61864404436
 20
25300.22358342002
 30
0.0
 41
1.0
 10
18067.65352483514
 20
25300.22358511373
 30
0.0
 41
0.999999999599406
 10
18067.68840562595
 20
25300.22358559824
 30
0.0
 41
0.9999999995994053
 10
18067.72328641676
 20
25300.22358487354
 30
0.0
 41
1.0
 10
18067.74039451463
 20
25300.22358491738
 30
0.0
 41
0.9999999999986664
 10
18067.75750261251
 20
25300.22358492701
 30
0.0
 41
0.9999999999986662
 10
18067.77461071038
 20
25300.22358490241
 30
0.0
 41
1.0
 10
18067.79213612877
 20
25300.22358490748
 30
0.0
 41
0.9999999999999756
 10
18067.80966154715
 20
25300.22358490779
 30
0.0
 41
0.9999999999999749
 10
18067.82718696554
 20
25300.22358490332
 30
0.0
 41
1.0
 10
18068.1044092024
 20
25300.22358490493
 30
0.0
 41
1.0
 10
18068.38163143926
 20
25300.22358490451
 30
0.0
 41
1.0
 10
18068.65885367611
 20
25300.22358490204
 30
0.0
 41
1.0
 10
18068.72823273271
 20
25300.22358490209
 30
0.0
 41
1.0
 10
18068.79761178931
 20
25300.22358490215
 30
0.0
 41
0.9999999999999998
 10
18068.86699084591
 20
25300.22358490223
 30
0.0
 41
1.0
 10
18068.88437878788
 20
25300.22358490207
 30
0.0
 41
0.9999999999999998
 10
18068.90176672984
 20
25300.22358490198
 30
0.0
 41
1.0
 10
18068.9191546718
 20
25300.22358490198
 30
0.0
 41
1.0
 10
18068.93665901165
 20
25300.22358490562
 30
0.0
 41
1.0
 10
18068.95416333828
 20
25300.22358490557
 30
0.0
 41
1.0
 10
18068.97166767709
 20
25300.22358490559
 30
0.0
 41
1.0
 10
18069.456894899
 20
25300.22358449968
 30
0.0
 41
1.0
 10
18069.94212212091
 20
25300.2235844997
 30
0.0
 41
0.9999999999999998
 10
18070.42734934282
 20
25300.22358449973
 30
0.0
 41
1.0
 10
18070.63541535786
 20
25300.22358831435
 30
0.0
 41
1.0
 10
18070.8434813729
 20
25300.22358831436
 30
0.0
 41
1.0
 10
18071.05154738795
 20
25300.22358831436
 30
0.0
 41
1.0
 10
18078.10369677411
 20
25300.2235806858
 30
0.0
 41
0.9999999999999998
 10
18085.15584616028
 20
25300.22358068663
 30
0.0
 41
1.0
 10
18092.20799554644
 20
25300.22358068747
 30
0.0
 41
1.0
  0
SPLINE
  5
3F
330
1F
100
AcDbEntity
  8
MAKE2D VISIBLE LINES
100
AcDbSpline
210
0.0
220
0.0
230
1.0
 70
    12
 71
     2
 72
     6
 73
     3
 74
     0
 42
0.0000000001
 43
0.0000000001
 40
0.0
 40
0.0
 40
0.0
 40
0.418561471142769
 40
0.418561471142769
 40
0.418561471142769
 10
18066.99171728461
 20
25300.22298714237
 30
0.0
 41
1.0
 10
18067.20099633177
 20
25300.22403412121
 30
0.0
 41
0.9999933309500783
 10
18067.41027744353
 20
25300.22355245363
 30
0.0
 41
1.0
  0
SPLINE
  5
40
330
1F
100
AcDbEntity
  8
MAKE2D VISIBLE LINES
100
AcDbSpline
210
0.0
220
0.0
230
1.0
 70
    24
 71
     2
 72
     6
 73
     3
 74
     0
 42
0.0000000001
 43
0.0000000001
 40
0.0
 40
0.0
 40
0.0
 40
0.3523816869819711
 40
0.3523816869819711
 40
0.3523816869819711
 10
18625.82192340261
 20
25299.87120321859
 30
0.0
 10
18625.82192340261
 20
25300.04739406209
 30
0.0
 10
18625.82192340261
 20
25300.22358490558
 30
0.0
  0
SPLINE
  5
41
330
1F
100
AcDbEntity
  8
MAKE2D VISIBLE LINES
100
AcDbSpline
210
0.0
220
0.0
230
1.0
 70
    28
 71
     2
 72
     6
 73
     3
 74
     0
 42
0.0000000001
 43
0.0000000001
 40
0.0
 40
0.0
 40
0.0
 40
533.6139278561752
 40
533.6139278561752
 40
533.6139278561752
 10
18092.20799554644
 20
25300.22358068496
 30
0.0
 41
1.0
 10
18359.01495947453
 20
25300.2235809541
 30
0.0
 41
1.0
 10
18625.82192340261
 20
25300.22358122324
 30
0.0
 41
1.0
  0
SPLINE
  5
42
330
1F
100
AcDbEntity
  8
MAKE2D VISIBLE LINES
100
AcDbSpline
210
0.0
220
0.0
230
1.0
 70
    28
 71
     2
 72
     6
 73
     3
 74
     0
 42
0.0000000001
 43
0.0000000001
 40
0.0
 40
0.0
 40
0.0
 40
484.6077268282695
 40
484.6077268282695
 40
484.6077268282695
 10
18092.21088918069
 20
25299.76215490371
 30
0.0
 41
1.0
 10
18334.51475259482
 20
25299.76215490668
 30
0.0
 41
1.0
 10
18576.81861600896
 20
25299.76215490964
 30
0.0
 41
1.0
  0
SPLINE
  5
43
330
1F
100
AcDbEntity
  8
MAKE2D VISIBLE LINES
100
AcDbSpline
210
0.0
220
0.0
230
1.0
 70
    12
 71
     2
 72
     6
 73
     3
 74
     0
 42
0.0000000001
 43
0.0000000001
 40
0.0
 40
0.0
 40
0.0
 40
0.4225855412074908
 40
0.4225855412074908
 40
0.4225855412074908
 10
18577.29373093007
 20
25299.76036802175
 30
0.0
 41
1.0
 10
18577.08244290827
 20
25299.76360076377
 30
0.0
 41
0.999858174836315
 10
18576.87138361367
 20
25299.77394740295
 30
0.0
 41
1.0
  0
SPLINE
  5
44
330
1F
100
AcDbEntity
  8
MAKE2D VISIBLE LINES
100
AcDbSpline
210
0.0
220
0.0
230
1.0
 70
    12
 71
     2
 72
     6
 73
     3
 74
     0
 42
0.0000000001
 43
0.0000000001
 40
0.0
 40
0.0
 40
0.0
 40
0.0119772931357613
 40
0.0119772931357613
 40
0.0119772931357613
 10
18576.8119173232
 20
25299.78137358062
 30
0.0
 41
1.0
 10
18576.81191729466
 20
25299.78736222718
 30
0.0
 41
0.9999999999883323
 10
18576.81191732398
 20
25299.79335087376
 30
0.0
 41
1.0
  0
SPLINE
  5
45
330
1F
100
AcDbEntity
  8
MAKE2D VISIBLE LINES
100
AcDbSpline
210
0.0
220
0.0
230
1.0
 70
    12
 71
     3
 72
    11
 73
     7
 74
     0
 42
0.0000000001
 43
0.0000000001
 40
-0.2239041031456294
 40
-0.2239041031456294
 40
-0.2239041031456294
 40
-0.2239041031456294
 40
4.400875484912364
 40
9.138612355858951
 40
14.62485810021143
 40
20.2122557203767
 40
20.2122557203767
 40
20.2122557203767
 40
20.2122557203767
 10
18576.81191732398
 20
25299.79335087376
 30
0.0
 41
1.0
 10
18576.81110884203
 20
25299.80256989812
 30
0.0
 41
1.0
 10
18577.37135622398
 20
25299.82122368165
 30
0.0
 41
1.0
 10
18579.9416742376
 20
25299.84709607944
 30
0.0
 41
1.0
 10
18584.25900085198
 20
25299.86637848385
 30
0.0
 41
1.0
 10
18587.94961329849
 20
25299.8712121418
 30
0.0
 41
1.0
 10
18589.81191730168
 20
25299.8712032686
 30
0.0
 41
1.0
  0
SPLINE
  5
46
330
1F
100
AcDbEntity
  8
MAKE2D VISIBLE LINES
100
AcDbSpline
210
0.0
220
0.0
230
1.0
 70
    24
 71
     2
 72
     6
 73
     3
 74
     0
 42
0.0000000001
 43
0.0000000001
 40
0.0
 40
0.0
 40
0.0
 40
36.01000610092706
 40
36.01000610092706
 40
36.01000610092706
 10
18589.81191730168
 20
25299.8712032686
 30
0.0
 10
18607.81692035215
 20
25299.87120324359
 30
0.0
 10
18625.82192340261
 20
25299.87120321859
 30
0.0
  0
SPLINE
  5
47
330
1F
100
AcDbEntity
  8
MAKE2D VISIBLE LINES
100
AcDbSpline
210
0.0
220
0.0
230
1.0
 70
    12
 71
     2
 72
     6
 73
     3
 74
     0
 42
0.0000000001
 43
0.0000000001
 40
0.0
 40
0.0
 40
0.0
 40
0.4185614711554644
 40
0.4185614711554644
 40
0.4185614711554644
 10
19184.65212952057
 20
25300.22298714245
 30
0.0
 41
1.0
 10
19184.44285047341
 20
25300.22403412127
 30
0.0
 41
0.9999933309502766
 10
19184.23356936164
 20
25300.2235524537
 30
0.0
 41
1.0
  0
SPLINE
  5
48
330
1F
100
AcDbEntity
  8
MAKE2D VISIBLE LINES
100
AcDbSpline
210
0.0
220
0.0
230
1.0
 70
    12
 71
     3
 72
    14
 73
    10
 74
     0
 42
0.0000000001
 43
0.0000000001
 40
0.0
 40
0.0
 40
0.0
 40
0.0
 40
6.180727853950353
 40
6.180727853950353
 40
6.180727853950353
 40
80.180727853954
 40
80.180727853954
 40
80.180727853954
 40
80.5682234544364
 40
80.5682234544364
 40
80.5682234544364
 40
80.5682234544364
 10
18583.23133003341
 20
25316.5253022731
 30
0.0
 41
1.0
 10
18584.74463654997
 20
25315.05033839821
 30
0.0
 41
0.9508709160285801
 10
18586.70214586128
 20
25314.25424019984
 30
0.0
 41
0.9508709160285793
 10
18588.81534604935
 20
25314.25434240372
 30
0.0
 41
1.0
 10
18613.48201271602
 20
25314.25434240372
 30
0.0
 41
1.0
 10
18638.14867938268
 20
25314.25434240373
 30
0.0
 41
1.0
 10
18662.81534604936
 20
25314.25434240372
 30
0.0
 41
1.0
 10
18662.94452418883
 20
25314.25426512234
 30
0.0
 41
0.9997993253146757
 10
18663.07366534018
 20
25314.2573571636
 30
0.0
 41
0.9997993253146756
 10
18663.20269175733
 20
25314.26361666599
 30
0.0
 41
1.0
  0
SPLINE
  5
49
330
1F
100
AcDbEntity
  8
MAKE2D VISIBLE LINES
100
AcDbSpline
210
0.0
220
0.0
230
1.0
 70
    12
 71
     3
 72
    59
 73
    55
 74
     0
 42
0.0000000001
 43
0.0000000001
 40
0.0
 40
0.0
 40
0.0
 40
0.0
 40
0.192029325554642
 40
0.192029325554642
 40
0.192029325554642
 40
0.9595895416660862
 40
0.9595895416660862
 40
0.9595895416660862
 40
1.72768544204538
 40
1.72768544204538
 40
1.72768544204538
 40
2.495855623027917
 40
2.495855623027917
 40
2.495855623027917
 40
4.032813921357859
 40
4.032813921357859
 40
4.032813921357859
 40
4.79963297517235
 40
4.79963297517235
 40
4.79963297517235
 40
5.183878199416459
 40
5.183878199416459
 40
5.183878199416459
 40
5.375712175040458
 40
5.375712175040458
 40
5.375712175040458
 40
5.471668170130928
 40
5.471668170130928
 40
5.471668170130928
 40
5.519736718960115
 40
5.519736718960115
 40
5.519736718960115
 40
5.568029287122767
 40
5.568029287122767
 40
5.568029287122767
 40
6.336290027954232
 40
6.336290027954232
 40
6.336290027954232
 40
6.528046244052177
 40
6.528046244052177
 40
6.528046244052177
 40
6.576865680027197
 40
6.576865680027197
 40
6.576865680027197
 40
6.624005053144003
 40
6.624005053144003
 40
6.624005053144003
 40
7.969549267606283
 40
7.969549267606283
 40
7.969549267606283
 40
8.545110051204404
 40
8.545110051204404
 40
8.545110051204404
 40
10.16997571727808
 40
10.16997571727808
 40
10.16997571727808
 40
10.16997571727808
 10
19169.60197651721
 20
25299.67628354808
 30
0.0
 41
1.0
 10
19169.53800372422
 20
25299.6784592111
 30
0.0
 41
0.9999998944108113
 10
19169.47402971686
 20
25299.68059886855
 30
0.0
 41
0.9999998944108114
 10
19169.41005451539
 20
25299.68270251973
 30
0.0
 41
1.0
 10
19169.15433661006
 20
25299.69103669882
 30
0.0
 41
0.9999978520541448
 10
19168.89859837258
 20
25299.69872171895
 30
0.0
 41
0.9999978520541447
 10
19168.64284145087
 20
25299.70575753062
 30
0.0
 41
1.0
 10
19168.38690595209
 20
25299.71279595745
 30
0.0
 41
0.9999976970459372
 10
19168.13095283715
 20
25299.71916164139
 30
0.0
 41
0.9999976970459371
 10
19167.87498387436
 20
25299.72485453846
 30
0.0
 41
1.0
 10
19167.61899003437
 20
25299.73054242504
 30
0.0
 41
0.9999977011246437
 10
19167.36298213995
 20
25299.73555801619
 30
0.0
 41
0.9999977011246428
 10
19167.10696195666
 20
25299.73990127734
 30
0.0
 41
1.0
 10
19166.5947136377
 20
25299.74858438505
 30
0.0
 41
0.9999903402430512
 10
19166.08242599796
 20
25299.75450982138
 30
0.0
 41
0.9999903402430513
 10
19165.57011388314
 20
25299.75767741464
 30
0.0
 41
1.0
 10
19165.31451213062
 20
25299.75926381395
 30
0.0
 41
0.999997463194924
 10
19165.05890697433
 20
25299.76014507984
 30
0.0
 41
0.999997463194924
 10
19164.80330035953
 20
25299.76032120559
 30
0.0
 41
1.0
 10
19164.67521862671
 20
25299.760372785
 30
0.0
 41
0.9999999721485975
 10
19164.54713688434
 20
25299.76038734143
 30
0.0
 41
0.9999999721485976
 10
19164.41905514311
 20
25299.76036487488
 30
0.0
 41
1.0
 10
19164.35511048465
 20
25299.7603683235
 30
0.0
 41
0.9999999994990769
 10
19164.2911658261
 20
25299.76036929328
 30
0.0
 41
0.9999999994990768
 10
19164.22722116756
 20
25299.76036778418
 30
0.0
 41
1.0
 10
19164.19523583586
 20
25299.76036803103
 30
0.0
 41
0.9999999999897107
 10
19164.16325050416
 20
25299.76036810017
 30
0.0
 41
0.9999999999897108
 10
19164.13126517247
 20
25299.7603679916
 30
0.0
 41
1.0
 10
19164.11524232286
 20
25299.76036801112
 30
0.0
 41
0.9999999999997409
 10
19164.09921947325
 20
25299.76036801653
 30
0.0
 41
0.9999999999997412
 10
19164.08319662364
 20
25299.76036800781
 30
0.0
 41
1.0
 10
19164.06709910092
 20
25299.76036800965
 30
0.0
 41
0.9999999999999978
 10
19164.0510015782
 20
25299.76036801017
 30
0.0
 41
0.9999999999999979
 10
19164.03490405548
 20
25299.76036800933
 30
0.0
 41
1.0
 10
19163.77881714187
 20
25299.76036797425
 30
0.0
 41
1.0
 10
19163.52273022826
 20
25299.76036795679
 30
0.0
 41
1.0
 10
19163.26664331464
 20
25299.76036795696
 30
0.0
 41
1.0
 10
19163.20272457516
 20
25299.76036800948
 30
0.0
 41
1.0
 10
19163.13880583613
 20
25299.76036800948
 30
0.0
 41
1.0
 10
19163.07488709772
 20
25299.76036800948
 30
0.0
 41
1.0
 10
19163.05861395239
 20
25299.76036800861
 30
0.0
 41
0.9999999999999999
 10
19163.04234080706
 20
25299.7603680086
 30
0.0
 41
1.0
 10
19163.02606766174
 20
25299.76036800859
 30
0.0
 41
1.0
 10
19163.01035453737
 20
25299.76036801606
 30
0.0
 41
1.0
 10
19162.994641413
 20
25299.76036801606
 30
0.0
 41
1.0
 10
19162.97892828863
 20
25299.76036801606
 30
0.0
 41
1.0
 10
19162.53041355047
 20
25299.7603696254
 30
0.0
 41
1.0
 10
19162.08189881231
 20
25299.76036962541
 30
0.0
 41
0.9999999999999998
 10
19161.63338407416
 20
25299.76036962542
 30
0.0
 41
1.0
 10
19161.44153047963
 20
25299.7603681949
 30
0.0
 41
0.9999999999999998
 10
19161.2496768851
 20
25299.76036819491
 30
0.0
 41
1.0
 10
19161.05782329056
 20
25299.76036819493
 30
0.0
 41
1.0
 10
19160.51620140188
 20
25299.7603696254
 30
0.0
 41
1.0
 10
19159.97457951318
 20
25299.76036962542
 30
0.0
 41
1.0
 10
19159.43295762449
 20
25299.76036962543
 30
0.0
 41
1.0
  0
SPLINE
  5
4A
330
1F
100
AcDbEntity
  8
MAKE2D VISIBLE LINES
100
AcDbSpline
210
0.0
220
0.0
230
1.0
 70
    12
 71
     2
 72
     6
 73
     3
 74
     0
 42
0.0000000001
 43
0.0000000001
 40
0.0
 40
0.0
 40
0.0
 40
0.0119772931393994
 40
0.0119772931393994
 40
0.0119772931393994
 10
18674.81191728687
 20
25299.79335087376
 30
0.0
 41
1.0
 10
18674.81191731613
 20
25299.78736222719
 30
0.0
 41
0.9999999999883015
 10
18674.81191728745
 20
25299.78137358062
 30
0.0
 41
1.0
  0
SPLINE
  5
4B
330
1F
100
AcDbEntity
  8
MAKE2D VISIBLE LINES
100
AcDbSpline
210
0.0
220
0.0
230
1.0
 70
    12
 71
     2
 72
     6
 73
     3
 74
     0
 42
0.0000000001
 43
0.0000000001
 40
0.0
 40
0.0
 40
0.0
 40
0.4263021139206932
 40
0.4263021139206932
 40
0.4263021139206932
 10
18674.7558660094
 20
25299.7741502689
 30
0.0
 41
1.0
 10
18674.54295603963
 20
25299.76357868058
 30
0.0
 41
0.9998507890984063
 10
18674.3298079564
 20
25299.76036802176
 30
0.0
 41
1.0
  0
SPLINE
  5
4C
330
1F
100
AcDbEntity
  8
MAKE2D VISIBLE LINES
100
AcDbSpline
210
0.0
220
0.0
230
1.0
 70
    28
 71
     2
 72
     6
 73
     3
 74
     0
 42
0.0000000001
 43
0.0000000001
 40
0.0
 40
0.0
 40
0.0
 40
484.7766682637257
 40
484.7766682637257
 40
484.7766682637257
 10
19159.43295762449
 20
25299.76215490371
 30
0.0
 41
1.0
 10
18917.04462349263
 20
25299.76215490662
 30
0.0
 41
1.0
 10
18674.65628936077
 20
25299.76215490952
 30
0.0
 41
1.0
  0
SPLINE
  5
4D
330
1F
100
AcDbEntity
  8
MAKE2D VISIBLE LINES
100
AcDbSpline
210
0.0
220
0.0
230
1.0
 70
    28
 71
     2
 72
     6
 73
     3
 74
     0
 42
0.0000000001
 43
0.0000000001
 40
0.0
 40
0.0
 40
0.0
 40
533.6139278561241
 40
533.6139278561241
 40
533.6139278561241
 10
19159.43585125874
 20
25300.22358068496
 30
0.0
 41
1.0
 10
18892.62888733068
 20
25300.22358095407
 30
0.0
 41
1.0
 10
18625.82192340261
 20
25300.22358122318
 30
0.0
 41
1.0
  0
SPLINE
  5
4E
330
1F
100
AcDbEntity
  8
MAKE2D VISIBLE LINES
100
AcDbSpline
210
0.0
220
0.0
230
1.0
 70
    12
 71
     3
 72
    17
 73
    13
 74
     0
 42
0.0000000001
 43
0.0000000001
 40
1.570739926820078
 40
1.570739926820078
 40
1.570739926820078
 40
1.570739926820078
 40
75.57073992680125
 40
75.57073992680125
 40
75.57073992680125
 40
77.92734167062099
 40
77.92734167062099
 40
77.92734167062099
 40
80.28394341444073
 40
80.28394341444073
 40
80.28394341444073
 40
154.2839434144419
 40
154.2839434144419
 40
154.2839434144419
 40
154.2839434144419
 10
18588.81534604936
 20
25319.25434240372
 30
0.0
 41
1.0
 10
18613.48201271602
 20
25319.25434240372
 30
0.0
 41
1.0
 10
18638.14867938269
 20
25319.25434240371
 30
0.0
 41
1.0
 10
18662.81534604932
 20
25319.25434240372
 30
0.0
 41
1.0
 10
18663.62180336771
 20
25319.25383252857
 30
0.0
 41
0.9491723415630859
 10
18664.36697045009
 20
25319.56221489786
 30
0.0
 41
0.9491723415630864
 10
18664.93722200264
 20
25320.13246645041
 30
0.0
 41
1.0
 10
18665.50747355519
 20
25320.70271800295
 30
0.0
 41
0.949172341563086
 10
18665.81585592449
 20
25321.44788508533
 30
0.0
 41
0.9491723415630862
 10
18665.81534604936
 20
25322.25434240372
 30
0.0
 41
1.0
 10
18665.81534604935
 20
25346.92100907038
 30
0.0
 41
1.0
 10
18665.81534604934
 20
25371.58767573704
 30
0.0
 41
1.0
 10
18665.81534604936
 20
25396.25434240372
 30
0.0
 41
1.0
  0
SPLINE
  5
4F
330
1F
100
AcDbEntity
  8
MAKE2D VISIBLE LINES
100
AcDbSpline
210
0.0
220
0.0
230
1.0
 70
    12
 71
     3
 72
    17
 73
    13
 74
     0
 42
0.0000000001
 43
0.0000000001
 40
152.7122197804401
 40
152.7122197804401
 40
152.7122197804401
 40
152.7122197804401
 40
226.7122197804668
 40
226.7122197804668
 40
226.7122197804668
 40
229.0688215242178
 40
229.0688215242178
 40
229.0688215242178
 40
231.4254232679689
 40
231.4254232679689
 40
231.4254232679689
 40
305.4254232679955
 40
305.4254232679955
 40
305.4254232679955
 40
305.4254232679955
 10
18662.81534604947
 20
25399.25434240372
 30
0.0
 41
1.0
 10
18638.14867938258
 20
25399.25434240371
 30
0.0
 41
1.0
 10
18613.48201271609
 20
25399.25434240374
 30
0.0
 41
1.0
 10
18588.81534604936
 20
25399.25434240372
 30
0.0
 41
1.0
 10
18588.00888873099
 20
25399.25485227887
 30
0.0
 41
0.9491723415645155
 10
18587.26372164862
 20
25398.94646990959
 30
0.0
 41
0.9491723415645156
 10
18586.69347009608
 20
25398.37621835708
 30
0.0
 41
1.0
 10
18586.12321854355
 20
25397.80596680456
 30
0.0
 41
0.9491723415645155
 10
18585.81483617423
 20
25397.06079972221
 30
0.0
 41
0.9491723415645156
 10
18585.81534604935
 20
25396.25434240384
 30
0.0
 41
1.0
 10
18585.81534604934
 20
25371.58767573691
 30
0.0
 41
1.0
 10
18585.81534604936
 20
25346.92100907046
 30
0.0
 41
1.0
 10
18585.81534604936
 20
25322.25434240372
 30
0.0
 41
1.0
  0
SPLINE
  5
50
330
1F
100
AcDbEntity
  8
MAKE2D VISIBLE LINES
100
AcDbSpline
210
0.0
220
0.0
230
1.0
 70
    12
 71
     2
 72
     6
 73
     3
 74
     0
 42
0.0000000001
 43
0.0000000001
 40
0.0
 40
0.0
 40
0.0
 40
4.084096928213647
 40
4.084096928213647
 40
4.084096928213647
 10
18593.72091034348
 20
25314.2543423752
 30
0.0
 41
1.0
 10
18591.6333243686
 20
25314.25434240056
 30
0.0
 41
0.9675986775087408
 10
18589.8119173054
 20
25315.27438725871
 30
0.0
 41
1.0
  0
SPLINE
  5
51
330
1F
100
AcDbEntity
  8
MAKE2D VISIBLE LINES
100
AcDbSpline
210
0.0
220
0.0
230
1.0
 70
    12
 71
     2
 72
     6
 73
     3
 74
     0
 42
0.0000000001
 43
0.0000000001
 40
0.0
 40
0.0
 40
0.0
 40
0.453635781837453
 40
0.453635781837453
 40
0.453635781837453
 10
18577.2712279386
 20
25299.80783139295
 30
0.0
 41
1.0
 10
18577.04566849978
 20
25299.7817589385
 30
0.0
 41
0.9983927888793662
 10
18576.81860751877
 20
25299.78137917536
 30
0.0
 41
1.0
  0
SPLINE
  5
52
330
1F
100
AcDbEntity
  8
MAKE2D VISIBLE LINES
100
AcDbSpline
210
0.0
220
0.0
230
1.0
 70
    12
 71
     2
 72
     6
 73
     3
 74
     0
 42
0.0000000001
 43
0.0000000001
 40
0.0
 40
0.0
 40
0.0
 40
0.5199241245835837
 40
0.5199241245835837
 40
0.5199241245835837
 10
18674.81191728745
 20
25299.78137358062
 30
0.0
 41
1.0
 10
18674.55158861226
 20
25299.78137357868
 30
0.0
 41
0.997888934004183
 10
18674.29345590051
 20
25299.81511557405
 30
0.0
 41
1.0
  0
SPLINE
  5
53
330
1F
100
AcDbEntity
  8
MAKE2D VISIBLE LINES
100
AcDbSpline
210
0.0
220
0.0
230
1.0
 70
    12
 71
     2
 72
     6
 73
     3
 74
     0
 42
0.0000000001
 43
0.0000000001
 40
0.0
 40
0.0
 40
0.0
 40
0.3790371929537233
 40
0.3790371929537233
 40
0.3790371929537233
 10
18081.39398498396
 20
25299.65293424458
 30
0.0
 41
1.0
 10
18081.39570626083
 20
25299.46340530493
 30
0.0
 41
0.9998562935470231
 10
18081.40385165946
 20
25299.27404365559
 30
0.0
 41
1.0
  0
SPLINE
  5
54
330
1F
100
AcDbEntity
  8
MAKE2D VISIBLE LINES
100
AcDbSpline
210
0.0
220
0.0
230
1.0
 70
    12
 71
     2
 72
     6
 73
     3
 74
     0
 42
0.0000000001
 43
0.0000000001
 40
0.0
 40
0.0
 40
0.0
 40
0.3790469023736321
 40
0.3790469023736321
 40
0.3790469023736321
 10
19170.239994833
 20
25299.27403400493
 30
0.0
 41
1.0
 10
19170.24814044861
 20
25299.46340050414
 30
0.0
 41
0.9998562972291544
 10
19170.24986186026
 20
25299.65293429748
 30
0.0
 41
1.0
  0
SPLINE
  5
55
330
1F
100
AcDbEntity
  8
MAKE2D VISIBLE LINES
100
AcDbSpline
210
0.0
220
0.0
230
1.0
 70
    12
 71
     2
 72
     6
 73
     3
 74
     0
 42
0.0000000001
 43
0.0000000001
 40
0.0
 40
0.0
 40
0.0
 40
0.0936533882122722
 40
0.0936533882122722
 40
0.0936533882122722
 10
18577.36418958763
 20
25299.81486649047
 30
0.0
 41
1.0
 10
18577.31737388223
 20
25299.81385029035
 30
0.0
 41
0.9999987503658334
 10
18577.27056162388
 20
25299.81268607294
 30
0.0
 41
1.0
  0
SPLINE
  5
56
330
1F
100
AcDbEntity
  8
MAKE2D VISIBLE LINES
100
AcDbSpline
210
0.0
220
0.0
230
1.0
 70
    24
 71
     2
 72
     6
 73
     3
 74
     0
 42
0.0000000001
 43
0.0000000001
 40
0.0
 40
0.0
 40
0.0
 40
35.98999390651079
 40
35.98999390651079
 40
35.98999390651079
 10
18625.82192340261
 20
25299.87120321859
 30
0.0
 10
18643.81692035586
 20
25299.87120324359
 30
0.0
 10
18661.81191730912
 20
25299.87120326859
 30
0.0
  0
SPLINE
  5
57
330
1F
100
AcDbEntity
  8
MAKE2D VISIBLE LINES
100
AcDbSpline
210
0.0
220
0.0
230
1.0
 70
    12
 71
     3
 72
    11
 73
     7
 74
     0
 42
0.0000000001
 43
0.0000000001
 40
0.0000000029987951
 40
0.0000000029987951
 40
0.0000000029987951
 40
0.0000000029987951
 40
5.251109316270208
 40
10.92696509123995
 40
15.52103469008869
 40
20.43615905989359
 40
20.43615905989359
 40
20.43615905989359
 40
20.43615905989359
 10
18661.81191730912
 20
25299.87120326859
 30
0.0
 41
1.0
 10
18663.5617633245
 20
25299.87120727405
 30
0.0
 41
1.0
 10
18667.20488326521
 20
25299.86674318967
 30
0.0
 41
1.0
 10
18671.50708747741
 20
25299.8482600666
 30
0.0
 41
1.0
 10
18674.20661340431
 20
25299.82209094341
 30
0.0
 41
1.0
 10
18674.81324319738
 20
25299.80315021573
 30
0.0
 41
1.0
 10
18674.81191728687
 20
25299.79335087376
 30
0.0
 41
1.0
  0
SPLINE
  5
58
330
1F
100
AcDbEntity
  8
MAKE2D VISIBLE LINES
100
AcDbSpline
210
0.0
220
0.0
230
1.0
 70
    28
 71
     2
 72
     6
 73
     3
 74
     0
 42
0.0000000001
 43
0.0000000001
 40
0.0
 40
0.0
 40
0.0
 40
35.5208398267896
 40
35.5208398267896
 40
35.5208398267896
 10
18590.3010835758
 20
25294.77571996719
 30
0.0
 41
1.0
 10
18608.0615034892
 20
25294.77571997885
 30
0.0
 41
1.0
 10
18625.82192340259
 20
25294.7757199905
 30
0.0
 41
1.0
  0
SPLINE
  5
59
330
1F
100
AcDbEntity
  8
MAKE2D VISIBLE LINES
100
AcDbSpline
210
0.0
220
0.0
230
1.0
 70
    12
 71
     2
 72
     8
 73
     5
 74
     0
 42
0.0000000001
 43
0.0000000001
 40
0.0
 40
0.0
 40
0.0
 40
30.61191920038072
 40
30.61191920038072
 40
35.51748349451008
 40
35.51748349451008
 40
35.51748349451008
 10
18661.3394068971
 20
25294.7757047084
 30
0.0
 41
1.0
 10
18646.03344729691
 20
25294.77570470615
 30
0.0
 41
1.0
 10
18630.72748769672
 20
25294.77570470389
 30
0.0
 41
1.0
 10
18628.27470554965
 20
25294.77571926662
 30
0.0
 41
1.0
 10
18625.82192340259
 20
25294.7757192217
 30
0.0
 41
1.0
  0
SPLINE
  5
5A
330
1F
100
AcDbEntity
  8
MAKE2D VISIBLE LINES
100
AcDbSpline
210
0.0
220
0.0
230
1.0
 70
     8
 71
     3
 72
    11
 73
     7
 74
     0
 42
0.0000000001
 43
0.0000000001
 40
0.0
 40
0.0
 40
0.0
 40
0.0
 40
0.1273263078723819
 40
0.2576380929340087
 40
0.4644030441709909
 40
0.509803294973426
 40
0.509803294973426
 40
0.509803294973426
 40
0.509803294973426
 10
18590.3010835758
 20
25294.77571926237
 30
0.0
 10
18590.25856693101
 20
25294.7748252841
 30
0.0
 10
18590.17274548657
 20
25294.77513603122
 30
0.0
 10
18590.01917177433
 20
25294.80019822232
 30
0.0
 10
18589.89889994305
 20
25294.84346773455
 30
0.0
 10
18589.82079855981
 20
25294.87412312279
 30
0.0
 10
18589.8119173054
 20
25294.88800289747
 30
0.0
  0
SPLINE
  5
5B
330
1F
100
AcDbEntity
  8
MAKE2D VISIBLE LINES
100
AcDbSpline
210
0.0
220
0.0
230
1.0
 70
    12
 71
     2
 72
     6
 73
     3
 74
     0
 42
0.0000000001
 43
0.0000000001
 40
0.0
 40
0.0
 40
0.0
 40
0.4902304097067293
 40
0.4902304097067293
 40
0.4902304097067293
 10
18661.8119173054
 20
25294.88647416287
 30
0.0
 41
1.0
 10
18661.58954259555
 20
25294.77187876387
 30
0.0
 41
0.9699934039161251
 10
18661.3394068971
 20
25294.77571926103
 30
0.0
 41
1.0
  0
SPLINE
  5
5C
330
1F
100
AcDbEntity
  8
MAKE2D VISIBLE LINES
100
AcDbSpline
210
0.0
220
0.0
230
1.0
 70
    15
 71
     2
 72
    12
 73
     9
 74
     0
 42
0.0000000001
 43
0.0000000001
 40
0.0
 40
0.0
 40
0.0
 40
27.48979716004624
 40
27.48979716004624
 40
54.97959432009249
 40
54.97959432009249
 40
82.46939148013873
 40
82.46939148013873
 40
109.959188640185
 40
109.959188640185
 40
109.959188640185
 10
18928.32192340261
 20
25357.25434240372
 30
0.0
 41
1.0
 10
18928.32239873597
 20
25374.75489080773
 30
0.0
 41
0.7071067811865476
 10
18910.82185033197
 20
25374.75536614109
 30
0.0
 41
1.0
 10
18893.32130192797
 20
25374.75584147445
 30
0.0
 41
0.7071067811865476
 10
18893.3208265946
 20
25357.25529307045
 30
0.0
 41
1.0
 10
18893.32035126124
 20
25339.75474466644
 30
0.0
 41
0.7071067811865476
 10
18910.82089966524
 20
25339.75426933308
 30
0.0
 41
1.0
 10
18928.32144806924
 20
25339.75379399971
 30
0.0
 41
0.7071067811865476
 10
18928.32192340261
 20
25357.25434240372
 30
0.0
 41
1.0
  0
SPLINE
  5
5D
330
1F
100
AcDbEntity
  8
MAKE2D VISIBLE LINES
100
AcDbSpline
210
0.0
220
0.0
230
1.0
 70
    15
 71
     2
 72
    12
 73
     9
 74
     0
 42
0.0000000001
 43
0.0000000001
 40
0.0
 40
0.0
 40
0.0
 40
27.48979716003232
 40
27.48979716003232
 40
54.97959432006463
 40
54.97959432006463
 40
82.46939148009696
 40
82.46939148009696
 40
109.9591886401293
 40
109.9591886401293
 40
109.9591886401293
 10
18323.32192340261
 20
25357.25434240372
 30
0.0
 41
1.0
 10
18323.32144806924
 20
25339.75379399972
 30
0.0
 41
0.7071067811865476
 10
18340.82199647324
 20
25339.75331866636
 30
0.0
 41
1.0
 10
18358.32254487723
 20
25339.75284333299
 30
0.0
 41
0.7071067811865476
 10
18358.3230202106
 20
25357.25339173698
 30
0.0
 41
1.0
 10
18358.32349554397
 20
25374.75394014098
 30
0.0
 41
0.7071067811865476
 10
18340.82294713998
 20
25374.75441547434
 30
0.0
 41
1.0
 10
18323.32239873598
 20
25374.75489080772
 30
0.0
 41
0.7071067811865476
 10
18323.32192340261
 20
25357.25434240372
 30
0.0
 41
1.0
  0
SPLINE
  5
5E
330
1F
100
AcDbEntity
  8
MAKE2D VISIBLE LINES
100
AcDbSpline
210
0.0
220
0.0
230
1.0
 70
    24
 71
     2
 72
     6
 73
     3
 74
     0
 42
0.0000000001
 43
0.0000000001
 40
0.0
 40
0.0
 40
0.0
 40
1180.000000000002
 40
1180.000000000002
 40
1180.000000000002
 10
19215.82192340261
 20
25450.25434240372
 30
0.0
 10
18625.82192340261
 20
25450.25434240372
 30
0.0
 10
18035.82192340261
 20
25450.25434240372
 30
0.0
  0
SPLINE
  5
5F
330
1F
100
AcDbEntity
  8
MAKE2D VISIBLE LINES
100
AcDbSpline
210
0.0
220
0.0
230
1.0
 70
    24
 71
     2
 72
     6
 73
     3
 74
     0
 42
0.0000000001
 43
0.0000000001
 40
0.0
 40
0.0
 40
0.0
 40
470.0000000000109
 40
470.0000000000109
 40
470.0000000000109
 10
18025.82192340261
 20
24970.25434240371
 30
0.0
 10
18025.82192340261
 20
25205.25434240371
 30
0.0
 10
18025.82192340261
 20
25440.25434240372
 30
0.0
  0
SPLINE
  5
60
330
1F
100
AcDbEntity
  8
MAKE2D VISIBLE LINES
100
AcDbSpline
210
0.0
220
0.0
230
1.0
 70
    12
 71
     2
 72
     6
 73
     3
 74
     0
 42
0.0000000001
 43
0.0000000001
 40
0.0
 40
0.0
 40
0.0
 40
15.70796326794442
 40
15.70796326794442
 40
15.70796326794442
 10
18025.82192340261
 20
25440.25434240372
 30
0.0
 41
1.0
 10
18025.82192340261
 20
25450.25434240372
 30
0.0
 41
0.7071067811863546
 10
18035.82192340261
 20
25450.25434240372
 30
0.0
 41
1.0
  0
SPLINE
  5
61
330
1F
100
AcDbEntity
  8
MAKE2D VISIBLE LINES
100
AcDbSpline
210
0.0
220
0.0
230
1.0
 70
    12
 71
     2
 72
     6
 73
     3
 74
     0
 42
0.0000000001
 43
0.0000000001
 40
0.0
 40
0.0
 40
0.0
 40
15.70796326794892
 40
15.70796326794892
 40
15.70796326794892
 10
18035.82192340261
 20
24960.25434240371
 30
0.0
 41
1.0
 10
18025.82192340261
 20
24960.25434240371
 30
0.0
 41
0.7071067811863455
 10
18025.82192340261
 20
24970.25434240371
 30
0.0
 41
1.0
  0
SPLINE
  5
62
330
1F
100
AcDbEntity
  8
MAKE2D VISIBLE LINES
100
AcDbSpline
210
0.0
220
0.0
230
1.0
 70
    12
 71
     3
 72
    29
 73
    25
 74
     0
 42
0.0000000001
 43
0.0000000001
 40
0.0
 40
0.0
 40
0.0
 40
0.0
 40
9.392679360124633
 40
9.392679360124633
 40
9.392679360124633
 40
83.39267936012462
 40
83.39267936012462
 40
83.39267936012462
 40
89.67598132787309
 40
89.67598132787309
 40
89.67598132787309
 40
95.95928329562156
 40
95.95928329562156
 40
95.95928329562156
 40
169.9592832956216
 40
169.9592832956216
 40
169.9592832956216
 40
176.2425852633587
 40
176.2425852633587
 40
176.2425852633587
 40
182.5258872310959
 40
182.5258872310959
 40
182.5258872310959
 40
256.5258872311032
 40
256.5258872311032
 40
256.5258872311032
 40
256.5258872311032
 10
18665.90642725105
 20
25314.87543393203
 30
0.0
 41
1.0
 10
18668.97323196024
 20
25316.16061202116
 30
0.0
 41
0.8884275468871429
 10
18670.81503242201
 20
25318.92913959085
 30
0.0
 41
0.8884275468871432
 10
18670.81534604936
 20
25322.25434240372
 30
0.0
 41
1.0
 10
18670.81534604935
 20
25346.92100907037
 30
0.0
 41
1.0
 10
18670.81534604936
 20
25371.58767573704
 30
0.0
 41
1.0
 10
18670.81534604936
 20
25396.25434240372
 30
0.0
 41
1.0
 10
18670.81549214681
 20
25398.40448110747
 30
0.0
 41
0.9492443538040841
 10
18669.99273717439
 20
25400.39097820591
 30
0.0
 41
0.9492443538040845
 10
18668.47235951297
 20
25401.91135586734
 30
0.0
 41
1.0
 10
18666.95198185154
 20
25403.43173352876
 30
0.0
 41
0.9492443538040843
 10
18664.96548475311
 20
25404.25448850118
 30
0.0
 41
0.9492443538040846
 10
18662.81534604936
 20
25404.25434240372
 30
0.0
 41
1.0
 10
18638.1486793827
 20
25404.25434240372
 30
0.0
 41
1.0
 10
18613.48201271603
 20
25404.25434240374
 30
0.0
 41
1.0
 10
18588.81534604936
 20
25404.25434240372
 30
0.0
 41
1.0
 10
18586.66520734561
 20
25404.25448850117
 30
0.0
 41
0.9492443538047604
 10
18584.67871024718
 20
25403.43173352875
 30
0.0
 41
0.9492443538047606
 10
18583.15833258575
 20
25401.91135586733
 30
0.0
 41
1.0
 10
18581.63795492433
 20
25400.39097820591
 30
0.0
 41
0.9492443538047606
 10
18580.81519995191
 20
25398.40448110748
 30
0.0
 41
0.9492443538047606
 10
18580.81534604936
 20
25396.25434240372
 30
0.0
 41
1.0
 10
18580.81534604936
 20
25371.58767573706
 30
0.0
 41
1.0
 10
18580.81534604936
 20
25346.9210090704
 30
0.0
 41
1.0
 10
18580.81534604936
 20
25322.25434240372
 30
0.0
 41
1.0
  0
SPLINE
  5
63
330
1F
100
AcDbEntity
  8
MAKE2D VISIBLE LINES
100
AcDbSpline
210
0.0
220
0.0
230
1.0
 70
    24
 71
     2
 72
     6
 73
     3
 74
     0
 42
0.0000000001
 43
0.0000000001
 40
0.0
 40
0.0
 40
0.0
 40
1180.000000000004
 40
1180.000000000004
 40
1180.000000000004
 10
19215.82192340261
 20
24960.25434240372
 30
0.0
 10
18625.82192340261
 20
24960.25434240371
 30
0.0
 10
18035.82192340261
 20
24960.25434240371
 30
0.0
  0
SPLINE
  5
64
330
1F
100
AcDbEntity
  8
MAKE2D VISIBLE LINES
100
AcDbSpline
210
0.0
220
0.0
230
1.0
 70
    24
 71
     2
 72
     6
 73
     3
 74
     0
 42
0.0000000001
 43
0.0000000001
 40
0.0
 40
0.0
 40
0.0
 40
470.0000000000036
 40
470.0000000000036
 40
470.0000000000036
 10
19225.82192340261
 20
25440.25434240372
 30
0.0
 10
19225.82192340261
 20
25205.25434240371
 30
0.0
 10
19225.82192340261
 20
24970.25434240371
 30
0.0
  0
SPLINE
  5
65
330
1F
100
AcDbEntity
  8
MAKE2D VISIBLE LINES
100
AcDbSpline
210
0.0
220
0.0
230
1.0
 70
    12
 71
     2
 72
     6
 73
     3
 74
     0
 42
0.0000000001
 43
0.0000000001
 40
0.0
 40
0.0
 40
0.0
 40
15.70796326794701
 40
15.70796326794701
 40
15.70796326794701
 10
19215.82192340261
 20
25450.25434240372
 30
0.0
 41
1.0
 10
19225.82192340261
 20
25450.25434240371
 30
0.0
 41
0.7071067811868691
 10
19225.82192340261
 20
25440.25434240372
 30
0.0
 41
1.0
  0
SPLINE
  5
66
330
1F
100
AcDbEntity
  8
MAKE2D VISIBLE LINES
100
AcDbSpline
210
0.0
220
0.0
230
1.0
 70
    12
 71
     2
 72
     6
 73
     3
 74
     0
 42
0.0000000001
 43
0.0000000001
 40
0.0
 40
0.0
 40
0.0
 40
15.70796326794067
 40
15.70796326794067
 40
15.70796326794067
 10
19225.82192340261
 20
24970.25434240371
 30
0.0
 41
1.0
 10
19225.8219234026
 20
24960.25434240372
 30
0.0
 41
0.7071067811869923
 10
19215.82192340261
 20
24960.25434240372
 30
0.0
 41
1.0
  0
SPLINE
  5
67
330
1F
100
AcDbEntity
  8
MAKE2D VISIBLE LINES
100
AcDbSpline
210
0.0
220
0.0
230
1.0
 70
    12
 71
     2
 72
    26
 73
    23
 74
     0
 42
0.0000000001
 43
0.0000000001
 40
0.0
 40
0.0
 40
0.0
 40
0.2083666081469877
 40
0.2083666081469877
 40
0.3130089805781637
 40
0.3130089805781637
 40
0.3643332742049549
 40
0.3643332742049549
 40
0.4169095293691957
 40
0.4169095293691957
 40
1.248576239937438
 40
1.248576239937438
 40
1.456713409743361
 40
1.456713409743361
 40
1.508877235643058
 40
1.508877235643058
 40
1.561390240905939
 40
1.561390240905939
 40
3.017071906659158
 40
3.017071906659158
 40
3.641269951769619
 40
3.641269951769619
 40
24.79771811026881
 40
24.79771811026881
 40
24.79771811026881
 10
19184.23356936164
 20
25300.2235524537
 30
0.0
 41
1.0
 10
19184.12938606713
 20
25300.22360759161
 30
0.0
 41
0.9999999275625246
 10
19184.02520276083
 20
25300.22358342009
 30
0.0
 41
1.0
 10
19183.97288157466
 20
25300.22358596065
 30
0.0
 41
0.9999999993991139
 10
19183.92056038843
 20
25300.22358487361
 30
0.0
 41
1.0
 10
19183.89489824162
 20
25300.2235849394
 30
0.0
 41
0.9999999999979982
 10
19183.8692360948
 20
25300.22358490247
 30
0.0
 41
1.0
 10
19183.84294796722
 20
25300.22358491009
 30
0.0
 41
0.9999999999999629
 10
19183.81665983964
 20
25300.2235849034
 30
0.0
 41
1.0
 10
19183.40082648435
 20
25300.22358490575
 30
0.0
 41
1.0
 10
19182.98499312907
 20
25300.22358490205
 30
0.0
 41
1.0
 10
19182.88092454417
 20
25300.22358491701
 30
0.0
 41
1.0
 10
19182.77685595927
 20
25300.22358491712
 30
0.0
 41
1.0
 10
19182.75077404632
 20
25300.223584902
 30
0.0
 41
1.0
 10
19182.72469213336
 20
25300.22358490201
 30
0.0
 41
1.0
 10
19182.69843563073
 20
25300.22358490574
 30
0.0
 41
1.0
 10
19182.6721791281
 20
25300.22358490577
 30
0.0
 41
1.0
 10
19181.94433829522
 20
25300.22358449969
 30
0.0
 41
1.0
 10
19181.21649746235
 20
25300.22358449971
 30
0.0
 41
1.0
 10
19180.90439843979
 20
25300.22358449967
 30
0.0
 41
1.0
 10
19180.59229941724
 20
25300.22358449968
 30
0.0
 41
1.0
 10
19170.01407533799
 20
25300.22358068623
 30
0.0
 41
1.0
 10
19159.43585125874
 20
25300.22358068749
 30
0.0
 41
1.0
  0
SPLINE
  5
68
330
1F
100
AcDbEntity
  8
MAKE2D VISIBLE LINES
100
AcDbSpline
210
0.0
220
0.0
230
1.0
 70
    24
 71
     2
 72
     6
 73
     3
 74
     0
 42
0.0000000001
 43
0.0000000001
 40
0.0
 40
0.0
 40
0.0
 40
0.4632259343976838
 40
0.4632259343976838
 40
0.4632259343976838
 10
19159.43295762449
 20
25299.76036800949
 30
0.0
 10
19159.43440444161
 20
25299.99197645773
 30
0.0
 10
19159.43585125874
 20
25300.22358490597
 30
0.0
  0
SPLINE
  5
69
330
1F
100
AcDbEntity
  8
MAKE2D VISIBLE LINES
100
AcDbSpline
210
0.0
220
0.0
230
1.0
 70
    24
 71
     2
 72
     6
 73
     3
 74
     0
 42
0.0000000001
 43
0.0000000001
 40
0.0
 40
0.0
 40
0.0
 40
9.000000000001819
 40
9.000000000001819
 40
9.000000000001819
 10
18656.90635301127
 20
25316.52544265788
 30
0.0
 10
18661.40635301127
 20
25316.52544265788
 30
0.0
 10
18665.90635301127
 20
25316.52544265788
 30
0.0
  0
SPLINE
  5
6A
330
1F
100
AcDbEntity
  8
MAKE2D VISIBLE LINES
100
AcDbSpline
210
0.0
220
0.0
230
1.0
 70
    24
 71
     2
 72
     6
 73
     3
 74
     0
 42
0.0000000001
 43
0.0000000001
 40
0.0
 40
0.0
 40
0.0
 40
1.674886231940036
 40
1.674886231940036
 40
1.674886231940036
 10
18583.23146677933
 20
25316.52544265788
 30
0.0
 10
18584.0689098953
 20
25316.52544265788
 30
0.0
 10
18584.90635301127
 20
25316.52544265788
 30
0.0
  0
SPLINE
  5
6B
330
1F
100
AcDbEntity
  8
MAKE2D VISIBLE LINES
100
AcDbSpline
210
0.0
220
0.0
230
1.0
 70
    24
 71
     2
 72
     6
 73
     3
 74
     0
 42
0.0000000001
 43
0.0000000001
 40
0.0
 40
0.0
 40
0.0
 40
71.99999999999636
 40
71.99999999999636
 40
71.99999999999636
 10
18656.90635301127
 20
25316.52544265788
 30
0.0
 10
18620.90635301127
 20
25316.52544265788
 30
0.0
 10
18584.90635301127
 20
25316.52544265788
 30
0.0
  0
SPLINE
  5
6C
330
1F
100
AcDbEntity
  8
MAKE2D VISIBLE LINES
100
AcDbSpline
210
0.0
220
0.0
230
1.0
 70
    24
 71
     2
 72
     6
 73
     3
 74
     0
 42
0.0000000001
 43
0.0000000001
 40
0.0
 40
0.0
 40
0.0
 40
1.649831578815792
 40
1.649831578815792
 40
1.649831578815792
 10
18665.90635301127
 20
25314.87561107907
 30
0.0
 10
18665.90635301127
 20
25315.70052686847
 30
0.0
 10
18665.90635301127
 20
25316.52544265788
 30
0.0
  0
ENDSEC
  0
SECTION
  2
OBJECTS
  0
DICTIONARY
  5
C
330
0
100
AcDbDictionary
281
     1
  3
ACAD_GROUP
350
D
  3
ACAD_LAYOUT
350
1A
  3
ACAD_MLEADERSTYLE
350
6E
  3
ACAD_MLINESTYLE
350
17
  3
ACAD_PLOTSETTINGS
350
19
  3
ACAD_PLOTSTYLENAME
350
E
  3
ACAD_TABLESTYLE
350
6D
  3
ACAD_VISUALSTYLE
350
2A
  0
DICTIONARY
  5
D
102
{ACAD_REACTORS
330
C
102
}
330
C
100
AcDbDictionary
281
     1
  0
DICTIONARY
  5
1A
102
{ACAD_REACTORS
330
C
102
}
330
C
100
AcDbDictionary
281
     1
  3
Layout1
350
1E
  3
Layout2
350
26
  3
Model
350
22
  0
DICTIONARY
  5
6E
102
{ACAD_REACTORS
330
C
102
}
330
C
100
AcDbDictionary
281
     1
  0
DICTIONARY
  5
17
102
{ACAD_REACTORS
330
C
102
}
330
C
100
AcDbDictionary
281
     1
  3
Standard
350
18
  0
DICTIONARY
  5
19
102
{ACAD_REACTORS
330
C
102
}
330
C
100
AcDbDictionary
281
     1
  0
ACDBDICTIONARYWDFLT
  5
E
102
{ACAD_REACTORS
330
C
102
}
330
C
100
AcDbDictionary
281
     1
  3
Normal
350
F
100
AcDbDictionaryWithDefault
340
F
  0
DICTIONARY
  5
6D
102
{ACAD_REACTORS
330
C
102
}
330
C
100
AcDbDictionary
281
     1
  0
DICTIONARY
  5
2A
102
{ACAD_REACTORS
330
C
102
}
330
C
100
AcDbDictionary
281
     1
  3
2dWireframe
350
2F
  3
3D Hidden
350
31
  3
3dWireframe
350
30
  3
Basic
350
32
  3
Brighten
350
36
  3
ColorChange
350
3A
  3
Conceptual
350
34
  3
Dim
350
35
  3
Facepattern
350
39
  3
Flat
350
2B
  3
FlatWithEdges
350
2C
  3
Gouraud
350
2D
  3
GouraudWithEdges
350
2E
  3
Linepattern
350
38
  3
Realistic
350
33
  3
Thicken
350
37
  0
LAYOUT
  5
1E
102
{ACAD_REACTORS
330
1A
102
}
330
1A
100
AcDbPlotSettings
  1

  2
none_device
  4

  6

 40
0.0
 41
0.0
 42
0.0
 43
0.0
 44
0.0
 45
0.0
 46
0.0
 47
0.0
 48
0.0
 49
0.0
140
0.0
141
0.0
142
1.0
143
1.0
 70
   688
 72
     0
 73
     0
 74
     5
  7

 75
    16
 76
     0
 77
     2
 78
   300
147
1.0
148
0.0
149
0.0
100
AcDbLayout
  1
Layout1
 70
     1
 71
     1
 10
0.0
 20
0.0
 11
12.0
 21
9.0
 12
0.0
 22
0.0
 32
0.0
 14
1.000000000000000E+20
 24
1.000000000000000E+20
 34
1.000000000000000E+20
 15
-1.000000000000000E+20
 25
-1.000000000000000E+20
 35
-1.000000000000000E+20
146
0.0
 13
0.0
 23
0.0
 33
0.0
 16
1.0
 26
0.0
 36
0.0
 17
0.0
 27
1.0
 37
0.0
 76
     0
330
1B
  0
LAYOUT
  5
26
102
{ACAD_REACTORS
330
1A
102
}
330
1A
100
AcDbPlotSettings
  1

  2
none_device
  4

  6

 40
0.0
 41
0.0
 42
0.0
 43
0.0
 44
0.0
 45
0.0
 46
0.0
 47
0.0
 48
0.0
 49
0.0
140
0.0
141
0.0
142
1.0
143
1.0
 70
   688
 72
     0
 73
     0
 74
     5
  7

 75
    16
 76
     0
 77
     2
 78
   300
147
1.0
148
0.0
149
0.0
100
AcDbLayout
  1
Layout2
 70
     1
 71
     2
 10
0.0
 20
0.0
 11
0.0
 21
0.0
 12
0.0
 22
0.0
 32
0.0
 14
0.0
 24
0.0
 34
0.0
 15
0.0
 25
0.0
 35
0.0
146
0.0
 13
0.0
 23
0.0
 33
0.0
 16
1.0
 26
0.0
 36
0.0
 17
0.0
 27
1.0
 37
0.0
 76
     0
330
23
  0
LAYOUT
  5
22
102
{ACAD_REACTORS
330
1A
102
}
330
1A
100
AcDbPlotSettings
  1

  2
none_device
  4

  6

 40
0.0
 41
0.0
 42
0.0
 43
0.0
 44
0.0
 45
0.0
 46
0.0
 47
0.0
 48
0.0
 49
0.0
140
0.0
141
0.0
142
1.0
143
1.0
 70
  1712
 72
     0
 73
     0
 74
     0
  7

 75
     0
 76
     0
 77
     2
 78
   300
147
1.0
148
0.0
149
0.0
100
AcDbLayout
  1
Model
 70
     1
 71
     0
 10
0.0
 20
0.0
 11
12.0
 21
9.0
 12
0.0
 22
0.0
 32
0.0
 14
18025.82192340261
 24
24960.25434240371
 34
0.0
 15
19225.82192340261
 25
25450.25434240372
 35
0.0
146
0.0
 13
0.0
 23
0.0
 33
0.0
 16
1.0
 26
0.0
 36
0.0
 17
0.0
 27
1.0
 37
0.0
 76
     0
330
1F
331
29
  0
MLINESTYLE
  5
18
102
{ACAD_REACTORS
330
17
102
}
330
17
100
AcDbMlineStyle
  2
Standard
 70
     0
  3

 62
   256
 51
90.0
 52
90.0
 71
     2
 49
0.5
 62
   256
  6
BYLAYER
 49
-0.5
 62
   256
  6
BYLAYER
  0
ACDBPLACEHOLDER
  5
F
102
{ACAD_REACTORS
330
E
102
}
330
E
  0
VISUALSTYLE
  5
2F
102
{ACAD_REACTORS
330
2A
102
}
330
2A
100
AcDbVisualStyle
  2
2dWireframe
 70
     4
 71
     0
 72
     2
 73
     0
 90
        0
 40
-0.6
 41
-30.0
 62
     5
 63
     7
421
 16777215
 74
     1
 91
        4
 64
     7
 65
   257
 75
     1
175
     1
 42
1.0
 92
        0
 66
   257
 43
1.0
 76
     1
 77
     6
 78
     2
 67
     7
 79
     5
170
     0
171
     0
290
     0
174
     0
 93
        1
 44
0.0
173
     0
291
     0
 45
0.0
1001
ACAD
1000
AcDbSavedByObjectVersion
1070
     0
  0
VISUALSTYLE
  5
31
102
{ACAD_REACTORS
330
2A
102
}
330
2A
100
AcDbVisualStyle
  2
3D Hidden
 70
     6
 71
     1
 72
     2
 73
     2
 90
        0
 40
-0.6
 41
-30.0
 62
     5
 63
     7
421
 16777215
 74
     2
 91
        2
 64
     7
 65
   257
 75
     2
175
     1
 42
40.0
 92
        0
 66
   257
 43
1.0
 76
     1
 77
     6
 78
     2
 67
     7
 79
     3
170
     0
171
     0
290
     0
174
     0
 93
        1
 44
0.0
173
     0
291
     0
 45
0.0
1001
ACAD
1000
AcDbSavedByObjectVersion
1070
     0
  0
VISUALSTYLE
  5
30
102
{ACAD_REACTORS
330
2A
102
}
330
2A
100
AcDbVisualStyle
  2
3dWireframe
 70
     5
 71
     0
 72
     2
 73
     0
 90
        0
 40
-0.6
 41
-30.0
 62
     5
 63
     7
421
 16777215
 74
     1
 91
        4
 64
     7
 65
   257
 75
     1
175
     1
 42
1.0
 92
        0
 66
   257
 43
1.0
 76
     1
 77
     6
 78
     2
 67
     7
 79
     5
170
     0
171
     0
290
     0
174
     0
 93
        1
 44
0.0
173
     0
291
     0
 45
0.0
1001
ACAD
1000
AcDbSavedByObjectVersion
1070
     0
  0
VISUALSTYLE
  5
32
102
{ACAD_REACTORS
330
2A
102
}
330
2A
100
AcDbVisualStyle
  2
Basic
 70
     7
 71
     1
 72
     0
 73
     1
 90
        0
 40
-0.6
 41
-30.0
 62
     5
 63
     7
421
 16777215
 74
     0
 91
        4
 64
     7
 65
   257
 75
     1
175
     1
 42
1.0
 92
        8
 66
     7
 43
1.0
 76
     1
 77
     6
 78
     2
 67
     7
 79
     5
170
     0
171
     0
290
     0
174
     0
 93
        1
 44
0.0
173
     0
291
     1
 45
0.0
1001
ACAD
1000
AcDbSavedByObjectVersion
1070
     0
  0
VISUALSTYLE
  5
36
102
{ACAD_REACTORS
330
2A
102
}
330
2A
100
AcDbVisualStyle
  2
Brighten
 70
    12
 71
     2
 72
     2
 73
     0
 90
        0
 40
-0.6
 41
-30.0
 62
     5
 63
     7
421
 16777215
 74
     1
 91
        4
 64
     7
 65
   257
 75
     1
175
     1
 42
1.0
 92
        8
 66
     7
 43
1.0
 76
     1
 77
     6
 78
     2
 67
     7
 79
     5
170
     0
171
     0
290
     0
174
     0
 93
        1
 44
50.0
173
     0
291
     1
 45
0.0
1001
ACAD
1000
AcDbSavedByObjectVersion
1070
     0
  0
VISUALSTYLE
  5
3A
102
{ACAD_REACTORS
330
2A
102
}
330
2A
100
AcDbVisualStyle
  2
ColorChange
 70
    16
 71
     2
 72
     2
 73
     3
 90
        0
 40
-0.6
 41
-30.0
 62
     5
 63
     8
421
  8421504
 74
     1
 91
        4
 64
     7
 65
   257
 75
     1
175
     1
 42
1.0
 92
        8
 66
     8
424
  8421504
 43
1.0
 76
     1
 77
     6
 78
     2
 67
     7
 79
     5
170
     0
171
     0
290
     0
174
     0
 93
        1
 44
0.0
173
     0
291
     1
 45
0.0
1001
ACAD
1000
AcDbSavedByObjectVersion
1070
     0
  0
VISUALSTYLE
  5
34
102
{ACAD_REACTORS
330
2A
102
}
330
2A
100
AcDbVisualStyle
  2
Conceptual
 70
     9
 71
     3
 72
     2
 73
     0
 90
        0
 40
-0.6
 41
-30.0
 62
     5
 63
     7
421
 16777215
 74
     2
 91
        2
 64
     7
 65
   257
 75
     1
175
     1
 42
40.0
 92
        8
 66
     7
 43
1.0
 76
     1
 77
     6
 78
     2
 67
     7
 79
     3
170
     0
171
     0
290
     0
174
     0
 93
        1
 44
0.0
173
     0
291
     0
 45
0.0
1001
ACAD
1000
AcDbSavedByObjectVersion
1070
     0
  0
VISUALSTYLE
  5
35
102
{ACAD_REACTORS
330
2A
102
}
330
2A
100
AcDbVisualStyle
  2
Dim
 70
    11
 71
     2
 72
     2
 73
     0
 90
        0
 40
-0.6
 41
-30.0
 62
     5
 63
     7
421
 16777215
 74
     1
 91
        4
 64
     7
 65
   257
 75
     1
175
     1
 42
1.0
 92
        8
 66
     7
 43
1.0
 76
     1
 77
     6
 78
     2
 67
     7
 79
     5
170
     0
171
     0
290
     0
174
     0
 93
        1
 44
-50.0
173
     0
291
     1
 45
0.0
1001
ACAD
1000
AcDbSavedByObjectVersion
1070
     0
  0
VISUALSTYLE
  5
39
102
{ACAD_REACTORS
330
2A
102
}
330
2A
100
AcDbVisualStyle
  2
Facepattern
 70
    15
 71
     2
 72
     2
 73
     0
 90
        0
 40
-0.6
 41
-30.0
 62
     5
 63
     7
421
 16777215
 74
     1
 91
        4
 64
     7
 65
   257
 75
     1
175
     1
 42
1.0
 92
        8
 66
     7
 43
1.0
 76
     1
 77
     6
 78
     2
 67
     7
 79
     5
170
     0
171
     0
290
     0
174
     0
 93
        1
 44
0.0
173
     0
291
     1
 45
0.0
1001
ACAD
1000
AcDbSavedByObjectVersion
1070
     0
  0
VISUALSTYLE
  5
2B
102
{ACAD_REACTORS
330
2A
102
}
330
2A
100
AcDbVisualStyle
  2
Flat
 70
     0
 71
     2
 72
     1
 73
     1
 90
        2
 40
-0.6
 41
30.0
 62
     5
 63
     7
421
 16777215
 74
     0
 91
        4
 64
     7
 65
   257
 75
     1
175
     1
 42
1.0
 92
        8
 66
     7
 43
1.0
 76
     1
 77
     6
 78
     2
 67
     7
 79
     5
170
     0
171
     0
290
     0
174
     0
 93
       13
 44
0.0
173
     0
291
     1
 45
0.0
1001
ACAD
1000
AcDbSavedByObjectVersion
1070
     0
  0
VISUALSTYLE
  5
2C
102
{ACAD_REACTORS
330
2A
102
}
330
2A
100
AcDbVisualStyle
  2
FlatWithEdges
 70
     1
 71
     2
 72
     1
 73
     1
 90
        2
 40
-0.6
 41
30.0
 62
     5
 63
     7
421
 16777215
 74
     1
 91
        4
 64
     7
 65
   257
 75
     1
175
     1
 42
1.0
 92
        0
 66
   257
 43
1.0
 76
     1
 77
     6
 78
     2
 67
     7
 79
     5
170
     0
171
     0
290
     0
174
     0
 93
       13
 44
0.0
173
     0
291
     1
 45
0.0
1001
ACAD
1000
AcDbSavedByObjectVersion
1070
     0
  0
VISUALSTYLE
  5
2D
102
{ACAD_REACTORS
330
2A
102
}
330
2A
100
AcDbVisualStyle
  2
Gouraud
 70
     2
 71
     2
 72
     2
 73
     1
 90
        2
 40
-0.6
 41
30.0
 62
     5
 63
     7
421
 16777215
 74
     0
 91
        4
 64
     7
 65
   257
 75
     1
175
     1
 42
1.0
 92
        0
 66
     7
 43
1.0
 76
     1
 77
     6
 78
     2
 67
     7
 79
     5
170
     0
171
     0
290
     0
174
     0
 93
       13
 44
0.0
173
     0
291
     1
 45
0.0
1001
ACAD
1000
AcDbSavedByObjectVersion
1070
     0
  0
VISUALSTYLE
  5
2E
102
{ACAD_REACTORS
330
2A
102
}
330
2A
100
AcDbVisualStyle
  2
GouraudWithEdges
 70
     3
 71
     2
 72
     2
 73
     1
 90
        2
 40
-0.6
 41
30.0
 62
     5
 63
     7
421
 16777215
 74
     1
 91
        4
 64
     7
 65
   257
 75
     1
175
     1
 42
1.0
 92
        0
 66
   257
 43
1.0
 76
     1
 77
     6
 78
     2
 67
     7
 79
     5
170
     0
171
     0
290
     0
174
     0
 93
       13
 44
0.0
173
     0
291
     1
 45
0.0
1001
ACAD
1000
AcDbSavedByObjectVersion
1070
     0
  0
VISUALSTYLE
  5
38
102
{ACAD_REACTORS
330
2A
102
}
330
2A
100
AcDbVisualStyle
  2
Linepattern
 70
    14
 71
     2
 72
     2
 73
     0
 90
        0
 40
-0.6
 41
-30.0
 62
     5
 63
     7
421
 16777215
 74
     1
 91
        4
 64
     7
 65
   257
 75
     7
175
     7
 42
1.0
 92
        8
 66
     7
 43
1.0
 76
     1
 77
     6
 78
     2
 67
     7
 79
     5
170
     0
171
     0
290
     0
174
     0
 93
        1
 44
0.0
173
     0
291
     1
 45
0.0
1001
ACAD
1000
AcDbSavedByObjectVersion
1070
     0
  0
VISUALSTYLE
  5
33
102
{ACAD_REACTORS
330
2A
102
}
330
2A
100
AcDbVisualStyle
  2
Realistic
 70
     8
 71
     2
 72
     2
 73
     0
 90
        0
 40
-0.6
 41
-30.0
 62
     5
 63
     7
421
 16777215
 74
     1
 91
        0
 64
     7
 65
   257
 75
     1
175
     1
 42
1.0
 92
        8
 66
     8
424
  7895160
 43
1.0
 76
     1
 77
     6
 78
     2
 67
     7
 79
     5
170
     0
171
     0
290
     0
174
     0
 93
       13
 44
0.0
173
     0
291
     0
 45
0.0
1001
ACAD
1000
AcDbSavedByObjectVersion
1070
     0
  0
VISUALSTYLE
  5
37
102
{ACAD_REACTORS
330
2A
102
}
330
2A
100
AcDbVisualStyle
  2
Thicken
 70
    13
 71
     2
 72
     2
 73
     0
 90
        0
 40
-0.6
 41
-30.0
 62
     5
 63
     7
421
 16777215
 74
     1
 91
        4
 64
     7
 65
   257
 75
     1
175
     1
 42
1.0
 92
       12
 66
     7
 43
1.0
 76
     1
 77
     6
 78
     2
 67
     7
 79
     5
170
     0
171
     0
290
     0
174
     0
 93
        1
 44
0.0
173
     0
291
     1
 45
0.0
1001
ACAD
1000
AcDbSavedByObjectVersion
1070
     0
  0
ENDSEC
  0
EOF
