  0
SECTION
  2
HEADER
  9
$ACADVER
  1
AC1018
  9
$ACADMAINTVER
 70
     0
  9
$DWGCODEPAGE
  3
ANSI_936
  9
$INSBASE
 10
0.0
 20
0.0
 30
0.0
  9
$EXTMIN
 10
1.000000000000000E+20
 20
1.000000000000000E+20
 30
1.000000000000000E+20
  9
$EXTMAX
 10
-1.000000000000000E+20
 20
-1.000000000000000E+20
 30
-1.000000000000000E+20
  9
$LIMMIN
 10
0.0
 20
0.0
  9
$LIMMAX
 10
12.0
 20
9.0
  9
$ORTHOMODE
 70
     0
  9
$REGENMODE
 70
     1
  9
$FILLMODE
 70
     1
  9
$QTEXTMODE
 70
     0
  9
$MIRRTEXT
 70
     1
  9
$LTSCALE
 40
1.0
  9
$ATTMODE
 70
     1
  9
$TEXTSIZE
 40
0.2
  9
$TRACEWID
 40
0.05
  9
$TEXTSTYLE
  7
Standard
  9
$CLAYER
  8
0
  9
$CELTYPE
  6
ByLayer
  9
$CECOLOR
 62
   256
  9
$CELTSCALE
 40
1.0
  9
$DISPSILH
 70
     0
  9
$DIMSCALE
 40
1.0
  9
$DIMASZ
 40
0.18
  9
$DIMEXO
 40
0.0625
  9
$DIMDLI
 40
0.38
  9
$DIMRND
 40
0.0
  9
$DIMDLE
 40
0.0
  9
$DIMEXE
 40
0.18
  9
$DIMTP
 40
0.0
  9
$DIMTM
 40
0.0
  9
$DIMTXT
 40
0.18
  9
$DIMCEN
 40
0.09
  9
$DIMTSZ
 40
0.0
  9
$DIMTOL
 70
     0
  9
$DIMLIM
 70
     0
  9
$DIMTIH
 70
     1
  9
$DIMTOH
 70
     1
  9
$DIMSE1
 70
     0
  9
$DIMSE2
 70
     0
  9
$DIMTAD
 70
     0
  9
$DIMZIN
 70
     0
  9
$DIMBLK
  1

  9
$DIMASO
 70
     1
  9
$DIMSHO
 70
     1
  9
$DIMPOST
  1

  9
$DIMAPOST
  1

  9
$DIMALT
 70
     0
  9
$DIMALTD
 70
     2
  9
$DIMALTF
 40
25.4
  9
$DIMLFAC
 40
1.0
  9
$DIMTOFL
 70
     0
  9
$DIMTVP
 40
0.0
  9
$DIMTIX
 70
     0
  9
$DIMSOXD
 70
     0
  9
$DIMSAH
 70
     0
  9
$DIMBLK1
  1

  9
$DIMBLK2
  1

  9
$DIMSTYLE
  2
STANDARD_ACAD
  9
$DIMCLRD
 70
     0
  9
$DIMCLRE
 70
     0
  9
$DIMCLRT
 70
     0
  9
$DIMTFAC
 40
1.0
  9
$DIMGAP
 40
0.09
  9
$DIMJUST
 70
     0
  9
$DIMSD1
 70
     0
  9
$DIMSD2
 70
     0
  9
$DIMTOLJ
 70
     1
  9
$DIMTZIN
 70
     0
  9
$DIMALTZ
 70
     0
  9
$DIMALTTZ
 70
     0
  9
$DIMUPT
 70
     0
  9
$DIMDEC
 70
     4
  9
$DIMTDEC
 70
     4
  9
$DIMALTU
 70
     2
  9
$DIMALTTD
 70
     2
  9
$DIMTXSTY
  7
Standard
  9
$DIMAUNIT
 70
     0
  9
$DIMADEC
 70
     0
  9
$DIMALTRND
 40
0.0
  9
$DIMAZIN
 70
     0
  9
$DIMDSEP
 70
    46
  9
$DIMATFIT
 70
     3
  9
$DIMFRAC
 70
     0
  9
$DIMLDRBLK
  1

  9
$DIMLUNIT
 70
     2
  9
$DIMLWD
 70
    -2
  9
$DIMLWE
 70
    -2
  9
$DIMTMOVE
 70
     2
  9
$LUNITS
 70
     2
  9
$LUPREC
 70
     3
  9
$SKETCHINC
 40
0.1
  9
$FILLETRAD
 40
0.5
  9
$AUNITS
 70
     0
  9
$AUPREC
 70
     0
  9
$MENU
  1
.
  9
$ELEVATION
 40
0.0
  9
$PELEVATION
 40
0.0
  9
$THICKNESS
 40
0.0
  9
$LIMCHECK
 70
     0
  9
$CHAMFERA
 40
0.0
  9
$CHAMFERB
 40
0.0
  9
$CHAMFERC
 40
0.0
  9
$CHAMFERD
 40
0.0
  9
$SKPOLY
 70
     0
  9
$TDCREATE
 40
2458553.732764201
  9
$TDUCREATE
 40
2458553.399430868
  9
$TDUPDATE
 40
2458553.732764259
  9
$TDUUPDATE
 40
2458553.399430926
  9
$TDINDWG
 40
0.0000000116
  9
$TDUSRTIMER
 40
0.0000000116
  9
$USRTIMER
 70
     1
  9
$ANGBASE
 50
0.0
  9
$ANGDIR
 70
     0
  9
$PDMODE
 70
     0
  9
$PDSIZE
 40
0.0
  9
$PLINEWID
 40
0.0
  9
$SPLFRAME
 70
     0
  9
$SPLINETYPE
 70
     6
  9
$SPLINESEGS
 70
     8
  9
$HANDSEED
  5
1B9
  9
$SURFTAB1
 70
     6
  9
$SURFTAB2
 70
     6
  9
$SURFTYPE
 70
     6
  9
$SURFU
 70
     6
  9
$SURFV
 70
     6
  9
$UCSBASE
  2

  9
$UCSNAME
  2

  9
$UCSORG
 10
0.0
 20
0.0
 30
0.0
  9
$UCSXDIR
 10
1.0
 20
0.0
 30
0.0
  9
$UCSYDIR
 10
0.0
 20
1.0
 30
0.0
  9
$UCSORTHOREF
  2

  9
$UCSORTHOVIEW
 70
     0
  9
$UCSORGTOP
 10
0.0
 20
0.0
 30
0.0
  9
$UCSORGBOTTOM
 10
0.0
 20
0.0
 30
0.0
  9
$UCSORGLEFT
 10
0.0
 20
0.0
 30
0.0
  9
$UCSORGRIGHT
 10
0.0
 20
0.0
 30
0.0
  9
$UCSORGFRONT
 10
0.0
 20
0.0
 30
0.0
  9
$UCSORGBACK
 10
0.0
 20
0.0
 30
0.0
  9
$PUCSBASE
  2

  9
$PUCSNAME
  2

  9
$PUCSORG
 10
0.0
 20
0.0
 30
0.0
  9
$PUCSXDIR
 10
1.0
 20
0.0
 30
0.0
  9
$PUCSYDIR
 10
0.0
 20
1.0
 30
0.0
  9
$PUCSORTHOREF
  2

  9
$PUCSORTHOVIEW
 70
     0
  9
$PUCSORGTOP
 10
0.0
 20
0.0
 30
0.0
  9
$PUCSORGBOTTOM
 10
0.0
 20
0.0
 30
0.0
  9
$PUCSORGLEFT
 10
0.0
 20
0.0
 30
0.0
  9
$PUCSORGRIGHT
 10
0.0
 20
0.0
 30
0.0
  9
$PUCSORGFRONT
 10
0.0
 20
0.0
 30
0.0
  9
$PUCSORGBACK
 10
0.0
 20
0.0
 30
0.0
  9
$USERI1
 70
     0
  9
$USERI2
 70
     0
  9
$USERI3
 70
     0
  9
$USERI4
 70
     0
  9
$USERI5
 70
     0
  9
$USERR1
 40
0.0
  9
$USERR2
 40
0.0
  9
$USERR3
 40
0.0
  9
$USERR4
 40
0.0
  9
$USERR5
 40
0.0
  9
$WORLDVIEW
 70
     1
  9
$SHADEDGE
 70
     3
  9
$SHADEDIF
 70
    70
  9
$TILEMODE
 70
     1
  9
$MAXACTVP
 70
    64
  9
$PINSBASE
 10
0.0
 20
0.0
 30
0.0
  9
$PLIMCHECK
 70
     0
  9
$PEXTMIN
 10
1.000000000000000E+20
 20
1.000000000000000E+20
 30
1.000000000000000E+20
  9
$PEXTMAX
 10
-1.000000000000000E+20
 20
-1.000000000000000E+20
 30
-1.000000000000000E+20
  9
$PLIMMIN
 10
0.0
 20
0.0
  9
$PLIMMAX
 10
12.0
 20
9.0
  9
$UNITMODE
 70
     0
  9
$VISRETAIN
 70
     1
  9
$PLINEGEN
 70
     0
  9
$PSLTSCALE
 70
     1
  9
$TREEDEPTH
 70
  3020
  9
$CMLSTYLE
  2
Standard
  9
$CMLJUST
 70
     0
  9
$CMLSCALE
 40
1.0
  9
$PROXYGRAPHICS
 70
     1
  9
$MEASUREMENT
 70
     0
  9
$CELWEIGHT
370
    -1
  9
$ENDCAPS
280
     0
  9
$JOINSTYLE
280
     0
  9
$LWDISPLAY
290
     0
  9
$INSUNITS
 70
     4
  9
$HYPERLINKBASE
  1

  9
$STYLESHEET
  1

  9
$XEDIT
290
     1
  9
$CEPSNTYPE
380
     0
  9
$PSTYLEMODE
290
     1
  9
$FINGERPRINTGUID
  2
{0d868fed-af44-4d8b-8e2f-8bba7c3eec8a}
  9
$VERSIONGUID
  2
{FAEB1C32-E019-11D5-929B-00C0DF256EC4}
  9
$EXTNAMES
290
     1
  9
$PSVPSCALE
 40
0.0
  9
$OLESTARTUP
290
     0
  9
$SORTENTS
280
   127
  9
$INDEXCTL
280
     0
  9
$HIDETEXT
280
     1
  9
$XCLIPFRAME
290
     0
  9
$HALOGAP
280
     0
  9
$OBSCOLOR
 70
   257
  9
$OBSLTYPE
280
     0
  9
$INTERSECTIONDISPLAY
280
     0
  9
$INTERSECTIONCOLOR
 70
   257
  9
$DIMASSOC
280
     2
  9
$PROJECTNAME
  1

  0
ENDSEC
  0
SECTION
  2
CLASSES
  0
CLASS
  1
ACDBDICTIONARYWDFLT
  2
AcDbDictionaryWithDefault
  3
ObjectDBX Classes
 90
        0
 91
        3
280
     0
281
     0
  0
CLASS
  1
VISUALSTYLE
  2
AcDbVisualStyle
  3
ObjectDBX Classes
 90
     4095
 91
        3
280
     0
281
     0
  0
CLASS
  1
MATERIAL
  2
AcDbMaterial
  3
ObjectDBX Classes
 90
     1153
 91
        3
280
     0
281
     0
  0
CLASS
  1
SCALE
  2
AcDbScale
  3
ObjectDBX Classes
 90
     1153
 91
        3
280
     0
281
     0
  0
CLASS
  1
TABLESTYLE
  2
AcDbTableStyle
  3
ObjectDBX Classes
 90
     4095
 91
        3
280
     0
281
     0
  0
CLASS
  1
MLEADERSTYLE
  2
AcDbMLeaderStyle
  3
ACDB_MLEADERSTYLE_CLASS
 90
     4095
 91
        3
280
     0
281
     0
  0
CLASS
  1
SUN
  2
AcDbSun
  3
SCENEOE
 90
     1153
 91
        3
280
     0
281
     0
  0
CLASS
  1
DICTIONARYVAR
  2
AcDbDictionaryVar
  3
ObjectDBX Classes
 90
        0
 91
        3
280
     0
281
     0
  0
CLASS
  1
CELLSTYLEMAP
  2
AcDbCellStyleMap
  3
ObjectDBX Classes
 90
     1152
 91
        3
280
     0
281
     0
  0
ENDSEC
  0
SECTION
  2
TABLES
  0
TABLE
  2
VPORT
  5
8
102
{ACAD_XDICTIONARY
360
172
102
}
330
0
100
AcDbSymbolTable
 70
     1
  0
VPORT
  5
29
330
8
100
AcDbSymbolTableRecord
100
AcDbViewportTableRecord
  2
*Active
 70
     0
 10
0.0
 20
0.0
 11
1.0
 21
1.0
 12
10.42990654205607
 22
4.5
 13
0.0
 23
0.0
 14
0.5
 24
0.5
 15
0.5
 25
0.5
 16
0.0
 26
0.0
 36
1.0
 17
0.0
 27
0.0
 37
0.0
 40
9.0
 41
1.972972972850329
 42
50.0
 43
0.0
 44
0.0
 50
0.0
 51
0.0
 71
     0
 72
   100
 73
     1
 74
     3
 75
     0
 76
     0
 77
     0
 78
     0
281
     0
 65
     1
110
0.0
120
0.0
130
0.0
111
1.0
121
0.0
131
0.0
112
0.0
122
1.0
132
0.0
 79
     0
146
0.0
  0
ENDTAB
  0
TABLE
  2
LTYPE
  5
5
330
0
100
AcDbSymbolTable
 70
     1
  0
LTYPE
  5
14
330
5
100
AcDbSymbolTableRecord
100
AcDbLinetypeTableRecord
  2
ByBlock
 70
     0
  3

 72
    65
 73
     0
 40
0.0
  0
LTYPE
  5
15
330
5
100
AcDbSymbolTableRecord
100
AcDbLinetypeTableRecord
  2
ByLayer
 70
     0
  3

 72
    65
 73
     0
 40
0.0
  0
LTYPE
  5
16
330
5
100
AcDbSymbolTableRecord
100
AcDbLinetypeTableRecord
  2
Continuous
 70
     0
  3
Solid line
 72
    65
 73
     0
 40
0.0
  0
ENDTAB
  0
TABLE
  2
LAYER
  5
2
330
0
100
AcDbSymbolTable
 70
     2
  0
LAYER
  5
10
330
2
100
AcDbSymbolTableRecord
100
AcDbLayerTableRecord
  2
0
 70
     0
 62
     7
  6
Continuous
370
    -3
390
F
  0
LAYER
  5
6E
330
2
100
AcDbSymbolTableRecord
100
AcDbLayerTableRecord
  2
Make2D$Visible$Curves
 70
     0
 62
    18
420
        0
  6
Continuous
370
    -3
390
F
  0
ENDTAB
  0
TABLE
  2
STYLE
  5
3
330
0
100
AcDbSymbolTable
 70
     1
  0
STYLE
  5
11
330
3
100
AcDbSymbolTableRecord
100
AcDbTextStyleTableRecord
  2
Standard
 70
     0
 40
0.0
 41
1.0
 50
0.0
 71
     0
 42
0.2
  3
txt
  4

  0
ENDTAB
  0
TABLE
  2
VIEW
  5
6
330
0
100
AcDbSymbolTable
 70
     0
  0
ENDTAB
  0
TABLE
  2
UCS
  5
7
330
0
100
AcDbSymbolTable
 70
     0
  0
ENDTAB
  0
TABLE
  2
APPID
  5
9
330
0
100
AcDbSymbolTable
 70
     2
  0
APPID
  5
12
330
9
100
AcDbSymbolTableRecord
100
AcDbRegAppTableRecord
  2
ACAD
 70
     0
  0
APPID
  5
1B1
330
9
100
AcDbSymbolTableRecord
100
AcDbRegAppTableRecord
  2
ACAD_MLEADERVER
 70
     0
  0
ENDTAB
  0
TABLE
  2
DIMSTYLE
  5
A
330
0
100
AcDbSymbolTable
 70
     1
100
AcDbDimStyleTable
  0
DIMSTYLE
105
27
330
A
100
AcDbSymbolTableRecord
100
AcDbDimStyleTableRecord
  2
STANDARD_ACAD
 70
     0
178
     0
340
11
  0
ENDTAB
  0
TABLE
  2
BLOCK_RECORD
  5
1
330
0
100
AcDbSymbolTable
 70
     1
  0
BLOCK_RECORD
  5
1F
330
1
100
AcDbSymbolTableRecord
100
AcDbBlockTableRecord
  2
*Model_Space
340
22
  0
BLOCK_RECORD
  5
1B
330
1
100
AcDbSymbolTableRecord
100
AcDbBlockTableRecord
  2
*Paper_Space
340
1E
  0
BLOCK_RECORD
  5
23
330
1
100
AcDbSymbolTableRecord
100
AcDbBlockTableRecord
  2
*Paper_Space0
340
26
  0
ENDTAB
  0
ENDSEC
  0
SECTION
  2
BLOCKS
  0
BLOCK
  5
20
330
1F
100
AcDbEntity
  8
0
100
AcDbBlockBegin
  2
*Model_Space
 70
     0
 10
0.0
 20
0.0
 30
0.0
  3
*Model_Space
  1

  0
ENDBLK
  5
21
330
1F
100
AcDbEntity
  8
0
100
AcDbBlockEnd
  0
BLOCK
  5
1C
330
1B
100
AcDbEntity
 67
     1
  8
0
100
AcDbBlockBegin
  2
*Paper_Space
 70
     0
 10
0.0
 20
0.0
 30
0.0
  3
*Paper_Space
  1

  0
ENDBLK
  5
1D
330
1B
100
AcDbEntity
 67
     1
  8
0
100
AcDbBlockEnd
  0
BLOCK
  5
24
330
23
100
AcDbEntity
  8
0
100
AcDbBlockBegin
  2
*Paper_Space0
 70
     0
 10
0.0
 20
0.0
 30
0.0
  3
*Paper_Space0
  1

  0
ENDBLK
  5
25
330
23
100
AcDbEntity
  8
0
100
AcDbBlockEnd
  0
ENDSEC
  0
SECTION
  2
ENTITIES
  0
ARC
  5
6F
330
1F
100
AcDbEntity
  8
Make2D$Visible$Curves
 62
    18
420
        0
370
    -3
100
AcDbCircle
 10
-153.7250022539332
 20
1353.064318377505
 30
0.0
 40
3.000000000001813
210
0.0
220
0.0
230
-1.0
100
AcDbArc
 50
315.0000000000127
 51
354.4999999991663
  0
LINE
  5
70
330
1F
100
AcDbEntity
  8
Make2D$Visible$Curves
 62
    18
420
        0
370
    -3
100
AcDbLine
 10
151.755003258242
 20
1350.801774703387
 30
0.0
 11
151.6036819103718
 21
1350.942998033945
 31
0.0
  0
LINE
  5
71
330
1F
100
AcDbEntity
  8
Make2D$Visible$Curves
 62
    18
420
        0
370
    -3
100
AcDbLine
 10
151.9153100141892
 20
1350.67161824491
 30
0.0
 11
151.755003258242
 21
1350.801774703387
 31
0.0
  0
LINE
  5
72
330
1F
100
AcDbEntity
  8
Make2D$Visible$Curves
 62
    18
420
        0
370
    -3
100
AcDbLine
 10
152.0833729937762
 20
1350.553331843848
 30
0.0
 11
151.9153100141892
 21
1350.67161824491
 31
0.0
  0
LINE
  5
73
330
1F
100
AcDbEntity
  8
Make2D$Visible$Curves
 62
    18
420
        0
370
    -3
100
AcDbLine
 10
152.2578772446597
 20
1350.447537120196
 30
0.0
 11
152.0833729937762
 21
1350.553331843848
 31
0.0
  0
LINE
  5
74
330
1F
100
AcDbEntity
  8
Make2D$Visible$Curves
 62
    18
420
        0
370
    -3
100
AcDbLine
 10
152.4374547787351
 20
1350.354664995989
 30
0.0
 11
152.2578772446597
 21
1350.447537120196
 31
0.0
  0
LINE
  5
75
330
1F
100
AcDbEntity
  8
Make2D$Visible$Curves
 62
    18
420
        0
370
    -3
100
AcDbLine
 10
152.6207181252461
 20
1350.274953474317
 30
0.0
 11
152.4374547787351
 21
1350.354664995989
 31
0.0
  0
LINE
  5
76
330
1F
100
AcDbEntity
  8
Make2D$Visible$Curves
 62
    18
420
        0
370
    -3
100
AcDbLine
 10
152.8062925387457
 20
1350.208452053738
 30
0.0
 11
152.6207181252461
 21
1350.274953474317
 31
0.0
  0
LINE
  5
77
330
1F
100
AcDbEntity
  8
Make2D$Visible$Curves
 62
    18
420
        0
370
    -3
100
AcDbLine
 10
152.9928455867783
 20
1350.155032110035
 30
0.0
 11
152.8062925387457
 21
1350.208452053738
 31
0.0
  0
LINE
  5
78
330
1F
100
AcDbEntity
  8
Make2D$Visible$Curves
 62
    18
420
        0
370
    -3
100
AcDbLine
 10
153.1791130966952
 20
1350.114402272255
 30
0.0
 11
152.9928455867783
 21
1350.155032110035
 31
0.0
  0
LINE
  5
79
330
1F
100
AcDbEntity
  8
Make2D$Visible$Curves
 62
    18
420
        0
370
    -3
100
AcDbLine
 10
153.3639207927544
 20
1350.086127621627
 30
0.0
 11
153.1791130966952
 21
1350.114402272255
 31
0.0
  0
LINE
  5
7A
330
1F
100
AcDbEntity
  8
Make2D$Visible$Curves
 62
    18
420
        0
370
    -3
100
AcDbLine
 10
153.5462006114327
 20
1350.069651455685
 30
0.0
 11
153.3639207927544
 21
1350.086127621627
 31
0.0
  0
LINE
  5
7B
330
1F
100
AcDbEntity
  8
Make2D$Visible$Curves
 62
    18
420
        0
370
    -3
100
AcDbLine
 10
153.7250022539316
 20
1350.064318377504
 30
0.0
 11
153.5462006114327
 21
1350.069651455685
 31
0.0
  0
SPLINE
  5
7C
330
1F
100
AcDbEntity
  8
Make2D$Visible$Curves
 62
    18
420
        0
370
    -3
100
AcDbSpline
210
0.0
220
0.0
230
1.0
 70
     8
 71
     3
 72
    25
 73
    21
 74
     0
 42
0.000000001
 43
0.0000000001
 40
32.31998894485201
 40
32.31998894485201
 40
32.31998894485201
 40
32.31998894485201
 40
34.01843754280776
 40
34.01843754280776
 40
34.01843754280776
 40
36.19769838559445
 40
36.19769838559445
 40
36.19769838559445
 40
38.06571651826012
 40
38.06571651826012
 40
38.7477487375239
 40
38.7477487375239
 40
39.36578684140275
 40
39.36578684140275
 40
40.08797245938364
 40
40.08797245938364
 40
40.08797245938364
 40
43.95744845153672
 40
43.95744845153672
 40
47.25292915868417
 40
47.25292915868417
 40
47.25292915868417
 40
47.25292915868417
 10
-16.66220364860499
 20
1443.262853075865
 30
0.0
 10
-16.66977068847439
 20
1443.288716185192
 30
0.0
 10
-16.69167084936873
 20
1443.366988439593
 30
0.0
 10
-16.75441998894451
 20
1443.545792919542
 30
0.0
 10
-16.83938921253264
 20
1443.787913814553
 30
0.0
 10
-16.98421213313293
 20
1444.183493254613
 30
0.0
 10
-17.28328969983443
 20
1444.753171429862
 30
0.0
 10
-17.52942338899754
 20
1445.222002952253
 30
0.0
 10
-17.86018508778955
 20
1445.745387540112
 30
0.0
 10
-18.36098690066626
 20
1446.38910346726
 30
0.0
 10
-18.50201677118878
 20
1446.558573618389
 30
0.0
 10
-18.78187407835514
 20
1446.872784891451
 30
0.0
 10
-18.92005227214361
 20
1447.018816983929
 30
0.0
 10
-19.22943319549961
 20
1447.326462522445
 30
0.0
 10
-19.40255394457643
 20
1447.486839013583
 30
0.0
 10
-19.58136934739412
 20
1447.641022527737
 30
0.0
 10
-20.54729133260059
 20
1448.473888397966
 30
0.0
 10
-21.67258442547256
 20
1449.118840303341
 30
0.0
 10
-23.92222840843067
 20
1449.883050348647
 30
0.0
 10
-25.00745474461257
 20
1450.062228370477
 30
0.0
 10
-26.09951611077611
 20
1450.062305500728
 30
0.0
  0
LINE
  5
7D
330
1F
100
AcDbEntity
  8
Make2D$Visible$Curves
 62
    18
420
        0
370
    -3
100
AcDbLine
 10
-16.65919279797629
 20
1443.25258763691
 30
0.0
 11
-16.66220364860499
 21
1443.262853075865
 31
0.0
  0
LINE
  5
7E
330
1F
100
AcDbEntity
  8
Make2D$Visible$Curves
 62
    18
420
        0
370
    -3
100
AcDbLine
 10
81.36981335060466
 20
1450.048568274732
 30
0.0
 11
81.05218502148375
 21
1450.056815916636
 31
0.0
  0
LINE
  5
7F
330
1F
100
AcDbEntity
  8
Make2D$Visible$Curves
 62
    18
420
        0
370
    -3
100
AcDbLine
 10
81.95719730806547
 20
1450.000363425105
 30
0.0
 11
81.36981335060466
 21
1450.048568274732
 31
0.0
  0
LINE
  5
80
330
1F
100
AcDbEntity
  8
Make2D$Visible$Curves
 62
    18
420
        0
370
    -3
100
AcDbLine
 10
82.55081881317994
 20
1449.915897586518
 30
0.0
 11
81.95719730806547
 21
1450.000363425105
 31
0.0
  0
LINE
  5
81
330
1F
100
AcDbEntity
  8
Make2D$Visible$Curves
 62
    18
420
        0
370
    -3
100
AcDbLine
 10
83.1474753028707
 20
1449.793843132157
 30
0.0
 11
82.55081881317994
 21
1449.915897586518
 31
0.0
  0
LINE
  5
82
330
1F
100
AcDbEntity
  8
Make2D$Visible$Curves
 62
    18
420
        0
370
    -3
100
AcDbLine
 10
83.74371820349222
 20
1449.633239184448
 30
0.0
 11
83.1474753028707
 21
1449.793843132157
 31
0.0
  0
LINE
  5
83
330
1F
100
AcDbEntity
  8
Make2D$Visible$Curves
 62
    18
420
        0
370
    -3
100
AcDbLine
 10
84.33590769398882
 20
1449.433538945141
 30
0.0
 11
83.74371820349222
 21
1449.633239184448
 31
0.0
  0
LINE
  5
84
330
1F
100
AcDbEntity
  8
Make2D$Visible$Curves
 62
    18
420
        0
370
    -3
100
AcDbLine
 10
84.92027489271811
 20
1449.194648389613
 30
0.0
 11
84.33590769398882
 21
1449.433538945141
 31
0.0
  0
LINE
  5
85
330
1F
100
AcDbEntity
  8
Make2D$Visible$Curves
 62
    18
420
        0
370
    -3
100
AcDbLine
 10
85.492992276584
 20
1448.916953843799
 30
0.0
 11
84.92027489271811
 21
1449.194648389613
 31
0.0
  0
LINE
  5
86
330
1F
100
AcDbEntity
  8
Make2D$Visible$Curves
 62
    18
420
        0
370
    -3
100
AcDbLine
 10
86.05025021529116
 20
1448.601336359142
 30
0.0
 11
85.492992276584
 21
1448.916953843799
 31
0.0
  0
LINE
  5
87
330
1F
100
AcDbEntity
  8
Make2D$Visible$Curves
 62
    18
420
        0
370
    -3
100
AcDbLine
 10
86.5883367391258
 20
1448.249171395291
 30
0.0
 11
86.05025021529116
 21
1448.601336359142
 31
0.0
  0
LINE
  5
88
330
1F
100
AcDbEntity
  8
Make2D$Visible$Curves
 62
    18
420
        0
370
    -3
100
AcDbLine
 10
87.10371723797459
 20
1447.862313076199
 30
0.0
 11
86.5883367391258
 21
1448.249171395291
 31
0.0
  0
ARC
  5
89
330
1F
100
AcDbEntity
  8
Make2D$Visible$Curves
 62
    18
420
        0
370
    -3
100
AcDbCircle
 10
80.8459673961685
 20
1440.062316783922
 30
0.0
 40
9.999968762059373
100
AcDbArc
 50
10.5894485374683
 51
51.26076454463377
  0
ARC
  5
8A
330
1F
100
AcDbEntity
  8
Make2D$Visible$Curves
 62
    18
420
        0
370
    -3
100
AcDbCircle
 10
-237.7419872006914
 20
-1136.994802827018
 30
0.0
 40
2553.900243920168
100
AcDbArc
 50
81.7554160412679
 51
82.19425930817489
  0
SPLINE
  5
8B
330
1F
100
AcDbEntity
  8
Make2D$Visible$Curves
 62
    18
420
        0
370
    -3
100
AcDbSpline
210
0.0
220
0.0
230
1.0
 70
     8
 71
     3
 72
    50
 73
    46
 74
     0
 42
0.000000001
 43
0.0000000001
 40
7.224517516444028
 40
7.224517516444028
 40
7.224517516444028
 40
7.224517516444028
 40
8.620918216037982
 40
8.620918216037982
 40
8.620918216037982
 40
10.01217834358476
 40
10.01217834358476
 40
10.01217834358476
 40
11.28115667756179
 40
11.28115667756179
 40
11.28115667756179
 40
12.47601235840232
 40
12.47601235840232
 40
12.47601235840232
 40
13.6360637849417
 40
13.6360637849417
 40
13.6360637849417
 40
14.18334863198252
 40
14.18334863198252
 40
14.18334863198252
 40
14.71310420682545
 40
14.71310420682545
 40
14.71310420682545
 40
15.21823951642031
 40
15.21823951642031
 40
15.21823951642031
 40
15.83476369435976
 40
15.83476369435976
 40
15.83476369435976
 40
16.58897114512282
 40
16.58897114512282
 40
16.58897114512282
 40
17.46511777733373
 40
17.46511777733373
 40
17.46511777733373
 40
19.48221181264189
 40
19.48221181264189
 40
19.48221181264189
 40
20.41474857238894
 40
20.41474857238894
 40
20.41474857238894
 40
21.22090929217079
 40
21.22090929217079
 40
21.22090929217079
 40
22.96267048854082
 40
22.96267048854082
 40
22.96267048854082
 40
22.96267048854082
 10
141.3241686316484
 20
1388.418508113453
 30
0.0
 10
140.9272565866294
 20
1388.492542300028
 30
0.0
 10
140.5335543225832
 20
1388.565966155109
 30
0.0
 10
140.1431894095432
 20
1388.638836075703
 30
0.0
 10
139.7647771103742
 20
1388.709474786487
 30
0.0
 10
139.3520875090229
 20
1388.786581221253
 30
0.0
 10
138.9658546454272
 20
1388.858343605531
 30
0.0
 10
138.602843666462
 20
1388.925791344513
 30
0.0
 10
138.2341666705735
 20
1388.993982154054
 30
0.0
 10
137.8489233694066
 20
1389.063761920103
 30
0.0
 10
137.4820478288126
 20
1389.130214702835
 30
0.0
 10
137.1326029168362
 20
1389.192240635814
 30
0.0
 10
136.7699352334827
 20
1389.255307924128
 30
0.0
 10
136.4343035934183
 20
1389.31367369087
 30
0.0
 10
136.0623487302245
 20
1389.377101723739
 30
0.0
 10
135.7115817863388
 20
1389.435160387386
 30
0.0
 10
135.541125440552
 20
1389.463374185234
 30
0.0
 10
135.3697742835985
 20
1389.491325346433
 30
0.0
 10
135.1986202831955
 20
1389.518839080597
 30
0.0
 10
135.0379200702195
 20
1389.54467232393
 30
0.0
 10
134.8615389248779
 20
1389.572640574288
 30
0.0
 10
134.6948773208413
 20
1389.598594276627
 30
0.0
 10
134.5258193033848
 20
1389.624921165105
 30
0.0
 10
134.3730816858373
 20
1389.648266941858
 30
0.0
 10
134.2056831993749
 20
1389.673439145039
 30
0.0
 10
134.0144854730753
 20
1389.702190109972
 30
0.0
 10
133.8244124943739
 20
1389.730239333124
 30
0.0
 10
133.6637842974136
 20
1389.753844297081
 30
0.0
 10
133.4608430958559
 20
1389.783667328397
 30
0.0
 10
133.2574499631404
 20
1389.813341739054
 30
0.0
 10
133.065813692859
 20
1389.841200583285
 30
0.0
 10
132.842131741428
 20
1389.873718021831
 30
0.0
 10
132.6275648682398
 20
1389.904782256085
 30
0.0
 10
132.4267064310214
 20
1389.933933748914
 30
0.0
 10
131.9663275233798
 20
1390.00075062059
 30
0.0
 10
131.4929443819195
 20
1390.069775537009
 30
0.0
 10
131.0537527380596
 20
1390.134437787644
 30
0.0
 10
130.854728269548
 20
1390.163740189558
 30
0.0
 10
130.6249854733443
 20
1390.197737543353
 30
0.0
 10
130.3926246259442
 20
1390.232007336945
 30
0.0
 10
130.1858745977407
 20
1390.262499912915
 30
0.0
 10
129.9791930316502
 20
1390.292865808985
 30
0.0
 10
129.7735994106237
 20
1390.322966608193
 30
0.0
 10
129.3370653542764
 20
1390.386879213614
 30
0.0
 10
128.8935006154435
 20
1390.451354140159
 30
0.0
 10
128.484937320875
 20
1390.510745267974
 30
0.0
  0
LINE
  5
8C
330
1F
100
AcDbEntity
  8
Make2D$Visible$Curves
 62
    18
420
        0
370
    -3
100
AcDbLine
 10
143.2011461501364
 20
1388.064528161396
 30
0.0
 11
141.3241686316484
 21
1388.418508113453
 31
0.0
  0
SPLINE
  5
8D
330
1F
100
AcDbEntity
  8
Make2D$Visible$Curves
 62
    18
420
        0
370
    -3
100
AcDbSpline
210
0.0
220
0.0
230
1.0
 70
     8
 71
     3
 72
    62
 73
    58
 74
     0
 42
0.000000001
 43
0.0000000001
 40
8.862990597360422
 40
8.862990597360422
 40
8.862990597360422
 40
8.862990597360422
 40
14.91749672740344
 40
14.91749672740344
 40
14.91749672740344
 40
20.9786883788377
 40
20.9786883788377
 40
20.9786883788377
 40
27.05261222706371
 40
27.05261222706371
 40
27.05261222706371
 40
33.13943534374263
 40
33.13943534374263
 40
33.13943534374263
 40
39.24165147479664
 40
39.24165147479664
 40
39.24165147479664
 40
45.36175024702948
 40
45.36175024702948
 40
45.36175024702948
 40
51.49627433690961
 40
51.49627433690961
 40
51.49627433690961
 40
57.64609517346089
 40
57.64609517346089
 40
57.64609517346089
 40
63.80931264245751
 40
63.80931264245751
 40
63.80931264245751
 40
69.72625149373215
 40
69.72625149373215
 40
69.72625149373215
 40
75.12511260943187
 40
75.12511260943187
 40
75.12511260943187
 40
79.95238689201321
 40
79.95238689201321
 40
79.95238689201321
 40
84.24328590790428
 40
84.24328590790428
 40
84.24328590790428
 40
88.09022456855807
 40
88.09022456855807
 40
88.09022456855807
 40
91.58541414219967
 40
91.58541414219967
 40
91.58541414219967
 40
94.71758614071042
 40
94.71758614071042
 40
94.71758614071042
 40
97.66114626226286
 40
97.66114626226286
 40
97.66114626226286
 40
100.7048880341679
 40
100.7048880341679
 40
100.7048880341679
 40
103.9789297047585
 40
103.9789297047585
 40
103.9789297047585
 40
103.9789297047585
 10
483.1773970074947
 20
1401.952518122294
 30
0.0
 10
483.0404960263267
 20
1401.945953609584
 30
0.0
 10
482.8929121889392
 20
1401.940874709017
 30
0.0
 10
482.7013191658647
 20
1401.935513755727
 30
0.0
 10
482.513038684648
 20
1401.930245490478
 30
0.0
 10
482.2939880162256
 20
1401.925223227152
 30
0.0
 10
482.0391558668226
 20
1401.920269659064
 30
0.0
 10
481.7841909069165
 20
1401.915313509332
 30
0.0
 10
481.4952910519916
 20
1401.910475172195
 30
0.0
 10
481.1712089190013
 20
1401.905715362773
 30
0.0
 10
480.8465430349137
 20
1401.900946979771
 30
0.0
 10
480.4871444381953
 20
1401.896267843395
 30
0.0
 10
480.0927166876787
 20
1401.891670906228
 30
0.0
 10
479.6973250674786
 20
1401.887062735449
 30
0.0
 10
479.2670035588325
 20
1401.882540750258
 30
0.0
 10
478.80172685583
 20
1401.878091816265
 30
0.0
 10
478.3351050653361
 20
1401.873630020666
 30
0.0
 10
477.8334106519943
 20
1401.869242668051
 30
0.0
 10
477.2970203782742
 20
1401.864941628597
 30
0.0
 10
476.7593682213704
 20
1401.860630470746
 30
0.0
 10
476.186954147492
 20
1401.856406853807
 30
0.0
 10
475.5801482795526
 20
1401.852260529557
 30
0.0
 10
474.9718348272316
 20
1401.848103903934
 30
0.0
 10
474.3290016380359
 20
1401.844025273917
 30
0.0
 10
473.6520360620883
 20
1401.840018394437
 30
0.0
 10
472.9736001016794
 20
1401.836002811925
 30
0.0
 10
472.2608840410645
 20
1401.832059309776
 30
0.0
 10
471.5145466754567
 20
1401.828202868486
 30
0.0
 10
470.7980261761835
 20
1401.824500495584
 30
0.0
 10
470.050578303396
 20
1401.82087868479
 30
0.0
 10
469.272694886835
 20
1401.817304560384
 30
0.0
 10
468.5629198151845
 20
1401.814043371943
 30
0.0
 10
467.8277555647468
 20
1401.810821660183
 30
0.0
 10
467.0677093919211
 20
1401.807676084201
 30
0.0
 10
466.3881228573088
 20
1401.804863503654
 30
0.0
 10
465.68869105022
 20
1401.802111990103
 30
0.0
 10
464.9696833862153
 20
1401.799404672438
 30
0.0
 10
464.3305644845858
 20
1401.796998164164
 30
0.0
 10
463.6759642263859
 20
1401.794626523837
 30
0.0
 10
463.0061210684356
 20
1401.792296431137
 30
0.0
 10
462.4055813166379
 20
1401.790207414813
 30
0.0
 10
461.7928028119353
 20
1401.788151839974
 30
0.0
 10
461.167959118355
 20
1401.786121081772
 30
0.0
 10
460.6002450139746
 20
1401.784275996216
 30
0.0
 10
460.0225615602907
 20
1401.782451366046
 30
0.0
 10
459.4350938964
 20
1401.780651103547
 30
0.0
 10
458.9086529701191
 20
1401.779037854145
 30
0.0
 10
458.3742971585515
 20
1401.777444003244
 30
0.0
 10
457.8323227578848
 20
1401.775867744207
 30
0.0
 10
457.3229511215171
 20
1401.774386305887
 30
0.0
 10
456.8066907086508
 20
1401.772919946361
 30
0.0
 10
456.2837431025847
 20
1401.771485019461
 30
0.0
 10
455.7429702384085
 20
1401.770001181461
 30
0.0
 10
455.194948480122
 20
1401.768550675909
 30
0.0
 10
454.6396856219602
 20
1401.767098519923
 30
0.0
 10
454.0423920117843
 20
1401.765536442649
 30
0.0
 10
453.4364473524089
 20
1401.763971747312
 30
0.0
 10
452.8233392244864
 20
1401.762447061838
 30
0.0
  0
SPLINE
  5
8E
330
1F
100
AcDbEntity
  8
Make2D$Visible$Curves
 62
    18
420
        0
370
    -3
100
AcDbSpline
210
0.0
220
0.0
230
1.0
 70
     8
 71
     3
 72
    17
 73
    13
 74
     0
 42
0.000000001
 43
0.0000000001
 40
0.1881991496039687
 40
0.1881991496039687
 40
0.1881991496039687
 40
0.1881991496039687
 40
0.6237562287311573
 40
0.6237562287311573
 40
1.270541305282423
 40
1.270541305282423
 40
1.807295625415295
 40
1.807295625415295
 40
2.801179072608857
 40
2.801179072608857
 40
2.801179072608857
 40
8.862990597360422
 40
8.862990597360422
 40
8.862990597360422
 40
8.862990597360422
 10
484.6633812248209
 20
1402.379773078937
 30
0.0
 10
484.5634382413879
 20
1402.314341412054
 30
0.0
 10
484.4649923398214
 20
1402.260060199596
 30
0.0
 10
484.2344275785048
 20
1402.149637754373
 30
0.0
 10
484.1220175018778
 20
1402.109977819704
 30
0.0
 10
483.9522694818319
 20
1402.05734490448
 30
0.0
 10
483.8913867211476
 20
1402.042155894684
 30
0.0
 10
483.7503046220983
 20
1402.009849630114
 30
0.0
 10
483.68704040052
 20
1401.999805630917
 30
0.0
 10
483.6403713025837
 20
1401.992804053597
 30
0.0
 10
483.4588427968903
 20
1401.965570060984
 30
0.0
 10
483.2630553729604
 20
1401.956625510159
 30
0.0
 10
483.1773970074947
 20
1401.952518122294
 30
0.0
  0
LINE
  5
8F
330
1F
100
AcDbEntity
  8
Make2D$Visible$Curves
 62
    18
420
        0
370
    -3
100
AcDbLine
 10
-237.1570463571786
 20
1387.775476171507
 30
0.0
 11
-237.2743126095189
 21
1387.792259516649
 31
0.0
  0
LINE
  5
90
330
1F
100
AcDbEntity
  8
Make2D$Visible$Curves
 62
    18
420
        0
370
    -3
100
AcDbLine
 10
-236.9447356425784
 20
1387.738509749767
 30
0.0
 11
-237.1570463571786
 21
1387.775476171507
 31
0.0
  0
LINE
  5
91
330
1F
100
AcDbEntity
  8
Make2D$Visible$Curves
 62
    18
420
        0
370
    -3
100
AcDbLine
 10
-236.8578073696937
 20
1387.721060193557
 30
0.0
 11
-236.9447356425784
 21
1387.738509749767
 31
0.0
  0
LINE
  5
92
330
1F
100
AcDbEntity
  8
Make2D$Visible$Curves
 62
    18
420
        0
370
    -3
100
AcDbLine
 10
-236.6012572778809
 20
1387.66161287654
 30
0.0
 11
-236.8578073696937
 21
1387.721060193557
 31
0.0
  0
LINE
  5
93
330
1F
100
AcDbEntity
  8
Make2D$Visible$Curves
 62
    18
420
        0
370
    -3
100
AcDbLine
 10
-236.5311509065585
 20
1387.643272960661
 30
0.0
 11
-236.6012572778809
 21
1387.66161287654
 31
0.0
  0
LINE
  5
94
330
1F
100
AcDbEntity
  8
Make2D$Visible$Curves
 62
    18
420
        0
370
    -3
100
AcDbLine
 10
-236.2032598608308
 20
1387.545220768247
 30
0.0
 11
-236.5311509065585
 21
1387.643272960661
 31
0.0
  0
LINE
  5
95
330
1F
100
AcDbEntity
  8
Make2D$Visible$Curves
 62
    18
420
        0
370
    -3
100
AcDbLine
 10
-235.9691262801369
 20
1387.462415037208
 30
0.0
 11
-236.2032598608308
 21
1387.545220768247
 31
0.0
  0
LINE
  5
96
330
1F
100
AcDbEntity
  8
Make2D$Visible$Curves
 62
    18
420
        0
370
    -3
100
AcDbLine
 10
-235.876500145734
 20
1387.426598301113
 30
0.0
 11
-235.9691262801369
 21
1387.462415037208
 31
0.0
  0
LINE
  5
97
330
1F
100
AcDbEntity
  8
Make2D$Visible$Curves
 62
    18
420
        0
370
    -3
100
AcDbLine
 10
-235.5529574995812
 20
1387.287257517975
 30
0.0
 11
-235.876500145734
 21
1387.426598301113
 31
0.0
  0
LINE
  5
98
330
1F
100
AcDbEntity
  8
Make2D$Visible$Curves
 62
    18
420
        0
370
    -3
100
AcDbLine
 10
-235.2346430824082
 20
1387.127248881626
 30
0.0
 11
-235.5529574995812
 21
1387.287257517975
 31
0.0
  0
LINE
  5
99
330
1F
100
AcDbEntity
  8
Make2D$Visible$Curves
 62
    18
420
        0
370
    -3
100
AcDbLine
 10
-234.9235377338874
 20
1386.946843088721
 30
0.0
 11
-235.2346430824082
 21
1387.127248881626
 31
0.0
  0
LINE
  5
9A
330
1F
100
AcDbEntity
  8
Make2D$Visible$Curves
 62
    18
420
        0
370
    -3
100
AcDbLine
 10
-234.6215866534286
 20
1386.746542076326
 30
0.0
 11
-234.9235377338874
 21
1386.946843088721
 31
0.0
  0
LINE
  5
9B
330
1F
100
AcDbEntity
  8
Make2D$Visible$Curves
 62
    18
420
        0
370
    -3
100
AcDbLine
 10
-234.5621138799527
 20
1386.703902100335
 30
0.0
 11
-234.6215866534286
 21
1386.746542076326
 31
0.0
  0
LINE
  5
9C
330
1F
100
AcDbEntity
  8
Make2D$Visible$Curves
 62
    18
420
        0
370
    -3
100
AcDbLine
 10
-234.3306759398661
 20
1386.527081725909
 30
0.0
 11
-234.5621138799527
 21
1386.703902100335
 31
0.0
  0
LINE
  5
9D
330
1F
100
AcDbEntity
  8
Make2D$Visible$Curves
 62
    18
420
        0
370
    -3
100
AcDbLine
 10
-234.0526021995315
 20
1386.289427024555
 30
0.0
 11
-234.3306759398661
 21
1386.527081725909
 31
0.0
  0
LINE
  5
9E
330
1F
100
AcDbEntity
  8
Make2D$Visible$Curves
 62
    18
420
        0
370
    -3
100
AcDbLine
 10
-233.7890403216547
 20
1386.034760095286
 30
0.0
 11
-234.0526021995315
 21
1386.289427024555
 31
0.0
  0
ARC
  5
9F
330
1F
100
AcDbEntity
  8
Make2D$Visible$Curves
 62
    18
420
        0
370
    -3
100
AcDbCircle
 10
-238.088363034629
 20
1381.84947475473
 30
0.0
 40
6.00006576398693
100
AcDbArc
 50
10.24545138994877
 51
44.22996245590571
  0
LINE
  5
A0
330
1F
100
AcDbEntity
  8
Make2D$Visible$Curves
 62
    18
420
        0
370
    -3
100
AcDbLine
 10
-385.5153902045652
 20
1401.662858271119
 30
0.0
 11
-385.6962704965277
 21
1401.677102583773
 31
0.0
  0
SPLINE
  5
A1
330
1F
100
AcDbEntity
  8
Make2D$Visible$Curves
 62
    18
420
        0
370
    -3
100
AcDbSpline
210
0.0
220
0.0
230
1.0
 70
     8
 71
     3
 72
    98
 73
    94
 74
     0
 42
0.000000001
 43
0.0000000001
 40
3.417970734777217
 40
3.417970734777217
 40
3.417970734777217
 40
3.417970734777217
 40
9.412974651492496
 40
9.412974651492496
 40
9.412974651492496
 40
10.09346593643454
 40
10.09346593643454
 40
10.09346593643454
 40
17.4377314362257
 40
17.4377314362257
 40
17.4377314362257
 40
21.06558976502719
 40
21.06558976502719
 40
21.06558976502719
 40
24.67100379709376
 40
24.67100379709376
 40
24.67100379709376
 40
28.2174903414683
 40
28.2174903414683
 40
28.2174903414683
 40
31.6858305201235
 40
31.6858305201235
 40
31.6858305201235
 40
33.17373270248664
 40
33.17373270248664
 40
33.17373270248664
 40
35.10219621367234
 40
35.10219621367234
 40
35.10219621367234
 40
38.46848539605695
 40
38.46848539605695
 40
38.46848539605695
 40
45.07490744839099
 40
45.07490744839099
 40
45.07490744839099
 40
47.00938262440241
 40
47.00938262440241
 40
47.00938262440241
 40
51.51760192380792
 40
51.51760192380792
 40
51.51760192380792
 40
57.81858289741985
 40
57.81858289741985
 40
57.81858289741985
 40
58.03584801964792
 40
58.03584801964792
 40
58.03584801964792
 40
64.67027401502587
 40
64.67027401502587
 40
64.67027401502587
 40
67.41576860610148
 40
67.41576860610148
 40
67.41576860610148
 40
70.28687547408973
 40
70.28687547408973
 40
70.28687547408973
 40
72.98679426364515
 40
72.98679426364515
 40
72.98679426364515
 40
75.66690360025461
 40
75.66690360025461
 40
75.66690360025461
 40
78.18938535531821
 40
78.18938535531821
 40
78.18938535531821
 40
80.74396374432752
 40
80.74396374432752
 40
80.74396374432752
 40
83.47901454058398
 40
83.47901454058398
 40
83.47901454058398
 40
86.47556840325382
 40
86.47556840325382
 40
86.47556840325382
 40
92.99210336236939
 40
92.99210336236939
 40
92.99210336236939
 40
99.42527836301917
 40
99.42527836301917
 40
99.42527836301917
 40
105.5634659891298
 40
105.5634659891298
 40
105.5634659891298
 40
111.6753239404168
 40
111.6753239404168
 40
111.6753239404168
 40
123.9419937240102
 40
123.9419937240102
 40
123.9419937240102
 40
148.436254354325
 40
148.436254354325
 40
148.436254354325
 40
172.9428843232013
 40
172.9428843232013
 40
172.9428843232013
 40
172.9428843232013
 10
-237.2743541258382
 20
1387.792488086655
 30
0.0
 10
-239.2493566422746
 20
1388.058182735961
 30
0.0
 10
-241.1896452718084
 20
1388.318464262188
 30
0.0
 10
-243.0955027796607
 20
1388.573700354156
 30
0.0
 10
-243.3178210016191
 20
1388.60347363674
 30
0.0
 10
-243.5401291941533
 20
1388.633239313942
 30
0.0
 10
-243.7624278283246
 20
1388.662997741637
 30
0.0
 10
-246.1573948771915
 20
1388.98360454168
 30
0.0
 10
-248.5547998595172
 20
1389.303853552699
 30
0.0
 10
-250.9542327817561
 20
1389.623429339309
 30
0.0
 10
-252.1368378748701
 20
1389.780938202915
 30
0.0
 10
-253.3209547030352
 20
1389.938417432036
 30
0.0
 10
-254.506682590957
 20
1390.096122058822
 30
0.0
 10
-255.6835535847036
 20
1390.252648697637
 30
0.0
 10
-256.860646453231
 20
1390.409216093474
 30
0.0
 10
-258.0376933988745
 20
1390.565681211677
 30
0.0
 10
-259.1874246116264
 20
1390.718515243293
 30
0.0
 10
-260.3455132373994
 20
1390.8723519009
 30
0.0
 10
-261.4600648758823
 20
1391.018747274982
 30
0.0
 10
-262.5550661632457
 20
1391.162574727698
 30
0.0
 10
-263.6364838941021
 20
1391.302964051333
 30
0.0
 10
-264.6880760130599
 20
1391.437182329324
 30
0.0
 10
-265.1139056381361
 20
1391.49153241237
 30
0.0
 10
-265.5645887133093
 20
1391.548672336289
 30
0.0
 10
-266.0395860154125
 20
1391.608409941307
 30
0.0
 10
-266.5964053281742
 20
1391.678437817309
 30
0.0
 10
-267.1774384323861
 20
1391.750877785696
 30
0.0
 10
-267.7815009271359
 20
1391.825442129049
 30
0.0
 10
-268.7896429580197
 20
1391.949885293777
 30
0.0
 10
-269.7823764050446
 20
1392.070401801256
 30
0.0
 10
-270.7412278710436
 20
1392.18475384245
 30
0.0
 10
-272.6240836536186
 20
1392.409302075045
 30
0.0
 10
-274.4313206376956
 20
1392.616657187862
 30
0.0
 10
-276.1233580564268
 20
1392.804062495704
 30
0.0
 10
-276.6190271719103
 20
1392.85896141351
 30
0.0
 10
-277.104714354307
 20
1392.912144299108
 30
0.0
 10
-277.5795534829584
 20
1392.96357428752
 30
0.0
 10
-278.686427562148
 20
1393.083460197571
 30
0.0
 10
-279.7293264991494
 20
1393.193269636456
 30
0.0
 10
-280.698796265997
 20
1393.292871725467
 30
0.0
 10
-282.0559233719231
 20
1393.432301235727
 30
0.0
 10
-283.1606621762356
 20
1393.540455443455
 30
0.0
 10
-283.9460673448631
 20
1393.615070808272
 30
0.0
 10
-283.9730699621426
 20
1393.617636121336
 30
0.0
 10
-283.9996674950202
 20
1393.620159333131
 30
0.0
 10
-284.0258535342451
 20
1393.622640059198
 30
0.0
 10
-284.8291842461382
 20
1393.698743337766
 30
0.0
 10
-285.4087736582977
 20
1393.750613975494
 30
0.0
 10
-285.8625034500132
 20
1393.79014783621
 30
0.0
 10
-286.0473907343668
 20
1393.806257221754
 30
0.0
 10
-286.3081920367896
 20
1393.828739329833
 30
0.0
 10
-286.7083826066088
 20
1393.862532362891
 30
0.0
 10
-287.1342083338244
 20
1393.89849008894
 30
0.0
 10
-287.7003192074052
 20
1393.945734576268
 30
0.0
 10
-288.4654924998891
 20
1394.008827899514
 30
0.0
 10
-289.1783841456357
 20
1394.067610274024
 30
0.0
 10
-289.9511658194496
 20
1394.130854442305
 30
0.0
 10
-290.7715206716931
 20
1394.197703214052
 30
0.0
 10
-291.5794151093461
 20
1394.26353661616
 30
0.0
 10
-292.3588927839384
 20
1394.326781522266
 30
0.0
 10
-293.0420296792619
 20
1394.381859756396
 30
0.0
 10
-293.6890470328138
 20
1394.434025835449
 30
0.0
 10
-294.2961138514348
 20
1394.482631867268
 30
0.0
 10
-294.8680337414609
 20
1394.528112787223
 30
0.0
 10
-295.4509458964573
 20
1394.574467847652
 30
0.0
 10
-296.1044378596083
 20
1394.626087222859
 30
0.0
 10
-296.8533166991887
 20
1394.685009586492
 30
0.0
 10
-297.6497185953837
 20
1394.747671100805
 30
0.0
 10
-298.4651464331999
 20
1394.811609061462
 30
0.0
 10
-299.3111158834623
 20
1394.87782989401
 30
0.0
 10
-300.2370507167881
 20
1394.950310260209
 30
0.0
 10
-301.1886823157316
 20
1395.024674866277
 30
0.0
 10
-302.163910833966
 20
1395.100936990035
 30
0.0
 10
-304.2825756396857
 20
1395.266614956374
 30
0.0
 10
-306.4072559724265
 20
1395.432997781589
 30
0.0
 10
-308.5457924560216
 20
1395.600933121839
 30
0.0
 10
-310.646458706187
 20
1395.76589458225
 30
0.0
 10
-312.7596658261126
 20
1395.932299780438
 30
0.0
 10
-314.8231782424067
 20
1396.09485405033
 30
0.0
 10
-316.8002391485035
 20
1396.250598057289
 30
0.0
 10
-318.769638915748
 20
1396.405789619952
 30
0.0
 10
-320.7331247918638
 20
1396.560476295747
 30
0.0
 10
-322.6896795041997
 20
1396.714616922957
 30
0.0
 10
-324.6480618655306
 20
1396.868862384403
 30
0.0
 10
-326.6079701285629
 20
1397.023240032999
 30
0.0
 10
-330.5441729032333
 20
1397.333286038832
 30
0.0
 10
-334.4789039919898
 20
1397.643264158733
 30
0.0
 10
-338.4112219314592
 20
1397.953024521128
 30
0.0
 10
-346.2613323713623
 20
1398.571401033948
 30
0.0
 10
-354.1101190589969
 20
1399.189563855367
 30
0.0
 10
-361.958825812944
 20
1399.80769977865
 30
0.0
 10
-369.8121354736127
 20
1400.426198210317
 30
0.0
 10
-377.6642916606907
 20
1401.044584486992
 30
0.0
 10
-385.5153902045652
 20
1401.662858271119
 30
0.0
  0
ARC
  5
A2
330
1F
100
AcDbEntity
  8
Make2D$Visible$Curves
 62
    18
420
        0
370
    -3
100
AcDbCircle
 10
483.1218512118625
 20
1404.88264611743
 30
0.0
 40
2.941163723511945
210
0.0
220
0.0
230
-1.0
100
AcDbArc
 50
270.9806287627708
 51
300.77284092635
  0
SPLINE
  5
A3
330
1F
100
AcDbEntity
  8
Make2D$Visible$Curves
 62
    18
420
        0
370
    -3
100
AcDbSpline
210
0.0
220
0.0
230
1.0
 70
     8
 71
     3
 72
    62
 73
    58
 74
     0
 42
0.000000001
 43
0.0000000001
 40
1.190862017251214
 40
1.190862017251214
 40
1.190862017251214
 40
1.190862017251214
 40
3.832591332254518
 40
3.832591332254518
 40
3.832591332254518
 40
6.503901522325328
 40
6.503901522325328
 40
6.503901522325328
 40
9.505603853078433
 40
9.505603853078433
 40
9.505603853078433
 40
12.85761467383331
 40
12.85761467383331
 40
12.85761467383331
 40
16.58801043156372
 40
16.58801043156372
 40
16.58801043156372
 40
20.7871320300472
 40
20.7871320300472
 40
20.7871320300472
 40
25.5715951103863
 40
25.5715951103863
 40
25.5715951103863
 40
30.96820558070609
 40
30.96820558070609
 40
30.96820558070609
 40
36.85104167141552
 40
36.85104167141552
 40
36.85104167141552
 40
42.89442020766677
 40
42.89442020766677
 40
42.89442020766677
 40
48.90857873061537
 40
48.90857873061537
 40
48.90857873061537
 40
54.91335932889468
 40
54.91335932889468
 40
54.91335932889468
 40
60.90423249186539
 40
60.90423249186539
 40
60.90423249186539
 40
66.87957784848032
 40
66.87957784848032
 40
66.87957784848032
 40
72.84086982881792
 40
72.84086982881792
 40
72.84086982881792
 40
78.79407452414996
 40
78.79407452414996
 40
78.79407452414996
 40
84.74052237266966
 40
84.74052237266966
 40
84.74052237266966
 40
90.68256209937073
 40
90.68256209937073
 40
90.68256209937073
 40
96.62222086956406
 40
96.62222086956406
 40
96.62222086956406
 40
96.62222086956406
 10
-452.7963428908089
 20
1401.762123942447
 30
0.0
 10
-453.291207812617
 20
1401.763362212344
 30
0.0
 10
-453.7813606935521
 20
1401.764610018936
 30
0.0
 10
-454.2660049721144
 20
1401.76584755395
 30
0.0
 10
-454.7561029235632
 20
1401.76709901487
 30
0.0
 10
-455.2407269660505
 20
1401.768340378152
 30
0.0
 10
-455.7196844079821
 20
1401.769602460548
 30
0.0
 10
-456.2578996162816
 20
1401.771020690814
 30
0.0
 10
-456.7890504336996
 20
1401.772465328474
 30
0.0
 10
-457.3130695416716
 20
1401.773927445686
 30
0.0
 10
-457.8982781749811
 20
1401.775560293807
 30
0.0
 10
-458.4747133623749
 20
1401.777215270381
 30
0.0
 10
-459.0421826194666
 20
1401.778891193141
 30
0.0
 10
-459.6737087576173
 20
1401.780756296871
 30
0.0
 10
-460.2941213730321
 20
1401.782647314028
 30
0.0
 10
-460.9031835806192
 20
1401.784552228204
 30
0.0
 10
-461.5887697426161
 20
1401.786696480108
 30
0.0
 10
-462.2600026746293
 20
1401.788858430773
 30
0.0
 10
-462.9166551506852
 20
1401.791054226652
 30
0.0
 10
-463.6648381545334
 20
1401.793556093646
 30
0.0
 10
-464.3940631044132
 20
1401.796101792537
 30
0.0
 10
-465.1040032674804
 20
1401.798681197053
 30
0.0
 10
-465.9047700163687
 20
1401.801590599108
 30
0.0
 10
-466.6810166867946
 20
1401.804542935663
 30
0.0
 10
-467.4323307045314
 20
1401.807548089766
 30
0.0
 10
-468.2513307382209
 20
1401.810823978745
 30
0.0
 10
-469.0406675928966
 20
1401.814162476794
 30
0.0
 10
-469.7997504310653
 20
1401.817542303436
 30
0.0
 10
-470.5795479425461
 20
1401.821014362441
 30
0.0
 10
-471.3274450650043
 20
1401.824530155668
 30
0.0
 10
-472.0428754534179
 20
1401.828113396421
 30
0.0
 10
-472.7548444583354
 20
1401.831679300799
 30
0.0
 10
-473.43460295324
 20
1401.83531171027
 30
0.0
 10
-474.0815712894677
 20
1401.838990867838
 30
0.0
 10
-474.727534891659
 20
1401.84266431172
 30
0.0
 10
-475.34082323009
 20
1401.846384421179
 30
0.0
 10
-475.921094552075
 20
1401.850162517868
 30
0.0
 10
-476.5000295263086
 20
1401.853931913712
 30
0.0
 10
-477.0460732407649
 20
1401.85775883366
 30
0.0
 10
-477.5589377180361
 20
1401.861674802879
 30
0.0
 10
-478.0704696386857
 20
1401.865580597382
 30
0.0
 10
-478.5488360316122
 20
1401.869573759979
 30
0.0
 10
-478.9936296851828
 20
1401.873617979356
 30
0.0
 10
-479.4374009634356
 20
1401.877652902939
 30
0.0
 10
-479.8477520026157
 20
1401.881738445546
 30
0.0
 10
-480.2247949376874
 20
1401.885907194638
 30
0.0
 10
-480.6013574095145
 20
1401.890070631522
 30
0.0
 10
-480.9443911653619
 20
1401.89431330445
 30
0.0
 10
-481.2542027213846
 20
1401.898645090266
 30
0.0
 10
-481.5637710555708
 20
1401.902973475354
 30
0.0
 10
-481.8396098327947
 20
1401.907380997118
 30
0.0
 10
-482.0830512735336
 20
1401.911918894108
 30
0.0
 10
-482.3267210847378
 20
1401.916461048062
 30
0.0
 10
-482.5359870450915
 20
1401.921085007524
 30
0.0
 10
-482.7159721161005
 20
1401.925970864527
 30
0.0
 10
-482.8996572682782
 20
1401.930957163569
 30
0.0
 10
-483.03997897134
 20
1401.935656865422
 30
0.0
 10
-483.1721873615558
 20
1401.941913161085
 30
0.0
  0
SPLINE
  5
A4
330
1F
100
AcDbEntity
  8
Make2D$Visible$Curves
 62
    18
420
        0
370
    -3
100
AcDbSpline
210
0.0
220
0.0
230
1.0
 70
     8
 71
     3
 72
    59
 73
    55
 74
     0
 42
0.000000001
 43
0.0000000001
 40
14.0
 40
14.0
 40
14.0
 40
14.0
 40
16.18473952244815
 40
16.18473952244815
 40
16.18473952244815
 40
18.25753502518643
 40
18.25753502518643
 40
18.25753502518643
 40
18.96757138906846
 40
18.96757138906846
 40
18.96757138906846
 40
20.245557971781
 40
20.245557971781
 40
20.245557971781
 40
22.18039798537029
 40
22.18039798537029
 40
22.18039798537029
 40
24.08266045369128
 40
24.08266045369128
 40
24.08266045369128
 40
25.96497879605253
 40
25.96497879605253
 40
25.96497879605253
 40
27.83461708439305
 40
27.83461708439305
 40
27.83461708439305
 40
29.69578899029252
 40
29.69578899029252
 40
29.69578899029252
 40
31.55097172906768
 40
31.55097172906768
 40
31.55097172906768
 40
33.40179662612379
 40
33.40179662612379
 40
33.40179662612379
 40
35.25008611202015
 40
35.25008611202015
 40
35.25008611202015
 40
37.09709271836357
 40
37.09709271836357
 40
37.09709271836357
 40
38.94315265394337
 40
38.94315265394337
 40
38.94315265394337
 40
40.78853352501389
 40
40.78853352501389
 40
40.78853352501389
 40
42.6333952420225
 40
42.6333952420225
 40
42.6333952420225
 40
44.47783992374459
 40
44.47783992374459
 40
44.47783992374459
 40
46.23234497408402
 40
46.23234497408402
 40
46.23234497408402
 40
46.23234497408402
 10
-98.94466457521423
 20
1397.798921461149
 30
0.0
 10
-99.09843359277909
 20
1397.404398523482
 30
0.0
 10
-99.28840080946577
 20
1397.055020622176
 30
0.0
 10
-99.49731140226856
 20
1396.745774049142
 30
0.0
 10
-99.69515043481135
 20
1396.452916506566
 30
0.0
 10
-99.90335631250616
 20
1396.205325291328
 30
0.0
 10
-100.111230801842
 20
1395.991410106401
 30
0.0
 10
-100.1822055039585
 20
1395.91837292624
 30
0.0
 10
-100.2528533227941
 20
1395.849638213621
 30
0.0
 10
-100.3229164243056
 20
1395.78470593091
 30
0.0
 10
-100.4490294716844
 20
1395.667828318169
 30
0.0
 10
-100.5728155033511
 20
1395.56360476862
 30
0.0
 10
-100.6933446731069
 20
1395.469375973136
 30
0.0
 10
-100.8756311661251
 20
1395.326865768305
 30
0.0
 10
-101.0503061647524
 20
1395.207207280195
 30
0.0
 10
-101.2161195916129
 20
1395.103467402931
 30
0.0
 10
-101.3789709399792
 20
1395.001580726975
 30
0.0
 10
-101.5345885618698
 20
1394.914346633132
 30
0.0
 10
-101.6826033099845
 20
1394.837667380768
 30
0.0
 10
-101.828987913001
 20
1394.761832627408
 30
0.0
 10
-101.9698814624054
 20
1394.69538165041
 30
0.0
 10
-102.104934662579
 20
1394.636039464539
 30
0.0
 10
-102.239041659417
 20
1394.57711303908
 30
0.0
 10
-102.3695249495885
 20
1394.524293959562
 30
0.0
 10
-102.4957843805117
 20
1394.47639346582
 30
0.0
 10
-102.621781398669
 20
1394.428592526629
 30
0.0
 10
-102.7447177558
 20
1394.385238270368
 30
0.0
 10
-102.8658531290317
 20
1394.345012616025
 30
0.0
 10
-102.9865370816609
 20
1394.304936865782
 30
0.0
 10
-103.105437111789
 20
1394.267977984625
 30
0.0
 10
-103.2235545497384
 20
1394.233273048862
 30
0.0
 10
-103.3413493757681
 20
1394.198662902032
 30
0.0
 10
-103.4583575137564
 20
1394.16630430494
 30
0.0
 10
-103.575360820419
 20
1394.13562096278
 30
0.0
 10
-103.6921695303587
 20
1394.104988652322
 30
0.0
 10
-103.8089545182205
 20
1394.076035350622
 30
0.0
 10
-103.9263272522413
 20
1394.048366271423
 30
0.0
 10
-104.0435916040936
 20
1394.020722741895
 30
0.0
 10
-104.16143246081
 20
1393.994366202018
 30
0.0
 10
-104.2803254022909
 20
1393.969022128418
 30
0.0
 10
-104.3991357130946
 20
1393.943695668966
 30
0.0
 10
-104.5189914146516
 20
1393.91938310103
 30
0.0
 10
-104.6402638361197
 20
1393.895890201751
 30
0.0
 10
-104.7614737660548
 20
1393.872409408334
 30
0.0
 10
-104.8840950890338
 20
1393.849749284075
 30
0.0
 10
-105.0084195338264
 20
1393.827769899015
 30
0.0
 10
-105.1326939801767
 20
1393.805799353206
 30
0.0
 10
-105.2586682832288
 20
1393.784510050934
 30
0.0
 10
-105.3865728784252
 20
1393.763799515466
 30
0.0
 10
-105.5144357388639
 20
1393.743095737761
 30
0.0
 10
-105.6442274875357
 20
1393.722970851123
 30
0.0
 10
-105.7761310307889
 20
1393.703348635201
 30
0.0
 10
-105.9015920877615
 20
1393.684684815495
 30
0.0
 10
-106.0289650317319
 20
1393.666475857306
 30
0.0
 10
-106.1583752890921
 20
1393.648672222334
 30
0.0
  0
LINE
  5
A5
330
1F
100
AcDbEntity
  8
Make2D$Visible$Curves
 62
    18
420
        0
370
    -3
100
AcDbLine
 10
-98.94015844338503
 20
1397.810522937986
 30
0.0
 11
-98.94466457521423
 21
1397.798921461149
 31
0.0
  0
LINE
  5
A6
330
1F
100
AcDbEntity
  8
Make2D$Visible$Curves
 62
    18
420
        0
370
    -3
100
AcDbLine
 10
-98.90629598629732
 20
1397.900416613501
 30
0.0
 11
-98.94015844338503
 21
1397.810522937986
 31
0.0
  0
LINE
  5
A7
330
1F
100
AcDbEntity
  8
Make2D$Visible$Curves
 62
    18
420
        0
370
    -3
100
AcDbLine
 10
-98.8696169055446
 20
1398.003824103725
 30
0.0
 11
-98.90629598629732
 21
1397.900416613501
 31
0.0
  0
LINE
  5
A8
330
1F
100
AcDbEntity
  8
Make2D$Visible$Curves
 62
    18
420
        0
370
    -3
100
AcDbLine
 10
-98.84311335031236
 20
1398.083104259385
 30
0.0
 11
-98.8696169055446
 21
1398.003824103725
 31
0.0
  0
LINE
  5
A9
330
1F
100
AcDbEntity
  8
Make2D$Visible$Curves
 62
    18
420
        0
370
    -3
100
AcDbLine
 10
-98.83473572877585
 20
1398.109064727558
 30
0.0
 11
-98.84311335031236
 21
1398.083104259385
 31
0.0
  0
LINE
  5
AA
330
1F
100
AcDbEntity
  8
Make2D$Visible$Curves
 62
    18
420
        0
370
    -3
100
AcDbLine
 10
-98.80175813535618
 20
1398.216049095501
 30
0.0
 11
-98.83473572877585
 21
1398.109064727558
 31
0.0
  0
LINE
  5
AB
330
1F
100
AcDbEntity
  8
Make2D$Visible$Curves
 62
    18
420
        0
370
    -3
100
AcDbLine
 10
-98.7707861456148
 20
1398.324677754223
 30
0.0
 11
-98.80175813535618
 21
1398.216049095501
 31
0.0
  0
LINE
  5
AC
330
1F
100
AcDbEntity
  8
Make2D$Visible$Curves
 62
    18
420
        0
370
    -3
100
AcDbLine
 10
-98.7623133687556
 20
1398.356023104043
 30
0.0
 11
-98.7707861456148
 21
1398.324677754223
 31
0.0
  0
LINE
  5
AD
330
1F
100
AcDbEntity
  8
Make2D$Visible$Curves
 62
    18
420
        0
370
    -3
100
AcDbLine
 10
-98.74191716622465
 20
1398.434841431786
 30
0.0
 11
-98.7623133687556
 21
1398.356023104043
 31
0.0
  0
LINE
  5
AE
330
1F
100
AcDbEntity
  8
Make2D$Visible$Curves
 62
    18
420
        0
370
    -3
100
AcDbLine
 10
-98.7152430394168
 20
1398.546421410964
 30
0.0
 11
-98.74191716622465
 21
1398.434841431786
 31
0.0
  0
LINE
  5
AF
330
1F
100
AcDbEntity
  8
Make2D$Visible$Curves
 62
    18
420
        0
370
    -3
100
AcDbLine
 10
-98.6973245518326
 20
1398.628134951687
 30
0.0
 11
-98.7152430394168
 21
1398.546421410964
 31
0.0
  0
LINE
  5
B0
330
1F
100
AcDbEntity
  8
Make2D$Visible$Curves
 62
    18
420
        0
370
    -3
100
AcDbLine
 10
-98.69084911298239
 20
1398.65929003229
 30
0.0
 11
-98.6973245518326
 21
1398.628134951687
 31
0.0
  0
LINE
  5
B1
330
1F
100
AcDbEntity
  8
Make2D$Visible$Curves
 62
    18
420
        0
370
    -3
100
AcDbLine
 10
-98.67051288393134
 20
1398.764517293933
 30
0.0
 11
-98.69084911298239
 21
1398.65929003229
 31
0.0
  0
LINE
  5
B2
330
1F
100
AcDbEntity
  8
Make2D$Visible$Curves
 62
    18
420
        0
370
    -3
100
AcDbLine
 10
-497.6569508175593
 20
1410.399928207545
 30
0.0
 11
-497.7978588037329
 21
1410.654132943664
 31
0.0
  0
LINE
  5
B3
330
1F
100
AcDbEntity
  8
Make2D$Visible$Curves
 62
    18
420
        0
370
    -3
100
AcDbLine
 10
-497.6515170870977
 20
1410.390223057329
 30
0.0
 11
-497.6569508175593
 21
1410.399928207545
 31
0.0
  0
SPLINE
  5
B4
330
1F
100
AcDbEntity
  8
Make2D$Visible$Curves
 62
    18
420
        0
370
    -3
100
AcDbSpline
210
0.0
220
0.0
230
1.0
 70
     8
 71
     3
 72
    98
 73
    94
 74
     0
 42
0.000000001
 43
0.0000000001
 40
38.57766583638107
 40
38.57766583638107
 40
38.57766583638107
 40
38.57766583638107
 40
63.08429580528895
 40
63.08429580528895
 40
63.08429580528895
 40
87.5785564352876
 40
87.5785564352876
 40
87.5785564352876
 40
99.84522621881871
 40
99.84522621881871
 40
99.84522621881871
 40
105.9570841705688
 40
105.9570841705688
 40
105.9570841705688
 40
112.0952717967
 40
112.0952717967
 40
112.0952717967
 40
118.528446797137
 40
118.528446797137
 40
118.528446797137
 40
125.0449817565507
 40
125.0449817565507
 40
125.0449817565507
 40
128.0415356191352
 40
128.0415356191352
 40
128.0415356191352
 40
130.7765864149756
 40
130.7765864149756
 40
130.7765864149756
 40
133.3311648042175
 40
133.3311648042175
 40
133.3311648042175
 40
135.8536465590253
 40
135.8536465590253
 40
135.8536465590253
 40
138.5337558958539
 40
138.5337558958539
 40
138.5337558958539
 40
141.2336746858367
 40
141.2336746858367
 40
141.2336746858367
 40
144.1047815533295
 40
144.1047815533295
 40
144.1047815533295
 40
146.8502761446204
 40
146.8502761446204
 40
146.8502761446204
 40
153.4847021401712
 40
153.4847021401712
 40
153.4847021401712
 40
153.7019672619585
 40
153.7019672619585
 40
153.7019672619585
 40
160.0029482360871
 40
160.0029482360871
 40
160.0029482360871
 40
164.5111675360167
 40
164.5111675360167
 40
164.5111675360167
 40
166.4456427113211
 40
166.4456427113211
 40
166.4456427113211
 40
173.0520647637636
 40
173.0520647637636
 40
173.0520647637636
 40
176.4183539461502
 40
176.4183539461502
 40
176.4183539461502
 40
178.3468174570343
 40
178.3468174570343
 40
178.3468174570343
 40
179.834719640329
 40
179.834719640329
 40
179.834719640329
 40
183.3030598189592
 40
183.3030598189592
 40
183.3030598189592
 40
186.849546363331
 40
186.849546363331
 40
186.849546363331
 40
190.4549603954061
 40
190.4549603954061
 40
190.4549603954061
 40
194.0828187243166
 40
194.0828187243166
 40
194.0828187243166
 40
201.4270842240816
 40
201.4270842240816
 40
201.4270842240816
 40
202.1075755005815
 40
202.1075755005815
 40
202.1075755005815
 40
208.1025560883085
 40
208.1025560883085
 40
208.1025560883085
 40
208.1025560883085
 10
385.5153784336743
 20
1401.662858271115
 30
0.0
 10
377.6642778207435
 20
1401.04458432405
 30
0.0
 10
369.8121217905162
 20
1400.426198059713
 30
0.0
 10
361.9588140420122
 20
1399.807699778643
 30
0.0
 10
354.1101073369413
 20
1399.18956385921
 30
0.0
 10
346.2613205313922
 20
1398.571401028505
 30
0.0
 10
338.4112101609481
 20
1397.953024521156
 30
0.0
 10
334.4788655467065
 20
1397.64326205751
 30
0.0
 10
330.5441288679541
 20
1397.333283497434
 30
0.0
 10
326.6079583581794
 20
1397.023240033036
 30
0.0
 10
324.647985273792
 20
1396.868857278605
 30
0.0
 10
322.6895990446814
 20
1396.71461151155
 30
0.0
 10
320.733113021014
 20
1396.560476295747
 30
0.0
 10
318.769627145018
 20
1396.405789619962
 30
0.0
 10
316.8002273773546
 20
1396.250598057267
 30
0.0
 10
314.8231664715257
 20
1396.09485405033
 30
0.0
 10
312.7596540552796
 20
1395.932299780442
 30
0.0
 10
310.6464469356118
 20
1395.765894582273
 30
0.0
 10
308.5457806854155
 20
1395.60093312186
 30
0.0
 10
306.4072442015223
 20
1395.432997781586
 30
0.0
 10
304.2825638690421
 20
1395.266614956392
 30
0.0
 10
302.1638990629998
 20
1395.100936990027
 30
0.0
 10
301.1886705449518
 20
1395.024674866283
 30
0.0
 10
300.2370389456861
 20
1394.95031026019
 30
0.0
 10
299.3111041126641
 20
1394.877829894015
 30
0.0
 10
298.4651346624431
 20
1394.811609061471
 30
0.0
 10
297.6497068253271
 20
1394.747671100869
 30
0.0
 10
296.853304929101
 20
1394.685009586552
 30
0.0
 10
296.1044260894979
 20
1394.626087222918
 30
0.0
 10
295.4509341257561
 20
1394.574467847664
 30
0.0
 10
294.8680219699971
 20
1394.528112787175
 30
0.0
 10
294.2961020791989
 20
1394.482631867158
 30
0.0
 10
293.6890352613672
 20
1394.434025835403
 30
0.0
 10
293.0420179085614
 20
1394.38185975641
 30
0.0
 10
292.3588810140446
 20
1394.326781522345
 30
0.0
 10
291.5794033393237
 20
1394.263536616227
 30
0.0
 10
290.7715089012403
 20
1394.197703214084
 30
0.0
 10
289.9511540483717
 20
1394.130854442285
 30
0.0
 10
289.1783723744987
 20
1394.067610274
 30
0.0
 10
288.4654807287928
 20
1394.008827899494
 30
0.0
 10
287.7003074367457
 20
1393.945734576284
 30
0.0
 10
287.1341965633861
 20
1393.898490088974
 30
0.0
 10
286.7083708362285
 20
1393.86253236293
 30
0.0
 10
286.3081802663363
 20
1393.828739329866
 30
0.0
 10
286.0473789637134
 20
1393.80625722177
 30
0.0
 10
285.8624916791324
 20
1393.790147836206
 30
0.0
 10
285.4087618870682
 20
1393.750613975461
 30
0.0
 10
284.8291724747202
 20
1393.698743337713
 30
0.0
 10
284.0258417636229
 20
1393.622640059221
 30
0.0
 10
283.9996549958361
 20
1393.620159264133
 30
0.0
 10
283.9730574395093
 20
1393.617636049916
 30
0.0
 10
283.9460555744516
 20
1393.615070808315
 30
0.0
 10
283.1606504062094
 20
1393.540455443534
 30
0.0
 10
282.0559116016569
 20
1393.432301235784
 30
0.0
 10
280.6987844952545
 20
1393.292871725475
 30
0.0
 10
279.7293147280737
 20
1393.19326963643
 30
0.0
 10
278.6864157908634
 20
1393.083460197523
 30
0.0
 10
277.5795417114022
 20
1392.963574287442
 30
0.0
 10
277.1047025828024
 20
1392.912144299036
 30
0.0
 10
276.6190154006966
 20
1392.858961413469
 30
0.0
 10
276.1233462853289
 20
1392.804062495677
 30
0.0
 10
274.4313088664063
 20
1392.616657187814
 30
0.0
 10
272.6240718830719
 20
1392.409302075084
 30
0.0
 10
270.7412161001863
 20
1392.184753842453
 30
0.0
 10
269.7823646342841
 20
1392.070401801271
 30
0.0
 10
268.7896311869878
 20
1391.949885293759
 30
0.0
 10
267.7814891563263
 20
1391.825442129058
 30
0.0
 10
267.1774006313507
 20
1391.750874572581
 30
0.0
 10
266.5963624958089
 20
1391.678433910887
 30
0.0
 10
266.0395742454774
 20
1391.608409941423
 30
0.0
 10
265.5645686431882
 20
1391.548671292539
 30
0.0
 10
265.1138844585533
 20
1391.4915312115
 30
0.0
 10
264.6880642422915
 20
1391.437182329333
 30
0.0
 10
263.6364721232886
 20
1391.302964051334
 30
0.0
 10
262.5550543922938
 20
1391.162574727681
 30
0.0
 10
261.4600531049444
 20
1391.018747274968
 30
0.0
 10
260.3455014664549
 20
1390.872351900886
 30
0.0
 10
259.1874128406483
 20
1390.718515243277
 30
0.0
 10
258.037681627946
 20
1390.565681211669
 30
0.0
 10
256.8606175897127
 20
1390.409213821345
 30
0.0
 10
255.6835220790896
 20
1390.25264607287
 30
0.0
 10
254.5066708201056
 20
1390.096122058826
 30
0.0
 10
253.320923238164
 20
1389.938414812688
 30
0.0
 10
252.1367999663515
 20
1389.780934721694
 30
0.0
 10
250.9542210109022
 20
1389.623429339315
 30
0.0
 10
248.5547360094027
 20
1389.303846616374
 30
0.0
 10
246.1573307938821
 20
1388.983597538792
 30
0.0
 10
243.7624160577685
 20
1388.662997741689
 30
0.0
 10
243.5401174091622
 20
1388.633239312061
 30
0.0
 10
243.3178092202858
 20
1388.603473635347
 30
0.0
 10
243.0954910173683
 20
1388.573700355313
 30
0.0
 10
241.18955619939
 20
1388.31845390982
 30
0.0
 10
239.249265374095
 20
1388.058172057169
 30
0.0
 10
237.2742958744403
 20
1387.792481836943
 30
0.0
  0
LINE
  5
B5
330
1F
100
AcDbEntity
  8
Make2D$Visible$Curves
 62
    18
420
        0
370
    -3
100
AcDbLine
 10
385.6862254789381
 20
1401.676312466433
 30
0.0
 11
385.5153784336743
 21
1401.662858271115
 31
0.0
  0
LINE
  5
B6
330
1F
100
AcDbEntity
  8
Make2D$Visible$Curves
 62
    18
420
        0
370
    -3
100
AcDbLine
 10
-141.3241804025034
 20
1388.418508113454
 30
0.0
 11
-143.2011697001341
 21
1388.064525910855
 31
0.0
  0
SPLINE
  5
B7
330
1F
100
AcDbEntity
  8
Make2D$Visible$Curves
 62
    18
420
        0
370
    -3
100
AcDbSpline
210
0.0
220
0.0
230
1.0
 70
     8
 71
     3
 72
    50
 73
    46
 74
     0
 42
0.000000001
 43
0.0000000001
 40
34.85211236845037
 40
34.85211236845037
 40
34.85211236845037
 40
34.85211236845037
 40
36.59387356484005
 40
36.59387356484005
 40
36.59387356484005
 40
37.40003428464183
 40
37.40003428464183
 40
37.40003428464183
 40
38.33257104439647
 40
38.33257104439647
 40
38.33257104439647
 40
40.34966507976399
 40
40.34966507976399
 40
40.34966507976399
 40
41.22581171202769
 40
41.22581171202769
 40
41.22581171202769
 40
41.98001916261108
 40
41.98001916261108
 40
41.98001916261108
 40
42.59654334056726
 40
42.59654334056726
 40
42.59654334056726
 40
43.10167865014674
 40
43.10167865014674
 40
43.10167865014674
 40
43.63143422495095
 40
43.63143422495095
 40
43.63143422495095
 40
44.17871907216974
 40
44.17871907216974
 40
44.17871907216974
 40
45.33877049874057
 40
45.33877049874057
 40
45.33877049874057
 40
46.53362617965436
 40
46.53362617965436
 40
46.53362617965436
 40
47.80260451360087
 40
47.80260451360087
 40
47.80260451360087
 40
49.19386464112761
 40
49.19386464112761
 40
49.19386464112761
 40
50.5902653407082
 40
50.5902653407082
 40
50.5902653407082
 40
50.5902653407082
 10
-128.4849490917385
 20
1390.510745267973
 30
0.0
 10
-128.8935123862794
 20
1390.451354140162
 30
0.0
 10
-129.3370771251706
 20
1390.386879213608
 30
0.0
 10
-129.7736111814914
 20
1390.322966608192
 30
0.0
 10
-129.979205327107
 20
1390.292865732179
 30
0.0
 10
-130.1858898230652
 20
1390.262499403432
 30
0.0
 10
-130.3926363968136
 20
1390.232007336943
 30
0.0
 10
-130.624997244208
 20
1390.197737543352
 30
0.0
 10
-130.8547400404251
 20
1390.163740189555
 30
0.0
 10
-131.0537645089308
 20
1390.134437787642
 30
0.0
 10
-131.4929561527825
 20
1390.069775537008
 30
0.0
 10
-131.9663392942876
 20
1390.000750620582
 30
0.0
 10
-132.4267182019049
 20
1389.933933748909
 30
0.0
 10
-132.6275766391392
 20
1389.904782256078
 30
0.0
 10
-132.8421435123042
 20
1389.873718021828
 30
0.0
 10
-133.0658254637539
 20
1389.841200583279
 30
0.0
 10
-133.2574617340889
 20
1389.81334173904
 30
0.0
 10
-133.4608548665996
 20
1389.783667328414
 30
0.0
 10
-133.6637960682646
 20
1389.753844297082
 30
0.0
 10
-133.8244242652241
 20
1389.730239333125
 30
0.0
 10
-134.0144972440154
 20
1389.702190109959
 30
0.0
 10
-134.2056949702406
 20
1389.673439145037
 30
0.0
 10
-134.3730934567014
 20
1389.648266941857
 30
0.0
 10
-134.5258310742078
 20
1389.62492116511
 30
0.0
 10
-134.6948890916952
 20
1389.598594276627
 30
0.0
 10
-134.8615506957227
 20
1389.572640574291
 30
0.0
 10
-135.037931841085
 20
1389.544672323929
 30
0.0
 10
-135.1986320540328
 20
1389.518839080601
 30
0.0
 10
-135.3697892253018
 20
1389.491324836707
 30
0.0
 10
-135.5411362910419
 20
1389.463374337573
 30
0.0
 10
-135.7115935571788
 20
1389.435160387389
 30
0.0
 10
-136.0623605010848
 20
1389.377101723739
 30
0.0
 10
-136.4343153642536
 20
1389.313673690874
 30
0.0
 10
-136.7699470043323
 20
1389.255307924129
 30
0.0
 10
-137.1326146876667
 20
1389.192240635819
 30
0.0
 10
-137.4820595996961
 20
1389.13021470283
 30
0.0
 10
-137.8489351402749
 20
1389.0637619201
 30
0.0
 10
-138.2341784414592
 20
1388.993982154049
 30
0.0
 10
-138.6028554372853
 20
1388.925791344519
 30
0.0
 10
-138.9658664162883
 20
1388.858343605531
 30
0.0
 10
-139.3520992798645
 20
1388.786581221255
 30
0.0
 10
-139.7647888812629
 20
1388.709474786481
 30
0.0
 10
-140.1432011804008
 20
1388.638836075703
 30
0.0
 10
-140.5335660933494
 20
1388.565966155126
 30
0.0
 10
-140.9272683575583
 20
1388.492542300015
 30
0.0
 10
-141.3241804025034
 20
1388.418508113454
 30
0.0
  0
ARC
  5
B8
330
1F
100
AcDbEntity
  8
Make2D$Visible$Curves
 62
    18
420
        0
370
    -3
100
AcDbCircle
 10
237.7549718312601
 20
-1137.086093482966
 30
0.0
 40
2553.992454754208
100
AcDbArc
 50
97.80572204151801
 51
98.24457882335494
  0
LINE
  5
B9
330
1F
100
AcDbEntity
  8
Make2D$Visible$Curves
 62
    18
420
        0
370
    -3
100
AcDbLine
 10
-482.8992354247114
 20
1401.993333199663
 30
0.0
 11
-482.7966417765597
 21
1402.010030488751
 31
0.0
  0
LINE
  5
BA
330
1F
100
AcDbEntity
  8
Make2D$Visible$Curves
 62
    18
420
        0
370
    -3
100
AcDbLine
 10
-482.9815922442682
 20
1401.981909349459
 30
0.0
 11
-482.8992354247114
 21
1401.993333199663
 31
0.0
  0
ARC
  5
BB
330
1F
100
AcDbEntity
  8
Make2D$Visible$Curves
 62
    18
420
        0
370
    -3
100
AcDbCircle
 10
332.2938893677639
 20
-435489.9505976485
 30
0.0
 40
437021.6220746079
100
AcDbArc
 50
90.04717083374248
 51
90.08211037489414
  0
SPLINE
  5
BC
330
1F
100
AcDbEntity
  8
Make2D$Visible$Curves
 62
    18
420
        0
370
    -3
100
AcDbSpline
210
0.0
220
0.0
230
1.0
 70
     8
 71
     3
 72
    46
 73
    42
 74
     0
 42
0.000000001
 43
0.0000000001
 40
0.0
 40
0.0
 40
0.0
 40
0.0
 40
6.833389167810958
 40
13.66677833561925
 40
20.50016750343021
 40
27.3335566712385
 40
34.16694583904146
 40
41.00033500687108
 40
47.83372417467403
 40
54.66711334247699
 40
61.50050251027996
 40
68.33389167810958
 40
75.16728084591253
 40
82.00067001371549
 40
88.83405918151846
 40
95.66744834934806
 40
102.500837517151
 40
109.334226684954
 40
116.167615852757
 40
123.0010050205866
 40
129.8343941883895
 40
136.6677833561925
 40
143.5011725239955
 40
150.3345616918251
 40
157.167950859628
 40
164.001340027431
 40
170.834729195234
 40
177.6681183630636
 40
184.5015075308665
 40
191.3348966986695
 40
198.1682858664724
 40
205.0016750343021
 40
211.835064202105
 40
218.668453369908
 40
225.501842537711
 40
232.3352317055406
 40
239.1686208733435
 40
246.0020100411465
 40
252.8353992089495
 40
259.668788376779
 40
266.502177544582
 40
266.502177544582
 40
266.502177544582
 40
266.502177544582
 10
-27.49999501782838
 20
1531.463658178741
 30
0.0
 10
-32.40301386872841
 20
1531.448088103738
 30
0.0
 10
-41.85815569092836
 20
1531.418898373001
 30
0.0
 10
-54.92768140242845
 20
1531.383475853776
 30
0.0
 10
-67.06679862722842
 20
1531.35287960088
 30
0.0
 10
-78.3193351256283
 20
1531.326187708692
 30
0.0
 10
-88.76283225552845
 20
1531.301996918468
 30
0.0
 10
-98.45557234352839
 20
1531.280346326583
 30
0.0
 10
-107.4562741432284
 20
1531.261846342922
 30
0.0
 10
-115.8163402078284
 20
1531.245484496731
 30
0.0
 10
-123.5851181741283
 20
1531.230993117912
 30
0.0
 10
-130.8049799762283
 20
1531.217952269935
 30
0.0
 10
-137.5129694851283
 20
1531.205981094318
 30
0.0
 10
-143.7474074216283
 20
1531.194782545368
 30
0.0
 10
-149.5552896803284
 20
1531.18404285528
 30
0.0
 10
-154.9709110846285
 20
1531.173553538885
 30
0.0
 10
-160.0015453012285
 20
1531.163267659213
 30
0.0
 10
-164.6347995435284
 20
1531.153167402652
 30
0.0
 10
-168.8852660550284
 20
1531.143284951776
 30
0.0
 10
-172.8325016365285
 20
1531.133593179415
 30
0.0
 10
-176.5895043547283
 20
1531.123879976461
 30
0.0
 10
-180.2718518291284
 20
1531.113892086629
 30
0.0
 10
-183.9607701879285
 20
1531.103608930891
 30
0.0
 10
-187.6660659042283
 20
1531.092900316337
 30
0.0
 10
-191.3668871969284
 20
1531.080983722417
 30
0.0
 10
-195.0495409371484
 20
1531.068081769053
 30
0.0
 10
-198.7476935175483
 20
1531.054446554743
 30
0.0
 10
-202.5709311292284
 20
1531.039952292722
 30
0.0
 10
-206.6536548794585
 20
1531.024267840549
 30
0.0
 10
-211.1201216792384
 20
1531.00703689941
 30
0.0
 10
-216.0196643586484
 20
1530.988110283985
 30
0.0
 10
-221.3356314568683
 20
1530.96744265218
 30
0.0
 10
-227.0685450159584
 20
1530.944708787859
 30
0.0
 10
-233.2572164624584
 20
1530.91921839109
 30
0.0
 10
-239.9582110178784
 20
1530.890101666726
 30
0.0
 10
-247.2175099054283
 20
1530.856802359868
 30
0.0
 10
-255.0786773438184
 20
1530.819412880081
 30
0.0
 10
-263.6028001790484
 20
1530.778829540157
 30
0.0
 10
-272.8611282332982
 20
1530.737102579097
 30
0.0
 10
-282.9136453161183
 20
1530.697461268593
 30
0.0
 10
-290.2088843324724
 20
1530.675775832888
 30
0.0
 10
-293.9998315401314
 20
1530.666960979328
 30
0.0
  0
ARC
  5
BD
330
1F
100
AcDbEntity
  8
Make2D$Visible$Curves
 62
    18
420
        0
370
    -3
100
AcDbCircle
 10
609.7900609424438
 20
1531.533950039518
 30
0.0
 40
12.93084782169696
210
0.0
220
0.0
230
-1.0
100
AcDbArc
 50
179.9487236658322
 51
180.0070144247221
  0
ARC
  5
BE
330
1F
100
AcDbEntity
  8
Make2D$Visible$Curves
 62
    18
420
        0
370
    -3
100
AcDbCircle
 10
-596.8588519102332
 20
1523.525442664093
 30
0.0
 40
8.020079726314504
100
AcDbArc
 50
89.85070261052093
 51
90.00261749662806
  0
LINE
  5
BF
330
1F
100
AcDbEntity
  8
Make2D$Visible$Curves
 62
    18
420
        0
370
    -3
100
AcDbLine
 10
-604.8576342376284
 20
1523.405839195683
 30
0.0
 11
-604.8574058544989
 21
1523.392755134933
 31
0.0
  0
LINE
  5
C0
330
1F
100
AcDbEntity
  8
Make2D$Visible$Curves
 62
    18
420
        0
370
    -3
100
AcDbLine
 10
486.0740387897716
 20
1405.596206871404
 30
0.0
 11
485.9346662801298
 21
1406.247748524991
 31
0.0
  0
LINE
  5
C1
330
1F
100
AcDbEntity
  8
Make2D$Visible$Curves
 62
    18
420
        0
370
    -3
100
AcDbLine
 10
505.0382263196717
 20
1450.007524375284
 30
0.0
 11
513.7615455690715
 21
1450.007524363634
 31
0.0
  0
ARC
  5
C2
330
1F
100
AcDbEntity
  8
Make2D$Visible$Curves
 62
    18
420
        0
370
    -3
100
AcDbCircle
 10
-384.3972378717902
 20
1454.062305421156
 30
0.0
 40
3.999999999551604
100
AcDbArc
 50
257.019063235871
 51
270.0000000008851
  0
LINE
  5
C3
330
1F
100
AcDbEntity
  8
Make2D$Visible$Curves
 62
    18
420
        0
370
    -3
100
AcDbLine
 10
-486.0740505606284
 20
1405.596206871404
 30
0.0
 11
-485.9346779383818
 21
1406.247748526386
 31
0.0
  0
LINE
  5
C4
330
1F
100
AcDbEntity
  8
Make2D$Visible$Curves
 62
    18
420
        0
370
    -3
100
AcDbLine
 10
-144.7796592171284
 20
1358.596047022104
 30
0.0
 11
-121.2605755432284
 21
1364.022745775204
 31
0.0
  0
ARC
  5
C5
330
1F
100
AcDbEntity
  8
Make2D$Visible$Curves
 62
    18
420
        0
370
    -3
100
AcDbCircle
 10
-149.4764741861522
 20
1378.909660188559
 30
0.0
 40
20.84953118728539
100
AcDbArc
 50
277.5154039771891
 51
283.0188715009
  0
LINE
  5
C6
330
1F
100
AcDbEntity
  8
Make2D$Visible$Curves
 62
    18
420
        0
370
    -3
100
AcDbLine
 10
-7.970221002228413
 20
1450.062305421604
 30
0.0
 11
-7.970221002228413
 21
1450.007524375284
 31
0.0
  0
LINE
  5
C7
330
1F
100
AcDbEntity
  8
Make2D$Visible$Curves
 62
    18
420
        0
370
    -3
100
AcDbLine
 10
7.970209231371541
 20
1450.007524375284
 30
0.0
 11
-7.970221002228413
 21
1450.007524375284
 31
0.0
  0
LINE
  5
C8
330
1F
100
AcDbEntity
  8
Make2D$Visible$Curves
 62
    18
420
        0
370
    -3
100
AcDbLine
 10
7.970209231371541
 20
1450.062305421604
 30
0.0
 11
7.970209231371541
 21
1450.007524375284
 31
0.0
  0
LINE
  5
C9
330
1F
100
AcDbEntity
  8
Make2D$Visible$Curves
 62
    18
420
        0
370
    -3
100
AcDbLine
 10
229.2611745702717
 20
1352.776781119904
 30
0.0
 11
232.1159560827717
 21
1382.424820704104
 31
0.0
  0
LINE
  5
CA
330
1F
100
AcDbEntity
  8
Make2D$Visible$Curves
 62
    18
420
        0
370
    -3
100
AcDbLine
 10
150.2014673854716
 20
1358.357335538105
 30
0.0
 11
150.3827493375776
 21
1356.47465048222
 31
0.0
  0
LINE
  5
CB
330
1F
100
AcDbEntity
  8
Make2D$Visible$Curves
 62
    18
420
        0
370
    -3
100
AcDbLine
 10
150.2014673854716
 20
1358.357335538105
 30
0.0
 11
150.4147386995716
 21
1356.441217656635
 31
0.0
  0
ARC
  5
CC
330
1F
100
AcDbEntity
  8
Make2D$Visible$Curves
 62
    18
420
        0
370
    -3
100
AcDbCircle
 10
-128.3317179461622
 20
1397.860366936296
 30
0.0
 40
0.7259838000162309
210
0.0
220
0.0
230
-1.0
100
AcDbArc
 50
87.93952364883556
 51
109.6783555073583
  0
LINE
  5
CD
330
1F
100
AcDbEntity
  8
Make2D$Visible$Curves
 62
    18
420
        0
370
    -3
100
AcDbLine
 10
-505.0382380905284
 20
1450.007524375284
 30
0.0
 11
-513.7615573403284
 21
1450.007524363474
 31
0.0
  0
ARC
  5
CE
330
1F
100
AcDbEntity
  8
Make2D$Visible$Curves
 62
    18
420
        0
370
    -3
100
AcDbCircle
 10
-482.5982520814047
 20
1404.486453279406
 30
0.0
 40
2.484395973712607
100
AcDbArc
 50
235.3829837158746
 51
265.4202944639463
  0
LINE
  5
CF
330
1F
100
AcDbEntity
  8
Make2D$Visible$Curves
 62
    18
420
        0
370
    -3
100
AcDbLine
 10
-127.3798006181283
 20
1398.491762217004
 30
0.0
 11
-127.918464035119
 21
1398.568989944347
 31
0.0
  0
ARC
  5
D0
330
1F
100
AcDbEntity
  8
Make2D$Visible$Curves
 62
    18
420
        0
370
    -3
100
AcDbCircle
 10
127.1440663192367
 20
1397.871515121713
 30
0.0
 40
0.6635338114155986
210
0.0
220
0.0
230
-1.0
100
AcDbArc
 50
69.18994776176568
 51
91.67494565240453
  0
ARC
  5
D1
330
1F
100
AcDbEntity
  8
Make2D$Visible$Curves
 62
    18
420
        0
370
    -3
100
AcDbCircle
 10
-153.7250140248287
 20
1353.064318377507
 30
0.0
 40
3.000000000002956
100
AcDbArc
 50
270.0000000000043
 51
354.4999999991945
  0
LINE
  5
D2
330
1F
100
AcDbEntity
  8
Make2D$Visible$Curves
 62
    18
420
        0
370
    -3
100
AcDbLine
 10
-226.2749977460684
 20
1350.064318377504
 30
0.0
 11
-153.7250140248285
 21
1350.064318377504
 31
0.0
  0
ARC
  5
D3
330
1F
100
AcDbEntity
  8
Make2D$Visible$Curves
 62
    18
420
        0
370
    -3
100
AcDbCircle
 10
-226.2749977460683
 20
1353.064318377507
 30
0.0
 40
3.000000000002588
100
AcDbArc
 50
185.5000000008018
 51
269.9999999999978
  0
ARC
  5
D4
330
1F
100
AcDbEntity
  8
Make2D$Visible$Curves
 62
    18
420
        0
370
    -3
100
AcDbCircle
 10
-490.6429998781811
 20
1414.247748431082
 30
0.0
 40
7.999999977877769
100
AcDbArc
 50
208.9999999175591
 51
270.0000001386038
  0
ARC
  5
D5
330
1F
100
AcDbEntity
  8
Make2D$Visible$Curves
 62
    18
420
        0
370
    -3
100
AcDbCircle
 10
-558.8946216909402
 20
1510.56230542156
 30
0.0
 40
5.000000000083114
210
0.0
220
0.0
230
-1.0
100
AcDbArc
 50
29.00000000003127
 51
36.90077300093607
  0
ARC
  5
D6
330
1F
100
AcDbEntity
  8
Make2D$Visible$Curves
 62
    18
420
        0
370
    -3
100
AcDbCircle
 10
-513.1957521204
 20
1447.149625671279
 30
0.0
 40
2.913366980372232
210
0.0
220
0.0
230
-1.0
100
AcDbArc
 50
88.75548626398765
 51
101.1983460848137
  0
ARC
  5
D7
330
1F
100
AcDbEntity
  8
Make2D$Visible$Curves
 62
    18
420
        0
370
    -3
100
AcDbCircle
 10
513.195764397167
 20
1447.149631842751
 30
0.0
 40
2.913360828070968
210
0.0
220
0.0
230
-1.0
100
AcDbArc
 50
78.80164009583854
 51
91.24453240856205
  0
LINE
  5
D8
330
1F
100
AcDbEntity
  8
Make2D$Visible$Curves
 62
    18
420
        0
370
    -3
100
AcDbLine
 10
-554.5215349260284
 20
1512.986353522834
 30
0.0
 11
-554.5222549553525
 21
1512.987652439776
 31
0.0
  0
LINE
  5
D9
330
1F
100
AcDbEntity
  8
Make2D$Visible$Curves
 62
    18
420
        0
370
    -3
100
AcDbLine
 10
-505.0382380905284
 20
1450.062305421604
 30
0.0
 11
-505.0382380905284
 21
1450.007524375284
 31
0.0
  0
ARC
  5
DA
330
1F
100
AcDbEntity
  8
Make2D$Visible$Curves
 62
    18
420
        0
370
    -3
100
AcDbCircle
 10
-498.602891303247
 20
1454.062991537703
 30
0.0
 40
4.000686117820893
100
AcDbArc
 50
270.0016814017138
 51
289.3628551408253
  0
ARC
  5
DB
330
1F
100
AcDbEntity
  8
Make2D$Visible$Curves
 62
    18
420
        0
370
    -3
100
AcDbCircle
 10
384.3972261009126
 20
1454.062305421397
 30
0.0
 40
3.99999999979309
100
AcDbArc
 50
269.9999999994121
 51
282.9809365870946
  0
LINE
  5
DC
330
1F
100
AcDbEntity
  8
Make2D$Visible$Curves
 62
    18
420
        0
370
    -3
100
AcDbLine
 10
505.0382263196717
 20
1450.062305421604
 30
0.0
 11
505.0382263196717
 21
1450.007524375284
 31
0.0
  0
LINE
  5
DD
330
1F
100
AcDbEntity
  8
Make2D$Visible$Curves
 62
    18
420
        0
370
    -3
100
AcDbLine
 10
121.2605637723717
 20
1364.022745775204
 30
0.0
 11
144.7796474462715
 21
1358.596047022104
 31
0.0
  0
ARC
  5
DE
330
1F
100
AcDbEntity
  8
Make2D$Visible$Curves
 62
    18
420
        0
370
    -3
100
AcDbCircle
 10
149.4770295382208
 20
1378.912793001884
 30
0.0
 40
20.85271123198772
100
AcDbArc
 50
256.9815494089017
 51
262.4841794988116
  0
SPLINE
  5
DF
330
1F
100
AcDbEntity
  8
Make2D$Visible$Curves
 62
    18
420
        0
370
    -3
100
AcDbSpline
210
0.0
220
0.0
230
1.0
 70
     8
 71
     3
 72
    40
 73
    36
 74
     0
 42
0.000000001
 43
0.0000000001
 40
-266.5001809485229
 40
-266.5001809485229
 40
-266.5001809485229
 40
-266.5001809485229
 40
-258.4244178894849
 40
-250.3486548304201
 40
-242.2728917713821
 40
-234.197128712344
 40
-226.1213656532793
 40
-218.0456025942412
 40
-209.9698395352031
 40
-201.894076476165
 40
-193.8183134171003
 40
-185.7425503580623
 40
-177.6667872990242
 40
-169.5910242399595
 40
-161.5152611809214
 40
-153.4394981218833
 40
-145.3637350628186
 40
-137.2879720037805
 40
-129.2122089447424
 40
-121.1364458857044
 40
-113.0606828266396
 40
-104.9849197676016
 40
-96.90915670856349
 40
-88.83339364949876
 40
-80.75763059046068
 40
-72.68186753142263
 40
-64.60610447235788
 40
-56.53034141331982
 40
-48.45457835428174
 40
-40.37881529524367
 40
-32.30305223617894
 40
-24.22728917713821
 40
-16.15152611809214
 40
-8.075763059046068
 40
0.0
 40
0.0
 40
0.0
 40
0.0
 10
27.49999810027168
 20
1531.523370469714
 30
0.0
 10
30.35640239447173
 20
1531.519760931481
 30
0.0
 10
35.80316287897165
 20
1531.513122811331
 30
0.0
 10
43.04306571057157
 20
1531.504904586709
 30
0.0
 10
49.75041855437155
 20
1531.497734028276
 30
0.0
 10
56.16865840797152
 20
1531.491224928935
 30
0.0
 10
62.62240463027172
 20
1531.484954990275
 30
0.0
 10
69.23740895157164
 20
1531.478736962799
 30
0.0
 10
75.8433114377716
 20
1531.472652356706
 30
0.0
 10
82.41122261757153
 20
1531.466655654088
 30
0.0
 10
88.95866183117175
 20
1531.460690423996
 30
0.0
 10
95.53066641887165
 20
1531.45470120954
 30
0.0
 10
102.2163347033717
 20
1531.448610466017
 30
0.0
 10
108.7847626079716
 20
1531.442645232223
 30
0.0
 10
114.9246096352716
 20
1531.43710020227
 30
0.0
 10
122.1087917779718
 20
1531.430663005228
 30
0.0
 10
130.3221727893716
 20
1531.423380039418
 30
0.0
 10
139.1007162945715
 20
1531.415674739056
 30
0.0
 10
148.1941744453717
 20
1531.407880066585
 30
0.0
 10
157.6025397565717
 20
1531.399991387101
 30
0.0
 10
167.2529568352717
 20
1531.391670372554
 30
0.0
 10
176.7521872447716
 20
1531.384063013093
 30
0.0
 10
185.8646217242716
 20
1531.374198387449
 30
0.0
 10
194.8494258565717
 20
1531.363591309188
 30
0.0
 10
203.8366709829717
 20
1531.352157731294
 30
0.0
 10
212.7086850599716
 20
1531.340392281546
 30
0.0
 10
221.4469059422717
 20
1531.32831195157
 30
0.0
 10
230.1806896243717
 20
1531.31549370038
 30
0.0
 10
238.9451051140717
 20
1531.301500040963
 30
0.0
 10
247.6596702623716
 20
1531.286327696753
 30
0.0
 10
256.3830211924716
 20
1531.270357106803
 30
0.0
 10
265.2486903296716
 20
1531.254407401589
 30
0.0
 10
274.3772968573716
 20
1531.239786313552
 30
0.0
 10
283.8781773530717
 20
1531.228540277
 30
0.0
 10
290.5722205830717
 20
1531.223901350774
 30
0.0
 10
293.9999942660717
 20
1531.222672334816
 30
0.0
  0
SPLINE
  5
E0
330
1F
100
AcDbEntity
  8
Make2D$Visible$Curves
 62
    18
420
        0
370
    -3
100
AcDbSpline
210
0.0
220
0.0
230
1.0
 70
     8
 71
     3
 72
    45
 73
    41
 74
     0
 42
0.000000001
 43
0.0000000001
 40
0.0
 40
0.0
 40
0.0
 40
0.0
 40
7.013224379724504
 40
14.02644875945167
 40
21.03967313917618
 40
28.05289751889269
 40
35.06612189862252
 40
42.07934627835235
 40
49.09257065808219
 40
56.10579503781202
 40
63.11901941754185
 40
70.13224379724504
 40
77.14546817697487
 40
84.15869255670471
 40
91.17191693643454
 40
98.18514131616438
 40
105.1983656958942
 40
112.2115900755974
 40
119.2248144553272
 40
126.2380388350571
 40
133.2512632147869
 40
140.2644875945167
 40
147.2777119742466
 40
154.2909363539764
 40
161.3041607336796
 40
168.3173851134094
 40
175.3306094931392
 40
182.3438338728691
 40
189.3570582525989
 40
196.3702826323288
 40
203.3835070120319
 40
210.3967313917618
 40
217.4099557714916
 40
224.4231801512214
 40
231.4364045309513
 40
238.4496289106811
 40
245.4628532903843
 40
252.4760776701141
 40
259.489302049844
 40
266.5025264295738
 40
266.5025264295738
 40
266.5025264295738
 40
266.5025264295738
 10
294.0001673561716
 20
1530.66696019568
 30
0.0
 10
290.2968415226716
 20
1530.675571019955
 30
0.0
 10
283.1765995959717
 20
1530.696626868161
 30
0.0
 10
273.4024021796716
 20
1530.734853795214
 30
0.0
 10
264.3948812806717
 20
1530.775153683043
 30
0.0
 10
256.0982365994715
 20
1530.814527024651
 30
0.0
 10
248.4439925074715
 20
1530.851017499406
 30
0.0
 10
241.3811083198717
 20
1530.883683112394
 30
0.0
 10
234.8590697933715
 20
1530.912386880665
 30
0.0
 10
228.8207836782716
 20
1530.937594634805
 30
0.0
 10
223.2183970076716
 20
1530.960036359465
 30
0.0
 10
218.0331996333715
 20
1530.980305242427
 30
0.0
 10
213.2748903416717
 20
1530.998717224804
 30
0.0
 10
208.9258851291717
 20
1531.01550448298
 30
0.0
 10
204.9047505329717
 20
1531.030998847753
 30
0.0
 10
201.0944081064716
 20
1531.045579985522
 30
0.0
 10
197.3694464557715
 20
1531.059586177546
 30
0.0
 10
193.6408867478716
 20
1531.073121400942
 30
0.0
 10
189.8966069904717
 20
1531.085867575496
 30
0.0
 10
186.1567727696716
 20
1531.097394994227
 30
0.0
 10
182.4353537509716
 20
1531.107847396124
 30
0.0
 10
178.6948627733717
 20
1531.118238266917
 30
0.0
 10
174.8209285857716
 20
1531.128519083945
 30
0.0
 10
170.6715069629716
 20
1531.138981963422
 30
0.0
 10
166.1199723660717
 20
1531.149799167853
 30
0.0
 10
161.1219300289716
 20
1531.16091945466
 30
0.0
 10
155.6977188663717
 20
1531.172109359141
 30
0.0
 10
149.8474544391717
 20
1531.183506758274
 30
0.0
 10
143.5320135269716
 20
1531.195180351287
 30
0.0
 10
136.6991099987716
 20
1531.207437476329
 30
0.0
 10
129.3042556450717
 20
1531.2206328477
 30
0.0
 10
121.3026239412717
 20
1531.235175305947
 30
0.0
 10
112.6386907757716
 20
1531.251577505366
 30
0.0
 10
103.2487853396716
 20
1531.27034278762
 30
0.0
 10
93.06480475557157
 20
1531.29211111356
 30
0.0
 10
82.01961553807166
 20
1531.317592272712
 30
0.0
 10
70.03433954517175
 20
1531.345669107913
 30
0.0
 10
57.02933166437163
 20
1531.377964893227
 30
0.0
 10
42.94497981527172
 20
1531.415641842819
 30
0.0
 10
32.77504613797157
 20
1531.447003972812
 30
0.0
 10
27.49998280007173
 20
1531.463756062537
 30
0.0
  0
ARC
  5
E1
330
1F
100
AcDbEntity
  8
Make2D$Visible$Curves
 62
    18
420
        0
370
    -3
100
AcDbCircle
 10
-596.858834677263
 20
1523.547908142428
 30
0.0
 40
7.997614212065301
210
0.0
220
0.0
230
-1.0
100
AcDbArc
 50
89.85032246364294
 51
90.00266398042102
  0
LINE
  5
E2
330
1F
100
AcDbEntity
  8
Make2D$Visible$Curves
 62
    18
420
        0
370
    -3
100
AcDbLine
 10
153.7250022539716
 20
1350.064318377504
 30
0.0
 11
226.2749859751717
 21
1350.064318377504
 31
0.0
  0
ARC
  5
E3
330
1F
100
AcDbEntity
  8
Make2D$Visible$Curves
 62
    18
420
        0
370
    -3
100
AcDbCircle
 10
-354.2175052370194
 20
89416.02845274138
 30
0.0
 40
87884.81784459483
100
AcDbArc
 50
269.8418254014512
 51
270.0392580692438
  0
LINE
  5
E4
330
1F
100
AcDbEntity
  8
Make2D$Visible$Curves
 62
    18
420
        0
370
    -3
100
AcDbLine
 10
-294.0000700558684
 20
1531.231238321525
 30
0.0
 11
-294.0000060545243
 21
1531.222707121679
 31
0.0
  0
SPLINE
  5
E5
330
1F
100
AcDbEntity
  8
Make2D$Visible$Curves
 62
    18
420
        0
370
    -3
100
AcDbSpline
210
0.0
220
0.0
230
1.0
 70
     8
 71
     3
 72
    86
 73
    82
 74
     0
 42
0.000000001
 43
0.0000000001
 40
3.013208202575353
 40
3.013208202575353
 40
3.013208202575353
 40
3.013208202575353
 40
27.56462324245523
 40
27.56462324245523
 40
27.56462324245523
 40
53.69107075307149
 40
53.69107075307149
 40
53.69107075307149
 40
79.13088230839666
 40
79.13088230839666
 40
79.13088230839666
 40
101.8546621118463
 40
101.8546621118463
 40
101.8546621118463
 40
121.8213202931255
 40
121.8213202931255
 40
121.8213202931255
 40
139.5122317945238
 40
139.5122317945238
 40
139.5122317945238
 40
155.2790177217164
 40
155.2790177217164
 40
155.2790177217164
 40
169.425820192975
 40
169.425820192975
 40
169.425820192975
 40
182.1805576519721
 40
182.1805576519721
 40
182.1805576519721
 40
193.7329556880875
 40
193.7329556880875
 40
193.7329556880875
 40
204.2574057858685
 40
204.2574057858685
 40
204.2574057858685
 40
213.9112274449435
 40
213.9112274449435
 40
213.9112274449435
 40
222.7976745930601
 40
222.7976745930601
 40
222.7976745930601
 40
230.9805455354588
 40
230.9805455354588
 40
230.9805455354588
 40
238.4971206834323
 40
238.4971206834323
 40
238.4971206834323
 40
245.3501069283131
 40
245.3501069283131
 40
245.3501069283131
 40
251.5497197103155
 40
251.5497197103155
 40
251.5497197103155
 40
257.2014352536222
 40
257.2014352536222
 40
257.2014352536222
 40
262.4934333271624
 40
262.4934333271624
 40
262.4934333271624
 40
267.6203055822601
 40
267.6203055822601
 40
267.6203055822601
 40
272.7210862185924
 40
272.7210862185924
 40
272.7210862185924
 40
277.8280756660229
 40
277.8280756660229
 40
277.8280756660229
 40
282.9295477659899
 40
282.9295477659899
 40
282.9295477659899
 40
288.0593007638262
 40
288.0593007638262
 40
288.0593007638262
 40
293.2751082557017
 40
293.2751082557017
 40
293.2751082557017
 40
298.638873138954
 40
298.638873138954
 40
298.638873138954
 40
304.3324716232618
 40
304.3324716232618
 40
304.3324716232618
 40
304.3324716232618
 10
-595.3176977448791
 20
1531.530387633924
 30
0.0
 10
-587.1338859217981
 20
1531.52249006851
 30
0.0
 10
-578.9500857070994
 20
1531.513233459929
 30
0.0
 10
-570.7662989898404
 20
1531.502351996143
 30
0.0
 10
-562.0574782335963
 20
1531.49077242779
 30
0.0
 10
-553.3486719898655
 20
1531.477352543131
 30
0.0
 10
-544.6398835059118
 20
1531.461748730829
 30
0.0
 10
-536.1599485521202
 20
1531.446554962649
 30
0.0
 10
-527.6800280002712
 20
1531.42929049633
 30
0.0
 10
-519.2001259014365
 20
1531.409648515422
 30
0.0
 10
-511.6255461737587
 20
1531.39210353098
 30
0.0
 10
-504.0509770144358
 20
1531.372661843152
 30
0.0
 10
-496.4764219261664
 20
1531.351154224656
 30
0.0
 10
-489.8208943145153
 20
1531.332256144558
 30
0.0
 10
-483.1653724948402
 20
1531.311763313983
 30
0.0
 10
-476.5098589537333
 20
1531.289630702723
 30
0.0
 10
-470.612923993512
 20
1531.270020710452
 30
0.0
 10
-464.7159900754307
 20
1531.249123634474
 30
0.0
 10
-458.8190586790047
 20
1531.226984129473
 30
0.0
 10
-453.5635073357531
 20
1531.207252628896
 30
0.0
 10
-448.3079525929373
 20
1531.18653439818
 30
0.0
 10
-443.0523950540365
 20
1531.164934202186
 30
0.0
 10
-438.3368441967103
 20
1531.145553418705
 30
0.0
 10
-433.6212860330648
 20
1531.125462673305
 30
0.0
 10
-428.9057205038083
 20
1531.104802966169
 30
0.0
 10
-424.6541946594185
 20
1531.086176297048
 30
0.0
 10
-420.4026583109301
 20
1531.067087163485
 30
0.0
 10
-416.1511109714671
 20
1531.04769396465
 30
0.0
 10
-412.3003657308155
 20
1531.030129002496
 30
0.0
 10
-408.4496075891037
 20
1531.012314603798
 30
0.0
 10
-404.5988358516678
 20
1530.99441270036
 30
0.0
 10
-401.0907386065172
 20
1530.978103860882
 30
0.0
 10
-397.5826268323214
 20
1530.961722384352
 30
0.0
 10
-394.0744998004981
 20
1530.945424956144
 30
0.0
 10
-390.8566091334516
 20
1530.930475856054
 30
0.0
 10
-387.6387029777047
 20
1530.915597452955
 30
0.0
 10
-384.4207806904764
 20
1530.900936401124
 30
0.0
 10
-381.4586772997329
 20
1530.887440875917
 30
0.0
 10
-378.4965581370276
 20
1530.874129495486
 30
0.0
 10
-375.5344227240645
 20
1530.861135140505
 30
0.0
 10
-372.8068394830614
 20
1530.849169723691
 30
0.0
 10
-370.0792408610781
 20
1530.837473091787
 30
0.0
 10
-367.3516265834852
 20
1530.826161428346
 30
0.0
 10
-364.8461360373867
 20
1530.815770932136
 30
0.0
 10
-362.3406311248922
 20
1530.805705237739
 30
0.0
 10
-359.8351117754949
 20
1530.796061969945
 30
0.0
 10
-357.5508112940626
 20
1530.78727013153
 30
0.0
 10
-355.26649803822
 20
1530.778829402453
 30
0.0
 10
-352.982172107908
 20
1530.770817678867
 30
0.0
 10
-350.9156567572633
 20
1530.763569873484
 30
0.0
 10
-348.8491305617032
 20
1530.756673151171
 30
0.0
 10
-346.7825937346284
 20
1530.750186659483
 30
0.0
 10
-344.8987057830005
 20
1530.744273470142
 30
0.0
 10
-343.0148087312979
 20
1530.738701193156
 30
0.0
 10
-341.1309028592144
 20
1530.7335147413
 30
0.0
 10
-339.3669170355605
 20
1530.728658433094
 30
0.0
 10
-337.6029233477458
 20
1530.72414038927
 30
0.0
 10
-335.8389221282092
 20
1530.719996815094
 30
0.0
 10
-334.1299756168343
 20
1530.715982562409
 30
0.0
 10
-332.4210219955006
 20
1530.71231976574
 30
0.0
 10
-330.7120616636138
 20
1530.709040090333
 30
0.0
 10
-329.011810334821
 20
1530.705777128422
 30
0.0
 10
-327.3115524190545
 20
1530.702893389106
 30
0.0
 10
-325.6112884077314
 20
1530.700418150055
 30
0.0
 10
-323.9089656950454
 20
1530.697939913954
 30
0.0
 10
-322.2066369636967
 20
1530.695871163362
 30
0.0
 10
-320.5043028051795
 20
1530.694238646828
 30
0.0
 10
-318.8038173866938
 20
1530.692607903211
 30
0.0
 10
-317.1033269132093
 20
1530.691412444186
 30
0.0
 10
-315.4028320674132
 20
1530.690675590729
 30
0.0
 10
-313.6929188676437
 20
1530.689934656139
 30
0.0
 10
-311.983001007373
 20
1530.689657414741
 30
0.0
 10
-310.2730792650588
 20
1530.689863482878
 30
0.0
 10
-308.5344782031808
 20
1530.69007300725
 30
0.0
 10
-306.7958756051518
 20
1530.690782186602
 30
0.0
 10
-305.0572723617776
 20
1530.692006605712
 30
0.0
 10
-303.2693596241703
 20
1530.693265751254
 30
0.0
 10
-301.4814386256381
 20
1530.695069808477
 30
0.0
 10
-299.6935103900568
 20
1530.697429459467
 30
0.0
 10
-297.7956429486647
 20
1530.699934204733
 30
0.0
 10
-295.897779023681
 20
1530.70306480856
 30
0.0
 10
-293.9999198701227
 20
1530.70682619179
 30
0.0
  0
SPLINE
  5
E6
330
1F
100
AcDbEntity
  8
Make2D$Visible$Curves
 62
    18
420
        0
370
    -3
100
AcDbSpline
210
0.0
220
0.0
230
1.0
 70
     8
 71
     3
 72
   122
 73
   118
 74
     0
 42
0.000000001
 43
0.0000000001
 40
2.663469573494536
 40
2.663469573494536
 40
2.663469573494536
 40
2.663469573494536
 40
13.60123168382941
 40
13.60123168382941
 40
13.60123168382941
 40
23.66981501348286
 40
23.66981501348286
 40
23.66981501348286
 40
32.9382151019168
 40
32.9382151019168
 40
32.9382151019168
 40
41.47430427634147
 40
41.47430427634147
 40
41.47430427634147
 40
49.34574593210877
 40
49.34574593210877
 40
49.34574593210877
 40
56.61239063124918
 40
56.61239063124918
 40
56.61239063124918
 40
63.3211214209573
 40
63.3211214209573
 40
63.3211214209573
 40
69.5192803667327
 40
69.5192803667327
 40
69.5192803667327
 40
75.25871221140287
 40
75.25871221140287
 40
75.25871221140287
 40
80.57480887009864
 40
80.57480887009864
 40
80.57480887009864
 40
85.47161400191126
 40
85.47161400191126
 40
85.47161400191126
 40
89.94633713201031
 40
89.94633713201031
 40
89.94633713201031
 40
94.04980197496587
 40
94.04980197496587
 40
94.04980197496587
 40
97.8954696295486
 40
97.8954696295486
 40
97.8954696295486
 40
101.6119153150658
 40
101.6119153150658
 40
101.6119153150658
 40
105.3002078590944
 40
105.3002078590944
 40
105.3002078590944
 40
108.9987723539955
 40
108.9987723539955
 40
108.9987723539955
 40
112.7006132273775
 40
112.7006132273775
 40
112.7006132273775
 40
116.3911819303994
 40
116.3911819303994
 40
116.3911819303994
 40
120.0870829158939
 40
120.0870829158939
 40
120.0870829158939
 40
123.8633636030991
 40
123.8633636030991
 40
123.8633636030991
 40
127.8294465342873
 40
127.8294465342873
 40
127.8294465342873
 40
132.0931863958729
 40
132.0931863958729
 40
132.0931863958729
 40
136.7288861622845
 40
136.7288861622845
 40
136.7288861622845
 40
141.7574671723529
 40
141.7574671723529
 40
141.7574671723529
 40
147.1743126629612
 40
147.1743126629612
 40
147.1743126629612
 40
152.9879220713055
 40
152.9879220713055
 40
152.9879220713055
 40
159.2302033658917
 40
159.2302033658917
 40
159.2302033658917
 40
165.944590660902
 40
165.944590660902
 40
165.944590660902
 40
173.1706381458173
 40
173.1706381458173
 40
173.1706381458173
 40
180.9464912842281
 40
180.9464912842281
 40
180.9464912842281
 40
189.3147974380777
 40
189.3147974380777
 40
189.3147974380777
 40
198.3240850621383
 40
198.3240850621383
 40
198.3240850621383
 40
208.0266349500138
 40
208.0266349500138
 40
208.0266349500138
 40
218.4798741250713
 40
218.4798741250713
 40
218.4798741250713
 40
229.7453666463549
 40
229.7453666463549
 40
229.7453666463549
 40
241.8918276637737
 40
241.8918276637737
 40
241.8918276637737
 40
254.9918665400232
 40
254.9918665400232
 40
254.9918665400232
 40
269.1645637630941
 40
269.1645637630941
 40
269.1645637630941
 40
269.1645637630941
 10
-293.9999197726976
 20
1530.706778348635
 30
0.0
 10
-290.3539802998979
 20
1530.714640448307
 30
0.0
 10
-286.7080713416054
 20
1530.724523451873
 30
0.0
 10
-283.0621980222462
 20
1530.736129063521
 30
0.0
 10
-279.7059710511609
 20
1530.746812667535
 30
0.0
 10
-276.3497977748146
 20
1530.758955824666
 30
0.0
 10
-272.9936793779472
 20
1530.772088337568
 30
0.0
 10
-269.9041921563595
 20
1530.784177520964
 30
0.0
 10
-266.8147522704381
 20
1530.797105114443
 30
0.0
 10
-263.7253588217592
 20
1530.810446818242
 30
0.0
 10
-260.8799825625812
 20
1530.822734721314
 30
0.0
 10
-258.0346475551693
 20
1530.835373888482
 30
0.0
 10
-255.1893523887096
 20
1530.848021873918
 30
0.0
 10
-252.5655366400325
 20
1530.859685332868
 30
0.0
 10
-249.9417487142713
 20
1530.871356329425
 30
0.0
 10
-247.3179876481253
 20
1530.882812723972
 30
0.0
 10
-244.8957816819208
 20
1530.893389048006
 30
0.0
 10
-242.4735890527126
 20
1530.903782527335
 30
0.0
 10
-240.0514094393201
 20
1530.913888230291
 30
0.0
 10
-237.8151850576229
 20
1530.923218099645
 30
0.0
 10
-235.5789598746129
 20
1530.93230273709
 30
0.0
 10
-233.3427340453935
 20
1530.941140348557
 30
0.0
 10
-231.276706222778
 20
1530.949305333926
 30
0.0
 10
-229.2106685288298
 20
1530.9572594974
 30
0.0
 10
-227.1446212973632
 20
1530.965063305496
 30
0.0
 10
-225.2315018043206
 20
1530.972289479787
 30
0.0
 10
-223.3183710151933
 20
1530.979386742644
 30
0.0
 10
-221.4052292012462
 20
1530.986419083615
 30
0.0
 10
-219.6331645906298
 20
1530.992932851947
 30
0.0
 10
-217.8611496473443
 20
1530.999390704791
 30
0.0
 10
-216.0891680118959
 20
1531.005835386341
 30
0.0
 10
-214.4568904760317
 20
1531.011771965316
 30
0.0
 10
-212.8246412030217
 20
1531.017697367992
 30
0.0
 10
-211.1923952101604
 20
1531.0236266906
 30
0.0
 10
-209.7008367555302
 20
1531.029044949432
 30
0.0
 10
-208.2092810399683
 20
1531.03446648158
 30
0.0
 10
-206.7177016172224
 20
1531.039882760488
 30
0.0
 10
-205.3499174102767
 20
1531.044849509585
 30
0.0
 10
-203.9821132680497
 20
1531.049811841253
 30
0.0
 10
-202.6142636966663
 20
1531.054744798311
 30
0.0
 10
-201.3323732628616
 20
1531.059367755831
 30
0.0
 10
-200.0504922875977
 20
1531.06396473455
 30
0.0
 10
-198.7686206480068
 20
1531.068499134447
 30
0.0
 10
-197.5297997077953
 20
1531.072881249918
 30
0.0
 10
-196.2909920182844
 20
1531.077204900965
 30
0.0
 10
-195.0521974358892
 20
1531.081419967039
 30
0.0
 10
-193.8227586937839
 20
1531.085603199358
 30
0.0
 10
-192.5933345823289
 20
1531.089679475676
 30
0.0
 10
-191.3639249944008
 20
1531.093590838052
 30
0.0
 10
-190.1310750753642
 20
1531.097513145829
 30
0.0
 10
-188.8982259272457
 20
1531.101269675882
 30
0.0
 10
-187.6653776308647
 20
1531.104837870119
 30
0.0
 10
-186.4314617891221
 20
1531.108409154119
 30
0.0
 10
-185.1975194439954
 20
1531.111791836225
 30
0.0
 10
-183.9635510608916
 20
1531.115122278011
 30
0.0
 10
-182.7332633369017
 20
1531.118442785814
 30
0.0
 10
-181.5031888438157
 20
1531.121710730094
 30
0.0
 10
-180.2729954028982
 20
1531.124932636331
 30
0.0
 10
-179.0410232374961
 20
1531.128159201091
 30
0.0
 10
-177.8090603434139
 20
1531.131339260535
 30
0.0
 10
-176.5771066668619
 20
1531.134445564931
 30
0.0
 10
-175.3183518332196
 20
1531.13761944699
 30
0.0
 10
-174.0595954073183
 20
1531.14071635343
 30
0.0
 10
-172.8008374231867
 20
1531.143738959654
 30
0.0
 10
-171.4788139361126
 20
1531.14691348285
 30
0.0
 10
-170.1567899024976
 20
1531.150006048314
 30
0.0
 10
-168.8347653608714
 20
1531.153020605333
 30
0.0
 10
-167.4135218005149
 20
1531.156261407312
 30
0.0
 10
-165.9922786632596
 20
1531.159412048092
 30
0.0
 10
-164.5710359734383
 20
1531.162467252304
 30
0.0
 10
-163.0258112323579
 20
1531.165788977137
 30
0.0
 10
-161.4805812982177
 20
1531.168997905951
 30
0.0
 10
-159.9353462600177
 20
1531.17211685691
 30
0.0
 10
-158.2591628051293
 20
1531.175500118268
 30
0.0
 10
-156.5829723311524
 20
1531.178777498966
 30
0.0
 10
-154.9067749240435
 20
1531.181976517255
 30
0.0
 10
-153.1011686555776
 20
1531.185422512012
 30
0.0
 10
-151.2955464992713
 20
1531.188777597239
 30
0.0
 10
-149.4899388285014
 20
1531.19206178783
 30
0.0
 10
-147.5520381687147
 20
1531.195586603999
 30
0.0
 10
-145.6141541948746
 20
1531.199029756362
 30
0.0
 10
-143.676338668819
 20
1531.202428999263
 30
0.0
 10
-141.5955267812938
 20
1531.206079080988
 30
0.0
 10
-139.5147938161495
 20
1531.209678533766
 30
0.0
 10
-137.4340667900528
 20
1531.213269219423
 30
0.0
 10
-135.1959235614785
 20
1531.217131556331
 30
0.0
 10
-132.9577872045756
 20
1531.220983749396
 30
0.0
 10
-130.7196895054971
 20
1531.224861720168
 30
0.0
 10
-128.3109746959085
 20
1531.229035320648
 30
0.0
 10
-125.9023046628143
 20
1531.23323877887
 30
0.0
 10
-123.4936530980708
 20
1531.237511950894
 30
0.0
 10
-120.9016852503619
 20
1531.242110343064
 30
0.0
 10
-118.3097387891358
 20
1531.246789464317
 30
0.0
 10
-115.7178126971224
 20
1531.251582186831
 30
0.0
 10
-112.9283668714419
 20
1531.256740142473
 30
0.0
 10
-110.1389446377674
 20
1531.262029673239
 30
0.0
 10
-107.3495216043881
 20
1531.267453204493
 30
0.0
 10
-104.3464360655561
 20
1531.273292164049
 30
0.0
 10
-101.3433461536798
 20
1531.279286442105
 30
0.0
 10
-98.34025214769292
 20
1531.285536123155
 30
0.0
 10
-95.10606823037404
 20
1531.292266720966
 30
0.0
 10
-91.87189254293014
 20
1531.299293525998
 30
0.0
 10
-88.63772480944647
 20
1531.306444589617
 30
0.0
 10
-85.1534046130538
 20
1531.314148764986
 30
0.0
 10
-81.66892179868398
 20
1531.321997539306
 30
0.0
 10
-78.18451208094405
 20
1531.329952886706
 30
0.0
 10
-74.42937012307368
 20
1531.33852635
 30
0.0
 10
-70.67421600913042
 20
1531.347223810297
 30
0.0
 10
-66.91905014780889
 20
1531.356196361463
 30
0.0
 10
-62.87025162496877
 20
1531.365870515215
 30
0.0
 10
-58.82144357366008
 20
1531.375864453892
 30
0.0
 10
-54.77262635716181
 20
1531.386251402227
 30
0.0
 10
-50.40596931780317
 20
1531.397453745687
 30
0.0
 10
-46.03930512681256
 20
1531.409113216047
 30
0.0
 10
-41.67263520165
 20
1531.421571101125
 30
0.0
 10
-36.94842134083012
 20
1531.435049040693
 30
0.0
 10
-32.22421073308203
 20
1531.44946147512
 30
0.0
 10
-27.50000249336824
 20
1531.464294053454
 30
0.0
  0
LINE
  5
E7
330
1F
100
AcDbEntity
  8
Make2D$Visible$Curves
 62
    18
420
        0
370
    -3
100
AcDbLine
 10
490.5078813665187
 20
1422.685743887668
 30
0.0
 11
486.9708042769727
 21
1406.252184642839
 31
0.0
  0
LINE
  5
E8
330
1F
100
AcDbEntity
  8
Make2D$Visible$Curves
 62
    18
420
        0
370
    -3
100
AcDbLine
 10
490.6429880879717
 20
1406.247748453204
 30
0.0
 11
486.9698529949491
 21
1406.247748509208
 31
0.0
  0
LINE
  5
E9
330
1F
100
AcDbEntity
  8
Make2D$Visible$Curves
 62
    18
420
        0
370
    -3
100
AcDbLine
 10
23.72423674337153
 20
1406.247748441804
 30
0.0
 11
15.46903940507161
 21
1406.247748582104
 31
0.0
  0
LINE
  5
EA
330
1F
100
AcDbEntity
  8
Make2D$Visible$Curves
 62
    18
420
        0
370
    -3
100
AcDbLine
 10
15.46903940507161
 20
1406.247748582104
 30
0.0
 11
-15.46905311842841
 21
1406.247748570104
 31
0.0
  0
LINE
  5
EB
330
1F
100
AcDbEntity
  8
Make2D$Visible$Curves
 62
    18
420
        0
370
    -3
100
AcDbLine
 10
-15.46905311842841
 20
1406.247748570104
 30
0.0
 11
-23.72424851422841
 21
1406.247748441804
 31
0.0
  0
ARC
  5
EC
330
1F
100
AcDbEntity
  8
Make2D$Visible$Curves
 62
    18
420
        0
370
    -3
100
AcDbCircle
 10
-490.6429880879722
 20
1414.247748441804
 30
0.0
 40
7.999999999999289
210
0.0
220
0.0
230
-1.0
100
AcDbArc
 50
208.9999999723939
 51
270.0000000000037
  0
LINE
  5
ED
330
1F
100
AcDbEntity
  8
Make2D$Visible$Curves
 62
    18
420
        0
370
    -3
100
AcDbLine
 10
497.6399457487715
 20
1410.369271486604
 30
0.0
 11
497.7978470264717
 21
1410.654132932104
 31
0.0
  0
LINE
  5
EE
330
1F
100
AcDbEntity
  8
Make2D$Visible$Curves
 62
    18
420
        0
370
    -3
100
AcDbLine
 10
497.7978470264717
 20
1410.654132932104
 30
0.0
 11
521.4512525743716
 21
1453.326006115314
 31
0.0
  0
LINE
  5
EF
330
1F
100
AcDbEntity
  8
Make2D$Visible$Curves
 62
    18
420
        0
370
    -3
100
AcDbLine
 10
521.4512525743716
 20
1453.326006115314
 30
0.0
 11
554.5215231551714
 21
1512.986353522834
 31
0.0
  0
LINE
  5
F0
330
1F
100
AcDbEntity
  8
Make2D$Visible$Curves
 62
    18
420
        0
370
    -3
100
AcDbLine
 10
-486.8126059509177
 20
1405.514277210279
 30
0.0
 11
-486.9698647863244
 21
1406.247748510306
 31
0.0
  0
ARC
  5
F1
330
1F
100
AcDbEntity
  8
Make2D$Visible$Curves
 62
    18
420
        0
370
    -3
100
AcDbCircle
 10
13495.15667369928
 20
-1098.542388273771
 30
0.0
 40
13821.31286476004
100
AcDbArc
 50
169.4084632319041
 51
169.5587835413249
  0
LINE
  5
F2
330
1F
100
AcDbEntity
  8
Make2D$Visible$Curves
 62
    18
420
        0
370
    -3
100
AcDbLine
 10
-150.5430775021572
 20
1355.785775838609
 30
0.0
 11
-150.4281629276594
 21
1356.427045569763
 31
0.0
  0
ARC
  5
F3
330
1F
100
AcDbEntity
  8
Make2D$Visible$Curves
 62
    18
420
        0
370
    -3
100
AcDbCircle
 10
-146.2327199536589
 20
1353.32081385742
 30
0.0
 40
4.926226839405921
100
AcDbArc
 50
95.95463022336915
 51
148.614616260481
  0
ARC
  5
F4
330
1F
100
AcDbEntity
  8
Make2D$Visible$Curves
 62
    18
420
        0
370
    -3
100
AcDbCircle
 10
149.4620776842088
 20
1381.34388745305
 30
0.0
 40
23.28265578950609
210
0.0
220
0.0
230
-1.0
100
AcDbArc
 50
256.9941075959648
 51
263.2952876225182
  0
LINE
  5
F5
330
1F
100
AcDbEntity
  8
Make2D$Visible$Curves
 62
    18
420
        0
370
    -3
100
AcDbLine
 10
-120.7032012752083
 20
1364.085202525805
 30
0.0
 11
-144.2222849491184
 21
1358.658503772676
 31
0.0
  0
SPLINE
  5
F6
330
1F
100
AcDbEntity
  8
Make2D$Visible$Curves
 62
    18
420
        0
370
    -3
100
AcDbSpline
210
0.0
220
0.0
230
1.0
 70
     8
 71
     3
 72
    68
 73
    64
 74
     0
 42
0.000000001
 43
0.0000000001
 40
0.2036616168041414
 40
0.2036616168041414
 40
0.2036616168041414
 40
0.2036616168041414
 40
1.192884462900347
 40
1.192884462900347
 40
1.192884462900347
 40
2.17927308043245
 40
2.17927308043245
 40
2.17927308043245
 40
3.158581382609798
 40
3.158581382609798
 40
3.158581382609798
 40
4.131349408236315
 40
4.131349408236315
 40
4.131349408236315
 40
5.107509709148796
 40
5.107509709148796
 40
5.107509709148796
 40
6.087023563719804
 40
6.087023563719804
 40
6.087023563719804
 40
7.070681561002677
 40
7.070681561002677
 40
7.070681561002677
 40
8.059088689821579
 40
8.059088689821579
 40
8.059088689821579
 40
9.052898333188896
 40
9.052898333188896
 40
9.052898333188896
 40
10.05275377306463
 40
10.05275377306463
 40
10.05275377306463
 40
11.05928874296012
 40
11.05928874296012
 40
11.05928874296012
 40
12.07311260746074
 40
12.07311260746074
 40
12.07311260746074
 40
13.09479348589299
 40
13.09479348589299
 40
13.09479348589299
 40
14.12483541699548
 40
14.12483541699548
 40
14.12483541699548
 40
15.16365049345255
 40
15.16365049345255
 40
15.16365049345255
 40
16.21151970929861
 40
16.21151970929861
 40
16.21151970929861
 40
17.26857036674984
 40
17.26857036674984
 40
17.26857036674984
 40
18.3346679661693
 40
18.3346679661693
 40
18.3346679661693
 40
19.40967220566236
 40
19.40967220566236
 40
19.40967220566236
 40
20.49217292550462
 40
20.49217292550462
 40
20.49217292550462
 40
21.59202971916953
 40
21.59202971916953
 40
21.59202971916953
 40
21.59202971916953
 10
-108.9546876807709
 20
1379.263538617787
 30
0.0
 10
-108.9846620072054
 20
1378.935278671988
 30
0.0
 10
-109.0225527997967
 20
1378.60780382353
 30
0.0
 10
-109.0683016990564
 20
1378.281696454674
 30
0.0
 10
-109.1139215437128
 20
1377.956509013026
 30
0.0
 10
-109.1673582443938
 20
1377.632662864293
 30
0.0
 10
-109.2285489997372
 20
1377.310646768213
 30
0.0
 10
-109.289299805722
 20
1376.990945903809
 30
0.0
 10
-109.3576915328405
 20
1376.673059269215
 30
0.0
 10
-109.4336447852683
 20
1376.357485212026
 30
0.0
 10
-109.5090910012751
 20
1376.044017813017
 30
0.0
 10
-109.5919983712785
 20
1375.732831570508
 30
0.0
 10
-109.6822751220822
 20
1375.424405392032
 30
0.0
 10
-109.772866189411
 20
1375.11490536626
 30
0.0
 10
-109.8708789443828
 20
1374.808181712003
 30
0.0
 10
-109.9762054742572
 20
1374.504718070719
 30
0.0
 10
-110.0818933572165
 20
1374.200213309756
 30
0.0
 10
-110.1949483981688
 20
1373.898982224827
 30
0.0
 10
-110.3152465182249
 20
1373.601510156642
 30
0.0
 10
-110.4360528408687
 20
1373.302781409843
 30
0.0
 10
-110.5641694069592
 20
1373.007829317091
 30
0.0
 10
-110.6994547859071
 20
1372.717143466034
 30
0.0
 10
-110.8353923554686
 20
1372.42505626189
 30
0.0
 10
-110.9785775362378
 20
1372.13725637769
 30
0.0
 10
-111.1288501354937
 20
1371.854238830716
 30
0.0
 10
-111.2799428794573
 20
1371.569676655218
 30
0.0
 10
-111.4382145153089
 20
1371.289923296184
 30
0.0
 10
-111.6034841075626
 20
1371.015480754008
 30
0.0
 10
-111.7697576420959
 20
1370.739371090448
 30
0.0
 10
-111.9431331407606
 20
1370.468606197708
 30
0.0
 10
-112.1234064172198
 20
1370.203696238937
 30
0.0
 10
-112.3048823358464
 20
1369.937019008315
 30
0.0
 10
-112.4933718116089
 20
1369.676241000963
 30
0.0
 10
-112.688644361362
 20
1369.421881217074
 30
0.0
 10
-112.88532918973
 20
1369.165681815258
 30
0.0
 10
-113.0889227355389
 20
1368.91595876857
 30
0.0
 10
-113.2991646917955
 20
1368.673239746498
 30
0.0
 10
-113.5110341789306
 20
1368.428641781183
 30
0.0
 10
-113.7296841839603
 20
1368.19112381957
 30
0.0
 10
-113.954820648083
 20
1367.961220902574
 30
0.0
 10
-114.1817978481355
 20
1367.729438278703
 30
0.0
 10
-114.4153948593859
 20
1367.505368623453
 30
0.0
 10
-114.6552796732059
 20
1367.289551638415
 30
0.0
 10
-114.8972062174136
 20
1367.071897771378
 30
0.0
 10
-115.1455479493219
 20
1366.862620026162
 30
0.0
 10
-115.3999305121355
 20
1366.662258408372
 30
0.0
 10
-115.6565292218348
 20
1366.460151266949
 30
0.0
 10
-115.9192810879805
 20
1366.267111296999
 30
0.0
 10
-116.1877652428744
 20
1366.083672559541
 30
0.0
 10
-116.4586012281085
 20
1365.898626960819
 30
0.0
 10
-116.7352563042231
 20
1365.723361320977
 30
0.0
 10
-117.0172584801472
 20
1365.558395630502
 30
0.0
 10
-117.3016745389056
 20
1365.392017866353
 30
0.0
 10
-117.591487727769
 20
1365.236141784783
 30
0.0
 10
-117.8861738963977
 20
1365.091262489747
 30
0.0
 10
-118.1833209446798
 20
1364.945173329617
 30
0.0
 10
-118.4853462274615
 20
1364.810303072705
 30
0.0
 10
-118.7916630233666
 20
1364.687111644816
 30
0.0
 10
-119.1001225588922
 20
1364.563058471319
 30
0.0
 10
-119.4128143587224
 20
1364.450896245537
 30
0.0
 10
-119.7291211103812
 20
1364.351027080214
 30
0.0
 10
-120.0504764038232
 20
1364.249563912705
 30
0.0
 10
-120.3754281062671
 20
1364.160831943311
 30
0.0
 10
-120.703198848763
 20
1364.08520308567
 30
0.0
  0
LINE
  5
F7
330
1F
100
AcDbEntity
  8
Make2D$Visible$Curves
 62
    18
420
        0
370
    -3
100
AcDbLine
 10
-14.12311199049134
 20
1441.798498107319
 30
0.0
 11
-16.25378446478396
 21
1441.798498107318
 31
0.0
  0
ARC
  5
F8
330
1F
100
AcDbEntity
  8
Make2D$Visible$Curves
 62
    18
420
        0
370
    -3
100
AcDbCircle
 10
-26.10329589303218
 20
1440.062366738265
 30
0.0
 40
10.00135128399147
100
AcDbArc
 50
9.996596644057632
 51
20.68483298520221
  0
ARC
  5
F9
330
1F
100
AcDbEntity
  8
Make2D$Visible$Curves
 62
    18
420
        0
370
    -3
100
AcDbCircle
 10
13.90520760086432
 20
1444.558695409768
 30
0.0
 40
5.506063408442746
100
AcDbArc
 50
88.28963688842764
 51
106.904178165564
  0
LINE
  5
FA
330
1F
100
AcDbEntity
  8
Make2D$Visible$Curves
 62
    18
420
        0
370
    -3
100
AcDbLine
 10
16.25377269706848
 20
1441.798498119596
 30
0.0
 11
14.12310022171607
 21
1441.79849811959
 31
0.0
  0
ARC
  5
FB
330
1F
100
AcDbEntity
  8
Make2D$Visible$Curves
 62
    18
420
        0
370
    -3
100
AcDbCircle
 10
-23.97165701096283
 20
1440.062689889194
 30
0.0
 40
10.00035504588339
210
0.0
220
0.0
230
-1.0
100
AcDbArc
 50
9.99572281527629
 51
50.9524660328313
  0
LINE
  5
FC
330
1F
100
AcDbEntity
  8
Make2D$Visible$Curves
 62
    18
420
        0
370
    -3
100
AcDbLine
 10
98.67041206778993
 20
1398.764500984713
 30
0.0
 11
97.29400145680904
 21
1406.247748441804
 31
0.0
  0
SPLINE
  5
FD
330
1F
100
AcDbEntity
  8
Make2D$Visible$Curves
 62
    18
420
        0
370
    -3
100
AcDbSpline
210
0.0
220
0.0
230
1.0
 70
     8
 71
     3
 72
    65
 73
    61
 74
     0
 42
0.000000001
 43
0.0000000001
 40
3.794950148806188
 40
3.794950148806188
 40
3.794950148806188
 40
3.794950148806188
 40
3.97579386704216
 40
3.97579386704216
 40
3.97579386704216
 40
5.811205215589087
 40
5.811205215589087
 40
5.811205215589087
 40
7.646977906881921
 40
7.646977906881921
 40
7.646977906881921
 40
9.483174560000215
 40
9.483174560000215
 40
9.483174560000215
 40
11.31990240187835
 40
11.31990240187835
 40
11.31990240187835
 40
13.15733098045118
 40
13.15733098045118
 40
13.15733098045118
 40
14.99572962295121
 40
14.99572962295121
 40
14.99572962295121
 40
16.83548153713581
 40
16.83548153713581
 40
16.83548153713581
 40
18.67794185508092
 40
18.67794185508092
 40
18.67794185508092
 40
20.52490469490052
 40
20.52490469490052
 40
20.52490469490052
 40
22.37799079059503
 40
22.37799079059503
 40
22.37799079059503
 40
24.23978729735584
 40
24.23978729735584
 40
24.23978729735584
 40
26.11466400460994
 40
26.11466400460994
 40
26.11466400460994
 40
28.01015620274646
 40
28.01015620274646
 40
28.01015620274646
 40
29.93932024702502
 40
29.93932024702502
 40
29.93932024702502
 40
31.0597034405238
 40
31.0597034405238
 40
31.0597034405238
 40
31.92322315468807
 40
31.92322315468807
 40
31.92322315468807
 40
33.99362794833194
 40
33.99362794833194
 40
33.99362794833194
 40
36.17594771145696
 40
36.17594771145696
 40
36.17594771145696
 40
37.71988930311017
 40
37.71988930311017
 40
37.71988930311017
 40
37.71988930311017
 10
106.1583623410121
 20
1393.648672373684
 30
0.0
 10
106.1450243844725
 20
1393.650507362354
 30
0.0
 10
106.1317081052138
 20
1393.652346655057
 30
0.0
 10
106.1184133897958
 20
1393.654190294938
 30
0.0
 10
105.9834705685597
 20
1393.67290344215
 30
0.0
 10
105.8507461222899
 20
1393.692064672127
 30
0.0
 10
105.7200917989948
 20
1393.711732928029
 30
0.0
 10
105.5893980997577
 20
1393.73140711145
 30
0.0
 10
105.4607741026215
 20
1393.751588541917
 30
0.0
 10
105.3340337672702
 20
1393.772355393542
 30
0.0
 10
105.2072491659882
 20
1393.793129498296
 30
0.0
 10
105.0823494788496
 20
1393.814488950225
 30
0.0
 10
104.9591004344469
 20
1393.836538940977
 30
0.0
 10
104.8357989047546
 20
1393.858598321661
 30
0.0
 10
104.7141511064427
 20
1393.881347788386
 30
0.0
 10
104.5938605368941
 20
1393.904931095592
 30
0.0
 10
104.4735046795319
 20
1393.928527202659
 30
0.0
 10
104.3545111814191
 20
1393.952956205865
 30
0.0
 10
104.2365027158677
 20
1393.978417798578
 30
0.0
 10
104.1184088849344
 20
1394.003897809787
 30
0.0
 10
104.0013067590177
 20
1394.030408993985
 30
0.0
 10
103.8847130568853
 20
1394.058233846585
 30
0.0
 10
103.7680050600444
 20
1394.086085975388
 30
0.0
 10
103.651817719643
 20
1394.115248831976
 30
0.0
 10
103.5355302988122
 20
1394.146128744754
 30
0.0
 10
103.4190349501233
 20
1394.177063872397
 30
0.0
 10
103.3024592214725
 20
1394.209712344574
 30
0.0
 10
103.185009895184
 20
1394.244667727239
 30
0.0
 10
103.0672236947138
 20
1394.279723370726
 30
0.0
 10
102.9485682699955
 20
1394.317088613141
 30
0.0
 10
102.8280282161187
 20
1394.357653207076
 30
0.0
 10
102.7070168668641
 20
1394.39837640311
 30
0.0
 10
102.5841084350276
 20
1394.442309937882
 30
0.0
 10
102.4580291850965
 20
1394.490812699884
 30
0.0
 10
102.3316561298667
 20
1394.539428488958
 30
0.0
 10
102.2009577924147
 20
1394.593089542126
 30
0.0
 10
102.0664976133886
 20
1394.653048452628
 30
0.0
 10
101.9310542766706
 20
1394.713445775933
 30
0.0
 10
101.7896665384609
 20
1394.781144146841
 30
0.0
 10
101.6426641101524
 20
1394.85851669044
 30
0.0
 10
101.4939618689494
 20
1394.936783905295
 30
0.0
 10
101.3375845829356
 20
1395.025894307262
 30
0.0
 10
101.173925256525
 20
1395.130090203173
 30
0.0
 10
101.0071778184123
 20
1395.236252186642
 30
0.0
 10
100.8316175968326
 20
1395.358745757187
 30
0.0
 10
100.6486201900469
 20
1395.504680932981
 30
0.0
 10
100.5422577041262
 20
1395.589501960521
 30
0.0
 10
100.4334668363152
 20
1395.682240373115
 30
0.0
 10
100.3229046995738
 20
1395.784705888964
 30
0.0
 10
100.2376953184681
 20
1395.863675267156
 30
0.0
 10
100.1516269921825
 20
1395.948255765224
 30
0.0
 10
100.0651826222523
 20
1396.039349649365
 30
0.0
 10
99.85725872130149
 20
1396.258456986936
 30
0.0
 10
99.64997509585658
 20
1396.51164763885
 30
0.0
 10
99.45444631628754
 20
1396.810196414581
 30
0.0
 10
99.24798316204749
 20
1397.125440656723
 30
0.0
 10
99.06211287709209
 20
1397.480464536135
 30
0.0
 10
98.91402254896832
 20
1397.879433384083
 30
0.0
 10
98.80946643356731
 20
1398.161117093181
 30
0.0
 10
98.72689168013596
 20
1398.456859840711
 30
0.0
 10
98.67040986623886
 20
1398.764500258738
 30
0.0
  0
ARC
  5
FE
330
1F
100
AcDbEntity
  8
Make2D$Visible$Curves
 62
    18
420
        0
370
    -3
100
AcDbCircle
 10
186.0564725108921
 20
1361.589512717568
 30
0.0
 40
36.00039375492332
100
AcDbArc
 50
185.1510907753963
 51
188.2446549599731
  0
ARC
  5
FF
330
1F
100
AcDbEntity
  8
Make2D$Visible$Curves
 62
    18
420
        0
370
    -3
100
AcDbCircle
 10
238.0863514460493
 20
1381.850196089317
 30
0.0
 40
5.997983582973572
100
AcDbArc
 50
97.78252750173523
 51
172.9434084998499
  0
ARC
  5
100
330
1F
100
AcDbEntity
  8
Make2D$Visible$Curves
 62
    18
420
        0
370
    -3
100
AcDbCircle
 10
238.0882713052907
 20
1381.849752155654
 30
0.0
 40
5.999937745678832
100
AcDbArc
 50
172.9414535767117
 51
174.4999999986856
  0
LINE
  5
101
330
1F
100
AcDbEntity
  8
Make2D$Visible$Curves
 62
    18
420
        0
370
    -3
100
AcDbLine
 10
145.1745326967745
 20
1387.248313187046
 30
0.0
 11
144.9687536980201
 21
1387.377127437093
 31
0.0
  0
ARC
  5
102
330
1F
100
AcDbEntity
  8
Make2D$Visible$Curves
 62
    18
420
        0
370
    -3
100
AcDbCircle
 10
-141.8921987459599
 20
1382.226063727861
 30
0.0
 40
6.000024841764976
210
0.0
220
0.0
230
-1.0
100
AcDbArc
 50
101.7249080879998
 51
120.8473933739342
  0
SPLINE
  5
103
330
1F
100
AcDbEntity
  8
Make2D$Visible$Curves
 62
    18
420
        0
370
    -3
100
AcDbSpline
210
0.0
220
0.0
230
1.0
 70
     8
 71
     3
 72
    55
 73
    51
 74
     0
 42
0.000000001
 43
0.0000000001
 40
0.0
 40
0.0
 40
0.0
 40
0.0
 40
1.869881611075979
 40
3.739763222150836
 40
5.609644833226816
 40
7.479526444302794
 40
9.349408055377651
 40
11.21928966645363
 40
13.08917127753298
 40
14.9590528886011
 40
16.82893449968045
 40
18.69881611075979
 40
20.56869772182792
 40
22.43857933290726
 40
24.30846094398661
 40
26.17834255505473
 40
28.04822416613408
 40
29.91810577721342
 40
31.78798738828155
 40
33.65786899936089
 40
35.52775061044024
 40
37.39763222150836
 40
39.2675138325877
 40
41.13739544366705
 40
43.00727705473518
 40
44.87715866581453
 40
46.74704027689387
 40
48.61692188796199
 40
50.48680349904134
 40
52.35668511012068
 40
54.2265667211888
 40
56.09644833226815
 40
57.9663299433475
 40
59.83621155441563
 40
61.70609316549498
 40
63.57597477657431
 40
65.44585638764244
 40
67.31573799872177
 40
69.18561960980114
 40
71.05550122086925
 40
72.92538283194861
 40
74.79526444302795
 40
76.66514605409608
 40
78.5350276651754
 40
80.40490927625476
 40
82.27479088732288
 40
84.14467249840223
 40
86.01455410948158
 40
87.8844357205497
 40
88.94468321055838
 40
88.94468321055838
 40
88.94468321055838
 40
88.94468321055838
 10
191.4915274007716
 20
1401.052415410104
 30
0.0
 10
190.9471776885715
 20
1401.037520691604
 30
0.0
 10
189.8616862990715
 20
1401.007283531204
 30
0.0
 10
188.2429445403717
 20
1400.960656328804
 30
0.0
 10
186.6341018583715
 20
1400.912843172504
 30
0.0
 10
185.0355208713717
 20
1400.863928041405
 30
0.0
 10
183.4475215434717
 20
1400.813992876704
 30
0.0
 10
181.8703923735717
 20
1400.763117713004
 30
0.0
 10
180.3044214181717
 20
1400.711381550704
 30
0.0
 10
178.7497160282716
 20
1400.658856119604
 30
0.0
 10
177.2063456098716
 20
1400.605610092104
 30
0.0
 10
175.6744777816715
 20
1400.551713853004
 30
0.0
 10
174.1543152370717
 20
1400.497237534204
 30
0.0
 10
172.6461941016715
 20
1400.442254719804
 30
0.0
 10
171.1504696053715
 20
1400.386838567204
 30
0.0
 10
169.6674412632716
 20
1400.331058929004
 30
0.0
 10
168.1973866118716
 20
1400.274983428704
 30
0.0
 10
166.7405817939715
 20
1400.218678171204
 30
0.0
 10
165.2972982195716
 20
1400.162207563604
 30
0.0
 10
163.8678092269716
 20
1400.105634562304
 30
0.0
 10
162.4523037071716
 20
1400.049017107904
 30
0.0
 10
161.0512404524717
 20
1399.992422413804
 30
0.0
 10
159.6645127647715
 20
1399.935893218104
 30
0.0
 10
158.2919709766717
 20
1399.879468251404
 30
0.0
 10
156.9334273052717
 20
1399.823182503004
 30
0.0
 10
155.5889823209717
 20
1399.767080907104
 30
0.0
 10
154.2589221059717
 20
1399.711214522004
 30
0.0
 10
152.9435437435717
 20
1399.655633362004
 30
0.0
 10
151.6430951993715
 20
1399.600383819204
 30
0.0
 10
150.3578041173718
 20
1399.545509827104
 30
0.0
 10
149.0878917689716
 20
1399.491053442804
 30
0.0
 10
147.8335510541716
 20
1399.437053891704
 30
0.0
 10
146.5950199257717
 20
1399.383550734304
 30
0.0
 10
145.3724926714716
 20
1399.330580059004
 30
0.0
 10
144.1661711744717
 20
1399.278176691204
 30
0.0
 10
142.9762349854717
 20
1399.226372918304
 30
0.0
 10
141.8026280328717
 20
1399.175189183604
 30
0.0
 10
140.6451723466715
 20
1399.124639010004
 30
0.0
 10
139.5037474203717
 20
1399.074736890104
 30
0.0
 10
138.3783246547717
 20
1399.025499878204
 30
0.0
 10
137.2692031136716
 20
1398.976957984404
 30
0.0
 10
136.1765854179715
 20
1398.929135655505
 30
0.0
 10
135.1006375652715
 20
1398.882054405204
 30
0.0
 10
134.0415264381717
 20
1398.835734484504
 30
0.0
 10
132.9994107129716
 20
1398.790194513104
 30
0.0
 10
131.9744397949715
 20
1398.745451466004
 30
0.0
 10
130.9667435779717
 20
1398.701520262404
 30
0.0
 10
129.9764827336716
 20
1398.658415996704
 30
0.0
 10
129.1442284387566
 20
1398.622253613319
 30
0.0
 10
128.6434004846757
 20
1398.600525716076
 30
0.0
 10
128.4631218795727
 20
1398.592709133478
 30
0.0
  0
ARC
  5
104
330
1F
100
AcDbEntity
  8
Make2D$Visible$Curves
 62
    18
420
        0
370
    -3
100
AcDbCircle
 10
229.4487236395618
 20
77.61296164592424
 30
0.0
 40
1323.98366172907
100
AcDbArc
 50
90.15441607642272
 51
91.6428338399656
  0
LINE
  5
105
330
1F
100
AcDbEntity
  8
Make2D$Visible$Curves
 62
    18
420
        0
370
    -3
100
AcDbLine
 10
226.8711930721798
 20
1401.593195908614
 30
0.0
 11
225.8805005334738
 21
1401.591815068454
 31
0.0
  0
ARC
  5
106
330
1F
100
AcDbEntity
  8
Make2D$Visible$Curves
 62
    18
420
        0
370
    -3
100
AcDbCircle
 10
-481.9231405435343
 20
1406.562471196826
 30
0.0
 40
5.000563504266204
210
0.0
220
0.0
230
-1.0
100
AcDbArc
 50
192.0998432415161
 51
236.7696800575374
  0
LINE
  5
107
330
1F
100
AcDbEntity
  8
Make2D$Visible$Curves
 62
    18
420
        0
370
    -3
100
AcDbLine
 10
419.4576199434294
 20
1401.706172900913
 30
0.0
 11
385.6862927549709
 21
1401.676180439131
 31
0.0
  0
LINE
  5
108
330
1F
100
AcDbEntity
  8
Make2D$Visible$Curves
 62
    18
420
        0
370
    -3
100
AcDbLine
 10
289.9784994800638
 20
1401.640722605121
 30
0.0
 11
226.8711941256926
 21
1401.593195910215
 31
0.0
  0
LINE
  5
109
330
1F
100
AcDbEntity
  8
Make2D$Visible$Curves
 62
    18
420
        0
370
    -3
100
AcDbLine
 10
420.3245021546028
 20
1401.707192511774
 30
0.0
 11
419.4576126994506
 21
1401.706174594676
 31
0.0
  0
LINE
  5
10A
330
1F
100
AcDbEntity
  8
Make2D$Visible$Curves
 62
    18
420
        0
370
    -3
100
AcDbLine
 10
420.4755558273886
 20
1401.707451010029
 30
0.0
 11
420.3254576376895
 21
1401.707194243917
 31
0.0
  0
LINE
  5
10B
330
1F
100
AcDbEntity
  8
Make2D$Visible$Curves
 62
    18
420
        0
370
    -3
100
AcDbLine
 10
452.8233214107853
 20
1401.762474697454
 30
0.0
 11
420.4750278251425
 21
1401.70745013069
 31
0.0
  0
SPLINE
  5
10C
330
1F
100
AcDbEntity
  8
Make2D$Visible$Curves
 62
    18
420
        0
370
    -3
100
AcDbSpline
210
0.0
220
0.0
230
1.0
 70
     8
 71
     3
 72
    14
 73
    10
 74
     0
 42
0.000000001
 43
0.0000000001
 40
0.6408859892519436
 40
0.6408859892519436
 40
0.6408859892519436
 40
0.6408859892519436
 40
7.48689457662575
 40
7.48689457662575
 40
7.48689457662575
 40
14.26226165607181
 40
14.26226165607181
 40
14.26226165607181
 40
20.83146451223428
 40
20.83146451223428
 40
20.83146451223428
 40
20.83146451223428
 10
-490.5079053645036
 20
1422.68583386375
 30
0.0
 10
-490.6344703605653
 20
1423.27186310245
 30
0.0
 10
-490.8316386052658
 20
1423.746616505171
 30
0.0
 10
-491.0330266755169
 20
1424.117034328315
 30
0.0
 10
-491.2304541414611
 20
1424.480167318629
 30
0.0
 10
-491.4143940355583
 20
1424.714472826329
 30
0.0
 10
-491.5415889431659
 20
1424.859785890461
 30
0.0
 10
-491.6641882670635
 20
1424.999848757371
 30
0.0
 10
-491.7308747026863
 20
1425.053118025268
 30
0.0
 10
-491.7309158231834
 20
1425.053068562094
 30
0.0
  0
LINE
  5
10D
330
1F
100
AcDbEntity
  8
Make2D$Visible$Curves
 62
    18
420
        0
370
    -3
100
AcDbLine
 10
-229.2611863411647
 20
1352.776781119905
 30
0.0
 11
-232.1159678536502
 21
1382.424820704104
 31
0.0
  0
ARC
  5
10E
330
1F
100
AcDbEntity
  8
Make2D$Visible$Curves
 62
    18
420
        0
370
    -3
100
AcDbCircle
 10
-238.0882832403329
 20
1381.849752136656
 30
0.0
 40
5.99993791095151
100
AcDbArc
 50
5.500000031645607
 51
10.24298032751691
  0
ARC
  5
10F
330
1F
100
AcDbEntity
  8
Make2D$Visible$Curves
 62
    18
420
        0
370
    -3
100
AcDbCircle
 10
-142.1493739763677
 20
1382.769395087379
 30
0.0
 40
5.398583546671286
100
AcDbArc
 50
101.2348202677939
 51
117.1548577491638
  0
LINE
  5
110
330
1F
100
AcDbEntity
  8
Make2D$Visible$Curves
 62
    18
420
        0
370
    -3
100
AcDbLine
 10
-420.3255739463333
 20
1401.707194427305
 30
0.0
 11
-420.4742759209581
 21
1401.707448949952
 31
0.0
  0
LINE
  5
111
330
1F
100
AcDbEntity
  8
Make2D$Visible$Curves
 62
    18
420
        0
370
    -3
100
AcDbLine
 10
-420.4737514854952
 20
1401.707448305402
 30
0.0
 11
-452.7962875655566
 21
1401.762181186046
 31
0.0
  0
ARC
  5
112
330
1F
100
AcDbEntity
  8
Make2D$Visible$Curves
 62
    18
420
        0
370
    -3
100
AcDbCircle
 10
481.9231247935413
 20
1406.562492340205
 30
0.0
 40
5.000594845868427
210
0.0
220
0.0
230
-1.0
100
AcDbArc
 50
302.7265229835355
 51
347.8999859818458
  0
SPLINE
  5
113
330
1F
100
AcDbEntity
  8
Make2D$Visible$Curves
 62
    18
420
        0
370
    -3
100
AcDbSpline
210
0.0
220
0.0
230
1.0
 70
     8
 71
     3
 72
    95
 73
    91
 74
     0
 42
0.000000001
 43
0.0000000001
 40
0.7818541467515896
 40
0.7818541467515896
 40
0.7818541467515896
 40
0.7818541467515896
 40
4.484198911436656
 40
4.484198911436656
 40
4.484198911436656
 40
7.766353262844135
 40
7.766353262844135
 40
7.766353262844135
 40
10.69817256361711
 40
10.69817256361711
 40
10.69817256361711
 40
13.33532371590794
 40
13.33532371590794
 40
13.33532371590794
 40
15.72323732631012
 40
15.72323732631012
 40
15.72323732631012
 40
17.88562656051749
 40
17.88562656051749
 40
17.88562656051749
 40
19.82866516685077
 40
19.82866516685077
 40
19.82866516685077
 40
21.56383153853673
 40
21.56383153853673
 40
21.56383153853673
 40
23.14027515984794
 40
23.14027515984794
 40
23.14027515984794
 40
24.6220637934384
 40
24.6220637934384
 40
24.6220637934384
 40
26.07327427742666
 40
26.07327427742666
 40
26.07327427742666
 40
27.54012043871041
 40
27.54012043871041
 40
27.54012043871041
 40
29.01791495869065
 40
29.01791495869065
 40
29.01791495869065
 40
30.49234557272982
 40
30.49234557272982
 40
30.49234557272982
 40
31.94911032166618
 40
31.94911032166618
 40
31.94911032166618
 40
33.40619344674611
 40
33.40619344674611
 40
33.40619344674611
 40
34.92663249478204
 40
34.92663249478204
 40
34.92663249478204
 40
36.5767602316902
 40
36.5767602316902
 40
36.5767602316902
 40
38.41778422047813
 40
38.41778422047813
 40
38.41778422047813
 40
40.47168355010997
 40
40.47168355010997
 40
40.47168355010997
 40
42.74237615550469
 40
42.74237615550469
 40
42.74237615550469
 40
45.24102328867748
 40
45.24102328867748
 40
45.24102328867748
 40
48.00553740313836
 40
48.00553740313836
 40
48.00553740313836
 40
51.08015411830551
 40
51.08015411830551
 40
51.08015411830551
 40
54.51079512276404
 40
54.51079512276404
 40
54.51079512276404
 40
58.35153996075848
 40
58.35153996075848
 40
58.35153996075848
 40
62.68459120577452
 40
62.68459120577452
 40
62.68459120577452
 40
67.56004177922505
 40
67.56004177922505
 40
67.56004177922505
 40
72.98557643030294
 40
72.98557643030294
 40
72.98557643030294
 40
78.96701419777924
 40
78.96701419777924
 40
78.96701419777924
 40
78.96701419777924
 10
-159.6413381553458
 20
1399.934864558144
 30
0.0
 10
-160.5253562802283
 20
1399.971058693759
 30
0.0
 10
-161.4190090236092
 20
1400.007739299273
 30
0.0
 10
-162.32186632696
 20
1400.044720103421
 30
0.0
 10
-163.1222653745723
 20
1400.077504243628
 30
0.0
 10
-163.9298976546587
 20
1400.110523905812
 30
0.0
 10
-164.7445304250817
 20
1400.143674833318
 30
0.0
 10
-165.4721836991722
 20
1400.173286189273
 30
0.0
 10
-166.2055114713647
 20
1400.203005720848
 30
0.0
 10
-166.9441325832385
 20
1400.232758351731
 30
0.0
 10
-167.6085438299759
 20
1400.259521711539
 30
0.0
 10
-168.2774063944229
 20
1400.286318558228
 30
0.0
 10
-168.9504483840418
 20
1400.313098884165
 30
0.0
 10
-169.5599000118692
 20
1400.337348951008
 30
0.0
 10
-170.172901202803
 20
1400.361590315981
 30
0.0
 10
-170.7892582609533
 20
1400.385787656411
 30
0.0
 10
-171.3474177679249
 20
1400.407700240077
 30
0.0
 10
-171.9084203553626
 20
1400.42958027949
 30
0.0
 10
-172.4721220876676
 20
1400.451402941524
 30
0.0
 10
-172.9786523784338
 20
1400.471012317745
 30
0.0
 10
-173.4874279181882
 20
1400.490577898674
 30
0.0
 10
-173.9983468518932
 20
1400.510082103767
 30
0.0
 10
-174.4546130159534
 20
1400.52749995277
 30
0.0
 10
-174.9126357884535
 20
1400.544870662696
 30
0.0
 10
-175.3723419972681
 20
1400.562182291772
 30
0.0
 10
-175.7900018021188
 20
1400.577910536209
 30
0.0
 10
-176.2090848273182
 20
1400.593591255961
 30
0.0
 10
-176.6295423034686
 20
1400.609214544237
 30
0.0
 10
-177.0247571689314
 20
1400.623899871824
 30
0.0
 10
-177.4212164517461
 20
1400.638535606679
 30
0.0
 10
-177.818872218273
 20
1400.653114973089
 30
0.0
 10
-178.2083242026018
 20
1400.667393561901
 30
0.0
 10
-178.5989495214197
 20
1400.681619006038
 30
0.0
 10
-178.9907053525188
 20
1400.695784941712
 30
0.0
 10
-179.3866862098329
 20
1400.710103654817
 30
0.0
 10
-179.7838406000043
 20
1400.724362125096
 30
0.0
 10
-180.1821536134893
 20
1400.738547205057
 30
0.0
 10
-180.58344690504
 20
1400.752838421351
 30
0.0
 10
-180.9859316773337
 20
1400.767055520486
 30
0.0
 10
-181.3896315996823
 20
1400.781172605622
 30
0.0
 10
-181.7924186044842
 20
1400.795257766713
 30
0.0
 10
-182.1964597148486
 20
1400.80924523494
 30
0.0
 10
-182.6016991095759
 20
1400.823126066955
 30
0.0
 10
-183.0020855102028
 20
1400.836840667363
 30
0.0
 10
-183.403676458565
 20
1400.850452359606
 30
0.0
 10
-183.8064103437176
 20
1400.863956113596
 30
0.0
 10
-184.2092339774487
 20
1400.877462876876
 30
0.0
 10
-184.6132269213903
 20
1400.890862482831
 30
0.0
 10
-185.0183428437682
 20
1400.904146352981
 30
0.0
 10
-185.4410760423858
 20
1400.918007898795
 30
0.0
 10
-185.8650664081016
 20
1400.931744579799
 30
0.0
 10
-186.2902545843225
 20
1400.945348951171
 30
0.0
 10
-186.7517123444255
 20
1400.960113808455
 30
0.0
 10
-187.2146209668
 20
1400.97472408713
 30
0.0
 10
-187.6789091015695
 20
1400.989169738617
 30
0.0
 10
-188.1969121199091
 20
1401.005286650749
 30
0.0
 10
-188.7166879314503
 20
1401.021200380027
 30
0.0
 10
-189.238136286424
 20
1401.03689823154
 30
0.0
 10
-189.8198846259562
 20
1401.054411373475
 30
0.0
 10
-190.4037902995011
 20
1401.071658100273
 30
0.0
 10
-190.9897192547572
 20
1401.08862040203
 30
0.0
 10
-191.6375031108036
 20
1401.107373367114
 30
0.0
 10
-192.2878627478668
 20
1401.125781668146
 30
0.0
 10
-192.9406187233384
 20
1401.143821874487
 30
0.0
 10
-193.6589178874807
 20
1401.163673496873
 30
0.0
 10
-194.3802553922966
 20
1401.183083167692
 30
0.0
 10
-195.1043939297286
 20
1401.202021108629
 30
0.0
 10
-195.9056024458265
 20
1401.222974612374
 30
0.0
 10
-196.7104219981169
 20
1401.243355397619
 30
0.0
 10
-197.5185430493037
 20
1401.263120746205
 30
0.0
 10
-198.4173392612048
 20
1401.285103864216
 30
0.0
 10
-199.3204692962153
 20
1401.306331804175
 30
0.0
 10
-200.2275134826601
 20
1401.326745749532
 30
0.0
 10
-201.2396576539592
 20
1401.34952507618
 30
0.0
 10
-202.2568682682398
 20
1401.371295448712
 30
0.0
 10
-203.2789241610279
 20
1401.39198522772
 30
0.0
 10
-204.4231539452463
 20
1401.415148208861
 30
0.0
 10
-205.5734613788287
 20
1401.436956989766
 30
0.0
 10
-206.729545734641
 20
1401.457306323676
 30
0.0
 10
-208.0338097539722
 20
1401.480263907958
 30
0.0
 10
-209.3454362584217
 20
1401.501364279079
 30
0.0
 10
-210.6640125619457
 20
1401.520446602283
 30
0.0
 10
-212.1476321660722
 20
1401.541917417981
 30
0.0
 10
-213.6400772326057
 20
1401.560834045565
 30
0.0
 10
-215.1407519301998
 20
1401.576962195933
 30
0.0
 10
-216.8107351394582
 20
1401.594909949937
 30
0.0
 10
-218.490944789272
 20
1401.609405393185
 30
0.0
 10
-220.1806143046346
 20
1401.620108451402
 30
0.0
 10
-222.0433514120388
 20
1401.631907790575
 30
0.0
 10
-223.917737343006
 20
1401.639100096977
 30
0.0
 10
-225.8025419000641
 20
1401.641190367116
 30
0.0
  0
LINE
  5
114
330
1F
100
AcDbEntity
  8
Make2D$Visible$Curves
 62
    18
420
        0
370
    -3
100
AcDbLine
 10
-290.2946252826372
 20
1401.6559349978
 30
0.0
 11
-383.5675919962431
 21
1401.675844818202
 31
0.0
  0
LINE
  5
115
330
1F
100
AcDbEntity
  8
Make2D$Visible$Curves
 62
    18
420
        0
370
    -3
100
AcDbLine
 10
-419.4530569759365
 20
1401.706169224049
 30
0.0
 11
-420.3247229434763
 21
1401.707192766123
 31
0.0
  0
LINE
  5
116
330
1F
100
AcDbEntity
  8
Make2D$Visible$Curves
 62
    18
420
        0
370
    -3
100
AcDbLine
 10
-226.8363401365233
 20
1401.642264538712
 30
0.0
 11
-290.294625255765
 21
1401.655931399313
 31
0.0
  0
LINE
  5
117
330
1F
100
AcDbEntity
  8
Make2D$Visible$Curves
 62
    18
420
        0
370
    -3
100
AcDbLine
 10
-225.8025419430124
 20
1401.641190367168
 30
0.0
 11
-226.8363400484201
 21
1401.642264538589
 31
0.0
  0
LINE
  5
118
330
1F
100
AcDbEntity
  8
Make2D$Visible$Curves
 62
    18
420
        0
370
    -3
100
AcDbLine
 10
-106.1583848281576
 20
1393.648715923866
 30
0.0
 11
-107.6600155359971
 21
1393.442090536176
 31
0.0
  0
LINE
  5
119
330
1F
100
AcDbEntity
  8
Make2D$Visible$Curves
 62
    18
420
        0
370
    -3
100
AcDbLine
 10
-497.7978587782636
 20
1410.654132897712
 30
0.0
 11
-521.4512643452217
 21
1453.326006115314
 31
0.0
  0
LINE
  5
11A
330
1F
100
AcDbEntity
  8
Make2D$Visible$Curves
 62
    18
420
        0
370
    -3
100
AcDbLine
 10
-521.4512643452283
 20
1453.326006115314
 30
0.0
 11
-554.5215349260284
 21
1512.986353522834
 31
0.0
  0
LINE
  5
11B
330
1F
100
AcDbEntity
  8
Make2D$Visible$Curves
 62
    18
420
        0
370
    -3
100
AcDbLine
 10
108.954675909599
 20
1379.263538621137
 30
0.0
 11
107.6600037651194
 21
1393.442090536154
 31
0.0
  0
SPLINE
  5
11C
330
1F
100
AcDbEntity
  8
Make2D$Visible$Curves
 62
    18
420
        0
370
    -3
100
AcDbSpline
210
0.0
220
0.0
230
1.0
 70
     8
 71
     3
 72
    68
 73
    64
 74
     0
 42
0.000000001
 43
0.0000000001
 40
0.2304640293977338
 40
0.2304640293977338
 40
0.2304640293977338
 40
0.2304640293977338
 40
1.344339668823499
 40
1.344339668823499
 40
1.344339668823499
 40
2.446017321119031
 40
2.446017321119031
 40
2.446017321119031
 40
3.529313879186925
 40
3.529313879186925
 40
3.529313879186925
 40
4.594497692634499
 40
4.594497692634499
 40
4.594497692634499
 40
5.651358876669777
 40
5.651358876669777
 40
5.651358876669777
 40
6.698852552929712
 40
6.698852552929712
 40
6.698852552929712
 40
7.737341853431878
 40
7.737341853431878
 40
7.737341853431878
 40
8.767058585460937
 40
8.767058585460937
 40
8.767058585460937
 40
9.788432238739805
 40
9.788432238739805
 40
9.788432238739805
 40
10.80196820563413
 40
10.80196820563413
 40
10.80196820563413
 40
11.80823856093756
 40
11.80823856093756
 40
11.80823856093756
 40
12.8078546996901
 40
12.8078546996901
 40
12.8078546996901
 40
13.80145121965812
 40
13.80145121965812
 40
13.80145121965812
 40
14.78967338730117
 40
14.78967338730117
 40
14.78967338730117
 40
15.77316860196616
 40
15.77316860196616
 40
15.77316860196616
 40
16.7525779036836
 40
16.7525779036836
 40
16.7525779036836
 40
17.72854002578417
 40
17.72854002578417
 40
17.72854002578417
 40
18.70165477987732
 40
18.70165477987732
 40
18.70165477987732
 40
19.67265703469748
 40
19.67265703469748
 40
19.67265703469748
 40
20.64164797666466
 40
20.64164797666466
 40
20.64164797666466
 40
21.61884023131647
 40
21.61884023131647
 40
21.61884023131647
 40
21.61884023131647
 10
120.7031869032068
 20
1364.085203125946
 30
0.0
 10
120.3712397248211
 20
1364.161795668027
 30
0.0
 10
120.0421849992105
 20
1364.251827192193
 30
0.0
 10
119.7168289833656
 20
1364.354911202005
 30
0.0
 10
119.395013523493
 20
1364.456873441545
 30
0.0
 10
119.0769536562051
 20
1364.571562237375
 30
0.0
 10
118.7633004766677
 20
1364.698551730636
 30
0.0
 10
118.4548858857821
 20
1364.82342026431
 30
0.0
 10
118.1508517643894
 20
1364.96013344678
 30
0.0
 10
117.8517967655172
 20
1365.108218627642
 30
0.0
 10
117.557739885517
 20
1365.253828854599
 30
0.0
 10
117.2685713133741
 20
1365.410397285305
 30
0.0
 10
116.9848117099704
 20
1365.577428724411
 30
0.0
 10
116.703269755628
 20
1365.743154772934
 30
0.0
 10
116.4270926913424
 20
1365.919157165675
 30
0.0
 10
116.1567509119712
 20
1366.104914857234
 30
0.0
 10
115.8888045927043
 20
1366.289026576275
 30
0.0
 10
115.6266034870556
 20
1366.482712456139
 30
0.0
 10
115.3705665032165
 20
1366.685438140126
 30
0.0
 10
115.1167294457526
 20
1366.886421960213
 30
0.0
 10
114.8689439132155
 20
1367.096296326938
 30
0.0
 10
114.6275825970771
 20
1367.314521107638
 30
0.0
 10
114.3882587244426
 20
1367.530903751127
 30
0.0
 10
114.1552311347212
 20
1367.755514177336
 30
0.0
 10
113.928830298487
 20
1367.987812791318
 30
0.0
 10
113.7042621420964
 20
1368.218230983855
 30
0.0
 10
113.4861873156325
 20
1368.456240355527
 30
0.0
 10
113.2748985121051
 20
1368.701306100955
 30
0.0
 10
113.0652292621265
 20
1368.9444933886
 30
0.0
 10
112.8622140720787
 20
1369.194661812214
 30
0.0
 10
112.6661120360849
 20
1369.451284015375
 30
0.0
 10
112.4714139874494
 20
1369.706068938635
 30
0.0
 10
112.28350378267
 20
1369.967250119354
 30
0.0
 10
112.1026108359575
 20
1370.234308894874
 30
0.0
 10
111.9229124346185
 20
1370.499604120016
 30
0.0
 10
111.7501159549698
 20
1370.770733123822
 30
0.0
 10
111.5844246411547
 20
1371.047186065905
 30
0.0
 10
111.4197296584676
 20
1371.321976647631
 30
0.0
 10
111.2620363287218
 20
1371.602057565782
 30
0.0
 10
111.1115247515883
 20
1371.886927104338
 30
0.0
 10
110.9618260795997
 20
1372.170258077435
 30
0.0
 10
110.8192182193262
 20
1372.458351465271
 30
0.0
 10
110.6838606160096
 20
1372.75071246963
 30
0.0
 10
110.5491495077825
 20
1373.041677099134
 30
0.0
 10
110.4216102986819
 20
1373.336888410274
 30
0.0
 10
110.3013837290497
 20
1373.635857005341
 30
0.0
 10
110.1816559003686
 20
1373.933585376371
 30
0.0
 10
110.0691744914751
 20
1374.235053790787
 30
0.0
 10
109.9640629697343
 20
1374.539776908246
 30
0.0
 10
109.8593209023662
 20
1374.843428960552
 30
0.0
 10
109.7618940256388
 20
1375.150321295327
 30
0.0
 10
109.6718895676576
 20
1375.459970659897
 30
0.0
 10
109.5821472567289
 20
1375.768718139493
 30
0.0
 10
109.4997832946304
 20
1376.080209543502
 30
0.0
 10
109.4248891292858
 20
1376.393964764351
 30
0.0
 10
109.3501575728984
 20
1376.70703876512
 30
0.0
 10
109.2828631403894
 20
1377.022367628152
 30
0.0
 10
109.2230826623053
 20
1377.33946531106
 30
0.0
 10
109.1634251439676
 20
1377.655910770167
 30
0.0
 10
109.1112527904423
 20
1377.97410715702
 30
0.0
 10
109.0666246271979
 20
1378.293592344548
 30
0.0
 10
109.0216207989421
 20
1378.615766851956
 30
0.0
 10
108.9842857867285
 20
1378.939269729665
 30
0.0
 10
108.9546759099259
 20
1379.263538617982
 30
0.0
  0
LINE
  5
11D
330
1F
100
AcDbEntity
  8
Make2D$Visible$Curves
 62
    18
420
        0
370
    -3
100
AcDbLine
 10
144.2222731782312
 20
1358.65850377264
 30
0.0
 11
120.7031895043219
 21
1364.085202525769
 31
0.0
  0
ARC
  5
11E
330
1F
100
AcDbEntity
  8
Make2D$Visible$Curves
 62
    18
420
        0
370
    -3
100
AcDbCircle
 10
-149.4620379686361
 20
1381.343725727628
 30
0.0
 40
23.2824919239155
210
0.0
220
0.0
230
-1.0
100
AcDbArc
 50
276.7046726958461
 51
283.0059149517903
  0
LINE
  5
11F
330
1F
100
AcDbEntity
  8
Make2D$Visible$Curves
 62
    18
420
        0
370
    -3
100
AcDbLine
 10
150.5430692273982
 20
1355.785759618339
 30
0.0
 11
150.6066024062819
 21
1355.530055888972
 31
0.0
  0
SPLINE
  5
120
330
1F
100
AcDbEntity
  8
Make2D$Visible$Curves
 62
    18
420
        0
370
    -3
100
AcDbSpline
210
0.0
220
0.0
230
1.0
 70
     8
 71
     3
 72
    74
 73
    70
 74
     0
 42
0.000000001
 43
0.0000000001
 40
3.011220274974682
 40
3.011220274974682
 40
3.011220274974682
 40
3.011220274974682
 40
9.445096719192419
 40
9.445096719192419
 40
9.445096719192419
 40
15.28693214885724
 40
15.28693214885724
 40
15.28693214885724
 40
20.69691091218959
 40
20.69691091218959
 40
20.69691091218959
 40
25.86573548726979
 40
25.86573548726979
 40
25.86573548726979
 40
30.97362241511656
 40
30.97362241511656
 40
30.97362241511656
 40
36.06397686834381
 40
36.06397686834381
 40
36.06397686834381
 40
41.15990449742599
 40
41.15990449742599
 40
41.15990449742599
 40
46.24952555420154
 40
46.24952555420154
 40
46.24952555420154
 40
51.38957694987567
 40
51.38957694987567
 40
51.38957694987567
 40
56.72821868299243
 40
56.72821868299243
 40
56.72821868299243
 40
62.43436127230427
 40
62.43436127230427
 40
62.43436127230427
 40
68.65538242733905
 40
68.65538242733905
 40
68.65538242733905
 40
75.47673816875437
 40
75.47673816875437
 40
75.47673816875437
 40
82.91965289776162
 40
82.91965289776162
 40
82.91965289776162
 40
91.00161884631385
 40
91.00161884631385
 40
91.00161884631385
 40
99.77683257513587
 40
99.77683257513587
 40
99.77683257513587
 40
109.3143059980803
 40
109.3143059980803
 40
109.3143059980803
 40
119.6793673820461
 40
119.6793673820461
 40
119.6793673820461
 40
130.9714629249432
 40
130.9714629249432
 40
130.9714629249432
 40
143.3196662483788
 40
143.3196662483788
 40
143.3196662483788
 40
156.8642325869027
 40
156.8642325869027
 40
156.8642325869027
 40
171.7650383235754
 40
171.7650383235754
 40
171.7650383235754
 40
187.738664077864
 40
187.738664077864
 40
187.738664077864
 40
187.738664077864
 10
294.0003016297497
 20
1530.706825411855
 30
0.0
 10
296.1449199606478
 20
1530.70257506166
 30
0.0
 10
298.2895431758692
 20
1530.699130422376
 30
0.0
 10
300.4341694606986
 20
1530.696483672568
 30
0.0
 10
302.3814550309397
 20
1530.694080467055
 30
0.0
 10
304.3287330888573
 20
1530.69233522037
 30
0.0
 10
306.2760023123004
 20
1530.69123245552
 30
0.0
 10
308.0793302478913
 20
1530.690211206565
 30
0.0
 10
309.8826567140246
 20
1530.689740950932
 30
0.0
 10
311.6859807239779
 20
1530.689802753862
 30
0.0
 10
313.4089266651603
 20
1530.689861802101
 30
0.0
 10
315.1318683243766
 20
1530.690406539103
 30
0.0
 10
316.854804916307
 20
1530.691415640501
 30
0.0
 10
318.5574382222754
 20
1530.692412850531
 30
0.0
 10
320.2600667728206
 20
1530.693863552257
 30
0.0
 10
321.962689895853
 20
1530.695743305143
 30
0.0
 10
323.6594790033636
 20
1530.697616617081
 30
0.0
 10
325.3562624319867
 20
1530.699916047735
 30
0.0
 10
327.0530396100766
 20
1530.702614294144
 30
0.0
 10
328.751685783165
 20
1530.705315512664
 30
0.0
 10
330.4503256425515
 20
1530.708416430495
 30
0.0
 10
332.1489587124355
 20
1530.711887245893
 30
0.0
 10
333.8455016323386
 20
1530.71535379049
 30
0.0
 10
335.542037772478
 20
1530.719189326776
 30
0.0
 10
337.2385667553973
 20
1530.723362467823
 30
0.0
 10
338.9519184769018
 20
1530.727576989631
 30
0.0
 10
340.6652629818428
 20
1530.732135848688
 30
0.0
 10
342.3785999762925
 20
1530.737005655153
 30
0.0
 10
344.1581470750347
 20
1530.742063650161
 30
0.0
 10
345.9376862398589
 20
1530.747457093687
 30
0.0
 10
347.7172172406102
 20
1530.753148090072
 30
0.0
 10
349.6192630504646
 20
1530.759230892687
 30
0.0
 10
351.5212998235969
 20
1530.76565363548
 30
0.0
 10
353.4233273902713
 20
1530.772370285914
 30
0.0
 10
355.4969974695945
 20
1530.779693059402
 30
0.0
 10
357.5706570765896
 20
1530.787365188493
 30
0.0
 10
359.644306119996
 20
1530.795328456869
 30
0.0
 10
361.9180852725914
 20
1530.804060268879
 30
0.0
 10
364.1918524524914
 20
1530.81314214131
 30
0.0
 10
366.4656076818675
 20
1530.822500785339
 30
0.0
 10
368.9465700875841
 20
1530.832712282032
 30
0.0
 10
371.4275193222351
 20
1530.843253309841
 30
0.0
 10
373.9084555541402
 20
1530.85403518082
 30
0.0
 10
376.6024314306359
 20
1530.865742898231
 30
0.0
 10
379.2963934193675
 20
1530.877734616645
 30
0.0
 10
381.9903418470961
 20
1530.889907440886
 30
0.0
 10
384.9153963601269
 20
1530.903124536699
 30
0.0
 10
387.8404367760296
 20
1530.916555164995
 30
0.0
 10
390.7654635679354
 20
1530.930083637701
 30
0.0
 10
393.944600530533
 20
1530.944787389388
 30
0.0
 10
397.1237237905024
 20
1530.959606744364
 30
0.0
 10
400.3028339246838
 20
1530.974415884751
 30
0.0
 10
403.7578295288259
 20
1530.990510173021
 30
0.0
 10
407.2128125515136
 20
1531.006592412115
 30
0.0
 10
410.6677835927863
 20
1531.022531590404
 30
0.0
 10
414.4317869277714
 20
1531.039896459609
 30
0.0
 10
418.1957795095321
 20
1531.057091537067
 30
0.0
 10
421.95976185092
 20
1531.073986636387
 30
0.0
 10
426.0757980445982
 20
1531.092461972875
 30
0.0
 10
430.1918260046253
 20
1531.110578581799
 30
0.0
 10
434.3078460201292
 20
1531.128214930975
 30
0.0
 10
438.8226676418157
 20
1531.147560067853
 30
0.0
 10
443.3374842117499
 20
1531.166327336457
 30
0.0
 10
447.852295642347
 20
1531.184414470961
 30
0.0
 10
452.8191958229642
 20
1531.204312753096
 30
0.0
 10
457.7860946725367
 20
1531.22338780106
 30
0.0
 10
462.7529915815034
 20
1531.241569636804
 30
0.0
 10
468.0774992888697
 20
1531.261060543567
 30
0.0
 10
473.4020095679429
 20
1531.279524880017
 30
0.0
 10
478.7265212823432
 20
1531.296941728953
 30
0.0
  0
SPLINE
  5
121
330
1F
100
AcDbEntity
  8
Make2D$Visible$Curves
 62
    18
420
        0
370
    -3
100
AcDbSpline
210
0.0
220
0.0
230
1.0
 70
     8
 71
     3
 72
   119
 73
   115
 74
     0
 42
0.000000001
 43
0.0000000001
 40
2.664680283879618
 40
2.664680283879618
 40
2.664680283879618
 40
2.664680283879618
 40
17.91464164387189
 40
17.91464164387189
 40
17.91464164387189
 40
32.01424698701847
 40
32.01424698701847
 40
32.01424698701847
 40
45.0292310223559
 40
45.0292310223559
 40
45.0292310223559
 40
57.02781505066909
 40
57.02781505066909
 40
57.02781505066909
 40
68.08617971841078
 40
68.08617971841078
 40
68.08617971841078
 40
78.28137186029355
 40
78.28137186029355
 40
78.28137186029355
 40
87.68264604367681
 40
87.68264604367681
 40
87.68264604367681
 40
96.35720612233582
 40
96.35720612233582
 40
96.35720612233582
 40
104.3681049144528
 40
104.3681049144528
 40
104.3681049144528
 40
111.770442414427
 40
111.770442414427
 40
111.770442414427
 40
118.6107723292544
 40
118.6107723292544
 40
118.6107723292544
 40
124.9349399023898
 40
124.9349399023898
 40
124.9349399023898
 40
130.7917377735266
 40
130.7917377735266
 40
130.7917377735266
 40
136.2159433589506
 40
136.2159433589506
 40
136.2159433589506
 40
141.2106109257716
 40
141.2106109257716
 40
141.2106109257716
 40
145.7695601110889
 40
145.7695601110889
 40
145.7695601110889
 40
149.9401018123609
 40
149.9401018123609
 40
149.9401018123609
 40
153.8377262213081
 40
153.8377262213081
 40
153.8377262213081
 40
157.5972953057761
 40
157.5972953057761
 40
157.5972953057761
 40
161.3249802569886
 40
161.3249802569886
 40
161.3249802569886
 40
165.0625101532262
 40
165.0625101532262
 40
165.0625101532262
 40
168.8034564306524
 40
168.8034564306524
 40
168.8034564306524
 40
172.5340651267256
 40
172.5340651267256
 40
172.5340651267256
 40
176.2738856327496
 40
176.2738856327496
 40
176.2738856327496
 40
180.1051595872055
 40
180.1051595872055
 40
180.1051595872055
 40
184.1458382168358
 40
184.1458382168358
 40
184.1458382168358
 40
188.5084490238397
 40
188.5084490238397
 40
188.5084490238397
 40
193.2697260603362
 40
193.2697260603362
 40
193.2697260603362
 40
198.4533494613664
 40
198.4533494613664
 40
198.4533494613664
 40
204.0589046210915
 40
204.0589046210915
 40
204.0589046210915
 40
210.1052266047529
 40
210.1052266047529
 40
210.1052266047529
 40
216.6368530051318
 40
216.6368530051318
 40
216.6368530051318
 40
223.7082397193814
 40
223.7082397193814
 40
223.7082397193814
 40
231.3710806648045
 40
231.3710806648045
 40
231.3710806648045
 40
239.679225214863
 40
239.679225214863
 40
239.679225214863
 40
248.6961166760174
 40
248.6961166760174
 40
248.6961166760174
 40
258.4936002374097
 40
258.4936002374097
 40
258.4936002374097
 40
269.1661520044799
 40
269.1661520044799
 40
269.1661520044799
 40
269.1661520044799
 10
27.50000698649977
 20
1531.464389901409
 30
0.0
 10
32.58330215835887
 20
1531.448428842692
 30
0.0
 10
37.66659917477555
 20
1531.432937908608
 30
0.0
 10
42.74989926168393
 20
1531.418535817061
 30
0.0
 10
47.44975848711245
 20
1531.405220096631
 30
0.0
 10
52.14961081804477
 20
1531.392835166881
 30
0.0
 10
56.84945437714848
 20
1531.380948726306
 30
0.0
 10
61.18778200638617
 20
1531.369976600763
 30
0.0
 10
65.52609725060097
 20
1531.359429238923
 30
0.0
 10
69.86439967508534
 20
1531.349212885786
 30
0.0
 10
73.86386001321642
 20
1531.339794478498
 30
0.0
 10
77.86339068612712
 20
1531.330657201828
 30
0.0
 10
81.86295192488038
 20
1531.321606010383
 30
0.0
 10
85.54905129861716
 20
1531.313264197589
 30
0.0
 10
89.23516359157902
 20
1531.304995524852
 30
0.0
 10
92.9212892864182
 20
1531.297040049782
 30
0.0
 10
96.31967399415204
 20
1531.289705583446
 30
0.0
 10
99.71806405514457
 20
1531.282637362937
 30
0.0
 10
103.1164593165058
 20
1531.275819061442
 30
0.0
 10
106.2502183242071
 20
1531.269531707534
 30
0.0
 10
109.3839705159309
 20
1531.263456874563
 30
0.0
 10
112.5177157382551
 20
1531.257553239825
 30
0.0
 10
115.4092194377412
 20
1531.252105961736
 30
0.0
 10
118.3007265407244
 20
1531.246804422517
 30
0.0
 10
121.1922611692446
 20
1531.241617610772
 30
0.0
 10
123.8625249369844
 20
1531.236827712931
 30
0.0
 10
126.5328121787374
 20
1531.232135655656
 30
0.0
 10
129.203147503345
 20
1531.227492982787
 30
0.0
 10
131.6705569544503
 20
1531.223203118959
 30
0.0
 10
134.1380074581956
 20
1531.218955419022
 30
0.0
 10
136.6054739446951
 20
1531.214699768984
 30
0.0
 10
138.885543818041
 20
1531.210767322688
 30
0.0
 10
141.165627338645
 20
1531.206828088008
 30
0.0
 10
143.4457935607824
 20
1531.202832028756
 30
0.0
 10
145.5537927505526
 20
1531.199137697358
 30
0.0
 10
147.6618626243724
 20
1531.195394798651
 30
0.0
 10
149.7699510646824
 20
1531.191549970249
 30
0.0
 10
151.7222006805701
 20
1531.187989367843
 30
0.0
 10
153.6744662193822
 20
1531.184341348866
 30
0.0
 10
155.6267386744102
 20
1531.180590637014
 30
0.0
 10
157.4348111093278
 20
1531.177116962685
 30
0.0
 10
159.2428761396361
 20
1531.173555227422
 30
0.0
 10
161.0509336214477
 20
1531.169853101502
 30
0.0
 10
162.7158232558079
 20
1531.166444121902
 30
0.0
 10
164.3807087204389
 20
1531.162916107423
 30
0.0
 10
166.0455899464252
 20
1531.159261880132
 30
0.0
 10
167.5652353899929
 20
1531.15592642907
 30
0.0
 10
169.0848812345729
 20
1531.152485812142
 30
0.0
 10
170.6045274329776
 20
1531.14893868639
 30
0.0
 10
171.9947055547132
 20
1531.145693762261
 30
0.0
 10
173.3848821321395
 20
1531.142359709749
 30
0.0
 10
174.7750571297017
 20
1531.138936067066
 30
0.0
 10
176.0742567434581
 20
1531.135736473304
 30
0.0
 10
177.3734607516229
 20
1531.132458619866
 30
0.0
 10
178.6726691186252
 20
1531.129099930283
 30
0.0
 10
179.9258793619016
 20
1531.125860154203
 30
0.0
 10
181.1790381888698
 20
1531.122545305621
 30
0.0
 10
182.4322251994333
 20
1531.119213978018
 30
0.0
 10
183.6748042803534
 20
1531.115910849308
 30
0.0
 10
184.9173615039178
 20
1531.112591631067
 30
0.0
 10
186.1598964704848
 20
1531.1091190833
 30
0.0
 10
187.4057487559643
 20
1531.105637264528
 30
0.0
 10
188.6515867852329
 20
1531.10200132104
 30
0.0
 10
189.8974103201159
 20
1531.098176704775
 30
0.0
 10
191.1443726911575
 20
1531.094348592341
 30
0.0
 10
192.3913483481068
 20
1531.09033135259
 30
0.0
 10
193.6383373368124
 20
1531.086180666048
 30
0.0
 10
194.881851894308
 20
1531.082041544382
 30
0.0
 10
196.1253808030486
 20
1531.07776971078
 30
0.0
 10
197.3689242010628
 20
1531.073422324127
 30
0.0
 10
198.6155126527828
 20
1531.069064292066
 30
0.0
 10
199.8621116052771
 20
1531.064630352984
 30
0.0
 10
201.1087211814153
 20
1531.060159980276
 30
0.0
 10
202.3858450480844
 20
1531.05558018257
 30
0.0
 10
203.6629209061389
 20
1531.050962360801
 30
0.0
 10
204.9399701777936
 20
1531.046333211133
 30
0.0
 10
206.2868764903447
 20
1531.041450838113
 30
0.0
 10
207.6337532282871
 20
1531.036555863983
 30
0.0
 10
208.9806221651694
 20
1531.031662185203
 30
0.0
 10
210.4348181380822
 20
1531.026378547143
 30
0.0
 10
211.8890050171236
 20
1531.021096419102
 30
0.0
 10
213.343204178026
 20
1531.01581422135
 30
0.0
 10
214.9302652068914
 20
1531.010049419373
 30
0.0
 10
216.5173408643867
 20
1531.004284534366
 30
0.0
 10
218.1044497146653
 20
1530.998497588368
 30
0.0
 10
219.8322700749102
 20
1530.99219757743
 30
0.0
 10
221.5601297745252
 20
1530.98587142028
 30
0.0
 10
223.2880381994457
 20
1530.979474993986
 30
0.0
 10
225.1565537586943
 20
1530.972558063735
 30
0.0
 10
227.0250590435196
 20
1530.965559210117
 30
0.0
 10
228.8935537996017
 20
1530.958420432923
 30
0.0
 10
230.9089863959271
 20
1530.950720264534
 30
0.0
 10
232.9244117411995
 20
1530.942857284504
 30
0.0
 10
234.939829566132
 20
1530.934787633072
 30
0.0
 10
237.1170179737999
 20
1530.926070258772
 30
0.0
 10
239.2942083788319
 20
1530.917111663011
 30
0.0
 10
241.4714007147693
 20
1530.907932019589
 30
0.0
 10
243.8284932429742
 20
1530.897993867335
 30
0.0
 10
246.1856001164007
 20
1530.887796571162
 30
0.0
 10
248.5427216946168
 20
1530.877450486873
 30
0.0
 10
251.0969499432603
 20
1530.866239244739
 30
0.0
 10
253.6512048796997
 20
1530.854853237747
 30
0.0
 10
256.2054874299646
 20
1530.84350584784
 30
0.0
 10
258.9748036497599
 20
1530.831203171726
 30
0.0
 10
261.7441580528971
 20
1530.818945851764
 30
0.0
 10
264.5135519613496
 20
1530.807051759283
 30
0.0
 10
267.5191131807172
 20
1530.794143366949
 30
0.0
 10
270.5247179393908
 20
1530.781662813291
 30
0.0
 10
273.5303671282582
 20
1530.76999698091
 30
0.0
 10
276.7961233321485
 20
1530.757321594636
 30
0.0
 10
280.0619308328616
 20
1530.745608028295
 30
0.0
 10
283.3277887528754
 20
1530.735285664805
 30
0.0
 10
286.8852617656245
 20
1530.724041596495
 30
0.0
 10
290.4427675350079
 20
1530.714448520353
 30
0.0
 10
294.0003015328958
 20
1530.70677750002
 30
0.0
  0
ARC
  5
122
330
1F
100
AcDbEntity
  8
Make2D$Visible$Curves
 62
    18
420
        0
370
    -3
100
AcDbCircle
 10
-0.0151207790297594
 20
-7144.020137008369
 30
0.0
 40
8675.528064366235
210
0.0
220
0.0
230
-1.0
100
AcDbArc
 50
89.81828159996876
 51
90.18151855737635
  0
ARC
  5
123
330
1F
100
AcDbEntity
  8
Make2D$Visible$Curves
 62
    18
420
        0
370
    -3
100
AcDbCircle
 10
-226.2749863969724
 20
1353.064317913182
 30
0.0
 40
2.999999535677684
210
0.0
220
0.0
230
-1.0
100
AcDbArc
 50
185.4999919457875
 51
270.0000080550425
  0
ARC
  5
124
330
1F
100
AcDbEntity
  8
Make2D$Visible$Curves
 62
    18
420
        0
370
    -3
100
AcDbCircle
 10
596.6369448096488
 20
1531.534815607265
 30
0.0
 40
0.2012924549219156
210
0.0
220
0.0
230
-1.0
100
AcDbArc
 50
359.5758661494953
 51
3.041251062078447
  0
LINE
  5
125
330
1F
100
AcDbEntity
  8
Make2D$Visible$Curves
 62
    18
420
        0
370
    -3
100
AcDbLine
 10
584.7786762464278
 20
1513.562305421604
 30
0.0
 11
585.5802173936717
 21
1513.562305421604
 31
0.0
  0
LINE
  5
126
330
1F
100
AcDbEntity
  8
Make2D$Visible$Curves
 62
    18
420
        0
370
    -3
100
AcDbLine
 10
-80.84580953151237
 20
1450.062305421176
 30
0.0
 11
-79.97252927758666
 21
1450.062305423125
 31
0.0
  0
LINE
  5
127
330
1F
100
AcDbEntity
  8
Make2D$Visible$Curves
 62
    18
420
        0
370
    -3
100
AcDbLine
 10
-14.0289462148304
 20
1450.06853127643
 30
0.0
 11
-14.06963208732839
 21
1450.062305552574
 31
0.0
  0
LINE
  5
128
330
1F
100
AcDbEntity
  8
Make2D$Visible$Curves
 62
    18
420
        0
370
    -3
100
AcDbLine
 10
150.4147386995716
 20
1356.441217656635
 30
0.0
 11
150.51806315329
 21
1355.734848603306
 31
0.0
  0
LINE
  5
129
330
1F
100
AcDbEntity
  8
Make2D$Visible$Curves
 62
    18
420
        0
370
    -3
100
AcDbLine
 10
-482.796620802153
 20
1402.009989428503
 30
0.0
 11
-482.5186756792536
 21
1402.003400661277
 31
0.0
  0
LINE
  5
12A
330
1F
100
AcDbEntity
  8
Make2D$Visible$Curves
 62
    18
420
        0
370
    -3
100
AcDbLine
 10
-150.3827611021623
 20
1356.474650547375
 30
0.0
 11
-150.4281629276591
 21
1356.427045569763
 31
0.0
  0
LINE
  5
12B
330
1F
100
AcDbEntity
  8
Make2D$Visible$Curves
 62
    18
420
        0
370
    -3
100
AcDbLine
 10
-497.6515584546529
 20
1410.39020012737
 30
0.0
 11
-497.6399575159284
 21
1410.369271479904
 31
0.0
  0
SPLINE
  5
12C
330
1F
100
AcDbEntity
  8
Make2D$Visible$Curves
 62
    18
420
        0
370
    -3
100
AcDbSpline
210
0.0
220
0.0
230
1.0
 70
     8
 71
     3
 72
    31
 73
    27
 74
     0
 42
0.000000001
 43
0.0000000001
 40
-248.9724555635448
 40
-248.9724555635448
 40
-248.9724555635448
 40
-248.9724555635448
 40
-247.5131714446746
 40
-236.7517292079457
 40
-225.9902869712168
 40
-215.2288447344879
 40
-204.467402497759
 40
-193.70596026103
 40
-182.9445180243313
 40
-172.1830757876023
 40
-161.4216335508735
 40
-150.6601913141445
 40
-139.8987490774156
 40
-129.1373068406867
 40
-118.3758646039578
 40
-107.614422367259
 40
-96.8529801305301
 40
-86.09153789380119
 40
-75.33009565707226
 40
-64.56865342034334
 40
-53.80721118361443
 40
-43.04576894688554
 40
-32.28432671018673
 40
-21.52288447345784
 40
-10.76144223672892
 40
0.0
 40
0.0
 40
0.0
 40
0.0
 10
481.574000082947
 20
1531.301391964988
 30
0.0
 10
480.7801755881229
 20
1531.298768175617
 30
0.0
 10
474.1796391427639
 20
1531.276743604839
 30
0.0
 10
462.4954917720717
 20
1531.234590467863
 30
0.0
 10
447.6274048289716
 20
1531.174875691583
 30
0.0
 10
434.1090518906716
 20
1531.11590022017
 30
0.0
 10
421.7839690222717
 20
1531.058772902775
 30
0.0
 10
410.5142688795717
 20
1531.004386309944
 30
0.0
 10
400.1663999737717
 20
1530.953353312444
 30
0.0
 10
390.6379842437717
 20
1530.906166614447
 30
0.0
 10
381.8753829716717
 20
1530.863318625303
 30
0.0
 10
373.8035395211717
 20
1530.824970349393
 30
0.0
 10
366.3622364505717
 20
1530.791164237629
 30
0.0
 10
359.5422167052717
 20
1530.761997822707
 30
0.0
 10
353.3357740081716
 20
1530.737381810142
 30
0.0
 10
347.6556525011716
 20
1530.71678557376
 30
0.0
 10
342.3458599509717
 20
1530.699465018718
 30
0.0
 10
337.2333693549716
 20
1530.684780145708
 30
0.0
 10
332.1528282494716
 20
1530.672342720561
 30
0.0
 10
327.0497191214716
 20
1530.662244828507
 30
0.0
 10
321.9670468958717
 20
1530.654766661282
 30
0.0
 10
316.8585940690717
 20
1530.65002658961
 30
0.0
 10
311.7275996139716
 20
1530.648218282809
 30
0.0
 10
306.3469031693716
 20
1530.649584200908
 30
0.0
 10
300.5406144707716
 20
1530.655100767884
 30
0.0
 10
296.2437058688716
 20
1530.662153439693
 30
0.0
 10
294.0001673561716
 20
1530.66696019568
 30
0.0
  0
LINE
  5
12D
330
1F
100
AcDbEntity
  8
Make2D$Visible$Curves
 62
    18
420
        0
370
    -3
100
AcDbLine
 10
603.9898960956388
 20
1527.17150802897
 30
0.0
 11
603.9867955715016
 21
1527.177599581653
 31
0.0
  0
LINE
  5
12E
330
1F
100
AcDbEntity
  8
Make2D$Visible$Curves
 62
    18
420
        0
370
    -3
100
AcDbLine
 10
-27.50000636501261
 20
1531.467423567732
 30
0.0
 11
-27.50001034302852
 21
1531.523370246064
 31
0.0
  0
LINE
  5
12F
330
1F
100
AcDbEntity
  8
Make2D$Visible$Curves
 62
    18
420
        0
370
    -3
100
AcDbLine
 10
-604.8574058562793
 20
1523.392755134902
 30
0.0
 11
-604.8575039006284
 21
1523.398372178484
 31
0.0
  0
LINE
  5
130
330
1F
100
AcDbEntity
  8
Make2D$Visible$Curves
 62
    18
420
        0
370
    -3
100
AcDbLine
 10
486.9708042769729
 20
1406.252184642839
 30
0.0
 11
486.8125941545294
 21
1405.51427721604
 31
0.0
  0
LINE
  5
131
330
1F
100
AcDbEntity
  8
Make2D$Visible$Curves
 62
    18
420
        0
370
    -3
100
AcDbLine
 10
-486.969864786322
 20
1406.247748510296
 30
0.0
 11
-490.6429998588284
 21
1406.247748453204
 31
0.0
  0
SPLINE
  5
132
330
1F
100
AcDbEntity
  8
Make2D$Visible$Curves
 62
    18
420
        0
370
    -3
100
AcDbSpline
210
0.0
220
0.0
230
1.0
 70
     8
 71
     3
 72
    17
 73
    13
 74
     0
 42
0.000000001
 43
0.0000000001
 40
69.3096389852972
 40
69.3096389852972
 40
69.3096389852972
 40
69.3096389852972
 40
75.0351550408148
 40
75.0351550408148
 40
75.0351550408148
 40
81.80513410364873
 40
81.80513410364873
 40
81.80513410364873
 40
88.7090155028458
 40
88.7090155028458
 40
88.7090155028458
 40
88.74658056688092
 40
88.74658056688092
 40
88.74658056688092
 40
88.74658056688092
 10
491.7282409167691
 20
1425.050916671956
 30
0.0
 10
491.7149381391688
 20
1425.03987237086
 30
0.0
 10
491.6520127762411
 20
1424.985350705595
 30
0.0
 10
491.5463942431114
 20
1424.865275737011
 30
0.0
 10
491.4207781301583
 20
1424.722466039041
 30
0.0
 10
491.2380874725037
 20
1424.491218832639
 30
0.0
 10
491.0409951179371
 20
1424.131653004484
 30
0.0
 10
490.838091856367
 20
1423.761486036607
 30
0.0
 10
490.638256633108
 20
1423.284946423011
 30
0.0
 10
490.5097054207371
 20
1422.694186178454
 30
0.0
 10
490.5091044504733
 20
1422.69142440489
 30
0.0
 10
490.5085003473249
 20
1422.688638620646
 30
0.0
 10
490.5078932240978
 20
1422.685828752765
 30
0.0
  0
LINE
  5
133
330
1F
100
AcDbEntity
  8
Make2D$Visible$Curves
 62
    18
420
        0
370
    -3
100
AcDbLine
 10
-486.9698647863244
 20
1406.247748510306
 30
0.0
 11
-490.5078931715499
 21
1422.685743916829
 31
0.0
  0
ARC
  5
134
330
1F
100
AcDbEntity
  8
Make2D$Visible$Curves
 62
    18
420
        0
370
    -3
100
AcDbCircle
 10
-80.84604098311479
 20
1440.062361621418
 30
0.0
 40
9.99989975900128
100
AcDbArc
 50
91.19293689005967
 51
169.4107388014613
  0
LINE
  5
135
330
1F
100
AcDbEntity
  8
Make2D$Visible$Curves
 62
    18
420
        0
370
    -3
100
AcDbLine
 10
-97.29401322961178
 20
1406.247748441805
 30
0.0
 11
-98.6704238387075
 21
1398.764500984482
 31
0.0
  0
ARC
  5
136
330
1F
100
AcDbEntity
  8
Make2D$Visible$Curves
 62
    18
420
        0
370
    -3
100
AcDbCircle
 10
-186.0564838030575
 20
1361.589512689735
 30
0.0
 40
36.00039326403439
100
AcDbArc
 50
351.7553450567133
 51
354.8489061664276
  0
LINE
  5
137
330
1F
100
AcDbEntity
  8
Make2D$Visible$Curves
 62
    18
420
        0
370
    -3
100
AcDbLine
 10
-107.6600155359969
 20
1393.442090536176
 30
0.0
 11
-108.9546876804792
 21
1379.263538621138
 31
0.0
  0
LINE
  5
138
330
1F
100
AcDbEntity
  8
Make2D$Visible$Curves
 62
    18
420
        0
370
    -3
100
AcDbLine
 10
-16.74665603693472
 20
1443.595116107962
 30
0.0
 11
-16.65919279797629
 21
1443.25258763691
 31
0.0
  0
ARC
  5
139
330
1F
100
AcDbEntity
  8
Make2D$Visible$Curves
 62
    18
420
        0
370
    -3
100
AcDbCircle
 10
23.97166944746151
 20
1440.062689604465
 30
0.0
 40
10.00035575076313
210
0.0
220
0.0
230
-1.0
100
AcDbArc
 50
129.0652848588179
 51
170.0042763114413
  0
ARC
  5
13A
330
1F
100
AcDbEntity
  8
Make2D$Visible$Curves
 62
    18
420
        0
370
    -3
100
AcDbCircle
 10
-26.10067209991854
 20
1440.063977890313
 30
0.0
 40
9.998327541078595
100
AcDbArc
 50
20.68150641939845
 51
89.997464452965
  0
ARC
  5
13B
330
1F
100
AcDbEntity
  8
Make2D$Visible$Curves
 62
    18
420
        0
370
    -3
100
AcDbCircle
 10
-11.38457841636705
 20
1451.604296921792
 30
0.0
 40
1.997271658910882
100
AcDbArc
 50
230.5382415857379
 51
243.6963840605732
  0
LINE
  5
13C
330
1F
100
AcDbEntity
  8
Make2D$Visible$Curves
 62
    18
420
        0
370
    -3
100
AcDbLine
 10
12.27092052829755
 20
1449.81434927081
 30
0.0
 11
12.26784779272418
 21
1449.813066958652
 31
0.0
  0
LINE
  5
13D
330
1F
100
AcDbEntity
  8
Make2D$Visible$Curves
 62
    18
420
        0
370
    -3
100
AcDbLine
 10
12.30297135429521
 20
1449.830020614189
 30
0.0
 11
12.65421966364704
 21
1450.06251429409
 31
0.0
  0
ARC
  5
13E
330
1F
100
AcDbEntity
  8
Make2D$Visible$Curves
 62
    18
420
        0
370
    -3
100
AcDbCircle
 10
25.98098180564215
 20
1440.221702715851
 30
0.0
 40
9.802373541336317
100
AcDbArc
 50
116.7973938006604
 51
161.9442884446764
  0
ARC
  5
13F
330
1F
100
AcDbEntity
  8
Make2D$Visible$Curves
 62
    18
420
        0
370
    -3
100
AcDbCircle
 10
-13495.1615702391
 20
-1098.543296626747
 30
0.0
 40
13821.3178332597
100
AcDbArc
 50
10.44121649209562
 51
10.59153674740511
  0
LINE
  5
140
330
1F
100
AcDbEntity
  8
Make2D$Visible$Curves
 62
    18
420
        0
370
    -3
100
AcDbLine
 10
150.4281511511819
 20
1356.427045516827
 30
0.0
 11
150.5430657923192
 21
1355.785775555323
 31
0.0
  0
ARC
  5
141
330
1F
100
AcDbEntity
  8
Make2D$Visible$Curves
 62
    18
420
        0
370
    -3
100
AcDbCircle
 10
142.1173469994942
 20
1382.661546703984
 30
0.0
 40
5.510646224433415
100
AcDbArc
 50
58.83958043831507
 51
78.65732151544195
  0
LINE
  5
142
330
1F
100
AcDbEntity
  8
Make2D$Visible$Curves
 62
    18
420
        0
370
    -3
100
AcDbLine
 10
107.661819886781
 20
1393.441840533925
 30
0.0
 11
106.1583730541173
 21
1393.64871592428
 31
0.0
  0
LINE
  5
143
330
1F
100
AcDbEntity
  8
Make2D$Visible$Curves
 62
    18
420
        0
370
    -3
100
AcDbLine
 10
109.115562524047
 20
1393.241608280538
 30
0.0
 11
107.661819886781
 21
1393.441840533925
 31
0.0
  0
LINE
  5
144
330
1F
100
AcDbEntity
  8
Make2D$Visible$Curves
 62
    18
420
        0
370
    -3
100
AcDbLine
 10
128.4631218795727
 20
1398.592709133478
 30
0.0
 11
128.4425893925808
 21
1398.591818898831
 31
0.0
  0
LINE
  5
145
330
1F
100
AcDbEntity
  8
Make2D$Visible$Curves
 62
    18
420
        0
370
    -3
100
AcDbLine
 10
128.4387530393136
 20
1398.59888689289
 30
0.0
 11
128.4594500737829
 21
1398.601457079243
 31
0.0
  0
ARC
  5
146
330
1F
100
AcDbEntity
  8
Make2D$Visible$Curves
 62
    18
420
        0
370
    -3
100
AcDbCircle
 10
141.8922246412958
 20
1382.226112633334
 30
0.0
 40
5.999974306607923
210
0.0
220
0.0
230
-1.0
100
AcDbArc
 50
62.99995878705823
 51
78.27587922334075
  0
ARC
  5
147
330
1F
100
AcDbEntity
  8
Make2D$Visible$Curves
 62
    18
420
        0
370
    -3
100
AcDbCircle
 10
-141.9892427954132
 20
1382.395295719514
 30
0.0
 40
5.804600447705698
100
AcDbArc
 50
116.8759395452313
 51
123.2720664563483
  0
LINE
  5
148
330
1F
100
AcDbEntity
  8
Make2D$Visible$Curves
 62
    18
420
        0
370
    -3
100
AcDbLine
 10
-107.6600155359971
 20
1393.442090536176
 30
0.0
 11
-109.1142778478799
 21
1393.241786964241
 31
0.0
  0
ARC
  5
149
330
1F
100
AcDbEntity
  8
Make2D$Visible$Curves
 62
    18
420
        0
370
    -3
100
AcDbCircle
 10
558.8946326850809
 20
1510.562305852072
 30
0.0
 40
4.999999112035621
210
0.0
220
0.0
230
-1.0
100
AcDbArc
 50
150.969518088646
 51
150.9999999996845
  0
LINE
  5
14A
330
1F
100
AcDbEntity
  8
Make2D$Visible$Curves
 62
    18
420
        0
370
    -3
100
AcDbLine
 10
27.4999941222801
 20
1531.465579848375
 30
0.0
 11
27.49999810027168
 21
1531.523370469714
 31
0.0
  0
LINE
  5
14B
330
1F
100
AcDbEntity
  8
Make2D$Visible$Curves
 62
    18
420
        0
370
    -3
100
AcDbLine
 10
-596.6870331554283
 20
1513.562305421604
 30
0.0
 11
-604.6858147167284
 21
1513.562305421604
 31
0.0
  0
LINE
  5
14C
330
1F
100
AcDbEntity
  8
Make2D$Visible$Curves
 62
    18
420
        0
370
    -3
100
AcDbLine
 10
596.6870213845717
 20
1513.562305421604
 30
0.0
 11
554.8973374694668
 21
1513.562305421604
 31
0.0
  0
LINE
  5
14D
330
1F
100
AcDbEntity
  8
Make2D$Visible$Curves
 62
    18
420
        0
370
    -3
100
AcDbLine
 10
554.8973374694668
 20
1513.562305421604
 30
0.0
 11
-554.8934155111476
 21
1513.562305421604
 31
0.0
  0
LINE
  5
14E
330
1F
100
AcDbEntity
  8
Make2D$Visible$Curves
 62
    18
420
        0
370
    -3
100
AcDbLine
 10
-554.8934155111476
 20
1513.562305421604
 30
0.0
 11
-596.6870331554283
 21
1513.562305421604
 31
0.0
  0
LINE
  5
14F
330
1F
100
AcDbEntity
  8
Make2D$Visible$Curves
 62
    18
420
        0
370
    -3
100
AcDbLine
 10
604.6858029458716
 20
1513.562305421604
 30
0.0
 11
596.6870213845717
 21
1513.562305421604
 31
0.0
  0
LINE
  5
150
330
1F
100
AcDbEntity
  8
Make2D$Visible$Curves
 62
    18
420
        0
370
    -3
100
AcDbLine
 10
150.3827493375776
 20
1356.47465048222
 30
0.0
 11
150.7388136588717
 21
1352.776781119904
 31
0.0
  0
ARC
  5
151
330
1F
100
AcDbEntity
  8
Make2D$Visible$Curves
 62
    18
420
        0
370
    -3
100
AcDbCircle
 10
128.4148018908311
 20
1398.322854216657
 30
0.0
 40
0.2737311495855774
100
AcDbArc
 50
53.87353640823608
 51
85.04076794287761
  0
ARC
  5
152
330
1F
100
AcDbEntity
  8
Make2D$Visible$Curves
 62
    18
420
        0
370
    -3
100
AcDbCircle
 10
558.8946334616808
 20
1510.56230542163
 30
0.0
 40
4.999999999947977
210
0.0
220
0.0
230
-1.0
100
AcDbArc
 50
143.1301023540736
 51
151.0000000000219
  0
LINE
  5
153
330
1F
100
AcDbEntity
  8
Make2D$Visible$Curves
 62
    18
420
        0
370
    -3
100
AcDbLine
 10
150.428151151182
 20
1356.427045516827
 30
0.0
 11
150.3827493375775
 21
1356.47465048222
 31
0.0
  0
ARC
  5
154
330
1F
100
AcDbEntity
  8
Make2D$Visible$Curves
 62
    18
420
        0
370
    -3
100
AcDbCircle
 10
634.5794847879471
 20
-46254.84227714312
 30
0.0
 40
47786.38862106019
100
AcDbArc
 50
90.04707481686489
 51
90.18345356801444
  0
ARC
  5
155
330
1F
100
AcDbEntity
  8
Make2D$Visible$Curves
 62
    18
420
        0
370
    -3
100
AcDbCircle
 10
355.6293159652563
 20
85762.48513050184
 30
0.0
 40
84231.28500426614
100
AcDbArc
 50
269.9580785174713
 51
270.1640750837703
  0
ARC
  5
156
330
1F
100
AcDbEntity
  8
Make2D$Visible$Curves
 62
    18
420
        0
370
    -3
100
AcDbCircle
 10
-596.8587107222743
 20
1523.537991057332
 30
0.0
 40
7.999999839765806
210
0.0
220
0.0
230
-1.0
100
AcDbArc
 50
89.90559946913032
 51
180.9999973507142
  0
LINE
  5
157
330
1F
100
AcDbEntity
  8
Make2D$Visible$Curves
 62
    18
420
        0
370
    -3
100
AcDbLine
 10
-604.6858147167284
 20
1513.562305421604
 30
0.0
 11
-604.8574058547283
 21
1523.392755134929
 31
0.0
  0
ARC
  5
158
330
1F
100
AcDbEntity
  8
Make2D$Visible$Curves
 62
    18
420
        0
370
    -3
100
AcDbCircle
 10
596.8586241236897
 20
1523.532366986542
 30
0.0
 40
8.00000002925833
210
0.0
220
0.0
230
-1.0
100
AcDbArc
 50
359.5466476863396
 51
90.09337815209521
  0
LINE
  5
159
330
1F
100
AcDbEntity
  8
Make2D$Visible$Curves
 62
    18
420
        0
370
    -3
100
AcDbLine
 10
-596.8455860802413
 20
1531.532356110615
 30
0.0
 11
-595.3177025560454
 21
1531.530387277051
 31
0.0
  0
ARC
  5
15A
330
1F
100
AcDbEntity
  8
Make2D$Visible$Curves
 62
    18
420
        0
370
    -3
100
AcDbCircle
 10
596.8588177538965
 20
1523.54549727231
 30
0.0
 40
8.000035497041653
210
0.0
220
0.0
230
-1.0
100
AcDbArc
 50
359.1465500691326
 51
89.99713218953985
  0
LINE
  5
15B
330
1F
100
AcDbEntity
  8
Make2D$Visible$Curves
 62
    18
420
        0
370
    -3
100
AcDbLine
 10
97.29633483008536
 20
1406.247748441804
 30
0.0
 11
23.72423674337153
 21
1406.247748441804
 31
0.0
  0
LINE
  5
15C
330
1F
100
AcDbEntity
  8
Make2D$Visible$Curves
 62
    18
420
        0
370
    -3
100
AcDbLine
 10
-23.72424851422841
 20
1406.247748441804
 30
0.0
 11
-97.29093079963957
 21
1406.247748441804
 31
0.0
  0
LINE
  5
15D
330
1F
100
AcDbEntity
  8
Make2D$Visible$Curves
 62
    18
420
        0
370
    -3
100
AcDbLine
 10
485.1785658968714
 20
1450.062305421604
 30
0.0
 11
-485.1785776677283
 21
1450.062305421604
 31
0.0
  0
LINE
  5
15E
330
1F
100
AcDbEntity
  8
Make2D$Visible$Curves
 62
    18
420
        0
370
    -3
100
AcDbLine
 10
-485.1785776677283
 20
1450.062305421604
 30
0.0
 11
-513.1324877144284
 21
1450.062305421434
 31
0.0
  0
LINE
  5
15F
330
1F
100
AcDbEntity
  8
Make2D$Visible$Curves
 62
    18
420
        0
370
    -3
100
AcDbLine
 10
513.1324762532716
 20
1450.062305421434
 30
0.0
 11
485.1785658968716
 21
1450.062305421604
 31
0.0
  0
SPLINE
  5
160
330
1F
100
AcDbEntity
  8
Make2D$Visible$Curves
 62
    18
420
        0
370
    -3
100
AcDbSpline
210
0.0
220
0.0
230
1.0
 70
     8
 71
     3
 72
    20
 73
    16
 74
     0
 42
0.000000001
 43
0.0000000001
 40
13.70006650608116
 40
13.70006650608116
 40
13.70006650608116
 40
13.70006650608116
 40
14.50960546943335
 40
14.50960546943335
 40
14.50960546943335
 40
15.53873142830606
 40
15.53873142830606
 40
15.53873142830606
 40
16.59792366085382
 40
16.59792366085382
 40
16.59792366085382
 40
17.75688886919441
 40
17.75688886919441
 40
17.75688886919441
 40
19.15890998681135
 40
19.15890998681135
 40
19.15890998681135
 40
19.15890998681135
 10
-12.26784707405852
 20
1449.813055936069
 30
0.0
 10
-12.26783937220114
 20
1449.813073929151
 30
0.0
 10
-12.27530744736862
 20
1449.816290835342
 30
0.0
 10
-12.29393332998904
 20
1449.82312883657
 30
0.0
 10
-12.31759410889833
 20
1449.831815267089
 30
0.0
 10
-12.35641600280326
 20
1449.845314158142
 30
0.0
 10
-12.4183822102674
 20
1449.863368874204
 30
0.0
 10
-12.48215847031554
 20
1449.881950974251
 30
0.0
 10
-12.56827158797876
 20
1449.904752044512
 30
0.0
 10
-12.68499831618067
 20
1449.929560368717
 30
0.0
 10
-12.81291493706601
 20
1449.956746918457
 30
0.0
 10
-12.97474706765331
 20
1449.98577369868
 30
0.0
 10
-13.17816019699092
 20
1450.010422572531
 30
0.0
 10
-13.42476793119533
 20
1450.040305613762
 30
0.0
 10
-13.7222035835415
 20
1450.062303035346
 30
0.0
 10
-14.0695564013389
 20
1450.062305630881
 30
0.0
  0
LINE
  5
161
330
1F
100
AcDbEntity
  8
Make2D$Visible$Curves
 62
    18
420
        0
370
    -3
100
AcDbLine
 10
16.65919065758624
 20
1443.252582403992
 30
0.0
 11
16.74664456480753
 21
1443.595116896597
 31
0.0
  0
ARC
  5
162
330
1F
100
AcDbEntity
  8
Make2D$Visible$Curves
 62
    18
420
        0
370
    -3
100
AcDbCircle
 10
26.10086424846941
 20
1440.063541129897
 30
0.0
 40
9.9987643125426
100
AcDbArc
 50
90.00369916375473
 51
170.0076236219757
  0
LINE
  5
163
330
1F
100
AcDbEntity
  8
Make2D$Visible$Curves
 62
    18
420
        0
370
    -3
100
AcDbLine
 10
128.4425893925808
 20
1398.591818898831
 30
0.0
 11
128.2476884625574
 21
1398.58337052383
 31
0.0
  0
LINE
  5
164
330
1F
100
AcDbEntity
  8
Make2D$Visible$Curves
 62
    18
420
        0
370
    -3
100
AcDbLine
 10
128.2476884625574
 20
1398.58337052383
 30
0.0
 11
117.9545764880717
 21
1398.144476996604
 31
0.0
  0
LINE
  5
165
330
1F
100
AcDbEntity
  8
Make2D$Visible$Curves
 62
    18
420
        0
370
    -3
100
AcDbLine
 10
128.2858528054613
 20
1398.585024545144
 30
0.0
 11
128.4387530393136
 21
1398.59888689289
 31
0.0
  0
LINE
  5
166
330
1F
100
AcDbEntity
  8
Make2D$Visible$Curves
 62
    18
420
        0
370
    -3
100
AcDbLine
 10
385.6862927549709
 20
1401.676180439131
 30
0.0
 11
289.9784994787259
 21
1401.640726551628
 31
0.0
  0
LINE
  5
167
330
1F
100
AcDbEntity
  8
Make2D$Visible$Curves
 62
    18
420
        0
370
    -3
100
AcDbLine
 10
-150.2014791563489
 20
1358.357335538106
 30
0.0
 11
-150.7388254296924
 21
1352.776781119901
 31
0.0
  0
LINE
  5
168
330
1F
100
AcDbEntity
  8
Make2D$Visible$Curves
 62
    18
420
        0
370
    -3
100
AcDbLine
 10
-482.5186756792908
 20
1402.003400661254
 30
0.0
 11
-482.981592244268
 21
1401.981909349459
 31
0.0
  0
LINE
  5
169
330
1F
100
AcDbEntity
  8
Make2D$Visible$Curves
 62
    18
420
        0
370
    -3
100
AcDbLine
 10
-117.9545883537085
 20
1398.144476974463
 30
0.0
 11
-127.2776252593507
 21
1398.541377445626
 31
0.0
  0
ARC
  5
16A
330
1F
100
AcDbEntity
  8
Make2D$Visible$Curves
 62
    18
420
        0
370
    -3
100
AcDbCircle
 10
-801.1859057041679
 20
-13876.44613461092
 30
0.0
 40
15289.84616874661
100
AcDbArc
 50
87.4738390158293
 51
87.59522823982815
  0
LINE
  5
16B
330
1F
100
AcDbEntity
  8
Make2D$Visible$Curves
 62
    18
420
        0
370
    -3
100
AcDbLine
 10
-127.3054080384687
 20
1398.554070346087
 30
0.0
 11
-127.126756385179
 21
1398.536368897686
 31
0.0
  0
LINE
  5
16C
330
1F
100
AcDbEntity
  8
Make2D$Visible$Curves
 62
    18
420
        0
370
    -3
100
AcDbLine
 10
-127.126756385179
 20
1398.536368897686
 30
0.0
 11
-127.0690267535623
 21
1398.532361403557
 31
0.0
  0
LINE
  5
16D
330
1F
100
AcDbEntity
  8
Make2D$Visible$Curves
 62
    18
420
        0
370
    -3
100
AcDbLine
 10
-383.5675919962431
 20
1401.675844818202
 30
0.0
 11
-419.4530622953956
 21
1401.706168378972
 31
0.0
  0
SPLINE
  5
16E
330
1F
100
AcDbEntity
  8
Make2D$Visible$Curves
 62
    18
420
        0
370
    -3
100
AcDbSpline
210
0.0
220
0.0
230
1.0
 70
     8
 71
     3
 72
    32
 73
    28
 74
     0
 42
0.000000001
 43
0.0000000001
 40
1.658390459993962
 40
1.658390459993962
 40
1.658390459993962
 40
1.658390459993962
 40
2.231877372352765
 40
2.231877372352765
 40
2.231877372352765
 40
2.984346234083238
 40
2.984346234083238
 40
2.984346234083238
 40
3.797822038082372
 40
3.797822038082372
 40
3.797822038082372
 40
4.549709133689607
 40
4.549709133689607
 40
4.549709133689607
 40
4.711012053231912
 40
4.711012053231912
 40
4.711012053231912
 40
5.768383047388069
 40
5.768383047388069
 40
5.768383047388069
 40
6.983652901757631
 40
6.983652901757631
 40
6.983652901757631
 40
8.37637557469599
 40
8.37637557469599
 40
8.37637557469599
 40
9.541484567472272
 40
9.541484567472272
 40
9.541484567472272
 40
9.541484567472272
 10
150.6073751872799
 20
1355.527668738884
 30
0.0
 10
150.6073892553496
 20
1355.527673372259
 30
0.0
 10
150.6034164966112
 20
1355.539788758989
 30
0.0
 10
150.5938437022186
 20
1355.564421330677
 30
0.0
 10
150.5812734849309
 20
1355.596766826232
 30
0.0
 10
150.5592902764537
 20
1355.650015382559
 30
0.0
 10
150.5239927203369
 20
1355.722711748124
 30
0.0
 10
150.4858193176889
 20
1355.801331005066
 30
0.0
 10
150.4329443667585
 20
1355.900715144522
 30
0.0
 10
150.3616151502491
 20
1356.015838415123
 30
0.0
 10
150.2957520903755
 20
1356.122139468682
 30
0.0
 10
150.2153510081295
 20
1356.239780291135
 30
0.0
 10
150.1192163063562
 20
1356.363557934159
 30
0.0
 10
150.0986164530883
 20
1356.390081148328
 30
0.0
 10
150.0773299108815
 20
1356.416843470362
 30
0.0
 10
150.0553549118889
 20
1356.443793385221
 30
0.0
 10
149.9111678185312
 20
1356.620622967381
 30
0.0
 10
149.7387045505969
 20
1356.803392373895
 30
0.0
 10
149.5398622910267
 20
1356.979736221323
 30
0.0
 10
149.3112563372514
 20
1357.1824760892
 30
0.0
 10
149.0515061463808
 20
1357.373545499491
 30
0.0
 10
148.7658337250303
 20
1357.541826150648
 30
0.0
 10
148.4382297516007
 20
1357.734807362169
 30
0.0
 10
148.0827242886879
 20
1357.894479404297
 30
0.0
 10
147.7072797861123
 20
1358.013355221616
 30
0.0
 10
147.3933367554392
 20
1358.11275802045
 30
0.0
 10
147.0705013489982
 20
1358.182117907695
 30
0.0
 10
146.7437666756731
 20
1358.220459693724
 30
0.0
  0
LINE
  5
16F
330
1F
100
AcDbEntity
  8
Make2D$Visible$Curves
 62
    18
420
        0
370
    -3
100
AcDbLine
 10
604.6858029458716
 20
1513.562305421604
 30
0.0
 11
604.8573941025714
 21
1523.39275785614
 31
0.0
  0
LINE
  5
170
330
1F
100
AcDbEntity
  8
Make2D$Visible$Curves
 62
    18
420
        0
370
    -3
100
AcDbLine
 10
595.3176907851888
 20
1531.530387277051
 30
0.0
 11
596.8455391941733
 21
1531.53235580556
 31
0.0
  0
ARC
  5
171
330
1F
100
AcDbEntity
  8
Make2D$Visible$Curves
 62
    18
420
        0
370
    -3
100
AcDbCircle
 10
-637.4714325135362
 20
-48636.54386995199
 30
0.0
 40
50168.09196743486
210
0.0
220
0.0
230
-1.0
100
AcDbArc
 50
89.81870092614372
 51
89.95185720730323
  0
ENDSEC
  0
SECTION
  2
OBJECTS
  0
DICTIONARY
  5
C
330
0
100
AcDbDictionary
281
     1
  3
ACAD_DETAILVIEWSTYLE
350
1B7
  3
ACAD_GROUP
350
D
  3
ACAD_LAYOUT
350
1A
  3
ACAD_MATERIAL
350
43
  3
ACAD_MLEADERSTYLE
350
6B
  3
ACAD_MLINESTYLE
350
17
  3
ACAD_PLOTSETTINGS
350
19
  3
ACAD_PLOTSTYLENAME
350
E
  3
ACAD_SCALELIST
350
47
  3
ACAD_SECTIONVIEWSTYLE
350
1B8
  3
ACAD_TABLESTYLE
350
69
  3
ACAD_VISUALSTYLE
350
2A
  3
ACDB_RECOMPOSE_DATA
350
1B4
  3
AcDbVariableDictionary
350
174
  0
DICTIONARY
  5
172
330
8
100
AcDbDictionary
280
     1
281
     1
  3
ACAD_XREC_ROUNDTRIP
360
173
  0
DICTIONARY
  5
1B7
102
{ACAD_REACTORS
330
C
102
}
330
C
100
AcDbDictionary
281
     1
  0
DICTIONARY
  5
D
102
{ACAD_REACTORS
330
C
102
}
330
C
100
AcDbDictionary
281
     1
  0
DICTIONARY
  5
1A
102
{ACAD_REACTORS
330
C
102
}
330
C
100
AcDbDictionary
281
     1
  3
Layout1
350
1E
  3
Layout2
350
26
  3
Model
350
22
  0
DICTIONARY
  5
43
102
{ACAD_REACTORS
330
C
102
}
330
C
100
AcDbDictionary
281
     1
  3
ByBlock
350
45
  3
ByLayer
350
44
  3
Global
350
46
  0
DICTIONARY
  5
6B
102
{ACAD_REACTORS
330
C
102
}
330
C
100
AcDbDictionary
281
     1
  3
Standard
350
6C
  0
DICTIONARY
  5
17
102
{ACAD_REACTORS
330
C
102
}
330
C
100
AcDbDictionary
281
     1
  3
Standard
350
18
  0
DICTIONARY
  5
19
102
{ACAD_REACTORS
330
C
102
}
330
C
100
AcDbDictionary
281
     1
  0
ACDBDICTIONARYWDFLT
  5
E
102
{ACAD_REACTORS
330
C
102
}
330
C
100
AcDbDictionary
281
     1
  3
Normal
350
F
100
AcDbDictionaryWithDefault
340
F
  0
DICTIONARY
  5
47
102
{ACAD_REACTORS
330
C
102
}
330
C
100
AcDbDictionary
281
     1
  3
A0
350
48
  3
A1
350
49
  3
A2
350
4A
  3
A3
350
4B
  3
A4
350
4C
  3
A5
350
4D
  3
A6
350
4E
  3
A7
350
4F
  3
A8
350
50
  3
A9
350
51
  3
B0
350
52
  3
B1
350
53
  3
B2
350
54
  3
B3
350
55
  3
B4
350
56
  3
B5
350
57
  3
B6
350
58
  3
B7
350
59
  3
B8
350
5A
  3
B9
350
5B
  3
C0
350
5C
  3
C1
350
5D
  3
C2
350
5E
  3
C3
350
5F
  3
C4
350
60
  3
C5
350
61
  3
C6
350
62
  3
C7
350
63
  3
C8
350
64
  3
C9
350
65
  3
D0
350
66
  3
D1
350
67
  3
D2
350
68
  0
DICTIONARY
  5
1B8
102
{ACAD_REACTORS
330
C
102
}
330
C
100
AcDbDictionary
281
     1
  0
DICTIONARY
  5
69
102
{ACAD_REACTORS
330
C
102
}
330
C
100
AcDbDictionary
281
     1
  3
Standard
350
6A
  0
DICTIONARY
  5
2A
102
{ACAD_REACTORS
330
C
102
}
330
C
100
AcDbDictionary
281
     1
  3
2dWireframe
350
2F
  3
Basic
350
32
  3
Brighten
350
36
  3
ColorChange
350
3A
  3
Conceptual
350
34
  3
Dim
350
35
  3
EdgeColorOff
350
3D
  3
Facepattern
350
39
  3
Flat
350
2B
  3
FlatWithEdges
350
2C
  3
Gouraud
350
2D
  3
GouraudWithEdges
350
2E
  3
Hidden
350
31
  3
JitterOff
350
3B
  3
Linepattern
350
38
  3
OverhangOff
350
3C
  3
Realistic
350
33
  3
Shaded
350
42
  3
Shaded with edges
350
41
  3
Shades of Gray
350
3E
  3
Sketchy
350
3F
  3
Thicken
350
37
  3
Wireframe
350
30
  3
X-Ray
350
40
  0
XRECORD
  5
1B4
102
{ACAD_REACTORS
330
C
102
}
330
C
100
AcDbXrecord
280
     1
 90
        1
330
6A
  0
DICTIONARY
  5
174
102
{ACAD_REACTORS
330
C
102
}
330
C
100
AcDbDictionary
281
     1
  3
CANNOSCALE
350
175
  3
CMLEADERSTYLE
350
1B6
  3
CTABLESTYLE
350
1B5
  3
MSLTSCALE
350
176
  3
XCLIPFRAME
350
177
  0
XRECORD
  5
173
102
{ACAD_REACTORS
330
172
102
}
330
172
100
AcDbXrecord
280
     1
102
VTR_0.000_0.000_1.000_1.000_VISUALSTYLE
340
2F
102
VTR_0.000_0.000_1.000_1.000_GRIDDISPLAY
 70
     3
102
VTR_0.000_0.000_1.000_1.000_GRIDMAJOR
 70
     5
102
VTR_0.000_0.000_1.000_1.000_DEFAULTLIGHTING
280
     1
102
VTR_0.000_0.000_1.000_1.000_DEFAULTLIGHTINGTYPE
 70
     1
102
VTR_0.000_0.000_1.000_1.000_BRIGHTNESS
141
0.0
102
VTR_0.000_0.000_1.000_1.000_CONTRAST
142
0.0
  0
LAYOUT
  5
1E
102
{ACAD_REACTORS
330
1A
102
}
330
1A
100
AcDbPlotSettings
  1

  2
none_device
  4

  6

 40
0.0
 41
0.0
 42
0.0
 43
0.0
 44
0.0
 45
0.0
 46
0.0
 47
0.0
 48
0.0
 49
0.0
140
0.0
141
0.0
142
1.0
143
1.0
 70
   688
 72
     0
 73
     0
 74
     5
  7

 75
    16
 76
     0
 77
     2
 78
   300
147
1.0
148
0.0
149
0.0
100
AcDbLayout
  1
Layout1
 70
     1
 71
     1
 10
0.0
 20
0.0
 11
12.0
 21
9.0
 12
0.0
 22
0.0
 32
0.0
 14
1.000000000000000E+20
 24
1.000000000000000E+20
 34
1.000000000000000E+20
 15
-1.000000000000000E+20
 25
-1.000000000000000E+20
 35
-1.000000000000000E+20
146
0.0
 13
0.0
 23
0.0
 33
0.0
 16
1.0
 26
0.0
 36
0.0
 17
0.0
 27
1.0
 37
0.0
 76
     0
330
1B
  0
LAYOUT
  5
26
102
{ACAD_REACTORS
330
1A
102
}
330
1A
100
AcDbPlotSettings
  1

  2
none_device
  4

  6

 40
0.0
 41
0.0
 42
0.0
 43
0.0
 44
0.0
 45
0.0
 46
0.0
 47
0.0
 48
0.0
 49
0.0
140
0.0
141
0.0
142
1.0
143
1.0
 70
   688
 72
     0
 73
     0
 74
     5
  7

 75
    16
 76
     0
 77
     2
 78
   300
147
1.0
148
0.0
149
0.0
100
AcDbLayout
  1
Layout2
 70
     1
 71
     2
 10
0.0
 20
0.0
 11
0.0
 21
0.0
 12
0.0
 22
0.0
 32
0.0
 14
0.0
 24
0.0
 34
0.0
 15
0.0
 25
0.0
 35
0.0
146
0.0
 13
0.0
 23
0.0
 33
0.0
 16
1.0
 26
0.0
 36
0.0
 17
0.0
 27
1.0
 37
0.0
 76
     0
330
23
  0
LAYOUT
  5
22
102
{ACAD_REACTORS
330
1A
102
}
330
1A
100
AcDbPlotSettings
  1

  2
none_device
  4
Letter_(8.50_x_11.00_Inches)
  6

 40
6.35
 41
6.35
 42
6.35000508
 43
6.35000508
 44
215.9
 45
279.4
 46
0.0
 47
0.0
 48
0.0
 49
0.0
140
0.0
141
0.0
142
1.0
143
1.0
 70
  1712
 72
     0
 73
     0
 74
     0
  7

 75
     0
 76
     0
 77
     2
 78
   300
147
1.0
148
0.0
149
0.0
100
AcDbLayout
  1
Model
 70
     1
 71
     0
 10
0.0
 20
0.0
 11
12.0
 21
9.0
 12
0.0
 22
0.0
 32
0.0
 14
1.000000000000000E+20
 24
1.000000000000000E+20
 34
1.000000000000000E+20
 15
-1.000000000000000E+20
 25
-1.000000000000000E+20
 35
-1.000000000000000E+20
146
0.0
 13
0.0
 23
0.0
 33
0.0
 16
1.0
 26
0.0
 36
0.0
 17
0.0
 27
1.0
 37
0.0
 76
     0
330
1F
331
29
  0
MATERIAL
  5
45
102
{ACAD_REACTORS
330
43
102
}
102
{ACAD_XDICTIONARY
360
1AA
102
}
330
43
100
AcDbMaterial
  1
ByBlock
  0
MATERIAL
  5
44
102
{ACAD_REACTORS
330
43
102
}
102
{ACAD_XDICTIONARY
360
1A8
102
}
330
43
100
AcDbMaterial
  1
ByLayer
  0
MATERIAL
  5
46
102
{ACAD_REACTORS
330
43
102
}
102
{ACAD_XDICTIONARY
360
1AC
102
}
330
43
100
AcDbMaterial
  1
Global
  0
MLEADERSTYLE
  5
6C
102
{ACAD_REACTORS
330
6B
102
}
102
{ACAD_XDICTIONARY
360
1B2
102
}
330
6B
100
AcDbMLeaderStyle
170
     2
171
     1
172
     0
 90
        2
 40
0.0
 41
0.0
173
     1
 91
-1056964608
340
14
 92
       -2
290
     1
 42
0.09
291
     1
 43
0.36
  3
Standard
341
0
 44
0.18
300

342
11
174
     1
178
     6
175
     1
176
     0
 93
-1056964608
 45
0.18
292
     0
297
     0
 46
0.18
343
0
 94
-1056964608
 47
1.0
 49
1.0
140
1.0
293
     1
141
0.0
294
     1
177
     0
142
1.0
295
     0
296
     0
143
0.125
1001
ACAD_MLEADERVER
1070
     2
  0
MLINESTYLE
  5
18
102
{ACAD_REACTORS
330
17
102
}
330
17
100
AcDbMlineStyle
  2
Standard
 70
     0
  3

 62
   256
 51
90.0
 52
90.0
 71
     2
 49
0.5
 62
   256
  6
BYLAYER
 49
-0.5
 62
   256
  6
BYLAYER
  0
ACDBPLACEHOLDER
  5
F
102
{ACAD_REACTORS
330
E
102
}
330
E
  0
SCALE
  5
48
102
{ACAD_REACTORS
330
47
102
}
330
47
100
AcDbScale
 70
     0
300
1:1
140
1.0
141
1.0
290
     1
  0
SCALE
  5
49
102
{ACAD_REACTORS
330
47
102
}
330
47
100
AcDbScale
 70
     0
300
1:2
140
1.0
141
2.0
290
     0
  0
SCALE
  5
4A
102
{ACAD_REACTORS
330
47
102
}
330
47
100
AcDbScale
 70
     0
300
1:4
140
1.0
141
4.0
290
     0
  0
SCALE
  5
4B
102
{ACAD_REACTORS
330
47
102
}
330
47
100
AcDbScale
 70
     0
300
1:5
140
1.0
141
5.0
290
     0
  0
SCALE
  5
4C
102
{ACAD_REACTORS
330
47
102
}
330
47
100
AcDbScale
 70
     0
300
1:8
140
1.0
141
8.0
290
     0
  0
SCALE
  5
4D
102
{ACAD_REACTORS
330
47
102
}
330
47
100
AcDbScale
 70
     0
300
1:10
140
1.0
141
10.0
290
     0
  0
SCALE
  5
4E
102
{ACAD_REACTORS
330
47
102
}
330
47
100
AcDbScale
 70
     0
300
1:16
140
1.0
141
16.0
290
     0
  0
SCALE
  5
4F
102
{ACAD_REACTORS
330
47
102
}
330
47
100
AcDbScale
 70
     0
300
1:20
140
1.0
141
20.0
290
     0
  0
SCALE
  5
50
102
{ACAD_REACTORS
330
47
102
}
330
47
100
AcDbScale
 70
     0
300
1:30
140
1.0
141
30.0
290
     0
  0
SCALE
  5
51
102
{ACAD_REACTORS
330
47
102
}
330
47
100
AcDbScale
 70
     0
300
1:40
140
1.0
141
40.0
290
     0
  0
SCALE
  5
52
102
{ACAD_REACTORS
330
47
102
}
330
47
100
AcDbScale
 70
     0
300
1:50
140
1.0
141
50.0
290
     0
  0
SCALE
  5
53
102
{ACAD_REACTORS
330
47
102
}
330
47
100
AcDbScale
 70
     0
300
1:100
140
1.0
141
100.0
290
     0
  0
SCALE
  5
54
102
{ACAD_REACTORS
330
47
102
}
330
47
100
AcDbScale
 70
     0
300
2:1
140
2.0
141
1.0
290
     0
  0
SCALE
  5
55
102
{ACAD_REACTORS
330
47
102
}
330
47
100
AcDbScale
 70
     0
300
4:1
140
4.0
141
1.0
290
     0
  0
SCALE
  5
56
102
{ACAD_REACTORS
330
47
102
}
330
47
100
AcDbScale
 70
     0
300
8:1
140
8.0
141
1.0
290
     0
  0
SCALE
  5
57
102
{ACAD_REACTORS
330
47
102
}
330
47
100
AcDbScale
 70
     0
300
10:1
140
10.0
141
1.0
290
     0
  0
SCALE
  5
58
102
{ACAD_REACTORS
330
47
102
}
330
47
100
AcDbScale
 70
     0
300
100:1
140
100.0
141
1.0
290
     0
  0
SCALE
  5
59
102
{ACAD_REACTORS
330
47
102
}
330
47
100
AcDbScale
 70
     0
300
1/128" = 1'-0"
140
0.0078125
141
12.0
290
     0
  0
SCALE
  5
5A
102
{ACAD_REACTORS
330
47
102
}
330
47
100
AcDbScale
 70
     0
300
1/64" = 1'-0"
140
0.015625
141
12.0
290
     0
  0
SCALE
  5
5B
102
{ACAD_REACTORS
330
47
102
}
330
47
100
AcDbScale
 70
     0
300
1/32" = 1'-0"
140
0.03125
141
12.0
290
     0
  0
SCALE
  5
5C
102
{ACAD_REACTORS
330
47
102
}
330
47
100
AcDbScale
 70
     0
300
1/16" = 1'-0"
140
0.0625
141
12.0
290
     0
  0
SCALE
  5
5D
102
{ACAD_REACTORS
330
47
102
}
330
47
100
AcDbScale
 70
     0
300
3/32" = 1'-0"
140
0.09375
141
12.0
290
     0
  0
SCALE
  5
5E
102
{ACAD_REACTORS
330
47
102
}
330
47
100
AcDbScale
 70
     0
300
1/8" = 1'-0"
140
0.125
141
12.0
290
     0
  0
SCALE
  5
5F
102
{ACAD_REACTORS
330
47
102
}
330
47
100
AcDbScale
 70
     0
300
3/16" = 1'-0"
140
0.1875
141
12.0
290
     0
  0
SCALE
  5
60
102
{ACAD_REACTORS
330
47
102
}
330
47
100
AcDbScale
 70
     0
300
1/4" = 1'-0"
140
0.25
141
12.0
290
     0
  0
SCALE
  5
61
102
{ACAD_REACTORS
330
47
102
}
330
47
100
AcDbScale
 70
     0
300
3/8" = 1'-0"
140
0.375
141
12.0
290
     0
  0
SCALE
  5
62
102
{ACAD_REACTORS
330
47
102
}
330
47
100
AcDbScale
 70
     0
300
1/2" = 1'-0"
140
0.5
141
12.0
290
     0
  0
SCALE
  5
63
102
{ACAD_REACTORS
330
47
102
}
330
47
100
AcDbScale
 70
     0
300
3/4" = 1'-0"
140
0.75
141
12.0
290
     0
  0
SCALE
  5
64
102
{ACAD_REACTORS
330
47
102
}
330
47
100
AcDbScale
 70
     0
300
1" = 1'-0"
140
1.0
141
12.0
290
     0
  0
SCALE
  5
65
102
{ACAD_REACTORS
330
47
102
}
330
47
100
AcDbScale
 70
     0
300
1-1/2" = 1'-0"
140
1.5
141
12.0
290
     0
  0
SCALE
  5
66
102
{ACAD_REACTORS
330
47
102
}
330
47
100
AcDbScale
 70
     0
300
3" = 1'-0"
140
3.0
141
12.0
290
     0
  0
SCALE
  5
67
102
{ACAD_REACTORS
330
47
102
}
330
47
100
AcDbScale
 70
     0
300
6" = 1'-0"
140
6.0
141
12.0
290
     0
  0
SCALE
  5
68
102
{ACAD_REACTORS
330
47
102
}
330
47
100
AcDbScale
 70
     0
300
1'-0" = 1'-0"
140
12.0
141
12.0
290
     0
  0
TABLESTYLE
  5
6A
102
{ACAD_REACTORS
330
69
102
}
102
{ACAD_XDICTIONARY
360
1AE
102
}
330
69
100
AcDbTableStyle
  3
Standard
 70
     0
 71
     0
 40
0.06
 41
0.06
280
     0
281
     0
  7
Standard
140
0.18
170
     2
 62
     0
 63
   257
283
     0
274
    -2
284
     1
 64
     0
275
    -2
285
     1
 65
     0
276
    -2
286
     1
 66
     0
277
    -2
287
     1
 67
     0
278
    -2
288
     1
 68
     0
279
    -2
289
     1
 69
     0
  7
Standard
140
0.25
170
     5
 62
     0
 63
   257
283
     0
274
    -2
284
     1
 64
     0
275
    -2
285
     1
 65
     0
276
    -2
286
     1
 66
     0
277
    -2
287
     1
 67
     0
278
    -2
288
     1
 68
     0
279
    -2
289
     1
 69
     0
  7
Standard
140
0.18
170
     5
 62
     0
 63
   257
283
     0
274
    -2
284
     1
 64
     0
275
    -2
285
     1
 65
     0
276
    -2
286
     1
 66
     0
277
    -2
287
     1
 67
     0
278
    -2
288
     1
 68
     0
279
    -2
289
     1
 69
     0
  0
VISUALSTYLE
  5
2F
102
{ACAD_REACTORS
330
2A
102
}
102
{ACAD_XDICTIONARY
360
180
102
}
330
2A
100
AcDbVisualStyle
  2
2dWireframe
 70
     4
 71
     0
 72
     2
 73
     0
 90
        0
 40
0.6
 41
30.0
 62
     5
 63
     7
421
 16777215
 74
     1
 91
        4
 64
     7
 65
   257
 75
     1
175
     1
 42
1.0
 92
        0
 66
   257
 43
1.0
 76
     1
 77
     6
 78
     2
 67
     7
 79
     5
170
     0
171
     0
290
     0
174
     0
 93
        1
 44
0.0
173
     0
291
     0
 45
0.0
1001
ACAD
1000
AcDbSavedByObjectVersion
1070
     0
  0
VISUALSTYLE
  5
32
102
{ACAD_REACTORS
330
2A
102
}
102
{ACAD_XDICTIONARY
360
186
102
}
330
2A
100
AcDbVisualStyle
  2
Basic
 70
     7
 71
     1
 72
     0
 73
     1
 90
        0
 40
0.6
 41
30.0
 62
     5
 63
     7
421
 16777215
 74
     0
 91
        4
 64
     7
 65
   257
 75
     1
175
     1
 42
1.0
 92
        8
 66
     7
 43
1.0
 76
     1
 77
     6
 78
     2
 67
     7
 79
     5
170
     0
171
     0
290
     0
174
     0
 93
        1
 44
0.0
173
     0
291
     1
 45
0.0
1001
ACAD
1000
AcDbSavedByObjectVersion
1070
     0
  0
VISUALSTYLE
  5
36
102
{ACAD_REACTORS
330
2A
102
}
102
{ACAD_XDICTIONARY
360
18E
102
}
330
2A
100
AcDbVisualStyle
  2
Brighten
 70
    12
 71
     2
 72
     2
 73
     0
 90
        0
 40
0.6
 41
30.0
 62
     5
 63
     7
421
 16777215
 74
     1
 91
        4
 64
     7
 65
   257
 75
     1
175
     1
 42
1.0
 92
        8
 66
     7
 43
1.0
 76
     1
 77
     6
 78
     2
 67
     7
 79
     5
170
     0
171
     0
290
     0
174
     0
 93
        1
 44
50.0
173
     0
291
     1
 45
0.0
1001
ACAD
1000
AcDbSavedByObjectVersion
1070
     0
  0
VISUALSTYLE
  5
3A
102
{ACAD_REACTORS
330
2A
102
}
102
{ACAD_XDICTIONARY
360
196
102
}
330
2A
100
AcDbVisualStyle
  2
ColorChange
 70
    16
 71
     2
 72
     2
 73
     3
 90
        0
 40
0.6
 41
30.0
 62
     5
 63
     8
421
  8421504
 74
     1
 91
        4
 64
     7
 65
   257
 75
     1
175
     1
 42
1.0
 92
        8
 66
     8
424
  8421504
 43
1.0
 76
     1
 77
     6
 78
     2
 67
     7
 79
     5
170
     0
171
     0
290
     0
174
     0
 93
        1
 44
0.0
173
     0
291
     1
 45
0.0
1001
ACAD
1000
AcDbSavedByObjectVersion
1070
     0
  0
VISUALSTYLE
  5
34
102
{ACAD_REACTORS
330
2A
102
}
102
{ACAD_XDICTIONARY
360
18A
102
}
330
2A
100
AcDbVisualStyle
  2
Conceptual
 70
     9
 71
     3
 72
     2
 73
     0
 90
        0
 40
0.6
 41
30.0
 62
     5
 63
     7
421
 16777215
 74
     2
 91
        2
 64
     7
 65
   257
 75
     1
175
     1
 42
179.0
 92
        8
 66
     7
 43
1.0
 76
     1
 77
     6
 78
     2
 67
     7
 79
     3
170
     0
171
     0
290
     0
174
     0
 93
        1
 44
0.0
173
     0
291
     0
 45
0.0
1001
ACAD
1000
AcDbSavedByObjectVersion
1070
     0
  0
VISUALSTYLE
  5
35
102
{ACAD_REACTORS
330
2A
102
}
102
{ACAD_XDICTIONARY
360
18C
102
}
330
2A
100
AcDbVisualStyle
  2
Dim
 70
    11
 71
     2
 72
     2
 73
     0
 90
        0
 40
0.6
 41
30.0
 62
     5
 63
     7
421
 16777215
 74
     1
 91
        4
 64
     7
 65
   257
 75
     1
175
     1
 42
1.0
 92
        8
 66
     7
 43
1.0
 76
     1
 77
     6
 78
     2
 67
     7
 79
     5
170
     0
171
     0
290
     0
174
     0
 93
        1
 44
-50.0
173
     0
291
     1
 45
0.0
1001
ACAD
1000
AcDbSavedByObjectVersion
1070
     0
  0
VISUALSTYLE
  5
3D
102
{ACAD_REACTORS
330
2A
102
}
102
{ACAD_XDICTIONARY
360
19C
102
}
330
2A
100
AcDbVisualStyle
  2
EdgeColorOff
 70
    22
 71
     2
 72
     2
 73
     0
 90
        0
 40
0.6
 41
30.0
 62
     5
 63
     7
421
 16777215
 74
     1
 91
        4
 64
     7
 65
   257
 75
     1
175
     1
 42
1.0
 92
        8
 66
     7
 43
1.0
 76
     1
 77
     6
 78
     2
 67
     7
 79
     5
170
     0
171
     0
290
     0
174
     0
 93
        1
 44
0.0
173
     0
291
     1
 45
0.0
1001
ACAD
1000
AcDbSavedByObjectVersion
1070
     0
  0
VISUALSTYLE
  5
39
102
{ACAD_REACTORS
330
2A
102
}
102
{ACAD_XDICTIONARY
360
194
102
}
330
2A
100
AcDbVisualStyle
  2
Facepattern
 70
    15
 71
     2
 72
     2
 73
     0
 90
        0
 40
0.6
 41
30.0
 62
     5
 63
     7
421
 16777215
 74
     1
 91
        4
 64
     7
 65
   257
 75
     1
175
     1
 42
1.0
 92
        8
 66
     7
 43
1.0
 76
     1
 77
     6
 78
     2
 67
     7
 79
     5
170
     0
171
     0
290
     0
174
     0
 93
        1
 44
0.0
173
     0
291
     1
 45
0.0
1001
ACAD
1000
AcDbSavedByObjectVersion
1070
     0
  0
VISUALSTYLE
  5
2B
102
{ACAD_REACTORS
330
2A
102
}
102
{ACAD_XDICTIONARY
360
178
102
}
330
2A
100
AcDbVisualStyle
  2
Flat
 70
     0
 71
     2
 72
     1
 73
     1
 90
        2
 40
0.6
 41
30.0
 62
     5
 63
     7
421
 16777215
 74
     0
 91
        0
 64
     7
 65
   257
 75
     1
175
     1
 42
1.0
 92
        8
 66
     7
 43
1.0
 76
     1
 77
     6
 78
     2
 67
     7
 79
     5
170
     0
171
     0
290
     0
174
     0
 93
       13
 44
0.0
173
     0
291
     1
 45
0.0
1001
ACAD
1000
AcDbSavedByObjectVersion
1070
     0
  0
VISUALSTYLE
  5
2C
102
{ACAD_REACTORS
330
2A
102
}
102
{ACAD_XDICTIONARY
360
17A
102
}
330
2A
100
AcDbVisualStyle
  2
FlatWithEdges
 70
     1
 71
     2
 72
     1
 73
     1
 90
        2
 40
0.6
 41
30.0
 62
     5
 63
     7
421
 16777215
 74
     1
 91
        0
 64
     7
 65
   257
 75
     1
175
     1
 42
1.0
 92
        0
 66
   257
 43
1.0
 76
     1
 77
     6
 78
     2
 67
     7
 79
     5
170
     0
171
     0
290
     0
174
     0
 93
       13
 44
0.0
173
     0
291
     1
 45
0.0
1001
ACAD
1000
AcDbSavedByObjectVersion
1070
     0
  0
VISUALSTYLE
  5
2D
102
{ACAD_REACTORS
330
2A
102
}
102
{ACAD_XDICTIONARY
360
17C
102
}
330
2A
100
AcDbVisualStyle
  2
Gouraud
 70
     2
 71
     2
 72
     2
 73
     1
 90
        2
 40
0.6
 41
30.0
 62
     5
 63
     7
421
 16777215
 74
     0
 91
        0
 64
     7
 65
   257
 75
     1
175
     1
 42
1.0
 92
        0
 66
     7
 43
1.0
 76
     1
 77
     6
 78
     2
 67
     7
 79
     5
170
     0
171
     0
290
     0
174
     0
 93
       13
 44
0.0
173
     0
291
     1
 45
0.0
1001
ACAD
1000
AcDbSavedByObjectVersion
1070
     0
  0
VISUALSTYLE
  5
2E
102
{ACAD_REACTORS
330
2A
102
}
102
{ACAD_XDICTIONARY
360
17E
102
}
330
2A
100
AcDbVisualStyle
  2
GouraudWithEdges
 70
     3
 71
     2
 72
     2
 73
     1
 90
        2
 40
0.6
 41
30.0
 62
     5
 63
     7
421
 16777215
 74
     1
 91
        0
 64
     7
 65
   257
 75
     1
175
     1
 42
1.0
 92
        0
 66
   257
 43
1.0
 76
     1
 77
     6
 78
     2
 67
     7
 79
     5
170
     0
171
     0
290
     0
174
     0
 93
       13
 44
0.0
173
     0
291
     1
 45
0.0
1001
ACAD
1000
AcDbSavedByObjectVersion
1070
     0
  0
VISUALSTYLE
  5
31
102
{ACAD_REACTORS
330
2A
102
}
102
{ACAD_XDICTIONARY
360
184
102
}
330
2A
100
AcDbVisualStyle
  2
Hidden
 70
     6
 71
     1
 72
     2
 73
     2
 90
        0
 40
0.6
 41
30.0
 62
     5
 63
     7
421
 16777215
 74
     2
 91
        2
 64
     7
 65
   257
 75
     2
175
     1
 42
40.0
 92
        0
 66
   257
 43
1.0
 76
     1
 77
     6
 78
     2
 67
     7
 79
     3
170
     0
171
     0
290
     0
174
     0
 93
        1
 44
0.0
173
     0
291
     0
 45
0.0
1001
ACAD
1000
AcDbSavedByObjectVersion
1070
     0
  0
VISUALSTYLE
  5
3B
102
{ACAD_REACTORS
330
2A
102
}
102
{ACAD_XDICTIONARY
360
198
102
}
330
2A
100
AcDbVisualStyle
  2
JitterOff
 70
    20
 71
     2
 72
     2
 73
     0
 90
        0
 40
0.6
 41
30.0
 62
     5
 63
     7
421
 16777215
 74
     1
 91
        4
 64
     7
 65
   257
 75
     1
175
     1
 42
1.0
 92
       10
 66
     7
 43
1.0
 76
     1
 77
     6
 78
     2
 67
     7
 79
     5
170
     0
171
     0
290
     0
174
     0
 93
        1
 44
0.0
173
     0
291
     1
 45
0.0
1001
ACAD
1000
AcDbSavedByObjectVersion
1070
     0
  0
VISUALSTYLE
  5
38
102
{ACAD_REACTORS
330
2A
102
}
102
{ACAD_XDICTIONARY
360
192
102
}
330
2A
100
AcDbVisualStyle
  2
Linepattern
 70
    14
 71
     2
 72
     2
 73
     0
 90
        0
 40
0.6
 41
30.0
 62
     5
 63
     7
421
 16777215
 74
     1
 91
        4
 64
     7
 65
   257
 75
     7
175
     7
 42
1.0
 92
        8
 66
     7
 43
1.0
 76
     1
 77
     6
 78
     2
 67
     7
 79
     5
170
     0
171
     0
290
     0
174
     0
 93
        1
 44
0.0
173
     0
291
     1
 45
0.0
1001
ACAD
1000
AcDbSavedByObjectVersion
1070
     0
  0
VISUALSTYLE
  5
3C
102
{ACAD_REACTORS
330
2A
102
}
102
{ACAD_XDICTIONARY
360
19A
102
}
330
2A
100
AcDbVisualStyle
  2
OverhangOff
 70
    21
 71
     2
 72
     2
 73
     0
 90
        0
 40
0.6
 41
30.0
 62
     5
 63
     7
421
 16777215
 74
     1
 91
        4
 64
     7
 65
   257
 75
     1
175
     1
 42
1.0
 92
        9
 66
     7
 43
1.0
 76
     1
 77
     6
 78
     2
 67
     7
 79
     5
170
     0
171
     0
290
     0
174
     0
 93
        1
 44
0.0
173
     0
291
     1
 45
0.0
1001
ACAD
1000
AcDbSavedByObjectVersion
1070
     0
  0
VISUALSTYLE
  5
33
102
{ACAD_REACTORS
330
2A
102
}
102
{ACAD_XDICTIONARY
360
188
102
}
330
2A
100
AcDbVisualStyle
  2
Realistic
 70
     8
 71
     2
 72
     3
 73
     0
 90
        2
 40
0.6
 41
30.0
 62
     5
 63
     7
421
 16777215
 74
     0
 91
        0
 64
     7
 65
   257
 75
     1
175
     1
 42
1.0
 92
        8
 66
   257
 43
1.0
 76
     1
 77
     6
 78
     2
 67
     7
 79
     3
170
     0
171
     0
290
     0
174
     0
 93
       13
 44
0.0
173
     0
291
     0
 45
0.0
1001
ACAD
1000
AcDbSavedByObjectVersion
1070
     0
  0
VISUALSTYLE
  5
42
102
{ACAD_REACTORS
330
2A
102
}
102
{ACAD_XDICTIONARY
360
1A6
102
}
330
2A
100
AcDbVisualStyle
  2
Shaded
 70
    27
 71
     2
 72
     2
 73
     1
 90
        2
 40
0.6
 41
30.0
 62
     5
 63
     7
421
 16777215
 74
     0
 91
        4
 64
     7
 65
   257
 75
     1
175
     1
 42
1.0
 92
        8
 66
   257
 43
1.0
 76
     1
 77
     6
 78
     2
 67
     8
425
  7895160
 79
     3
170
     0
171
     0
290
     0
174
     0
 93
        5
 44
0.0
173
     0
291
     0
 45
0.0
1001
ACAD
1000
AcDbSavedByObjectVersion
1070
     0
  0
VISUALSTYLE
  5
41
102
{ACAD_REACTORS
330
2A
102
}
102
{ACAD_XDICTIONARY
360
1A4
102
}
330
2A
100
AcDbVisualStyle
  2
Shaded with edges
 70
    26
 71
     2
 72
     2
 73
     1
 90
        2
 40
0.6
 41
30.0
 62
     5
 63
     7
421
 16777215
 74
     1
 91
       10
 64
     7
 65
   257
 75
     2
175
     1
 42
1.0
 92
        8
 66
   257
 43
1.0
 76
     1
 77
     6
 78
     2
 67
     7
 79
     3
170
     0
171
     0
290
     0
174
     0
 93
        5
 44
0.0
173
     0
291
     0
 45
0.0
1001
ACAD
1000
AcDbSavedByObjectVersion
1070
     0
  0
VISUALSTYLE
  5
3E
102
{ACAD_REACTORS
330
2A
102
}
102
{ACAD_XDICTIONARY
360
19E
102
}
330
2A
100
AcDbVisualStyle
  2
Shades of Gray
 70
    23
 71
     2
 72
     2
 73
     3
 90
        0
 40
0.6
 41
30.0
 62
     5
 63
     7
421
 16777215
 74
     2
 91
        2
 64
     7
 65
     7
 75
     1
175
     1
 42
40.0
 92
        8
 66
     7
 43
1.0
 76
     1
 77
     6
 78
     2
 67
     7
 79
     3
170
     0
171
     0
290
     0
174
     0
 93
        1
 44
0.0
173
     0
291
     0
 45
0.0
1001
ACAD
1000
AcDbSavedByObjectVersion
1070
     0
  0
VISUALSTYLE
  5
3F
102
{ACAD_REACTORS
330
2A
102
}
102
{ACAD_XDICTIONARY
360
1A0
102
}
330
2A
100
AcDbVisualStyle
  2
Sketchy
 70
    24
 71
     1
 72
     2
 73
     2
 90
        0
 40
0.6
 41
30.0
 62
     5
 63
     7
421
 16777215
 74
     2
 91
        2
 64
     7
 65
     7
 75
     1
175
     1
 42
40.0
 92
       11
 66
     7
 43
1.0
 76
     1
 77
     6
 78
     2
 67
     7
 79
     6
170
     0
171
     0
290
     0
174
     0
 93
        1
 44
0.0
173
     0
291
     0
 45
0.0
1001
ACAD
1000
AcDbSavedByObjectVersion
1070
     0
  0
VISUALSTYLE
  5
37
102
{ACAD_REACTORS
330
2A
102
}
102
{ACAD_XDICTIONARY
360
190
102
}
330
2A
100
AcDbVisualStyle
  2
Thicken
 70
    13
 71
     2
 72
     2
 73
     0
 90
        0
 40
0.6
 41
30.0
 62
     5
 63
     7
421
 16777215
 74
     1
 91
        4
 64
     7
 65
   257
 75
     1
175
     1
 42
1.0
 92
       12
 66
     7
 43
1.0
 76
     1
 77
     6
 78
     2
 67
     7
 79
     5
170
     0
171
     0
290
     0
174
     0
 93
        1
 44
0.0
173
     0
291
     1
 45
0.0
1001
ACAD
1000
AcDbSavedByObjectVersion
1070
     0
  0
VISUALSTYLE
  5
30
102
{ACAD_REACTORS
330
2A
102
}
102
{ACAD_XDICTIONARY
360
182
102
}
330
2A
100
AcDbVisualStyle
  2
Wireframe
 70
     5
 71
     0
 72
     2
 73
     0
 90
        0
 40
0.6
 41
30.0
 62
     5
 63
     7
421
 16777215
 74
     1
 91
        4
 64
     7
 65
   257
 75
     1
175
     1
 42
1.0
 92
        0
 66
   257
 43
1.0
 76
     1
 77
     6
 78
     2
 67
     7
 79
     3
170
     0
171
     0
290
     0
174
     0
 93
        1
 44
0.0
173
     0
291
     0
 45
0.0
1001
ACAD
1000
AcDbSavedByObjectVersion
1070
     0
  0
VISUALSTYLE
  5
40
102
{ACAD_REACTORS
330
2A
102
}
102
{ACAD_XDICTIONARY
360
1A2
102
}
330
2A
100
AcDbVisualStyle
  2
X-Ray
 70
    25
 71
     2
 72
     2
 73
     1
 90
        1
 40
0.5
 41
30.0
 62
     5
 63
     7
421
 16777215
 74
     1
 91
        0
 64
     7
 65
   257
 75
     1
175
     1
 42
1.0
 92
        8
 66
     7
 43
1.0
 76
     1
 77
     6
 78
     2
 67
     7
 79
     3
170
     0
171
     0
290
     0
174
     0
 93
       13
 44
0.0
173
     0
291
     0
 45
0.0
1001
ACAD
1000
AcDbSavedByObjectVersion
1070
     0
  0
DICTIONARYVAR
  5
175
102
{ACAD_REACTORS
330
174
102
}
330
174
100
DictionaryVariables
280
     0
  1
1:1
  0
DICTIONARYVAR
  5
1B6
102
{ACAD_REACTORS
330
174
102
}
330
174
100
DictionaryVariables
280
     0
  1
Standard
  0
DICTIONARYVAR
  5
1B5
102
{ACAD_REACTORS
330
174
102
}
330
174
100
DictionaryVariables
280
     0
  1
Standard
  0
DICTIONARYVAR
  5
176
102
{ACAD_REACTORS
330
174
102
}
330
174
100
DictionaryVariables
280
     0
  1
1
  0
DICTIONARYVAR
  5
177
102
{ACAD_REACTORS
330
174
102
}
330
174
100
DictionaryVariables
280
     0
  1
2
  0
DICTIONARY
  5
1AA
330
45
100
AcDbDictionary
280
     1
281
     1
  3
ACAD_XREC_ROUNDTRIP
360
1AB
  0
DICTIONARY
  5
1A8
330
44
100
AcDbDictionary
280
     1
281
     1
  3
ACAD_XREC_ROUNDTRIP
360
1A9
  0
DICTIONARY
  5
1AC
330
46
100
AcDbDictionary
280
     1
281
     1
  3
ACAD_XREC_ROUNDTRIP
360
1AD
  0
DICTIONARY
  5
1B2
330
6C
100
AcDbDictionary
280
     1
281
     1
  3
ACAD_XREC_ROUNDTRIP
360
1B3
  0
DICTIONARY
  5
1AE
330
6A
100
AcDbDictionary
280
     1
281
     1
  3
ACAD_ROUNDTRIP_2008_TABLESTYLE_CELLSTYLEMAP
360
1B0
  3
ACAD_XREC_ROUNDTRIP
360
1AF
  0
DICTIONARY
  5
180
330
2F
100
AcDbDictionary
280
     1
281
     1
  3
ACAD_XREC_ROUNDTRIP
360
181
  0
DICTIONARY
  5
186
330
32
100
AcDbDictionary
280
     1
281
     1
  3
ACAD_XREC_ROUNDTRIP
360
187
  0
DICTIONARY
  5
18E
330
36
100
AcDbDictionary
280
     1
281
     1
  3
ACAD_XREC_ROUNDTRIP
360
18F
  0
DICTIONARY
  5
196
330
3A
100
AcDbDictionary
280
     1
281
     1
  3
ACAD_XREC_ROUNDTRIP
360
197
  0
DICTIONARY
  5
18A
330
34
100
AcDbDictionary
280
     1
281
     1
  3
ACAD_XREC_ROUNDTRIP
360
18B
  0
DICTIONARY
  5
18C
330
35
100
AcDbDictionary
280
     1
281
     1
  3
ACAD_XREC_ROUNDTRIP
360
18D
  0
DICTIONARY
  5
19C
330
3D
100
AcDbDictionary
280
     1
281
     1
  3
ACAD_XREC_ROUNDTRIP
360
19D
  0
DICTIONARY
  5
194
330
39
100
AcDbDictionary
280
     1
281
     1
  3
ACAD_XREC_ROUNDTRIP
360
195
  0
DICTIONARY
  5
178
330
2B
100
AcDbDictionary
280
     1
281
     1
  3
ACAD_XREC_ROUNDTRIP
360
179
  0
DICTIONARY
  5
17A
330
2C
100
AcDbDictionary
280
     1
281
     1
  3
ACAD_XREC_ROUNDTRIP
360
17B
  0
DICTIONARY
  5
17C
330
2D
100
AcDbDictionary
280
     1
281
     1
  3
ACAD_XREC_ROUNDTRIP
360
17D
  0
DICTIONARY
  5
17E
330
2E
100
AcDbDictionary
280
     1
281
     1
  3
ACAD_XREC_ROUNDTRIP
360
17F
  0
DICTIONARY
  5
184
330
31
100
AcDbDictionary
280
     1
281
     1
  3
ACAD_XREC_ROUNDTRIP
360
185
  0
DICTIONARY
  5
198
330
3B
100
AcDbDictionary
280
     1
281
     1
  3
ACAD_XREC_ROUNDTRIP
360
199
  0
DICTIONARY
  5
192
330
38
100
AcDbDictionary
280
     1
281
     1
  3
ACAD_XREC_ROUNDTRIP
360
193
  0
DICTIONARY
  5
19A
330
3C
100
AcDbDictionary
280
     1
281
     1
  3
ACAD_XREC_ROUNDTRIP
360
19B
  0
DICTIONARY
  5
188
330
33
100
AcDbDictionary
280
     1
281
     1
  3
ACAD_XREC_ROUNDTRIP
360
189
  0
DICTIONARY
  5
1A6
330
42
100
AcDbDictionary
280
     1
281
     1
  3
ACAD_XREC_ROUNDTRIP
360
1A7
  0
DICTIONARY
  5
1A4
330
41
100
AcDbDictionary
280
     1
281
     1
  3
ACAD_XREC_ROUNDTRIP
360
1A5
  0
DICTIONARY
  5
19E
330
3E
100
AcDbDictionary
280
     1
281
     1
  3
ACAD_XREC_ROUNDTRIP
360
19F
  0
DICTIONARY
  5
1A0
330
3F
100
AcDbDictionary
280
     1
281
     1
  3
ACAD_XREC_ROUNDTRIP
360
1A1
  0
DICTIONARY
  5
190
330
37
100
AcDbDictionary
280
     1
281
     1
  3
ACAD_XREC_ROUNDTRIP
360
191
  0
DICTIONARY
  5
182
330
30
100
AcDbDictionary
280
     1
281
     1
  3
ACAD_XREC_ROUNDTRIP
360
183
  0
DICTIONARY
  5
1A2
330
40
100
AcDbDictionary
280
     1
281
     1
  3
ACAD_XREC_ROUNDTRIP
360
1A3
  0
XRECORD
  5
1AB
102
{ACAD_REACTORS
330
1AA
102
}
330
1AA
100
AcDbXrecord
280
     1
102
MATERIAL
148
0.0
149
0.0
149
0.0
 93
        0
 94
      127
282
     0
 72
     1
 77
     1
171
     1
175
     1
179
     1
273
     0
  0
XRECORD
  5
1A9
102
{ACAD_REACTORS
330
1A8
102
}
330
1A8
100
AcDbXrecord
280
     1
102
MATERIAL
148
0.0
149
0.0
149
0.0
 93
        0
 94
      127
282
     0
 72
     1
 77
     1
171
     1
175
     1
179
     1
273
     0
  0
XRECORD
  5
1AD
102
{ACAD_REACTORS
330
1AC
102
}
330
1AC
100
AcDbXrecord
280
     1
102
MATERIAL
148
0.0
149
0.0
149
0.0
 93
        0
 94
      127
282
     0
 72
     1
 77
     1
171
     1
175
     1
179
     1
273
     0
  0
XRECORD
  5
1B3
102
{ACAD_REACTORS
330
1B2
102
}
330
1B2
100
AcDbXrecord
280
     1
102
ACAD_ROUNDTRIP_2010_MLEADER_STYLE
  0
CELLSTYLEMAP
  5
1B0
102
{ACAD_REACTORS
330
1AE
102
}
330
1AE
100
AcDbCellStyleMap
 90
        3
300
CELLSTYLE
  1
TABLEFORMAT_BEGIN
 90
        5
170
     1
 91
        0
 92
    32768
 62
   257
 93
        1
300
CONTENTFORMAT
  1
CONTENTFORMAT_BEGIN
 90
        0
 91
        0
 92
        4
 93
        0
300

 40
0.0
140
1.0
 94
        5
 62
     0
340
11
144
0.25
309
CONTENTFORMAT_END
171
     1
301
MARGIN
  1
CELLMARGIN_BEGIN
 40
0.06
 40
0.06
 40
0.06
 40
0.06
 40
0.06
 40
0.06
309
CELLMARGIN_END
 94
        6
 95
        1
302
GRIDFORMAT
  1
GRIDFORMAT_BEGIN
 90
        0
 91
        1
 62
     0
 92
       -2
340
14
 93
        0
 40
0.045
309
GRIDFORMAT_END
 95
        2
302
GRIDFORMAT
  1
GRIDFORMAT_BEGIN
 90
        0
 91
        1
 62
     0
 92
       -2
340
14
 93
        0
 40
0.045
309
GRIDFORMAT_END
 95
        4
302
GRIDFORMAT
  1
GRIDFORMAT_BEGIN
 90
        0
 91
        1
 62
     0
 92
       -2
340
14
 93
        0
 40
0.045
309
GRIDFORMAT_END
 95
        8
302
GRIDFORMAT
  1
GRIDFORMAT_BEGIN
 90
        0
 91
        1
 62
     0
 92
       -2
340
14
 93
        0
 40
0.045
309
GRIDFORMAT_END
 95
       16
302
GRIDFORMAT
  1
GRIDFORMAT_BEGIN
 90
        0
 91
        1
 62
     0
 92
       -2
340
14
 93
        0
 40
0.045
309
GRIDFORMAT_END
 95
       32
302
GRIDFORMAT
  1
GRIDFORMAT_BEGIN
 90
        0
 91
        1
 62
     0
 92
       -2
340
14
 93
        0
 40
0.045
309
GRIDFORMAT_END
309
TABLEFORMAT_END
  1
CELLSTYLE_BEGIN
 90
        1
 91
        1
300
_TITLE
309
CELLSTYLE_END
300
CELLSTYLE
  1
TABLEFORMAT_BEGIN
 90
        5
170
     1
 91
        0
 92
        0
 62
   257
 93
        1
300
CONTENTFORMAT
  1
CONTENTFORMAT_BEGIN
 90
        0
 91
        0
 92
        4
 93
        0
300

 40
0.0
140
1.0
 94
        5
 62
     0
340
11
144
0.18
309
CONTENTFORMAT_END
171
     1
301
MARGIN
  1
CELLMARGIN_BEGIN
 40
0.06
 40
0.06
 40
0.06
 40
0.06
 40
0.06
 40
0.06
309
CELLMARGIN_END
 94
        6
 95
        1
302
GRIDFORMAT
  1
GRIDFORMAT_BEGIN
 90
        0
 91
        1
 62
     0
 92
       -2
340
14
 93
        0
 40
0.045
309
GRIDFORMAT_END
 95
        2
302
GRIDFORMAT
  1
GRIDFORMAT_BEGIN
 90
        0
 91
        1
 62
     0
 92
       -2
340
14
 93
        0
 40
0.045
309
GRIDFORMAT_END
 95
        4
302
GRIDFORMAT
  1
GRIDFORMAT_BEGIN
 90
        0
 91
        1
 62
     0
 92
       -2
340
14
 93
        0
 40
0.045
309
GRIDFORMAT_END
 95
        8
302
GRIDFORMAT
  1
GRIDFORMAT_BEGIN
 90
        0
 91
        1
 62
     0
 92
       -2
340
14
 93
        0
 40
0.045
309
GRIDFORMAT_END
 95
       16
302
GRIDFORMAT
  1
GRIDFORMAT_BEGIN
 90
        0
 91
        1
 62
     0
 92
       -2
340
14
 93
        0
 40
0.045
309
GRIDFORMAT_END
 95
       32
302
GRIDFORMAT
  1
GRIDFORMAT_BEGIN
 90
        0
 91
        1
 62
     0
 92
       -2
340
14
 93
        0
 40
0.045
309
GRIDFORMAT_END
309
TABLEFORMAT_END
  1
CELLSTYLE_BEGIN
 90
        2
 91
        1
300
_HEADER
309
CELLSTYLE_END
300
CELLSTYLE
  1
TABLEFORMAT_BEGIN
 90
        5
170
     1
 91
        0
 92
        0
 62
   257
 93
        1
300
CONTENTFORMAT
  1
CONTENTFORMAT_BEGIN
 90
        0
 91
        0
 92
        4
 93
        0
300

 40
0.0
140
1.0
 94
        2
 62
     0
340
11
144
0.18
309
CONTENTFORMAT_END
171
     1
301
MARGIN
  1
CELLMARGIN_BEGIN
 40
0.06
 40
0.06
 40
0.06
 40
0.06
 40
0.06
 40
0.06
309
CELLMARGIN_END
 94
        6
 95
        1
302
GRIDFORMAT
  1
GRIDFORMAT_BEGIN
 90
        0
 91
        1
 62
     0
 92
       -2
340
14
 93
        0
 40
0.045
309
GRIDFORMAT_END
 95
        2
302
GRIDFORMAT
  1
GRIDFORMAT_BEGIN
 90
        0
 91
        1
 62
     0
 92
       -2
340
14
 93
        0
 40
0.045
309
GRIDFORMAT_END
 95
        4
302
GRIDFORMAT
  1
GRIDFORMAT_BEGIN
 90
        0
 91
        1
 62
     0
 92
       -2
340
14
 93
        0
 40
0.045
309
GRIDFORMAT_END
 95
        8
302
GRIDFORMAT
  1
GRIDFORMAT_BEGIN
 90
        0
 91
        1
 62
     0
 92
       -2
340
14
 93
        0
 40
0.045
309
GRIDFORMAT_END
 95
       16
302
GRIDFORMAT
  1
GRIDFORMAT_BEGIN
 90
        0
 91
        1
 62
     0
 92
       -2
340
14
 93
        0
 40
0.045
309
GRIDFORMAT_END
 95
       32
302
GRIDFORMAT
  1
GRIDFORMAT_BEGIN
 90
        0
 91
        1
 62
     0
 92
       -2
340
14
 93
        0
 40
0.045
309
GRIDFORMAT_END
309
TABLEFORMAT_END
  1
CELLSTYLE_BEGIN
 90
        3
 91
        2
300
_DATA
309
CELLSTYLE_END
  0
XRECORD
  5
1AF
102
{ACAD_REACTORS
330
1AE
102
}
330
1AE
100
AcDbXrecord
280
     1
102
ACAD_ROUNDTRIP_PRE2007_TABLESTYLE
 90
        4
 91
        0
  1

 92
        4
 93
        0
  2

 94
        4
 95
        0
  3

  0
XRECORD
  5
181
102
{ACAD_REACTORS
330
180
102
}
330
180
100
AcDbXrecord
280
     1
102
RTVSPropertyOp0
 70
     1
102
RTVSPropertyOp1
 70
     1
102
RTVSPropertyOp2
 70
     1
102
RTVSPropertyOp3
 70
     1
102
RTVSPropertyOp4
 70
     1
102
RTVSPropertyOp5
 70
     1
102
RTVSPropertyOp6
 70
     1
102
RTVSPropertyOp7
 70
     1
102
RTVSPropertyOp8
 70
     1
102
RTVSPropertyOp9
 70
     1
102
RTVSPropertyOp10
 70
     1
102
RTVSPropertyOp11
 70
     1
102
RTVSPropertyOp12
 70
     1
102
RTVSPropertyOp13
 70
     1
102
RTVSPropertyOp14
 70
     1
102
RTVSPropertyOp15
 70
     1
102
RTVSPropertyOp16
 70
     1
102
RTVSPropertyOp17
 70
     1
102
RTVSPropertyOp18
 70
     1
102
RTVSPropertyOp19
 70
     1
102
RTVSPropertyOp20
 70
     1
102
RTVSPropertyOp21
 70
     1
102
RTVSPropertyOp22
 70
     1
102
RTVSPropertyOp23
 70
     1
102
RTVSPropertyOp24
 70
     1
102
RTVSPropertyOp25
 70
     1
102
RTVSPropertyOp26
 70
     1
102
RTVSPropertyOp27
 70
     1
102
RTVSPropertyOp28
 70
     1
102
RTVSPropertyOp29
 70
     1
102
RTVSPropertyOp30
 70
     1
102
RTVSPropertyOp31
 70
     1
102
RTVSPropertyOp32
 70
     1
102
RTVSPropertyOp33
 70
     1
102
RTVSPropertyOp34
 70
     1
102
RTVSPropertyOp35
 70
     1
102
RTVSPropertyOp36
 70
     1
102
RTVSPropertyOp37
 70
     1
102
RTVSPropertyOp38
 70
     1
102
RTVSPropertyOp39
 70
     1
102
RTVSPropertyOp40
 70
     1
102
RTVSPropertyOp41
 70
     1
102
RTVSPropertyOp42
 70
     1
102
RTVSPropertyOp43
 70
     1
102
RTVSPropertyOp44
 70
     1
102
RTVSPropertyOp45
 70
     1
102
RTVSPropertyOp46
 70
     1
102
RTVSPropertyOp47
 70
     1
102
RTVSPropertyOp48
 70
     1
102
RTVSPropertyOp49
 70
     1
102
RTVSPropertyOp50
 70
     1
102
RTVSPropertyOp51
 70
     0
102
RTVSPropertyOp52
 70
     0
102
RTVSPropertyOp53
 70
     1
102
RTVSPropertyOp54
 70
     1
102
RTVSPropertyOp55
 70
     1
102
RTVSPropertyOp56
 70
     1
102
RTVSPropertyOp57
 70
     1
102
RTVSPost2010Prop28
280
     1
102
RTVSPost2010PropOp28
 70
     1
102
RTVSPost2010Prop29
280
     1
102
RTVSPost2010PropOp29
 70
     1
102
RTVSPost2010Prop30
280
     0
102
RTVSPost2010PropOp30
 70
     1
102
RTVSPost2010Prop31
280
     0
102
RTVSPost2010PropOp31
 70
     1
102
RTVSPost2010Prop32
280
     0
102
RTVSPost2010PropOp32
 70
     1
102
RTVSPost2010Prop33
280
     0
102
RTVSPost2010PropOp33
 70
     1
102
RTVSPost2010Prop34
280
     0
102
RTVSPost2010PropOp34
 70
     1
102
RTVSPost2010Prop35
280
     0
102
RTVSPost2010PropOp35
 70
     1
102
RTVSPost2010Prop36
280
     0
102
RTVSPost2010PropOp36
 70
     1
102
RTVSPost2010Prop37
 90
       50
102
RTVSPost2010PropOp37
 70
     1
102
RTVSPost2010Prop38
140
0.0
102
RTVSPost2010PropOp38
 70
     1
102
RTVSPost2010Prop39
140
1.0
102
RTVSPost2010PropOp39
 70
     1
102
RTVSPost2010Prop40
 90
        0
102
RTVSPost2010PropOp40
 70
     1
102
RTVSPost2010Prop41ColorIndex
 90
       18
102
RTVSPost2010Prop41ColorRGB
 90
        0
102
RTVSPost2010PropOp41
 70
     1
102
RTVSPost2010Prop42
 90
       50
102
RTVSPost2010PropOp42
 70
     1
102
RTVSPost2010Prop43
 90
        3
102
RTVSPost2010PropOp43
 70
     1
102
RTVSPost2010Prop44ColorIndex
 90
        5
102
RTVSPost2010Prop44ColorRGB
 90
      255
102
RTVSPost2010PropOp44
 70
     1
102
RTVSPost2010Prop45
280
     0
102
RTVSPost2010PropOp45
 70
     1
102
RTVSPost2010Prop46
 90
       50
102
RTVSPost2010PropOp46
 70
     1
102
RTVSPost2010Prop47
 90
       50
102
RTVSPost2010PropOp47
 70
     1
102
RTVSPost2010Prop48
 90
       50
102
RTVSPost2010PropOp48
 70
     1
102
RTVSPost2010Prop49
280
     0
102
RTVSPost2010PropOp49
 70
     1
102
RTVSPost2010Prop50
 90
       50
102
RTVSPost2010PropOp50
 70
     1
102
RTVSPost2010Prop51ColorIndex
 90
      256
102
RTVSPost2010Prop51ColorRGB
 90
-16777216
102
RTVSPost2010PropOp51
 70
     0
102
RTVSPost2010Prop52
140
1.0
102
RTVSPost2010PropOp52
 70
     0
102
RTVSPost2010Prop53
 90
        2
102
RTVSPost2010PropOp53
 70
     1
102
RTVSPost2010Prop54
  1
strokes_ogs.tif
102
RTVSPost2010PropOp54
 70
     1
102
RTVSPost2010Prop55
280
     0
102
RTVSPost2010PropOp55
 70
     1
102
RTVSPost2010Prop56
140
1.0
102
RTVSPost2010PropOp56
 70
     1
102
RTVSPost2010Prop57
140
1.0
102
RTVSPost2010PropOp57
 70
     1
  0
XRECORD
  5
187
102
{ACAD_REACTORS
330
186
102
}
330
186
100
AcDbXrecord
280
     1
102
RTVSPropertyOp0
 70
     1
102
RTVSPropertyOp1
 70
     1
102
RTVSPropertyOp2
 70
     1
102
RTVSPropertyOp3
 70
     1
102
RTVSPropertyOp4
 70
     1
102
RTVSPropertyOp5
 70
     1
102
RTVSPropertyOp6
 70
     1
102
RTVSPropertyOp7
 70
     1
102
RTVSPropertyOp8
 70
     1
102
RTVSPropertyOp9
 70
     1
102
RTVSPropertyOp10
 70
     1
102
RTVSPropertyOp11
 70
     1
102
RTVSPropertyOp12
 70
     1
102
RTVSPropertyOp13
 70
     1
102
RTVSPropertyOp14
 70
     1
102
RTVSPropertyOp15
 70
     1
102
RTVSPropertyOp16
 70
     1
102
RTVSPropertyOp17
 70
     1
102
RTVSPropertyOp18
 70
     1
102
RTVSPropertyOp19
 70
     1
102
RTVSPropertyOp20
 70
     1
102
RTVSPropertyOp21
 70
     1
102
RTVSPropertyOp22
 70
     1
102
RTVSPropertyOp23
 70
     1
102
RTVSPropertyOp24
 70
     1
102
RTVSPropertyOp25
 70
     1
102
RTVSPropertyOp26
 70
     1
102
RTVSPropertyOp27
 70
     1
102
RTVSPropertyOp28
 70
     1
102
RTVSPropertyOp29
 70
     1
102
RTVSPropertyOp30
 70
     1
102
RTVSPropertyOp31
 70
     1
102
RTVSPropertyOp32
 70
     1
102
RTVSPropertyOp33
 70
     1
102
RTVSPropertyOp34
 70
     1
102
RTVSPropertyOp35
 70
     1
102
RTVSPropertyOp36
 70
     1
102
RTVSPropertyOp37
 70
     1
102
RTVSPropertyOp38
 70
     1
102
RTVSPropertyOp39
 70
     1
102
RTVSPropertyOp40
 70
     1
102
RTVSPropertyOp41
 70
     1
102
RTVSPropertyOp42
 70
     1
102
RTVSPropertyOp43
 70
     1
102
RTVSPropertyOp44
 70
     1
102
RTVSPropertyOp45
 70
     1
102
RTVSPropertyOp46
 70
     1
102
RTVSPropertyOp47
 70
     1
102
RTVSPropertyOp48
 70
     1
102
RTVSPropertyOp49
 70
     1
102
RTVSPropertyOp50
 70
     1
102
RTVSPropertyOp51
 70
     0
102
RTVSPropertyOp52
 70
     0
102
RTVSPropertyOp53
 70
     1
102
RTVSPropertyOp54
 70
     1
102
RTVSPropertyOp55
 70
     1
102
RTVSPropertyOp56
 70
     1
102
RTVSPropertyOp57
 70
     1
102
RTVSPost2010Prop28
280
     0
102
RTVSPost2010PropOp28
 70
     1
102
RTVSPost2010Prop29
280
     1
102
RTVSPost2010PropOp29
 70
     1
102
RTVSPost2010Prop30
280
     1
102
RTVSPost2010PropOp30
 70
     1
102
RTVSPost2010Prop31
280
     0
102
RTVSPost2010PropOp31
 70
     1
102
RTVSPost2010Prop32
280
     0
102
RTVSPost2010PropOp32
 70
     1
102
RTVSPost2010Prop33
280
     0
102
RTVSPost2010PropOp33
 70
     1
102
RTVSPost2010Prop34
280
     0
102
RTVSPost2010PropOp34
 70
     1
102
RTVSPost2010Prop35
280
     0
102
RTVSPost2010PropOp35
 70
     1
102
RTVSPost2010Prop36
280
     0
102
RTVSPost2010PropOp36
 70
     1
102
RTVSPost2010Prop37
 90
       50
102
RTVSPost2010PropOp37
 70
     1
102
RTVSPost2010Prop38
140
0.0
102
RTVSPost2010PropOp38
 70
     1
102
RTVSPost2010Prop39
140
1.0
102
RTVSPost2010PropOp39
 70
     1
102
RTVSPost2010Prop40
 90
        0
102
RTVSPost2010PropOp40
 70
     1
102
RTVSPost2010Prop41ColorIndex
 90
       18
102
RTVSPost2010Prop41ColorRGB
 90
        0
102
RTVSPost2010PropOp41
 70
     1
102
RTVSPost2010Prop42
 90
       50
102
RTVSPost2010PropOp42
 70
     1
102
RTVSPost2010Prop43
 90
        3
102
RTVSPost2010PropOp43
 70
     1
102
RTVSPost2010Prop44ColorIndex
 90
        5
102
RTVSPost2010Prop44ColorRGB
 90
      255
102
RTVSPost2010PropOp44
 70
     1
102
RTVSPost2010Prop45
280
     0
102
RTVSPost2010PropOp45
 70
     1
102
RTVSPost2010Prop46
 90
       50
102
RTVSPost2010PropOp46
 70
     1
102
RTVSPost2010Prop47
 90
       50
102
RTVSPost2010PropOp47
 70
     1
102
RTVSPost2010Prop48
 90
       50
102
RTVSPost2010PropOp48
 70
     1
102
RTVSPost2010Prop49
280
     0
102
RTVSPost2010PropOp49
 70
     1
102
RTVSPost2010Prop50
 90
       50
102
RTVSPost2010PropOp50
 70
     1
102
RTVSPost2010Prop51ColorIndex
 90
      256
102
RTVSPost2010Prop51ColorRGB
 90
-16777216
102
RTVSPost2010PropOp51
 70
     0
102
RTVSPost2010Prop52
140
1.0
102
RTVSPost2010PropOp52
 70
     0
102
RTVSPost2010Prop53
 90
        2
102
RTVSPost2010PropOp53
 70
     1
102
RTVSPost2010Prop54
  1
strokes_ogs.tif
102
RTVSPost2010PropOp54
 70
     1
102
RTVSPost2010Prop55
280
     0
102
RTVSPost2010PropOp55
 70
     1
102
RTVSPost2010Prop56
140
1.0
102
RTVSPost2010PropOp56
 70
     1
102
RTVSPost2010Prop57
140
1.0
102
RTVSPost2010PropOp57
 70
     1
  0
XRECORD
  5
18F
102
{ACAD_REACTORS
330
18E
102
}
330
18E
100
AcDbXrecord
280
     1
102
RTVSPropertyOp0
 70
     1
102
RTVSPropertyOp1
 70
     1
102
RTVSPropertyOp2
 70
     1
102
RTVSPropertyOp3
 70
     1
102
RTVSPropertyOp4
 70
     1
102
RTVSPropertyOp5
 70
     1
102
RTVSPropertyOp6
 70
     1
102
RTVSPropertyOp7
 70
     1
102
RTVSPropertyOp8
 70
     1
102
RTVSPropertyOp9
 70
     1
102
RTVSPropertyOp10
 70
     1
102
RTVSPropertyOp11
 70
     1
102
RTVSPropertyOp12
 70
     1
102
RTVSPropertyOp13
 70
     1
102
RTVSPropertyOp14
 70
     1
102
RTVSPropertyOp15
 70
     1
102
RTVSPropertyOp16
 70
     1
102
RTVSPropertyOp17
 70
     1
102
RTVSPropertyOp18
 70
     1
102
RTVSPropertyOp19
 70
     1
102
RTVSPropertyOp20
 70
     1
102
RTVSPropertyOp21
 70
     1
102
RTVSPropertyOp22
 70
     1
102
RTVSPropertyOp23
 70
     1
102
RTVSPropertyOp24
 70
     1
102
RTVSPropertyOp25
 70
     1
102
RTVSPropertyOp26
 70
     1
102
RTVSPropertyOp27
 70
     1
102
RTVSPropertyOp28
 70
     1
102
RTVSPropertyOp29
 70
     1
102
RTVSPropertyOp30
 70
     1
102
RTVSPropertyOp31
 70
     1
102
RTVSPropertyOp32
 70
     1
102
RTVSPropertyOp33
 70
     1
102
RTVSPropertyOp34
 70
     1
102
RTVSPropertyOp35
 70
     1
102
RTVSPropertyOp36
 70
     1
102
RTVSPropertyOp37
 70
     1
102
RTVSPropertyOp38
 70
     1
102
RTVSPropertyOp39
 70
     1
102
RTVSPropertyOp40
 70
     1
102
RTVSPropertyOp41
 70
     1
102
RTVSPropertyOp42
 70
     1
102
RTVSPropertyOp43
 70
     1
102
RTVSPropertyOp44
 70
     1
102
RTVSPropertyOp45
 70
     1
102
RTVSPropertyOp46
 70
     1
102
RTVSPropertyOp47
 70
     1
102
RTVSPropertyOp48
 70
     1
102
RTVSPropertyOp49
 70
     1
102
RTVSPropertyOp50
 70
     1
102
RTVSPropertyOp51
 70
     0
102
RTVSPropertyOp52
 70
     0
102
RTVSPropertyOp53
 70
     1
102
RTVSPropertyOp54
 70
     1
102
RTVSPropertyOp55
 70
     1
102
RTVSPropertyOp56
 70
     1
102
RTVSPropertyOp57
 70
     1
102
RTVSPost2010Prop28
280
     0
102
RTVSPost2010PropOp28
 70
     1
102
RTVSPost2010Prop29
280
     1
102
RTVSPost2010PropOp29
 70
     1
102
RTVSPost2010Prop30
280
     1
102
RTVSPost2010PropOp30
 70
     1
102
RTVSPost2010Prop31
280
     0
102
RTVSPost2010PropOp31
 70
     1
102
RTVSPost2010Prop32
280
     0
102
RTVSPost2010PropOp32
 70
     1
102
RTVSPost2010Prop33
280
     0
102
RTVSPost2010PropOp33
 70
     1
102
RTVSPost2010Prop34
280
     0
102
RTVSPost2010PropOp34
 70
     1
102
RTVSPost2010Prop35
280
     0
102
RTVSPost2010PropOp35
 70
     1
102
RTVSPost2010Prop36
280
     0
102
RTVSPost2010PropOp36
 70
     1
102
RTVSPost2010Prop37
 90
       50
102
RTVSPost2010PropOp37
 70
     1
102
RTVSPost2010Prop38
140
0.0
102
RTVSPost2010PropOp38
 70
     1
102
RTVSPost2010Prop39
140
1.0
102
RTVSPost2010PropOp39
 70
     1
102
RTVSPost2010Prop40
 90
        0
102
RTVSPost2010PropOp40
 70
     1
102
RTVSPost2010Prop41ColorIndex
 90
       18
102
RTVSPost2010Prop41ColorRGB
 90
        0
102
RTVSPost2010PropOp41
 70
     1
102
RTVSPost2010Prop42
 90
       50
102
RTVSPost2010PropOp42
 70
     1
102
RTVSPost2010Prop43
 90
        3
102
RTVSPost2010PropOp43
 70
     1
102
RTVSPost2010Prop44ColorIndex
 90
        5
102
RTVSPost2010Prop44ColorRGB
 90
      255
102
RTVSPost2010PropOp44
 70
     1
102
RTVSPost2010Prop45
280
     0
102
RTVSPost2010PropOp45
 70
     1
102
RTVSPost2010Prop46
 90
       50
102
RTVSPost2010PropOp46
 70
     1
102
RTVSPost2010Prop47
 90
       50
102
RTVSPost2010PropOp47
 70
     1
102
RTVSPost2010Prop48
 90
       50
102
RTVSPost2010PropOp48
 70
     1
102
RTVSPost2010Prop49
280
     0
102
RTVSPost2010PropOp49
 70
     1
102
RTVSPost2010Prop50
 90
       50
102
RTVSPost2010PropOp50
 70
     1
102
RTVSPost2010Prop51ColorIndex
 90
      256
102
RTVSPost2010Prop51ColorRGB
 90
-16777216
102
RTVSPost2010PropOp51
 70
     0
102
RTVSPost2010Prop52
140
1.0
102
RTVSPost2010PropOp52
 70
     0
102
RTVSPost2010Prop53
 90
        2
102
RTVSPost2010PropOp53
 70
     1
102
RTVSPost2010Prop54
  1
strokes_ogs.tif
102
RTVSPost2010PropOp54
 70
     1
102
RTVSPost2010Prop55
280
     0
102
RTVSPost2010PropOp55
 70
     1
102
RTVSPost2010Prop56
140
1.0
102
RTVSPost2010PropOp56
 70
     1
102
RTVSPost2010Prop57
140
1.0
102
RTVSPost2010PropOp57
 70
     1
  0
XRECORD
  5
197
102
{ACAD_REACTORS
330
196
102
}
330
196
100
AcDbXrecord
280
     1
102
RTVSPropertyOp0
 70
     1
102
RTVSPropertyOp1
 70
     1
102
RTVSPropertyOp2
 70
     1
102
RTVSPropertyOp3
 70
     1
102
RTVSPropertyOp4
 70
     1
102
RTVSPropertyOp5
 70
     1
102
RTVSPropertyOp6
 70
     1
102
RTVSPropertyOp7
 70
     1
102
RTVSPropertyOp8
 70
     1
102
RTVSPropertyOp9
 70
     1
102
RTVSPropertyOp10
 70
     1
102
RTVSPropertyOp11
 70
     1
102
RTVSPropertyOp12
 70
     1
102
RTVSPropertyOp13
 70
     1
102
RTVSPropertyOp14
 70
     1
102
RTVSPropertyOp15
 70
     1
102
RTVSPropertyOp16
 70
     1
102
RTVSPropertyOp17
 70
     1
102
RTVSPropertyOp18
 70
     1
102
RTVSPropertyOp19
 70
     1
102
RTVSPropertyOp20
 70
     1
102
RTVSPropertyOp21
 70
     1
102
RTVSPropertyOp22
 70
     1
102
RTVSPropertyOp23
 70
     1
102
RTVSPropertyOp24
 70
     1
102
RTVSPropertyOp25
 70
     1
102
RTVSPropertyOp26
 70
     1
102
RTVSPropertyOp27
 70
     1
102
RTVSPropertyOp28
 70
     1
102
RTVSPropertyOp29
 70
     1
102
RTVSPropertyOp30
 70
     1
102
RTVSPropertyOp31
 70
     1
102
RTVSPropertyOp32
 70
     1
102
RTVSPropertyOp33
 70
     1
102
RTVSPropertyOp34
 70
     1
102
RTVSPropertyOp35
 70
     1
102
RTVSPropertyOp36
 70
     1
102
RTVSPropertyOp37
 70
     1
102
RTVSPropertyOp38
 70
     1
102
RTVSPropertyOp39
 70
     1
102
RTVSPropertyOp40
 70
     1
102
RTVSPropertyOp41
 70
     1
102
RTVSPropertyOp42
 70
     1
102
RTVSPropertyOp43
 70
     1
102
RTVSPropertyOp44
 70
     1
102
RTVSPropertyOp45
 70
     1
102
RTVSPropertyOp46
 70
     1
102
RTVSPropertyOp47
 70
     1
102
RTVSPropertyOp48
 70
     1
102
RTVSPropertyOp49
 70
     1
102
RTVSPropertyOp50
 70
     1
102
RTVSPropertyOp51
 70
     0
102
RTVSPropertyOp52
 70
     0
102
RTVSPropertyOp53
 70
     1
102
RTVSPropertyOp54
 70
     1
102
RTVSPropertyOp55
 70
     1
102
RTVSPropertyOp56
 70
     1
102
RTVSPropertyOp57
 70
     1
102
RTVSPost2010Prop28
280
     0
102
RTVSPost2010PropOp28
 70
     1
102
RTVSPost2010Prop29
280
     1
102
RTVSPost2010PropOp29
 70
     1
102
RTVSPost2010Prop30
280
     1
102
RTVSPost2010PropOp30
 70
     1
102
RTVSPost2010Prop31
280
     0
102
RTVSPost2010PropOp31
 70
     1
102
RTVSPost2010Prop32
280
     0
102
RTVSPost2010PropOp32
 70
     1
102
RTVSPost2010Prop33
280
     0
102
RTVSPost2010PropOp33
 70
     1
102
RTVSPost2010Prop34
280
     0
102
RTVSPost2010PropOp34
 70
     1
102
RTVSPost2010Prop35
280
     0
102
RTVSPost2010PropOp35
 70
     1
102
RTVSPost2010Prop36
280
     0
102
RTVSPost2010PropOp36
 70
     1
102
RTVSPost2010Prop37
 90
       50
102
RTVSPost2010PropOp37
 70
     1
102
RTVSPost2010Prop38
140
0.0
102
RTVSPost2010PropOp38
 70
     1
102
RTVSPost2010Prop39
140
1.0
102
RTVSPost2010PropOp39
 70
     1
102
RTVSPost2010Prop40
 90
        0
102
RTVSPost2010PropOp40
 70
     1
102
RTVSPost2010Prop41ColorIndex
 90
       18
102
RTVSPost2010Prop41ColorRGB
 90
        0
102
RTVSPost2010PropOp41
 70
     1
102
RTVSPost2010Prop42
 90
       50
102
RTVSPost2010PropOp42
 70
     1
102
RTVSPost2010Prop43
 90
        3
102
RTVSPost2010PropOp43
 70
     1
102
RTVSPost2010Prop44ColorIndex
 90
        5
102
RTVSPost2010Prop44ColorRGB
 90
      255
102
RTVSPost2010PropOp44
 70
     1
102
RTVSPost2010Prop45
280
     0
102
RTVSPost2010PropOp45
 70
     1
102
RTVSPost2010Prop46
 90
       50
102
RTVSPost2010PropOp46
 70
     1
102
RTVSPost2010Prop47
 90
       50
102
RTVSPost2010PropOp47
 70
     1
102
RTVSPost2010Prop48
 90
       50
102
RTVSPost2010PropOp48
 70
     1
102
RTVSPost2010Prop49
280
     0
102
RTVSPost2010PropOp49
 70
     1
102
RTVSPost2010Prop50
 90
       50
102
RTVSPost2010PropOp50
 70
     1
102
RTVSPost2010Prop51ColorIndex
 90
      256
102
RTVSPost2010Prop51ColorRGB
 90
-16777216
102
RTVSPost2010PropOp51
 70
     0
102
RTVSPost2010Prop52
140
1.0
102
RTVSPost2010PropOp52
 70
     0
102
RTVSPost2010Prop53
 90
        2
102
RTVSPost2010PropOp53
 70
     1
102
RTVSPost2010Prop54
  1
strokes_ogs.tif
102
RTVSPost2010PropOp54
 70
     1
102
RTVSPost2010Prop55
280
     0
102
RTVSPost2010PropOp55
 70
     1
102
RTVSPost2010Prop56
140
1.0
102
RTVSPost2010PropOp56
 70
     1
102
RTVSPost2010Prop57
140
1.0
102
RTVSPost2010PropOp57
 70
     1
  0
XRECORD
  5
18B
102
{ACAD_REACTORS
330
18A
102
}
330
18A
100
AcDbXrecord
280
     1
102
RTVSPropertyOp0
 70
     1
102
RTVSPropertyOp1
 70
     1
102
RTVSPropertyOp2
 70
     1
102
RTVSPropertyOp3
 70
     1
102
RTVSPropertyOp4
 70
     1
102
RTVSPropertyOp5
 70
     1
102
RTVSPropertyOp6
 70
     1
102
RTVSPropertyOp7
 70
     1
102
RTVSPropertyOp8
 70
     1
102
RTVSPropertyOp9
 70
     1
102
RTVSPropertyOp10
 70
     1
102
RTVSPropertyOp11
 70
     1
102
RTVSPropertyOp12
 70
     1
102
RTVSPropertyOp13
 70
     1
102
RTVSPropertyOp14
 70
     1
102
RTVSPropertyOp15
 70
     1
102
RTVSPropertyOp16
 70
     1
102
RTVSPropertyOp17
 70
     1
102
RTVSPropertyOp18
 70
     1
102
RTVSPropertyOp19
 70
     1
102
RTVSPropertyOp20
 70
     1
102
RTVSPropertyOp21
 70
     1
102
RTVSPropertyOp22
 70
     1
102
RTVSPropertyOp23
 70
     1
102
RTVSPropertyOp24
 70
     1
102
RTVSPropertyOp25
 70
     1
102
RTVSPropertyOp26
 70
     1
102
RTVSPropertyOp27
 70
     1
102
RTVSPropertyOp28
 70
     1
102
RTVSPropertyOp29
 70
     1
102
RTVSPropertyOp30
 70
     1
102
RTVSPropertyOp31
 70
     1
102
RTVSPropertyOp32
 70
     1
102
RTVSPropertyOp33
 70
     1
102
RTVSPropertyOp34
 70
     1
102
RTVSPropertyOp35
 70
     1
102
RTVSPropertyOp36
 70
     1
102
RTVSPropertyOp37
 70
     1
102
RTVSPropertyOp38
 70
     1
102
RTVSPropertyOp39
 70
     1
102
RTVSPropertyOp40
 70
     1
102
RTVSPropertyOp41
 70
     1
102
RTVSPropertyOp42
 70
     1
102
RTVSPropertyOp43
 70
     1
102
RTVSPropertyOp44
 70
     1
102
RTVSPropertyOp45
 70
     1
102
RTVSPropertyOp46
 70
     1
102
RTVSPropertyOp47
 70
     1
102
RTVSPropertyOp48
 70
     1
102
RTVSPropertyOp49
 70
     1
102
RTVSPropertyOp50
 70
     1
102
RTVSPropertyOp51
 70
     0
102
RTVSPropertyOp52
 70
     0
102
RTVSPropertyOp53
 70
     1
102
RTVSPropertyOp54
 70
     1
102
RTVSPropertyOp55
 70
     1
102
RTVSPropertyOp56
 70
     1
102
RTVSPropertyOp57
 70
     1
102
RTVSPost2010Prop28
280
     0
102
RTVSPost2010PropOp28
 70
     1
102
RTVSPost2010Prop29
280
     1
102
RTVSPost2010PropOp29
 70
     1
102
RTVSPost2010Prop30
280
     1
102
RTVSPost2010PropOp30
 70
     1
102
RTVSPost2010Prop31
280
     0
102
RTVSPost2010PropOp31
 70
     1
102
RTVSPost2010Prop32
280
     0
102
RTVSPost2010PropOp32
 70
     1
102
RTVSPost2010Prop33
280
     0
102
RTVSPost2010PropOp33
 70
     1
102
RTVSPost2010Prop34
280
     0
102
RTVSPost2010PropOp34
 70
     1
102
RTVSPost2010Prop35
280
     0
102
RTVSPost2010PropOp35
 70
     1
102
RTVSPost2010Prop36
280
     0
102
RTVSPost2010PropOp36
 70
     1
102
RTVSPost2010Prop37
 90
       50
102
RTVSPost2010PropOp37
 70
     1
102
RTVSPost2010Prop38
140
0.0
102
RTVSPost2010PropOp38
 70
     1
102
RTVSPost2010Prop39
140
1.0
102
RTVSPost2010PropOp39
 70
     1
102
RTVSPost2010Prop40
 90
        0
102
RTVSPost2010PropOp40
 70
     1
102
RTVSPost2010Prop41ColorIndex
 90
       18
102
RTVSPost2010Prop41ColorRGB
 90
        0
102
RTVSPost2010PropOp41
 70
     1
102
RTVSPost2010Prop42
 90
       50
102
RTVSPost2010PropOp42
 70
     1
102
RTVSPost2010Prop43
 90
        3
102
RTVSPost2010PropOp43
 70
     1
102
RTVSPost2010Prop44ColorIndex
 90
        5
102
RTVSPost2010Prop44ColorRGB
 90
      255
102
RTVSPost2010PropOp44
 70
     1
102
RTVSPost2010Prop45
280
     0
102
RTVSPost2010PropOp45
 70
     1
102
RTVSPost2010Prop46
 90
       50
102
RTVSPost2010PropOp46
 70
     1
102
RTVSPost2010Prop47
 90
       50
102
RTVSPost2010PropOp47
 70
     1
102
RTVSPost2010Prop48
 90
       50
102
RTVSPost2010PropOp48
 70
     1
102
RTVSPost2010Prop49
280
     0
102
RTVSPost2010PropOp49
 70
     1
102
RTVSPost2010Prop50
 90
       50
102
RTVSPost2010PropOp50
 70
     1
102
RTVSPost2010Prop51ColorIndex
 90
      256
102
RTVSPost2010Prop51ColorRGB
 90
-16777216
102
RTVSPost2010PropOp51
 70
     0
102
RTVSPost2010Prop52
140
1.0
102
RTVSPost2010PropOp52
 70
     0
102
RTVSPost2010Prop53
 90
        2
102
RTVSPost2010PropOp53
 70
     1
102
RTVSPost2010Prop54
  1
strokes_ogs.tif
102
RTVSPost2010PropOp54
 70
     1
102
RTVSPost2010Prop55
280
     0
102
RTVSPost2010PropOp55
 70
     1
102
RTVSPost2010Prop56
140
1.0
102
RTVSPost2010PropOp56
 70
     1
102
RTVSPost2010Prop57
140
1.0
102
RTVSPost2010PropOp57
 70
     1
  0
XRECORD
  5
18D
102
{ACAD_REACTORS
330
18C
102
}
330
18C
100
AcDbXrecord
280
     1
102
RTVSPropertyOp0
 70
     1
102
RTVSPropertyOp1
 70
     1
102
RTVSPropertyOp2
 70
     1
102
RTVSPropertyOp3
 70
     1
102
RTVSPropertyOp4
 70
     1
102
RTVSPropertyOp5
 70
     1
102
RTVSPropertyOp6
 70
     1
102
RTVSPropertyOp7
 70
     1
102
RTVSPropertyOp8
 70
     1
102
RTVSPropertyOp9
 70
     1
102
RTVSPropertyOp10
 70
     1
102
RTVSPropertyOp11
 70
     1
102
RTVSPropertyOp12
 70
     1
102
RTVSPropertyOp13
 70
     1
102
RTVSPropertyOp14
 70
     1
102
RTVSPropertyOp15
 70
     1
102
RTVSPropertyOp16
 70
     1
102
RTVSPropertyOp17
 70
     1
102
RTVSPropertyOp18
 70
     1
102
RTVSPropertyOp19
 70
     1
102
RTVSPropertyOp20
 70
     1
102
RTVSPropertyOp21
 70
     1
102
RTVSPropertyOp22
 70
     1
102
RTVSPropertyOp23
 70
     1
102
RTVSPropertyOp24
 70
     1
102
RTVSPropertyOp25
 70
     1
102
RTVSPropertyOp26
 70
     1
102
RTVSPropertyOp27
 70
     1
102
RTVSPropertyOp28
 70
     1
102
RTVSPropertyOp29
 70
     1
102
RTVSPropertyOp30
 70
     1
102
RTVSPropertyOp31
 70
     1
102
RTVSPropertyOp32
 70
     1
102
RTVSPropertyOp33
 70
     1
102
RTVSPropertyOp34
 70
     1
102
RTVSPropertyOp35
 70
     1
102
RTVSPropertyOp36
 70
     1
102
RTVSPropertyOp37
 70
     1
102
RTVSPropertyOp38
 70
     1
102
RTVSPropertyOp39
 70
     1
102
RTVSPropertyOp40
 70
     1
102
RTVSPropertyOp41
 70
     1
102
RTVSPropertyOp42
 70
     1
102
RTVSPropertyOp43
 70
     1
102
RTVSPropertyOp44
 70
     1
102
RTVSPropertyOp45
 70
     1
102
RTVSPropertyOp46
 70
     1
102
RTVSPropertyOp47
 70
     1
102
RTVSPropertyOp48
 70
     1
102
RTVSPropertyOp49
 70
     1
102
RTVSPropertyOp50
 70
     1
102
RTVSPropertyOp51
 70
     0
102
RTVSPropertyOp52
 70
     0
102
RTVSPropertyOp53
 70
     1
102
RTVSPropertyOp54
 70
     1
102
RTVSPropertyOp55
 70
     1
102
RTVSPropertyOp56
 70
     1
102
RTVSPropertyOp57
 70
     1
102
RTVSPost2010Prop28
280
     0
102
RTVSPost2010PropOp28
 70
     1
102
RTVSPost2010Prop29
280
     1
102
RTVSPost2010PropOp29
 70
     1
102
RTVSPost2010Prop30
280
     1
102
RTVSPost2010PropOp30
 70
     1
102
RTVSPost2010Prop31
280
     0
102
RTVSPost2010PropOp31
 70
     1
102
RTVSPost2010Prop32
280
     0
102
RTVSPost2010PropOp32
 70
     1
102
RTVSPost2010Prop33
280
     0
102
RTVSPost2010PropOp33
 70
     1
102
RTVSPost2010Prop34
280
     0
102
RTVSPost2010PropOp34
 70
     1
102
RTVSPost2010Prop35
280
     0
102
RTVSPost2010PropOp35
 70
     1
102
RTVSPost2010Prop36
280
     0
102
RTVSPost2010PropOp36
 70
     1
102
RTVSPost2010Prop37
 90
       50
102
RTVSPost2010PropOp37
 70
     1
102
RTVSPost2010Prop38
140
0.0
102
RTVSPost2010PropOp38
 70
     1
102
RTVSPost2010Prop39
140
1.0
102
RTVSPost2010PropOp39
 70
     1
102
RTVSPost2010Prop40
 90
        0
102
RTVSPost2010PropOp40
 70
     1
102
RTVSPost2010Prop41ColorIndex
 90
       18
102
RTVSPost2010Prop41ColorRGB
 90
        0
102
RTVSPost2010PropOp41
 70
     1
102
RTVSPost2010Prop42
 90
       50
102
RTVSPost2010PropOp42
 70
     1
102
RTVSPost2010Prop43
 90
        3
102
RTVSPost2010PropOp43
 70
     1
102
RTVSPost2010Prop44ColorIndex
 90
        5
102
RTVSPost2010Prop44ColorRGB
 90
      255
102
RTVSPost2010PropOp44
 70
     1
102
RTVSPost2010Prop45
280
     0
102
RTVSPost2010PropOp45
 70
     1
102
RTVSPost2010Prop46
 90
       50
102
RTVSPost2010PropOp46
 70
     1
102
RTVSPost2010Prop47
 90
       50
102
RTVSPost2010PropOp47
 70
     1
102
RTVSPost2010Prop48
 90
       50
102
RTVSPost2010PropOp48
 70
     1
102
RTVSPost2010Prop49
280
     0
102
RTVSPost2010PropOp49
 70
     1
102
RTVSPost2010Prop50
 90
       50
102
RTVSPost2010PropOp50
 70
     1
102
RTVSPost2010Prop51ColorIndex
 90
      256
102
RTVSPost2010Prop51ColorRGB
 90
-16777216
102
RTVSPost2010PropOp51
 70
     0
102
RTVSPost2010Prop52
140
1.0
102
RTVSPost2010PropOp52
 70
     0
102
RTVSPost2010Prop53
 90
        2
102
RTVSPost2010PropOp53
 70
     1
102
RTVSPost2010Prop54
  1
strokes_ogs.tif
102
RTVSPost2010PropOp54
 70
     1
102
RTVSPost2010Prop55
280
     0
102
RTVSPost2010PropOp55
 70
     1
102
RTVSPost2010Prop56
140
1.0
102
RTVSPost2010PropOp56
 70
     1
102
RTVSPost2010Prop57
140
1.0
102
RTVSPost2010PropOp57
 70
     1
  0
XRECORD
  5
19D
102
{ACAD_REACTORS
330
19C
102
}
330
19C
100
AcDbXrecord
280
     1
102
RTVSPropertyOp0
 70
     0
102
RTVSPropertyOp1
 70
     0
102
RTVSPropertyOp2
 70
     0
102
RTVSPropertyOp3
 70
     0
102
RTVSPropertyOp4
 70
     0
102
RTVSPropertyOp5
 70
     0
102
RTVSPropertyOp6
 70
     0
102
RTVSPropertyOp7
 70
     0
102
RTVSPropertyOp8
 70
     0
102
RTVSPropertyOp9
 70
     0
102
RTVSPropertyOp10
 70
     0
102
RTVSPropertyOp11
 70
     0
102
RTVSPropertyOp12
 70
     0
102
RTVSPropertyOp13
 70
     0
102
RTVSPropertyOp14
 70
     2
102
RTVSPropertyOp15
 70
     0
102
RTVSPropertyOp16
 70
     0
102
RTVSPropertyOp17
 70
     0
102
RTVSPropertyOp18
 70
     0
102
RTVSPropertyOp19
 70
     0
102
RTVSPropertyOp20
 70
     0
102
RTVSPropertyOp21
 70
     0
102
RTVSPropertyOp22
 70
     0
102
RTVSPropertyOp23
 70
     0
102
RTVSPropertyOp24
 70
     0
102
RTVSPropertyOp25
 70
     0
102
RTVSPropertyOp26
 70
     0
102
RTVSPropertyOp27
 70
     0
102
RTVSPropertyOp28
 70
     0
102
RTVSPropertyOp29
 70
     0
102
RTVSPropertyOp30
 70
     0
102
RTVSPropertyOp31
 70
     0
102
RTVSPropertyOp32
 70
     0
102
RTVSPropertyOp33
 70
     0
102
RTVSPropertyOp34
 70
     0
102
RTVSPropertyOp35
 70
     0
102
RTVSPropertyOp36
 70
     0
102
RTVSPropertyOp37
 70
     0
102
RTVSPropertyOp38
 70
     0
102
RTVSPropertyOp39
 70
     0
102
RTVSPropertyOp40
 70
     0
102
RTVSPropertyOp41
 70
     0
102
RTVSPropertyOp42
 70
     0
102
RTVSPropertyOp43
 70
     0
102
RTVSPropertyOp44
 70
     0
102
RTVSPropertyOp45
 70
     0
102
RTVSPropertyOp46
 70
     0
102
RTVSPropertyOp47
 70
     0
102
RTVSPropertyOp48
 70
     0
102
RTVSPropertyOp49
 70
     0
102
RTVSPropertyOp50
 70
     0
102
RTVSPropertyOp51
 70
     0
102
RTVSPropertyOp52
 70
     0
102
RTVSPropertyOp53
 70
     0
102
RTVSPropertyOp54
 70
     0
102
RTVSPropertyOp55
 70
     0
102
RTVSPropertyOp56
 70
     0
102
RTVSPropertyOp57
 70
     0
102
RTVSPost2010Prop28
280
     0
102
RTVSPost2010PropOp28
 70
     0
102
RTVSPost2010Prop29
280
     1
102
RTVSPost2010PropOp29
 70
     0
102
RTVSPost2010Prop30
280
     1
102
RTVSPost2010PropOp30
 70
     0
102
RTVSPost2010Prop31
280
     0
102
RTVSPost2010PropOp31
 70
     0
102
RTVSPost2010Prop32
280
     0
102
RTVSPost2010PropOp32
 70
     0
102
RTVSPost2010Prop33
280
     0
102
RTVSPost2010PropOp33
 70
     0
102
RTVSPost2010Prop34
280
     0
102
RTVSPost2010PropOp34
 70
     0
102
RTVSPost2010Prop35
280
     0
102
RTVSPost2010PropOp35
 70
     0
102
RTVSPost2010Prop36
280
     0
102
RTVSPost2010PropOp36
 70
     0
102
RTVSPost2010Prop37
 90
       50
102
RTVSPost2010PropOp37
 70
     0
102
RTVSPost2010Prop38
140
0.0
102
RTVSPost2010PropOp38
 70
     0
102
RTVSPost2010Prop39
140
1.0
102
RTVSPost2010PropOp39
 70
     0
102
RTVSPost2010Prop40
 90
        0
102
RTVSPost2010PropOp40
 70
     0
102
RTVSPost2010Prop41ColorIndex
 90
       18
102
RTVSPost2010Prop41ColorRGB
 90
        0
102
RTVSPost2010PropOp41
 70
     0
102
RTVSPost2010Prop42
 90
       50
102
RTVSPost2010PropOp42
 70
     0
102
RTVSPost2010Prop43
 90
        3
102
RTVSPost2010PropOp43
 70
     0
102
RTVSPost2010Prop44ColorIndex
 90
        5
102
RTVSPost2010Prop44ColorRGB
 90
      255
102
RTVSPost2010PropOp44
 70
     0
102
RTVSPost2010Prop45
280
     0
102
RTVSPost2010PropOp45
 70
     0
102
RTVSPost2010Prop46
 90
       50
102
RTVSPost2010PropOp46
 70
     0
102
RTVSPost2010Prop47
 90
       50
102
RTVSPost2010PropOp47
 70
     0
102
RTVSPost2010Prop48
 90
       50
102
RTVSPost2010PropOp48
 70
     0
102
RTVSPost2010Prop49
280
     0
102
RTVSPost2010PropOp49
 70
     0
102
RTVSPost2010Prop50
 90
       50
102
RTVSPost2010PropOp50
 70
     0
102
RTVSPost2010Prop51ColorIndex
 90
      256
102
RTVSPost2010Prop51ColorRGB
 90
-16777216
102
RTVSPost2010PropOp51
 70
     0
102
RTVSPost2010Prop52
140
1.0
102
RTVSPost2010PropOp52
 70
     0
102
RTVSPost2010Prop53
 90
        2
102
RTVSPost2010PropOp53
 70
     0
102
RTVSPost2010Prop54
  1
strokes_ogs.tif
102
RTVSPost2010PropOp54
 70
     0
102
RTVSPost2010Prop55
280
     0
102
RTVSPost2010PropOp55
 70
     0
102
RTVSPost2010Prop56
140
1.0
102
RTVSPost2010PropOp56
 70
     0
102
RTVSPost2010Prop57
140
1.0
102
RTVSPost2010PropOp57
 70
     0
  0
XRECORD
  5
195
102
{ACAD_REACTORS
330
194
102
}
330
194
100
AcDbXrecord
280
     1
102
RTVSPropertyOp0
 70
     1
102
RTVSPropertyOp1
 70
     1
102
RTVSPropertyOp2
 70
     1
102
RTVSPropertyOp3
 70
     1
102
RTVSPropertyOp4
 70
     1
102
RTVSPropertyOp5
 70
     1
102
RTVSPropertyOp6
 70
     1
102
RTVSPropertyOp7
 70
     1
102
RTVSPropertyOp8
 70
     1
102
RTVSPropertyOp9
 70
     1
102
RTVSPropertyOp10
 70
     1
102
RTVSPropertyOp11
 70
     1
102
RTVSPropertyOp12
 70
     1
102
RTVSPropertyOp13
 70
     1
102
RTVSPropertyOp14
 70
     1
102
RTVSPropertyOp15
 70
     1
102
RTVSPropertyOp16
 70
     1
102
RTVSPropertyOp17
 70
     1
102
RTVSPropertyOp18
 70
     1
102
RTVSPropertyOp19
 70
     1
102
RTVSPropertyOp20
 70
     1
102
RTVSPropertyOp21
 70
     1
102
RTVSPropertyOp22
 70
     1
102
RTVSPropertyOp23
 70
     1
102
RTVSPropertyOp24
 70
     1
102
RTVSPropertyOp25
 70
     1
102
RTVSPropertyOp26
 70
     1
102
RTVSPropertyOp27
 70
     1
102
RTVSPropertyOp28
 70
     1
102
RTVSPropertyOp29
 70
     1
102
RTVSPropertyOp30
 70
     1
102
RTVSPropertyOp31
 70
     1
102
RTVSPropertyOp32
 70
     1
102
RTVSPropertyOp33
 70
     1
102
RTVSPropertyOp34
 70
     1
102
RTVSPropertyOp35
 70
     1
102
RTVSPropertyOp36
 70
     1
102
RTVSPropertyOp37
 70
     1
102
RTVSPropertyOp38
 70
     1
102
RTVSPropertyOp39
 70
     1
102
RTVSPropertyOp40
 70
     1
102
RTVSPropertyOp41
 70
     1
102
RTVSPropertyOp42
 70
     1
102
RTVSPropertyOp43
 70
     1
102
RTVSPropertyOp44
 70
     1
102
RTVSPropertyOp45
 70
     1
102
RTVSPropertyOp46
 70
     1
102
RTVSPropertyOp47
 70
     1
102
RTVSPropertyOp48
 70
     1
102
RTVSPropertyOp49
 70
     1
102
RTVSPropertyOp50
 70
     1
102
RTVSPropertyOp51
 70
     0
102
RTVSPropertyOp52
 70
     0
102
RTVSPropertyOp53
 70
     1
102
RTVSPropertyOp54
 70
     1
102
RTVSPropertyOp55
 70
     1
102
RTVSPropertyOp56
 70
     1
102
RTVSPropertyOp57
 70
     1
102
RTVSPost2010Prop28
280
     0
102
RTVSPost2010PropOp28
 70
     1
102
RTVSPost2010Prop29
280
     1
102
RTVSPost2010PropOp29
 70
     1
102
RTVSPost2010Prop30
280
     1
102
RTVSPost2010PropOp30
 70
     1
102
RTVSPost2010Prop31
280
     0
102
RTVSPost2010PropOp31
 70
     1
102
RTVSPost2010Prop32
280
     0
102
RTVSPost2010PropOp32
 70
     1
102
RTVSPost2010Prop33
280
     0
102
RTVSPost2010PropOp33
 70
     1
102
RTVSPost2010Prop34
280
     0
102
RTVSPost2010PropOp34
 70
     1
102
RTVSPost2010Prop35
280
     0
102
RTVSPost2010PropOp35
 70
     1
102
RTVSPost2010Prop36
280
     0
102
RTVSPost2010PropOp36
 70
     1
102
RTVSPost2010Prop37
 90
       50
102
RTVSPost2010PropOp37
 70
     1
102
RTVSPost2010Prop38
140
0.0
102
RTVSPost2010PropOp38
 70
     1
102
RTVSPost2010Prop39
140
1.0
102
RTVSPost2010PropOp39
 70
     1
102
RTVSPost2010Prop40
 90
        0
102
RTVSPost2010PropOp40
 70
     1
102
RTVSPost2010Prop41ColorIndex
 90
       18
102
RTVSPost2010Prop41ColorRGB
 90
        0
102
RTVSPost2010PropOp41
 70
     1
102
RTVSPost2010Prop42
 90
       50
102
RTVSPost2010PropOp42
 70
     1
102
RTVSPost2010Prop43
 90
        3
102
RTVSPost2010PropOp43
 70
     1
102
RTVSPost2010Prop44ColorIndex
 90
        5
102
RTVSPost2010Prop44ColorRGB
 90
      255
102
RTVSPost2010PropOp44
 70
     1
102
RTVSPost2010Prop45
280
     0
102
RTVSPost2010PropOp45
 70
     1
102
RTVSPost2010Prop46
 90
       50
102
RTVSPost2010PropOp46
 70
     1
102
RTVSPost2010Prop47
 90
       50
102
RTVSPost2010PropOp47
 70
     1
102
RTVSPost2010Prop48
 90
       50
102
RTVSPost2010PropOp48
 70
     1
102
RTVSPost2010Prop49
280
     0
102
RTVSPost2010PropOp49
 70
     1
102
RTVSPost2010Prop50
 90
       50
102
RTVSPost2010PropOp50
 70
     1
102
RTVSPost2010Prop51ColorIndex
 90
      256
102
RTVSPost2010Prop51ColorRGB
 90
-16777216
102
RTVSPost2010PropOp51
 70
     0
102
RTVSPost2010Prop52
140
1.0
102
RTVSPost2010PropOp52
 70
     0
102
RTVSPost2010Prop53
 90
        2
102
RTVSPost2010PropOp53
 70
     1
102
RTVSPost2010Prop54
  1
strokes_ogs.tif
102
RTVSPost2010PropOp54
 70
     1
102
RTVSPost2010Prop55
280
     0
102
RTVSPost2010PropOp55
 70
     1
102
RTVSPost2010Prop56
140
1.0
102
RTVSPost2010PropOp56
 70
     1
102
RTVSPost2010Prop57
140
1.0
102
RTVSPost2010PropOp57
 70
     1
  0
XRECORD
  5
179
102
{ACAD_REACTORS
330
178
102
}
330
178
100
AcDbXrecord
280
     1
102
RTVSPropertyOp0
 70
     1
102
RTVSPropertyOp1
 70
     1
102
RTVSPropertyOp2
 70
     1
102
RTVSPropertyOp3
 70
     1
102
RTVSPropertyOp4
 70
     1
102
RTVSPropertyOp5
 70
     1
102
RTVSPropertyOp6
 70
     1
102
RTVSPropertyOp7
 70
     1
102
RTVSPropertyOp8
 70
     1
102
RTVSPropertyOp9
 70
     1
102
RTVSPropertyOp10
 70
     1
102
RTVSPropertyOp11
 70
     1
102
RTVSPropertyOp12
 70
     1
102
RTVSPropertyOp13
 70
     1
102
RTVSPropertyOp14
 70
     1
102
RTVSPropertyOp15
 70
     1
102
RTVSPropertyOp16
 70
     1
102
RTVSPropertyOp17
 70
     1
102
RTVSPropertyOp18
 70
     1
102
RTVSPropertyOp19
 70
     1
102
RTVSPropertyOp20
 70
     1
102
RTVSPropertyOp21
 70
     1
102
RTVSPropertyOp22
 70
     1
102
RTVSPropertyOp23
 70
     1
102
RTVSPropertyOp24
 70
     1
102
RTVSPropertyOp25
 70
     1
102
RTVSPropertyOp26
 70
     1
102
RTVSPropertyOp27
 70
     1
102
RTVSPropertyOp28
 70
     1
102
RTVSPropertyOp29
 70
     1
102
RTVSPropertyOp30
 70
     1
102
RTVSPropertyOp31
 70
     1
102
RTVSPropertyOp32
 70
     1
102
RTVSPropertyOp33
 70
     1
102
RTVSPropertyOp34
 70
     1
102
RTVSPropertyOp35
 70
     1
102
RTVSPropertyOp36
 70
     1
102
RTVSPropertyOp37
 70
     1
102
RTVSPropertyOp38
 70
     1
102
RTVSPropertyOp39
 70
     1
102
RTVSPropertyOp40
 70
     1
102
RTVSPropertyOp41
 70
     1
102
RTVSPropertyOp42
 70
     1
102
RTVSPropertyOp43
 70
     1
102
RTVSPropertyOp44
 70
     1
102
RTVSPropertyOp45
 70
     1
102
RTVSPropertyOp46
 70
     1
102
RTVSPropertyOp47
 70
     1
102
RTVSPropertyOp48
 70
     1
102
RTVSPropertyOp49
 70
     1
102
RTVSPropertyOp50
 70
     1
102
RTVSPropertyOp51
 70
     0
102
RTVSPropertyOp52
 70
     0
102
RTVSPropertyOp53
 70
     1
102
RTVSPropertyOp54
 70
     1
102
RTVSPropertyOp55
 70
     1
102
RTVSPropertyOp56
 70
     1
102
RTVSPropertyOp57
 70
     1
102
RTVSPost2010Prop28
280
     0
102
RTVSPost2010PropOp28
 70
     1
102
RTVSPost2010Prop29
280
     1
102
RTVSPost2010PropOp29
 70
     1
102
RTVSPost2010Prop30
280
     1
102
RTVSPost2010PropOp30
 70
     1
102
RTVSPost2010Prop31
280
     0
102
RTVSPost2010PropOp31
 70
     1
102
RTVSPost2010Prop32
280
     0
102
RTVSPost2010PropOp32
 70
     1
102
RTVSPost2010Prop33
280
     0
102
RTVSPost2010PropOp33
 70
     1
102
RTVSPost2010Prop34
280
     0
102
RTVSPost2010PropOp34
 70
     1
102
RTVSPost2010Prop35
280
     0
102
RTVSPost2010PropOp35
 70
     1
102
RTVSPost2010Prop36
280
     0
102
RTVSPost2010PropOp36
 70
     1
102
RTVSPost2010Prop37
 90
       50
102
RTVSPost2010PropOp37
 70
     1
102
RTVSPost2010Prop38
140
0.0
102
RTVSPost2010PropOp38
 70
     1
102
RTVSPost2010Prop39
140
1.0
102
RTVSPost2010PropOp39
 70
     1
102
RTVSPost2010Prop40
 90
        0
102
RTVSPost2010PropOp40
 70
     1
102
RTVSPost2010Prop41ColorIndex
 90
       18
102
RTVSPost2010Prop41ColorRGB
 90
        0
102
RTVSPost2010PropOp41
 70
     1
102
RTVSPost2010Prop42
 90
       50
102
RTVSPost2010PropOp42
 70
     1
102
RTVSPost2010Prop43
 90
        3
102
RTVSPost2010PropOp43
 70
     1
102
RTVSPost2010Prop44ColorIndex
 90
        5
102
RTVSPost2010Prop44ColorRGB
 90
      255
102
RTVSPost2010PropOp44
 70
     1
102
RTVSPost2010Prop45
280
     0
102
RTVSPost2010PropOp45
 70
     1
102
RTVSPost2010Prop46
 90
       50
102
RTVSPost2010PropOp46
 70
     1
102
RTVSPost2010Prop47
 90
       50
102
RTVSPost2010PropOp47
 70
     1
102
RTVSPost2010Prop48
 90
       50
102
RTVSPost2010PropOp48
 70
     1
102
RTVSPost2010Prop49
280
     0
102
RTVSPost2010PropOp49
 70
     1
102
RTVSPost2010Prop50
 90
       50
102
RTVSPost2010PropOp50
 70
     1
102
RTVSPost2010Prop51ColorIndex
 90
      256
102
RTVSPost2010Prop51ColorRGB
 90
-16777216
102
RTVSPost2010PropOp51
 70
     0
102
RTVSPost2010Prop52
140
1.0
102
RTVSPost2010PropOp52
 70
     0
102
RTVSPost2010Prop53
 90
        2
102
RTVSPost2010PropOp53
 70
     1
102
RTVSPost2010Prop54
  1
strokes_ogs.tif
102
RTVSPost2010PropOp54
 70
     1
102
RTVSPost2010Prop55
280
     0
102
RTVSPost2010PropOp55
 70
     1
102
RTVSPost2010Prop56
140
1.0
102
RTVSPost2010PropOp56
 70
     1
102
RTVSPost2010Prop57
140
1.0
102
RTVSPost2010PropOp57
 70
     1
  0
XRECORD
  5
17B
102
{ACAD_REACTORS
330
17A
102
}
330
17A
100
AcDbXrecord
280
     1
102
RTVSPropertyOp0
 70
     1
102
RTVSPropertyOp1
 70
     1
102
RTVSPropertyOp2
 70
     1
102
RTVSPropertyOp3
 70
     1
102
RTVSPropertyOp4
 70
     1
102
RTVSPropertyOp5
 70
     1
102
RTVSPropertyOp6
 70
     1
102
RTVSPropertyOp7
 70
     1
102
RTVSPropertyOp8
 70
     1
102
RTVSPropertyOp9
 70
     1
102
RTVSPropertyOp10
 70
     1
102
RTVSPropertyOp11
 70
     1
102
RTVSPropertyOp12
 70
     1
102
RTVSPropertyOp13
 70
     1
102
RTVSPropertyOp14
 70
     1
102
RTVSPropertyOp15
 70
     1
102
RTVSPropertyOp16
 70
     1
102
RTVSPropertyOp17
 70
     1
102
RTVSPropertyOp18
 70
     1
102
RTVSPropertyOp19
 70
     1
102
RTVSPropertyOp20
 70
     1
102
RTVSPropertyOp21
 70
     1
102
RTVSPropertyOp22
 70
     1
102
RTVSPropertyOp23
 70
     1
102
RTVSPropertyOp24
 70
     1
102
RTVSPropertyOp25
 70
     1
102
RTVSPropertyOp26
 70
     1
102
RTVSPropertyOp27
 70
     1
102
RTVSPropertyOp28
 70
     1
102
RTVSPropertyOp29
 70
     1
102
RTVSPropertyOp30
 70
     1
102
RTVSPropertyOp31
 70
     1
102
RTVSPropertyOp32
 70
     1
102
RTVSPropertyOp33
 70
     1
102
RTVSPropertyOp34
 70
     1
102
RTVSPropertyOp35
 70
     1
102
RTVSPropertyOp36
 70
     1
102
RTVSPropertyOp37
 70
     1
102
RTVSPropertyOp38
 70
     1
102
RTVSPropertyOp39
 70
     1
102
RTVSPropertyOp40
 70
     1
102
RTVSPropertyOp41
 70
     1
102
RTVSPropertyOp42
 70
     1
102
RTVSPropertyOp43
 70
     1
102
RTVSPropertyOp44
 70
     1
102
RTVSPropertyOp45
 70
     1
102
RTVSPropertyOp46
 70
     1
102
RTVSPropertyOp47
 70
     1
102
RTVSPropertyOp48
 70
     1
102
RTVSPropertyOp49
 70
     1
102
RTVSPropertyOp50
 70
     1
102
RTVSPropertyOp51
 70
     0
102
RTVSPropertyOp52
 70
     0
102
RTVSPropertyOp53
 70
     1
102
RTVSPropertyOp54
 70
     1
102
RTVSPropertyOp55
 70
     1
102
RTVSPropertyOp56
 70
     1
102
RTVSPropertyOp57
 70
     1
102
RTVSPost2010Prop28
280
     0
102
RTVSPost2010PropOp28
 70
     1
102
RTVSPost2010Prop29
280
     1
102
RTVSPost2010PropOp29
 70
     1
102
RTVSPost2010Prop30
280
     1
102
RTVSPost2010PropOp30
 70
     1
102
RTVSPost2010Prop31
280
     0
102
RTVSPost2010PropOp31
 70
     1
102
RTVSPost2010Prop32
280
     0
102
RTVSPost2010PropOp32
 70
     1
102
RTVSPost2010Prop33
280
     0
102
RTVSPost2010PropOp33
 70
     1
102
RTVSPost2010Prop34
280
     0
102
RTVSPost2010PropOp34
 70
     1
102
RTVSPost2010Prop35
280
     0
102
RTVSPost2010PropOp35
 70
     1
102
RTVSPost2010Prop36
280
     0
102
RTVSPost2010PropOp36
 70
     1
102
RTVSPost2010Prop37
 90
       50
102
RTVSPost2010PropOp37
 70
     1
102
RTVSPost2010Prop38
140
0.0
102
RTVSPost2010PropOp38
 70
     1
102
RTVSPost2010Prop39
140
1.0
102
RTVSPost2010PropOp39
 70
     1
102
RTVSPost2010Prop40
 90
        0
102
RTVSPost2010PropOp40
 70
     1
102
RTVSPost2010Prop41ColorIndex
 90
       18
102
RTVSPost2010Prop41ColorRGB
 90
        0
102
RTVSPost2010PropOp41
 70
     1
102
RTVSPost2010Prop42
 90
       50
102
RTVSPost2010PropOp42
 70
     1
102
RTVSPost2010Prop43
 90
        3
102
RTVSPost2010PropOp43
 70
     1
102
RTVSPost2010Prop44ColorIndex
 90
        5
102
RTVSPost2010Prop44ColorRGB
 90
      255
102
RTVSPost2010PropOp44
 70
     1
102
RTVSPost2010Prop45
280
     0
102
RTVSPost2010PropOp45
 70
     1
102
RTVSPost2010Prop46
 90
       50
102
RTVSPost2010PropOp46
 70
     1
102
RTVSPost2010Prop47
 90
       50
102
RTVSPost2010PropOp47
 70
     1
102
RTVSPost2010Prop48
 90
       50
102
RTVSPost2010PropOp48
 70
     1
102
RTVSPost2010Prop49
280
     0
102
RTVSPost2010PropOp49
 70
     1
102
RTVSPost2010Prop50
 90
       50
102
RTVSPost2010PropOp50
 70
     1
102
RTVSPost2010Prop51ColorIndex
 90
      256
102
RTVSPost2010Prop51ColorRGB
 90
-16777216
102
RTVSPost2010PropOp51
 70
     0
102
RTVSPost2010Prop52
140
1.0
102
RTVSPost2010PropOp52
 70
     0
102
RTVSPost2010Prop53
 90
        2
102
RTVSPost2010PropOp53
 70
     1
102
RTVSPost2010Prop54
  1
strokes_ogs.tif
102
RTVSPost2010PropOp54
 70
     1
102
RTVSPost2010Prop55
280
     0
102
RTVSPost2010PropOp55
 70
     1
102
RTVSPost2010Prop56
140
1.0
102
RTVSPost2010PropOp56
 70
     1
102
RTVSPost2010Prop57
140
1.0
102
RTVSPost2010PropOp57
 70
     1
  0
XRECORD
  5
17D
102
{ACAD_REACTORS
330
17C
102
}
330
17C
100
AcDbXrecord
280
     1
102
RTVSPropertyOp0
 70
     1
102
RTVSPropertyOp1
 70
     1
102
RTVSPropertyOp2
 70
     1
102
RTVSPropertyOp3
 70
     1
102
RTVSPropertyOp4
 70
     1
102
RTVSPropertyOp5
 70
     1
102
RTVSPropertyOp6
 70
     1
102
RTVSPropertyOp7
 70
     1
102
RTVSPropertyOp8
 70
     1
102
RTVSPropertyOp9
 70
     1
102
RTVSPropertyOp10
 70
     1
102
RTVSPropertyOp11
 70
     1
102
RTVSPropertyOp12
 70
     1
102
RTVSPropertyOp13
 70
     1
102
RTVSPropertyOp14
 70
     1
102
RTVSPropertyOp15
 70
     1
102
RTVSPropertyOp16
 70
     1
102
RTVSPropertyOp17
 70
     1
102
RTVSPropertyOp18
 70
     1
102
RTVSPropertyOp19
 70
     1
102
RTVSPropertyOp20
 70
     1
102
RTVSPropertyOp21
 70
     1
102
RTVSPropertyOp22
 70
     1
102
RTVSPropertyOp23
 70
     1
102
RTVSPropertyOp24
 70
     1
102
RTVSPropertyOp25
 70
     1
102
RTVSPropertyOp26
 70
     1
102
RTVSPropertyOp27
 70
     1
102
RTVSPropertyOp28
 70
     1
102
RTVSPropertyOp29
 70
     1
102
RTVSPropertyOp30
 70
     1
102
RTVSPropertyOp31
 70
     1
102
RTVSPropertyOp32
 70
     1
102
RTVSPropertyOp33
 70
     1
102
RTVSPropertyOp34
 70
     1
102
RTVSPropertyOp35
 70
     1
102
RTVSPropertyOp36
 70
     1
102
RTVSPropertyOp37
 70
     1
102
RTVSPropertyOp38
 70
     1
102
RTVSPropertyOp39
 70
     1
102
RTVSPropertyOp40
 70
     1
102
RTVSPropertyOp41
 70
     1
102
RTVSPropertyOp42
 70
     1
102
RTVSPropertyOp43
 70
     1
102
RTVSPropertyOp44
 70
     1
102
RTVSPropertyOp45
 70
     1
102
RTVSPropertyOp46
 70
     1
102
RTVSPropertyOp47
 70
     1
102
RTVSPropertyOp48
 70
     1
102
RTVSPropertyOp49
 70
     1
102
RTVSPropertyOp50
 70
     1
102
RTVSPropertyOp51
 70
     0
102
RTVSPropertyOp52
 70
     0
102
RTVSPropertyOp53
 70
     1
102
RTVSPropertyOp54
 70
     1
102
RTVSPropertyOp55
 70
     1
102
RTVSPropertyOp56
 70
     1
102
RTVSPropertyOp57
 70
     1
102
RTVSPost2010Prop28
280
     0
102
RTVSPost2010PropOp28
 70
     1
102
RTVSPost2010Prop29
280
     1
102
RTVSPost2010PropOp29
 70
     1
102
RTVSPost2010Prop30
280
     1
102
RTVSPost2010PropOp30
 70
     1
102
RTVSPost2010Prop31
280
     0
102
RTVSPost2010PropOp31
 70
     1
102
RTVSPost2010Prop32
280
     0
102
RTVSPost2010PropOp32
 70
     1
102
RTVSPost2010Prop33
280
     0
102
RTVSPost2010PropOp33
 70
     1
102
RTVSPost2010Prop34
280
     0
102
RTVSPost2010PropOp34
 70
     1
102
RTVSPost2010Prop35
280
     0
102
RTVSPost2010PropOp35
 70
     1
102
RTVSPost2010Prop36
280
     0
102
RTVSPost2010PropOp36
 70
     1
102
RTVSPost2010Prop37
 90
       50
102
RTVSPost2010PropOp37
 70
     1
102
RTVSPost2010Prop38
140
0.0
102
RTVSPost2010PropOp38
 70
     1
102
RTVSPost2010Prop39
140
1.0
102
RTVSPost2010PropOp39
 70
     1
102
RTVSPost2010Prop40
 90
        0
102
RTVSPost2010PropOp40
 70
     1
102
RTVSPost2010Prop41ColorIndex
 90
       18
102
RTVSPost2010Prop41ColorRGB
 90
        0
102
RTVSPost2010PropOp41
 70
     1
102
RTVSPost2010Prop42
 90
       50
102
RTVSPost2010PropOp42
 70
     1
102
RTVSPost2010Prop43
 90
        3
102
RTVSPost2010PropOp43
 70
     1
102
RTVSPost2010Prop44ColorIndex
 90
        5
102
RTVSPost2010Prop44ColorRGB
 90
      255
102
RTVSPost2010PropOp44
 70
     1
102
RTVSPost2010Prop45
280
     0
102
RTVSPost2010PropOp45
 70
     1
102
RTVSPost2010Prop46
 90
       50
102
RTVSPost2010PropOp46
 70
     1
102
RTVSPost2010Prop47
 90
       50
102
RTVSPost2010PropOp47
 70
     1
102
RTVSPost2010Prop48
 90
       50
102
RTVSPost2010PropOp48
 70
     1
102
RTVSPost2010Prop49
280
     0
102
RTVSPost2010PropOp49
 70
     1
102
RTVSPost2010Prop50
 90
       50
102
RTVSPost2010PropOp50
 70
     1
102
RTVSPost2010Prop51ColorIndex
 90
      256
102
RTVSPost2010Prop51ColorRGB
 90
-16777216
102
RTVSPost2010PropOp51
 70
     0
102
RTVSPost2010Prop52
140
1.0
102
RTVSPost2010PropOp52
 70
     0
102
RTVSPost2010Prop53
 90
        2
102
RTVSPost2010PropOp53
 70
     1
102
RTVSPost2010Prop54
  1
strokes_ogs.tif
102
RTVSPost2010PropOp54
 70
     1
102
RTVSPost2010Prop55
280
     0
102
RTVSPost2010PropOp55
 70
     1
102
RTVSPost2010Prop56
140
1.0
102
RTVSPost2010PropOp56
 70
     1
102
RTVSPost2010Prop57
140
1.0
102
RTVSPost2010PropOp57
 70
     1
  0
XRECORD
  5
17F
102
{ACAD_REACTORS
330
17E
102
}
330
17E
100
AcDbXrecord
280
     1
102
RTVSPropertyOp0
 70
     1
102
RTVSPropertyOp1
 70
     1
102
RTVSPropertyOp2
 70
     1
102
RTVSPropertyOp3
 70
     1
102
RTVSPropertyOp4
 70
     1
102
RTVSPropertyOp5
 70
     1
102
RTVSPropertyOp6
 70
     1
102
RTVSPropertyOp7
 70
     1
102
RTVSPropertyOp8
 70
     1
102
RTVSPropertyOp9
 70
     1
102
RTVSPropertyOp10
 70
     1
102
RTVSPropertyOp11
 70
     1
102
RTVSPropertyOp12
 70
     1
102
RTVSPropertyOp13
 70
     1
102
RTVSPropertyOp14
 70
     1
102
RTVSPropertyOp15
 70
     1
102
RTVSPropertyOp16
 70
     1
102
RTVSPropertyOp17
 70
     1
102
RTVSPropertyOp18
 70
     1
102
RTVSPropertyOp19
 70
     1
102
RTVSPropertyOp20
 70
     1
102
RTVSPropertyOp21
 70
     1
102
RTVSPropertyOp22
 70
     1
102
RTVSPropertyOp23
 70
     1
102
RTVSPropertyOp24
 70
     1
102
RTVSPropertyOp25
 70
     1
102
RTVSPropertyOp26
 70
     1
102
RTVSPropertyOp27
 70
     1
102
RTVSPropertyOp28
 70
     1
102
RTVSPropertyOp29
 70
     1
102
RTVSPropertyOp30
 70
     1
102
RTVSPropertyOp31
 70
     1
102
RTVSPropertyOp32
 70
     1
102
RTVSPropertyOp33
 70
     1
102
RTVSPropertyOp34
 70
     1
102
RTVSPropertyOp35
 70
     1
102
RTVSPropertyOp36
 70
     1
102
RTVSPropertyOp37
 70
     1
102
RTVSPropertyOp38
 70
     1
102
RTVSPropertyOp39
 70
     1
102
RTVSPropertyOp40
 70
     1
102
RTVSPropertyOp41
 70
     1
102
RTVSPropertyOp42
 70
     1
102
RTVSPropertyOp43
 70
     1
102
RTVSPropertyOp44
 70
     1
102
RTVSPropertyOp45
 70
     1
102
RTVSPropertyOp46
 70
     1
102
RTVSPropertyOp47
 70
     1
102
RTVSPropertyOp48
 70
     1
102
RTVSPropertyOp49
 70
     1
102
RTVSPropertyOp50
 70
     1
102
RTVSPropertyOp51
 70
     0
102
RTVSPropertyOp52
 70
     0
102
RTVSPropertyOp53
 70
     1
102
RTVSPropertyOp54
 70
     1
102
RTVSPropertyOp55
 70
     1
102
RTVSPropertyOp56
 70
     1
102
RTVSPropertyOp57
 70
     1
102
RTVSPost2010Prop28
280
     0
102
RTVSPost2010PropOp28
 70
     1
102
RTVSPost2010Prop29
280
     1
102
RTVSPost2010PropOp29
 70
     1
102
RTVSPost2010Prop30
280
     1
102
RTVSPost2010PropOp30
 70
     1
102
RTVSPost2010Prop31
280
     0
102
RTVSPost2010PropOp31
 70
     1
102
RTVSPost2010Prop32
280
     0
102
RTVSPost2010PropOp32
 70
     1
102
RTVSPost2010Prop33
280
     0
102
RTVSPost2010PropOp33
 70
     1
102
RTVSPost2010Prop34
280
     0
102
RTVSPost2010PropOp34
 70
     1
102
RTVSPost2010Prop35
280
     0
102
RTVSPost2010PropOp35
 70
     1
102
RTVSPost2010Prop36
280
     0
102
RTVSPost2010PropOp36
 70
     1
102
RTVSPost2010Prop37
 90
       50
102
RTVSPost2010PropOp37
 70
     1
102
RTVSPost2010Prop38
140
0.0
102
RTVSPost2010PropOp38
 70
     1
102
RTVSPost2010Prop39
140
1.0
102
RTVSPost2010PropOp39
 70
     1
102
RTVSPost2010Prop40
 90
        0
102
RTVSPost2010PropOp40
 70
     1
102
RTVSPost2010Prop41ColorIndex
 90
       18
102
RTVSPost2010Prop41ColorRGB
 90
        0
102
RTVSPost2010PropOp41
 70
     1
102
RTVSPost2010Prop42
 90
       50
102
RTVSPost2010PropOp42
 70
     1
102
RTVSPost2010Prop43
 90
        3
102
RTVSPost2010PropOp43
 70
     1
102
RTVSPost2010Prop44ColorIndex
 90
        5
102
RTVSPost2010Prop44ColorRGB
 90
      255
102
RTVSPost2010PropOp44
 70
     1
102
RTVSPost2010Prop45
280
     0
102
RTVSPost2010PropOp45
 70
     1
102
RTVSPost2010Prop46
 90
       50
102
RTVSPost2010PropOp46
 70
     1
102
RTVSPost2010Prop47
 90
       50
102
RTVSPost2010PropOp47
 70
     1
102
RTVSPost2010Prop48
 90
       50
102
RTVSPost2010PropOp48
 70
     1
102
RTVSPost2010Prop49
280
     0
102
RTVSPost2010PropOp49
 70
     1
102
RTVSPost2010Prop50
 90
       50
102
RTVSPost2010PropOp50
 70
     1
102
RTVSPost2010Prop51ColorIndex
 90
      256
102
RTVSPost2010Prop51ColorRGB
 90
-16777216
102
RTVSPost2010PropOp51
 70
     0
102
RTVSPost2010Prop52
140
1.0
102
RTVSPost2010PropOp52
 70
     0
102
RTVSPost2010Prop53
 90
        2
102
RTVSPost2010PropOp53
 70
     1
102
RTVSPost2010Prop54
  1
strokes_ogs.tif
102
RTVSPost2010PropOp54
 70
     1
102
RTVSPost2010Prop55
280
     0
102
RTVSPost2010PropOp55
 70
     1
102
RTVSPost2010Prop56
140
1.0
102
RTVSPost2010PropOp56
 70
     1
102
RTVSPost2010Prop57
140
1.0
102
RTVSPost2010PropOp57
 70
     1
  0
XRECORD
  5
185
102
{ACAD_REACTORS
330
184
102
}
330
184
100
AcDbXrecord
280
     1
102
RTVSPropertyOp0
 70
     1
102
RTVSPropertyOp1
 70
     1
102
RTVSPropertyOp2
 70
     1
102
RTVSPropertyOp3
 70
     1
102
RTVSPropertyOp4
 70
     1
102
RTVSPropertyOp5
 70
     1
102
RTVSPropertyOp6
 70
     1
102
RTVSPropertyOp7
 70
     1
102
RTVSPropertyOp8
 70
     1
102
RTVSPropertyOp9
 70
     1
102
RTVSPropertyOp10
 70
     1
102
RTVSPropertyOp11
 70
     1
102
RTVSPropertyOp12
 70
     1
102
RTVSPropertyOp13
 70
     1
102
RTVSPropertyOp14
 70
     1
102
RTVSPropertyOp15
 70
     1
102
RTVSPropertyOp16
 70
     1
102
RTVSPropertyOp17
 70
     1
102
RTVSPropertyOp18
 70
     1
102
RTVSPropertyOp19
 70
     1
102
RTVSPropertyOp20
 70
     1
102
RTVSPropertyOp21
 70
     1
102
RTVSPropertyOp22
 70
     1
102
RTVSPropertyOp23
 70
     1
102
RTVSPropertyOp24
 70
     1
102
RTVSPropertyOp25
 70
     1
102
RTVSPropertyOp26
 70
     1
102
RTVSPropertyOp27
 70
     1
102
RTVSPropertyOp28
 70
     1
102
RTVSPropertyOp29
 70
     1
102
RTVSPropertyOp30
 70
     1
102
RTVSPropertyOp31
 70
     1
102
RTVSPropertyOp32
 70
     1
102
RTVSPropertyOp33
 70
     1
102
RTVSPropertyOp34
 70
     1
102
RTVSPropertyOp35
 70
     1
102
RTVSPropertyOp36
 70
     1
102
RTVSPropertyOp37
 70
     1
102
RTVSPropertyOp38
 70
     1
102
RTVSPropertyOp39
 70
     1
102
RTVSPropertyOp40
 70
     1
102
RTVSPropertyOp41
 70
     1
102
RTVSPropertyOp42
 70
     1
102
RTVSPropertyOp43
 70
     1
102
RTVSPropertyOp44
 70
     1
102
RTVSPropertyOp45
 70
     1
102
RTVSPropertyOp46
 70
     1
102
RTVSPropertyOp47
 70
     1
102
RTVSPropertyOp48
 70
     1
102
RTVSPropertyOp49
 70
     1
102
RTVSPropertyOp50
 70
     1
102
RTVSPropertyOp51
 70
     0
102
RTVSPropertyOp52
 70
     0
102
RTVSPropertyOp53
 70
     1
102
RTVSPropertyOp54
 70
     1
102
RTVSPropertyOp55
 70
     1
102
RTVSPropertyOp56
 70
     1
102
RTVSPropertyOp57
 70
     1
102
RTVSPost2010Prop28
280
     0
102
RTVSPost2010PropOp28
 70
     1
102
RTVSPost2010Prop29
280
     1
102
RTVSPost2010PropOp29
 70
     1
102
RTVSPost2010Prop30
280
     1
102
RTVSPost2010PropOp30
 70
     1
102
RTVSPost2010Prop31
280
     0
102
RTVSPost2010PropOp31
 70
     1
102
RTVSPost2010Prop32
280
     0
102
RTVSPost2010PropOp32
 70
     1
102
RTVSPost2010Prop33
280
     0
102
RTVSPost2010PropOp33
 70
     1
102
RTVSPost2010Prop34
280
     0
102
RTVSPost2010PropOp34
 70
     1
102
RTVSPost2010Prop35
280
     0
102
RTVSPost2010PropOp35
 70
     1
102
RTVSPost2010Prop36
280
     0
102
RTVSPost2010PropOp36
 70
     1
102
RTVSPost2010Prop37
 90
       50
102
RTVSPost2010PropOp37
 70
     1
102
RTVSPost2010Prop38
140
0.0
102
RTVSPost2010PropOp38
 70
     1
102
RTVSPost2010Prop39
140
1.0
102
RTVSPost2010PropOp39
 70
     1
102
RTVSPost2010Prop40
 90
        0
102
RTVSPost2010PropOp40
 70
     1
102
RTVSPost2010Prop41ColorIndex
 90
       18
102
RTVSPost2010Prop41ColorRGB
 90
        0
102
RTVSPost2010PropOp41
 70
     1
102
RTVSPost2010Prop42
 90
       50
102
RTVSPost2010PropOp42
 70
     1
102
RTVSPost2010Prop43
 90
        3
102
RTVSPost2010PropOp43
 70
     1
102
RTVSPost2010Prop44ColorIndex
 90
        5
102
RTVSPost2010Prop44ColorRGB
 90
      255
102
RTVSPost2010PropOp44
 70
     1
102
RTVSPost2010Prop45
280
     0
102
RTVSPost2010PropOp45
 70
     1
102
RTVSPost2010Prop46
 90
       50
102
RTVSPost2010PropOp46
 70
     1
102
RTVSPost2010Prop47
 90
       50
102
RTVSPost2010PropOp47
 70
     1
102
RTVSPost2010Prop48
 90
       50
102
RTVSPost2010PropOp48
 70
     1
102
RTVSPost2010Prop49
280
     0
102
RTVSPost2010PropOp49
 70
     1
102
RTVSPost2010Prop50
 90
       50
102
RTVSPost2010PropOp50
 70
     1
102
RTVSPost2010Prop51ColorIndex
 90
      256
102
RTVSPost2010Prop51ColorRGB
 90
-16777216
102
RTVSPost2010PropOp51
 70
     0
102
RTVSPost2010Prop52
140
1.0
102
RTVSPost2010PropOp52
 70
     0
102
RTVSPost2010Prop53
 90
        2
102
RTVSPost2010PropOp53
 70
     1
102
RTVSPost2010Prop54
  1
strokes_ogs.tif
102
RTVSPost2010PropOp54
 70
     1
102
RTVSPost2010Prop55
280
     0
102
RTVSPost2010PropOp55
 70
     1
102
RTVSPost2010Prop56
140
1.0
102
RTVSPost2010PropOp56
 70
     1
102
RTVSPost2010Prop57
140
1.0
102
RTVSPost2010PropOp57
 70
     1
  0
XRECORD
  5
199
102
{ACAD_REACTORS
330
198
102
}
330
198
100
AcDbXrecord
280
     1
102
RTVSPropertyOp0
 70
     0
102
RTVSPropertyOp1
 70
     0
102
RTVSPropertyOp2
 70
     0
102
RTVSPropertyOp3
 70
     0
102
RTVSPropertyOp4
 70
     0
102
RTVSPropertyOp5
 70
     0
102
RTVSPropertyOp6
 70
     0
102
RTVSPropertyOp7
 70
     0
102
RTVSPropertyOp8
 70
     0
102
RTVSPropertyOp9
 70
     0
102
RTVSPropertyOp10
 70
     0
102
RTVSPropertyOp11
 70
     0
102
RTVSPropertyOp12
 70
     0
102
RTVSPropertyOp13
 70
     0
102
RTVSPropertyOp14
 70
     2
102
RTVSPropertyOp15
 70
     0
102
RTVSPropertyOp16
 70
     0
102
RTVSPropertyOp17
 70
     0
102
RTVSPropertyOp18
 70
     0
102
RTVSPropertyOp19
 70
     0
102
RTVSPropertyOp20
 70
     0
102
RTVSPropertyOp21
 70
     0
102
RTVSPropertyOp22
 70
     0
102
RTVSPropertyOp23
 70
     0
102
RTVSPropertyOp24
 70
     0
102
RTVSPropertyOp25
 70
     0
102
RTVSPropertyOp26
 70
     0
102
RTVSPropertyOp27
 70
     0
102
RTVSPropertyOp28
 70
     0
102
RTVSPropertyOp29
 70
     0
102
RTVSPropertyOp30
 70
     0
102
RTVSPropertyOp31
 70
     0
102
RTVSPropertyOp32
 70
     0
102
RTVSPropertyOp33
 70
     0
102
RTVSPropertyOp34
 70
     0
102
RTVSPropertyOp35
 70
     0
102
RTVSPropertyOp36
 70
     0
102
RTVSPropertyOp37
 70
     0
102
RTVSPropertyOp38
 70
     0
102
RTVSPropertyOp39
 70
     0
102
RTVSPropertyOp40
 70
     0
102
RTVSPropertyOp41
 70
     0
102
RTVSPropertyOp42
 70
     0
102
RTVSPropertyOp43
 70
     0
102
RTVSPropertyOp44
 70
     0
102
RTVSPropertyOp45
 70
     0
102
RTVSPropertyOp46
 70
     0
102
RTVSPropertyOp47
 70
     0
102
RTVSPropertyOp48
 70
     0
102
RTVSPropertyOp49
 70
     0
102
RTVSPropertyOp50
 70
     0
102
RTVSPropertyOp51
 70
     0
102
RTVSPropertyOp52
 70
     0
102
RTVSPropertyOp53
 70
     0
102
RTVSPropertyOp54
 70
     0
102
RTVSPropertyOp55
 70
     0
102
RTVSPropertyOp56
 70
     0
102
RTVSPropertyOp57
 70
     0
102
RTVSPost2010Prop28
280
     0
102
RTVSPost2010PropOp28
 70
     0
102
RTVSPost2010Prop29
280
     1
102
RTVSPost2010PropOp29
 70
     0
102
RTVSPost2010Prop30
280
     1
102
RTVSPost2010PropOp30
 70
     0
102
RTVSPost2010Prop31
280
     0
102
RTVSPost2010PropOp31
 70
     0
102
RTVSPost2010Prop32
280
     0
102
RTVSPost2010PropOp32
 70
     0
102
RTVSPost2010Prop33
280
     0
102
RTVSPost2010PropOp33
 70
     0
102
RTVSPost2010Prop34
280
     0
102
RTVSPost2010PropOp34
 70
     0
102
RTVSPost2010Prop35
280
     0
102
RTVSPost2010PropOp35
 70
     0
102
RTVSPost2010Prop36
280
     0
102
RTVSPost2010PropOp36
 70
     0
102
RTVSPost2010Prop37
 90
       50
102
RTVSPost2010PropOp37
 70
     0
102
RTVSPost2010Prop38
140
0.0
102
RTVSPost2010PropOp38
 70
     0
102
RTVSPost2010Prop39
140
1.0
102
RTVSPost2010PropOp39
 70
     0
102
RTVSPost2010Prop40
 90
        0
102
RTVSPost2010PropOp40
 70
     0
102
RTVSPost2010Prop41ColorIndex
 90
       18
102
RTVSPost2010Prop41ColorRGB
 90
        0
102
RTVSPost2010PropOp41
 70
     0
102
RTVSPost2010Prop42
 90
       50
102
RTVSPost2010PropOp42
 70
     0
102
RTVSPost2010Prop43
 90
        3
102
RTVSPost2010PropOp43
 70
     0
102
RTVSPost2010Prop44ColorIndex
 90
        5
102
RTVSPost2010Prop44ColorRGB
 90
      255
102
RTVSPost2010PropOp44
 70
     0
102
RTVSPost2010Prop45
280
     0
102
RTVSPost2010PropOp45
 70
     0
102
RTVSPost2010Prop46
 90
       50
102
RTVSPost2010PropOp46
 70
     0
102
RTVSPost2010Prop47
 90
       50
102
RTVSPost2010PropOp47
 70
     0
102
RTVSPost2010Prop48
 90
       50
102
RTVSPost2010PropOp48
 70
     0
102
RTVSPost2010Prop49
280
     0
102
RTVSPost2010PropOp49
 70
     0
102
RTVSPost2010Prop50
 90
       50
102
RTVSPost2010PropOp50
 70
     0
102
RTVSPost2010Prop51ColorIndex
 90
      256
102
RTVSPost2010Prop51ColorRGB
 90
-16777216
102
RTVSPost2010PropOp51
 70
     0
102
RTVSPost2010Prop52
140
1.0
102
RTVSPost2010PropOp52
 70
     0
102
RTVSPost2010Prop53
 90
        2
102
RTVSPost2010PropOp53
 70
     0
102
RTVSPost2010Prop54
  1
strokes_ogs.tif
102
RTVSPost2010PropOp54
 70
     0
102
RTVSPost2010Prop55
280
     0
102
RTVSPost2010PropOp55
 70
     0
102
RTVSPost2010Prop56
140
1.0
102
RTVSPost2010PropOp56
 70
     0
102
RTVSPost2010Prop57
140
1.0
102
RTVSPost2010PropOp57
 70
     0
  0
XRECORD
  5
193
102
{ACAD_REACTORS
330
192
102
}
330
192
100
AcDbXrecord
280
     1
102
RTVSPropertyOp0
 70
     1
102
RTVSPropertyOp1
 70
     1
102
RTVSPropertyOp2
 70
     1
102
RTVSPropertyOp3
 70
     1
102
RTVSPropertyOp4
 70
     1
102
RTVSPropertyOp5
 70
     1
102
RTVSPropertyOp6
 70
     1
102
RTVSPropertyOp7
 70
     1
102
RTVSPropertyOp8
 70
     1
102
RTVSPropertyOp9
 70
     1
102
RTVSPropertyOp10
 70
     1
102
RTVSPropertyOp11
 70
     1
102
RTVSPropertyOp12
 70
     1
102
RTVSPropertyOp13
 70
     1
102
RTVSPropertyOp14
 70
     1
102
RTVSPropertyOp15
 70
     1
102
RTVSPropertyOp16
 70
     1
102
RTVSPropertyOp17
 70
     1
102
RTVSPropertyOp18
 70
     1
102
RTVSPropertyOp19
 70
     1
102
RTVSPropertyOp20
 70
     1
102
RTVSPropertyOp21
 70
     1
102
RTVSPropertyOp22
 70
     1
102
RTVSPropertyOp23
 70
     1
102
RTVSPropertyOp24
 70
     1
102
RTVSPropertyOp25
 70
     1
102
RTVSPropertyOp26
 70
     1
102
RTVSPropertyOp27
 70
     1
102
RTVSPropertyOp28
 70
     1
102
RTVSPropertyOp29
 70
     1
102
RTVSPropertyOp30
 70
     1
102
RTVSPropertyOp31
 70
     1
102
RTVSPropertyOp32
 70
     1
102
RTVSPropertyOp33
 70
     1
102
RTVSPropertyOp34
 70
     1
102
RTVSPropertyOp35
 70
     1
102
RTVSPropertyOp36
 70
     1
102
RTVSPropertyOp37
 70
     1
102
RTVSPropertyOp38
 70
     1
102
RTVSPropertyOp39
 70
     1
102
RTVSPropertyOp40
 70
     1
102
RTVSPropertyOp41
 70
     1
102
RTVSPropertyOp42
 70
     1
102
RTVSPropertyOp43
 70
     1
102
RTVSPropertyOp44
 70
     1
102
RTVSPropertyOp45
 70
     1
102
RTVSPropertyOp46
 70
     1
102
RTVSPropertyOp47
 70
     1
102
RTVSPropertyOp48
 70
     1
102
RTVSPropertyOp49
 70
     1
102
RTVSPropertyOp50
 70
     1
102
RTVSPropertyOp51
 70
     0
102
RTVSPropertyOp52
 70
     0
102
RTVSPropertyOp53
 70
     1
102
RTVSPropertyOp54
 70
     1
102
RTVSPropertyOp55
 70
     1
102
RTVSPropertyOp56
 70
     1
102
RTVSPropertyOp57
 70
     1
102
RTVSPost2010Prop28
280
     0
102
RTVSPost2010PropOp28
 70
     1
102
RTVSPost2010Prop29
280
     1
102
RTVSPost2010PropOp29
 70
     1
102
RTVSPost2010Prop30
280
     1
102
RTVSPost2010PropOp30
 70
     1
102
RTVSPost2010Prop31
280
     0
102
RTVSPost2010PropOp31
 70
     1
102
RTVSPost2010Prop32
280
     0
102
RTVSPost2010PropOp32
 70
     1
102
RTVSPost2010Prop33
280
     0
102
RTVSPost2010PropOp33
 70
     1
102
RTVSPost2010Prop34
280
     0
102
RTVSPost2010PropOp34
 70
     1
102
RTVSPost2010Prop35
280
     0
102
RTVSPost2010PropOp35
 70
     1
102
RTVSPost2010Prop36
280
     0
102
RTVSPost2010PropOp36
 70
     1
102
RTVSPost2010Prop37
 90
       50
102
RTVSPost2010PropOp37
 70
     1
102
RTVSPost2010Prop38
140
0.0
102
RTVSPost2010PropOp38
 70
     1
102
RTVSPost2010Prop39
140
1.0
102
RTVSPost2010PropOp39
 70
     1
102
RTVSPost2010Prop40
 90
        0
102
RTVSPost2010PropOp40
 70
     1
102
RTVSPost2010Prop41ColorIndex
 90
       18
102
RTVSPost2010Prop41ColorRGB
 90
        0
102
RTVSPost2010PropOp41
 70
     1
102
RTVSPost2010Prop42
 90
       50
102
RTVSPost2010PropOp42
 70
     1
102
RTVSPost2010Prop43
 90
        3
102
RTVSPost2010PropOp43
 70
     1
102
RTVSPost2010Prop44ColorIndex
 90
        5
102
RTVSPost2010Prop44ColorRGB
 90
      255
102
RTVSPost2010PropOp44
 70
     1
102
RTVSPost2010Prop45
280
     0
102
RTVSPost2010PropOp45
 70
     1
102
RTVSPost2010Prop46
 90
       50
102
RTVSPost2010PropOp46
 70
     1
102
RTVSPost2010Prop47
 90
       50
102
RTVSPost2010PropOp47
 70
     1
102
RTVSPost2010Prop48
 90
       50
102
RTVSPost2010PropOp48
 70
     1
102
RTVSPost2010Prop49
280
     0
102
RTVSPost2010PropOp49
 70
     1
102
RTVSPost2010Prop50
 90
       50
102
RTVSPost2010PropOp50
 70
     1
102
RTVSPost2010Prop51ColorIndex
 90
      256
102
RTVSPost2010Prop51ColorRGB
 90
-16777216
102
RTVSPost2010PropOp51
 70
     0
102
RTVSPost2010Prop52
140
1.0
102
RTVSPost2010PropOp52
 70
     0
102
RTVSPost2010Prop53
 90
        2
102
RTVSPost2010PropOp53
 70
     1
102
RTVSPost2010Prop54
  1
strokes_ogs.tif
102
RTVSPost2010PropOp54
 70
     1
102
RTVSPost2010Prop55
280
     0
102
RTVSPost2010PropOp55
 70
     1
102
RTVSPost2010Prop56
140
1.0
102
RTVSPost2010PropOp56
 70
     1
102
RTVSPost2010Prop57
140
1.0
102
RTVSPost2010PropOp57
 70
     1
  0
XRECORD
  5
19B
102
{ACAD_REACTORS
330
19A
102
}
330
19A
100
AcDbXrecord
280
     1
102
RTVSPropertyOp0
 70
     0
102
RTVSPropertyOp1
 70
     0
102
RTVSPropertyOp2
 70
     0
102
RTVSPropertyOp3
 70
     0
102
RTVSPropertyOp4
 70
     0
102
RTVSPropertyOp5
 70
     0
102
RTVSPropertyOp6
 70
     0
102
RTVSPropertyOp7
 70
     0
102
RTVSPropertyOp8
 70
     0
102
RTVSPropertyOp9
 70
     0
102
RTVSPropertyOp10
 70
     0
102
RTVSPropertyOp11
 70
     0
102
RTVSPropertyOp12
 70
     0
102
RTVSPropertyOp13
 70
     0
102
RTVSPropertyOp14
 70
     2
102
RTVSPropertyOp15
 70
     0
102
RTVSPropertyOp16
 70
     0
102
RTVSPropertyOp17
 70
     0
102
RTVSPropertyOp18
 70
     0
102
RTVSPropertyOp19
 70
     0
102
RTVSPropertyOp20
 70
     0
102
RTVSPropertyOp21
 70
     0
102
RTVSPropertyOp22
 70
     0
102
RTVSPropertyOp23
 70
     0
102
RTVSPropertyOp24
 70
     0
102
RTVSPropertyOp25
 70
     0
102
RTVSPropertyOp26
 70
     0
102
RTVSPropertyOp27
 70
     0
102
RTVSPropertyOp28
 70
     0
102
RTVSPropertyOp29
 70
     0
102
RTVSPropertyOp30
 70
     0
102
RTVSPropertyOp31
 70
     0
102
RTVSPropertyOp32
 70
     0
102
RTVSPropertyOp33
 70
     0
102
RTVSPropertyOp34
 70
     0
102
RTVSPropertyOp35
 70
     0
102
RTVSPropertyOp36
 70
     0
102
RTVSPropertyOp37
 70
     0
102
RTVSPropertyOp38
 70
     0
102
RTVSPropertyOp39
 70
     0
102
RTVSPropertyOp40
 70
     0
102
RTVSPropertyOp41
 70
     0
102
RTVSPropertyOp42
 70
     0
102
RTVSPropertyOp43
 70
     0
102
RTVSPropertyOp44
 70
     0
102
RTVSPropertyOp45
 70
     0
102
RTVSPropertyOp46
 70
     0
102
RTVSPropertyOp47
 70
     0
102
RTVSPropertyOp48
 70
     0
102
RTVSPropertyOp49
 70
     0
102
RTVSPropertyOp50
 70
     0
102
RTVSPropertyOp51
 70
     0
102
RTVSPropertyOp52
 70
     0
102
RTVSPropertyOp53
 70
     0
102
RTVSPropertyOp54
 70
     0
102
RTVSPropertyOp55
 70
     0
102
RTVSPropertyOp56
 70
     0
102
RTVSPropertyOp57
 70
     0
102
RTVSPost2010Prop28
280
     0
102
RTVSPost2010PropOp28
 70
     0
102
RTVSPost2010Prop29
280
     1
102
RTVSPost2010PropOp29
 70
     0
102
RTVSPost2010Prop30
280
     1
102
RTVSPost2010PropOp30
 70
     0
102
RTVSPost2010Prop31
280
     0
102
RTVSPost2010PropOp31
 70
     0
102
RTVSPost2010Prop32
280
     0
102
RTVSPost2010PropOp32
 70
     0
102
RTVSPost2010Prop33
280
     0
102
RTVSPost2010PropOp33
 70
     0
102
RTVSPost2010Prop34
280
     0
102
RTVSPost2010PropOp34
 70
     0
102
RTVSPost2010Prop35
280
     0
102
RTVSPost2010PropOp35
 70
     0
102
RTVSPost2010Prop36
280
     0
102
RTVSPost2010PropOp36
 70
     0
102
RTVSPost2010Prop37
 90
       50
102
RTVSPost2010PropOp37
 70
     0
102
RTVSPost2010Prop38
140
0.0
102
RTVSPost2010PropOp38
 70
     0
102
RTVSPost2010Prop39
140
1.0
102
RTVSPost2010PropOp39
 70
     0
102
RTVSPost2010Prop40
 90
        0
102
RTVSPost2010PropOp40
 70
     0
102
RTVSPost2010Prop41ColorIndex
 90
       18
102
RTVSPost2010Prop41ColorRGB
 90
        0
102
RTVSPost2010PropOp41
 70
     0
102
RTVSPost2010Prop42
 90
       50
102
RTVSPost2010PropOp42
 70
     0
102
RTVSPost2010Prop43
 90
        3
102
RTVSPost2010PropOp43
 70
     0
102
RTVSPost2010Prop44ColorIndex
 90
        5
102
RTVSPost2010Prop44ColorRGB
 90
      255
102
RTVSPost2010PropOp44
 70
     0
102
RTVSPost2010Prop45
280
     0
102
RTVSPost2010PropOp45
 70
     0
102
RTVSPost2010Prop46
 90
       50
102
RTVSPost2010PropOp46
 70
     0
102
RTVSPost2010Prop47
 90
       50
102
RTVSPost2010PropOp47
 70
     0
102
RTVSPost2010Prop48
 90
       50
102
RTVSPost2010PropOp48
 70
     0
102
RTVSPost2010Prop49
280
     0
102
RTVSPost2010PropOp49
 70
     0
102
RTVSPost2010Prop50
 90
       50
102
RTVSPost2010PropOp50
 70
     0
102
RTVSPost2010Prop51ColorIndex
 90
      256
102
RTVSPost2010Prop51ColorRGB
 90
-16777216
102
RTVSPost2010PropOp51
 70
     0
102
RTVSPost2010Prop52
140
1.0
102
RTVSPost2010PropOp52
 70
     0
102
RTVSPost2010Prop53
 90
        2
102
RTVSPost2010PropOp53
 70
     0
102
RTVSPost2010Prop54
  1
strokes_ogs.tif
102
RTVSPost2010PropOp54
 70
     0
102
RTVSPost2010Prop55
280
     0
102
RTVSPost2010PropOp55
 70
     0
102
RTVSPost2010Prop56
140
1.0
102
RTVSPost2010PropOp56
 70
     0
102
RTVSPost2010Prop57
140
1.0
102
RTVSPost2010PropOp57
 70
     0
  0
XRECORD
  5
189
102
{ACAD_REACTORS
330
188
102
}
330
188
100
AcDbXrecord
280
     1
102
RTVSPropertyOp0
 70
     1
102
RTVSPropertyOp1
 70
     1
102
RTVSPropertyOp2
 70
     1
102
RTVSPropertyOp3
 70
     1
102
RTVSPropertyOp4
 70
     1
102
RTVSPropertyOp5
 70
     1
102
RTVSPropertyOp6
 70
     1
102
RTVSPropertyOp7
 70
     1
102
RTVSPropertyOp8
 70
     1
102
RTVSPropertyOp9
 70
     1
102
RTVSPropertyOp10
 70
     1
102
RTVSPropertyOp11
 70
     1
102
RTVSPropertyOp12
 70
     1
102
RTVSPropertyOp13
 70
     1
102
RTVSPropertyOp14
 70
     1
102
RTVSPropertyOp15
 70
     1
102
RTVSPropertyOp16
 70
     1
102
RTVSPropertyOp17
 70
     1
102
RTVSPropertyOp18
 70
     1
102
RTVSPropertyOp19
 70
     1
102
RTVSPropertyOp20
 70
     1
102
RTVSPropertyOp21
 70
     1
102
RTVSPropertyOp22
 70
     1
102
RTVSPropertyOp23
 70
     1
102
RTVSPropertyOp24
 70
     1
102
RTVSPropertyOp25
 70
     1
102
RTVSPropertyOp26
 70
     1
102
RTVSPropertyOp27
 70
     1
102
RTVSPropertyOp28
 70
     1
102
RTVSPropertyOp29
 70
     1
102
RTVSPropertyOp30
 70
     1
102
RTVSPropertyOp31
 70
     1
102
RTVSPropertyOp32
 70
     1
102
RTVSPropertyOp33
 70
     1
102
RTVSPropertyOp34
 70
     1
102
RTVSPropertyOp35
 70
     1
102
RTVSPropertyOp36
 70
     1
102
RTVSPropertyOp37
 70
     1
102
RTVSPropertyOp38
 70
     1
102
RTVSPropertyOp39
 70
     1
102
RTVSPropertyOp40
 70
     1
102
RTVSPropertyOp41
 70
     1
102
RTVSPropertyOp42
 70
     1
102
RTVSPropertyOp43
 70
     1
102
RTVSPropertyOp44
 70
     1
102
RTVSPropertyOp45
 70
     1
102
RTVSPropertyOp46
 70
     1
102
RTVSPropertyOp47
 70
     1
102
RTVSPropertyOp48
 70
     1
102
RTVSPropertyOp49
 70
     1
102
RTVSPropertyOp50
 70
     1
102
RTVSPropertyOp51
 70
     0
102
RTVSPropertyOp52
 70
     0
102
RTVSPropertyOp53
 70
     1
102
RTVSPropertyOp54
 70
     1
102
RTVSPropertyOp55
 70
     1
102
RTVSPropertyOp56
 70
     1
102
RTVSPropertyOp57
 70
     1
102
RTVSPost2010Prop28
280
     0
102
RTVSPost2010PropOp28
 70
     1
102
RTVSPost2010Prop29
280
     1
102
RTVSPost2010PropOp29
 70
     1
102
RTVSPost2010Prop30
280
     1
102
RTVSPost2010PropOp30
 70
     1
102
RTVSPost2010Prop31
280
     0
102
RTVSPost2010PropOp31
 70
     1
102
RTVSPost2010Prop32
280
     0
102
RTVSPost2010PropOp32
 70
     1
102
RTVSPost2010Prop33
280
     0
102
RTVSPost2010PropOp33
 70
     1
102
RTVSPost2010Prop34
280
     0
102
RTVSPost2010PropOp34
 70
     1
102
RTVSPost2010Prop35
280
     0
102
RTVSPost2010PropOp35
 70
     1
102
RTVSPost2010Prop36
280
     0
102
RTVSPost2010PropOp36
 70
     1
102
RTVSPost2010Prop37
 90
       50
102
RTVSPost2010PropOp37
 70
     1
102
RTVSPost2010Prop38
140
0.0
102
RTVSPost2010PropOp38
 70
     1
102
RTVSPost2010Prop39
140
1.0
102
RTVSPost2010PropOp39
 70
     1
102
RTVSPost2010Prop40
 90
        0
102
RTVSPost2010PropOp40
 70
     1
102
RTVSPost2010Prop41ColorIndex
 90
       18
102
RTVSPost2010Prop41ColorRGB
 90
        0
102
RTVSPost2010PropOp41
 70
     1
102
RTVSPost2010Prop42
 90
       50
102
RTVSPost2010PropOp42
 70
     1
102
RTVSPost2010Prop43
 90
        3
102
RTVSPost2010PropOp43
 70
     1
102
RTVSPost2010Prop44ColorIndex
 90
        5
102
RTVSPost2010Prop44ColorRGB
 90
      255
102
RTVSPost2010PropOp44
 70
     1
102
RTVSPost2010Prop45
280
     0
102
RTVSPost2010PropOp45
 70
     1
102
RTVSPost2010Prop46
 90
       50
102
RTVSPost2010PropOp46
 70
     1
102
RTVSPost2010Prop47
 90
       50
102
RTVSPost2010PropOp47
 70
     1
102
RTVSPost2010Prop48
 90
       50
102
RTVSPost2010PropOp48
 70
     1
102
RTVSPost2010Prop49
280
     0
102
RTVSPost2010PropOp49
 70
     1
102
RTVSPost2010Prop50
 90
       50
102
RTVSPost2010PropOp50
 70
     1
102
RTVSPost2010Prop51ColorIndex
 90
      256
102
RTVSPost2010Prop51ColorRGB
 90
-16777216
102
RTVSPost2010PropOp51
 70
     0
102
RTVSPost2010Prop52
140
1.0
102
RTVSPost2010PropOp52
 70
     0
102
RTVSPost2010Prop53
 90
        2
102
RTVSPost2010PropOp53
 70
     1
102
RTVSPost2010Prop54
  1
strokes_ogs.tif
102
RTVSPost2010PropOp54
 70
     1
102
RTVSPost2010Prop55
280
     0
102
RTVSPost2010PropOp55
 70
     1
102
RTVSPost2010Prop56
140
1.0
102
RTVSPost2010PropOp56
 70
     1
102
RTVSPost2010Prop57
140
1.0
102
RTVSPost2010PropOp57
 70
     1
  0
XRECORD
  5
1A7
102
{ACAD_REACTORS
330
1A6
102
}
330
1A6
100
AcDbXrecord
280
     1
102
RTVSPropertyOp0
 70
     1
102
RTVSPropertyOp1
 70
     1
102
RTVSPropertyOp2
 70
     1
102
RTVSPropertyOp3
 70
     1
102
RTVSPropertyOp4
 70
     1
102
RTVSPropertyOp5
 70
     1
102
RTVSPropertyOp6
 70
     1
102
RTVSPropertyOp7
 70
     1
102
RTVSPropertyOp8
 70
     1
102
RTVSPropertyOp9
 70
     1
102
RTVSPropertyOp10
 70
     1
102
RTVSPropertyOp11
 70
     1
102
RTVSPropertyOp12
 70
     1
102
RTVSPropertyOp13
 70
     1
102
RTVSPropertyOp14
 70
     1
102
RTVSPropertyOp15
 70
     1
102
RTVSPropertyOp16
 70
     1
102
RTVSPropertyOp17
 70
     1
102
RTVSPropertyOp18
 70
     1
102
RTVSPropertyOp19
 70
     1
102
RTVSPropertyOp20
 70
     1
102
RTVSPropertyOp21
 70
     1
102
RTVSPropertyOp22
 70
     1
102
RTVSPropertyOp23
 70
     1
102
RTVSPropertyOp24
 70
     1
102
RTVSPropertyOp25
 70
     1
102
RTVSPropertyOp26
 70
     1
102
RTVSPropertyOp27
 70
     1
102
RTVSPropertyOp28
 70
     1
102
RTVSPropertyOp29
 70
     1
102
RTVSPropertyOp30
 70
     1
102
RTVSPropertyOp31
 70
     1
102
RTVSPropertyOp32
 70
     1
102
RTVSPropertyOp33
 70
     1
102
RTVSPropertyOp34
 70
     1
102
RTVSPropertyOp35
 70
     1
102
RTVSPropertyOp36
 70
     1
102
RTVSPropertyOp37
 70
     1
102
RTVSPropertyOp38
 70
     1
102
RTVSPropertyOp39
 70
     1
102
RTVSPropertyOp40
 70
     1
102
RTVSPropertyOp41
 70
     1
102
RTVSPropertyOp42
 70
     1
102
RTVSPropertyOp43
 70
     1
102
RTVSPropertyOp44
 70
     1
102
RTVSPropertyOp45
 70
     1
102
RTVSPropertyOp46
 70
     1
102
RTVSPropertyOp47
 70
     1
102
RTVSPropertyOp48
 70
     1
102
RTVSPropertyOp49
 70
     1
102
RTVSPropertyOp50
 70
     1
102
RTVSPropertyOp51
 70
     0
102
RTVSPropertyOp52
 70
     0
102
RTVSPropertyOp53
 70
     1
102
RTVSPropertyOp54
 70
     1
102
RTVSPropertyOp55
 70
     1
102
RTVSPropertyOp56
 70
     1
102
RTVSPropertyOp57
 70
     1
102
RTVSPost2010Prop28
280
     0
102
RTVSPost2010PropOp28
 70
     1
102
RTVSPost2010Prop29
280
     1
102
RTVSPost2010PropOp29
 70
     1
102
RTVSPost2010Prop30
280
     1
102
RTVSPost2010PropOp30
 70
     1
102
RTVSPost2010Prop31
280
     0
102
RTVSPost2010PropOp31
 70
     1
102
RTVSPost2010Prop32
280
     0
102
RTVSPost2010PropOp32
 70
     1
102
RTVSPost2010Prop33
280
     0
102
RTVSPost2010PropOp33
 70
     1
102
RTVSPost2010Prop34
280
     0
102
RTVSPost2010PropOp34
 70
     1
102
RTVSPost2010Prop35
280
     0
102
RTVSPost2010PropOp35
 70
     1
102
RTVSPost2010Prop36
280
     0
102
RTVSPost2010PropOp36
 70
     1
102
RTVSPost2010Prop37
 90
       50
102
RTVSPost2010PropOp37
 70
     1
102
RTVSPost2010Prop38
140
0.0
102
RTVSPost2010PropOp38
 70
     1
102
RTVSPost2010Prop39
140
1.0
102
RTVSPost2010PropOp39
 70
     1
102
RTVSPost2010Prop40
 90
        0
102
RTVSPost2010PropOp40
 70
     1
102
RTVSPost2010Prop41ColorIndex
 90
       18
102
RTVSPost2010Prop41ColorRGB
 90
        0
102
RTVSPost2010PropOp41
 70
     1
102
RTVSPost2010Prop42
 90
       50
102
RTVSPost2010PropOp42
 70
     1
102
RTVSPost2010Prop43
 90
        3
102
RTVSPost2010PropOp43
 70
     1
102
RTVSPost2010Prop44ColorIndex
 90
        5
102
RTVSPost2010Prop44ColorRGB
 90
      255
102
RTVSPost2010PropOp44
 70
     1
102
RTVSPost2010Prop45
280
     0
102
RTVSPost2010PropOp45
 70
     1
102
RTVSPost2010Prop46
 90
       50
102
RTVSPost2010PropOp46
 70
     1
102
RTVSPost2010Prop47
 90
       50
102
RTVSPost2010PropOp47
 70
     1
102
RTVSPost2010Prop48
 90
       50
102
RTVSPost2010PropOp48
 70
     1
102
RTVSPost2010Prop49
280
     0
102
RTVSPost2010PropOp49
 70
     1
102
RTVSPost2010Prop50
 90
       50
102
RTVSPost2010PropOp50
 70
     1
102
RTVSPost2010Prop51ColorIndex
 90
      256
102
RTVSPost2010Prop51ColorRGB
 90
-16777216
102
RTVSPost2010PropOp51
 70
     0
102
RTVSPost2010Prop52
140
1.0
102
RTVSPost2010PropOp52
 70
     0
102
RTVSPost2010Prop53
 90
        2
102
RTVSPost2010PropOp53
 70
     1
102
RTVSPost2010Prop54
  1
strokes_ogs.tif
102
RTVSPost2010PropOp54
 70
     1
102
RTVSPost2010Prop55
280
     0
102
RTVSPost2010PropOp55
 70
     1
102
RTVSPost2010Prop56
140
1.0
102
RTVSPost2010PropOp56
 70
     1
102
RTVSPost2010Prop57
140
1.0
102
RTVSPost2010PropOp57
 70
     1
  0
XRECORD
  5
1A5
102
{ACAD_REACTORS
330
1A4
102
}
330
1A4
100
AcDbXrecord
280
     1
102
RTVSPropertyOp0
 70
     1
102
RTVSPropertyOp1
 70
     1
102
RTVSPropertyOp2
 70
     1
102
RTVSPropertyOp3
 70
     1
102
RTVSPropertyOp4
 70
     1
102
RTVSPropertyOp5
 70
     1
102
RTVSPropertyOp6
 70
     1
102
RTVSPropertyOp7
 70
     1
102
RTVSPropertyOp8
 70
     1
102
RTVSPropertyOp9
 70
     1
102
RTVSPropertyOp10
 70
     1
102
RTVSPropertyOp11
 70
     1
102
RTVSPropertyOp12
 70
     1
102
RTVSPropertyOp13
 70
     1
102
RTVSPropertyOp14
 70
     1
102
RTVSPropertyOp15
 70
     1
102
RTVSPropertyOp16
 70
     1
102
RTVSPropertyOp17
 70
     1
102
RTVSPropertyOp18
 70
     1
102
RTVSPropertyOp19
 70
     1
102
RTVSPropertyOp20
 70
     1
102
RTVSPropertyOp21
 70
     1
102
RTVSPropertyOp22
 70
     1
102
RTVSPropertyOp23
 70
     1
102
RTVSPropertyOp24
 70
     1
102
RTVSPropertyOp25
 70
     1
102
RTVSPropertyOp26
 70
     1
102
RTVSPropertyOp27
 70
     1
102
RTVSPropertyOp28
 70
     1
102
RTVSPropertyOp29
 70
     1
102
RTVSPropertyOp30
 70
     1
102
RTVSPropertyOp31
 70
     1
102
RTVSPropertyOp32
 70
     1
102
RTVSPropertyOp33
 70
     1
102
RTVSPropertyOp34
 70
     1
102
RTVSPropertyOp35
 70
     1
102
RTVSPropertyOp36
 70
     1
102
RTVSPropertyOp37
 70
     1
102
RTVSPropertyOp38
 70
     1
102
RTVSPropertyOp39
 70
     1
102
RTVSPropertyOp40
 70
     1
102
RTVSPropertyOp41
 70
     1
102
RTVSPropertyOp42
 70
     1
102
RTVSPropertyOp43
 70
     1
102
RTVSPropertyOp44
 70
     1
102
RTVSPropertyOp45
 70
     1
102
RTVSPropertyOp46
 70
     1
102
RTVSPropertyOp47
 70
     1
102
RTVSPropertyOp48
 70
     1
102
RTVSPropertyOp49
 70
     1
102
RTVSPropertyOp50
 70
     1
102
RTVSPropertyOp51
 70
     0
102
RTVSPropertyOp52
 70
     0
102
RTVSPropertyOp53
 70
     1
102
RTVSPropertyOp54
 70
     1
102
RTVSPropertyOp55
 70
     1
102
RTVSPropertyOp56
 70
     1
102
RTVSPropertyOp57
 70
     1
102
RTVSPost2010Prop28
280
     0
102
RTVSPost2010PropOp28
 70
     1
102
RTVSPost2010Prop29
280
     1
102
RTVSPost2010PropOp29
 70
     1
102
RTVSPost2010Prop30
280
     1
102
RTVSPost2010PropOp30
 70
     1
102
RTVSPost2010Prop31
280
     0
102
RTVSPost2010PropOp31
 70
     1
102
RTVSPost2010Prop32
280
     0
102
RTVSPost2010PropOp32
 70
     1
102
RTVSPost2010Prop33
280
     0
102
RTVSPost2010PropOp33
 70
     1
102
RTVSPost2010Prop34
280
     0
102
RTVSPost2010PropOp34
 70
     1
102
RTVSPost2010Prop35
280
     0
102
RTVSPost2010PropOp35
 70
     1
102
RTVSPost2010Prop36
280
     0
102
RTVSPost2010PropOp36
 70
     1
102
RTVSPost2010Prop37
 90
       50
102
RTVSPost2010PropOp37
 70
     1
102
RTVSPost2010Prop38
140
0.0
102
RTVSPost2010PropOp38
 70
     1
102
RTVSPost2010Prop39
140
1.0
102
RTVSPost2010PropOp39
 70
     1
102
RTVSPost2010Prop40
 90
        0
102
RTVSPost2010PropOp40
 70
     1
102
RTVSPost2010Prop41ColorIndex
 90
       18
102
RTVSPost2010Prop41ColorRGB
 90
        0
102
RTVSPost2010PropOp41
 70
     1
102
RTVSPost2010Prop42
 90
       50
102
RTVSPost2010PropOp42
 70
     1
102
RTVSPost2010Prop43
 90
        3
102
RTVSPost2010PropOp43
 70
     1
102
RTVSPost2010Prop44ColorIndex
 90
        5
102
RTVSPost2010Prop44ColorRGB
 90
      255
102
RTVSPost2010PropOp44
 70
     1
102
RTVSPost2010Prop45
280
     0
102
RTVSPost2010PropOp45
 70
     1
102
RTVSPost2010Prop46
 90
       50
102
RTVSPost2010PropOp46
 70
     1
102
RTVSPost2010Prop47
 90
       50
102
RTVSPost2010PropOp47
 70
     1
102
RTVSPost2010Prop48
 90
       50
102
RTVSPost2010PropOp48
 70
     1
102
RTVSPost2010Prop49
280
     0
102
RTVSPost2010PropOp49
 70
     1
102
RTVSPost2010Prop50
 90
       50
102
RTVSPost2010PropOp50
 70
     1
102
RTVSPost2010Prop51ColorIndex
 90
      256
102
RTVSPost2010Prop51ColorRGB
 90
-16777216
102
RTVSPost2010PropOp51
 70
     0
102
RTVSPost2010Prop52
140
1.0
102
RTVSPost2010PropOp52
 70
     0
102
RTVSPost2010Prop53
 90
        2
102
RTVSPost2010PropOp53
 70
     1
102
RTVSPost2010Prop54
  1
strokes_ogs.tif
102
RTVSPost2010PropOp54
 70
     1
102
RTVSPost2010Prop55
280
     0
102
RTVSPost2010PropOp55
 70
     1
102
RTVSPost2010Prop56
140
1.0
102
RTVSPost2010PropOp56
 70
     1
102
RTVSPost2010Prop57
140
1.0
102
RTVSPost2010PropOp57
 70
     1
  0
XRECORD
  5
19F
102
{ACAD_REACTORS
330
19E
102
}
330
19E
100
AcDbXrecord
280
     1
102
RTVSPropertyOp0
 70
     1
102
RTVSPropertyOp1
 70
     1
102
RTVSPropertyOp2
 70
     1
102
RTVSPropertyOp3
 70
     1
102
RTVSPropertyOp4
 70
     1
102
RTVSPropertyOp5
 70
     1
102
RTVSPropertyOp6
 70
     1
102
RTVSPropertyOp7
 70
     1
102
RTVSPropertyOp8
 70
     1
102
RTVSPropertyOp9
 70
     1
102
RTVSPropertyOp10
 70
     1
102
RTVSPropertyOp11
 70
     1
102
RTVSPropertyOp12
 70
     1
102
RTVSPropertyOp13
 70
     1
102
RTVSPropertyOp14
 70
     1
102
RTVSPropertyOp15
 70
     1
102
RTVSPropertyOp16
 70
     1
102
RTVSPropertyOp17
 70
     1
102
RTVSPropertyOp18
 70
     1
102
RTVSPropertyOp19
 70
     1
102
RTVSPropertyOp20
 70
     1
102
RTVSPropertyOp21
 70
     1
102
RTVSPropertyOp22
 70
     1
102
RTVSPropertyOp23
 70
     1
102
RTVSPropertyOp24
 70
     1
102
RTVSPropertyOp25
 70
     1
102
RTVSPropertyOp26
 70
     1
102
RTVSPropertyOp27
 70
     1
102
RTVSPropertyOp28
 70
     1
102
RTVSPropertyOp29
 70
     1
102
RTVSPropertyOp30
 70
     1
102
RTVSPropertyOp31
 70
     1
102
RTVSPropertyOp32
 70
     1
102
RTVSPropertyOp33
 70
     1
102
RTVSPropertyOp34
 70
     1
102
RTVSPropertyOp35
 70
     1
102
RTVSPropertyOp36
 70
     1
102
RTVSPropertyOp37
 70
     1
102
RTVSPropertyOp38
 70
     1
102
RTVSPropertyOp39
 70
     1
102
RTVSPropertyOp40
 70
     1
102
RTVSPropertyOp41
 70
     1
102
RTVSPropertyOp42
 70
     1
102
RTVSPropertyOp43
 70
     1
102
RTVSPropertyOp44
 70
     1
102
RTVSPropertyOp45
 70
     1
102
RTVSPropertyOp46
 70
     1
102
RTVSPropertyOp47
 70
     1
102
RTVSPropertyOp48
 70
     1
102
RTVSPropertyOp49
 70
     1
102
RTVSPropertyOp50
 70
     1
102
RTVSPropertyOp51
 70
     0
102
RTVSPropertyOp52
 70
     0
102
RTVSPropertyOp53
 70
     1
102
RTVSPropertyOp54
 70
     1
102
RTVSPropertyOp55
 70
     1
102
RTVSPropertyOp56
 70
     1
102
RTVSPropertyOp57
 70
     1
102
RTVSPost2010Prop28
280
     0
102
RTVSPost2010PropOp28
 70
     1
102
RTVSPost2010Prop29
280
     1
102
RTVSPost2010PropOp29
 70
     1
102
RTVSPost2010Prop30
280
     1
102
RTVSPost2010PropOp30
 70
     1
102
RTVSPost2010Prop31
280
     0
102
RTVSPost2010PropOp31
 70
     1
102
RTVSPost2010Prop32
280
     0
102
RTVSPost2010PropOp32
 70
     1
102
RTVSPost2010Prop33
280
     0
102
RTVSPost2010PropOp33
 70
     1
102
RTVSPost2010Prop34
280
     0
102
RTVSPost2010PropOp34
 70
     1
102
RTVSPost2010Prop35
280
     0
102
RTVSPost2010PropOp35
 70
     1
102
RTVSPost2010Prop36
280
     0
102
RTVSPost2010PropOp36
 70
     1
102
RTVSPost2010Prop37
 90
       50
102
RTVSPost2010PropOp37
 70
     1
102
RTVSPost2010Prop38
140
0.0
102
RTVSPost2010PropOp38
 70
     1
102
RTVSPost2010Prop39
140
1.0
102
RTVSPost2010PropOp39
 70
     1
102
RTVSPost2010Prop40
 90
        0
102
RTVSPost2010PropOp40
 70
     1
102
RTVSPost2010Prop41ColorIndex
 90
       18
102
RTVSPost2010Prop41ColorRGB
 90
        0
102
RTVSPost2010PropOp41
 70
     1
102
RTVSPost2010Prop42
 90
       50
102
RTVSPost2010PropOp42
 70
     1
102
RTVSPost2010Prop43
 90
        3
102
RTVSPost2010PropOp43
 70
     1
102
RTVSPost2010Prop44ColorIndex
 90
        5
102
RTVSPost2010Prop44ColorRGB
 90
      255
102
RTVSPost2010PropOp44
 70
     1
102
RTVSPost2010Prop45
280
     0
102
RTVSPost2010PropOp45
 70
     1
102
RTVSPost2010Prop46
 90
       50
102
RTVSPost2010PropOp46
 70
     1
102
RTVSPost2010Prop47
 90
       50
102
RTVSPost2010PropOp47
 70
     1
102
RTVSPost2010Prop48
 90
       50
102
RTVSPost2010PropOp48
 70
     1
102
RTVSPost2010Prop49
280
     0
102
RTVSPost2010PropOp49
 70
     1
102
RTVSPost2010Prop50
 90
       50
102
RTVSPost2010PropOp50
 70
     1
102
RTVSPost2010Prop51ColorIndex
 90
      256
102
RTVSPost2010Prop51ColorRGB
 90
-16777216
102
RTVSPost2010PropOp51
 70
     0
102
RTVSPost2010Prop52
140
1.0
102
RTVSPost2010PropOp52
 70
     0
102
RTVSPost2010Prop53
 90
        2
102
RTVSPost2010PropOp53
 70
     1
102
RTVSPost2010Prop54
  1
strokes_ogs.tif
102
RTVSPost2010PropOp54
 70
     1
102
RTVSPost2010Prop55
280
     0
102
RTVSPost2010PropOp55
 70
     1
102
RTVSPost2010Prop56
140
1.0
102
RTVSPost2010PropOp56
 70
     1
102
RTVSPost2010Prop57
140
1.0
102
RTVSPost2010PropOp57
 70
     1
  0
XRECORD
  5
1A1
102
{ACAD_REACTORS
330
1A0
102
}
330
1A0
100
AcDbXrecord
280
     1
102
RTVSPropertyOp0
 70
     1
102
RTVSPropertyOp1
 70
     1
102
RTVSPropertyOp2
 70
     1
102
RTVSPropertyOp3
 70
     1
102
RTVSPropertyOp4
 70
     1
102
RTVSPropertyOp5
 70
     1
102
RTVSPropertyOp6
 70
     1
102
RTVSPropertyOp7
 70
     1
102
RTVSPropertyOp8
 70
     1
102
RTVSPropertyOp9
 70
     1
102
RTVSPropertyOp10
 70
     1
102
RTVSPropertyOp11
 70
     1
102
RTVSPropertyOp12
 70
     1
102
RTVSPropertyOp13
 70
     1
102
RTVSPropertyOp14
 70
     1
102
RTVSPropertyOp15
 70
     1
102
RTVSPropertyOp16
 70
     1
102
RTVSPropertyOp17
 70
     1
102
RTVSPropertyOp18
 70
     1
102
RTVSPropertyOp19
 70
     1
102
RTVSPropertyOp20
 70
     1
102
RTVSPropertyOp21
 70
     1
102
RTVSPropertyOp22
 70
     1
102
RTVSPropertyOp23
 70
     1
102
RTVSPropertyOp24
 70
     1
102
RTVSPropertyOp25
 70
     1
102
RTVSPropertyOp26
 70
     1
102
RTVSPropertyOp27
 70
     1
102
RTVSPropertyOp28
 70
     1
102
RTVSPropertyOp29
 70
     1
102
RTVSPropertyOp30
 70
     1
102
RTVSPropertyOp31
 70
     1
102
RTVSPropertyOp32
 70
     1
102
RTVSPropertyOp33
 70
     1
102
RTVSPropertyOp34
 70
     1
102
RTVSPropertyOp35
 70
     1
102
RTVSPropertyOp36
 70
     1
102
RTVSPropertyOp37
 70
     1
102
RTVSPropertyOp38
 70
     1
102
RTVSPropertyOp39
 70
     1
102
RTVSPropertyOp40
 70
     1
102
RTVSPropertyOp41
 70
     1
102
RTVSPropertyOp42
 70
     1
102
RTVSPropertyOp43
 70
     1
102
RTVSPropertyOp44
 70
     1
102
RTVSPropertyOp45
 70
     1
102
RTVSPropertyOp46
 70
     1
102
RTVSPropertyOp47
 70
     1
102
RTVSPropertyOp48
 70
     1
102
RTVSPropertyOp49
 70
     1
102
RTVSPropertyOp50
 70
     1
102
RTVSPropertyOp51
 70
     0
102
RTVSPropertyOp52
 70
     0
102
RTVSPropertyOp53
 70
     1
102
RTVSPropertyOp54
 70
     1
102
RTVSPropertyOp55
 70
     1
102
RTVSPropertyOp56
 70
     1
102
RTVSPropertyOp57
 70
     1
102
RTVSPost2010Prop28
280
     0
102
RTVSPost2010PropOp28
 70
     1
102
RTVSPost2010Prop29
280
     1
102
RTVSPost2010PropOp29
 70
     1
102
RTVSPost2010Prop30
280
     1
102
RTVSPost2010PropOp30
 70
     1
102
RTVSPost2010Prop31
280
     0
102
RTVSPost2010PropOp31
 70
     1
102
RTVSPost2010Prop32
280
     0
102
RTVSPost2010PropOp32
 70
     1
102
RTVSPost2010Prop33
280
     0
102
RTVSPost2010PropOp33
 70
     1
102
RTVSPost2010Prop34
280
     0
102
RTVSPost2010PropOp34
 70
     1
102
RTVSPost2010Prop35
280
     0
102
RTVSPost2010PropOp35
 70
     1
102
RTVSPost2010Prop36
280
     0
102
RTVSPost2010PropOp36
 70
     1
102
RTVSPost2010Prop37
 90
       50
102
RTVSPost2010PropOp37
 70
     1
102
RTVSPost2010Prop38
140
0.0
102
RTVSPost2010PropOp38
 70
     1
102
RTVSPost2010Prop39
140
1.0
102
RTVSPost2010PropOp39
 70
     1
102
RTVSPost2010Prop40
 90
        0
102
RTVSPost2010PropOp40
 70
     1
102
RTVSPost2010Prop41ColorIndex
 90
       18
102
RTVSPost2010Prop41ColorRGB
 90
        0
102
RTVSPost2010PropOp41
 70
     1
102
RTVSPost2010Prop42
 90
       50
102
RTVSPost2010PropOp42
 70
     1
102
RTVSPost2010Prop43
 90
        3
102
RTVSPost2010PropOp43
 70
     1
102
RTVSPost2010Prop44ColorIndex
 90
        5
102
RTVSPost2010Prop44ColorRGB
 90
      255
102
RTVSPost2010PropOp44
 70
     1
102
RTVSPost2010Prop45
280
     0
102
RTVSPost2010PropOp45
 70
     1
102
RTVSPost2010Prop46
 90
       50
102
RTVSPost2010PropOp46
 70
     1
102
RTVSPost2010Prop47
 90
       50
102
RTVSPost2010PropOp47
 70
     1
102
RTVSPost2010Prop48
 90
       50
102
RTVSPost2010PropOp48
 70
     1
102
RTVSPost2010Prop49
280
     0
102
RTVSPost2010PropOp49
 70
     1
102
RTVSPost2010Prop50
 90
       50
102
RTVSPost2010PropOp50
 70
     1
102
RTVSPost2010Prop51ColorIndex
 90
      256
102
RTVSPost2010Prop51ColorRGB
 90
-16777216
102
RTVSPost2010PropOp51
 70
     0
102
RTVSPost2010Prop52
140
1.0
102
RTVSPost2010PropOp52
 70
     0
102
RTVSPost2010Prop53
 90
        2
102
RTVSPost2010PropOp53
 70
     1
102
RTVSPost2010Prop54
  1
strokes_ogs.tif
102
RTVSPost2010PropOp54
 70
     1
102
RTVSPost2010Prop55
280
     0
102
RTVSPost2010PropOp55
 70
     1
102
RTVSPost2010Prop56
140
1.0
102
RTVSPost2010PropOp56
 70
     1
102
RTVSPost2010Prop57
140
1.0
102
RTVSPost2010PropOp57
 70
     1
  0
XRECORD
  5
191
102
{ACAD_REACTORS
330
190
102
}
330
190
100
AcDbXrecord
280
     1
102
RTVSPropertyOp0
 70
     1
102
RTVSPropertyOp1
 70
     1
102
RTVSPropertyOp2
 70
     1
102
RTVSPropertyOp3
 70
     1
102
RTVSPropertyOp4
 70
     1
102
RTVSPropertyOp5
 70
     1
102
RTVSPropertyOp6
 70
     1
102
RTVSPropertyOp7
 70
     1
102
RTVSPropertyOp8
 70
     1
102
RTVSPropertyOp9
 70
     1
102
RTVSPropertyOp10
 70
     1
102
RTVSPropertyOp11
 70
     1
102
RTVSPropertyOp12
 70
     1
102
RTVSPropertyOp13
 70
     1
102
RTVSPropertyOp14
 70
     1
102
RTVSPropertyOp15
 70
     1
102
RTVSPropertyOp16
 70
     1
102
RTVSPropertyOp17
 70
     1
102
RTVSPropertyOp18
 70
     1
102
RTVSPropertyOp19
 70
     1
102
RTVSPropertyOp20
 70
     1
102
RTVSPropertyOp21
 70
     1
102
RTVSPropertyOp22
 70
     1
102
RTVSPropertyOp23
 70
     1
102
RTVSPropertyOp24
 70
     1
102
RTVSPropertyOp25
 70
     1
102
RTVSPropertyOp26
 70
     1
102
RTVSPropertyOp27
 70
     1
102
RTVSPropertyOp28
 70
     1
102
RTVSPropertyOp29
 70
     1
102
RTVSPropertyOp30
 70
     1
102
RTVSPropertyOp31
 70
     1
102
RTVSPropertyOp32
 70
     1
102
RTVSPropertyOp33
 70
     1
102
RTVSPropertyOp34
 70
     1
102
RTVSPropertyOp35
 70
     1
102
RTVSPropertyOp36
 70
     1
102
RTVSPropertyOp37
 70
     1
102
RTVSPropertyOp38
 70
     1
102
RTVSPropertyOp39
 70
     1
102
RTVSPropertyOp40
 70
     1
102
RTVSPropertyOp41
 70
     1
102
RTVSPropertyOp42
 70
     1
102
RTVSPropertyOp43
 70
     1
102
RTVSPropertyOp44
 70
     1
102
RTVSPropertyOp45
 70
     1
102
RTVSPropertyOp46
 70
     1
102
RTVSPropertyOp47
 70
     1
102
RTVSPropertyOp48
 70
     1
102
RTVSPropertyOp49
 70
     1
102
RTVSPropertyOp50
 70
     1
102
RTVSPropertyOp51
 70
     0
102
RTVSPropertyOp52
 70
     0
102
RTVSPropertyOp53
 70
     1
102
RTVSPropertyOp54
 70
     1
102
RTVSPropertyOp55
 70
     1
102
RTVSPropertyOp56
 70
     1
102
RTVSPropertyOp57
 70
     1
102
RTVSPost2010Prop28
280
     0
102
RTVSPost2010PropOp28
 70
     1
102
RTVSPost2010Prop29
280
     1
102
RTVSPost2010PropOp29
 70
     1
102
RTVSPost2010Prop30
280
     1
102
RTVSPost2010PropOp30
 70
     1
102
RTVSPost2010Prop31
280
     0
102
RTVSPost2010PropOp31
 70
     1
102
RTVSPost2010Prop32
280
     0
102
RTVSPost2010PropOp32
 70
     1
102
RTVSPost2010Prop33
280
     0
102
RTVSPost2010PropOp33
 70
     1
102
RTVSPost2010Prop34
280
     0
102
RTVSPost2010PropOp34
 70
     1
102
RTVSPost2010Prop35
280
     0
102
RTVSPost2010PropOp35
 70
     1
102
RTVSPost2010Prop36
280
     0
102
RTVSPost2010PropOp36
 70
     1
102
RTVSPost2010Prop37
 90
       50
102
RTVSPost2010PropOp37
 70
     1
102
RTVSPost2010Prop38
140
0.0
102
RTVSPost2010PropOp38
 70
     1
102
RTVSPost2010Prop39
140
1.0
102
RTVSPost2010PropOp39
 70
     1
102
RTVSPost2010Prop40
 90
        0
102
RTVSPost2010PropOp40
 70
     1
102
RTVSPost2010Prop41ColorIndex
 90
       18
102
RTVSPost2010Prop41ColorRGB
 90
        0
102
RTVSPost2010PropOp41
 70
     1
102
RTVSPost2010Prop42
 90
       50
102
RTVSPost2010PropOp42
 70
     1
102
RTVSPost2010Prop43
 90
        3
102
RTVSPost2010PropOp43
 70
     1
102
RTVSPost2010Prop44ColorIndex
 90
        5
102
RTVSPost2010Prop44ColorRGB
 90
      255
102
RTVSPost2010PropOp44
 70
     1
102
RTVSPost2010Prop45
280
     0
102
RTVSPost2010PropOp45
 70
     1
102
RTVSPost2010Prop46
 90
       50
102
RTVSPost2010PropOp46
 70
     1
102
RTVSPost2010Prop47
 90
       50
102
RTVSPost2010PropOp47
 70
     1
102
RTVSPost2010Prop48
 90
       50
102
RTVSPost2010PropOp48
 70
     1
102
RTVSPost2010Prop49
280
     0
102
RTVSPost2010PropOp49
 70
     1
102
RTVSPost2010Prop50
 90
       50
102
RTVSPost2010PropOp50
 70
     1
102
RTVSPost2010Prop51ColorIndex
 90
      256
102
RTVSPost2010Prop51ColorRGB
 90
-16777216
102
RTVSPost2010PropOp51
 70
     0
102
RTVSPost2010Prop52
140
1.0
102
RTVSPost2010PropOp52
 70
     0
102
RTVSPost2010Prop53
 90
        2
102
RTVSPost2010PropOp53
 70
     1
102
RTVSPost2010Prop54
  1
strokes_ogs.tif
102
RTVSPost2010PropOp54
 70
     1
102
RTVSPost2010Prop55
280
     0
102
RTVSPost2010PropOp55
 70
     1
102
RTVSPost2010Prop56
140
1.0
102
RTVSPost2010PropOp56
 70
     1
102
RTVSPost2010Prop57
140
1.0
102
RTVSPost2010PropOp57
 70
     1
  0
XRECORD
  5
183
102
{ACAD_REACTORS
330
182
102
}
330
182
100
AcDbXrecord
280
     1
102
RTVSPropertyOp0
 70
     1
102
RTVSPropertyOp1
 70
     1
102
RTVSPropertyOp2
 70
     1
102
RTVSPropertyOp3
 70
     1
102
RTVSPropertyOp4
 70
     1
102
RTVSPropertyOp5
 70
     1
102
RTVSPropertyOp6
 70
     1
102
RTVSPropertyOp7
 70
     1
102
RTVSPropertyOp8
 70
     1
102
RTVSPropertyOp9
 70
     1
102
RTVSPropertyOp10
 70
     1
102
RTVSPropertyOp11
 70
     1
102
RTVSPropertyOp12
 70
     1
102
RTVSPropertyOp13
 70
     1
102
RTVSPropertyOp14
 70
     1
102
RTVSPropertyOp15
 70
     1
102
RTVSPropertyOp16
 70
     1
102
RTVSPropertyOp17
 70
     1
102
RTVSPropertyOp18
 70
     1
102
RTVSPropertyOp19
 70
     1
102
RTVSPropertyOp20
 70
     1
102
RTVSPropertyOp21
 70
     1
102
RTVSPropertyOp22
 70
     1
102
RTVSPropertyOp23
 70
     1
102
RTVSPropertyOp24
 70
     1
102
RTVSPropertyOp25
 70
     1
102
RTVSPropertyOp26
 70
     1
102
RTVSPropertyOp27
 70
     1
102
RTVSPropertyOp28
 70
     1
102
RTVSPropertyOp29
 70
     1
102
RTVSPropertyOp30
 70
     1
102
RTVSPropertyOp31
 70
     1
102
RTVSPropertyOp32
 70
     1
102
RTVSPropertyOp33
 70
     1
102
RTVSPropertyOp34
 70
     1
102
RTVSPropertyOp35
 70
     1
102
RTVSPropertyOp36
 70
     1
102
RTVSPropertyOp37
 70
     1
102
RTVSPropertyOp38
 70
     1
102
RTVSPropertyOp39
 70
     1
102
RTVSPropertyOp40
 70
     1
102
RTVSPropertyOp41
 70
     1
102
RTVSPropertyOp42
 70
     1
102
RTVSPropertyOp43
 70
     1
102
RTVSPropertyOp44
 70
     1
102
RTVSPropertyOp45
 70
     1
102
RTVSPropertyOp46
 70
     1
102
RTVSPropertyOp47
 70
     1
102
RTVSPropertyOp48
 70
     1
102
RTVSPropertyOp49
 70
     1
102
RTVSPropertyOp50
 70
     1
102
RTVSPropertyOp51
 70
     0
102
RTVSPropertyOp52
 70
     0
102
RTVSPropertyOp53
 70
     1
102
RTVSPropertyOp54
 70
     1
102
RTVSPropertyOp55
 70
     1
102
RTVSPropertyOp56
 70
     1
102
RTVSPropertyOp57
 70
     1
102
RTVSPost2010Prop28
280
     0
102
RTVSPost2010PropOp28
 70
     1
102
RTVSPost2010Prop29
280
     1
102
RTVSPost2010PropOp29
 70
     1
102
RTVSPost2010Prop30
280
     1
102
RTVSPost2010PropOp30
 70
     1
102
RTVSPost2010Prop31
280
     0
102
RTVSPost2010PropOp31
 70
     1
102
RTVSPost2010Prop32
280
     0
102
RTVSPost2010PropOp32
 70
     1
102
RTVSPost2010Prop33
280
     0
102
RTVSPost2010PropOp33
 70
     1
102
RTVSPost2010Prop34
280
     0
102
RTVSPost2010PropOp34
 70
     1
102
RTVSPost2010Prop35
280
     0
102
RTVSPost2010PropOp35
 70
     1
102
RTVSPost2010Prop36
280
     0
102
RTVSPost2010PropOp36
 70
     1
102
RTVSPost2010Prop37
 90
       50
102
RTVSPost2010PropOp37
 70
     1
102
RTVSPost2010Prop38
140
0.0
102
RTVSPost2010PropOp38
 70
     1
102
RTVSPost2010Prop39
140
1.0
102
RTVSPost2010PropOp39
 70
     1
102
RTVSPost2010Prop40
 90
        0
102
RTVSPost2010PropOp40
 70
     1
102
RTVSPost2010Prop41ColorIndex
 90
       18
102
RTVSPost2010Prop41ColorRGB
 90
        0
102
RTVSPost2010PropOp41
 70
     1
102
RTVSPost2010Prop42
 90
       50
102
RTVSPost2010PropOp42
 70
     1
102
RTVSPost2010Prop43
 90
        3
102
RTVSPost2010PropOp43
 70
     1
102
RTVSPost2010Prop44ColorIndex
 90
        5
102
RTVSPost2010Prop44ColorRGB
 90
      255
102
RTVSPost2010PropOp44
 70
     1
102
RTVSPost2010Prop45
280
     0
102
RTVSPost2010PropOp45
 70
     1
102
RTVSPost2010Prop46
 90
       50
102
RTVSPost2010PropOp46
 70
     1
102
RTVSPost2010Prop47
 90
       50
102
RTVSPost2010PropOp47
 70
     1
102
RTVSPost2010Prop48
 90
       50
102
RTVSPost2010PropOp48
 70
     1
102
RTVSPost2010Prop49
280
     0
102
RTVSPost2010PropOp49
 70
     1
102
RTVSPost2010Prop50
 90
       50
102
RTVSPost2010PropOp50
 70
     1
102
RTVSPost2010Prop51ColorIndex
 90
      256
102
RTVSPost2010Prop51ColorRGB
 90
-16777216
102
RTVSPost2010PropOp51
 70
     0
102
RTVSPost2010Prop52
140
1.0
102
RTVSPost2010PropOp52
 70
     0
102
RTVSPost2010Prop53
 90
        2
102
RTVSPost2010PropOp53
 70
     1
102
RTVSPost2010Prop54
  1
strokes_ogs.tif
102
RTVSPost2010PropOp54
 70
     1
102
RTVSPost2010Prop55
280
     0
102
RTVSPost2010PropOp55
 70
     1
102
RTVSPost2010Prop56
140
1.0
102
RTVSPost2010PropOp56
 70
     1
102
RTVSPost2010Prop57
140
1.0
102
RTVSPost2010PropOp57
 70
     1
  0
XRECORD
  5
1A3
102
{ACAD_REACTORS
330
1A2
102
}
330
1A2
100
AcDbXrecord
280
     1
102
RTVSPropertyOp0
 70
     1
102
RTVSPropertyOp1
 70
     1
102
RTVSPropertyOp2
 70
     1
102
RTVSPropertyOp3
 70
     1
102
RTVSPropertyOp4
 70
     1
102
RTVSPropertyOp5
 70
     1
102
RTVSPropertyOp6
 70
     1
102
RTVSPropertyOp7
 70
     1
102
RTVSPropertyOp8
 70
     1
102
RTVSPropertyOp9
 70
     1
102
RTVSPropertyOp10
 70
     1
102
RTVSPropertyOp11
 70
     1
102
RTVSPropertyOp12
 70
     1
102
RTVSPropertyOp13
 70
     1
102
RTVSPropertyOp14
 70
     1
102
RTVSPropertyOp15
 70
     1
102
RTVSPropertyOp16
 70
     1
102
RTVSPropertyOp17
 70
     1
102
RTVSPropertyOp18
 70
     1
102
RTVSPropertyOp19
 70
     1
102
RTVSPropertyOp20
 70
     1
102
RTVSPropertyOp21
 70
     1
102
RTVSPropertyOp22
 70
     1
102
RTVSPropertyOp23
 70
     1
102
RTVSPropertyOp24
 70
     1
102
RTVSPropertyOp25
 70
     1
102
RTVSPropertyOp26
 70
     1
102
RTVSPropertyOp27
 70
     1
102
RTVSPropertyOp28
 70
     1
102
RTVSPropertyOp29
 70
     1
102
RTVSPropertyOp30
 70
     1
102
RTVSPropertyOp31
 70
     1
102
RTVSPropertyOp32
 70
     1
102
RTVSPropertyOp33
 70
     1
102
RTVSPropertyOp34
 70
     1
102
RTVSPropertyOp35
 70
     1
102
RTVSPropertyOp36
 70
     1
102
RTVSPropertyOp37
 70
     1
102
RTVSPropertyOp38
 70
     1
102
RTVSPropertyOp39
 70
     1
102
RTVSPropertyOp40
 70
     1
102
RTVSPropertyOp41
 70
     1
102
RTVSPropertyOp42
 70
     1
102
RTVSPropertyOp43
 70
     1
102
RTVSPropertyOp44
 70
     1
102
RTVSPropertyOp45
 70
     1
102
RTVSPropertyOp46
 70
     1
102
RTVSPropertyOp47
 70
     1
102
RTVSPropertyOp48
 70
     1
102
RTVSPropertyOp49
 70
     1
102
RTVSPropertyOp50
 70
     1
102
RTVSPropertyOp51
 70
     0
102
RTVSPropertyOp52
 70
     0
102
RTVSPropertyOp53
 70
     1
102
RTVSPropertyOp54
 70
     1
102
RTVSPropertyOp55
 70
     1
102
RTVSPropertyOp56
 70
     1
102
RTVSPropertyOp57
 70
     1
102
RTVSPost2010Prop28
280
     0
102
RTVSPost2010PropOp28
 70
     1
102
RTVSPost2010Prop29
280
     1
102
RTVSPost2010PropOp29
 70
     1
102
RTVSPost2010Prop30
280
     1
102
RTVSPost2010PropOp30
 70
     1
102
RTVSPost2010Prop31
280
     0
102
RTVSPost2010PropOp31
 70
     1
102
RTVSPost2010Prop32
280
     0
102
RTVSPost2010PropOp32
 70
     1
102
RTVSPost2010Prop33
280
     0
102
RTVSPost2010PropOp33
 70
     1
102
RTVSPost2010Prop34
280
     0
102
RTVSPost2010PropOp34
 70
     1
102
RTVSPost2010Prop35
280
     0
102
RTVSPost2010PropOp35
 70
     1
102
RTVSPost2010Prop36
280
     0
102
RTVSPost2010PropOp36
 70
     1
102
RTVSPost2010Prop37
 90
       50
102
RTVSPost2010PropOp37
 70
     1
102
RTVSPost2010Prop38
140
0.0
102
RTVSPost2010PropOp38
 70
     1
102
RTVSPost2010Prop39
140
1.0
102
RTVSPost2010PropOp39
 70
     1
102
RTVSPost2010Prop40
 90
        0
102
RTVSPost2010PropOp40
 70
     1
102
RTVSPost2010Prop41ColorIndex
 90
       18
102
RTVSPost2010Prop41ColorRGB
 90
        0
102
RTVSPost2010PropOp41
 70
     1
102
RTVSPost2010Prop42
 90
       50
102
RTVSPost2010PropOp42
 70
     1
102
RTVSPost2010Prop43
 90
        3
102
RTVSPost2010PropOp43
 70
     1
102
RTVSPost2010Prop44ColorIndex
 90
        5
102
RTVSPost2010Prop44ColorRGB
 90
      255
102
RTVSPost2010PropOp44
 70
     1
102
RTVSPost2010Prop45
280
     0
102
RTVSPost2010PropOp45
 70
     1
102
RTVSPost2010Prop46
 90
       50
102
RTVSPost2010PropOp46
 70
     1
102
RTVSPost2010Prop47
 90
       50
102
RTVSPost2010PropOp47
 70
     1
102
RTVSPost2010Prop48
 90
       50
102
RTVSPost2010PropOp48
 70
     1
102
RTVSPost2010Prop49
280
     0
102
RTVSPost2010PropOp49
 70
     1
102
RTVSPost2010Prop50
 90
       50
102
RTVSPost2010PropOp50
 70
     1
102
RTVSPost2010Prop51ColorIndex
 90
      256
102
RTVSPost2010Prop51ColorRGB
 90
-16777216
102
RTVSPost2010PropOp51
 70
     0
102
RTVSPost2010Prop52
140
1.0
102
RTVSPost2010PropOp52
 70
     0
102
RTVSPost2010Prop53
 90
        2
102
RTVSPost2010PropOp53
 70
     1
102
RTVSPost2010Prop54
  1
strokes_ogs.tif
102
RTVSPost2010PropOp54
 70
     1
102
RTVSPost2010Prop55
280
     0
102
RTVSPost2010PropOp55
 70
     1
102
RTVSPost2010Prop56
140
1.0
102
RTVSPost2010PropOp56
 70
     1
102
RTVSPost2010Prop57
140
1.0
102
RTVSPost2010PropOp57
 70
     1
  0
ENDSEC
  0
EOF
