  0
SECTION
  2
HEADER
  9
$ACADVER
  1
AC1018
  9
$ACADMAINTVER
 70
     0
  9
$DWGCODEPAGE
  3
ANSI_936
  9
$INSBASE
 10
0.0
 20
0.0
 30
0.0
  9
$EXTMIN
 10
1.000000000000000E+20
 20
1.000000000000000E+20
 30
1.000000000000000E+20
  9
$EXTMAX
 10
-1.000000000000000E+20
 20
-1.000000000000000E+20
 30
-1.000000000000000E+20
  9
$LIMMIN
 10
0.0
 20
0.0
  9
$LIMMAX
 10
12.0
 20
9.0
  9
$ORTHOMODE
 70
     0
  9
$REGENMODE
 70
     1
  9
$FILLMODE
 70
     1
  9
$QTEXTMODE
 70
     0
  9
$MIRRTEXT
 70
     1
  9
$LTSCALE
 40
1.0
  9
$ATTMODE
 70
     1
  9
$TEXTSIZE
 40
0.2
  9
$TRACEWID
 40
0.05
  9
$TEXTSTYLE
  7
Standard
  9
$CLAYER
  8
Ceramic
  9
$CELTYPE
  6
ByLayer
  9
$CECOLOR
 62
   256
  9
$CELTSCALE
 40
1.0
  9
$DISPSILH
 70
     0
  9
$DIMSCALE
 40
1.0
  9
$DIMASZ
 40
0.18
  9
$DIMEXO
 40
0.0625
  9
$DIMDLI
 40
0.38
  9
$DIMRND
 40
0.0
  9
$DIMDLE
 40
0.0
  9
$DIMEXE
 40
0.18
  9
$DIMTP
 40
0.0
  9
$DIMTM
 40
0.0
  9
$DIMTXT
 40
0.18
  9
$DIMCEN
 40
0.09
  9
$DIMTSZ
 40
0.0
  9
$DIMTOL
 70
     0
  9
$DIMLIM
 70
     0
  9
$DIMTIH
 70
     1
  9
$DIMTOH
 70
     1
  9
$DIMSE1
 70
     0
  9
$DIMSE2
 70
     0
  9
$DIMTAD
 70
     0
  9
$DIMZIN
 70
     0
  9
$DIMBLK
  1

  9
$DIMASO
 70
     1
  9
$DIMSHO
 70
     1
  9
$DIMPOST
  1

  9
$DIMAPOST
  1

  9
$DIMALT
 70
     0
  9
$DIMALTD
 70
     2
  9
$DIMALTF
 40
25.4
  9
$DIMLFAC
 40
1.0
  9
$DIMTOFL
 70
     0
  9
$DIMTVP
 40
0.0
  9
$DIMTIX
 70
     0
  9
$DIMSOXD
 70
     0
  9
$DIMSAH
 70
     0
  9
$DIMBLK1
  1

  9
$DIMBLK2
  1

  9
$DIMSTYLE
  2
STANDARD_ACAD
  9
$DIMCLRD
 70
     0
  9
$DIMCLRE
 70
     0
  9
$DIMCLRT
 70
     0
  9
$DIMTFAC
 40
1.0
  9
$DIMGAP
 40
0.09
  9
$DIMJUST
 70
     0
  9
$DIMSD1
 70
     0
  9
$DIMSD2
 70
     0
  9
$DIMTOLJ
 70
     1
  9
$DIMTZIN
 70
     0
  9
$DIMALTZ
 70
     0
  9
$DIMALTTZ
 70
     0
  9
$DIMUPT
 70
     0
  9
$DIMDEC
 70
     4
  9
$DIMTDEC
 70
     4
  9
$DIMALTU
 70
     2
  9
$DIMALTTD
 70
     2
  9
$DIMTXSTY
  7
Standard
  9
$DIMAUNIT
 70
     0
  9
$DIMADEC
 70
     0
  9
$DIMALTRND
 40
0.0
  9
$DIMAZIN
 70
     0
  9
$DIMDSEP
 70
    46
  9
$DIMATFIT
 70
     3
  9
$DIMFRAC
 70
     0
  9
$DIMLDRBLK
  1

  9
$DIMLUNIT
 70
     2
  9
$DIMLWD
 70
    -2
  9
$DIMLWE
 70
    -2
  9
$DIMTMOVE
 70
     2
  9
$LUNITS
 70
     2
  9
$LUPREC
 70
     3
  9
$SKETCHINC
 40
0.1
  9
$FILLETRAD
 40
0.5
  9
$AUNITS
 70
     0
  9
$AUPREC
 70
     0
  9
$MENU
  1
.
  9
$ELEVATION
 40
0.0
  9
$PELEVATION
 40
0.0
  9
$THICKNESS
 40
0.0
  9
$LIMCHECK
 70
     0
  9
$CHAMFERA
 40
0.0
  9
$CHAMFERB
 40
0.0
  9
$CHAMFERC
 40
0.0
  9
$CHAMFERD
 40
0.0
  9
$SKPOLY
 70
     0
  9
$TDCREATE
 40
2458553.73269691
  9
$TDUCREATE
 40
2458553.399363576
  9
$TDUPDATE
 40
2458553.732696944
  9
$TDUUPDATE
 40
2458553.399363611
  9
$TDINDWG
 40
0.0000000116
  9
$TDUSRTIMER
 40
0.0000000116
  9
$USRTIMER
 70
     1
  9
$ANGBASE
 50
0.0
  9
$ANGDIR
 70
     0
  9
$PDMODE
 70
     0
  9
$PDSIZE
 40
0.0
  9
$PLINEWID
 40
0.0
  9
$SPLFRAME
 70
     0
  9
$SPLINETYPE
 70
     6
  9
$SPLINESEGS
 70
     8
  9
$HANDSEED
  5
142
  9
$SURFTAB1
 70
     6
  9
$SURFTAB2
 70
     6
  9
$SURFTYPE
 70
     6
  9
$SURFU
 70
     6
  9
$SURFV
 70
     6
  9
$UCSBASE
  2

  9
$UCSNAME
  2

  9
$UCSORG
 10
0.0
 20
0.0
 30
0.0
  9
$UCSXDIR
 10
1.0
 20
0.0
 30
0.0
  9
$UCSYDIR
 10
0.0
 20
1.0
 30
0.0
  9
$UCSORTHOREF
  2

  9
$UCSORTHOVIEW
 70
     0
  9
$UCSORGTOP
 10
0.0
 20
0.0
 30
0.0
  9
$UCSORGBOTTOM
 10
0.0
 20
0.0
 30
0.0
  9
$UCSORGLEFT
 10
0.0
 20
0.0
 30
0.0
  9
$UCSORGRIGHT
 10
0.0
 20
0.0
 30
0.0
  9
$UCSORGFRONT
 10
0.0
 20
0.0
 30
0.0
  9
$UCSORGBACK
 10
0.0
 20
0.0
 30
0.0
  9
$PUCSBASE
  2

  9
$PUCSNAME
  2

  9
$PUCSORG
 10
0.0
 20
0.0
 30
0.0
  9
$PUCSXDIR
 10
1.0
 20
0.0
 30
0.0
  9
$PUCSYDIR
 10
0.0
 20
1.0
 30
0.0
  9
$PUCSORTHOREF
  2

  9
$PUCSORTHOVIEW
 70
     0
  9
$PUCSORGTOP
 10
0.0
 20
0.0
 30
0.0
  9
$PUCSORGBOTTOM
 10
0.0
 20
0.0
 30
0.0
  9
$PUCSORGLEFT
 10
0.0
 20
0.0
 30
0.0
  9
$PUCSORGRIGHT
 10
0.0
 20
0.0
 30
0.0
  9
$PUCSORGFRONT
 10
0.0
 20
0.0
 30
0.0
  9
$PUCSORGBACK
 10
0.0
 20
0.0
 30
0.0
  9
$USERI1
 70
     0
  9
$USERI2
 70
     0
  9
$USERI3
 70
     0
  9
$USERI4
 70
     0
  9
$USERI5
 70
     0
  9
$USERR1
 40
0.0
  9
$USERR2
 40
0.0
  9
$USERR3
 40
0.0
  9
$USERR4
 40
0.0
  9
$USERR5
 40
0.0
  9
$WORLDVIEW
 70
     1
  9
$SHADEDGE
 70
     3
  9
$SHADEDIF
 70
    70
  9
$TILEMODE
 70
     1
  9
$MAXACTVP
 70
    64
  9
$PINSBASE
 10
0.0
 20
0.0
 30
0.0
  9
$PLIMCHECK
 70
     0
  9
$PEXTMIN
 10
1.000000000000000E+20
 20
1.000000000000000E+20
 30
1.000000000000000E+20
  9
$PEXTMAX
 10
-1.000000000000000E+20
 20
-1.000000000000000E+20
 30
-1.000000000000000E+20
  9
$PLIMMIN
 10
0.0
 20
0.0
  9
$PLIMMAX
 10
12.0
 20
9.0
  9
$UNITMODE
 70
     0
  9
$VISRETAIN
 70
     1
  9
$PLINEGEN
 70
     0
  9
$PSLTSCALE
 70
     1
  9
$TREEDEPTH
 70
  3020
  9
$CMLSTYLE
  2
Standard
  9
$CMLJUST
 70
     0
  9
$CMLSCALE
 40
1.0
  9
$PROXYGRAPHICS
 70
     1
  9
$MEASUREMENT
 70
     0
  9
$CELWEIGHT
370
    -1
  9
$ENDCAPS
280
     0
  9
$JOINSTYLE
280
     0
  9
$LWDISPLAY
290
     0
  9
$INSUNITS
 70
     4
  9
$HYPERLINKBASE
  1

  9
$STYLESHEET
  1

  9
$XEDIT
290
     1
  9
$CEPSNTYPE
380
     0
  9
$PSTYLEMODE
290
     1
  9
$FINGERPRINTGUID
  2
{1d289d84-82da-45c5-8a08-a4f969abb30a}
  9
$VERSIONGUID
  2
{FAEB1C32-E019-11D5-929B-00C0DF256EC4}
  9
$EXTNAMES
290
     1
  9
$PSVPSCALE
 40
0.0
  9
$OLESTARTUP
290
     0
  9
$SORTENTS
280
   127
  9
$INDEXCTL
280
     0
  9
$HIDETEXT
280
     1
  9
$XCLIPFRAME
290
     0
  9
$HALOGAP
280
     0
  9
$OBSCOLOR
 70
   257
  9
$OBSLTYPE
280
     0
  9
$INTERSECTIONDISPLAY
280
     0
  9
$INTERSECTIONCOLOR
 70
   257
  9
$DIMASSOC
280
     2
  9
$PROJECTNAME
  1

  0
ENDSEC
  0
SECTION
  2
CLASSES
  0
CLASS
  1
ACDBDICTIONARYWDFLT
  2
AcDbDictionaryWithDefault
  3
ObjectDBX Classes
 90
        0
 91
        3
280
     0
281
     0
  0
CLASS
  1
VISUALSTYLE
  2
AcDbVisualStyle
  3
ObjectDBX Classes
 90
     4095
 91
        3
280
     0
281
     0
  0
CLASS
  1
MATERIAL
  2
AcDbMaterial
  3
ObjectDBX Classes
 90
     1153
 91
        3
280
     0
281
     0
  0
CLASS
  1
SCALE
  2
AcDbScale
  3
ObjectDBX Classes
 90
     1153
 91
        3
280
     0
281
     0
  0
CLASS
  1
TABLESTYLE
  2
AcDbTableStyle
  3
ObjectDBX Classes
 90
     4095
 91
        3
280
     0
281
     0
  0
CLASS
  1
MLEADERSTYLE
  2
AcDbMLeaderStyle
  3
ACDB_MLEADERSTYLE_CLASS
 90
     4095
 91
        3
280
     0
281
     0
  0
CLASS
  1
SUN
  2
AcDbSun
  3
SCENEOE
 90
     1153
 91
        3
280
     0
281
     0
  0
CLASS
  1
DICTIONARYVAR
  2
AcDbDictionaryVar
  3
ObjectDBX Classes
 90
        0
 91
        3
280
     0
281
     0
  0
CLASS
  1
CELLSTYLEMAP
  2
AcDbCellStyleMap
  3
ObjectDBX Classes
 90
     1152
 91
        3
280
     0
281
     0
  0
ENDSEC
  0
SECTION
  2
TABLES
  0
TABLE
  2
VPORT
  5
8
102
{ACAD_XDICTIONARY
360
FB
102
}
330
0
100
AcDbSymbolTable
 70
     1
  0
VPORT
  5
29
330
8
100
AcDbSymbolTableRecord
100
AcDbViewportTableRecord
  2
*Active
 70
     0
 10
0.0
 20
0.0
 11
1.0
 21
1.0
 12
10.42990654205607
 22
4.5
 13
0.0
 23
0.0
 14
0.5
 24
0.5
 15
0.5
 25
0.5
 16
0.0
 26
0.0
 36
1.0
 17
0.0
 27
0.0
 37
0.0
 40
9.0
 41
1.972972972850329
 42
50.0
 43
0.0
 44
0.0
 50
0.0
 51
0.0
 71
     0
 72
   100
 73
     1
 74
     3
 75
     0
 76
     0
 77
     0
 78
     0
281
     0
 65
     1
110
0.0
120
0.0
130
0.0
111
1.0
121
0.0
131
0.0
112
0.0
122
1.0
132
0.0
 79
     0
146
0.0
  0
ENDTAB
  0
TABLE
  2
LTYPE
  5
5
330
0
100
AcDbSymbolTable
 70
     1
  0
LTYPE
  5
14
330
5
100
AcDbSymbolTableRecord
100
AcDbLinetypeTableRecord
  2
ByBlock
 70
     0
  3

 72
    65
 73
     0
 40
0.0
  0
LTYPE
  5
15
330
5
100
AcDbSymbolTableRecord
100
AcDbLinetypeTableRecord
  2
ByLayer
 70
     0
  3

 72
    65
 73
     0
 40
0.0
  0
LTYPE
  5
16
330
5
100
AcDbSymbolTableRecord
100
AcDbLinetypeTableRecord
  2
Continuous
 70
     0
  3
Solid line
 72
    65
 73
     0
 40
0.0
  0
ENDTAB
  0
TABLE
  2
LAYER
  5
2
330
0
100
AcDbSymbolTable
 70
     3
  0
LAYER
  5
10
330
2
100
AcDbSymbolTableRecord
100
AcDbLayerTableRecord
  2
0
 70
     0
 62
     7
  6
Continuous
370
    -3
390
F
  0
LAYER
  5
6E
330
2
100
AcDbSymbolTableRecord
100
AcDbLayerTableRecord
  2
Make2D$Visible$Curves
 70
     0
 62
    18
420
        0
  6
Continuous
370
    -3
390
F
  0
LAYER
  5
F9
330
2
100
AcDbSymbolTableRecord
100
AcDbLayerTableRecord
  2
Ceramic
 70
     0
 62
    18
420
        0
  6
Continuous
370
    -3
390
F
  0
ENDTAB
  0
TABLE
  2
STYLE
  5
3
330
0
100
AcDbSymbolTable
 70
     1
  0
STYLE
  5
11
330
3
100
AcDbSymbolTableRecord
100
AcDbTextStyleTableRecord
  2
Standard
 70
     0
 40
0.0
 41
1.0
 50
0.0
 71
     0
 42
0.2
  3
txt
  4

  0
ENDTAB
  0
TABLE
  2
VIEW
  5
6
330
0
100
AcDbSymbolTable
 70
     0
  0
ENDTAB
  0
TABLE
  2
UCS
  5
7
330
0
100
AcDbSymbolTable
 70
     0
  0
ENDTAB
  0
TABLE
  2
APPID
  5
9
330
0
100
AcDbSymbolTable
 70
     2
  0
APPID
  5
12
330
9
100
AcDbSymbolTableRecord
100
AcDbRegAppTableRecord
  2
ACAD
 70
     0
  0
APPID
  5
13A
330
9
100
AcDbSymbolTableRecord
100
AcDbRegAppTableRecord
  2
ACAD_MLEADERVER
 70
     0
  0
ENDTAB
  0
TABLE
  2
DIMSTYLE
  5
A
330
0
100
AcDbSymbolTable
 70
     1
100
AcDbDimStyleTable
  0
DIMSTYLE
105
27
330
A
100
AcDbSymbolTableRecord
100
AcDbDimStyleTableRecord
  2
STANDARD_ACAD
 70
     0
178
     0
340
11
  0
ENDTAB
  0
TABLE
  2
BLOCK_RECORD
  5
1
330
0
100
AcDbSymbolTable
 70
     1
  0
BLOCK_RECORD
  5
1F
330
1
100
AcDbSymbolTableRecord
100
AcDbBlockTableRecord
  2
*Model_Space
340
22
  0
BLOCK_RECORD
  5
1B
330
1
100
AcDbSymbolTableRecord
100
AcDbBlockTableRecord
  2
*Paper_Space
340
1E
  0
BLOCK_RECORD
  5
23
330
1
100
AcDbSymbolTableRecord
100
AcDbBlockTableRecord
  2
*Paper_Space0
340
26
  0
ENDTAB
  0
ENDSEC
  0
SECTION
  2
BLOCKS
  0
BLOCK
  5
20
330
1F
100
AcDbEntity
  8
0
100
AcDbBlockBegin
  2
*Model_Space
 70
     0
 10
0.0
 20
0.0
 30
0.0
  3
*Model_Space
  1

  0
ENDBLK
  5
21
330
1F
100
AcDbEntity
  8
0
100
AcDbBlockEnd
  0
BLOCK
  5
1C
330
1B
100
AcDbEntity
 67
     1
  8
0
100
AcDbBlockBegin
  2
*Paper_Space
 70
     0
 10
0.0
 20
0.0
 30
0.0
  3
*Paper_Space
  1

  0
ENDBLK
  5
1D
330
1B
100
AcDbEntity
 67
     1
  8
0
100
AcDbBlockEnd
  0
BLOCK
  5
24
330
23
100
AcDbEntity
  8
0
100
AcDbBlockBegin
  2
*Paper_Space0
 70
     0
 10
0.0
 20
0.0
 30
0.0
  3
*Paper_Space0
  1

  0
ENDBLK
  5
25
330
23
100
AcDbEntity
  8
0
100
AcDbBlockEnd
  0
ENDSEC
  0
SECTION
  2
ENTITIES
  0
SPLINE
  5
6F
330
1F
100
AcDbEntity
  8
Make2D$Visible$Curves
 62
    18
420
        0
370
    -3
100
AcDbSpline
210
0.0
220
0.0
230
1.0
 70
     8
 71
     3
 72
    86
 73
    82
 74
     0
 42
0.000000001
 43
0.0000000001
 40
2.487489521445804
 40
2.487489521445804
 40
2.487489521445804
 40
2.487489521445804
 40
18.62863823386333
 40
18.62863823386333
 40
18.62863823386333
 40
34.12026626658829
 40
34.12026626658829
 40
34.12026626658829
 40
47.93822430663447
 40
47.93822430663447
 40
47.93822430663447
 40
60.34826523674735
 40
60.34826523674735
 40
60.34826523674735
 40
71.61594685326216
 40
71.61594685326216
 40
71.61594685326216
 40
82.00676350507646
 40
82.00676350507646
 40
82.00676350507646
 40
91.78620054259245
 40
91.78620054259245
 40
91.78620054259245
 40
101.2197562666279
 40
101.2197562666279
 40
101.2197562666279
 40
110.535527632959
 40
110.535527632959
 40
110.535527632959
 40
119.7436641038506
 40
119.7436641038506
 40
119.7436641038506
 40
128.7840993778586
 40
128.7840993778586
 40
128.7840993778586
 40
137.6352180852994
 40
137.6352180852994
 40
137.6352180852994
 40
146.2825911145089
 40
146.2825911145089
 40
146.2825911145089
 40
154.6943348315035
 40
154.6943348315035
 40
154.6943348315035
 40
162.8496790996582
 40
162.8496790996582
 40
162.8496790996582
 40
170.7891589130189
 40
170.7891589130189
 40
170.7891589130189
 40
178.5497699733151
 40
178.5497699733151
 40
178.5497699733151
 40
186.0785466852569
 40
186.0785466852569
 40
186.0785466852569
 40
193.3352880380741
 40
193.3352880380741
 40
193.3352880380741
 40
200.4511974983964
 40
200.4511974983964
 40
200.4511974983964
 40
207.5770279521961
 40
207.5770279521961
 40
207.5770279521961
 40
214.7152225046256
 40
214.7152225046256
 40
214.7152225046256
 40
221.8371985048842
 40
221.8371985048842
 40
221.8371985048842
 40
228.990967778195
 40
228.990967778195
 40
228.990967778195
 40
236.2426230706966
 40
236.2426230706966
 40
236.2426230706966
 40
243.6580920406757
 40
243.6580920406757
 40
243.6580920406757
 40
251.3029912400286
 40
251.3029912400286
 40
251.3029912400286
 40
251.3029912400286
 10
-1373.879120164166
 20
1531.532245686948
 30
0.0
 10
-1368.498827145233
 20
1531.502218600354
 30
0.0
 10
-1363.118520999934
 20
1531.473309089163
 30
0.0
 10
-1357.738202620944
 20
1531.445629874027
 30
0.0
 10
-1352.574402167329
 20
1531.419064542089
 30
0.0
 10
-1347.410588353078
 20
1531.393632484343
 30
0.0
 10
-1342.246762234889
 20
1531.369448619491
 30
0.0
 10
-1337.64083313712
 20
1531.347877566502
 30
0.0
 10
-1333.034892722152
 20
1531.327299558088
 30
0.0
 10
-1328.428941969683
 20
1531.307805457319
 30
0.0
 10
-1324.292304308099
 20
1531.29029766452
 30
0.0
 10
-1320.155657121506
 20
1531.273664142618
 30
0.0
 10
-1316.019001310818
 20
1531.257975705852
 30
0.0
 10
-1312.263139254432
 20
1531.243731445013
 30
0.0
 10
-1308.507269241606
 20
1531.230266277245
 30
0.0
 10
-1304.751392103499
 20
1531.217635156467
 30
0.0
 10
-1301.287810222628
 20
1531.205987032885
 30
0.0
 10
-1297.824221696938
 20
1531.195048188664
 30
0.0
 10
-1294.36062730744
 20
1531.184861518955
 30
0.0
 10
-1291.100832496551
 20
1531.175274237846
 30
0.0
 10
-1287.841032125004
 20
1531.166353217037
 30
0.0
 10
-1284.58122695257
 20
1531.158132320578
 30
0.0
 10
-1281.436721207584
 20
1531.150202197525
 30
0.0
 10
-1278.292210826959
 20
1531.142923545885
 30
0.0
 10
-1275.147696586815
 20
1531.136323189441
 30
0.0
 10
-1272.04244846387
 20
1531.129805252839
 30
0.0
 10
-1268.937196625403
 20
1531.123948775252
 30
0.0
 10
-1265.831941900748
 20
1531.118773883308
 30
0.0
 10
-1262.762568569271
 20
1531.113658787532
 30
0.0
 10
-1259.6931927271
 20
1531.109209618371
 30
0.0
 10
-1256.623815237341
 20
1531.105437606727
 30
0.0
 10
-1253.610339108761
 20
1531.101734293244
 30
0.0
 10
-1250.596861992938
 20
1531.098683702272
 30
0.0
 10
-1247.583384738413
 20
1531.09628583153
 30
0.0
 10
-1244.633011357495
 20
1531.093938173523
 30
0.0
 10
-1241.682638740061
 20
1531.092216194417
 30
0.0
 10
-1238.73226767647
 20
1531.091107142805
 30
0.0
 10
-1235.849807205492
 20
1531.090023618949
 30
0.0
 10
-1232.967349381252
 20
1531.089525141531
 30
0.0
 10
-1230.08489489472
 20
1531.089585494539
 30
0.0
 10
-1227.280975709553
 20
1531.08964420317
 30
0.0
 10
-1224.477061042182
 20
1531.090231715242
 30
0.0
 10
-1221.673151446892
 20
1531.091308916168
 30
0.0
 10
-1218.954697433502
 20
1531.092353286924
 30
0.0
 10
-1216.236249641759
 20
1531.093857960049
 30
0.0
 10
-1213.517808470489
 20
1531.095772698106
 30
0.0
 10
-1210.871308340446
 20
1531.097636764384
 30
0.0
 10
-1208.224815944511
 20
1531.099889482909
 30
0.0
 10
-1205.578331532261
 20
1531.10247093751
 30
0.0
 10
-1202.991453675771
 20
1531.104994250216
 30
0.0
 10
-1200.404584825751
 20
1531.107831658488
 30
0.0
 10
-1197.817725097883
 20
1531.110915162785
 30
0.0
 10
-1195.308125135278
 20
1531.113906574413
 30
0.0
 10
-1192.798534940744
 20
1531.117129599949
 30
0.0
 10
-1190.288954520322
 20
1531.120512460284
 30
0.0
 10
-1187.8700331415
 20
1531.123773114184
 30
0.0
 10
-1185.451121750267
 20
1531.127182260344
 30
0.0
 10
-1183.03222028225
 20
1531.130668700181
 30
0.0
 10
-1180.660242852779
 20
1531.134087506905
 30
0.0
 10
-1178.28827560396
 20
1531.137580634533
 30
0.0
 10
-1175.916318436056
 20
1531.14107631209
 30
0.0
 10
-1173.541033708629
 20
1531.144576893645
 30
0.0
 10
-1171.165759474072
 20
1531.148080029661
 30
0.0
 10
-1168.790495625149
 20
1531.151510898205
 30
0.0
 10
-1166.411089278325
 20
1531.154947750238
 30
0.0
 10
-1164.031693465806
 20
1531.158312080682
 30
0.0
 10
-1161.652308108509
 20
1531.161527825502
 30
0.0
 10
-1159.278307810629
 20
1531.164736292402
 30
0.0
 10
-1156.904317761633
 20
1531.167796844764
 30
0.0
 10
-1154.530337947363
 20
1531.170634860241
 30
0.0
 10
-1152.145739680907
 20
1531.173485569731
 30
0.0
 10
-1149.761151324518
 20
1531.176111747349
 30
0.0
 10
-1147.37657296229
 20
1531.178440222544
 30
0.0
 10
-1144.959345729693
 20
1531.180800578463
 30
0.0
 10
-1142.542128094711
 20
1531.182855024832
 30
0.0
 10
-1140.124920277218
 20
1531.184531210016
 30
0.0
 10
-1137.65308820115
 20
1531.186245273768
 30
0.0
 10
-1135.181265441319
 20
1531.187563788049
 30
0.0
 10
-1132.709452399989
 20
1531.188414691994
 30
0.0
 10
-1130.161143478403
 20
1531.189291929098
 30
0.0
 10
-1127.612843592708
 20
1531.189672165677
 30
0.0
 10
-1125.064553387029
 20
1531.189483589758
 30
0.0
  0
ARC
  5
70
330
1F
100
AcDbEntity
  8
Make2D$Visible$Curves
 62
    18
420
        0
370
    -3
100
AcDbCircle
 10
873.2188215197318
 20
1530.045532733356
 30
0.0
 40
1.50000002614447
210
0.0
220
0.0
230
-1.0
100
AcDbArc
 50
89.78679006232501
 51
154.3187867239081
  0
LINE
  5
71
330
1F
100
AcDbEntity
  8
Make2D$Visible$Curves
 62
    18
420
        0
370
    -3
100
AcDbLine
 10
-960.7297210025918
 20
1391.1334556695
 30
0.0
 11
-961.7476418621075
 21
1379.295126444301
 31
0.0
  0
ARC
  5
72
330
1F
100
AcDbEntity
  8
Make2D$Visible$Curves
 62
    18
420
        0
370
    -3
100
AcDbCircle
 10
-1338.595399811179
 20
1510.125758518165
 30
0.0
 40
4.89326362711544
100
AcDbArc
 50
3.933305193377433
 51
44.61195508315181
  0
ARC
  5
73
330
1F
100
AcDbEntity
  8
Make2D$Visible$Curves
 62
    18
420
        0
370
    -3
100
AcDbCircle
 10
1321.754585993859
 20
1458.062305421604
 30
0.0
 40
7.999999999999318
210
0.0
220
0.0
230
-1.0
100
AcDbArc
 50
269.9999999999968
 51
355.7108466712577
  0
ARC
  5
74
330
1F
100
AcDbEntity
  8
Make2D$Visible$Curves
 62
    18
420
        0
370
    -3
100
AcDbCircle
 10
870.0645544419577
 20
1406.247748441804
 30
0.0
 40
2.000000000000438
210
0.0
220
0.0
230
-1.0
100
AcDbArc
 50
25.37693352676951
 51
89.99999999997394
  0
LINE
  5
75
330
1F
100
AcDbEntity
  8
Make2D$Visible$Curves
 62
    18
420
        0
370
    -3
100
AcDbLine
 10
-871.4609869643847
 20
1408.247748441843
 30
0.0
 11
-870.0646578585321
 21
1408.247748441843
 31
0.0
  0
SPLINE
  5
76
330
1F
100
AcDbEntity
  8
Make2D$Visible$Curves
 62
    18
420
        0
370
    -3
100
AcDbSpline
210
0.0
220
0.0
230
1.0
 70
     8
 71
     3
 72
    83
 73
    79
 74
     0
 42
0.000000001
 43
0.0000000001
 40
45.53078908136017
 40
45.53078908136017
 40
45.53078908136017
 40
45.53078908136017
 40
48.81670762824766
 40
48.81670762824766
 40
48.81670762824766
 40
53.70709845996357
 40
53.70709845996357
 40
53.70709845996357
 40
56.10277025121837
 40
56.10277025121837
 40
56.10277025121837
 40
58.40441737915132
 40
58.40441737915132
 40
58.40441737915132
 40
59.53883509962324
 40
59.53883509962324
 40
59.53883509962324
 40
60.60297703670416
 40
60.60297703670416
 40
60.60297703670416
 40
61.82887466877302
 40
61.82887466877302
 40
61.82887466877302
 40
63.32587852767799
 40
63.32587852767799
 40
63.32587852767799
 40
64.80525847487887
 40
64.80525847487887
 40
64.80525847487887
 40
66.17839038185303
 40
66.17839038185303
 40
66.17839038185303
 40
67.29905354006543
 40
67.29905354006543
 40
67.29905354006543
 40
68.05560308053657
 40
68.05560308053657
 40
68.05560308053657
 40
68.69445329562653
 40
68.69445329562653
 40
68.69445329562653
 40
69.35025299408966
 40
69.35025299408966
 40
69.35025299408966
 40
70.89240525050741
 40
70.89240525050741
 40
70.89240525050741
 40
72.55941940537876
 40
72.55941940537876
 40
72.55941940537876
 40
74.19629299473918
 40
74.19629299473918
 40
74.19629299473918
 40
75.87652248154042
 40
75.87652248154042
 40
75.87652248154042
 40
76.74650826854028
 40
76.74650826854028
 40
76.74650826854028
 40
77.15395772565796
 40
77.15395772565796
 40
77.15395772565796
 40
77.52930805966162
 40
77.52930805966162
 40
77.52930805966162
 40
77.90813492327364
 40
77.90813492327364
 40
77.90813492327364
 40
78.29916432948518
 40
78.29916432948518
 40
78.29916432948518
 40
78.68814209448496
 40
78.68814209448496
 40
78.68814209448496
 40
79.06952892854952
 40
79.06952892854952
 40
79.06952892854952
 40
79.27187293344413
 40
79.27187293344413
 40
79.27187293344413
 40
79.27187293344413
 10
-960.7292404650999
 20
1391.132512562017
 30
0.0
 10
-961.5986953129469
 20
1391.044529719526
 30
0.0
 10
-962.4695111683646
 20
1390.956062187179
 30
0.0
 10
-963.3416099361394
 20
1390.867067629491
 30
0.0
 10
-964.6357283000294
 20
1390.735007482585
 30
0.0
 10
-965.9233340670124
 20
1390.602733618876
 30
0.0
 10
-967.2073728690401
 20
1390.470112491585
 30
0.0
 10
-967.8356639207979
 20
1390.405219851721
 30
0.0
 10
-968.4725285392043
 20
1390.339271292885
 30
0.0
 10
-969.1117502657065
 20
1390.272739141861
 30
0.0
 10
-969.7249536579617
 20
1390.208915058589
 30
0.0
 10
-970.3435670277926
 20
1390.144218002104
 30
0.0
 10
-970.9672492689402
 20
1390.07852080816
 30
0.0
 10
-971.2735818081829
 20
1390.046252471956
 30
0.0
 10
-971.5798311612017
 20
1390.013879837996
 30
0.0
 10
-971.8862528672774
 20
1389.981373567337
 30
0.0
 10
-972.1754323632432
 20
1389.950696409752
 30
0.0
 10
-972.4668511933738
 20
1389.919688080561
 30
0.0
 10
-972.7733556632548
 20
1389.886821156578
 30
0.0
 10
-973.1084352392837
 20
1389.850890082039
 30
0.0
 10
-973.4419069290185
 20
1389.814882277629
 30
0.0
 10
-973.721416066273
 20
1389.784861520894
 30
0.0
 10
-974.077387982709
 20
1389.746628258064
 30
0.0
 10
-974.4336787647622
 20
1389.708568741115
 30
0.0
 10
-974.7776251452318
 20
1389.672119237845
 30
0.0
 10
-975.1171187519473
 20
1389.636141614498
 30
0.0
 10
-975.4664230962366
 20
1389.599428751917
 30
0.0
 10
-975.8221628085277
 20
1389.562260402772
 30
0.0
 10
-976.1536673939614
 20
1389.527624184918
 30
0.0
 10
-976.4893914011442
 20
1389.492724457985
 30
0.0
 10
-976.8270145430566
 20
1389.457783880676
 30
0.0
 10
-977.0863957251196
 20
1389.43094055414
 30
0.0
 10
-977.4102459082168
 20
1389.397578683586
 30
0.0
 10
-977.7252502052985
 20
1389.364853948004
 30
0.0
 10
-977.9407718764597
 20
1389.3424641274
 30
0.0
 10
-978.1925258320506
 20
1389.316177472883
 30
0.0
 10
-978.4374031985413
 20
1389.289958007303
 30
0.0
 10
-978.6488691333035
 20
1389.267315964563
 30
0.0
 10
-978.8359943908068
 20
1389.246791471521
 30
0.0
 10
-979.0207745222007
 20
1389.225975788336
 30
0.0
 10
-979.2131341022285
 20
1389.204306272002
 30
0.0
 10
-979.4165567847068
 20
1389.180767841277
 30
0.0
 10
-979.6372337048912
 20
1389.154725729607
 30
0.0
 10
-980.1180942258326
 20
1389.097979317824
 30
0.0
 10
-980.6735239961428
 20
1389.029911705423
 30
0.0
 10
-981.1132171076625
 20
1388.975292417073
 30
0.0
 10
-981.6293374449291
 20
1388.911179232705
 30
0.0
 10
-982.1481948674212
 20
1388.845693579061
 30
0.0
 10
-982.6706444692583
 20
1388.778536716819
 30
0.0
 10
-983.1830561893433
 20
1388.712670146769
 30
0.0
 10
-983.698943086927
 20
1388.645179068528
 30
0.0
 10
-984.2147463262705
 20
1388.57637459214
 30
0.0
 10
-984.7464257582802
 20
1388.505452344788
 30
0.0
 10
-985.2645615158557
 20
1388.434960639236
 30
0.0
 10
-985.7827598718037
 20
1388.363746760393
 30
0.0
 10
-986.050025566694
 20
1388.327017529981
 30
0.0
 10
-986.3168999585504
 20
1388.290150160542
 30
0.0
 10
-986.5842509373489
 20
1388.253056273017
 30
0.0
 10
-986.7084705274455
 20
1388.235821297764
 30
0.0
 10
-986.8387101579737
 20
1388.217719335414
 30
0.0
 10
-986.9701662376443
 20
1388.199310815137
 30
0.0
 10
-987.0937132721893
 20
1388.182009842095
 30
0.0
 10
-987.2130007822508
 20
1388.165187189295
 30
0.0
 10
-987.3375823216649
 20
1388.14745925322
 30
0.0
 10
-987.4618045480537
 20
1388.129782447339
 30
0.0
 10
-987.5847663779658
 20
1388.112129351816
 30
0.0
 10
-987.7074723133056
 20
1388.094391108929
 30
0.0
 10
-987.8328249115092
 20
1388.076270267199
 30
0.0
 10
-987.9609362062102
 20
1388.057619027838
 30
0.0
 10
-988.0853203152625
 20
1388.039395543963
 30
0.0
 10
-988.2101354203502
 20
1388.021108914969
 30
0.0
 10
-988.3356662549562
 20
1388.00260213088
 30
0.0
 10
-988.4616172673858
 20
1387.983876337797
 30
0.0
 10
-988.585068881143
 20
1387.965522143334
 30
0.0
 10
-988.7088959447093
 20
1387.946959436307
 30
0.0
 10
-988.8326544201046
 20
1387.928228146039
 30
0.0
 10
-988.8993605259658
 20
1387.918131937051
 30
0.0
 10
-988.9637008082537
 20
1387.908345346153
 30
0.0
 10
-989.0272979044156
 20
1387.89863790874
 30
0.0
  0
ARC
  5
77
330
1F
100
AcDbEntity
  8
Make2D$Visible$Curves
 62
    18
420
        0
370
    -3
100
AcDbCircle
 10
99.52851703712327
 20
-9200.016582131093
 30
0.0
 40
10644.08688701677
100
AcDbArc
 50
95.55981394395761
 51
95.71671441432784
  0
ARC
  5
78
330
1F
100
AcDbEntity
  8
Make2D$Visible$Curves
 62
    18
420
        0
370
    -3
100
AcDbCircle
 10
1371.778763904553
 20
104914.5958136375
 30
0.0
 40
103512.9790484558
210
0.0
220
0.0
230
-1.0
100
AcDbArc
 50
269.8412801219341
 51
269.9038748930575
  0
LINE
  5
79
330
1F
100
AcDbEntity
  8
Make2D$Visible$Curves
 62
    18
420
        0
370
    -3
100
AcDbLine
 10
-1221.361813305993
 20
1401.725826461051
 30
0.0
 11
-1234.321339904829
 21
1401.707450741446
 31
0.0
  0
LINE
  5
7A
330
1F
100
AcDbEntity
  8
Make2D$Visible$Curves
 62
    18
420
        0
370
    -3
100
AcDbLine
 10
-1235.192206281814
 20
1401.70617356461
 30
0.0
 11
-1271.95963045725
 21
1401.659979196282
 31
0.0
  0
LINE
  5
7B
330
1F
100
AcDbEntity
  8
Make2D$Visible$Curves
 62
    18
420
        0
370
    -3
100
AcDbLine
 10
-1058.124160014398
 20
1408.162298934305
 30
0.0
 11
-1070.975673909571
 21
1404.953138320493
 31
0.0
  0
SPLINE
  5
7C
330
1F
100
AcDbEntity
  8
Make2D$Visible$Curves
 62
    18
420
        0
370
    -3
100
AcDbSpline
210
0.0
220
0.0
230
1.0
 70
     8
 71
     3
 72
     8
 73
     4
 74
     0
 42
0.000000001
 43
0.0000000001
 40
0.4939845291362132
 40
0.4939845291362132
 40
0.4939845291362132
 40
0.4939845291362132
 40
4.984389430403372
 40
4.984389430403372
 40
4.984389430403372
 40
4.984389430403372
 10
-1282.804878938869
 20
1401.752931741862
 30
0.0
 10
-1284.478480628228
 20
1402.256273338747
 30
0.0
 10
-1285.620616934938
 20
1403.284501190983
 30
0.0
 10
-1286.185546029526
 20
1404.633352376544
 30
0.0
  0
SPLINE
  5
7D
330
1F
100
AcDbEntity
  8
Make2D$Visible$Curves
 62
    18
420
        0
370
    -3
100
AcDbSpline
210
0.0
220
0.0
230
1.0
 70
     8
 71
     3
 72
   188
 73
   184
 74
     0
 42
0.000000001
 43
0.0000000001
 40
11.39821904917811
 40
11.39821904917811
 40
11.39821904917811
 40
11.39821904917811
 40
11.76386369409899
 40
11.76386369409899
 40
11.76386369409899
 40
13.60956850991203
 40
13.60956850991203
 40
13.60956850991203
 40
15.45693931877439
 40
15.45693931877439
 40
15.45693931877439
 40
17.30585701262536
 40
17.30585701262536
 40
17.30585701262536
 40
19.15610733412529
 40
19.15610733412529
 40
19.15610733412529
 40
21.00776773560194
 40
21.00776773560194
 40
21.00776773560194
 40
22.86123049355677
 40
22.86123049355677
 40
22.86123049355677
 40
24.71702996815744
 40
24.71702996815744
 40
24.71702996815744
 40
26.57550491906574
 40
26.57550491906574
 40
26.57550491906574
 40
28.43683661426539
 40
28.43683661426539
 40
28.43683661426539
 40
30.30089276161313
 40
30.30089276161313
 40
30.30089276161313
 40
32.16749305069323
 40
32.16749305069323
 40
32.16749305069323
 40
34.03651892072714
 40
34.03651892072714
 40
34.03651892072714
 40
35.90784905972465
 40
35.90784905972465
 40
35.90784905972465
 40
37.78134947402587
 40
37.78134947402587
 40
37.78134947402587
 40
39.65688187707813
 40
39.65688187707813
 40
39.65688187707813
 40
41.53430229407739
 40
41.53430229407739
 40
41.53430229407739
 40
43.41345007739863
 40
43.41345007739863
 40
43.41345007739863
 40
45.29403952699541
 40
45.29403952699541
 40
45.29403952699541
 40
47.17615990796492
 40
47.17615990796492
 40
47.17615990796492
 40
49.06012271808201
 40
49.06012271808201
 40
49.06012271808201
 40
50.94633407153846
 40
50.94633407153846
 40
50.94633407153846
 40
52.83507201247679
 40
52.83507201247679
 40
52.83507201247679
 40
54.72629132160458
 40
54.72629132160458
 40
54.72629132160458
 40
56.61984106016111
 40
56.61984106016111
 40
56.61984106016111
 40
58.51557195145438
 40
58.51557195145438
 40
58.51557195145438
 40
60.41329818035874
 40
60.41329818035874
 40
60.41329818035874
 40
62.31287472481912
 40
62.31287472481912
 40
62.31287472481912
 40
64.21414512077678
 40
64.21414512077678
 40
64.21414512077678
 40
66.11694232441643
 40
66.11694232441643
 40
66.11694232441643
 40
68.0210781049665
 40
68.0210781049665
 40
68.0210781049665
 40
69.92631837445715
 40
69.92631837445715
 40
69.92631837445715
 40
71.83245852708333
 40
71.83245852708333
 40
71.83245852708333
 40
73.73952517063499
 40
73.73952517063499
 40
73.73952517063499
 40
75.64787139848117
 40
75.64787139848117
 40
75.64787139848117
 40
77.5578817388299
 40
77.5578817388299
 40
77.5578817388299
 40
79.46980754660697
 40
79.46980754660697
 40
79.46980754660697
 40
81.38337659287787
 40
81.38337659287787
 40
81.38337659287787
 40
83.29843445536879
 40
83.29843445536879
 40
83.29843445536879
 40
85.21481153562281
 40
85.21481153562281
 40
85.21481153562281
 40
87.13232641870643
 40
87.13232641870643
 40
87.13232641870643
 40
89.05079928150948
 40
89.05079928150948
 40
89.05079928150948
 40
90.97004963708144
 40
90.97004963708144
 40
90.97004963708144
 40
92.88987281962423
 40
92.88987281962423
 40
92.88987281962423
 40
94.8100193802879
 40
94.8100193802879
 40
94.8100193802879
 40
96.73027744116477
 40
96.73027744116477
 40
96.73027744116477
 40
98.65056889275614
 40
98.65056889275614
 40
98.65056889275614
 40
100.570890912238
 40
100.570890912238
 40
100.570890912238
 40
102.4913261180934
 40
102.4913261180934
 40
102.4913261180934
 40
104.4119099659833
 40
104.4119099659833
 40
104.4119099659833
 40
106.3325163595018
 40
106.3325163595018
 40
106.3325163595018
 40
108.252985126901
 40
108.252985126901
 40
108.252985126901
 40
110.1731248691744
 40
110.1731248691744
 40
110.1731248691744
 40
112.092698831863
 40
112.092698831863
 40
112.092698831863
 40
114.0115467066669
 40
114.0115467066669
 40
114.0115467066669
 40
115.9294954642533
 40
115.9294954642533
 40
115.9294954642533
 40
117.8462985208922
 40
117.8462985208922
 40
117.8462985208922
 40
119.7617631614189
 40
119.7617631614189
 40
119.7617631614189
 40
121.6757036272821
 40
121.6757036272821
 40
121.6757036272821
 40
123.5879113322212
 40
123.5879113322212
 40
123.5879113322212
 40
123.6694421114948
 40
123.6694421114948
 40
123.6694421114948
 40
123.6694421114948
 10
-1181.846271697506
 20
1398.32033547369
 30
0.0
 10
-1181.954813050618
 20
1398.322696559566
 30
0.0
 10
-1182.06329591896
 20
1398.325063183866
 30
0.0
 10
-1182.171719616448
 20
1398.327435331199
 30
0.0
 10
-1182.719035602103
 20
1398.3394097813
 30
0.0
 10
-1183.264903789284
 20
1398.35152627957
 30
0.0
 10
-1183.809236539228
 20
1398.363782699066
 30
0.0
 10
-1184.354074153565
 20
1398.376050486295
 30
0.0
 10
-1184.897433138643
 20
1398.388459797678
 30
0.0
 10
-1185.439226208754
 20
1398.401008346659
 30
0.0
 10
-1185.981486276347
 20
1398.413567711838
 30
0.0
 10
-1186.522237069201
 20
1398.426267929124
 30
0.0
 10
-1187.061391625764
 20
1398.439106548338
 30
0.0
 10
-1187.600947913434
 20
1398.451954733776
 30
0.0
 10
-1188.138964574648
 20
1398.464942932161
 30
0.0
 10
-1188.675355077267
 20
1398.478068516693
 30
0.0
 10
-1189.212167260315
 20
1398.491204419831
 30
0.0
 10
-1189.747409454264
 20
1398.504479362147
 30
0.0
 10
-1190.280995152217
 20
1398.51789056121
 30
0.0
 10
-1190.815113195253
 20
1398.531315140291
 30
0.0
 10
-1191.347629388698
 20
1398.544877705618
 30
0.0
 10
-1191.878458904402
 20
1398.558575183325
 30
0.0
 10
-1192.409971045674
 20
1398.572290275441
 30
0.0
 10
-1192.939849820575
 20
1398.586142113861
 30
0.0
 10
-1193.468012317712
 20
1398.600127320007
 30
0.0
 10
-1193.996949736936
 20
1398.614133045303
 30
0.0
 10
-1194.524223623896
 20
1398.628274060098
 30
0.0
 10
-1195.049751230472
 20
1398.642546805159
 30
0.0
 10
-1195.576099894565
 20
1398.656841849229
 30
0.0
 10
-1196.100754190767
 20
1398.671270593611
 30
0.0
 10
-1196.623631867074
 20
1398.685829262691
 30
0.0
 10
-1197.147287921676
 20
1398.700409604435
 30
0.0
 10
-1197.669219106088
 20
1398.715121846198
 30
0.0
 10
-1198.189343561639
 20
1398.72996199783
 30
0.0
 10
-1198.710190717557
 20
1398.744822769494
 30
0.0
 10
-1199.229282796914
 20
1398.759813423746
 30
0.0
 10
-1199.746538365739
 20
1398.774929748649
 30
0.0
 10
-1200.264478673121
 20
1398.790066084415
 30
0.0
 10
-1200.78063391277
 20
1398.805330069257
 30
0.0
 10
-1201.294923062292
 20
1398.820717264595
 30
0.0
 10
-1201.809858611407
 20
1398.836123799787
 30
0.0
 10
-1202.322979308226
 20
1398.851655528746
 30
0.0
 10
-1202.834204537528
 20
1398.867307780933
 30
0.0
 10
-1203.3460347656
 20
1398.882978556448
 30
0.0
 10
-1203.856020585466
 20
1398.89877184126
 30
0.0
 10
-1204.364081782918
 20
1398.91468272783
 30
0.0
 10
-1204.872705878584
 20
1398.93061124261
 30
0.0
 10
-1205.379456243087
 20
1398.946659347172
 30
0.0
 10
-1205.884253055202
 20
1398.96282189237
 30
0.0
 10
-1206.389569628725
 20
1398.979001079248
 30
0.0
 10
-1206.892983385026
 20
1398.995296695758
 30
0.0
 10
-1207.394414896007
 20
1399.011703346308
 30
0.0
 10
-1207.896319107849
 20
1399.028125463453
 30
0.0
 10
-1208.396291695539
 20
1399.044660602617
 30
0.0
 10
-1208.894253592085
 20
1399.061303119219
 30
0.0
 10
-1209.392608608341
 20
1399.077958774379
 30
0.0
 10
-1209.889003680112
 20
1399.094723778652
 30
0.0
 10
-1210.383360211529
 20
1399.111592229993
 30
0.0
 10
-1210.878129990171
 20
1399.12847478217
 30
0.0
 10
-1211.370911396405
 20
1399.145462782425
 30
0.0
 10
-1211.861625882424
 20
1399.162550087099
 30
0.0
 10
-1212.35283148016
 20
1399.17965449291
 30
0.0
 10
-1212.842018752454
 20
1399.19686023881
 30
0.0
 10
-1213.329110945284
 20
1399.214160831073
 30
0.0
 10
-1213.816795421867
 20
1399.231482460133
 30
0.0
 10
-1214.302432084676
 20
1399.248901025418
 30
0.0
 10
-1214.785946051752
 20
1399.266409681606
 30
0.0
 10
-1215.270118556329
 20
1399.283942184275
 30
0.0
 10
-1215.752214964529
 20
1399.301566920285
 30
0.0
 10
-1216.232160557583
 20
1399.319276781012
 30
0.0
 10
-1216.712747275308
 20
1399.337010299063
 30
0.0
 10
-1217.191229308136
 20
1399.354831083596
 30
0.0
 10
-1217.66753245061
 20
1399.372731737576
 30
0.0
 10
-1218.144432832344
 20
1399.39065483729
 30
0.0
 10
-1218.61920032227
 20
1399.408659940942
 30
0.0
 10
-1219.091761120329
 20
1399.426739366099
 30
0.0
 10
-1219.564876300337
 20
1399.444840001029
 30
0.0
 10
-1220.035830626698
 20
1399.463017083668
 30
0.0
 10
-1220.504550722039
 20
1399.481262642376
 30
0.0
 10
-1220.973773933472
 20
1399.499527785553
 30
0.0
 10
-1221.440808685315
 20
1399.517863520219
 30
0.0
 10
-1221.905582009234
 20
1399.536261584467
 30
0.0
 10
-1222.370817980988
 20
1399.554677962643
 30
0.0
 10
-1222.833838134617
 20
1399.573158778135
 30
0.0
 10
-1223.294569900515
 20
1399.591695477006
 30
0.0
 10
-1223.75572170129
 20
1399.610249075212
 30
0.0
 10
-1224.214630593538
 20
1399.628860656263
 30
0.0
 10
-1224.671224394645
 20
1399.64752137312
 30
0.0
 10
-1225.128193774203
 20
1399.666197439644
 30
0.0
 10
-1225.582893439866
 20
1399.684924732898
 30
0.0
 10
-1226.03525158275
 20
1399.703694112196
 30
0.0
 10
-1226.487936571399
 20
1399.722477053076
 30
0.0
 10
-1226.938325367099
 20
1399.74130416191
 30
0.0
 10
-1227.386346532047
 20
1399.760166004166
 30
0.0
 10
-1227.834635900858
 20
1399.779039137894
 30
0.0
 10
-1228.280603037946
 20
1399.797949077122
 30
0.0
 10
-1228.724176845005
 20
1399.816886095894
 30
0.0
 10
-1229.167968189286
 20
1399.835832401748
 30
0.0
 10
-1229.609411597722
 20
1399.854807851658
 30
0.0
 10
-1230.048436398926
 20
1399.873802425636
 30
0.0
 10
-1230.487682345634
 20
1399.892806567558
 30
0.0
 10
-1230.924554525579
 20
1399.911831898177
 30
0.0
 10
-1231.35898230004
 20
1399.930868115706
 30
0.0
 10
-1231.793709262814
 20
1399.949917443385
 30
0.0
 10
-1232.226034620936
 20
1399.968979696007
 30
0.0
 10
-1232.65589054444
 20
1399.988044173398
 30
0.0
 10
-1233.086129058398
 20
1400.007125619002
 30
0.0
 10
-1233.513939871566
 20
1400.02621133866
 30
0.0
 10
-1233.93925612409
 20
1400.045290311833
 30
0.0
 10
-1234.365006459628
 20
1400.06438875724
 30
0.0
 10
-1234.788303036925
 20
1400.083482501043
 30
0.0
 10
-1235.209079267026
 20
1400.102560223079
 30
0.0
 10
-1235.630224383731
 20
1400.121654670195
 30
0.0
 10
-1236.04889007046
 20
1400.140735122722
 30
0.0
 10
-1236.465010168522
 20
1400.159789958728
 30
0.0
 10
-1236.881460978016
 20
1400.178859938563
 30
0.0
 10
-1237.295407005346
 20
1400.197906314789
 30
0.0
 10
-1237.706782463187
 20
1400.21691716846
 30
0.0
 10
-1238.118447966202
 20
1400.235941425961
 30
0.0
 10
-1238.52758361818
 20
1400.254932159759
 30
0.0
 10
-1238.934123998304
 20
1400.273877157158
 30
0.0
 10
-1239.340912120941
 20
1400.29283369949
 30
0.0
 10
-1239.745145643918
 20
1400.311746492113
 30
0.0
 10
-1240.146759494009
 20
1400.33060303324
 30
0.0
 10
-1240.548580061756
 20
1400.349469280157
 30
0.0
 10
-1240.947821581337
 20
1400.368281251359
 30
0.0
 10
-1241.344419311228
 20
1400.387026160965
 30
0.0
 10
-1241.741183546582
 20
1400.405778940334
 30
0.0
 10
-1242.135344577448
 20
1400.424466624586
 30
0.0
 10
-1242.526837974956
 20
1400.443076149461
 30
0.0
 10
-1242.918453700783
 20
1400.461691489176
 30
0.0
 10
-1243.307442409221
 20
1400.480230630195
 30
0.0
 10
-1243.693739970769
 20
1400.498680236547
 30
0.0
 10
-1244.080107785544
 20
1400.5171331982
 30
0.0
 10
-1244.463825234007
 20
1400.53549858664
 30
0.0
 10
-1244.84482846084
 20
1400.553762802918
 30
0.0
 10
-1245.225858702333
 20
1400.572028314203
 30
0.0
 10
-1245.604215550182
 20
1400.590194614174
 30
0.0
 10
-1245.979835451289
 20
1400.608247847892
 30
0.0
 10
-1246.355466468211
 20
1400.626301615863
 30
0.0
 10
-1246.728401116807
 20
1400.644244268509
 30
0.0
 10
-1247.098575936962
 20
1400.662061705891
 30
0.0
 10
-1247.468760995256
 20
1400.679879636059
 30
0.0
 10
-1247.836226043148
 20
1400.697574267433
 30
0.0
 10
-1248.200908412564
 20
1400.715131241386
 30
0.0
 10
-1248.565616493219
 20
1400.732689453159
 30
0.0
 10
-1248.927580760818
 20
1400.750111877544
 30
0.0
 10
-1249.28674017414
 20
1400.767383885706
 30
0.0
 10
-1249.645931412383
 20
1400.784657424331
 30
0.0
 10
-1250.00235647413
 20
1400.801782403439
 30
0.0
 10
-1250.355954357437
 20
1400.818743972064
 30
0.0
 10
-1250.709560130093
 20
1400.835705919131
 30
0.0
 10
-1251.060377172828
 20
1400.852506298188
 30
0.0
 10
-1251.408344761821
 20
1400.869130038743
 30
0.0
 10
-1251.756290865962
 20
1400.885752752885
 30
0.0
 10
-1252.101425923982
 20
1400.902200667755
 30
0.0
 10
-1252.443689383686
 20
1400.918458507107
 30
0.0
 10
-1252.785897367375
 20
1400.934713711295
 30
0.0
 10
-1253.125272197736
 20
1400.95078068283
 30
0.0
 10
-1253.461753482387
 20
1400.966643952893
 30
0.0
 10
-1253.798138496971
 20
1400.982502684343
 30
0.0
 10
-1254.131668596345
 20
1400.99815957327
 30
0.0
 10
-1254.462283511632
 20
1401.013598974032
 30
0.0
 10
-1254.792775960246
 20
1401.029032655717
 30
0.0
 10
-1255.12039181975
 20
1401.044250711006
 30
0.0
 10
-1255.445070905081
 20
1401.059237332599
 30
0.0
 10
-1255.769600160452
 20
1401.074217038301
 30
0.0
 10
-1256.09123124931
 20
1401.088967179921
 30
0.0
 10
-1256.409904026742
 20
1401.103471805171
 30
0.0
 10
-1256.728388465273
 20
1401.117967858039
 30
0.0
 10
-1257.043953446413
 20
1401.132220293001
 30
0.0
 10
-1257.356538823105
 20
1401.14621303272
 30
0.0
 10
-1257.668907676165
 20
1401.160196079859
 30
0.0
 10
-1257.978335871184
 20
1401.17392134898
 30
0.0
 10
-1258.284763212476
 20
1401.187372658108
 30
0.0
 10
-1258.590948184775
 20
1401.200813327911
 30
0.0
 10
-1258.894171331722
 20
1401.213981974594
 30
0.0
 10
-1259.194372336196
 20
1401.226862333429
 30
0.0
 10
-1259.494302736251
 20
1401.23973108177
 30
0.0
 10
-1259.791250186868
 20
1401.252313508333
 30
0.0
 10
-1260.085154241695
 20
1401.264593290009
 30
0.0
 10
-1260.097685464921
 20
1401.265116864566
 30
0.0
 10
-1260.110211216004
 20
1401.265639891463
 30
0.0
 10
-1260.122731490216
 20
1401.266162369428
 30
0.0
  0
LINE
  5
7E
330
1F
100
AcDbEntity
  8
Make2D$Visible$Curves
 62
    18
420
        0
370
    -3
100
AcDbLine
 10
-1181.846259647185
 20
1398.320311824018
 30
0.0
 11
-1215.734699660127
 21
1401.236787585527
 31
0.0
  0
ARC
  5
7F
330
1F
100
AcDbEntity
  8
Make2D$Visible$Curves
 62
    18
420
        0
370
    -3
100
AcDbCircle
 10
-909.024442496034
 20
1396.235952816623
 30
0.0
 40
10.00937650407261
100
AcDbArc
 50
90.03437219936345
 51
161.6678636631096
  0
LINE
  5
80
330
1F
100
AcDbEntity
  8
Make2D$Visible$Curves
 62
    18
420
        0
370
    -3
100
AcDbLine
 10
-996.2674406627399
 20
1358.342661492706
 30
0.0
 11
-996.8033739862186
 21
1352.776781119901
 31
0.0
  0
ARC
  5
81
330
1F
100
AcDbEntity
  8
Make2D$Visible$Curves
 62
    18
420
        0
370
    -3
100
AcDbCircle
 10
-922.8883356013607
 20
1400.599276041599
 30
0.0
 40
4.485538266902875
100
AcDbArc
 50
322.7011190684033
 51
342.5591166201962
  0
LINE
  5
82
330
1F
100
AcDbEntity
  8
Make2D$Visible$Curves
 62
    18
420
        0
370
    -3
100
AcDbLine
 10
-1311.815271624462
 20
1450.062305421604
 30
0.0
 11
-1321.754585993858
 21
1450.062305421604
 31
0.0
  0
LINE
  5
83
330
1F
100
AcDbEntity
  8
Make2D$Visible$Curves
 62
    18
420
        0
370
    -3
100
AcDbLine
 10
-1304.701132175158
 20
1450.062305421434
 30
0.0
 11
-1311.815271624462
 21
1450.062305421604
 31
0.0
  0
LINE
  5
84
330
1F
100
AcDbEntity
  8
Make2D$Visible$Curves
 62
    18
420
        0
370
    -3
100
AcDbLine
 10
-958.7841692047392
 20
1413.760050352529
 30
0.0
 11
-1296.432385493057
 21
1449.248307914346
 31
0.0
  0
ARC
  5
85
330
1F
100
AcDbEntity
  8
Make2D$Visible$Curves
 62
    18
420
        0
370
    -3
100
AcDbCircle
 10
873.2268321021575
 20
1407.747748441803
 30
0.0
 40
1.499999999998905
210
0.0
220
0.0
230
-1.0
100
AcDbArc
 50
205.37693352246
 51
270.0000000000217
  0
LINE
  5
86
330
1F
100
AcDbEntity
  8
Make2D$Visible$Curves
 62
    18
420
        0
370
    -3
100
AcDbLine
 10
-900.3020782208581
 20
1406.247748441804
 30
0.0
 11
-909.2250406782033
 21
1406.247748441863
 31
0.0
  0
LINE
  5
87
330
1F
100
AcDbEntity
  8
Make2D$Visible$Curves
 62
    18
420
        0
370
    -3
100
AcDbLine
 10
-873.2268320668885
 20
1406.247748441804
 30
0.0
 11
-884.164924179158
 21
1406.247748441804
 31
0.0
  0
LINE
  5
88
330
1F
100
AcDbEntity
  8
Make2D$Visible$Curves
 62
    18
420
        0
370
    -3
100
AcDbLine
 10
-1381.907543847813
 20
1522.567175757774
 30
0.0
 11
-1381.921954678258
 21
1523.392771795687
 31
0.0
  0
LINE
  5
89
330
1F
100
AcDbEntity
  8
Make2D$Visible$Curves
 62
    18
420
        0
370
    -3
100
AcDbLine
 10
-1381.750363273258
 20
1513.562305421604
 30
0.0
 11
-1381.907488729845
 21
1522.564018051017
 31
0.0
  0
SPLINE
  5
8A
330
1F
100
AcDbEntity
  8
Make2D$Visible$Curves
 62
    18
420
        0
370
    -3
100
AcDbSpline
210
0.0
220
0.0
230
1.0
 70
     8
 71
     3
 72
    34
 73
    30
 74
     0
 42
0.000000001
 43
0.0000000001
 40
-248.8162477135778
 40
-248.8162477135778
 40
-248.8162477135778
 40
-248.8162477135778
 40
-239.6008311315927
 40
-230.38541454961
 40
-221.1699979676274
 40
-211.9545813856523
 40
-202.7391648036523
 40
-193.5237482216771
 40
-184.3083316396771
 40
-175.0929150577019
 40
-165.8774984757268
 40
-156.6620818937268
 40
-147.4466653117516
 40
-138.2312487297765
 40
-129.0158321477765
 40
-119.8004155658013
 40
-110.5849989838013
 40
-101.3695824018261
 40
-92.15416581985099
 40
-82.93874923785094
 40
-73.72333265587582
 40
-64.50791607390067
 40
-55.29249949190064
 40
-46.07708290992549
 40
-36.86166632792546
 40
-27.64624974595031
 40
-18.43083316397519
 40
-9.215416581975148
 40
0.0
 40
0.0
 40
0.0
 40
0.0
 10
-1125.064554441877
 20
1531.18147607211
 30
0.0
 10
-1127.645240871189
 20
1531.181677104317
 30
0.0
 10
-1132.730823637875
 20
1531.180894669618
 30
0.0
 10
-1140.113101963768
 20
1531.176911675171
 30
0.0
 10
-1147.336707764388
 20
1531.170721630776
 30
0.0
 10
-1154.461285054588
 20
1531.162809041862
 30
0.0
 10
-1161.553305987448
 20
1531.153580286719
 30
0.0
 10
-1168.681386813438
 20
1531.143385667254
 30
0.0
 10
-1175.794341655748
 20
1531.132748381889
 30
0.0
 10
-1182.859013185498
 20
1531.12217280185
 30
0.0
 10
-1190.063544743428
 20
1531.111810559189
 30
0.0
 10
-1197.579916787178
 20
1531.101913186699
 30
0.0
 10
-1205.327157649728
 20
1531.09316294037
 30
0.0
 10
-1213.230427528498
 20
1531.086186229885
 30
0.0
 10
-1221.347517459388
 20
1531.08145270356
 30
0.0
 10
-1229.734291898458
 20
1531.079494362258
 30
0.0
 10
-1238.356924457858
 20
1531.08086199924
 30
0.0
 10
-1247.178788923758
 20
1531.085987603677
 30
0.0
 10
-1256.189446520958
 20
1531.095202892448
 30
0.0
 10
-1265.380051579758
 20
1531.108758264686
 30
0.0
 10
-1274.673679926058
 20
1531.12667444421
 30
0.0
 10
-1284.025281985958
 20
1531.148806823003
 30
0.0
 10
-1293.710847939058
 20
1531.175859954368
 30
0.0
 10
-1303.988963306358
 20
1531.208932738309
 30
0.0
 10
-1315.124916273858
 20
1531.249514936704
 30
0.0
 10
-1327.379706632258
 20
1531.299450123151
 30
0.0
 10
-1341.024524648858
 20
1531.360981277011
 30
0.0
 10
-1356.294418464958
 20
1531.436454854452
 30
0.0
 10
-1367.804727910358
 20
1531.498282164235
 30
0.0
 10
-1373.879122449458
 20
1531.532234915702
 30
0.0
  0
LINE
  5
8B
330
1F
100
AcDbEntity
  8
Make2D$Visible$Curves
 62
    18
420
        0
370
    -3
100
AcDbLine
 10
-873.1984456124734
 20
1531.223753385647
 30
0.0
 11
-873.224399528858
 21
1531.545495064829
 31
0.0
  0
ARC
  5
8C
330
1F
100
AcDbEntity
  8
Make2D$Visible$Curves
 62
    18
420
        0
370
    -3
100
AcDbCircle
 10
870.064554580372
 20
1531.562305224512
 30
0.0
 40
1.999999846425003
210
0.0
220
0.0
230
-1.0
100
AcDbArc
 50
269.9999960404609
 51
334.3187884301593
  0
LINE
  5
8D
330
1F
100
AcDbEntity
  8
Make2D$Visible$Curves
 62
    18
420
        0
370
    -3
100
AcDbLine
 10
-871.8077463979397
 20
1530.575864364902
 30
0.0
 11
-871.7690208032581
 21
1530.51598117774
 31
0.0
  0
ARC
  5
8E
330
1F
100
AcDbEntity
  8
Make2D$Visible$Curves
 62
    18
420
        0
370
    -3
100
AcDbCircle
 10
-1338.693805967836
 20
1510.099154349316
 30
0.0
 40
4.999945230131508
100
AcDbArc
 50
4.289155273014311
 51
23.75231667569055
  0
LINE
  5
8F
330
1F
100
AcDbEntity
  8
Make2D$Visible$Curves
 62
    18
420
        0
370
    -3
100
AcDbLine
 10
-1333.939554441959
 20
1513.562305421604
 30
0.0
 11
-1329.732180473058
 21
1457.463985835675
 31
0.0
  0
ARC
  5
90
330
1F
100
AcDbEntity
  8
Make2D$Visible$Curves
 62
    18
420
        0
370
    -3
100
AcDbCircle
 10
-1271.670116974032
 20
1403.883836940387
 30
0.0
 40
2.242648099175844
100
AcDbArc
 50
254.7583792779198
 51
269.8050257209591
  0
ARC
  5
91
330
1F
100
AcDbEntity
  8
Make2D$Visible$Curves
 62
    18
420
        0
370
    -3
100
AcDbCircle
 10
-1176.00719488604
 20
1305.986556985072
 30
0.0
 40
95.9006390915418
100
AcDbArc
 50
86.88773004793373
 51
89.2770240758315
  0
ARC
  5
92
330
1F
100
AcDbEntity
  8
Make2D$Visible$Curves
 62
    18
420
        0
370
    -3
100
AcDbCircle
 10
909.0730494067448
 20
1396.24945679289
 30
0.0
 40
9.998375096875257
210
0.0
220
0.0
230
-1.0
100
AcDbArc
 50
17.49279729999613
 51
83.5098875534161
  0
LINE
  5
93
330
1F
100
AcDbEntity
  8
Make2D$Visible$Curves
 62
    18
420
        0
370
    -3
100
AcDbLine
 10
-909.150908530965
 20
1406.247748441836
 30
0.0
 11
-900.3019313319581
 21
1406.247748441804
 31
0.0
  0
LINE
  5
94
330
1F
100
AcDbEntity
  8
Make2D$Visible$Curves
 62
    18
420
        0
370
    -3
100
AcDbLine
 10
-870.0645544419582
 20
1523.457398217223
 30
0.0
 11
-870.0645544419582
 21
1513.562305421604
 31
0.0
  0
ARC
  5
95
330
1F
100
AcDbEntity
  8
Make2D$Visible$Curves
 62
    18
420
        0
370
    -3
100
AcDbCircle
 10
873.2081014885448
 20
1530.023504331132
 30
0.0
 40
1.499984465564691
210
0.0
220
0.0
230
-1.0
100
AcDbArc
 50
89.28032072095793
 51
153.3830403347235
  0
LINE
  5
96
330
1F
100
AcDbEntity
  8
Make2D$Visible$Curves
 62
    18
420
        0
370
    -3
100
AcDbLine
 10
-1381.921919794158
 20
1523.390771924451
 30
0.0
 11
-1381.920768427491
 21
1523.324810172478
 31
0.0
  0
LINE
  5
97
330
1F
100
AcDbEntity
  8
Make2D$Visible$Curves
 62
    18
420
        0
370
    -3
100
AcDbLine
 10
-1335.110188095728
 20
1513.562305421604
 30
0.0
 11
-1373.751581711958
 21
1513.562305421604
 31
0.0
  0
LINE
  5
98
330
1F
100
AcDbEntity
  8
Make2D$Visible$Curves
 62
    18
420
        0
370
    -3
100
AcDbLine
 10
-873.226832101658
 20
1513.562305421604
 30
0.0
 11
-1335.110188095728
 21
1513.562305421604
 31
0.0
  0
SPLINE
  5
99
330
1F
100
AcDbEntity
  8
Make2D$Visible$Curves
 62
    18
420
        0
370
    -3
100
AcDbSpline
210
0.0
220
0.0
230
1.0
 70
     8
 71
     3
 72
    89
 73
    85
 74
     0
 42
0.000000001
 43
0.0000000001
 40
9.085717926654414
 40
9.085717926654414
 40
9.085717926654414
 40
9.085717926654414
 40
10.70775514642807
 40
10.70775514642807
 40
10.70775514642807
 40
13.34725603741797
 40
13.34725603741797
 40
13.34725603741797
 40
15.73728891088649
 40
15.73728891088649
 40
15.73728891088649
 40
17.90158894975184
 40
17.90158894975184
 40
17.90158894975184
 40
19.84633586761306
 40
19.84633586761306
 40
19.84633586761306
 40
21.58302027439529
 40
21.58302027439529
 40
21.58302027439529
 40
23.16083728498088
 40
23.16083728498088
 40
23.16083728498088
 40
24.64391226153487
 40
24.64391226153487
 40
24.64391226153487
 40
26.09637074460168
 40
26.09637074460168
 40
26.09637074460168
 40
27.56448864935614
 40
27.56448864935614
 40
27.56448864935614
 40
29.04359951153511
 40
29.04359951153511
 40
29.04359951153511
 40
30.51937092479789
 40
30.51937092479789
 40
30.51937092479789
 40
31.97742845048198
 40
31.97742845048198
 40
31.97742845048198
 40
33.43578651057034
 40
33.43578651057034
 40
33.43578651057034
 40
34.95753404476765
 40
34.95753404476765
 40
34.95753404476765
 40
36.60905648788221
 40
36.60905648788221
 40
36.60905648788221
 40
38.45160380730253
 40
38.45160380730253
 40
38.45160380730253
 40
40.50716111761391
 40
40.50716111761391
 40
40.50716111761391
 40
42.77963483442474
 40
42.77963483442474
 40
42.77963483442474
 40
45.2801748480291
 40
45.2801748480291
 40
45.2801748480291
 40
48.04669872510649
 40
48.04669872510649
 40
48.04669872510649
 40
51.12344183340102
 40
51.12344183340102
 40
51.12344183340102
 40
54.55630648457942
 40
54.55630648457942
 40
54.55630648457942
 40
58.39933301713156
 40
58.39933301713156
 40
58.39933301713156
 40
62.73466627128212
 40
62.73466627128212
 40
62.73466627128212
 40
67.61225814211821
 40
67.61225814211821
 40
67.61225814211821
 40
73.039546044733
 40
73.039546044733
 40
73.039546044733
 40
79.02197631919095
 40
79.02197631919095
 40
79.02197631919095
 40
79.02197631919095
 10
-1236.993766865264
 20
1400.18405111509
 30
0.0
 10
-1237.351413911569
 20
1400.200495592829
 30
0.0
 10
-1237.707132910333
 20
1400.216962858729
 30
0.0
 10
-1238.060886731833
 20
1400.233440102435
 30
0.0
 10
-1238.636565082667
 20
1400.260254208477
 30
0.0
 10
-1239.20719072115
 20
1400.287101707753
 30
0.0
 10
-1239.772608808816
 20
1400.313932081488
 30
0.0
 10
-1240.284603381189
 20
1400.338227387963
 30
0.0
 10
-1240.792434976215
 20
1400.362513683934
 30
0.0
 10
-1241.29598564374
 20
1400.386755287225
 30
0.0
 10
-1241.75198837174
 20
1400.40870786905
 30
0.0
 10
-1242.204557493188
 20
1400.430627486235
 30
0.0
 10
-1242.653609270207
 20
1400.452489051961
 30
0.0
 10
-1243.057115653575
 20
1400.472133292942
 30
0.0
 10
-1243.457836264697
 20
1400.491733282651
 30
0.0
 10
-1243.855709627639
 20
1400.511271262192
 30
0.0
 10
-1244.211020973165
 20
1400.528719190217
 30
0.0
 10
-1244.564099820546
 20
1400.546119541327
 30
0.0
 10
-1244.914904300727
 20
1400.563460247175
 30
0.0
 10
-1245.233621652043
 20
1400.57921484596
 30
0.0
 10
-1245.550487569083
 20
1400.594921466424
 30
0.0
 10
-1245.86546392136
 20
1400.610570107569
 30
0.0
 10
-1246.161529256476
 20
1400.6252792124
 30
0.0
 10
-1246.455949231106
 20
1400.639938319927
 30
0.0
 10
-1246.74870133988
 20
1400.654540569705
 30
0.0
 10
-1247.035411313522
 20
1400.668841442435
 30
0.0
 10
-1247.320541137325
 20
1400.683088739803
 30
0.0
 10
-1247.604068177035
 20
1400.6972760288
 30
0.0
 10
-1247.890655383703
 20
1400.711616444192
 30
0.0
 10
-1248.175612725098
 20
1400.725895819792
 30
0.0
 10
-1248.458879440102
 20
1400.740100957408
 30
0.0
 10
-1248.744273643583
 20
1400.754412783403
 30
0.0
 10
-1249.027948357601
 20
1400.768648905457
 30
0.0
 10
-1249.309785890991
 20
1400.782783378067
 30
0.0
 10
-1249.590992363091
 20
1400.796886202236
 30
0.0
 10
-1249.870415316966
 20
1400.810890421583
 30
0.0
 10
-1250.148033137828
 20
1400.824786969189
 30
0.0
 10
-1250.422319745681
 20
1400.838516768276
 30
0.0
 10
-1250.694873817004
 20
1400.852142950915
 30
0.0
 10
-1250.965687744008
 20
1400.865660398688
 30
0.0
 10
-1251.236557846267
 20
1400.879180650401
 30
0.0
 10
-1251.505701374827
 20
1400.892592791845
 30
0.0
 10
-1251.77309156826
 20
1400.905888159158
 30
0.0
 10
-1252.052105161089
 20
1400.919761473488
 30
0.0
 10
-1252.329235939921
 20
1400.933508977356
 30
0.0
 10
-1252.604463622574
 20
1400.947123125894
 30
0.0
 10
-1252.903163482537
 20
1400.961898326638
 30
0.0
 10
-1253.19964838934
 20
1400.97651775896
 30
0.0
 10
-1253.493888111046
 20
1400.990971258614
 30
0.0
 10
-1253.822162495962
 20
1401.007096592342
 30
0.0
 10
-1254.147680381518
 20
1401.023017271986
 30
0.0
 10
-1254.470404119432
 20
1401.038720452223
 30
0.0
 10
-1254.830438928622
 20
1401.056239124809
 30
0.0
 10
-1255.187044650922
 20
1401.073489463399
 30
0.0
 10
-1255.540164934093
 20
1401.090453254805
 30
0.0
 10
-1255.930552734926
 20
1401.109207366468
 30
0.0
 10
-1256.316746196407
 20
1401.12761441995
 30
0.0
 10
-1256.698671509269
 20
1401.145650729909
 30
0.0
 10
-1257.118932794172
 20
1401.165497444812
 30
0.0
 10
-1257.53411103388
 20
1401.184899270369
 30
0.0
 10
-1257.944112566821
 20
1401.203826130849
 30
0.0
 10
-1258.39773434169
 20
1401.224766628271
 30
0.0
 10
-1258.845124775484
 20
1401.245130601906
 30
0.0
 10
-1259.286145438694
 20
1401.264874960313
 30
0.0
 10
-1259.776630616758
 20
1401.286833829719
 30
0.0
 10
-1260.259380066385
 20
1401.308032715061
 30
0.0
 10
-1260.734201767749
 20
1401.328412395442
 30
0.0
 10
-1261.264014453758
 20
1401.351152327445
 30
0.0
 10
-1261.784076154589
 20
1401.372877581986
 30
0.0
 10
-1262.294314028963
 20
1401.393515695921
 30
0.0
 10
-1262.865511187309
 20
1401.416619492453
 30
0.0
 10
-1263.424429520409
 20
1401.438362215218
 30
0.0
 10
-1263.970944843839
 20
1401.458637851008
 30
0.0
 10
-1264.587461971875
 20
1401.481510543156
 30
0.0
 10
-1265.188255261711
 20
1401.502518501372
 30
0.0
 10
-1265.773074780479
 20
1401.521500733864
 30
0.0
 10
-1266.431027295088
 20
1401.542856737211
 30
0.0
 10
-1267.068888609742
 20
1401.561652762364
 30
0.0
 10
-1267.686224952768
 20
1401.577657577939
 30
0.0
 10
-1268.373111107991
 20
1401.595465514178
 30
0.0
 10
-1269.034806631761
 20
1401.609823127725
 30
0.0
 10
-1269.670536643023
 20
1401.620404522313
 30
0.0
 10
-1270.371229021441
 20
1401.632067181634
 30
0.0
 10
-1271.040827474034
 20
1401.639148089419
 30
0.0
 10
-1271.677748563149
 20
1401.641201826183
 30
0.0
  0
LINE
  5
9A
330
1F
100
AcDbEntity
  8
Make2D$Visible$Curves
 62
    18
420
        0
370
    -3
100
AcDbLine
 10
-1282.802347120094
 20
1401.74990464315
 30
0.0
 11
-1281.475726447077
 21
1401.750343194289
 31
0.0
  0
LINE
  5
9B
330
1F
100
AcDbEntity
  8
Make2D$Visible$Curves
 62
    18
420
        0
370
    -3
100
AcDbLine
 10
-993.9321484482517
 20
1382.595451480284
 30
0.0
 11
-993.9324718459649
 21
1382.592108106661
 31
0.0
  0
LINE
  5
9C
330
1F
100
AcDbEntity
  8
Make2D$Visible$Curves
 62
    18
420
        0
370
    -3
100
AcDbLine
 10
-1234.324595581214
 20
1401.70744413497
 30
0.0
 11
-1234.449479807113
 21
1401.707195558921
 31
0.0
  0
LINE
  5
9D
330
1F
100
AcDbEntity
  8
Make2D$Visible$Curves
 62
    18
420
        0
370
    -3
100
AcDbLine
 10
-1281.47613780274
 20
1401.748731205887
 30
0.0
 11
-1281.467997509706
 21
1401.751254459821
 31
0.0
  0
LINE
  5
9E
330
1F
100
AcDbEntity
  8
Make2D$Visible$Curves
 62
    18
420
        0
370
    -3
100
AcDbLine
 10
-1271.95963045725
 20
1401.659979196282
 30
0.0
 11
-1282.118321689221
 21
1401.642241000028
 31
0.0
  0
ARC
  5
9F
330
1F
100
AcDbEntity
  8
Make2D$Visible$Curves
 62
    18
420
        0
370
    -3
100
AcDbCircle
 10
-1035.169650626072
 20
3517.245906108923
 30
0.0
 40
2123.699244829134
100
AcDbArc
 50
265.1239885962884
 51
266.0623205482657
  0
LINE
  5
A0
330
1F
100
AcDbEntity
  8
Make2D$Visible$Curves
 62
    18
420
        0
370
    -3
100
AcDbLine
 10
-1246.323966326342
 20
1443.223923575293
 30
0.0
 11
-1238.302488039267
 21
1443.138800521828
 31
0.0
  0
LINE
  5
A1
330
1F
100
AcDbEntity
  8
Make2D$Visible$Curves
 62
    18
420
        0
370
    -3
100
AcDbLine
 10
-897.5090447653473
 20
1407.319775257516
 30
0.0
 11
-958.7841692047392
 21
1413.760050352529
 31
0.0
  0
LINE
  5
A2
330
1F
100
AcDbEntity
  8
Make2D$Visible$Curves
 62
    18
420
        0
370
    -3
100
AcDbLine
 10
-909.2250406782033
 20
1406.247748441863
 30
0.0
 11
-914.1117364848136
 21
1406.247748435381
 31
0.0
  0
LINE
  5
A3
330
1F
100
AcDbEntity
  8
Make2D$Visible$Curves
 62
    18
420
        0
370
    -3
100
AcDbLine
 10
-914.1117364848138
 20
1406.247748435381
 30
0.0
 11
-915.979993825258
 21
1406.247748496904
 31
0.0
  0
LINE
  5
A4
330
1F
100
AcDbEntity
  8
Make2D$Visible$Curves
 62
    18
420
        0
370
    -3
100
AcDbLine
 10
-884.1651975405324
 20
1406.24774844145
 30
0.0
 11
-900.3020783816856
 21
1406.247748563874
 31
0.0
  0
ARC
  5
A5
330
1F
100
AcDbEntity
  8
Make2D$Visible$Curves
 62
    18
420
        0
370
    -3
100
AcDbCircle
 10
-1373.908789224312
 20
1522.706780346052
 30
0.0
 40
7.999988791334982
100
AcDbArc
 50
180.7767912343461
 51
180.8854765588784
  0
ARC
  5
A6
330
1F
100
AcDbEntity
  8
Make2D$Visible$Curves
 62
    18
420
        0
370
    -3
100
AcDbCircle
 10
-1338.693815014053
 20
1510.099150614679
 30
0.0
 40
4.999955014341062
100
AcDbArc
 50
23.75231409307847
 51
31.35709253337295
  0
ARC
  5
A7
330
1F
100
AcDbEntity
  8
Make2D$Visible$Curves
 62
    18
420
        0
370
    -3
100
AcDbCircle
 10
-1338.69382515769
 20
1510.099144197214
 30
0.0
 40
4.999967015863686
100
AcDbArc
 50
31.3570948445537
 51
43.83919969986228
  0
LINE
  5
A8
330
1F
100
AcDbEntity
  8
Make2D$Visible$Curves
 62
    18
420
        0
370
    -3
100
AcDbLine
 10
-870.0645544419582
 20
1513.564465148685
 30
0.0
 11
-870.0645544419582
 21
1411.338890720404
 31
0.0
  0
LINE
  5
A9
330
1F
100
AcDbEntity
  8
Make2D$Visible$Curves
 62
    18
420
        0
370
    -3
100
AcDbLine
 10
-870.1524843753281
 20
1408.245736325367
 30
0.0
 11
-871.2869167061582
 21
1408.230121202204
 31
0.0
  0
LINE
  5
AA
330
1F
100
AcDbEntity
  8
Make2D$Visible$Curves
 62
    18
420
        0
370
    -3
100
AcDbLine
 10
-1246.324953448053
 20
1443.223934131446
 30
0.0
 11
-1246.399186113858
 21
1443.538405138344
 31
0.0
  0
ARC
  5
AB
330
1F
100
AcDbEntity
  8
Make2D$Visible$Curves
 62
    18
420
        0
370
    -3
100
AcDbCircle
 10
1263.759705138893
 20
1457.716134868164
 30
0.0
 40
14.14662480894803
210
0.0
220
0.0
230
-1.0
100
AcDbArc
 50
309.2053726656362
 51
316.0062867385257
  0
LINE
  5
AC
330
1F
100
AcDbEntity
  8
Make2D$Visible$Curves
 62
    18
420
        0
370
    -3
100
AcDbLine
 10
-881.9127391203057
 20
1406.24774847787
 30
0.0
 11
-881.9069666703582
 21
1406.247748441804
 31
0.0
  0
LINE
  5
AD
330
1F
100
AcDbEntity
  8
Make2D$Visible$Curves
 62
    18
420
        0
370
    -3
100
AcDbLine
 10
-909.2262056763581
 20
1406.247748441838
 30
0.0
 11
-909.150908530965
 21
1406.247748441836
 31
0.0
  0
ARC
  5
AE
330
1F
100
AcDbEntity
  8
Make2D$Visible$Curves
 62
    18
420
        0
370
    -3
100
AcDbCircle
 10
999.7895621595575
 20
1353.064317913182
 30
0.0
 40
2.999999535677669
210
0.0
220
0.0
230
-1.0
100
AcDbArc
 50
185.4999919457788
 51
270.0000080550343
  0
LINE
  5
AF
330
1F
100
AcDbEntity
  8
Make2D$Visible$Curves
 62
    18
420
        0
370
    -3
100
AcDbLine
 10
-1072.339546302558
 20
1350.064318377504
 30
0.0
 11
-1036.064554441958
 21
1350.064318377504
 31
0.0
  0
ARC
  5
B0
330
1F
100
AcDbEntity
  8
Make2D$Visible$Curves
 62
    18
420
        0
370
    -3
100
AcDbCircle
 10
1072.339546724359
 20
1353.064317913181
 30
0.0
 40
2.999999535676836
210
0.0
220
0.0
230
-1.0
100
AcDbArc
 50
269.9999919449548
 51
354.5000080542284
  0
SPLINE
  5
B1
330
1F
100
AcDbEntity
  8
Make2D$Visible$Curves
 62
    18
420
        0
370
    -3
100
AcDbSpline
210
0.0
220
0.0
230
1.0
 70
     8
 71
     3
 72
    83
 73
    79
 74
     0
 42
0.000000001
 43
0.0000000001
 40
2.479719825856932
 40
2.479719825856932
 40
2.479719825856932
 40
2.479719825856932
 40
8.925072058533388
 40
8.925072058533388
 40
8.925072058533388
 40
14.77475960894106
 40
14.77475960894106
 40
14.77475960894106
 40
20.19007979233666
 40
20.19007979233666
 40
20.19007979233666
 40
25.36032199338944
 40
25.36032199338944
 40
25.36032199338944
 40
30.4687705686033
 40
30.4687705686033
 40
30.4687705686033
 40
35.56114252835399
 40
35.56114252835399
 40
35.56114252835399
 40
40.658454603209
 40
40.658454603209
 40
40.658454603209
 40
45.74651959741107
 40
45.74651959741107
 40
45.74651959741107
 40
50.88623401274935
 40
50.88623401274935
 40
50.88623401274935
 40
56.23132113104305
 40
56.23132113104305
 40
56.23132113104305
 40
61.95326797582912
 40
61.95326797582912
 40
61.95326797582912
 40
68.19775987352739
 40
68.19775987352739
 40
68.19775987352739
 40
75.04086974939155
 40
75.04086974939155
 40
75.04086974939155
 40
82.49266924280144
 40
82.49266924280144
 40
82.49266924280144
 40
90.56736451094825
 40
90.56736451094825
 40
90.56736451094825
 40
99.33811248119206
 40
99.33811248119206
 40
99.33811248119206
 40
108.8954906510274
 40
108.8954906510274
 40
108.8954906510274
 40
119.3029024239721
 40
119.3029024239721
 40
119.3029024239721
 40
130.655485009501
 40
130.655485009501
 40
130.655485009501
 40
143.0924484738548
 40
143.0924484738548
 40
143.0924484738548
 40
156.7586659448507
 40
156.7586659448507
 40
156.7586659448507
 40
171.8154666375727
 40
171.8154666375727
 40
171.8154666375727
 40
188.4630533995485
 40
188.4630533995485
 40
188.4630533995485
 40
206.9313161488211
 40
206.9313161488211
 40
206.9313161488211
 40
227.4991567296904
 40
227.4991567296904
 40
227.4991567296904
 40
250.5524348087148
 40
250.5524348087148
 40
250.5524348087148
 40
250.5524348087148
 10
-1125.064553387414
 20
1531.189483587707
 30
0.0
 10
-1122.916100467549
 20
1531.189324599657
 30
0.0
 10
-1120.767649633639
 20
1531.189529300243
 30
0.0
 10
-1118.619201241844
 20
1531.190083370751
 30
0.0
 10
-1116.669303010556
 20
1531.190586236497
 30
0.0
 10
-1114.719407252778
 20
1531.191376883447
 30
0.0
 10
-1112.769514206975
 20
1531.192440784839
 30
0.0
 10
-1110.964405200144
 20
1531.193425689108
 30
0.0
 10
-1109.159298835852
 20
1531.194644775919
 30
0.0
 10
-1107.354195278154
 20
1531.196084112761
 30
0.0
 10
-1105.630779107031
 20
1531.197458314468
 30
0.0
 10
-1103.907365723005
 20
1531.199033283651
 30
0.0
 10
-1102.183955245938
 20
1531.20079520505
 30
0.0
 10
-1100.481137099558
 20
1531.202536073966
 30
0.0
 10
-1098.778321963842
 20
1531.20445945453
 30
0.0
 10
-1097.075509932033
 20
1531.206550724388
 30
0.0
 10
-1095.378050871509
 20
1531.208635420115
 30
0.0
 10
-1093.680595019921
 20
1531.210886951634
 30
0.0
 10
-1091.983142447772
 20
1531.213289848657
 30
0.0
 10
-1090.284036963163
 20
1531.215695085528
 30
0.0
 10
-1088.584934841981
 20
1531.218251983302
 30
0.0
 10
-1086.885836134087
 20
1531.220944340029
 30
0.0
 10
-1085.189813370681
 20
1531.223631822678
 30
0.0
 10
-1083.493794038961
 20
1531.226454274827
 30
0.0
 10
-1081.797778169598
 20
1531.229395194084
 30
0.0
 10
-1080.084539290453
 20
1531.232365978323
 30
0.0
 10
-1078.37130392977
 20
1531.235457648602
 30
0.0
 10
-1076.658072102058
 20
1531.238653084147
 30
0.0
 10
-1074.876375942316
 20
1531.24197621599
 30
0.0
 10
-1073.094683538902
 20
1531.245411573057
 30
0.0
 10
-1071.312994891759
 20
1531.248940083591
 30
0.0
 10
-1069.40567905313
 20
1531.252717390047
 30
0.0
 10
-1067.498367385812
 20
1531.256601451064
 30
0.0
 10
-1065.591059873294
 20
1531.260569483797
 30
0.0
 10
-1063.509562573029
 20
1531.264899907374
 30
0.0
 10
-1061.428069983967
 20
1531.269330343297
 30
0.0
 10
-1059.346582068559
 20
1531.273832526703
 30
0.0
 10
-1057.065545739016
 20
1531.278766326142
 30
0.0
 10
-1054.784514635378
 20
1531.283786292716
 30
0.0
 10
-1052.503488695157
 20
1531.288857778802
 30
0.0
 10
-1050.019556262825
 20
1531.294380394107
 30
0.0
 10
-1047.53562937478
 20
1531.299964107138
 30
0.0
 10
-1045.051707945066
 20
1531.305568452618
 30
0.0
 10
-1042.360144157701
 20
1531.31164129098
 30
0.0
 10
-1039.668585976053
 20
1531.317738361081
 30
0.0
 10
-1036.97703329862
 20
1531.323814685477
 30
0.0
 10
-1034.053452605649
 20
1531.330414825552
 30
0.0
 10
-1031.129877344956
 20
1531.336990494892
 30
0.0
 10
-1028.20630741237
 20
1531.343493417336
 30
0.0
 10
-1025.020517395462
 20
1531.350579598231
 30
0.0
 10
-1021.834732358547
 20
1531.357579402592
 30
0.0
 10
-1018.648952214624
 20
1531.364443268882
 30
0.0
 10
-1015.179818473267
 20
1531.371917629656
 30
0.0
 10
-1011.710688910667
 20
1531.379230797523
 30
0.0
 10
-1008.241563484148
 20
1531.386335558286
 30
0.0
 10
-1004.45737363839
 20
1531.394085570243
 30
0.0
 10
-1000.67318685095
 20
1531.401587597967
 30
0.0
 10
-996.88900315281
 20
1531.408801043935
 30
0.0
 10
-992.743353836618
 20
1531.416703519008
 30
0.0
 10
-988.5977061851728
 20
1531.424259637542
 30
0.0
 10
-984.4520603316124
 20
1531.431440340013
 30
0.0
 10
-979.8966604537892
 20
1531.439330780324
 30
0.0
 10
-975.3412606261155
 20
1531.446767904119
 30
0.0
 10
-970.7858611061766
 20
1531.453740082676
 30
0.0
 10
-965.7669341709476
 20
1531.461421704147
 30
0.0
 10
-960.7480055505802
 20
1531.468538915798
 30
0.0
 10
-955.7290756363419
 20
1531.475103723524
 30
0.0
 10
-950.1798872384558
 20
1531.482362114354
 30
0.0
 10
-944.6306954267133
 20
1531.488945171764
 30
0.0
 10
-939.0815007188995
 20
1531.494894482342
 30
0.0
 10
-932.9254207563887
 20
1531.501494436672
 30
0.0
 10
-926.7693357730387
 20
1531.507314405201
 30
0.0
 10
-920.6132463871799
 20
1531.512430591149
 30
0.0
 10
-913.7573073774403
 20
1531.518128406209
 30
0.0
 10
-906.9013620489474
 20
1531.522953293698
 30
0.0
 10
-900.045411079345
 20
1531.527019816974
 30
0.0
 10
-892.3609931542284
 20
1531.531577735268
 30
0.0
 10
-884.6765678015605
 20
1531.5351829198
 30
0.0
 10
-876.9921357115746
 20
1531.537990798759
 30
0.0
  0
LINE
  5
B2
330
1F
100
AcDbEntity
  8
Make2D$Visible$Curves
 62
    18
420
        0
370
    -3
100
AcDbLine
 10
-876.9921310690021
 20
1531.537990996485
 30
0.0
 11
-873.2244032277832
 21
1531.545522354483
 31
0.0
  0
ARC
  5
B3
330
1F
100
AcDbEntity
  8
Make2D$Visible$Curves
 62
    18
420
        0
370
    -3
100
AcDbCircle
 10
1373.923332501959
 20
1523.532379330549
 30
0.0
 40
7.999840458657989
210
0.0
220
0.0
230
-1.0
100
AcDbArc
 50
359.000063980618
 51
8.625677408939707
  0
LINE
  5
B4
330
1F
100
AcDbEntity
  8
Make2D$Visible$Curves
 62
    18
420
        0
370
    -3
100
AcDbLine
 10
-871.7847841315789
 20
1530.541942326911
 30
0.0
 11
-871.8069412145477
 21
1530.580406678458
 31
0.0
  0
SPLINE
  5
B5
330
1F
100
AcDbEntity
  8
Make2D$Visible$Curves
 62
    18
420
        0
370
    -3
100
AcDbSpline
210
0.0
220
0.0
230
1.0
 70
     8
 71
     3
 72
    73
 73
    69
 74
     0
 42
0.000000001
 43
0.0000000001
 40
0.1951077881781194
 40
0.1951077881781194
 40
0.1951077881781194
 40
0.1951077881781194
 40
1.131861442309804
 40
1.131861442309804
 40
1.131861442309804
 40
2.060169560805893
 40
2.060169560805893
 40
2.060169560805893
 40
2.990924595755478
 40
2.990924595755478
 40
2.990924595755478
 40
3.924264170381464
 40
3.924264170381464
 40
3.924264170381464
 40
4.861080341039737
 40
4.861080341039737
 40
4.861080341039737
 40
5.802128682059656
 40
5.802128682059656
 40
5.802128682059656
 40
6.74824765564273
 40
6.74824765564273
 40
6.74824765564273
 40
7.526909021583725
 40
7.526909021583725
 40
7.526909021583725
 40
7.614439709328482
 40
7.614439709328482
 40
7.700267416281107
 40
7.700267416281107
 40
7.700267416281107
 40
8.659231924977638
 40
8.659231924977638
 40
8.659231924977638
 40
9.626089901489756
 40
9.626089901489756
 40
9.626089901489756
 40
10.60190123875156
 40
10.60190123875156
 40
10.60190123875156
 40
11.58777996210942
 40
11.58777996210942
 40
11.58777996210942
 40
12.58488078637327
 40
12.58488078637327
 40
12.58488078637327
 40
13.59436901108107
 40
13.59436901108107
 40
13.59436901108107
 40
14.61739108768448
 40
14.61739108768448
 40
14.61739108768448
 40
15.65493764570992
 40
15.65493764570992
 40
15.65493764570992
 40
16.708062139988
 40
16.708062139988
 40
16.708062139988
 40
17.77644954181142
 40
17.77644954181142
 40
17.77644954181142
 40
18.87178284585815
 40
18.87178284585815
 40
18.87178284585815
 40
19.99409242626164
 40
19.99409242626164
 40
19.99409242626164
 40
21.13621632947554
 40
21.13621632947554
 40
21.13621632947554
 40
21.13621632947554
 10
-961.7476418626312
 20
1379.29512643776
 30
0.0
 10
-961.7743766394611
 20
1378.984205720962
 30
0.0
 10
-961.807450881268
 20
1378.673989632863
 30
0.0
 10
-961.8468259174923
 20
1378.364942941243
 30
0.0
 10
-961.8858475667265
 20
1378.058669912598
 30
0.0
 10
-961.9310552568742
 20
1377.753565999611
 30
0.0
 10
-961.9824126130746
 20
1377.450007922886
 30
0.0
 10
-962.0339046772323
 20
1377.14565362744
 30
0.0
 10
-962.0915711906529
 20
1376.842896874831
 30
0.0
 10
-962.1553670302122
 20
1376.542133195302
 30
0.0
 10
-962.2193400344769
 20
1376.240534277786
 30
0.0
 10
-962.2894696911609
 20
1375.940971501377
 30
0.0
 10
-962.365705217367
 20
1375.643833663105
 30
0.0
 10
-962.44222433468
 20
1375.345590491759
 30
0.0
 10
-962.5248878174312
 20
1375.049817618693
 30
0.0
 10
-962.613639324679
 20
1374.756905466088
 30
0.0
 10
-962.7027912667662
 20
1374.462671733325
 30
0.0
 10
-962.7980807854577
 20
1374.171342843977
 30
0.0
 10
-962.8994464205285
 20
1373.883311482023
 30
0.0
 10
-963.0013574019359
 20
1373.593730513558
 30
0.0
 10
-963.1094075722041
 20
1373.307489862059
 30
0.0
 10
-963.2235302201804
 20
1373.024988634119
 30
0.0
 10
-963.3174572769316
 20
1372.792479931074
 30
0.0
 10
-963.4154989435093
 20
1372.562502582146
 30
0.0
 10
-963.5176143567315
 20
1372.335279972901
 30
0.0
 10
-963.5315680656589
 20
1372.304230809498
 30
0.0
 10
-963.5439424616744
 20
1372.276913529153
 30
0.0
 10
-963.5652272857129
 20
1372.230139850496
 30
0.0
 10
-963.575807814456
 20
1372.207011516244
 30
0.0
 10
-963.58643076693
 20
1372.183912631019
 30
0.0
 10
-963.7144190751013
 20
1371.905610789058
 30
0.0
 10
-963.8485851041825
 20
1371.63153732646
 30
0.0
 10
-963.9888480959745
 20
1371.362119622026
 30
0.0
 10
-964.1302632724961
 20
1371.090488796647
 30
0.0
 10
-964.277897379549
 20
1370.823549997399
 30
0.0
 10
-964.4316587287223
 20
1370.561754264088
 30
0.0
 10
-964.5868409949602
 20
1370.297539262039
 30
0.0
 10
-964.7482991244648
 20
1370.038504148741
 30
0.0
 10
-964.9159262873821
 20
1369.785130196083
 30
0.0
 10
-965.0852794045655
 20
1369.529147406964
 30
0.0
 10
-965.2609792539328
 20
1369.278868125767
 30
0.0
 10
-965.4428985261449
 20
1369.03480958363
 30
0.0
 10
-965.6268848801798
 20
1368.787977893987
 30
0.0
 10
-965.8172975082217
 20
1368.547423085098
 30
0.0
 10
-966.0139823573492
 20
1368.313702318798
 30
0.0
 10
-966.2131072151122
 20
1368.07708208825
 30
0.0
 10
-966.4187363804598
 20
1367.847377542426
 30
0.0
 10
-966.630682074741
 20
1367.625187171885
 30
0.0
 10
-966.8454664485527
 20
1367.400020910473
 30
0.0
 10
-967.0668153485454
 20
1367.182490672026
 30
0.0
 10
-967.2944994026337
 20
1366.973234590401
 30
0.0
 10
-967.5254144722102
 20
1366.761009000685
 30
0.0
 10
-967.762911795936
 20
1366.557233876953
 30
0.0
 10
-968.0067116305423
 20
1366.362581625384
 30
0.0
 10
-968.2541717034691
 20
1366.165007002554
 30
0.0
 10
-968.508160362983
 20
1365.976803294029
 30
0.0
 10
-968.7683355262458
 20
1365.798668602757
 30
0.0
 10
-969.0322835426813
 20
1365.617950743949
 30
0.0
 10
-969.302582475187
 20
1365.447607434013
 30
0.0
 10
-969.5788184533866
 20
1365.288345788843
 30
0.0
 10
-969.8620214555707
 20
1365.125067361686
 30
0.0
 10
-970.1513711502238
 20
1364.973490782727
 30
0.0
 10
-970.4463422900739
 20
1364.834336533358
 30
0.0
 10
-970.7485868971652
 20
1364.691750986016
 30
0.0
 10
-971.0565389375796
 20
1364.562299998584
 30
0.0
 10
-971.3695670390842
 20
1364.446679012419
 30
0.0
 10
-971.6881002078968
 20
1364.329024658296
 30
0.0
 10
-972.0116051484002
 20
1364.225796298623
 30
0.0
 10
-972.3392423290876
 20
1364.13764339906
 30
0.0
  0
ARC
  5
B6
330
1F
100
AcDbEntity
  8
Make2D$Visible$Curves
 62
    18
420
        0
370
    -3
100
AcDbCircle
 10
-994.4460685725243
 20
1354.347285654722
 30
0.0
 40
3.908012741992105
100
AcDbArc
 50
97.45032070803396
 51
118.67072406866
  0
ARC
  5
B7
330
1F
100
AcDbEntity
  8
Make2D$Visible$Curves
 62
    18
420
        0
370
    -3
100
AcDbCircle
 10
997.4297445919822
 20
1376.968353413999
 30
0.0
 40
18.90898006205227
210
0.0
220
0.0
230
-1.0
100
AcDbArc
 50
254.915220115983
 51
262.4730425849605
  0
LINE
  5
B8
330
1F
100
AcDbEntity
  8
Make2D$Visible$Curves
 62
    18
420
        0
370
    -3
100
AcDbLine
 10
-972.3392464187369
 20
1364.137642298736
 30
0.0
 11
-992.5087170639395
 21
1358.710943545609
 31
0.0
  0
LINE
  5
B9
330
1F
100
AcDbEntity
  8
Make2D$Visible$Curves
 62
    18
420
        0
370
    -3
100
AcDbLine
 10
-870.0645544418867
 20
1408.247748441843
 30
0.0
 11
-870.065594656189
 21
1408.247682312642
 31
0.0
  0
LINE
  5
BA
330
1F
100
AcDbEntity
  8
Make2D$Visible$Curves
 62
    18
420
        0
370
    -3
100
AcDbLine
 10
-1072.339546302578
 20
1350.064318377504
 30
0.0
 11
-1036.064554441958
 21
1350.064318377504
 31
0.0
  0
LINE
  5
BB
330
1F
100
AcDbEntity
  8
Make2D$Visible$Curves
 62
    18
420
        0
370
    -3
100
AcDbLine
 10
-1217.424371632688
 20
1401.382166941145
 30
0.0
 11
-1221.361813305993
 21
1401.725826461051
 31
0.0
  0
ARC
  5
BC
330
1F
100
AcDbEntity
  8
Make2D$Visible$Curves
 62
    18
420
        0
370
    -3
100
AcDbCircle
 10
-1271.6705881275
 20
1403.878618399903
 30
0.0
 40
2.237428031539213
100
AcDbArc
 50
269.8166361368068
 51
277.5644317839471
  0
LINE
  5
BD
330
1F
100
AcDbEntity
  8
Make2D$Visible$Curves
 62
    18
420
        0
370
    -3
100
AcDbLine
 10
-1282.928242954002
 20
1401.749573425667
 30
0.0
 11
-1282.802347120094
 21
1401.74990464315
 31
0.0
  0
ARC
  5
BE
330
1F
100
AcDbEntity
  8
Make2D$Visible$Curves
 62
    18
420
        0
370
    -3
100
AcDbCircle
 10
1281.572653926592
 20
1406.562311041405
 30
0.0
 40
5.000006219345957
210
0.0
220
0.0
230
-1.0
100
AcDbArc
 50
285.7307726428906
 51
333.0000813023632
  0
LINE
  5
BF
330
1F
100
AcDbEntity
  8
Make2D$Visible$Curves
 62
    18
420
        0
370
    -3
100
AcDbLine
 10
-1078.187927532936
 20
1382.520448707004
 30
0.0
 11
-1075.724922939578
 21
1382.533934445904
 31
0.0
  0
SPLINE
  5
C0
330
1F
100
AcDbEntity
  8
Make2D$Visible$Curves
 62
    18
420
        0
370
    -3
100
AcDbSpline
210
0.0
220
0.0
230
1.0
 70
     8
 71
     3
 72
   206
 73
   202
 74
     0
 42
0.000000001
 43
0.0000000001
 40
0.2862775857889009
 40
0.2862775857889009
 40
0.2862775857889009
 40
0.2862775857889009
 40
0.3387597482322272
 40
0.3387597482322272
 40
0.3387597482322272
 40
0.4969700705512519
 40
0.4969700705512519
 40
0.4969700705512519
 40
0.6665599599714849
 40
0.6665599599714849
 40
0.6665599599714849
 40
0.8478922695472874
 40
0.8478922695472874
 40
0.8478922695472874
 40
1.043225777582473
 40
1.043225777582473
 40
1.043225777582473
 40
1.256304034072415
 40
1.256304034072415
 40
1.256304034072415
 40
1.492510577997003
 40
1.492510577997003
 40
1.492510577997003
 40
1.756569434563675
 40
1.756569434563675
 40
1.756569434563675
 40
2.04397472175493
 40
2.04397472175493
 40
2.04397472175493
 40
2.340331165095248
 40
2.340331165095248
 40
2.340331165095248
 40
2.63567556685484
 40
2.63567556685484
 40
2.63567556685484
 40
2.929397971022846
 40
2.929397971022846
 40
2.929397971022846
 40
3.221749858233693
 40
3.221749858233693
 40
3.221749858233693
 40
3.509363658331866
 40
3.509363658331866
 40
3.509363658331866
 40
3.78807404126503
 40
3.78807404126503
 40
3.78807404126503
 40
4.055576043340243
 40
4.055576043340243
 40
4.055576043340243
 40
4.311978201948498
 40
4.311978201948498
 40
4.311978201948498
 40
4.556799682415503
 40
4.556799682415503
 40
4.556799682415503
 40
4.78534279224287
 40
4.78534279224287
 40
4.78534279224287
 40
4.993450015280396
 40
4.993450015280396
 40
4.993450015280396
 40
5.186106561501901
 40
5.186106561501901
 40
5.186106561501901
 40
5.374694976148992
 40
5.374694976148992
 40
5.374694976148992
 40
5.565608290101666
 40
5.565608290101666
 40
5.565608290101666
 40
5.757451644735967
 40
5.757451644735967
 40
5.757451644735967
 40
5.949303573193629
 40
5.949303573193629
 40
5.949303573193629
 40
6.143635572044761
 40
6.143635572044761
 40
6.143635572044761
 40
6.344891025417964
 40
6.344891025417964
 40
6.344891025417964
 40
6.556570807625117
 40
6.556570807625117
 40
6.556570807625117
 40
6.779714619917927
 40
6.779714619917927
 40
6.779714619917927
 40
7.011918091166414
 40
7.011918091166414
 40
7.011918091166414
 40
7.251409509231747
 40
7.251409509231747
 40
7.251409509231747
 40
7.497423590858697
 40
7.497423590858697
 40
7.497423590858697
 40
7.750917362492422
 40
7.750917362492422
 40
7.750917362492422
 40
8.011923813912256
 40
8.011923813912256
 40
8.011923813912256
 40
8.274294240502543
 40
8.274294240502543
 40
8.274294240502543
 40
8.531684330925403
 40
8.531684330925403
 40
8.531684330925403
 40
8.784074072008734
 40
8.784074072008734
 40
8.784074072008734
 40
9.034028203949001
 40
9.034028203949001
 40
9.034028203949001
 40
9.281334447772926
 40
9.281334447772926
 40
9.281334447772926
 40
9.524674384205692
 40
9.524674384205692
 40
9.524674384205692
 40
9.76501240482845
 40
9.76501240482845
 40
9.76501240482845
 40
10.00277289438921
 40
10.00277289438921
 40
10.00277289438921
 40
10.23808811101301
 40
10.23808811101301
 40
10.23808811101301
 40
10.47292375649643
 40
10.47292375649643
 40
10.47292375649643
 40
10.70778793140989
 40
10.70778793140989
 40
10.70778793140989
 40
10.94515190156409
 40
10.94515190156409
 40
10.94515190156409
 40
11.19292152801368
 40
11.19292152801368
 40
11.19292152801368
 40
11.46239519294158
 40
11.46239519294158
 40
11.46239519294158
 40
11.7621277481141
 40
11.7621277481141
 40
11.7621277481141
 40
12.09395180823732
 40
12.09395180823732
 40
12.09395180823732
 40
12.45818905212623
 40
12.45818905212623
 40
12.45818905212623
 40
12.85868504033256
 40
12.85868504033256
 40
12.85868504033256
 40
13.30178830729185
 40
13.30178830729185
 40
13.30178830729185
 40
13.79349653536517
 40
13.79349653536517
 40
13.79349653536517
 40
14.34033281250078
 40
14.34033281250078
 40
14.34033281250078
 40
14.9499325955107
 40
14.9499325955107
 40
14.9499325955107
 40
15.6312542692607
 40
15.6312542692607
 40
15.6312542692607
 40
16.39547851283706
 40
16.39547851283706
 40
16.39547851283706
 40
17.25623892502372
 40
17.25623892502372
 40
17.25623892502372
 40
18.23011560456212
 40
18.23011560456212
 40
18.23011560456212
 40
19.3384210084097
 40
19.3384210084097
 40
19.3384210084097
 40
20.60664246909884
 40
20.60664246909884
 40
20.60664246909884
 40
22.06743208342562
 40
22.06743208342562
 40
22.06743208342562
 40
23.68895649976371
 40
23.68895649976371
 40
23.68895649976371
 40
25.39515732029596
 40
25.39515732029596
 40
25.39515732029596
 40
27.07555687786455
 40
27.07555687786455
 40
27.07555687786455
 40
28.45355352280332
 40
28.45355352280332
 40
28.45355352280332
 40
28.45355352280332
 10
-989.487664023016
 20
1387.992871170682
 30
0.0
 10
-989.4764520264613
 20
1387.995037261747
 30
0.0
 10
-989.4652697488879
 20
1387.997198340027
 30
0.0
 10
-989.454118364379
 20
1387.999354507108
 30
0.0
 10
-989.4205353900535
 20
1388.005847916395
 30
0.0
 10
-989.3870698393886
 20
1388.012328266275
 30
0.0
 10
-989.3537250931034
 20
1388.018798761725
 30
0.0
 10
-989.3179931511592
 20
1388.025732488729
 30
0.0
 10
-989.2822366777408
 20
1388.032686568101
 30
0.0
 10
-989.2464560051984
 20
1388.039660141631
 30
0.0
 10
-989.2081972067239
 20
1388.047116696395
 30
0.0
 10
-989.1699414236188
 20
1388.054589559603
 30
0.0
 10
-989.131688616924
 20
1388.062078812101
 30
0.0
 10
-989.0904811437757
 20
1388.070146538311
 30
0.0
 10
-989.049270798672
 20
1388.078234522237
 30
0.0
 10
-989.0080574475209
 20
1388.086342623222
 30
0.0
 10
-988.9630954817795
 20
1388.095188207202
 30
0.0
 10
-988.9180901510239
 20
1388.104065563773
 30
0.0
 10
-988.8730413290801
 20
1388.112972803769
 30
0.0
 10
-988.8230915033324
 20
1388.122849090573
 30
0.0
 10
-988.7730716161203
 20
1388.132765394428
 30
0.0
 10
-988.7229830952689
 20
1388.142717971174
 30
0.0
 10
-988.6669714828453
 20
1388.153847464755
 30
0.0
 10
-988.6108687261213
 20
1388.165023374038
 30
0.0
 10
-988.5546768288103
 20
1388.176240233108
 30
0.0
 10
-988.4934946447426
 20
1388.188453238348
 30
0.0
 10
-988.4321965156411
 20
1388.200716836964
 30
0.0
 10
-988.3707859005996
 20
1388.213023198291
 30
0.0
 10
-988.3074397712184
 20
1388.225717426419
 30
0.0
 10
-988.2439683735505
 20
1388.238458290115
 30
0.0
 10
-988.1803716810006
 20
1388.251237836957
 30
0.0
 10
-988.1169810785988
 20
1388.263975970661
 30
0.0
 10
-988.0536124270308
 20
1388.27672310979
 30
0.0
 10
-987.9902631500607
 20
1388.289480888485
 30
0.0
 10
-987.9272634021091
 20
1388.302168276261
 30
0.0
 10
-987.8642806343652
 20
1388.31486661005
 30
0.0
 10
-987.8013155596096
 20
1388.327576857984
 30
0.0
 10
-987.7386486020963
 20
1388.340226927414
 30
0.0
 10
-987.6760033088743
 20
1388.352887966495
 30
0.0
 10
-987.6133796911948
 20
1388.365561286467
 30
0.0
 10
-987.5517755240236
 20
1388.378028297335
 30
0.0
 10
-987.4901949581623
 20
1388.390506661818
 30
0.0
 10
-987.4286378983512
 20
1388.402997843156
 30
0.0
 10
-987.3689927162087
 20
1388.415101065571
 30
0.0
 10
-987.3093874305611
 20
1388.427212702635
 30
0.0
 10
-987.2498223828567
 20
1388.439335034964
 30
0.0
 10
-987.1926599817472
 20
1388.450968394622
 30
0.0
 10
-987.135535557231
 20
1388.462611416103
 30
0.0
 10
-987.0784496498271
 20
1388.47426613979
 30
0.0
 10
-987.0237396387982
 20
1388.485435797774
 30
0.0
 10
-986.9690600625087
 20
1388.496617213679
 30
0.0
 10
-986.9144112505732
 20
1388.507811986154
 30
0.0
 10
-986.8622367830466
 20
1388.518499890836
 30
0.0
 10
-986.8101115192738
 20
1388.529195635014
 30
0.0
 10
-986.7580360874327
 20
1388.539901518706
 30
0.0
 10
-986.7094193582913
 20
1388.549896347922
 30
0.0
 10
-986.6607249317182
 20
1388.559924915168
 30
0.0
 10
-986.6119551222338
 20
1388.569983021649
 30
0.0
 10
-986.5675294293954
 20
1388.579145213459
 30
0.0
 10
-986.5229947661434
 20
1388.588341492744
 30
0.0
 10
-986.4783544444368
 20
1388.597566279901
 30
0.0
 10
-986.437008215814
 20
1388.606110352707
 30
0.0
 10
-986.3955685876793
 20
1388.614679448682
 30
0.0
 10
-986.3540390092634
 20
1388.623268906034
 30
0.0
 10
-986.3133654202885
 20
1388.631681321261
 30
0.0
 10
-986.2725825307649
 20
1388.640118026937
 30
0.0
 10
-986.2316951732279
 20
1388.648573444368
 30
0.0
 10
-986.1902790085816
 20
1388.657138217971
 30
0.0
 10
-986.1487476207584
 20
1388.665723852317
 30
0.0
 10
-986.1071061518425
 20
1388.674324262111
 30
0.0
 10
-986.0652268827613
 20
1388.682973785899
 30
0.0
 10
-986.023140596432
 20
1388.691657967892
 30
0.0
 10
-985.980873629699
 20
1388.700362473427
 30
0.0
 10
-985.9385501225171
 20
1388.709078622963
 30
0.0
 10
-985.8959400478112
 20
1388.717836871359
 30
0.0
 10
-985.8530760558853
 20
1388.726617519067
 30
0.0
 10
-985.8095968167182
 20
1388.735524199583
 30
0.0
 10
-985.7658240834877
 20
1388.744460675166
 30
0.0
 10
-985.7217539824102
 20
1388.75341309373
 30
0.0
 10
-985.6760949601374
 20
1388.762688286404
 30
0.0
 10
-985.6306342230117
 20
1388.77187570407
 30
0.0
 10
-985.5853002606472
 20
1388.780998293279
 30
0.0
 10
-985.5376696961349
 20
1388.790583029561
 30
0.0
 10
-985.4903088459101
 20
1388.800069654754
 30
0.0
 10
-985.4432591264002
 20
1388.809465930143
 30
0.0
 10
-985.3937682707141
 20
1388.819349723589
 30
0.0
 10
-985.3446202518522
 20
1388.829133841301
 30
0.0
 10
-985.296250021409
 20
1388.83875865374
 30
0.0
 10
-985.2457950940269
 20
1388.848798283658
 30
0.0
 10
-985.1960877890805
 20
1388.858684171934
 30
0.0
 10
-985.146886262363
 20
1388.868493178177
 30
0.0
 10
-985.0961785476896
 20
1388.878602463863
 30
0.0
 10
-985.0460352366275
 20
1388.888624736656
 30
0.0
 10
-984.9964121684139
 20
1388.898592190654
 30
0.0
 10
-984.945457986281
 20
1388.908827016607
 30
0.0
 10
-984.8950279380484
 20
1388.919009018901
 30
0.0
 10
-984.8452019540451
 20
1388.929144920744
 30
0.0
 10
-984.7938806352767
 20
1388.939585012594
 30
0.0
 10
-984.7429527408452
 20
1388.950026714159
 30
0.0
 10
-984.6923638242157
 20
1388.960496609916
 30
0.0
 10
-984.6402998649825
 20
1388.971271780886
 30
0.0
 10
-984.5881713782752
 20
1388.982164213836
 30
0.0
 10
-984.5359691049708
 20
1388.993173214513
 30
0.0
 10
-984.483499706087
 20
1389.004238549627
 30
0.0
 10
-984.4310885574561
 20
1389.015393527225
 30
0.0
 10
-984.3787649397906
 20
1389.026635035483
 30
0.0
 10
-984.3274533091359
 20
1389.037659122606
 30
0.0
 10
-984.2763147925685
 20
1389.048747376962
 30
0.0
 10
-984.2253651708799
 20
1389.059903939678
 30
0.0
 10
-984.1754205541268
 20
1389.070840434017
 30
0.0
 10
-984.1256022608264
 20
1389.081854837743
 30
0.0
 10
-984.0758510470874
 20
1389.092963912527
 30
0.0
 10
-984.0265708770113
 20
1389.103967806777
 30
0.0
 10
-983.9770404783654
 20
1389.115135052319
 30
0.0
 10
-983.9272620575222
 20
1389.126455482964
 30
0.0
 10
-983.8779847472603
 20
1389.13766195283
 30
0.0
 10
-983.8286417233033
 20
1389.148978138401
 30
0.0
 10
-983.7792424230585
 20
1389.160398914947
 30
0.0
 10
-983.7305857305392
 20
1389.171648005723
 30
0.0
 10
-983.6814905064242
 20
1389.183087665
 30
0.0
 10
-983.6319249362406
 20
1389.194705611508
 30
0.0
 10
-983.5829692858302
 20
1389.206180595568
 30
0.0
 10
-983.5330011864872
 20
1389.217959276271
 30
0.0
 10
-983.4823577342346
 20
1389.229925734566
 30
0.0
 10
-983.4322029582473
 20
1389.241776724347
 30
0.0
 10
-983.3820143519534
 20
1389.253663094318
 30
0.0
 10
-983.3318122326679
 20
1389.265578262873
 30
0.0
 10
-983.2821323989189
 20
1389.277369470123
 30
0.0
 10
-983.2326615334006
 20
1389.289136232118
 30
0.0
 10
-983.1834033639458
 20
1389.300887913794
 30
0.0
 10
-983.1342605799147
 20
1389.312612067595
 30
0.0
 10
-983.0850759247515
 20
1389.324381705923
 30
0.0
 10
-983.0358413826499
 20
1389.336196535948
 30
0.0
 10
-982.9865889767792
 20
1389.348015652749
 30
0.0
 10
-982.9372244397726
 20
1389.359894887154
 30
0.0
 10
-982.8877523332857
 20
1389.371827679038
 30
0.0
 10
-982.8377410950046
 20
1389.383890510817
 30
0.0
 10
-982.7877172900852
 20
1389.39598458332
 30
0.0
 10
-982.7376839246009
 20
1389.408108470857
 30
0.0
 10
-982.6854568199152
 20
1389.420763936615
 30
0.0
 10
-982.6332534624609
 20
1389.433443623801
 30
0.0
 10
-982.5810736180948
 20
1389.446148753271
 30
0.0
 10
-982.5243269334934
 20
1389.459965850345
 30
0.0
 10
-982.4675996485511
 20
1389.473815084036
 30
0.0
 10
-982.4108918065573
 20
1389.487697431847
 30
0.0
 10
-982.3478227264328
 20
1389.503137040826
 30
0.0
 10
-982.2847953724907
 20
1389.51861327228
 30
0.0
 10
-982.2218123300137
 20
1389.534128105341
 30
0.0
 10
-982.152100848342
 20
1389.551300378353
 30
0.0
 10
-982.0824966484862
 20
1389.568506895472
 30
0.0
 10
-982.0130025128002
 20
1389.585754291761
 30
0.0
 10
-981.9367437495345
 20
1389.604680566583
 30
0.0
 10
-981.8606403255823
 20
1389.623650406464
 30
0.0
 10
-981.7846970122001
 20
1389.64267409475
 30
0.0
 10
-981.7012119711441
 20
1389.663586974725
 30
0.0
 10
-981.617774952119
 20
1389.684601463029
 30
0.0
 10
-981.5343714741508
 20
1389.705724177821
 30
0.0
 10
-981.4420914020633
 20
1389.729094973514
 30
0.0
 10
-981.3497222876975
 20
1389.752631085281
 30
0.0
 10
-981.2572679454953
 20
1389.776322937883
 30
0.0
 10
-981.1546533215306
 20
1389.802618409657
 30
0.0
 10
-981.0519597315325
 20
1389.829099091434
 30
0.0
 10
-980.9491874228844
 20
1389.855755783569
 30
0.0
 10
-980.8348706980779
 20
1389.88540682264
 30
0.0
 10
-980.7204269423765
 20
1389.915283297609
 30
0.0
 10
-980.6058602741351
 20
1389.945368569655
 30
0.0
 10
-980.4781235299953
 20
1389.978912311099
 30
0.0
 10
-980.3503455328399
 20
1390.012686290436
 30
0.0
 10
-980.2225319473861
 20
1390.04668197194
 30
0.0
 10
-980.0796679175038
 20
1390.084680749934
 30
0.0
 10
-979.936774206352
 20
1390.122952650259
 30
0.0
 10
-979.7938509888976
 20
1390.161490910195
 30
0.0
 10
-979.6335257154027
 20
1390.204721514533
 30
0.0
 10
-979.4731606350052
 20
1390.248287992414
 30
0.0
 10
-979.3127578570492
 20
1390.292179800614
 30
0.0
 10
-979.1320788924805
 20
1390.341619882387
 30
0.0
 10
-978.9513617548624
 20
1390.391470097349
 30
0.0
 10
-978.7706092244472
 20
1390.441717678731
 30
0.0
 10
-978.5660836391418
 20
1390.498573956034
 30
0.0
 10
-978.3614894513672
 20
1390.555945532966
 30
0.0
 10
-978.1568266666424
 20
1390.613810083279
 30
0.0
 10
-977.9238804671755
 20
1390.679671236773
 30
0.0
 10
-977.6907683209512
 20
1390.746192757865
 30
0.0
 10
-977.4574953701759
 20
1390.813322429241
 30
0.0
 10
-977.1905193351942
 20
1390.890150940364
 30
0.0
 10
-976.9234305855956
 20
1390.967747808956
 30
0.0
 10
-976.6562359701232
 20
1391.04606273036
 30
0.0
 10
-976.3484277400568
 20
1391.136281529502
 30
0.0
 10
-976.0403524602517
 20
1391.22749032831
 30
0.0
 10
-975.7320192949466
 20
1391.319580872441
 30
0.0
 10
-975.3898206889363
 20
1391.421786082177
 30
0.0
 10
-975.0485916701774
 20
1391.524691307419
 30
0.0
 10
-974.708452551347
 20
1391.628602548315
 30
0.0
 10
-974.3507912196163
 20
1391.737866760347
 30
0.0
 10
-973.9948163445584
 20
1391.84809931887
 30
0.0
 10
-973.6406091038667
 20
1391.959882428764
 30
0.0
 10
-973.2920053812887
 20
1392.06989714262
 30
0.0
 10
-972.9445565029106
 20
1392.181588922971
 30
0.0
 10
-972.598308227762
 20
1392.295319818726
 30
0.0
 10
-972.3145022347516
 20
1392.388540528033
 30
0.0
 10
-972.03132859751
 20
1392.483188591424
 30
0.0
 10
-971.7487999629856
 20
1392.579415045831
 30
0.0
  0
ARC
  5
C1
330
1F
100
AcDbEntity
  8
Make2D$Visible$Curves
 62
    18
420
        0
370
    -3
100
AcDbCircle
 10
-988.0112660668178
 20
1382.039119082212
 30
0.0
 40
5.94696173788926
100
AcDbArc
 50
99.83708226898744
 51
174.6321875756875
  0
ARC
  5
C2
330
1F
100
AcDbEntity
  8
Make2D$Visible$Curves
 62
    18
420
        0
370
    -3
100
AcDbCircle
 10
-1048.200357600394
 20
1365.475764039292
 30
0.0
 40
43.81929971801796
100
AcDbArc
 50
87.30885803613707
 51
104.1965354457791
  0
LINE
  5
C3
330
1F
100
AcDbEntity
  8
Make2D$Visible$Curves
 62
    18
420
        0
370
    -3
100
AcDbLine
 10
-1198.115170872802
 20
1401.762470558187
 30
0.0
 11
-1221.361813305993
 21
1401.725826461051
 31
0.0
  0
LINE
  5
C4
330
1F
100
AcDbEntity
  8
Make2D$Visible$Curves
 62
    18
420
        0
370
    -3
100
AcDbLine
 10
-1234.450705517523
 20
1401.707193140755
 30
0.0
 11
-1235.192218194416
 21
1401.706175250434
 31
0.0
  0
POLYLINE
  5
C5
330
1F
100
AcDbEntity
  8
Make2D$Visible$Curves
 62
    18
420
        0
370
    -3
100
AcDb2dPolyline
 66
     1
 10
0.0
 20
0.0
 30
0.0
  0
VERTEX
  5
C6
330
C5
100
AcDbEntity
  8
Make2D$Visible$Curves
 62
    18
420
        0
370
    -3
100
AcDbVertex
100
AcDb2dVertex
 10
-1271.794870366951
 20
1401.593213255406
 30
0.0
  0
VERTEX
  5
C7
330
C5
100
AcDbEntity
  8
Make2D$Visible$Curves
 62
    18
420
        0
370
    -3
100
AcDbVertex
100
AcDb2dVertex
 10
-1282.277295645948
 20
1401.641849264003
 30
0.0
  0
VERTEX
  5
C8
330
C5
100
AcDbEntity
  8
Make2D$Visible$Curves
 62
    18
420
        0
370
    -3
100
AcDbVertex
100
AcDb2dVertex
 10
-1282.410541589582
 20
1401.650059715262
 30
0.0
 42
-0.0530834587258811
  0
VERTEX
  5
C9
330
C5
100
AcDbEntity
  8
Make2D$Visible$Curves
 62
    18
420
        0
370
    -3
100
AcDbVertex
100
AcDb2dVertex
 10
-1282.815172475176
 20
1401.71866960743
 30
0.0
  0
SEQEND
  5
CA
330
C5
100
AcDbEntity
  8
Make2D$Visible$Curves
 62
    18
420
        0
370
    -3
  0
ARC
  5
CB
330
1F
100
AcDbEntity
  8
Make2D$Visible$Curves
 62
    18
420
        0
370
    -3
100
AcDbCircle
 10
-1282.175906627441
 20
1403.979078190085
 30
0.0
 40
2.337546593748697
100
AcDbArc
 50
271.4116115331701
 51
287.4191898190741
  0
SPLINE
  5
CC
330
1F
100
AcDbEntity
  8
Make2D$Visible$Curves
 62
    18
420
        0
370
    -3
100
AcDbSpline
210
0.0
220
0.0
230
1.0
 70
     8
 71
     3
 72
    23
 73
    19
 74
     0
 42
0.000000001
 43
0.0000000001
 40
0.1388106933690288
 40
0.1388106933690288
 40
0.1388106933690288
 40
0.1388106933690288
 40
1.822351291388947
 40
1.822351291388947
 40
1.822351291388947
 40
3.717585368891812
 40
3.717585368891812
 40
3.717585368891812
 40
5.854025242484942
 40
5.854025242484942
 40
5.854025242484942
 40
8.2503282433747
 40
8.2503282433747
 40
8.2503282433747
 40
10.9092471729888
 40
10.9092471729888
 40
10.9092471729888
 40
13.83065226457605
 40
13.83065226457605
 40
13.83065226457605
 40
13.83065226457605
 10
-1070.975674379315
 20
1404.95313820323
 30
0.0
 10
-1071.501042893422
 20
1404.821949542719
 30
0.0
 10
-1072.028306133155
 20
1404.694429534276
 30
0.0
 10
-1072.55860555914
 20
1404.569149568905
 30
0.0
 10
-1073.155470924014
 20
1404.428143811443
 30
0.0
 10
-1073.754401069349
 20
1404.290395937918
 30
0.0
 10
-1074.356117951896
 20
1404.154731774729
 30
0.0
 10
-1075.034330507106
 20
1404.001820760538
 30
0.0
 10
-1075.714764302781
 20
1403.851853313508
 30
0.0
 10
-1076.397809784587
 20
1403.703813545585
 30
0.0
 10
-1077.163878098435
 20
1403.537779835655
 30
0.0
 10
-1077.932256256396
 20
1403.374381179422
 30
0.0
 10
-1078.703092146121
 20
1403.21270513443
 30
0.0
 10
-1079.558362608426
 20
1403.03331968081
 30
0.0
 10
-1080.415934738316
 20
1402.856205714755
 30
0.0
 10
-1081.275756305012
 20
1402.680502274727
 30
0.0
 10
-1082.22040398112
 20
1402.487464727477
 30
0.0
 10
-1083.167300124353
 20
1402.296224500929
 30
0.0
 10
-1084.11607295678
 20
1402.105906290188
 30
0.0
  0
ARC
  5
CD
330
1F
100
AcDbEntity
  8
Make2D$Visible$Curves
 62
    18
420
        0
370
    -3
100
AcDbCircle
 10
1085.042232546656
 20
1406.722503809858
 30
0.0
 40
4.708581978137009
210
0.0
220
0.0
230
-1.0
100
AcDbArc
 50
258.6561792177403
 51
269.8400112939178
  0
LINE
  5
CE
330
1F
100
AcDbEntity
  8
Make2D$Visible$Curves
 62
    18
420
        0
370
    -3
100
AcDbLine
 10
-1271.452607009023
 20
1401.591833582588
 30
0.0
 11
-1271.794862034393
 21
1401.593213222213
 31
0.0
  0
LINE
  5
CF
330
1F
100
AcDbEntity
  8
Make2D$Visible$Curves
 62
    18
420
        0
370
    -3
100
AcDbLine
 10
-1181.007016937045
 20
1398.559991099601
 30
0.0
 11
-1181.949733823538
 21
1398.595560642804
 31
0.0
  0
ARC
  5
D0
330
1F
100
AcDbEntity
  8
Make2D$Visible$Curves
 62
    18
420
        0
370
    -3
100
AcDbCircle
 10
-1274.911535325029
 20
1084.02027124653
 30
0.0
 40
317.590398741292
100
AcDbArc
 50
87.3311815048961
 51
89.37597078736563
  0
SPLINE
  5
D1
330
1F
100
AcDbEntity
  8
Make2D$Visible$Curves
 62
    18
420
        0
370
    -3
100
AcDbSpline
210
0.0
220
0.0
230
1.0
 70
     8
 71
     3
 72
    76
 73
    72
 74
     0
 42
0.000000001
 43
0.0000000001
 40
3.477882287361535
 40
3.477882287361535
 40
3.477882287361535
 40
3.477882287361535
 40
6.696952371558047
 40
6.696952371558047
 40
6.696952371558047
 40
12.32665457691964
 40
12.32665457691964
 40
12.32665457691964
 40
13.88927090061845
 40
13.88927090061845
 40
13.88927090061845
 40
15.11557540988222
 40
15.11557540988222
 40
15.11557540988222
 40
17.89322834989183
 40
17.89322834989183
 40
17.89322834989183
 40
20.59405864835996
 40
20.59405864835996
 40
20.59405864835996
 40
23.1933890834361
 40
23.1933890834361
 40
23.1933890834361
 40
25.74852977440467
 40
25.74852977440467
 40
25.74852977440467
 40
28.26025561476899
 40
28.26025561476899
 40
28.26025561476899
 40
33.14791364901297
 40
33.14791364901297
 40
33.14791364901297
 40
37.87605802825903
 40
37.87605802825903
 40
37.87605802825903
 40
38.65126116707789
 40
38.65126116707789
 40
39.12578033801697
 40
39.12578033801697
 40
39.12578033801697
 40
42.51432391281471
 40
42.51432391281471
 40
42.51432391281471
 40
47.04366948583692
 40
47.04366948583692
 40
47.04366948583692
 40
51.39657895842576
 40
51.39657895842576
 40
51.39657895842576
 40
56.10177870341835
 40
56.10177870341835
 40
56.10177870341835
 40
60.72756965780098
 40
60.72756965780098
 40
60.72756965780098
 40
64.99211400526603
 40
64.99211400526603
 40
64.99211400526603
 40
73.16582824838622
 40
73.16582824838622
 40
73.16582824838622
 40
82.44703155485642
 40
82.44703155485642
 40
82.44703155485642
 40
87.41454986342069
 40
87.41454986342069
 40
87.41454986342069
 40
92.22155516136654
 40
92.22155516136654
 40
92.22155516136654
 40
111.1489189951945
 40
111.1489189951945
 40
111.1489189951945
 40
111.1489189951945
 10
-1083.290830605669
 20
1387.880687346147
 30
0.0
 10
-1084.350331328712
 20
1388.035639577583
 30
0.0
 10
-1085.410926399394
 20
1388.190673697506
 30
0.0
 10
-1086.472638948361
 20
1388.345829761302
 30
0.0
 10
-1088.322390167633
 20
1388.61614786055
 30
0.0
 10
-1090.174608384932
 20
1388.886700848437
 30
0.0
 10
-1092.028857229707
 20
1389.157047409371
 30
0.0
 10
-1092.563136727854
 20
1389.234944518656
 30
0.0
 10
-1093.077228002387
 20
1389.309857771014
 30
0.0
 10
-1093.571052360504
 20
1389.381819077273
 30
0.0
 10
-1093.99492993894
 20
1389.443587565881
 30
0.0
 10
-1094.398614653477
 20
1389.50241435026
 30
0.0
 10
-1094.782045372243
 20
1389.55830638004
 30
0.0
 10
-1095.695760520666
 20
1389.691497049924
 30
0.0
 10
-1096.610050654047
 20
1389.824867025753
 30
0.0
 10
-1097.524630777248
 20
1389.95825420489
 30
0.0
 10
-1098.405721013535
 20
1390.086757042643
 30
0.0
 10
-1099.300470154954
 20
1390.217222268259
 30
0.0
 10
-1100.155046878059
 20
1390.340392270401
 30
0.0
 10
-1100.986924704428
 20
1390.4602906843
 30
0.0
 10
-1101.795612788873
 20
1390.575459506213
 30
0.0
 10
-1102.599381087094
 20
1390.688136447576
 30
0.0
 10
-1103.386338463114
 20
1390.798456735536
 30
0.0
 10
-1104.177298772471
 20
1390.907606539002
 30
0.0
 10
-1104.976589949589
 20
1391.016500212866
 30
0.0
 10
-1105.76026147517
 20
1391.123265899721
 30
0.0
 10
-1106.539085490413
 20
1391.228010780993
 30
0.0
 10
-1107.298442379269
 20
1391.328643671536
 30
0.0
 10
-1108.769889774873
 20
1391.523645530181
 30
0.0
 10
-1110.226859783282
 20
1391.710835258852
 30
0.0
 10
-1111.582030239379
 20
1391.879326407696
 30
0.0
 10
-1112.900643432468
 20
1392.043272316333
 30
0.0
 10
-1114.153802046831
 20
1392.193540624636
 30
0.0
 10
-1115.330894095474
 20
1392.330036917317
 30
0.0
 10
-1115.523670700244
 20
1392.352391406838
 30
0.0
 10
-1115.713560239438
 20
1392.374278841297
 30
0.0
 10
-1116.014808205307
 20
1392.408797281371
 30
0.0
 10
-1116.128034075752
 20
1392.421722931312
 30
0.0
 10
-1116.240072624807
 20
1392.434466057153
 30
0.0
 10
-1117.040955735
 20
1392.525557510437
 30
0.0
 10
-1117.774761184494
 20
1392.606581034909
 30
0.0
 10
-1118.433208072836
 20
1392.677459090764
 30
0.0
 10
-1119.32289553033
 20
1392.773228876334
 30
0.0
 10
-1120.111966034887
 20
1392.854749534597
 30
0.0
 10
-1120.914908446269
 20
1392.934881374218
 30
0.0
 10
-1121.70483512735
 20
1393.013714273344
 30
0.0
 10
-1122.791822012874
 20
1393.118980246174
 30
0.0
 10
-1124.254715788592
 20
1393.258172007814
 30
0.0
 10
-1125.770195065064
 20
1393.402367187068
 30
0.0
 10
-1127.320784862887
 20
1393.548232637229
 30
0.0
 10
-1128.855978836749
 20
1393.691684507716
 30
0.0
 10
-1130.371334604075
 20
1393.833282652952
 30
0.0
 10
-1131.87658672574
 20
1393.973004026271
 30
0.0
 10
-1133.349589362957
 20
1394.108515471829
 30
0.0
 10
-1134.692093808133
 20
1394.232021508708
 30
0.0
 10
-1136.043119737951
 20
1394.355215480212
 30
0.0
 10
-1137.265461789269
 20
1394.46532914463
 30
0.0
 10
-1139.663220353389
 20
1394.68132922546
 30
0.0
 10
-1141.967787544871
 20
1394.883784478841
 30
0.0
 10
-1144.545409195689
 20
1395.10744957576
 30
0.0
 10
-1147.465956699241
 20
1395.360870996329
 30
0.0
 10
-1150.394889813996
 20
1395.611830931784
 30
0.0
 10
-1153.520430303991
 20
1395.880863649643
 30
0.0
 10
-1155.156894734483
 20
1396.021723278504
 30
0.0
 10
-1156.817056976663
 20
1396.164909166517
 30
0.0
 10
-1158.43403439558
 20
1396.304254924292
 30
0.0
 10
-1160.009284130245
 20
1396.440004728461
 30
0.0
 10
-1161.583603250833
 20
1396.575555897653
 30
0.0
 10
-1163.167520039983
 20
1396.711940447862
 30
0.0
 10
-1169.394518581641
 20
1397.248121641894
 30
0.0
 10
-1175.621404087035
 20
1397.784389646066
 30
0.0
 10
-1181.846259647185
 20
1398.320311824018
 30
0.0
  0
ARC
  5
D2
330
1F
100
AcDbEntity
  8
Make2D$Visible$Curves
 62
    18
420
        0
370
    -3
100
AcDbCircle
 10
-1084.161052087848
 20
1381.945073739696
 30
0.0
 40
5.998985316887005
100
AcDbArc
 50
5.497166997282023
 51
81.65930101448521
  0
ARC
  5
D3
330
1F
100
AcDbEntity
  8
Make2D$Visible$Curves
 62
    18
420
        0
370
    -3
100
AcDbCircle
 10
923.4166188410635
 20
1401.007655009857
 30
0.0
 40
5.153207516752428
210
0.0
220
0.0
230
-1.0
100
AcDbArc
 50
198.3636556864973
 51
217.0112189562039
  0
SPLINE
  5
D4
330
1F
100
AcDbEntity
  8
Make2D$Visible$Curves
 62
    18
420
        0
370
    -3
100
AcDbSpline
210
0.0
220
0.0
230
1.0
 70
     8
 71
     3
 72
    32
 73
    28
 74
     0
 42
0.000000001
 43
0.0000000001
 40
1.453568658280336
 40
1.453568658280336
 40
1.453568658280336
 40
1.453568658280336
 40
8.530811766544875
 40
8.530811766544875
 40
8.530811766544875
 40
15.31011450882161
 40
15.31011450882161
 40
15.31011450882161
 40
22.03697074960056
 40
22.03697074960056
 40
22.03697074960056
 40
28.73615691268125
 40
28.73615691268125
 40
28.73615691268125
 40
35.41293409418122
 40
35.41293409418122
 40
35.41293409418122
 40
42.06610146657508
 40
42.06610146657508
 40
42.06610146657508
 40
48.69627979632639
 40
48.69627979632639
 40
48.69627979632639
 40
55.30861314839486
 40
55.30861314839486
 40
55.30861314839486
 40
56.61985835159027
 40
56.61985835159027
 40
56.61985835159027
 40
56.61985835159027
 10
-919.3222521939814
 20
1397.878389306714
 30
0.0
 10
-919.81292010458
 20
1397.235306987615
 30
0.0
 10
-920.3278606591754
 20
1396.833971071594
 30
0.0
 10
-920.7885544851312
 20
1396.532060977529
 30
0.0
 10
-921.2237211949015
 20
1396.246879768496
 30
0.0
 10
-921.6575041807363
 20
1396.032172632597
 30
0.0
 10
-922.0597522943557
 20
1395.860563762458
 30
0.0
 10
-922.4614104547137
 20
1395.689206580791
 30
0.0
 10
-922.8787285665477
 20
1395.54225324985
 30
0.0
 10
-923.2903599160239
 20
1395.415405637395
 30
0.0
 10
-923.7079355995862
 20
1395.286726229118
 30
0.0
 10
-924.1361938208878
 20
1395.17293444686
 30
0.0
 10
-924.5906532019991
 20
1395.065775831711
 30
0.0
 10
-925.0434340724388
 20
1394.959012998642
 30
0.0
 10
-925.5162673787005
 20
1394.860489781238
 30
0.0
 10
-926.0197205744304
 20
1394.766392059352
 30
0.0
 10
-926.5208999658013
 20
1394.672719321977
 30
0.0
 10
-927.048144193927
 20
1394.584345611287
 30
0.0
 10
-927.6072496641701
 20
1394.499626086686
 30
0.0
 10
-928.1641600426343
 20
1394.415239177561
 30
0.0
 10
-928.7502229159733
 20
1394.334891977415
 30
0.0
 10
-929.3687804378745
 20
1394.257812648941
 30
0.0
 10
-929.9855332460548
 20
1394.180958208399
 30
0.0
 10
-930.6331157773485
 20
1394.107553371524
 30
0.0
 10
-931.3135540922373
 20
1394.037209009314
 30
0.0
 10
-931.4484721332243
 20
1394.02326105351
 30
0.0
 10
-931.5846439484613
 20
1394.009437634576
 30
0.0
 10
-931.7220785316946
 20
1393.995737210603
 30
0.0
  0
LINE
  5
D5
330
1F
100
AcDbEntity
  8
Make2D$Visible$Curves
 62
    18
420
        0
370
    -3
100
AcDbLine
 10
-993.9324843679334
 20
1382.59210977904
 30
0.0
 11
-996.2674406627399
 21
1358.342661492706
 31
0.0
  0
LINE
  5
D6
330
1F
100
AcDbEntity
  8
Make2D$Visible$Curves
 62
    18
420
        0
370
    -3
100
AcDbLine
 10
-1075.32573489769
 20
1352.776781119901
 30
0.0
 11
-1078.189657596256
 21
1382.519755551318
 31
0.0
  0
SPLINE
  5
D7
330
1F
100
AcDbEntity
  8
Make2D$Visible$Curves
 62
    18
420
        0
370
    -3
100
AcDbSpline
210
0.0
220
0.0
230
1.0
 70
     8
 71
     3
 72
    16
 73
    12
 74
     0
 42
0.000000001
 43
0.0000000001
 40
-54.66893491984384
 40
-54.66893491984384
 40
-54.66893491984384
 40
-54.66893491984384
 40
-49.28472859269882
 40
-43.1241375186047
 40
-36.96354644452412
 40
-30.80295537042999
 40
-24.64236429634941
 40
-18.48177322225529
 40
-12.32118214817471
 40
-6.160591074080577
 40
0.0
 40
0.0
 40
0.0
 40
0.0
 10
-931.7219872657473
 20
1393.995747336623
 30
0.0
 10
-931.1784331628938
 20
1394.049931398961
 30
0.0
 10
-930.0625800940935
 20
1394.170275656187
 30
0.0
 10
-928.5163983447579
 20
1394.368299520704
 30
0.0
 10
-927.0895133327582
 20
1394.589456609504
 30
0.0
 10
-925.8524153111581
 20
1394.824510547604
 30
0.0
 10
-924.809154877658
 20
1395.072309399504
 30
0.0
 10
-923.9548294048581
 20
1395.334061115704
 30
0.0
 10
-923.2968303383581
 20
1395.608880541604
 30
0.0
 10
-922.8586316367581
 20
1395.880223959904
 30
0.0
 10
-922.704353378958
 20
1396.042663007204
 30
0.0
 10
-922.6497704480581
 20
1396.119525218304
 30
0.0
  0
ARC
  5
D8
330
1F
100
AcDbEntity
  8
Make2D$Visible$Curves
 62
    18
420
        0
370
    -3
100
AcDbCircle
 10
-973.2941358269097
 20
1367.566525908964
 30
0.0
 40
3.559361858497049
100
AcDbArc
 50
285.5617352639551
 51
319.6588471582527
  0
ARC
  5
D9
330
1F
100
AcDbEntity
  8
Make2D$Visible$Curves
 62
    18
420
        0
370
    -3
100
AcDbCircle
 10
-1311.860908857023
 20
1440.06227507593
 30
0.0
 40
10.00013448266575
100
AcDbArc
 50
22.74157237093734
 51
89.73852052734777
  0
LINE
  5
DA
330
1F
100
AcDbEntity
  8
Make2D$Visible$Curves
 62
    18
420
        0
370
    -3
100
AcDbLine
 10
-1286.185574769539
 20
1404.633340368509
 30
0.0
 11
-1302.638196881519
 21
1443.928084046825
 31
0.0
  0
ARC
  5
DB
330
1F
100
AcDbEntity
  8
Make2D$Visible$Curves
 62
    18
420
        0
370
    -3
100
AcDbCircle
 10
-1178.75197954904
 20
1442.589890673853
 30
0.0
 40
5.679121240541154
100
AcDbArc
 50
246.3047084831259
 51
263.6404670648791
  0
LINE
  5
DC
330
1F
100
AcDbEntity
  8
Make2D$Visible$Curves
 62
    18
420
        0
370
    -3
100
AcDbLine
 10
-1303.655847491158
 20
1450.007524363634
 30
0.0
 11
-1296.432385493058
 21
1449.248307914344
 31
0.0
  0
LINE
  5
DD
330
1F
100
AcDbEntity
  8
Make2D$Visible$Curves
 62
    18
420
        0
370
    -3
100
AcDbLine
 10
-890.436631975233
 20
1406.576434719727
 30
0.0
 11
-897.5090447653473
 21
1407.319775257515
 31
0.0
  0
ARC
  5
DE
330
1F
100
AcDbEntity
  8
Make2D$Visible$Curves
 62
    18
420
        0
370
    -3
100
AcDbCircle
 10
884.1649217255351
 20
1466.24779402307
 30
0.0
 40
60.00004553601258
210
0.0
220
0.0
230
-1.0
100
AcDbArc
 50
270.0000023430354
 51
275.9999977624342
  0
LINE
  5
DF
330
1F
100
AcDbEntity
  8
Make2D$Visible$Curves
 62
    18
420
        0
370
    -3
100
AcDbLine
 10
-1125.064553387279
 20
1531.189483588442
 30
0.0
 11
-1125.064554442039
 21
1531.181476071854
 31
0.0
  0
ARC
  5
E0
330
1F
100
AcDbEntity
  8
Make2D$Visible$Curves
 62
    18
420
        0
370
    -3
100
AcDbCircle
 10
881.9069666694338
 20
1412.2477513
 30
0.0
 40
6.000002858195103
210
0.0
220
0.0
230
-1.0
100
AcDbArc
 50
270.0000000088272
 51
270.0456806740436
  0
LINE
  5
E1
330
1F
100
AcDbEntity
  8
Make2D$Visible$Curves
 62
    18
420
        0
370
    -3
100
AcDbLine
 10
-1036.064554441958
 20
1350.064318377504
 30
0.0
 11
-999.7895625813579
 21
1350.064318377504
 31
0.0
  0
SPLINE
  5
E2
330
1F
100
AcDbEntity
  8
Make2D$Visible$Curves
 62
    18
420
        0
370
    -3
100
AcDbSpline
210
0.0
220
0.0
230
1.0
 70
     8
 71
     3
 72
    33
 73
    29
 74
     0
 42
0.000000001
 43
0.0000000001
 40
-248.072974917026
 40
-248.072974917026
 40
-248.072974917026
 40
-248.072974917026
 40
-238.5317066509862
 40
-228.9904383849463
 40
-219.4491701189115
 40
-209.9079018528568
 40
-200.3666335868268
 40
-190.8253653207969
 40
-181.2840970547422
 40
-171.7428287887122
 40
-162.2015605226823
 40
-152.6602922566276
 40
-143.1190239905977
 40
-133.577755724543
 40
-124.036487458513
 40
-114.4952191924831
 40
-104.9539509264284
 40
-95.41268266039845
 40
-85.87141439434372
 40
-76.33014612831381
 40
-66.78887786228388
 40
-57.24760959622914
 40
-47.70634133019922
 40
-38.16507306416931
 40
-28.62380479811457
 40
-19.08253653208464
 40
-9.541268266029928
 40
0.0
 40
0.0
 40
0.0
 40
0.0
 10
-876.9921342461581
 20
1531.537866435353
 30
0.0
 10
-885.0922924954581
 20
1531.534884885349
 30
0.0
 10
-900.4801722207582
 20
1531.527409888374
 30
0.0
 10
-920.953420583858
 20
1531.512582851964
 30
0.0
 10
-939.3856154634581
 20
1531.494723420273
 30
0.0
 10
-955.993107682258
 20
1531.474544148952
 30
0.0
 10
-971.0163852905581
 20
1531.452730020669
 30
0.0
 10
-984.656485004458
 20
1531.429919557908
 30
0.0
 10
-997.069991341558
 20
1531.406729779347
 30
0.0
 10
-1008.397509055958
 20
1531.383700207468
 30
0.0
 10
-1018.789278818258
 20
1531.361221499304
 30
0.0
 10
-1028.338999351528
 20
1531.339677550156
 30
0.0
 10
-1037.092464390348
 20
1531.319453963441
 30
0.0
 10
-1045.153226436248
 20
1531.300692274158
 30
0.0
 10
-1052.604750790188
 20
1531.283477893316
 30
0.0
 10
-1059.448568224668
 20
1531.268000305304
 30
0.0
 10
-1065.680329698328
 20
1531.254371895873
 30
0.0
 10
-1071.376331410958
 20
1531.242452643767
 30
0.0
 10
-1076.692174041548
 20
1531.231914598754
 30
0.0
 10
-1081.803268284608
 20
1531.222422627656
 30
0.0
 10
-1086.881290586698
 20
1531.213717248651
 30
0.0
 10
-1091.986462815628
 20
1531.205804491485
 30
0.0
 10
-1097.071599887018
 20
1531.198857844224
 30
0.0
 10
-1102.180097154458
 20
1531.192916025973
 30
0.0
 10
-1107.311658202018
 20
1531.188074782551
 30
0.0
 10
-1112.698374673238
 20
1531.184289979064
 30
0.0
 10
-1118.511882005012
 20
1531.181788621709
 30
0.0
 10
-1122.816815813465
 20
1531.181300974694
 30
0.0
 10
-1125.064554441877
 20
1531.18147607211
 30
0.0
  0
LINE
  5
E3
330
1F
100
AcDbEntity
  8
Make2D$Visible$Curves
 62
    18
420
        0
370
    -3
100
AcDbLine
 10
-873.1961315386685
 20
1531.205745356486
 30
0.0
 11
-873.1984456124734
 21
1531.223753385647
 31
0.0
  0
ARC
  5
E4
330
1F
100
AcDbEntity
  8
Make2D$Visible$Curves
 62
    18
420
        0
370
    -3
100
AcDbCircle
 10
-975.5508773562779
 20
1372.419378216524
 30
0.0
 40
8.713960251887453
100
AcDbArc
 50
285.5099621809327
 51
304.7749324702596
  0
LINE
  5
E5
330
1F
100
AcDbEntity
  8
Make2D$Visible$Curves
 62
    18
420
        0
370
    -3
100
AcDbLine
 10
-993.3901834328582
 20
1358.596047022104
 30
0.0
 11
-973.220712787658
 21
1364.022745775204
 31
0.0
  0
SPLINE
  5
E6
330
1F
100
AcDbEntity
  8
Make2D$Visible$Curves
 62
    18
420
        0
370
    -3
100
AcDbSpline
210
0.0
220
0.0
230
1.0
 70
     8
 71
     3
 72
    18
 73
    14
 74
     0
 42
0.000000001
 43
0.0000000001
 40
0.0
 40
0.0
 40
0.0
 40
0.0
 40
1.8172167851268
 40
3.634433570254
 40
5.451650355380999
 40
7.268867140507999
 40
9.086083925634998
 40
10.90330071076
 40
12.720517495887
 40
14.537734281014
 40
16.354951066141
 40
18.172167851268
 40
19.989384636395
 40
19.989384636395
 40
19.989384636395
 40
19.989384636395
 10
-1018.830471179658
 20
1353.262275019104
 30
0.0
 10
-1018.279454601858
 20
1353.294008203204
 30
0.0
 10
-1017.195126715658
 20
1353.351449970104
 30
0.0
 10
-1015.636623095458
 20
1353.419506123604
 30
0.0
 10
-1014.110506021558
 20
1353.471220341804
 30
0.0
 10
-1012.635735715058
 20
1353.505760735304
 30
0.0
 10
-1011.211146990658
 20
1353.523286865304
 30
0.0
 10
-1009.840315528958
 20
1353.523768157504
 30
0.0
 10
-1008.522040789158
 20
1353.507090482204
 30
0.0
 10
-1007.269519657358
 20
1353.473566864604
 30
0.0
 10
-1006.059785573258
 20
1353.422338039904
 30
0.0
 10
-1004.901965315858
 20
1353.352746884104
 30
0.0
 10
-1004.175255093458
 20
1353.294444939804
 30
0.0
 10
-1003.823125639558
 20
1353.262275019104
 30
0.0
  0
LINE
  5
E7
330
1F
100
AcDbEntity
  8
Make2D$Visible$Curves
 62
    18
420
        0
370
    -3
100
AcDbLine
 10
-995.0782381264581
 20
1358.239231918204
 30
0.0
 11
-996.2664447286808
 21
1358.340706957813
 31
0.0
  0
ARC
  5
E8
330
1F
100
AcDbEntity
  8
Make2D$Visible$Curves
 62
    18
420
        0
370
    -3
100
AcDbCircle
 10
997.4559077996855
 20
1373.65914891461
 30
0.0
 40
15.60215219932891
210
0.0
220
0.0
230
-1.0
100
AcDbArc
 50
254.8950804266714
 51
261.2343295573329
  0
LINE
  5
E9
330
1F
100
AcDbEntity
  8
Make2D$Visible$Curves
 62
    18
420
        0
370
    -3
100
AcDbLine
 10
-1025.924483754818
 20
1352.844291672504
 30
0.0
 11
-1018.830471179658
 21
1353.262275019104
 31
0.0
  0
ARC
  5
EA
330
1F
100
AcDbEntity
  8
Make2D$Visible$Curves
 62
    18
420
        0
370
    -3
100
AcDbCircle
 10
-1026.354155420617
 20
1363.814308820938
 30
0.0
 40
10.97842857504335
100
AcDbArc
 50
232.5677341293946
 51
272.2430042819776
  0
LINE
  5
EB
330
1F
100
AcDbEntity
  8
Make2D$Visible$Curves
 62
    18
420
        0
370
    -3
100
AcDbLine
 10
-1303.655847602158
 20
1450.007524375284
 30
0.0
 11
-1293.027945164958
 21
1449.303950068545
 31
0.0
  0
ARC
  5
EC
330
1F
100
AcDbEntity
  8
Make2D$Visible$Curves
 62
    18
420
        0
370
    -3
100
AcDbCircle
 10
-1321.754585993865
 20
1458.062305421702
 30
0.0
 40
8.000000000091886
100
AcDbArc
 50
184.2891533294487
 51
207.0000000000171
  0
ARC
  5
ED
330
1F
100
AcDbEntity
  8
Make2D$Visible$Curves
 62
    18
420
        0
370
    -3
100
AcDbCircle
 10
1304.701132230153
 20
1440.062305477392
 30
0.0
 40
9.999999944042202
210
0.0
220
0.0
230
-1.0
100
AcDbArc
 50
90.0000003150987
 51
96.00000064621304
  0
LINE
  5
EE
330
1F
100
AcDbEntity
  8
Make2D$Visible$Curves
 62
    18
420
        0
370
    -3
100
AcDbLine
 10
-1333.956589032858
 20
1513.789433300264
 30
0.0
 11
-1333.939554441959
 21
1513.562305421604
 31
0.0
  0
LINE
  5
EF
330
1F
100
AcDbEntity
  8
Make2D$Visible$Curves
 62
    18
420
        0
370
    -3
100
AcDbLine
 10
-870.0645544419582
 20
1411.338890720404
 30
0.0
 11
-870.0645544419582
 21
1408.247748441804
 31
0.0
  0
LINE
  5
F0
330
1F
100
AcDbEntity
  8
Make2D$Visible$Curves
 62
    18
420
        0
370
    -3
100
AcDbLine
 10
-1235.088653673858
 20
1401.852075702504
 30
0.0
 11
-1234.960669205158
 21
1401.852586681604
 31
0.0
  0
ARC
  5
F1
330
1F
100
AcDbEntity
  8
Make2D$Visible$Curves
 62
    18
420
        0
370
    -3
100
AcDbCircle
 10
-922.8907124771733
 20
1400.602343189658
 30
0.0
 40
4.48928836517381
100
AcDbArc
 50
273.0765672471543
 51
322.6499355815902
  0
LINE
  5
F2
330
1F
100
AcDbEntity
  8
Make2D$Visible$Curves
 62
    18
420
        0
370
    -3
100
AcDbLine
 10
-1174.797122977258
 20
1401.879561443904
 30
0.0
 11
-1174.790105296166
 21
1401.804340857125
 31
0.0
  0
ARC
  5
F3
330
1F
100
AcDbEntity
  8
Make2D$Visible$Curves
 62
    18
420
        0
370
    -3
100
AcDbCircle
 10
-973.2112355659392
 20
1367.388715527242
 30
0.0
 40
3.365983094040171
100
AcDbArc
 50
269.8386784757144
 51
285.0143171577433
  0
ARC
  5
F4
330
1F
100
AcDbEntity
  8
Make2D$Visible$Curves
 62
    18
420
        0
370
    -3
100
AcDbCircle
 10
873.2268321021596
 20
1407.747748441829
 30
0.0
 40
1.500000000025592
210
0.0
220
0.0
230
-1.0
100
AcDbArc
 50
205.3769335233223
 51
242.9999999999697
  0
LINE
  5
F5
330
1F
100
AcDbEntity
  8
Make2D$Visible$Curves
 62
    18
420
        0
370
    -3
100
AcDbLine
 10
-870.064554442158
 20
1529.562305378087
 30
0.0
 11
-870.0645544419582
 21
1523.457398217223
 31
0.0
  0
LINE
  5
F6
330
1F
100
AcDbEntity
  8
Make2D$Visible$Curves
 62
    18
420
        0
370
    -3
100
AcDbLine
 10
-870.0645544419582
 20
1513.562305421604
 30
0.0
 11
-871.871570247558
 21
1513.562305421604
 31
0.0
  0
LINE
  5
F7
330
1F
100
AcDbEntity
  8
Make2D$Visible$Curves
 62
    18
420
        0
370
    -3
100
AcDbLine
 10
-871.871570247558
 20
1513.562305421604
 30
0.0
 11
-873.226832101658
 21
1513.562305421604
 31
0.0
  0
LINE
  5
F8
330
1F
100
AcDbEntity
  8
Make2D$Visible$Curves
 62
    18
420
        0
370
    -3
100
AcDbLine
 10
-1373.751581711958
 20
1513.562305421604
 30
0.0
 11
-1381.750363273258
 21
1513.562305421604
 31
0.0
  0
ARC
  5
FA
330
1F
100
AcDbEntity
  8
Ceramic
100
AcDbCircle
 10
-1373.923763146227
 20
1523.533057221697
 30
0.0
 40
7.999313039158885
100
AcDbArc
 50
89.68023907522567
 51
171.3786605143669
  0
ENDSEC
  0
SECTION
  2
OBJECTS
  0
DICTIONARY
  5
C
330
0
100
AcDbDictionary
281
     1
  3
ACAD_DETAILVIEWSTYLE
350
140
  3
ACAD_GROUP
350
D
  3
ACAD_LAYOUT
350
1A
  3
ACAD_MATERIAL
350
43
  3
ACAD_MLEADERSTYLE
350
6B
  3
ACAD_MLINESTYLE
350
17
  3
ACAD_PLOTSETTINGS
350
19
  3
ACAD_PLOTSTYLENAME
350
E
  3
ACAD_SCALELIST
350
47
  3
ACAD_SECTIONVIEWSTYLE
350
141
  3
ACAD_TABLESTYLE
350
69
  3
ACAD_VISUALSTYLE
350
2A
  3
ACDB_RECOMPOSE_DATA
350
13D
  3
AcDbVariableDictionary
350
FD
  0
DICTIONARY
  5
FB
330
8
100
AcDbDictionary
280
     1
281
     1
  3
ACAD_XREC_ROUNDTRIP
360
FC
  0
DICTIONARY
  5
140
102
{ACAD_REACTORS
330
C
102
}
330
C
100
AcDbDictionary
281
     1
  0
DICTIONARY
  5
D
102
{ACAD_REACTORS
330
C
102
}
330
C
100
AcDbDictionary
281
     1
  0
DICTIONARY
  5
1A
102
{ACAD_REACTORS
330
C
102
}
330
C
100
AcDbDictionary
281
     1
  3
Layout1
350
1E
  3
Layout2
350
26
  3
Model
350
22
  0
DICTIONARY
  5
43
102
{ACAD_REACTORS
330
C
102
}
330
C
100
AcDbDictionary
281
     1
  3
ByBlock
350
45
  3
ByLayer
350
44
  3
Global
350
46
  0
DICTIONARY
  5
6B
102
{ACAD_REACTORS
330
C
102
}
330
C
100
AcDbDictionary
281
     1
  3
Standard
350
6C
  0
DICTIONARY
  5
17
102
{ACAD_REACTORS
330
C
102
}
330
C
100
AcDbDictionary
281
     1
  3
Standard
350
18
  0
DICTIONARY
  5
19
102
{ACAD_REACTORS
330
C
102
}
330
C
100
AcDbDictionary
281
     1
  0
ACDBDICTIONARYWDFLT
  5
E
102
{ACAD_REACTORS
330
C
102
}
330
C
100
AcDbDictionary
281
     1
  3
Normal
350
F
100
AcDbDictionaryWithDefault
340
F
  0
DICTIONARY
  5
47
102
{ACAD_REACTORS
330
C
102
}
330
C
100
AcDbDictionary
281
     1
  3
A0
350
48
  3
A1
350
49
  3
A2
350
4A
  3
A3
350
4B
  3
A4
350
4C
  3
A5
350
4D
  3
A6
350
4E
  3
A7
350
4F
  3
A8
350
50
  3
A9
350
51
  3
B0
350
52
  3
B1
350
53
  3
B2
350
54
  3
B3
350
55
  3
B4
350
56
  3
B5
350
57
  3
B6
350
58
  3
B7
350
59
  3
B8
350
5A
  3
B9
350
5B
  3
C0
350
5C
  3
C1
350
5D
  3
C2
350
5E
  3
C3
350
5F
  3
C4
350
60
  3
C5
350
61
  3
C6
350
62
  3
C7
350
63
  3
C8
350
64
  3
C9
350
65
  3
D0
350
66
  3
D1
350
67
  3
D2
350
68
  0
DICTIONARY
  5
141
102
{ACAD_REACTORS
330
C
102
}
330
C
100
AcDbDictionary
281
     1
  0
DICTIONARY
  5
69
102
{ACAD_REACTORS
330
C
102
}
330
C
100
AcDbDictionary
281
     1
  3
Standard
350
6A
  0
DICTIONARY
  5
2A
102
{ACAD_REACTORS
330
C
102
}
330
C
100
AcDbDictionary
281
     1
  3
2dWireframe
350
2F
  3
Basic
350
32
  3
Brighten
350
36
  3
ColorChange
350
3A
  3
Conceptual
350
34
  3
Dim
350
35
  3
EdgeColorOff
350
3D
  3
Facepattern
350
39
  3
Flat
350
2B
  3
FlatWithEdges
350
2C
  3
Gouraud
350
2D
  3
GouraudWithEdges
350
2E
  3
Hidden
350
31
  3
JitterOff
350
3B
  3
Linepattern
350
38
  3
OverhangOff
350
3C
  3
Realistic
350
33
  3
Shaded
350
42
  3
Shaded with edges
350
41
  3
Shades of Gray
350
3E
  3
Sketchy
350
3F
  3
Thicken
350
37
  3
Wireframe
350
30
  3
X-Ray
350
40
  0
XRECORD
  5
13D
102
{ACAD_REACTORS
330
C
102
}
330
C
100
AcDbXrecord
280
     1
 90
        1
330
6A
  0
DICTIONARY
  5
FD
102
{ACAD_REACTORS
330
C
102
}
330
C
100
AcDbDictionary
281
     1
  3
CANNOSCALE
350
FE
  3
CMLEADERSTYLE
350
13F
  3
CTABLESTYLE
350
13E
  3
MSLTSCALE
350
FF
  3
XCLIPFRAME
350
100
  0
XRECORD
  5
FC
102
{ACAD_REACTORS
330
FB
102
}
330
FB
100
AcDbXrecord
280
     1
102
VTR_0.000_0.000_1.000_1.000_VISUALSTYLE
340
2F
102
VTR_0.000_0.000_1.000_1.000_GRIDDISPLAY
 70
     3
102
VTR_0.000_0.000_1.000_1.000_GRIDMAJOR
 70
     5
102
VTR_0.000_0.000_1.000_1.000_DEFAULTLIGHTING
280
     1
102
VTR_0.000_0.000_1.000_1.000_DEFAULTLIGHTINGTYPE
 70
     1
102
VTR_0.000_0.000_1.000_1.000_BRIGHTNESS
141
0.0
102
VTR_0.000_0.000_1.000_1.000_CONTRAST
142
0.0
  0
LAYOUT
  5
1E
102
{ACAD_REACTORS
330
1A
102
}
330
1A
100
AcDbPlotSettings
  1

  2
none_device
  4

  6

 40
0.0
 41
0.0
 42
0.0
 43
0.0
 44
0.0
 45
0.0
 46
0.0
 47
0.0
 48
0.0
 49
0.0
140
0.0
141
0.0
142
1.0
143
1.0
 70
   688
 72
     0
 73
     0
 74
     5
  7

 75
    16
 76
     0
 77
     2
 78
   300
147
1.0
148
0.0
149
0.0
100
AcDbLayout
  1
Layout1
 70
     1
 71
     1
 10
0.0
 20
0.0
 11
12.0
 21
9.0
 12
0.0
 22
0.0
 32
0.0
 14
1.000000000000000E+20
 24
1.000000000000000E+20
 34
1.000000000000000E+20
 15
-1.000000000000000E+20
 25
-1.000000000000000E+20
 35
-1.000000000000000E+20
146
0.0
 13
0.0
 23
0.0
 33
0.0
 16
1.0
 26
0.0
 36
0.0
 17
0.0
 27
1.0
 37
0.0
 76
     0
330
1B
  0
LAYOUT
  5
26
102
{ACAD_REACTORS
330
1A
102
}
330
1A
100
AcDbPlotSettings
  1

  2
none_device
  4

  6

 40
0.0
 41
0.0
 42
0.0
 43
0.0
 44
0.0
 45
0.0
 46
0.0
 47
0.0
 48
0.0
 49
0.0
140
0.0
141
0.0
142
1.0
143
1.0
 70
   688
 72
     0
 73
     0
 74
     5
  7

 75
    16
 76
     0
 77
     2
 78
   300
147
1.0
148
0.0
149
0.0
100
AcDbLayout
  1
Layout2
 70
     1
 71
     2
 10
0.0
 20
0.0
 11
0.0
 21
0.0
 12
0.0
 22
0.0
 32
0.0
 14
0.0
 24
0.0
 34
0.0
 15
0.0
 25
0.0
 35
0.0
146
0.0
 13
0.0
 23
0.0
 33
0.0
 16
1.0
 26
0.0
 36
0.0
 17
0.0
 27
1.0
 37
0.0
 76
     0
330
23
  0
LAYOUT
  5
22
102
{ACAD_REACTORS
330
1A
102
}
330
1A
100
AcDbPlotSettings
  1

  2
none_device
  4
Letter_(8.50_x_11.00_Inches)
  6

 40
6.35
 41
6.35
 42
6.35000508
 43
6.35000508
 44
215.9
 45
279.4
 46
0.0
 47
0.0
 48
0.0
 49
0.0
140
0.0
141
0.0
142
1.0
143
1.0
 70
  1712
 72
     0
 73
     0
 74
     0
  7

 75
     0
 76
     0
 77
     2
 78
   300
147
1.0
148
0.0
149
0.0
100
AcDbLayout
  1
Model
 70
     1
 71
     0
 10
0.0
 20
0.0
 11
12.0
 21
9.0
 12
0.0
 22
0.0
 32
0.0
 14
1.000000000000000E+20
 24
1.000000000000000E+20
 34
1.000000000000000E+20
 15
-1.000000000000000E+20
 25
-1.000000000000000E+20
 35
-1.000000000000000E+20
146
0.0
 13
0.0
 23
0.0
 33
0.0
 16
1.0
 26
0.0
 36
0.0
 17
0.0
 27
1.0
 37
0.0
 76
     0
330
1F
331
29
  0
MATERIAL
  5
45
102
{ACAD_REACTORS
330
43
102
}
102
{ACAD_XDICTIONARY
360
133
102
}
330
43
100
AcDbMaterial
  1
ByBlock
  0
MATERIAL
  5
44
102
{ACAD_REACTORS
330
43
102
}
102
{ACAD_XDICTIONARY
360
131
102
}
330
43
100
AcDbMaterial
  1
ByLayer
  0
MATERIAL
  5
46
102
{ACAD_REACTORS
330
43
102
}
102
{ACAD_XDICTIONARY
360
135
102
}
330
43
100
AcDbMaterial
  1
Global
  0
MLEADERSTYLE
  5
6C
102
{ACAD_REACTORS
330
6B
102
}
102
{ACAD_XDICTIONARY
360
13B
102
}
330
6B
100
AcDbMLeaderStyle
170
     2
171
     1
172
     0
 90
        2
 40
0.0
 41
0.0
173
     1
 91
-1056964608
340
14
 92
       -2
290
     1
 42
0.09
291
     1
 43
0.36
  3
Standard
341
0
 44
0.18
300

342
11
174
     1
178
     6
175
     1
176
     0
 93
-1056964608
 45
0.18
292
     0
297
     0
 46
0.18
343
0
 94
-1056964608
 47
1.0
 49
1.0
140
1.0
293
     1
141
0.0
294
     1
177
     0
142
1.0
295
     0
296
     0
143
0.125
1001
ACAD_MLEADERVER
1070
     2
  0
MLINESTYLE
  5
18
102
{ACAD_REACTORS
330
17
102
}
330
17
100
AcDbMlineStyle
  2
Standard
 70
     0
  3

 62
   256
 51
90.0
 52
90.0
 71
     2
 49
0.5
 62
   256
  6
BYLAYER
 49
-0.5
 62
   256
  6
BYLAYER
  0
ACDBPLACEHOLDER
  5
F
102
{ACAD_REACTORS
330
E
102
}
330
E
  0
SCALE
  5
48
102
{ACAD_REACTORS
330
47
102
}
330
47
100
AcDbScale
 70
     0
300
1:1
140
1.0
141
1.0
290
     1
  0
SCALE
  5
49
102
{ACAD_REACTORS
330
47
102
}
330
47
100
AcDbScale
 70
     0
300
1:2
140
1.0
141
2.0
290
     0
  0
SCALE
  5
4A
102
{ACAD_REACTORS
330
47
102
}
330
47
100
AcDbScale
 70
     0
300
1:4
140
1.0
141
4.0
290
     0
  0
SCALE
  5
4B
102
{ACAD_REACTORS
330
47
102
}
330
47
100
AcDbScale
 70
     0
300
1:5
140
1.0
141
5.0
290
     0
  0
SCALE
  5
4C
102
{ACAD_REACTORS
330
47
102
}
330
47
100
AcDbScale
 70
     0
300
1:8
140
1.0
141
8.0
290
     0
  0
SCALE
  5
4D
102
{ACAD_REACTORS
330
47
102
}
330
47
100
AcDbScale
 70
     0
300
1:10
140
1.0
141
10.0
290
     0
  0
SCALE
  5
4E
102
{ACAD_REACTORS
330
47
102
}
330
47
100
AcDbScale
 70
     0
300
1:16
140
1.0
141
16.0
290
     0
  0
SCALE
  5
4F
102
{ACAD_REACTORS
330
47
102
}
330
47
100
AcDbScale
 70
     0
300
1:20
140
1.0
141
20.0
290
     0
  0
SCALE
  5
50
102
{ACAD_REACTORS
330
47
102
}
330
47
100
AcDbScale
 70
     0
300
1:30
140
1.0
141
30.0
290
     0
  0
SCALE
  5
51
102
{ACAD_REACTORS
330
47
102
}
330
47
100
AcDbScale
 70
     0
300
1:40
140
1.0
141
40.0
290
     0
  0
SCALE
  5
52
102
{ACAD_REACTORS
330
47
102
}
330
47
100
AcDbScale
 70
     0
300
1:50
140
1.0
141
50.0
290
     0
  0
SCALE
  5
53
102
{ACAD_REACTORS
330
47
102
}
330
47
100
AcDbScale
 70
     0
300
1:100
140
1.0
141
100.0
290
     0
  0
SCALE
  5
54
102
{ACAD_REACTORS
330
47
102
}
330
47
100
AcDbScale
 70
     0
300
2:1
140
2.0
141
1.0
290
     0
  0
SCALE
  5
55
102
{ACAD_REACTORS
330
47
102
}
330
47
100
AcDbScale
 70
     0
300
4:1
140
4.0
141
1.0
290
     0
  0
SCALE
  5
56
102
{ACAD_REACTORS
330
47
102
}
330
47
100
AcDbScale
 70
     0
300
8:1
140
8.0
141
1.0
290
     0
  0
SCALE
  5
57
102
{ACAD_REACTORS
330
47
102
}
330
47
100
AcDbScale
 70
     0
300
10:1
140
10.0
141
1.0
290
     0
  0
SCALE
  5
58
102
{ACAD_REACTORS
330
47
102
}
330
47
100
AcDbScale
 70
     0
300
100:1
140
100.0
141
1.0
290
     0
  0
SCALE
  5
59
102
{ACAD_REACTORS
330
47
102
}
330
47
100
AcDbScale
 70
     0
300
1/128" = 1'-0"
140
0.0078125
141
12.0
290
     0
  0
SCALE
  5
5A
102
{ACAD_REACTORS
330
47
102
}
330
47
100
AcDbScale
 70
     0
300
1/64" = 1'-0"
140
0.015625
141
12.0
290
     0
  0
SCALE
  5
5B
102
{ACAD_REACTORS
330
47
102
}
330
47
100
AcDbScale
 70
     0
300
1/32" = 1'-0"
140
0.03125
141
12.0
290
     0
  0
SCALE
  5
5C
102
{ACAD_REACTORS
330
47
102
}
330
47
100
AcDbScale
 70
     0
300
1/16" = 1'-0"
140
0.0625
141
12.0
290
     0
  0
SCALE
  5
5D
102
{ACAD_REACTORS
330
47
102
}
330
47
100
AcDbScale
 70
     0
300
3/32" = 1'-0"
140
0.09375
141
12.0
290
     0
  0
SCALE
  5
5E
102
{ACAD_REACTORS
330
47
102
}
330
47
100
AcDbScale
 70
     0
300
1/8" = 1'-0"
140
0.125
141
12.0
290
     0
  0
SCALE
  5
5F
102
{ACAD_REACTORS
330
47
102
}
330
47
100
AcDbScale
 70
     0
300
3/16" = 1'-0"
140
0.1875
141
12.0
290
     0
  0
SCALE
  5
60
102
{ACAD_REACTORS
330
47
102
}
330
47
100
AcDbScale
 70
     0
300
1/4" = 1'-0"
140
0.25
141
12.0
290
     0
  0
SCALE
  5
61
102
{ACAD_REACTORS
330
47
102
}
330
47
100
AcDbScale
 70
     0
300
3/8" = 1'-0"
140
0.375
141
12.0
290
     0
  0
SCALE
  5
62
102
{ACAD_REACTORS
330
47
102
}
330
47
100
AcDbScale
 70
     0
300
1/2" = 1'-0"
140
0.5
141
12.0
290
     0
  0
SCALE
  5
63
102
{ACAD_REACTORS
330
47
102
}
330
47
100
AcDbScale
 70
     0
300
3/4" = 1'-0"
140
0.75
141
12.0
290
     0
  0
SCALE
  5
64
102
{ACAD_REACTORS
330
47
102
}
330
47
100
AcDbScale
 70
     0
300
1" = 1'-0"
140
1.0
141
12.0
290
     0
  0
SCALE
  5
65
102
{ACAD_REACTORS
330
47
102
}
330
47
100
AcDbScale
 70
     0
300
1-1/2" = 1'-0"
140
1.5
141
12.0
290
     0
  0
SCALE
  5
66
102
{ACAD_REACTORS
330
47
102
}
330
47
100
AcDbScale
 70
     0
300
3" = 1'-0"
140
3.0
141
12.0
290
     0
  0
SCALE
  5
67
102
{ACAD_REACTORS
330
47
102
}
330
47
100
AcDbScale
 70
     0
300
6" = 1'-0"
140
6.0
141
12.0
290
     0
  0
SCALE
  5
68
102
{ACAD_REACTORS
330
47
102
}
330
47
100
AcDbScale
 70
     0
300
1'-0" = 1'-0"
140
12.0
141
12.0
290
     0
  0
TABLESTYLE
  5
6A
102
{ACAD_REACTORS
330
69
102
}
102
{ACAD_XDICTIONARY
360
137
102
}
330
69
100
AcDbTableStyle
  3
Standard
 70
     0
 71
     0
 40
0.06
 41
0.06
280
     0
281
     0
  7
Standard
140
0.18
170
     2
 62
     0
 63
   257
283
     0
274
    -2
284
     1
 64
     0
275
    -2
285
     1
 65
     0
276
    -2
286
     1
 66
     0
277
    -2
287
     1
 67
     0
278
    -2
288
     1
 68
     0
279
    -2
289
     1
 69
     0
  7
Standard
140
0.25
170
     5
 62
     0
 63
   257
283
     0
274
    -2
284
     1
 64
     0
275
    -2
285
     1
 65
     0
276
    -2
286
     1
 66
     0
277
    -2
287
     1
 67
     0
278
    -2
288
     1
 68
     0
279
    -2
289
     1
 69
     0
  7
Standard
140
0.18
170
     5
 62
     0
 63
   257
283
     0
274
    -2
284
     1
 64
     0
275
    -2
285
     1
 65
     0
276
    -2
286
     1
 66
     0
277
    -2
287
     1
 67
     0
278
    -2
288
     1
 68
     0
279
    -2
289
     1
 69
     0
  0
VISUALSTYLE
  5
2F
102
{ACAD_REACTORS
330
2A
102
}
102
{ACAD_XDICTIONARY
360
109
102
}
330
2A
100
AcDbVisualStyle
  2
2dWireframe
 70
     4
 71
     0
 72
     2
 73
     0
 90
        0
 40
0.6
 41
30.0
 62
     5
 63
     7
421
 16777215
 74
     1
 91
        4
 64
     7
 65
   257
 75
     1
175
     1
 42
1.0
 92
        0
 66
   257
 43
1.0
 76
     1
 77
     6
 78
     2
 67
     7
 79
     5
170
     0
171
     0
290
     0
174
     0
 93
        1
 44
0.0
173
     0
291
     0
 45
0.0
1001
ACAD
1000
AcDbSavedByObjectVersion
1070
     0
  0
VISUALSTYLE
  5
32
102
{ACAD_REACTORS
330
2A
102
}
102
{ACAD_XDICTIONARY
360
10F
102
}
330
2A
100
AcDbVisualStyle
  2
Basic
 70
     7
 71
     1
 72
     0
 73
     1
 90
        0
 40
0.6
 41
30.0
 62
     5
 63
     7
421
 16777215
 74
     0
 91
        4
 64
     7
 65
   257
 75
     1
175
     1
 42
1.0
 92
        8
 66
     7
 43
1.0
 76
     1
 77
     6
 78
     2
 67
     7
 79
     5
170
     0
171
     0
290
     0
174
     0
 93
        1
 44
0.0
173
     0
291
     1
 45
0.0
1001
ACAD
1000
AcDbSavedByObjectVersion
1070
     0
  0
VISUALSTYLE
  5
36
102
{ACAD_REACTORS
330
2A
102
}
102
{ACAD_XDICTIONARY
360
117
102
}
330
2A
100
AcDbVisualStyle
  2
Brighten
 70
    12
 71
     2
 72
     2
 73
     0
 90
        0
 40
0.6
 41
30.0
 62
     5
 63
     7
421
 16777215
 74
     1
 91
        4
 64
     7
 65
   257
 75
     1
175
     1
 42
1.0
 92
        8
 66
     7
 43
1.0
 76
     1
 77
     6
 78
     2
 67
     7
 79
     5
170
     0
171
     0
290
     0
174
     0
 93
        1
 44
50.0
173
     0
291
     1
 45
0.0
1001
ACAD
1000
AcDbSavedByObjectVersion
1070
     0
  0
VISUALSTYLE
  5
3A
102
{ACAD_REACTORS
330
2A
102
}
102
{ACAD_XDICTIONARY
360
11F
102
}
330
2A
100
AcDbVisualStyle
  2
ColorChange
 70
    16
 71
     2
 72
     2
 73
     3
 90
        0
 40
0.6
 41
30.0
 62
     5
 63
     8
421
  8421504
 74
     1
 91
        4
 64
     7
 65
   257
 75
     1
175
     1
 42
1.0
 92
        8
 66
     8
424
  8421504
 43
1.0
 76
     1
 77
     6
 78
     2
 67
     7
 79
     5
170
     0
171
     0
290
     0
174
     0
 93
        1
 44
0.0
173
     0
291
     1
 45
0.0
1001
ACAD
1000
AcDbSavedByObjectVersion
1070
     0
  0
VISUALSTYLE
  5
34
102
{ACAD_REACTORS
330
2A
102
}
102
{ACAD_XDICTIONARY
360
113
102
}
330
2A
100
AcDbVisualStyle
  2
Conceptual
 70
     9
 71
     3
 72
     2
 73
     0
 90
        0
 40
0.6
 41
30.0
 62
     5
 63
     7
421
 16777215
 74
     2
 91
        2
 64
     7
 65
   257
 75
     1
175
     1
 42
179.0
 92
        8
 66
     7
 43
1.0
 76
     1
 77
     6
 78
     2
 67
     7
 79
     3
170
     0
171
     0
290
     0
174
     0
 93
        1
 44
0.0
173
     0
291
     0
 45
0.0
1001
ACAD
1000
AcDbSavedByObjectVersion
1070
     0
  0
VISUALSTYLE
  5
35
102
{ACAD_REACTORS
330
2A
102
}
102
{ACAD_XDICTIONARY
360
115
102
}
330
2A
100
AcDbVisualStyle
  2
Dim
 70
    11
 71
     2
 72
     2
 73
     0
 90
        0
 40
0.6
 41
30.0
 62
     5
 63
     7
421
 16777215
 74
     1
 91
        4
 64
     7
 65
   257
 75
     1
175
     1
 42
1.0
 92
        8
 66
     7
 43
1.0
 76
     1
 77
     6
 78
     2
 67
     7
 79
     5
170
     0
171
     0
290
     0
174
     0
 93
        1
 44
-50.0
173
     0
291
     1
 45
0.0
1001
ACAD
1000
AcDbSavedByObjectVersion
1070
     0
  0
VISUALSTYLE
  5
3D
102
{ACAD_REACTORS
330
2A
102
}
102
{ACAD_XDICTIONARY
360
125
102
}
330
2A
100
AcDbVisualStyle
  2
EdgeColorOff
 70
    22
 71
     2
 72
     2
 73
     0
 90
        0
 40
0.6
 41
30.0
 62
     5
 63
     7
421
 16777215
 74
     1
 91
        4
 64
     7
 65
   257
 75
     1
175
     1
 42
1.0
 92
        8
 66
     7
 43
1.0
 76
     1
 77
     6
 78
     2
 67
     7
 79
     5
170
     0
171
     0
290
     0
174
     0
 93
        1
 44
0.0
173
     0
291
     1
 45
0.0
1001
ACAD
1000
AcDbSavedByObjectVersion
1070
     0
  0
VISUALSTYLE
  5
39
102
{ACAD_REACTORS
330
2A
102
}
102
{ACAD_XDICTIONARY
360
11D
102
}
330
2A
100
AcDbVisualStyle
  2
Facepattern
 70
    15
 71
     2
 72
     2
 73
     0
 90
        0
 40
0.6
 41
30.0
 62
     5
 63
     7
421
 16777215
 74
     1
 91
        4
 64
     7
 65
   257
 75
     1
175
     1
 42
1.0
 92
        8
 66
     7
 43
1.0
 76
     1
 77
     6
 78
     2
 67
     7
 79
     5
170
     0
171
     0
290
     0
174
     0
 93
        1
 44
0.0
173
     0
291
     1
 45
0.0
1001
ACAD
1000
AcDbSavedByObjectVersion
1070
     0
  0
VISUALSTYLE
  5
2B
102
{ACAD_REACTORS
330
2A
102
}
102
{ACAD_XDICTIONARY
360
101
102
}
330
2A
100
AcDbVisualStyle
  2
Flat
 70
     0
 71
     2
 72
     1
 73
     1
 90
        2
 40
0.6
 41
30.0
 62
     5
 63
     7
421
 16777215
 74
     0
 91
        0
 64
     7
 65
   257
 75
     1
175
     1
 42
1.0
 92
        8
 66
     7
 43
1.0
 76
     1
 77
     6
 78
     2
 67
     7
 79
     5
170
     0
171
     0
290
     0
174
     0
 93
       13
 44
0.0
173
     0
291
     1
 45
0.0
1001
ACAD
1000
AcDbSavedByObjectVersion
1070
     0
  0
VISUALSTYLE
  5
2C
102
{ACAD_REACTORS
330
2A
102
}
102
{ACAD_XDICTIONARY
360
103
102
}
330
2A
100
AcDbVisualStyle
  2
FlatWithEdges
 70
     1
 71
     2
 72
     1
 73
     1
 90
        2
 40
0.6
 41
30.0
 62
     5
 63
     7
421
 16777215
 74
     1
 91
        0
 64
     7
 65
   257
 75
     1
175
     1
 42
1.0
 92
        0
 66
   257
 43
1.0
 76
     1
 77
     6
 78
     2
 67
     7
 79
     5
170
     0
171
     0
290
     0
174
     0
 93
       13
 44
0.0
173
     0
291
     1
 45
0.0
1001
ACAD
1000
AcDbSavedByObjectVersion
1070
     0
  0
VISUALSTYLE
  5
2D
102
{ACAD_REACTORS
330
2A
102
}
102
{ACAD_XDICTIONARY
360
105
102
}
330
2A
100
AcDbVisualStyle
  2
Gouraud
 70
     2
 71
     2
 72
     2
 73
     1
 90
        2
 40
0.6
 41
30.0
 62
     5
 63
     7
421
 16777215
 74
     0
 91
        0
 64
     7
 65
   257
 75
     1
175
     1
 42
1.0
 92
        0
 66
     7
 43
1.0
 76
     1
 77
     6
 78
     2
 67
     7
 79
     5
170
     0
171
     0
290
     0
174
     0
 93
       13
 44
0.0
173
     0
291
     1
 45
0.0
1001
ACAD
1000
AcDbSavedByObjectVersion
1070
     0
  0
VISUALSTYLE
  5
2E
102
{ACAD_REACTORS
330
2A
102
}
102
{ACAD_XDICTIONARY
360
107
102
}
330
2A
100
AcDbVisualStyle
  2
GouraudWithEdges
 70
     3
 71
     2
 72
     2
 73
     1
 90
        2
 40
0.6
 41
30.0
 62
     5
 63
     7
421
 16777215
 74
     1
 91
        0
 64
     7
 65
   257
 75
     1
175
     1
 42
1.0
 92
        0
 66
   257
 43
1.0
 76
     1
 77
     6
 78
     2
 67
     7
 79
     5
170
     0
171
     0
290
     0
174
     0
 93
       13
 44
0.0
173
     0
291
     1
 45
0.0
1001
ACAD
1000
AcDbSavedByObjectVersion
1070
     0
  0
VISUALSTYLE
  5
31
102
{ACAD_REACTORS
330
2A
102
}
102
{ACAD_XDICTIONARY
360
10D
102
}
330
2A
100
AcDbVisualStyle
  2
Hidden
 70
     6
 71
     1
 72
     2
 73
     2
 90
        0
 40
0.6
 41
30.0
 62
     5
 63
     7
421
 16777215
 74
     2
 91
        2
 64
     7
 65
   257
 75
     2
175
     1
 42
40.0
 92
        0
 66
   257
 43
1.0
 76
     1
 77
     6
 78
     2
 67
     7
 79
     3
170
     0
171
     0
290
     0
174
     0
 93
        1
 44
0.0
173
     0
291
     0
 45
0.0
1001
ACAD
1000
AcDbSavedByObjectVersion
1070
     0
  0
VISUALSTYLE
  5
3B
102
{ACAD_REACTORS
330
2A
102
}
102
{ACAD_XDICTIONARY
360
121
102
}
330
2A
100
AcDbVisualStyle
  2
JitterOff
 70
    20
 71
     2
 72
     2
 73
     0
 90
        0
 40
0.6
 41
30.0
 62
     5
 63
     7
421
 16777215
 74
     1
 91
        4
 64
     7
 65
   257
 75
     1
175
     1
 42
1.0
 92
       10
 66
     7
 43
1.0
 76
     1
 77
     6
 78
     2
 67
     7
 79
     5
170
     0
171
     0
290
     0
174
     0
 93
        1
 44
0.0
173
     0
291
     1
 45
0.0
1001
ACAD
1000
AcDbSavedByObjectVersion
1070
     0
  0
VISUALSTYLE
  5
38
102
{ACAD_REACTORS
330
2A
102
}
102
{ACAD_XDICTIONARY
360
11B
102
}
330
2A
100
AcDbVisualStyle
  2
Linepattern
 70
    14
 71
     2
 72
     2
 73
     0
 90
        0
 40
0.6
 41
30.0
 62
     5
 63
     7
421
 16777215
 74
     1
 91
        4
 64
     7
 65
   257
 75
     7
175
     7
 42
1.0
 92
        8
 66
     7
 43
1.0
 76
     1
 77
     6
 78
     2
 67
     7
 79
     5
170
     0
171
     0
290
     0
174
     0
 93
        1
 44
0.0
173
     0
291
     1
 45
0.0
1001
ACAD
1000
AcDbSavedByObjectVersion
1070
     0
  0
VISUALSTYLE
  5
3C
102
{ACAD_REACTORS
330
2A
102
}
102
{ACAD_XDICTIONARY
360
123
102
}
330
2A
100
AcDbVisualStyle
  2
OverhangOff
 70
    21
 71
     2
 72
     2
 73
     0
 90
        0
 40
0.6
 41
30.0
 62
     5
 63
     7
421
 16777215
 74
     1
 91
        4
 64
     7
 65
   257
 75
     1
175
     1
 42
1.0
 92
        9
 66
     7
 43
1.0
 76
     1
 77
     6
 78
     2
 67
     7
 79
     5
170
     0
171
     0
290
     0
174
     0
 93
        1
 44
0.0
173
     0
291
     1
 45
0.0
1001
ACAD
1000
AcDbSavedByObjectVersion
1070
     0
  0
VISUALSTYLE
  5
33
102
{ACAD_REACTORS
330
2A
102
}
102
{ACAD_XDICTIONARY
360
111
102
}
330
2A
100
AcDbVisualStyle
  2
Realistic
 70
     8
 71
     2
 72
     3
 73
     0
 90
        2
 40
0.6
 41
30.0
 62
     5
 63
     7
421
 16777215
 74
     0
 91
        0
 64
     7
 65
   257
 75
     1
175
     1
 42
1.0
 92
        8
 66
   257
 43
1.0
 76
     1
 77
     6
 78
     2
 67
     7
 79
     3
170
     0
171
     0
290
     0
174
     0
 93
       13
 44
0.0
173
     0
291
     0
 45
0.0
1001
ACAD
1000
AcDbSavedByObjectVersion
1070
     0
  0
VISUALSTYLE
  5
42
102
{ACAD_REACTORS
330
2A
102
}
102
{ACAD_XDICTIONARY
360
12F
102
}
330
2A
100
AcDbVisualStyle
  2
Shaded
 70
    27
 71
     2
 72
     2
 73
     1
 90
        2
 40
0.6
 41
30.0
 62
     5
 63
     7
421
 16777215
 74
     0
 91
        4
 64
     7
 65
   257
 75
     1
175
     1
 42
1.0
 92
        8
 66
   257
 43
1.0
 76
     1
 77
     6
 78
     2
 67
     8
425
  7895160
 79
     3
170
     0
171
     0
290
     0
174
     0
 93
        5
 44
0.0
173
     0
291
     0
 45
0.0
1001
ACAD
1000
AcDbSavedByObjectVersion
1070
     0
  0
VISUALSTYLE
  5
41
102
{ACAD_REACTORS
330
2A
102
}
102
{ACAD_XDICTIONARY
360
12D
102
}
330
2A
100
AcDbVisualStyle
  2
Shaded with edges
 70
    26
 71
     2
 72
     2
 73
     1
 90
        2
 40
0.6
 41
30.0
 62
     5
 63
     7
421
 16777215
 74
     1
 91
       10
 64
     7
 65
   257
 75
     2
175
     1
 42
1.0
 92
        8
 66
   257
 43
1.0
 76
     1
 77
     6
 78
     2
 67
     7
 79
     3
170
     0
171
     0
290
     0
174
     0
 93
        5
 44
0.0
173
     0
291
     0
 45
0.0
1001
ACAD
1000
AcDbSavedByObjectVersion
1070
     0
  0
VISUALSTYLE
  5
3E
102
{ACAD_REACTORS
330
2A
102
}
102
{ACAD_XDICTIONARY
360
127
102
}
330
2A
100
AcDbVisualStyle
  2
Shades of Gray
 70
    23
 71
     2
 72
     2
 73
     3
 90
        0
 40
0.6
 41
30.0
 62
     5
 63
     7
421
 16777215
 74
     2
 91
        2
 64
     7
 65
     7
 75
     1
175
     1
 42
40.0
 92
        8
 66
     7
 43
1.0
 76
     1
 77
     6
 78
     2
 67
     7
 79
     3
170
     0
171
     0
290
     0
174
     0
 93
        1
 44
0.0
173
     0
291
     0
 45
0.0
1001
ACAD
1000
AcDbSavedByObjectVersion
1070
     0
  0
VISUALSTYLE
  5
3F
102
{ACAD_REACTORS
330
2A
102
}
102
{ACAD_XDICTIONARY
360
129
102
}
330
2A
100
AcDbVisualStyle
  2
Sketchy
 70
    24
 71
     1
 72
     2
 73
     2
 90
        0
 40
0.6
 41
30.0
 62
     5
 63
     7
421
 16777215
 74
     2
 91
        2
 64
     7
 65
     7
 75
     1
175
     1
 42
40.0
 92
       11
 66
     7
 43
1.0
 76
     1
 77
     6
 78
     2
 67
     7
 79
     6
170
     0
171
     0
290
     0
174
     0
 93
        1
 44
0.0
173
     0
291
     0
 45
0.0
1001
ACAD
1000
AcDbSavedByObjectVersion
1070
     0
  0
VISUALSTYLE
  5
37
102
{ACAD_REACTORS
330
2A
102
}
102
{ACAD_XDICTIONARY
360
119
102
}
330
2A
100
AcDbVisualStyle
  2
Thicken
 70
    13
 71
     2
 72
     2
 73
     0
 90
        0
 40
0.6
 41
30.0
 62
     5
 63
     7
421
 16777215
 74
     1
 91
        4
 64
     7
 65
   257
 75
     1
175
     1
 42
1.0
 92
       12
 66
     7
 43
1.0
 76
     1
 77
     6
 78
     2
 67
     7
 79
     5
170
     0
171
     0
290
     0
174
     0
 93
        1
 44
0.0
173
     0
291
     1
 45
0.0
1001
ACAD
1000
AcDbSavedByObjectVersion
1070
     0
  0
VISUALSTYLE
  5
30
102
{ACAD_REACTORS
330
2A
102
}
102
{ACAD_XDICTIONARY
360
10B
102
}
330
2A
100
AcDbVisualStyle
  2
Wireframe
 70
     5
 71
     0
 72
     2
 73
     0
 90
        0
 40
0.6
 41
30.0
 62
     5
 63
     7
421
 16777215
 74
     1
 91
        4
 64
     7
 65
   257
 75
     1
175
     1
 42
1.0
 92
        0
 66
   257
 43
1.0
 76
     1
 77
     6
 78
     2
 67
     7
 79
     3
170
     0
171
     0
290
     0
174
     0
 93
        1
 44
0.0
173
     0
291
     0
 45
0.0
1001
ACAD
1000
AcDbSavedByObjectVersion
1070
     0
  0
VISUALSTYLE
  5
40
102
{ACAD_REACTORS
330
2A
102
}
102
{ACAD_XDICTIONARY
360
12B
102
}
330
2A
100
AcDbVisualStyle
  2
X-Ray
 70
    25
 71
     2
 72
     2
 73
     1
 90
        1
 40
0.5
 41
30.0
 62
     5
 63
     7
421
 16777215
 74
     1
 91
        0
 64
     7
 65
   257
 75
     1
175
     1
 42
1.0
 92
        8
 66
     7
 43
1.0
 76
     1
 77
     6
 78
     2
 67
     7
 79
     3
170
     0
171
     0
290
     0
174
     0
 93
       13
 44
0.0
173
     0
291
     0
 45
0.0
1001
ACAD
1000
AcDbSavedByObjectVersion
1070
     0
  0
DICTIONARYVAR
  5
FE
102
{ACAD_REACTORS
330
FD
102
}
330
FD
100
DictionaryVariables
280
     0
  1
1:1
  0
DICTIONARYVAR
  5
13F
102
{ACAD_REACTORS
330
FD
102
}
330
FD
100
DictionaryVariables
280
     0
  1
Standard
  0
DICTIONARYVAR
  5
13E
102
{ACAD_REACTORS
330
FD
102
}
330
FD
100
DictionaryVariables
280
     0
  1
Standard
  0
DICTIONARYVAR
  5
FF
102
{ACAD_REACTORS
330
FD
102
}
330
FD
100
DictionaryVariables
280
     0
  1
1
  0
DICTIONARYVAR
  5
100
102
{ACAD_REACTORS
330
FD
102
}
330
FD
100
DictionaryVariables
280
     0
  1
2
  0
DICTIONARY
  5
133
330
45
100
AcDbDictionary
280
     1
281
     1
  3
ACAD_XREC_ROUNDTRIP
360
134
  0
DICTIONARY
  5
131
330
44
100
AcDbDictionary
280
     1
281
     1
  3
ACAD_XREC_ROUNDTRIP
360
132
  0
DICTIONARY
  5
135
330
46
100
AcDbDictionary
280
     1
281
     1
  3
ACAD_XREC_ROUNDTRIP
360
136
  0
DICTIONARY
  5
13B
330
6C
100
AcDbDictionary
280
     1
281
     1
  3
ACAD_XREC_ROUNDTRIP
360
13C
  0
DICTIONARY
  5
137
330
6A
100
AcDbDictionary
280
     1
281
     1
  3
ACAD_ROUNDTRIP_2008_TABLESTYLE_CELLSTYLEMAP
360
139
  3
ACAD_XREC_ROUNDTRIP
360
138
  0
DICTIONARY
  5
109
330
2F
100
AcDbDictionary
280
     1
281
     1
  3
ACAD_XREC_ROUNDTRIP
360
10A
  0
DICTIONARY
  5
10F
330
32
100
AcDbDictionary
280
     1
281
     1
  3
ACAD_XREC_ROUNDTRIP
360
110
  0
DICTIONARY
  5
117
330
36
100
AcDbDictionary
280
     1
281
     1
  3
ACAD_XREC_ROUNDTRIP
360
118
  0
DICTIONARY
  5
11F
330
3A
100
AcDbDictionary
280
     1
281
     1
  3
ACAD_XREC_ROUNDTRIP
360
120
  0
DICTIONARY
  5
113
330
34
100
AcDbDictionary
280
     1
281
     1
  3
ACAD_XREC_ROUNDTRIP
360
114
  0
DICTIONARY
  5
115
330
35
100
AcDbDictionary
280
     1
281
     1
  3
ACAD_XREC_ROUNDTRIP
360
116
  0
DICTIONARY
  5
125
330
3D
100
AcDbDictionary
280
     1
281
     1
  3
ACAD_XREC_ROUNDTRIP
360
126
  0
DICTIONARY
  5
11D
330
39
100
AcDbDictionary
280
     1
281
     1
  3
ACAD_XREC_ROUNDTRIP
360
11E
  0
DICTIONARY
  5
101
330
2B
100
AcDbDictionary
280
     1
281
     1
  3
ACAD_XREC_ROUNDTRIP
360
102
  0
DICTIONARY
  5
103
330
2C
100
AcDbDictionary
280
     1
281
     1
  3
ACAD_XREC_ROUNDTRIP
360
104
  0
DICTIONARY
  5
105
330
2D
100
AcDbDictionary
280
     1
281
     1
  3
ACAD_XREC_ROUNDTRIP
360
106
  0
DICTIONARY
  5
107
330
2E
100
AcDbDictionary
280
     1
281
     1
  3
ACAD_XREC_ROUNDTRIP
360
108
  0
DICTIONARY
  5
10D
330
31
100
AcDbDictionary
280
     1
281
     1
  3
ACAD_XREC_ROUNDTRIP
360
10E
  0
DICTIONARY
  5
121
330
3B
100
AcDbDictionary
280
     1
281
     1
  3
ACAD_XREC_ROUNDTRIP
360
122
  0
DICTIONARY
  5
11B
330
38
100
AcDbDictionary
280
     1
281
     1
  3
ACAD_XREC_ROUNDTRIP
360
11C
  0
DICTIONARY
  5
123
330
3C
100
AcDbDictionary
280
     1
281
     1
  3
ACAD_XREC_ROUNDTRIP
360
124
  0
DICTIONARY
  5
111
330
33
100
AcDbDictionary
280
     1
281
     1
  3
ACAD_XREC_ROUNDTRIP
360
112
  0
DICTIONARY
  5
12F
330
42
100
AcDbDictionary
280
     1
281
     1
  3
ACAD_XREC_ROUNDTRIP
360
130
  0
DICTIONARY
  5
12D
330
41
100
AcDbDictionary
280
     1
281
     1
  3
ACAD_XREC_ROUNDTRIP
360
12E
  0
DICTIONARY
  5
127
330
3E
100
AcDbDictionary
280
     1
281
     1
  3
ACAD_XREC_ROUNDTRIP
360
128
  0
DICTIONARY
  5
129
330
3F
100
AcDbDictionary
280
     1
281
     1
  3
ACAD_XREC_ROUNDTRIP
360
12A
  0
DICTIONARY
  5
119
330
37
100
AcDbDictionary
280
     1
281
     1
  3
ACAD_XREC_ROUNDTRIP
360
11A
  0
DICTIONARY
  5
10B
330
30
100
AcDbDictionary
280
     1
281
     1
  3
ACAD_XREC_ROUNDTRIP
360
10C
  0
DICTIONARY
  5
12B
330
40
100
AcDbDictionary
280
     1
281
     1
  3
ACAD_XREC_ROUNDTRIP
360
12C
  0
XRECORD
  5
134
102
{ACAD_REACTORS
330
133
102
}
330
133
100
AcDbXrecord
280
     1
102
MATERIAL
148
0.0
149
0.0
149
0.0
 93
        0
 94
      127
282
     0
 72
     1
 77
     1
171
     1
175
     1
179
     1
273
     0
  0
XRECORD
  5
132
102
{ACAD_REACTORS
330
131
102
}
330
131
100
AcDbXrecord
280
     1
102
MATERIAL
148
0.0
149
0.0
149
0.0
 93
        0
 94
      127
282
     0
 72
     1
 77
     1
171
     1
175
     1
179
     1
273
     0
  0
XRECORD
  5
136
102
{ACAD_REACTORS
330
135
102
}
330
135
100
AcDbXrecord
280
     1
102
MATERIAL
148
0.0
149
0.0
149
0.0
 93
        0
 94
      127
282
     0
 72
     1
 77
     1
171
     1
175
     1
179
     1
273
     0
  0
XRECORD
  5
13C
102
{ACAD_REACTORS
330
13B
102
}
330
13B
100
AcDbXrecord
280
     1
102
ACAD_ROUNDTRIP_2010_MLEADER_STYLE
  0
CELLSTYLEMAP
  5
139
102
{ACAD_REACTORS
330
137
102
}
330
137
100
AcDbCellStyleMap
 90
        3
300
CELLSTYLE
  1
TABLEFORMAT_BEGIN
 90
        5
170
     1
 91
        0
 92
    32768
 62
   257
 93
        1
300
CONTENTFORMAT
  1
CONTENTFORMAT_BEGIN
 90
        0
 91
        0
 92
        4
 93
        0
300

 40
0.0
140
1.0
 94
        5
 62
     0
340
11
144
0.25
309
CONTENTFORMAT_END
171
     1
301
MARGIN
  1
CELLMARGIN_BEGIN
 40
0.06
 40
0.06
 40
0.06
 40
0.06
 40
0.06
 40
0.06
309
CELLMARGIN_END
 94
        6
 95
        1
302
GRIDFORMAT
  1
GRIDFORMAT_BEGIN
 90
        0
 91
        1
 62
     0
 92
       -2
340
14
 93
        0
 40
0.045
309
GRIDFORMAT_END
 95
        2
302
GRIDFORMAT
  1
GRIDFORMAT_BEGIN
 90
        0
 91
        1
 62
     0
 92
       -2
340
14
 93
        0
 40
0.045
309
GRIDFORMAT_END
 95
        4
302
GRIDFORMAT
  1
GRIDFORMAT_BEGIN
 90
        0
 91
        1
 62
     0
 92
       -2
340
14
 93
        0
 40
0.045
309
GRIDFORMAT_END
 95
        8
302
GRIDFORMAT
  1
GRIDFORMAT_BEGIN
 90
        0
 91
        1
 62
     0
 92
       -2
340
14
 93
        0
 40
0.045
309
GRIDFORMAT_END
 95
       16
302
GRIDFORMAT
  1
GRIDFORMAT_BEGIN
 90
        0
 91
        1
 62
     0
 92
       -2
340
14
 93
        0
 40
0.045
309
GRIDFORMAT_END
 95
       32
302
GRIDFORMAT
  1
GRIDFORMAT_BEGIN
 90
        0
 91
        1
 62
     0
 92
       -2
340
14
 93
        0
 40
0.045
309
GRIDFORMAT_END
309
TABLEFORMAT_END
  1
CELLSTYLE_BEGIN
 90
        1
 91
        1
300
_TITLE
309
CELLSTYLE_END
300
CELLSTYLE
  1
TABLEFORMAT_BEGIN
 90
        5
170
     1
 91
        0
 92
        0
 62
   257
 93
        1
300
CONTENTFORMAT
  1
CONTENTFORMAT_BEGIN
 90
        0
 91
        0
 92
        4
 93
        0
300

 40
0.0
140
1.0
 94
        5
 62
     0
340
11
144
0.18
309
CONTENTFORMAT_END
171
     1
301
MARGIN
  1
CELLMARGIN_BEGIN
 40
0.06
 40
0.06
 40
0.06
 40
0.06
 40
0.06
 40
0.06
309
CELLMARGIN_END
 94
        6
 95
        1
302
GRIDFORMAT
  1
GRIDFORMAT_BEGIN
 90
        0
 91
        1
 62
     0
 92
       -2
340
14
 93
        0
 40
0.045
309
GRIDFORMAT_END
 95
        2
302
GRIDFORMAT
  1
GRIDFORMAT_BEGIN
 90
        0
 91
        1
 62
     0
 92
       -2
340
14
 93
        0
 40
0.045
309
GRIDFORMAT_END
 95
        4
302
GRIDFORMAT
  1
GRIDFORMAT_BEGIN
 90
        0
 91
        1
 62
     0
 92
       -2
340
14
 93
        0
 40
0.045
309
GRIDFORMAT_END
 95
        8
302
GRIDFORMAT
  1
GRIDFORMAT_BEGIN
 90
        0
 91
        1
 62
     0
 92
       -2
340
14
 93
        0
 40
0.045
309
GRIDFORMAT_END
 95
       16
302
GRIDFORMAT
  1
GRIDFORMAT_BEGIN
 90
        0
 91
        1
 62
     0
 92
       -2
340
14
 93
        0
 40
0.045
309
GRIDFORMAT_END
 95
       32
302
GRIDFORMAT
  1
GRIDFORMAT_BEGIN
 90
        0
 91
        1
 62
     0
 92
       -2
340
14
 93
        0
 40
0.045
309
GRIDFORMAT_END
309
TABLEFORMAT_END
  1
CELLSTYLE_BEGIN
 90
        2
 91
        1
300
_HEADER
309
CELLSTYLE_END
300
CELLSTYLE
  1
TABLEFORMAT_BEGIN
 90
        5
170
     1
 91
        0
 92
        0
 62
   257
 93
        1
300
CONTENTFORMAT
  1
CONTENTFORMAT_BEGIN
 90
        0
 91
        0
 92
        4
 93
        0
300

 40
0.0
140
1.0
 94
        2
 62
     0
340
11
144
0.18
309
CONTENTFORMAT_END
171
     1
301
MARGIN
  1
CELLMARGIN_BEGIN
 40
0.06
 40
0.06
 40
0.06
 40
0.06
 40
0.06
 40
0.06
309
CELLMARGIN_END
 94
        6
 95
        1
302
GRIDFORMAT
  1
GRIDFORMAT_BEGIN
 90
        0
 91
        1
 62
     0
 92
       -2
340
14
 93
        0
 40
0.045
309
GRIDFORMAT_END
 95
        2
302
GRIDFORMAT
  1
GRIDFORMAT_BEGIN
 90
        0
 91
        1
 62
     0
 92
       -2
340
14
 93
        0
 40
0.045
309
GRIDFORMAT_END
 95
        4
302
GRIDFORMAT
  1
GRIDFORMAT_BEGIN
 90
        0
 91
        1
 62
     0
 92
       -2
340
14
 93
        0
 40
0.045
309
GRIDFORMAT_END
 95
        8
302
GRIDFORMAT
  1
GRIDFORMAT_BEGIN
 90
        0
 91
        1
 62
     0
 92
       -2
340
14
 93
        0
 40
0.045
309
GRIDFORMAT_END
 95
       16
302
GRIDFORMAT
  1
GRIDFORMAT_BEGIN
 90
        0
 91
        1
 62
     0
 92
       -2
340
14
 93
        0
 40
0.045
309
GRIDFORMAT_END
 95
       32
302
GRIDFORMAT
  1
GRIDFORMAT_BEGIN
 90
        0
 91
        1
 62
     0
 92
       -2
340
14
 93
        0
 40
0.045
309
GRIDFORMAT_END
309
TABLEFORMAT_END
  1
CELLSTYLE_BEGIN
 90
        3
 91
        2
300
_DATA
309
CELLSTYLE_END
  0
XRECORD
  5
138
102
{ACAD_REACTORS
330
137
102
}
330
137
100
AcDbXrecord
280
     1
102
ACAD_ROUNDTRIP_PRE2007_TABLESTYLE
 90
        4
 91
        0
  1

 92
        4
 93
        0
  2

 94
        4
 95
        0
  3

  0
XRECORD
  5
10A
102
{ACAD_REACTORS
330
109
102
}
330
109
100
AcDbXrecord
280
     1
102
RTVSPropertyOp0
 70
     1
102
RTVSPropertyOp1
 70
     1
102
RTVSPropertyOp2
 70
     1
102
RTVSPropertyOp3
 70
     1
102
RTVSPropertyOp4
 70
     1
102
RTVSPropertyOp5
 70
     1
102
RTVSPropertyOp6
 70
     1
102
RTVSPropertyOp7
 70
     1
102
RTVSPropertyOp8
 70
     1
102
RTVSPropertyOp9
 70
     1
102
RTVSPropertyOp10
 70
     1
102
RTVSPropertyOp11
 70
     1
102
RTVSPropertyOp12
 70
     1
102
RTVSPropertyOp13
 70
     1
102
RTVSPropertyOp14
 70
     1
102
RTVSPropertyOp15
 70
     1
102
RTVSPropertyOp16
 70
     1
102
RTVSPropertyOp17
 70
     1
102
RTVSPropertyOp18
 70
     1
102
RTVSPropertyOp19
 70
     1
102
RTVSPropertyOp20
 70
     1
102
RTVSPropertyOp21
 70
     1
102
RTVSPropertyOp22
 70
     1
102
RTVSPropertyOp23
 70
     1
102
RTVSPropertyOp24
 70
     1
102
RTVSPropertyOp25
 70
     1
102
RTVSPropertyOp26
 70
     1
102
RTVSPropertyOp27
 70
     1
102
RTVSPropertyOp28
 70
     1
102
RTVSPropertyOp29
 70
     1
102
RTVSPropertyOp30
 70
     1
102
RTVSPropertyOp31
 70
     1
102
RTVSPropertyOp32
 70
     1
102
RTVSPropertyOp33
 70
     1
102
RTVSPropertyOp34
 70
     1
102
RTVSPropertyOp35
 70
     1
102
RTVSPropertyOp36
 70
     1
102
RTVSPropertyOp37
 70
     1
102
RTVSPropertyOp38
 70
     1
102
RTVSPropertyOp39
 70
     1
102
RTVSPropertyOp40
 70
     1
102
RTVSPropertyOp41
 70
     1
102
RTVSPropertyOp42
 70
     1
102
RTVSPropertyOp43
 70
     1
102
RTVSPropertyOp44
 70
     1
102
RTVSPropertyOp45
 70
     1
102
RTVSPropertyOp46
 70
     1
102
RTVSPropertyOp47
 70
     1
102
RTVSPropertyOp48
 70
     1
102
RTVSPropertyOp49
 70
     1
102
RTVSPropertyOp50
 70
     1
102
RTVSPropertyOp51
 70
     0
102
RTVSPropertyOp52
 70
     0
102
RTVSPropertyOp53
 70
     1
102
RTVSPropertyOp54
 70
     1
102
RTVSPropertyOp55
 70
     1
102
RTVSPropertyOp56
 70
     1
102
RTVSPropertyOp57
 70
     1
102
RTVSPost2010Prop28
280
     1
102
RTVSPost2010PropOp28
 70
     1
102
RTVSPost2010Prop29
280
     1
102
RTVSPost2010PropOp29
 70
     1
102
RTVSPost2010Prop30
280
     0
102
RTVSPost2010PropOp30
 70
     1
102
RTVSPost2010Prop31
280
     0
102
RTVSPost2010PropOp31
 70
     1
102
RTVSPost2010Prop32
280
     0
102
RTVSPost2010PropOp32
 70
     1
102
RTVSPost2010Prop33
280
     0
102
RTVSPost2010PropOp33
 70
     1
102
RTVSPost2010Prop34
280
     0
102
RTVSPost2010PropOp34
 70
     1
102
RTVSPost2010Prop35
280
     0
102
RTVSPost2010PropOp35
 70
     1
102
RTVSPost2010Prop36
280
     0
102
RTVSPost2010PropOp36
 70
     1
102
RTVSPost2010Prop37
 90
       50
102
RTVSPost2010PropOp37
 70
     1
102
RTVSPost2010Prop38
140
0.0
102
RTVSPost2010PropOp38
 70
     1
102
RTVSPost2010Prop39
140
1.0
102
RTVSPost2010PropOp39
 70
     1
102
RTVSPost2010Prop40
 90
        0
102
RTVSPost2010PropOp40
 70
     1
102
RTVSPost2010Prop41ColorIndex
 90
       18
102
RTVSPost2010Prop41ColorRGB
 90
        0
102
RTVSPost2010PropOp41
 70
     1
102
RTVSPost2010Prop42
 90
       50
102
RTVSPost2010PropOp42
 70
     1
102
RTVSPost2010Prop43
 90
        3
102
RTVSPost2010PropOp43
 70
     1
102
RTVSPost2010Prop44ColorIndex
 90
        5
102
RTVSPost2010Prop44ColorRGB
 90
      255
102
RTVSPost2010PropOp44
 70
     1
102
RTVSPost2010Prop45
280
     0
102
RTVSPost2010PropOp45
 70
     1
102
RTVSPost2010Prop46
 90
       50
102
RTVSPost2010PropOp46
 70
     1
102
RTVSPost2010Prop47
 90
       50
102
RTVSPost2010PropOp47
 70
     1
102
RTVSPost2010Prop48
 90
       50
102
RTVSPost2010PropOp48
 70
     1
102
RTVSPost2010Prop49
280
     0
102
RTVSPost2010PropOp49
 70
     1
102
RTVSPost2010Prop50
 90
       50
102
RTVSPost2010PropOp50
 70
     1
102
RTVSPost2010Prop51ColorIndex
 90
      256
102
RTVSPost2010Prop51ColorRGB
 90
-16777216
102
RTVSPost2010PropOp51
 70
     0
102
RTVSPost2010Prop52
140
1.0
102
RTVSPost2010PropOp52
 70
     0
102
RTVSPost2010Prop53
 90
        2
102
RTVSPost2010PropOp53
 70
     1
102
RTVSPost2010Prop54
  1
strokes_ogs.tif
102
RTVSPost2010PropOp54
 70
     1
102
RTVSPost2010Prop55
280
     0
102
RTVSPost2010PropOp55
 70
     1
102
RTVSPost2010Prop56
140
1.0
102
RTVSPost2010PropOp56
 70
     1
102
RTVSPost2010Prop57
140
1.0
102
RTVSPost2010PropOp57
 70
     1
  0
XRECORD
  5
110
102
{ACAD_REACTORS
330
10F
102
}
330
10F
100
AcDbXrecord
280
     1
102
RTVSPropertyOp0
 70
     1
102
RTVSPropertyOp1
 70
     1
102
RTVSPropertyOp2
 70
     1
102
RTVSPropertyOp3
 70
     1
102
RTVSPropertyOp4
 70
     1
102
RTVSPropertyOp5
 70
     1
102
RTVSPropertyOp6
 70
     1
102
RTVSPropertyOp7
 70
     1
102
RTVSPropertyOp8
 70
     1
102
RTVSPropertyOp9
 70
     1
102
RTVSPropertyOp10
 70
     1
102
RTVSPropertyOp11
 70
     1
102
RTVSPropertyOp12
 70
     1
102
RTVSPropertyOp13
 70
     1
102
RTVSPropertyOp14
 70
     1
102
RTVSPropertyOp15
 70
     1
102
RTVSPropertyOp16
 70
     1
102
RTVSPropertyOp17
 70
     1
102
RTVSPropertyOp18
 70
     1
102
RTVSPropertyOp19
 70
     1
102
RTVSPropertyOp20
 70
     1
102
RTVSPropertyOp21
 70
     1
102
RTVSPropertyOp22
 70
     1
102
RTVSPropertyOp23
 70
     1
102
RTVSPropertyOp24
 70
     1
102
RTVSPropertyOp25
 70
     1
102
RTVSPropertyOp26
 70
     1
102
RTVSPropertyOp27
 70
     1
102
RTVSPropertyOp28
 70
     1
102
RTVSPropertyOp29
 70
     1
102
RTVSPropertyOp30
 70
     1
102
RTVSPropertyOp31
 70
     1
102
RTVSPropertyOp32
 70
     1
102
RTVSPropertyOp33
 70
     1
102
RTVSPropertyOp34
 70
     1
102
RTVSPropertyOp35
 70
     1
102
RTVSPropertyOp36
 70
     1
102
RTVSPropertyOp37
 70
     1
102
RTVSPropertyOp38
 70
     1
102
RTVSPropertyOp39
 70
     1
102
RTVSPropertyOp40
 70
     1
102
RTVSPropertyOp41
 70
     1
102
RTVSPropertyOp42
 70
     1
102
RTVSPropertyOp43
 70
     1
102
RTVSPropertyOp44
 70
     1
102
RTVSPropertyOp45
 70
     1
102
RTVSPropertyOp46
 70
     1
102
RTVSPropertyOp47
 70
     1
102
RTVSPropertyOp48
 70
     1
102
RTVSPropertyOp49
 70
     1
102
RTVSPropertyOp50
 70
     1
102
RTVSPropertyOp51
 70
     0
102
RTVSPropertyOp52
 70
     0
102
RTVSPropertyOp53
 70
     1
102
RTVSPropertyOp54
 70
     1
102
RTVSPropertyOp55
 70
     1
102
RTVSPropertyOp56
 70
     1
102
RTVSPropertyOp57
 70
     1
102
RTVSPost2010Prop28
280
     0
102
RTVSPost2010PropOp28
 70
     1
102
RTVSPost2010Prop29
280
     1
102
RTVSPost2010PropOp29
 70
     1
102
RTVSPost2010Prop30
280
     1
102
RTVSPost2010PropOp30
 70
     1
102
RTVSPost2010Prop31
280
     0
102
RTVSPost2010PropOp31
 70
     1
102
RTVSPost2010Prop32
280
     0
102
RTVSPost2010PropOp32
 70
     1
102
RTVSPost2010Prop33
280
     0
102
RTVSPost2010PropOp33
 70
     1
102
RTVSPost2010Prop34
280
     0
102
RTVSPost2010PropOp34
 70
     1
102
RTVSPost2010Prop35
280
     0
102
RTVSPost2010PropOp35
 70
     1
102
RTVSPost2010Prop36
280
     0
102
RTVSPost2010PropOp36
 70
     1
102
RTVSPost2010Prop37
 90
       50
102
RTVSPost2010PropOp37
 70
     1
102
RTVSPost2010Prop38
140
0.0
102
RTVSPost2010PropOp38
 70
     1
102
RTVSPost2010Prop39
140
1.0
102
RTVSPost2010PropOp39
 70
     1
102
RTVSPost2010Prop40
 90
        0
102
RTVSPost2010PropOp40
 70
     1
102
RTVSPost2010Prop41ColorIndex
 90
       18
102
RTVSPost2010Prop41ColorRGB
 90
        0
102
RTVSPost2010PropOp41
 70
     1
102
RTVSPost2010Prop42
 90
       50
102
RTVSPost2010PropOp42
 70
     1
102
RTVSPost2010Prop43
 90
        3
102
RTVSPost2010PropOp43
 70
     1
102
RTVSPost2010Prop44ColorIndex
 90
        5
102
RTVSPost2010Prop44ColorRGB
 90
      255
102
RTVSPost2010PropOp44
 70
     1
102
RTVSPost2010Prop45
280
     0
102
RTVSPost2010PropOp45
 70
     1
102
RTVSPost2010Prop46
 90
       50
102
RTVSPost2010PropOp46
 70
     1
102
RTVSPost2010Prop47
 90
       50
102
RTVSPost2010PropOp47
 70
     1
102
RTVSPost2010Prop48
 90
       50
102
RTVSPost2010PropOp48
 70
     1
102
RTVSPost2010Prop49
280
     0
102
RTVSPost2010PropOp49
 70
     1
102
RTVSPost2010Prop50
 90
       50
102
RTVSPost2010PropOp50
 70
     1
102
RTVSPost2010Prop51ColorIndex
 90
      256
102
RTVSPost2010Prop51ColorRGB
 90
-16777216
102
RTVSPost2010PropOp51
 70
     0
102
RTVSPost2010Prop52
140
1.0
102
RTVSPost2010PropOp52
 70
     0
102
RTVSPost2010Prop53
 90
        2
102
RTVSPost2010PropOp53
 70
     1
102
RTVSPost2010Prop54
  1
strokes_ogs.tif
102
RTVSPost2010PropOp54
 70
     1
102
RTVSPost2010Prop55
280
     0
102
RTVSPost2010PropOp55
 70
     1
102
RTVSPost2010Prop56
140
1.0
102
RTVSPost2010PropOp56
 70
     1
102
RTVSPost2010Prop57
140
1.0
102
RTVSPost2010PropOp57
 70
     1
  0
XRECORD
  5
118
102
{ACAD_REACTORS
330
117
102
}
330
117
100
AcDbXrecord
280
     1
102
RTVSPropertyOp0
 70
     1
102
RTVSPropertyOp1
 70
     1
102
RTVSPropertyOp2
 70
     1
102
RTVSPropertyOp3
 70
     1
102
RTVSPropertyOp4
 70
     1
102
RTVSPropertyOp5
 70
     1
102
RTVSPropertyOp6
 70
     1
102
RTVSPropertyOp7
 70
     1
102
RTVSPropertyOp8
 70
     1
102
RTVSPropertyOp9
 70
     1
102
RTVSPropertyOp10
 70
     1
102
RTVSPropertyOp11
 70
     1
102
RTVSPropertyOp12
 70
     1
102
RTVSPropertyOp13
 70
     1
102
RTVSPropertyOp14
 70
     1
102
RTVSPropertyOp15
 70
     1
102
RTVSPropertyOp16
 70
     1
102
RTVSPropertyOp17
 70
     1
102
RTVSPropertyOp18
 70
     1
102
RTVSPropertyOp19
 70
     1
102
RTVSPropertyOp20
 70
     1
102
RTVSPropertyOp21
 70
     1
102
RTVSPropertyOp22
 70
     1
102
RTVSPropertyOp23
 70
     1
102
RTVSPropertyOp24
 70
     1
102
RTVSPropertyOp25
 70
     1
102
RTVSPropertyOp26
 70
     1
102
RTVSPropertyOp27
 70
     1
102
RTVSPropertyOp28
 70
     1
102
RTVSPropertyOp29
 70
     1
102
RTVSPropertyOp30
 70
     1
102
RTVSPropertyOp31
 70
     1
102
RTVSPropertyOp32
 70
     1
102
RTVSPropertyOp33
 70
     1
102
RTVSPropertyOp34
 70
     1
102
RTVSPropertyOp35
 70
     1
102
RTVSPropertyOp36
 70
     1
102
RTVSPropertyOp37
 70
     1
102
RTVSPropertyOp38
 70
     1
102
RTVSPropertyOp39
 70
     1
102
RTVSPropertyOp40
 70
     1
102
RTVSPropertyOp41
 70
     1
102
RTVSPropertyOp42
 70
     1
102
RTVSPropertyOp43
 70
     1
102
RTVSPropertyOp44
 70
     1
102
RTVSPropertyOp45
 70
     1
102
RTVSPropertyOp46
 70
     1
102
RTVSPropertyOp47
 70
     1
102
RTVSPropertyOp48
 70
     1
102
RTVSPropertyOp49
 70
     1
102
RTVSPropertyOp50
 70
     1
102
RTVSPropertyOp51
 70
     0
102
RTVSPropertyOp52
 70
     0
102
RTVSPropertyOp53
 70
     1
102
RTVSPropertyOp54
 70
     1
102
RTVSPropertyOp55
 70
     1
102
RTVSPropertyOp56
 70
     1
102
RTVSPropertyOp57
 70
     1
102
RTVSPost2010Prop28
280
     0
102
RTVSPost2010PropOp28
 70
     1
102
RTVSPost2010Prop29
280
     1
102
RTVSPost2010PropOp29
 70
     1
102
RTVSPost2010Prop30
280
     1
102
RTVSPost2010PropOp30
 70
     1
102
RTVSPost2010Prop31
280
     0
102
RTVSPost2010PropOp31
 70
     1
102
RTVSPost2010Prop32
280
     0
102
RTVSPost2010PropOp32
 70
     1
102
RTVSPost2010Prop33
280
     0
102
RTVSPost2010PropOp33
 70
     1
102
RTVSPost2010Prop34
280
     0
102
RTVSPost2010PropOp34
 70
     1
102
RTVSPost2010Prop35
280
     0
102
RTVSPost2010PropOp35
 70
     1
102
RTVSPost2010Prop36
280
     0
102
RTVSPost2010PropOp36
 70
     1
102
RTVSPost2010Prop37
 90
       50
102
RTVSPost2010PropOp37
 70
     1
102
RTVSPost2010Prop38
140
0.0
102
RTVSPost2010PropOp38
 70
     1
102
RTVSPost2010Prop39
140
1.0
102
RTVSPost2010PropOp39
 70
     1
102
RTVSPost2010Prop40
 90
        0
102
RTVSPost2010PropOp40
 70
     1
102
RTVSPost2010Prop41ColorIndex
 90
       18
102
RTVSPost2010Prop41ColorRGB
 90
        0
102
RTVSPost2010PropOp41
 70
     1
102
RTVSPost2010Prop42
 90
       50
102
RTVSPost2010PropOp42
 70
     1
102
RTVSPost2010Prop43
 90
        3
102
RTVSPost2010PropOp43
 70
     1
102
RTVSPost2010Prop44ColorIndex
 90
        5
102
RTVSPost2010Prop44ColorRGB
 90
      255
102
RTVSPost2010PropOp44
 70
     1
102
RTVSPost2010Prop45
280
     0
102
RTVSPost2010PropOp45
 70
     1
102
RTVSPost2010Prop46
 90
       50
102
RTVSPost2010PropOp46
 70
     1
102
RTVSPost2010Prop47
 90
       50
102
RTVSPost2010PropOp47
 70
     1
102
RTVSPost2010Prop48
 90
       50
102
RTVSPost2010PropOp48
 70
     1
102
RTVSPost2010Prop49
280
     0
102
RTVSPost2010PropOp49
 70
     1
102
RTVSPost2010Prop50
 90
       50
102
RTVSPost2010PropOp50
 70
     1
102
RTVSPost2010Prop51ColorIndex
 90
      256
102
RTVSPost2010Prop51ColorRGB
 90
-16777216
102
RTVSPost2010PropOp51
 70
     0
102
RTVSPost2010Prop52
140
1.0
102
RTVSPost2010PropOp52
 70
     0
102
RTVSPost2010Prop53
 90
        2
102
RTVSPost2010PropOp53
 70
     1
102
RTVSPost2010Prop54
  1
strokes_ogs.tif
102
RTVSPost2010PropOp54
 70
     1
102
RTVSPost2010Prop55
280
     0
102
RTVSPost2010PropOp55
 70
     1
102
RTVSPost2010Prop56
140
1.0
102
RTVSPost2010PropOp56
 70
     1
102
RTVSPost2010Prop57
140
1.0
102
RTVSPost2010PropOp57
 70
     1
  0
XRECORD
  5
120
102
{ACAD_REACTORS
330
11F
102
}
330
11F
100
AcDbXrecord
280
     1
102
RTVSPropertyOp0
 70
     1
102
RTVSPropertyOp1
 70
     1
102
RTVSPropertyOp2
 70
     1
102
RTVSPropertyOp3
 70
     1
102
RTVSPropertyOp4
 70
     1
102
RTVSPropertyOp5
 70
     1
102
RTVSPropertyOp6
 70
     1
102
RTVSPropertyOp7
 70
     1
102
RTVSPropertyOp8
 70
     1
102
RTVSPropertyOp9
 70
     1
102
RTVSPropertyOp10
 70
     1
102
RTVSPropertyOp11
 70
     1
102
RTVSPropertyOp12
 70
     1
102
RTVSPropertyOp13
 70
     1
102
RTVSPropertyOp14
 70
     1
102
RTVSPropertyOp15
 70
     1
102
RTVSPropertyOp16
 70
     1
102
RTVSPropertyOp17
 70
     1
102
RTVSPropertyOp18
 70
     1
102
RTVSPropertyOp19
 70
     1
102
RTVSPropertyOp20
 70
     1
102
RTVSPropertyOp21
 70
     1
102
RTVSPropertyOp22
 70
     1
102
RTVSPropertyOp23
 70
     1
102
RTVSPropertyOp24
 70
     1
102
RTVSPropertyOp25
 70
     1
102
RTVSPropertyOp26
 70
     1
102
RTVSPropertyOp27
 70
     1
102
RTVSPropertyOp28
 70
     1
102
RTVSPropertyOp29
 70
     1
102
RTVSPropertyOp30
 70
     1
102
RTVSPropertyOp31
 70
     1
102
RTVSPropertyOp32
 70
     1
102
RTVSPropertyOp33
 70
     1
102
RTVSPropertyOp34
 70
     1
102
RTVSPropertyOp35
 70
     1
102
RTVSPropertyOp36
 70
     1
102
RTVSPropertyOp37
 70
     1
102
RTVSPropertyOp38
 70
     1
102
RTVSPropertyOp39
 70
     1
102
RTVSPropertyOp40
 70
     1
102
RTVSPropertyOp41
 70
     1
102
RTVSPropertyOp42
 70
     1
102
RTVSPropertyOp43
 70
     1
102
RTVSPropertyOp44
 70
     1
102
RTVSPropertyOp45
 70
     1
102
RTVSPropertyOp46
 70
     1
102
RTVSPropertyOp47
 70
     1
102
RTVSPropertyOp48
 70
     1
102
RTVSPropertyOp49
 70
     1
102
RTVSPropertyOp50
 70
     1
102
RTVSPropertyOp51
 70
     0
102
RTVSPropertyOp52
 70
     0
102
RTVSPropertyOp53
 70
     1
102
RTVSPropertyOp54
 70
     1
102
RTVSPropertyOp55
 70
     1
102
RTVSPropertyOp56
 70
     1
102
RTVSPropertyOp57
 70
     1
102
RTVSPost2010Prop28
280
     0
102
RTVSPost2010PropOp28
 70
     1
102
RTVSPost2010Prop29
280
     1
102
RTVSPost2010PropOp29
 70
     1
102
RTVSPost2010Prop30
280
     1
102
RTVSPost2010PropOp30
 70
     1
102
RTVSPost2010Prop31
280
     0
102
RTVSPost2010PropOp31
 70
     1
102
RTVSPost2010Prop32
280
     0
102
RTVSPost2010PropOp32
 70
     1
102
RTVSPost2010Prop33
280
     0
102
RTVSPost2010PropOp33
 70
     1
102
RTVSPost2010Prop34
280
     0
102
RTVSPost2010PropOp34
 70
     1
102
RTVSPost2010Prop35
280
     0
102
RTVSPost2010PropOp35
 70
     1
102
RTVSPost2010Prop36
280
     0
102
RTVSPost2010PropOp36
 70
     1
102
RTVSPost2010Prop37
 90
       50
102
RTVSPost2010PropOp37
 70
     1
102
RTVSPost2010Prop38
140
0.0
102
RTVSPost2010PropOp38
 70
     1
102
RTVSPost2010Prop39
140
1.0
102
RTVSPost2010PropOp39
 70
     1
102
RTVSPost2010Prop40
 90
        0
102
RTVSPost2010PropOp40
 70
     1
102
RTVSPost2010Prop41ColorIndex
 90
       18
102
RTVSPost2010Prop41ColorRGB
 90
        0
102
RTVSPost2010PropOp41
 70
     1
102
RTVSPost2010Prop42
 90
       50
102
RTVSPost2010PropOp42
 70
     1
102
RTVSPost2010Prop43
 90
        3
102
RTVSPost2010PropOp43
 70
     1
102
RTVSPost2010Prop44ColorIndex
 90
        5
102
RTVSPost2010Prop44ColorRGB
 90
      255
102
RTVSPost2010PropOp44
 70
     1
102
RTVSPost2010Prop45
280
     0
102
RTVSPost2010PropOp45
 70
     1
102
RTVSPost2010Prop46
 90
       50
102
RTVSPost2010PropOp46
 70
     1
102
RTVSPost2010Prop47
 90
       50
102
RTVSPost2010PropOp47
 70
     1
102
RTVSPost2010Prop48
 90
       50
102
RTVSPost2010PropOp48
 70
     1
102
RTVSPost2010Prop49
280
     0
102
RTVSPost2010PropOp49
 70
     1
102
RTVSPost2010Prop50
 90
       50
102
RTVSPost2010PropOp50
 70
     1
102
RTVSPost2010Prop51ColorIndex
 90
      256
102
RTVSPost2010Prop51ColorRGB
 90
-16777216
102
RTVSPost2010PropOp51
 70
     0
102
RTVSPost2010Prop52
140
1.0
102
RTVSPost2010PropOp52
 70
     0
102
RTVSPost2010Prop53
 90
        2
102
RTVSPost2010PropOp53
 70
     1
102
RTVSPost2010Prop54
  1
strokes_ogs.tif
102
RTVSPost2010PropOp54
 70
     1
102
RTVSPost2010Prop55
280
     0
102
RTVSPost2010PropOp55
 70
     1
102
RTVSPost2010Prop56
140
1.0
102
RTVSPost2010PropOp56
 70
     1
102
RTVSPost2010Prop57
140
1.0
102
RTVSPost2010PropOp57
 70
     1
  0
XRECORD
  5
114
102
{ACAD_REACTORS
330
113
102
}
330
113
100
AcDbXrecord
280
     1
102
RTVSPropertyOp0
 70
     1
102
RTVSPropertyOp1
 70
     1
102
RTVSPropertyOp2
 70
     1
102
RTVSPropertyOp3
 70
     1
102
RTVSPropertyOp4
 70
     1
102
RTVSPropertyOp5
 70
     1
102
RTVSPropertyOp6
 70
     1
102
RTVSPropertyOp7
 70
     1
102
RTVSPropertyOp8
 70
     1
102
RTVSPropertyOp9
 70
     1
102
RTVSPropertyOp10
 70
     1
102
RTVSPropertyOp11
 70
     1
102
RTVSPropertyOp12
 70
     1
102
RTVSPropertyOp13
 70
     1
102
RTVSPropertyOp14
 70
     1
102
RTVSPropertyOp15
 70
     1
102
RTVSPropertyOp16
 70
     1
102
RTVSPropertyOp17
 70
     1
102
RTVSPropertyOp18
 70
     1
102
RTVSPropertyOp19
 70
     1
102
RTVSPropertyOp20
 70
     1
102
RTVSPropertyOp21
 70
     1
102
RTVSPropertyOp22
 70
     1
102
RTVSPropertyOp23
 70
     1
102
RTVSPropertyOp24
 70
     1
102
RTVSPropertyOp25
 70
     1
102
RTVSPropertyOp26
 70
     1
102
RTVSPropertyOp27
 70
     1
102
RTVSPropertyOp28
 70
     1
102
RTVSPropertyOp29
 70
     1
102
RTVSPropertyOp30
 70
     1
102
RTVSPropertyOp31
 70
     1
102
RTVSPropertyOp32
 70
     1
102
RTVSPropertyOp33
 70
     1
102
RTVSPropertyOp34
 70
     1
102
RTVSPropertyOp35
 70
     1
102
RTVSPropertyOp36
 70
     1
102
RTVSPropertyOp37
 70
     1
102
RTVSPropertyOp38
 70
     1
102
RTVSPropertyOp39
 70
     1
102
RTVSPropertyOp40
 70
     1
102
RTVSPropertyOp41
 70
     1
102
RTVSPropertyOp42
 70
     1
102
RTVSPropertyOp43
 70
     1
102
RTVSPropertyOp44
 70
     1
102
RTVSPropertyOp45
 70
     1
102
RTVSPropertyOp46
 70
     1
102
RTVSPropertyOp47
 70
     1
102
RTVSPropertyOp48
 70
     1
102
RTVSPropertyOp49
 70
     1
102
RTVSPropertyOp50
 70
     1
102
RTVSPropertyOp51
 70
     0
102
RTVSPropertyOp52
 70
     0
102
RTVSPropertyOp53
 70
     1
102
RTVSPropertyOp54
 70
     1
102
RTVSPropertyOp55
 70
     1
102
RTVSPropertyOp56
 70
     1
102
RTVSPropertyOp57
 70
     1
102
RTVSPost2010Prop28
280
     0
102
RTVSPost2010PropOp28
 70
     1
102
RTVSPost2010Prop29
280
     1
102
RTVSPost2010PropOp29
 70
     1
102
RTVSPost2010Prop30
280
     1
102
RTVSPost2010PropOp30
 70
     1
102
RTVSPost2010Prop31
280
     0
102
RTVSPost2010PropOp31
 70
     1
102
RTVSPost2010Prop32
280
     0
102
RTVSPost2010PropOp32
 70
     1
102
RTVSPost2010Prop33
280
     0
102
RTVSPost2010PropOp33
 70
     1
102
RTVSPost2010Prop34
280
     0
102
RTVSPost2010PropOp34
 70
     1
102
RTVSPost2010Prop35
280
     0
102
RTVSPost2010PropOp35
 70
     1
102
RTVSPost2010Prop36
280
     0
102
RTVSPost2010PropOp36
 70
     1
102
RTVSPost2010Prop37
 90
       50
102
RTVSPost2010PropOp37
 70
     1
102
RTVSPost2010Prop38
140
0.0
102
RTVSPost2010PropOp38
 70
     1
102
RTVSPost2010Prop39
140
1.0
102
RTVSPost2010PropOp39
 70
     1
102
RTVSPost2010Prop40
 90
        0
102
RTVSPost2010PropOp40
 70
     1
102
RTVSPost2010Prop41ColorIndex
 90
       18
102
RTVSPost2010Prop41ColorRGB
 90
        0
102
RTVSPost2010PropOp41
 70
     1
102
RTVSPost2010Prop42
 90
       50
102
RTVSPost2010PropOp42
 70
     1
102
RTVSPost2010Prop43
 90
        3
102
RTVSPost2010PropOp43
 70
     1
102
RTVSPost2010Prop44ColorIndex
 90
        5
102
RTVSPost2010Prop44ColorRGB
 90
      255
102
RTVSPost2010PropOp44
 70
     1
102
RTVSPost2010Prop45
280
     0
102
RTVSPost2010PropOp45
 70
     1
102
RTVSPost2010Prop46
 90
       50
102
RTVSPost2010PropOp46
 70
     1
102
RTVSPost2010Prop47
 90
       50
102
RTVSPost2010PropOp47
 70
     1
102
RTVSPost2010Prop48
 90
       50
102
RTVSPost2010PropOp48
 70
     1
102
RTVSPost2010Prop49
280
     0
102
RTVSPost2010PropOp49
 70
     1
102
RTVSPost2010Prop50
 90
       50
102
RTVSPost2010PropOp50
 70
     1
102
RTVSPost2010Prop51ColorIndex
 90
      256
102
RTVSPost2010Prop51ColorRGB
 90
-16777216
102
RTVSPost2010PropOp51
 70
     0
102
RTVSPost2010Prop52
140
1.0
102
RTVSPost2010PropOp52
 70
     0
102
RTVSPost2010Prop53
 90
        2
102
RTVSPost2010PropOp53
 70
     1
102
RTVSPost2010Prop54
  1
strokes_ogs.tif
102
RTVSPost2010PropOp54
 70
     1
102
RTVSPost2010Prop55
280
     0
102
RTVSPost2010PropOp55
 70
     1
102
RTVSPost2010Prop56
140
1.0
102
RTVSPost2010PropOp56
 70
     1
102
RTVSPost2010Prop57
140
1.0
102
RTVSPost2010PropOp57
 70
     1
  0
XRECORD
  5
116
102
{ACAD_REACTORS
330
115
102
}
330
115
100
AcDbXrecord
280
     1
102
RTVSPropertyOp0
 70
     1
102
RTVSPropertyOp1
 70
     1
102
RTVSPropertyOp2
 70
     1
102
RTVSPropertyOp3
 70
     1
102
RTVSPropertyOp4
 70
     1
102
RTVSPropertyOp5
 70
     1
102
RTVSPropertyOp6
 70
     1
102
RTVSPropertyOp7
 70
     1
102
RTVSPropertyOp8
 70
     1
102
RTVSPropertyOp9
 70
     1
102
RTVSPropertyOp10
 70
     1
102
RTVSPropertyOp11
 70
     1
102
RTVSPropertyOp12
 70
     1
102
RTVSPropertyOp13
 70
     1
102
RTVSPropertyOp14
 70
     1
102
RTVSPropertyOp15
 70
     1
102
RTVSPropertyOp16
 70
     1
102
RTVSPropertyOp17
 70
     1
102
RTVSPropertyOp18
 70
     1
102
RTVSPropertyOp19
 70
     1
102
RTVSPropertyOp20
 70
     1
102
RTVSPropertyOp21
 70
     1
102
RTVSPropertyOp22
 70
     1
102
RTVSPropertyOp23
 70
     1
102
RTVSPropertyOp24
 70
     1
102
RTVSPropertyOp25
 70
     1
102
RTVSPropertyOp26
 70
     1
102
RTVSPropertyOp27
 70
     1
102
RTVSPropertyOp28
 70
     1
102
RTVSPropertyOp29
 70
     1
102
RTVSPropertyOp30
 70
     1
102
RTVSPropertyOp31
 70
     1
102
RTVSPropertyOp32
 70
     1
102
RTVSPropertyOp33
 70
     1
102
RTVSPropertyOp34
 70
     1
102
RTVSPropertyOp35
 70
     1
102
RTVSPropertyOp36
 70
     1
102
RTVSPropertyOp37
 70
     1
102
RTVSPropertyOp38
 70
     1
102
RTVSPropertyOp39
 70
     1
102
RTVSPropertyOp40
 70
     1
102
RTVSPropertyOp41
 70
     1
102
RTVSPropertyOp42
 70
     1
102
RTVSPropertyOp43
 70
     1
102
RTVSPropertyOp44
 70
     1
102
RTVSPropertyOp45
 70
     1
102
RTVSPropertyOp46
 70
     1
102
RTVSPropertyOp47
 70
     1
102
RTVSPropertyOp48
 70
     1
102
RTVSPropertyOp49
 70
     1
102
RTVSPropertyOp50
 70
     1
102
RTVSPropertyOp51
 70
     0
102
RTVSPropertyOp52
 70
     0
102
RTVSPropertyOp53
 70
     1
102
RTVSPropertyOp54
 70
     1
102
RTVSPropertyOp55
 70
     1
102
RTVSPropertyOp56
 70
     1
102
RTVSPropertyOp57
 70
     1
102
RTVSPost2010Prop28
280
     0
102
RTVSPost2010PropOp28
 70
     1
102
RTVSPost2010Prop29
280
     1
102
RTVSPost2010PropOp29
 70
     1
102
RTVSPost2010Prop30
280
     1
102
RTVSPost2010PropOp30
 70
     1
102
RTVSPost2010Prop31
280
     0
102
RTVSPost2010PropOp31
 70
     1
102
RTVSPost2010Prop32
280
     0
102
RTVSPost2010PropOp32
 70
     1
102
RTVSPost2010Prop33
280
     0
102
RTVSPost2010PropOp33
 70
     1
102
RTVSPost2010Prop34
280
     0
102
RTVSPost2010PropOp34
 70
     1
102
RTVSPost2010Prop35
280
     0
102
RTVSPost2010PropOp35
 70
     1
102
RTVSPost2010Prop36
280
     0
102
RTVSPost2010PropOp36
 70
     1
102
RTVSPost2010Prop37
 90
       50
102
RTVSPost2010PropOp37
 70
     1
102
RTVSPost2010Prop38
140
0.0
102
RTVSPost2010PropOp38
 70
     1
102
RTVSPost2010Prop39
140
1.0
102
RTVSPost2010PropOp39
 70
     1
102
RTVSPost2010Prop40
 90
        0
102
RTVSPost2010PropOp40
 70
     1
102
RTVSPost2010Prop41ColorIndex
 90
       18
102
RTVSPost2010Prop41ColorRGB
 90
        0
102
RTVSPost2010PropOp41
 70
     1
102
RTVSPost2010Prop42
 90
       50
102
RTVSPost2010PropOp42
 70
     1
102
RTVSPost2010Prop43
 90
        3
102
RTVSPost2010PropOp43
 70
     1
102
RTVSPost2010Prop44ColorIndex
 90
        5
102
RTVSPost2010Prop44ColorRGB
 90
      255
102
RTVSPost2010PropOp44
 70
     1
102
RTVSPost2010Prop45
280
     0
102
RTVSPost2010PropOp45
 70
     1
102
RTVSPost2010Prop46
 90
       50
102
RTVSPost2010PropOp46
 70
     1
102
RTVSPost2010Prop47
 90
       50
102
RTVSPost2010PropOp47
 70
     1
102
RTVSPost2010Prop48
 90
       50
102
RTVSPost2010PropOp48
 70
     1
102
RTVSPost2010Prop49
280
     0
102
RTVSPost2010PropOp49
 70
     1
102
RTVSPost2010Prop50
 90
       50
102
RTVSPost2010PropOp50
 70
     1
102
RTVSPost2010Prop51ColorIndex
 90
      256
102
RTVSPost2010Prop51ColorRGB
 90
-16777216
102
RTVSPost2010PropOp51
 70
     0
102
RTVSPost2010Prop52
140
1.0
102
RTVSPost2010PropOp52
 70
     0
102
RTVSPost2010Prop53
 90
        2
102
RTVSPost2010PropOp53
 70
     1
102
RTVSPost2010Prop54
  1
strokes_ogs.tif
102
RTVSPost2010PropOp54
 70
     1
102
RTVSPost2010Prop55
280
     0
102
RTVSPost2010PropOp55
 70
     1
102
RTVSPost2010Prop56
140
1.0
102
RTVSPost2010PropOp56
 70
     1
102
RTVSPost2010Prop57
140
1.0
102
RTVSPost2010PropOp57
 70
     1
  0
XRECORD
  5
126
102
{ACAD_REACTORS
330
125
102
}
330
125
100
AcDbXrecord
280
     1
102
RTVSPropertyOp0
 70
     0
102
RTVSPropertyOp1
 70
     0
102
RTVSPropertyOp2
 70
     0
102
RTVSPropertyOp3
 70
     0
102
RTVSPropertyOp4
 70
     0
102
RTVSPropertyOp5
 70
     0
102
RTVSPropertyOp6
 70
     0
102
RTVSPropertyOp7
 70
     0
102
RTVSPropertyOp8
 70
     0
102
RTVSPropertyOp9
 70
     0
102
RTVSPropertyOp10
 70
     0
102
RTVSPropertyOp11
 70
     0
102
RTVSPropertyOp12
 70
     0
102
RTVSPropertyOp13
 70
     0
102
RTVSPropertyOp14
 70
     2
102
RTVSPropertyOp15
 70
     0
102
RTVSPropertyOp16
 70
     0
102
RTVSPropertyOp17
 70
     0
102
RTVSPropertyOp18
 70
     0
102
RTVSPropertyOp19
 70
     0
102
RTVSPropertyOp20
 70
     0
102
RTVSPropertyOp21
 70
     0
102
RTVSPropertyOp22
 70
     0
102
RTVSPropertyOp23
 70
     0
102
RTVSPropertyOp24
 70
     0
102
RTVSPropertyOp25
 70
     0
102
RTVSPropertyOp26
 70
     0
102
RTVSPropertyOp27
 70
     0
102
RTVSPropertyOp28
 70
     0
102
RTVSPropertyOp29
 70
     0
102
RTVSPropertyOp30
 70
     0
102
RTVSPropertyOp31
 70
     0
102
RTVSPropertyOp32
 70
     0
102
RTVSPropertyOp33
 70
     0
102
RTVSPropertyOp34
 70
     0
102
RTVSPropertyOp35
 70
     0
102
RTVSPropertyOp36
 70
     0
102
RTVSPropertyOp37
 70
     0
102
RTVSPropertyOp38
 70
     0
102
RTVSPropertyOp39
 70
     0
102
RTVSPropertyOp40
 70
     0
102
RTVSPropertyOp41
 70
     0
102
RTVSPropertyOp42
 70
     0
102
RTVSPropertyOp43
 70
     0
102
RTVSPropertyOp44
 70
     0
102
RTVSPropertyOp45
 70
     0
102
RTVSPropertyOp46
 70
     0
102
RTVSPropertyOp47
 70
     0
102
RTVSPropertyOp48
 70
     0
102
RTVSPropertyOp49
 70
     0
102
RTVSPropertyOp50
 70
     0
102
RTVSPropertyOp51
 70
     0
102
RTVSPropertyOp52
 70
     0
102
RTVSPropertyOp53
 70
     0
102
RTVSPropertyOp54
 70
     0
102
RTVSPropertyOp55
 70
     0
102
RTVSPropertyOp56
 70
     0
102
RTVSPropertyOp57
 70
     0
102
RTVSPost2010Prop28
280
     0
102
RTVSPost2010PropOp28
 70
     0
102
RTVSPost2010Prop29
280
     1
102
RTVSPost2010PropOp29
 70
     0
102
RTVSPost2010Prop30
280
     1
102
RTVSPost2010PropOp30
 70
     0
102
RTVSPost2010Prop31
280
     0
102
RTVSPost2010PropOp31
 70
     0
102
RTVSPost2010Prop32
280
     0
102
RTVSPost2010PropOp32
 70
     0
102
RTVSPost2010Prop33
280
     0
102
RTVSPost2010PropOp33
 70
     0
102
RTVSPost2010Prop34
280
     0
102
RTVSPost2010PropOp34
 70
     0
102
RTVSPost2010Prop35
280
     0
102
RTVSPost2010PropOp35
 70
     0
102
RTVSPost2010Prop36
280
     0
102
RTVSPost2010PropOp36
 70
     0
102
RTVSPost2010Prop37
 90
       50
102
RTVSPost2010PropOp37
 70
     0
102
RTVSPost2010Prop38
140
0.0
102
RTVSPost2010PropOp38
 70
     0
102
RTVSPost2010Prop39
140
1.0
102
RTVSPost2010PropOp39
 70
     0
102
RTVSPost2010Prop40
 90
        0
102
RTVSPost2010PropOp40
 70
     0
102
RTVSPost2010Prop41ColorIndex
 90
       18
102
RTVSPost2010Prop41ColorRGB
 90
        0
102
RTVSPost2010PropOp41
 70
     0
102
RTVSPost2010Prop42
 90
       50
102
RTVSPost2010PropOp42
 70
     0
102
RTVSPost2010Prop43
 90
        3
102
RTVSPost2010PropOp43
 70
     0
102
RTVSPost2010Prop44ColorIndex
 90
        5
102
RTVSPost2010Prop44ColorRGB
 90
      255
102
RTVSPost2010PropOp44
 70
     0
102
RTVSPost2010Prop45
280
     0
102
RTVSPost2010PropOp45
 70
     0
102
RTVSPost2010Prop46
 90
       50
102
RTVSPost2010PropOp46
 70
     0
102
RTVSPost2010Prop47
 90
       50
102
RTVSPost2010PropOp47
 70
     0
102
RTVSPost2010Prop48
 90
       50
102
RTVSPost2010PropOp48
 70
     0
102
RTVSPost2010Prop49
280
     0
102
RTVSPost2010PropOp49
 70
     0
102
RTVSPost2010Prop50
 90
       50
102
RTVSPost2010PropOp50
 70
     0
102
RTVSPost2010Prop51ColorIndex
 90
      256
102
RTVSPost2010Prop51ColorRGB
 90
-16777216
102
RTVSPost2010PropOp51
 70
     0
102
RTVSPost2010Prop52
140
1.0
102
RTVSPost2010PropOp52
 70
     0
102
RTVSPost2010Prop53
 90
        2
102
RTVSPost2010PropOp53
 70
     0
102
RTVSPost2010Prop54
  1
strokes_ogs.tif
102
RTVSPost2010PropOp54
 70
     0
102
RTVSPost2010Prop55
280
     0
102
RTVSPost2010PropOp55
 70
     0
102
RTVSPost2010Prop56
140
1.0
102
RTVSPost2010PropOp56
 70
     0
102
RTVSPost2010Prop57
140
1.0
102
RTVSPost2010PropOp57
 70
     0
  0
XRECORD
  5
11E
102
{ACAD_REACTORS
330
11D
102
}
330
11D
100
AcDbXrecord
280
     1
102
RTVSPropertyOp0
 70
     1
102
RTVSPropertyOp1
 70
     1
102
RTVSPropertyOp2
 70
     1
102
RTVSPropertyOp3
 70
     1
102
RTVSPropertyOp4
 70
     1
102
RTVSPropertyOp5
 70
     1
102
RTVSPropertyOp6
 70
     1
102
RTVSPropertyOp7
 70
     1
102
RTVSPropertyOp8
 70
     1
102
RTVSPropertyOp9
 70
     1
102
RTVSPropertyOp10
 70
     1
102
RTVSPropertyOp11
 70
     1
102
RTVSPropertyOp12
 70
     1
102
RTVSPropertyOp13
 70
     1
102
RTVSPropertyOp14
 70
     1
102
RTVSPropertyOp15
 70
     1
102
RTVSPropertyOp16
 70
     1
102
RTVSPropertyOp17
 70
     1
102
RTVSPropertyOp18
 70
     1
102
RTVSPropertyOp19
 70
     1
102
RTVSPropertyOp20
 70
     1
102
RTVSPropertyOp21
 70
     1
102
RTVSPropertyOp22
 70
     1
102
RTVSPropertyOp23
 70
     1
102
RTVSPropertyOp24
 70
     1
102
RTVSPropertyOp25
 70
     1
102
RTVSPropertyOp26
 70
     1
102
RTVSPropertyOp27
 70
     1
102
RTVSPropertyOp28
 70
     1
102
RTVSPropertyOp29
 70
     1
102
RTVSPropertyOp30
 70
     1
102
RTVSPropertyOp31
 70
     1
102
RTVSPropertyOp32
 70
     1
102
RTVSPropertyOp33
 70
     1
102
RTVSPropertyOp34
 70
     1
102
RTVSPropertyOp35
 70
     1
102
RTVSPropertyOp36
 70
     1
102
RTVSPropertyOp37
 70
     1
102
RTVSPropertyOp38
 70
     1
102
RTVSPropertyOp39
 70
     1
102
RTVSPropertyOp40
 70
     1
102
RTVSPropertyOp41
 70
     1
102
RTVSPropertyOp42
 70
     1
102
RTVSPropertyOp43
 70
     1
102
RTVSPropertyOp44
 70
     1
102
RTVSPropertyOp45
 70
     1
102
RTVSPropertyOp46
 70
     1
102
RTVSPropertyOp47
 70
     1
102
RTVSPropertyOp48
 70
     1
102
RTVSPropertyOp49
 70
     1
102
RTVSPropertyOp50
 70
     1
102
RTVSPropertyOp51
 70
     0
102
RTVSPropertyOp52
 70
     0
102
RTVSPropertyOp53
 70
     1
102
RTVSPropertyOp54
 70
     1
102
RTVSPropertyOp55
 70
     1
102
RTVSPropertyOp56
 70
     1
102
RTVSPropertyOp57
 70
     1
102
RTVSPost2010Prop28
280
     0
102
RTVSPost2010PropOp28
 70
     1
102
RTVSPost2010Prop29
280
     1
102
RTVSPost2010PropOp29
 70
     1
102
RTVSPost2010Prop30
280
     1
102
RTVSPost2010PropOp30
 70
     1
102
RTVSPost2010Prop31
280
     0
102
RTVSPost2010PropOp31
 70
     1
102
RTVSPost2010Prop32
280
     0
102
RTVSPost2010PropOp32
 70
     1
102
RTVSPost2010Prop33
280
     0
102
RTVSPost2010PropOp33
 70
     1
102
RTVSPost2010Prop34
280
     0
102
RTVSPost2010PropOp34
 70
     1
102
RTVSPost2010Prop35
280
     0
102
RTVSPost2010PropOp35
 70
     1
102
RTVSPost2010Prop36
280
     0
102
RTVSPost2010PropOp36
 70
     1
102
RTVSPost2010Prop37
 90
       50
102
RTVSPost2010PropOp37
 70
     1
102
RTVSPost2010Prop38
140
0.0
102
RTVSPost2010PropOp38
 70
     1
102
RTVSPost2010Prop39
140
1.0
102
RTVSPost2010PropOp39
 70
     1
102
RTVSPost2010Prop40
 90
        0
102
RTVSPost2010PropOp40
 70
     1
102
RTVSPost2010Prop41ColorIndex
 90
       18
102
RTVSPost2010Prop41ColorRGB
 90
        0
102
RTVSPost2010PropOp41
 70
     1
102
RTVSPost2010Prop42
 90
       50
102
RTVSPost2010PropOp42
 70
     1
102
RTVSPost2010Prop43
 90
        3
102
RTVSPost2010PropOp43
 70
     1
102
RTVSPost2010Prop44ColorIndex
 90
        5
102
RTVSPost2010Prop44ColorRGB
 90
      255
102
RTVSPost2010PropOp44
 70
     1
102
RTVSPost2010Prop45
280
     0
102
RTVSPost2010PropOp45
 70
     1
102
RTVSPost2010Prop46
 90
       50
102
RTVSPost2010PropOp46
 70
     1
102
RTVSPost2010Prop47
 90
       50
102
RTVSPost2010PropOp47
 70
     1
102
RTVSPost2010Prop48
 90
       50
102
RTVSPost2010PropOp48
 70
     1
102
RTVSPost2010Prop49
280
     0
102
RTVSPost2010PropOp49
 70
     1
102
RTVSPost2010Prop50
 90
       50
102
RTVSPost2010PropOp50
 70
     1
102
RTVSPost2010Prop51ColorIndex
 90
      256
102
RTVSPost2010Prop51ColorRGB
 90
-16777216
102
RTVSPost2010PropOp51
 70
     0
102
RTVSPost2010Prop52
140
1.0
102
RTVSPost2010PropOp52
 70
     0
102
RTVSPost2010Prop53
 90
        2
102
RTVSPost2010PropOp53
 70
     1
102
RTVSPost2010Prop54
  1
strokes_ogs.tif
102
RTVSPost2010PropOp54
 70
     1
102
RTVSPost2010Prop55
280
     0
102
RTVSPost2010PropOp55
 70
     1
102
RTVSPost2010Prop56
140
1.0
102
RTVSPost2010PropOp56
 70
     1
102
RTVSPost2010Prop57
140
1.0
102
RTVSPost2010PropOp57
 70
     1
  0
XRECORD
  5
102
102
{ACAD_REACTORS
330
101
102
}
330
101
100
AcDbXrecord
280
     1
102
RTVSPropertyOp0
 70
     1
102
RTVSPropertyOp1
 70
     1
102
RTVSPropertyOp2
 70
     1
102
RTVSPropertyOp3
 70
     1
102
RTVSPropertyOp4
 70
     1
102
RTVSPropertyOp5
 70
     1
102
RTVSPropertyOp6
 70
     1
102
RTVSPropertyOp7
 70
     1
102
RTVSPropertyOp8
 70
     1
102
RTVSPropertyOp9
 70
     1
102
RTVSPropertyOp10
 70
     1
102
RTVSPropertyOp11
 70
     1
102
RTVSPropertyOp12
 70
     1
102
RTVSPropertyOp13
 70
     1
102
RTVSPropertyOp14
 70
     1
102
RTVSPropertyOp15
 70
     1
102
RTVSPropertyOp16
 70
     1
102
RTVSPropertyOp17
 70
     1
102
RTVSPropertyOp18
 70
     1
102
RTVSPropertyOp19
 70
     1
102
RTVSPropertyOp20
 70
     1
102
RTVSPropertyOp21
 70
     1
102
RTVSPropertyOp22
 70
     1
102
RTVSPropertyOp23
 70
     1
102
RTVSPropertyOp24
 70
     1
102
RTVSPropertyOp25
 70
     1
102
RTVSPropertyOp26
 70
     1
102
RTVSPropertyOp27
 70
     1
102
RTVSPropertyOp28
 70
     1
102
RTVSPropertyOp29
 70
     1
102
RTVSPropertyOp30
 70
     1
102
RTVSPropertyOp31
 70
     1
102
RTVSPropertyOp32
 70
     1
102
RTVSPropertyOp33
 70
     1
102
RTVSPropertyOp34
 70
     1
102
RTVSPropertyOp35
 70
     1
102
RTVSPropertyOp36
 70
     1
102
RTVSPropertyOp37
 70
     1
102
RTVSPropertyOp38
 70
     1
102
RTVSPropertyOp39
 70
     1
102
RTVSPropertyOp40
 70
     1
102
RTVSPropertyOp41
 70
     1
102
RTVSPropertyOp42
 70
     1
102
RTVSPropertyOp43
 70
     1
102
RTVSPropertyOp44
 70
     1
102
RTVSPropertyOp45
 70
     1
102
RTVSPropertyOp46
 70
     1
102
RTVSPropertyOp47
 70
     1
102
RTVSPropertyOp48
 70
     1
102
RTVSPropertyOp49
 70
     1
102
RTVSPropertyOp50
 70
     1
102
RTVSPropertyOp51
 70
     0
102
RTVSPropertyOp52
 70
     0
102
RTVSPropertyOp53
 70
     1
102
RTVSPropertyOp54
 70
     1
102
RTVSPropertyOp55
 70
     1
102
RTVSPropertyOp56
 70
     1
102
RTVSPropertyOp57
 70
     1
102
RTVSPost2010Prop28
280
     0
102
RTVSPost2010PropOp28
 70
     1
102
RTVSPost2010Prop29
280
     1
102
RTVSPost2010PropOp29
 70
     1
102
RTVSPost2010Prop30
280
     1
102
RTVSPost2010PropOp30
 70
     1
102
RTVSPost2010Prop31
280
     0
102
RTVSPost2010PropOp31
 70
     1
102
RTVSPost2010Prop32
280
     0
102
RTVSPost2010PropOp32
 70
     1
102
RTVSPost2010Prop33
280
     0
102
RTVSPost2010PropOp33
 70
     1
102
RTVSPost2010Prop34
280
     0
102
RTVSPost2010PropOp34
 70
     1
102
RTVSPost2010Prop35
280
     0
102
RTVSPost2010PropOp35
 70
     1
102
RTVSPost2010Prop36
280
     0
102
RTVSPost2010PropOp36
 70
     1
102
RTVSPost2010Prop37
 90
       50
102
RTVSPost2010PropOp37
 70
     1
102
RTVSPost2010Prop38
140
0.0
102
RTVSPost2010PropOp38
 70
     1
102
RTVSPost2010Prop39
140
1.0
102
RTVSPost2010PropOp39
 70
     1
102
RTVSPost2010Prop40
 90
        0
102
RTVSPost2010PropOp40
 70
     1
102
RTVSPost2010Prop41ColorIndex
 90
       18
102
RTVSPost2010Prop41ColorRGB
 90
        0
102
RTVSPost2010PropOp41
 70
     1
102
RTVSPost2010Prop42
 90
       50
102
RTVSPost2010PropOp42
 70
     1
102
RTVSPost2010Prop43
 90
        3
102
RTVSPost2010PropOp43
 70
     1
102
RTVSPost2010Prop44ColorIndex
 90
        5
102
RTVSPost2010Prop44ColorRGB
 90
      255
102
RTVSPost2010PropOp44
 70
     1
102
RTVSPost2010Prop45
280
     0
102
RTVSPost2010PropOp45
 70
     1
102
RTVSPost2010Prop46
 90
       50
102
RTVSPost2010PropOp46
 70
     1
102
RTVSPost2010Prop47
 90
       50
102
RTVSPost2010PropOp47
 70
     1
102
RTVSPost2010Prop48
 90
       50
102
RTVSPost2010PropOp48
 70
     1
102
RTVSPost2010Prop49
280
     0
102
RTVSPost2010PropOp49
 70
     1
102
RTVSPost2010Prop50
 90
       50
102
RTVSPost2010PropOp50
 70
     1
102
RTVSPost2010Prop51ColorIndex
 90
      256
102
RTVSPost2010Prop51ColorRGB
 90
-16777216
102
RTVSPost2010PropOp51
 70
     0
102
RTVSPost2010Prop52
140
1.0
102
RTVSPost2010PropOp52
 70
     0
102
RTVSPost2010Prop53
 90
        2
102
RTVSPost2010PropOp53
 70
     1
102
RTVSPost2010Prop54
  1
strokes_ogs.tif
102
RTVSPost2010PropOp54
 70
     1
102
RTVSPost2010Prop55
280
     0
102
RTVSPost2010PropOp55
 70
     1
102
RTVSPost2010Prop56
140
1.0
102
RTVSPost2010PropOp56
 70
     1
102
RTVSPost2010Prop57
140
1.0
102
RTVSPost2010PropOp57
 70
     1
  0
XRECORD
  5
104
102
{ACAD_REACTORS
330
103
102
}
330
103
100
AcDbXrecord
280
     1
102
RTVSPropertyOp0
 70
     1
102
RTVSPropertyOp1
 70
     1
102
RTVSPropertyOp2
 70
     1
102
RTVSPropertyOp3
 70
     1
102
RTVSPropertyOp4
 70
     1
102
RTVSPropertyOp5
 70
     1
102
RTVSPropertyOp6
 70
     1
102
RTVSPropertyOp7
 70
     1
102
RTVSPropertyOp8
 70
     1
102
RTVSPropertyOp9
 70
     1
102
RTVSPropertyOp10
 70
     1
102
RTVSPropertyOp11
 70
     1
102
RTVSPropertyOp12
 70
     1
102
RTVSPropertyOp13
 70
     1
102
RTVSPropertyOp14
 70
     1
102
RTVSPropertyOp15
 70
     1
102
RTVSPropertyOp16
 70
     1
102
RTVSPropertyOp17
 70
     1
102
RTVSPropertyOp18
 70
     1
102
RTVSPropertyOp19
 70
     1
102
RTVSPropertyOp20
 70
     1
102
RTVSPropertyOp21
 70
     1
102
RTVSPropertyOp22
 70
     1
102
RTVSPropertyOp23
 70
     1
102
RTVSPropertyOp24
 70
     1
102
RTVSPropertyOp25
 70
     1
102
RTVSPropertyOp26
 70
     1
102
RTVSPropertyOp27
 70
     1
102
RTVSPropertyOp28
 70
     1
102
RTVSPropertyOp29
 70
     1
102
RTVSPropertyOp30
 70
     1
102
RTVSPropertyOp31
 70
     1
102
RTVSPropertyOp32
 70
     1
102
RTVSPropertyOp33
 70
     1
102
RTVSPropertyOp34
 70
     1
102
RTVSPropertyOp35
 70
     1
102
RTVSPropertyOp36
 70
     1
102
RTVSPropertyOp37
 70
     1
102
RTVSPropertyOp38
 70
     1
102
RTVSPropertyOp39
 70
     1
102
RTVSPropertyOp40
 70
     1
102
RTVSPropertyOp41
 70
     1
102
RTVSPropertyOp42
 70
     1
102
RTVSPropertyOp43
 70
     1
102
RTVSPropertyOp44
 70
     1
102
RTVSPropertyOp45
 70
     1
102
RTVSPropertyOp46
 70
     1
102
RTVSPropertyOp47
 70
     1
102
RTVSPropertyOp48
 70
     1
102
RTVSPropertyOp49
 70
     1
102
RTVSPropertyOp50
 70
     1
102
RTVSPropertyOp51
 70
     0
102
RTVSPropertyOp52
 70
     0
102
RTVSPropertyOp53
 70
     1
102
RTVSPropertyOp54
 70
     1
102
RTVSPropertyOp55
 70
     1
102
RTVSPropertyOp56
 70
     1
102
RTVSPropertyOp57
 70
     1
102
RTVSPost2010Prop28
280
     0
102
RTVSPost2010PropOp28
 70
     1
102
RTVSPost2010Prop29
280
     1
102
RTVSPost2010PropOp29
 70
     1
102
RTVSPost2010Prop30
280
     1
102
RTVSPost2010PropOp30
 70
     1
102
RTVSPost2010Prop31
280
     0
102
RTVSPost2010PropOp31
 70
     1
102
RTVSPost2010Prop32
280
     0
102
RTVSPost2010PropOp32
 70
     1
102
RTVSPost2010Prop33
280
     0
102
RTVSPost2010PropOp33
 70
     1
102
RTVSPost2010Prop34
280
     0
102
RTVSPost2010PropOp34
 70
     1
102
RTVSPost2010Prop35
280
     0
102
RTVSPost2010PropOp35
 70
     1
102
RTVSPost2010Prop36
280
     0
102
RTVSPost2010PropOp36
 70
     1
102
RTVSPost2010Prop37
 90
       50
102
RTVSPost2010PropOp37
 70
     1
102
RTVSPost2010Prop38
140
0.0
102
RTVSPost2010PropOp38
 70
     1
102
RTVSPost2010Prop39
140
1.0
102
RTVSPost2010PropOp39
 70
     1
102
RTVSPost2010Prop40
 90
        0
102
RTVSPost2010PropOp40
 70
     1
102
RTVSPost2010Prop41ColorIndex
 90
       18
102
RTVSPost2010Prop41ColorRGB
 90
        0
102
RTVSPost2010PropOp41
 70
     1
102
RTVSPost2010Prop42
 90
       50
102
RTVSPost2010PropOp42
 70
     1
102
RTVSPost2010Prop43
 90
        3
102
RTVSPost2010PropOp43
 70
     1
102
RTVSPost2010Prop44ColorIndex
 90
        5
102
RTVSPost2010Prop44ColorRGB
 90
      255
102
RTVSPost2010PropOp44
 70
     1
102
RTVSPost2010Prop45
280
     0
102
RTVSPost2010PropOp45
 70
     1
102
RTVSPost2010Prop46
 90
       50
102
RTVSPost2010PropOp46
 70
     1
102
RTVSPost2010Prop47
 90
       50
102
RTVSPost2010PropOp47
 70
     1
102
RTVSPost2010Prop48
 90
       50
102
RTVSPost2010PropOp48
 70
     1
102
RTVSPost2010Prop49
280
     0
102
RTVSPost2010PropOp49
 70
     1
102
RTVSPost2010Prop50
 90
       50
102
RTVSPost2010PropOp50
 70
     1
102
RTVSPost2010Prop51ColorIndex
 90
      256
102
RTVSPost2010Prop51ColorRGB
 90
-16777216
102
RTVSPost2010PropOp51
 70
     0
102
RTVSPost2010Prop52
140
1.0
102
RTVSPost2010PropOp52
 70
     0
102
RTVSPost2010Prop53
 90
        2
102
RTVSPost2010PropOp53
 70
     1
102
RTVSPost2010Prop54
  1
strokes_ogs.tif
102
RTVSPost2010PropOp54
 70
     1
102
RTVSPost2010Prop55
280
     0
102
RTVSPost2010PropOp55
 70
     1
102
RTVSPost2010Prop56
140
1.0
102
RTVSPost2010PropOp56
 70
     1
102
RTVSPost2010Prop57
140
1.0
102
RTVSPost2010PropOp57
 70
     1
  0
XRECORD
  5
106
102
{ACAD_REACTORS
330
105
102
}
330
105
100
AcDbXrecord
280
     1
102
RTVSPropertyOp0
 70
     1
102
RTVSPropertyOp1
 70
     1
102
RTVSPropertyOp2
 70
     1
102
RTVSPropertyOp3
 70
     1
102
RTVSPropertyOp4
 70
     1
102
RTVSPropertyOp5
 70
     1
102
RTVSPropertyOp6
 70
     1
102
RTVSPropertyOp7
 70
     1
102
RTVSPropertyOp8
 70
     1
102
RTVSPropertyOp9
 70
     1
102
RTVSPropertyOp10
 70
     1
102
RTVSPropertyOp11
 70
     1
102
RTVSPropertyOp12
 70
     1
102
RTVSPropertyOp13
 70
     1
102
RTVSPropertyOp14
 70
     1
102
RTVSPropertyOp15
 70
     1
102
RTVSPropertyOp16
 70
     1
102
RTVSPropertyOp17
 70
     1
102
RTVSPropertyOp18
 70
     1
102
RTVSPropertyOp19
 70
     1
102
RTVSPropertyOp20
 70
     1
102
RTVSPropertyOp21
 70
     1
102
RTVSPropertyOp22
 70
     1
102
RTVSPropertyOp23
 70
     1
102
RTVSPropertyOp24
 70
     1
102
RTVSPropertyOp25
 70
     1
102
RTVSPropertyOp26
 70
     1
102
RTVSPropertyOp27
 70
     1
102
RTVSPropertyOp28
 70
     1
102
RTVSPropertyOp29
 70
     1
102
RTVSPropertyOp30
 70
     1
102
RTVSPropertyOp31
 70
     1
102
RTVSPropertyOp32
 70
     1
102
RTVSPropertyOp33
 70
     1
102
RTVSPropertyOp34
 70
     1
102
RTVSPropertyOp35
 70
     1
102
RTVSPropertyOp36
 70
     1
102
RTVSPropertyOp37
 70
     1
102
RTVSPropertyOp38
 70
     1
102
RTVSPropertyOp39
 70
     1
102
RTVSPropertyOp40
 70
     1
102
RTVSPropertyOp41
 70
     1
102
RTVSPropertyOp42
 70
     1
102
RTVSPropertyOp43
 70
     1
102
RTVSPropertyOp44
 70
     1
102
RTVSPropertyOp45
 70
     1
102
RTVSPropertyOp46
 70
     1
102
RTVSPropertyOp47
 70
     1
102
RTVSPropertyOp48
 70
     1
102
RTVSPropertyOp49
 70
     1
102
RTVSPropertyOp50
 70
     1
102
RTVSPropertyOp51
 70
     0
102
RTVSPropertyOp52
 70
     0
102
RTVSPropertyOp53
 70
     1
102
RTVSPropertyOp54
 70
     1
102
RTVSPropertyOp55
 70
     1
102
RTVSPropertyOp56
 70
     1
102
RTVSPropertyOp57
 70
     1
102
RTVSPost2010Prop28
280
     0
102
RTVSPost2010PropOp28
 70
     1
102
RTVSPost2010Prop29
280
     1
102
RTVSPost2010PropOp29
 70
     1
102
RTVSPost2010Prop30
280
     1
102
RTVSPost2010PropOp30
 70
     1
102
RTVSPost2010Prop31
280
     0
102
RTVSPost2010PropOp31
 70
     1
102
RTVSPost2010Prop32
280
     0
102
RTVSPost2010PropOp32
 70
     1
102
RTVSPost2010Prop33
280
     0
102
RTVSPost2010PropOp33
 70
     1
102
RTVSPost2010Prop34
280
     0
102
RTVSPost2010PropOp34
 70
     1
102
RTVSPost2010Prop35
280
     0
102
RTVSPost2010PropOp35
 70
     1
102
RTVSPost2010Prop36
280
     0
102
RTVSPost2010PropOp36
 70
     1
102
RTVSPost2010Prop37
 90
       50
102
RTVSPost2010PropOp37
 70
     1
102
RTVSPost2010Prop38
140
0.0
102
RTVSPost2010PropOp38
 70
     1
102
RTVSPost2010Prop39
140
1.0
102
RTVSPost2010PropOp39
 70
     1
102
RTVSPost2010Prop40
 90
        0
102
RTVSPost2010PropOp40
 70
     1
102
RTVSPost2010Prop41ColorIndex
 90
       18
102
RTVSPost2010Prop41ColorRGB
 90
        0
102
RTVSPost2010PropOp41
 70
     1
102
RTVSPost2010Prop42
 90
       50
102
RTVSPost2010PropOp42
 70
     1
102
RTVSPost2010Prop43
 90
        3
102
RTVSPost2010PropOp43
 70
     1
102
RTVSPost2010Prop44ColorIndex
 90
        5
102
RTVSPost2010Prop44ColorRGB
 90
      255
102
RTVSPost2010PropOp44
 70
     1
102
RTVSPost2010Prop45
280
     0
102
RTVSPost2010PropOp45
 70
     1
102
RTVSPost2010Prop46
 90
       50
102
RTVSPost2010PropOp46
 70
     1
102
RTVSPost2010Prop47
 90
       50
102
RTVSPost2010PropOp47
 70
     1
102
RTVSPost2010Prop48
 90
       50
102
RTVSPost2010PropOp48
 70
     1
102
RTVSPost2010Prop49
280
     0
102
RTVSPost2010PropOp49
 70
     1
102
RTVSPost2010Prop50
 90
       50
102
RTVSPost2010PropOp50
 70
     1
102
RTVSPost2010Prop51ColorIndex
 90
      256
102
RTVSPost2010Prop51ColorRGB
 90
-16777216
102
RTVSPost2010PropOp51
 70
     0
102
RTVSPost2010Prop52
140
1.0
102
RTVSPost2010PropOp52
 70
     0
102
RTVSPost2010Prop53
 90
        2
102
RTVSPost2010PropOp53
 70
     1
102
RTVSPost2010Prop54
  1
strokes_ogs.tif
102
RTVSPost2010PropOp54
 70
     1
102
RTVSPost2010Prop55
280
     0
102
RTVSPost2010PropOp55
 70
     1
102
RTVSPost2010Prop56
140
1.0
102
RTVSPost2010PropOp56
 70
     1
102
RTVSPost2010Prop57
140
1.0
102
RTVSPost2010PropOp57
 70
     1
  0
XRECORD
  5
108
102
{ACAD_REACTORS
330
107
102
}
330
107
100
AcDbXrecord
280
     1
102
RTVSPropertyOp0
 70
     1
102
RTVSPropertyOp1
 70
     1
102
RTVSPropertyOp2
 70
     1
102
RTVSPropertyOp3
 70
     1
102
RTVSPropertyOp4
 70
     1
102
RTVSPropertyOp5
 70
     1
102
RTVSPropertyOp6
 70
     1
102
RTVSPropertyOp7
 70
     1
102
RTVSPropertyOp8
 70
     1
102
RTVSPropertyOp9
 70
     1
102
RTVSPropertyOp10
 70
     1
102
RTVSPropertyOp11
 70
     1
102
RTVSPropertyOp12
 70
     1
102
RTVSPropertyOp13
 70
     1
102
RTVSPropertyOp14
 70
     1
102
RTVSPropertyOp15
 70
     1
102
RTVSPropertyOp16
 70
     1
102
RTVSPropertyOp17
 70
     1
102
RTVSPropertyOp18
 70
     1
102
RTVSPropertyOp19
 70
     1
102
RTVSPropertyOp20
 70
     1
102
RTVSPropertyOp21
 70
     1
102
RTVSPropertyOp22
 70
     1
102
RTVSPropertyOp23
 70
     1
102
RTVSPropertyOp24
 70
     1
102
RTVSPropertyOp25
 70
     1
102
RTVSPropertyOp26
 70
     1
102
RTVSPropertyOp27
 70
     1
102
RTVSPropertyOp28
 70
     1
102
RTVSPropertyOp29
 70
     1
102
RTVSPropertyOp30
 70
     1
102
RTVSPropertyOp31
 70
     1
102
RTVSPropertyOp32
 70
     1
102
RTVSPropertyOp33
 70
     1
102
RTVSPropertyOp34
 70
     1
102
RTVSPropertyOp35
 70
     1
102
RTVSPropertyOp36
 70
     1
102
RTVSPropertyOp37
 70
     1
102
RTVSPropertyOp38
 70
     1
102
RTVSPropertyOp39
 70
     1
102
RTVSPropertyOp40
 70
     1
102
RTVSPropertyOp41
 70
     1
102
RTVSPropertyOp42
 70
     1
102
RTVSPropertyOp43
 70
     1
102
RTVSPropertyOp44
 70
     1
102
RTVSPropertyOp45
 70
     1
102
RTVSPropertyOp46
 70
     1
102
RTVSPropertyOp47
 70
     1
102
RTVSPropertyOp48
 70
     1
102
RTVSPropertyOp49
 70
     1
102
RTVSPropertyOp50
 70
     1
102
RTVSPropertyOp51
 70
     0
102
RTVSPropertyOp52
 70
     0
102
RTVSPropertyOp53
 70
     1
102
RTVSPropertyOp54
 70
     1
102
RTVSPropertyOp55
 70
     1
102
RTVSPropertyOp56
 70
     1
102
RTVSPropertyOp57
 70
     1
102
RTVSPost2010Prop28
280
     0
102
RTVSPost2010PropOp28
 70
     1
102
RTVSPost2010Prop29
280
     1
102
RTVSPost2010PropOp29
 70
     1
102
RTVSPost2010Prop30
280
     1
102
RTVSPost2010PropOp30
 70
     1
102
RTVSPost2010Prop31
280
     0
102
RTVSPost2010PropOp31
 70
     1
102
RTVSPost2010Prop32
280
     0
102
RTVSPost2010PropOp32
 70
     1
102
RTVSPost2010Prop33
280
     0
102
RTVSPost2010PropOp33
 70
     1
102
RTVSPost2010Prop34
280
     0
102
RTVSPost2010PropOp34
 70
     1
102
RTVSPost2010Prop35
280
     0
102
RTVSPost2010PropOp35
 70
     1
102
RTVSPost2010Prop36
280
     0
102
RTVSPost2010PropOp36
 70
     1
102
RTVSPost2010Prop37
 90
       50
102
RTVSPost2010PropOp37
 70
     1
102
RTVSPost2010Prop38
140
0.0
102
RTVSPost2010PropOp38
 70
     1
102
RTVSPost2010Prop39
140
1.0
102
RTVSPost2010PropOp39
 70
     1
102
RTVSPost2010Prop40
 90
        0
102
RTVSPost2010PropOp40
 70
     1
102
RTVSPost2010Prop41ColorIndex
 90
       18
102
RTVSPost2010Prop41ColorRGB
 90
        0
102
RTVSPost2010PropOp41
 70
     1
102
RTVSPost2010Prop42
 90
       50
102
RTVSPost2010PropOp42
 70
     1
102
RTVSPost2010Prop43
 90
        3
102
RTVSPost2010PropOp43
 70
     1
102
RTVSPost2010Prop44ColorIndex
 90
        5
102
RTVSPost2010Prop44ColorRGB
 90
      255
102
RTVSPost2010PropOp44
 70
     1
102
RTVSPost2010Prop45
280
     0
102
RTVSPost2010PropOp45
 70
     1
102
RTVSPost2010Prop46
 90
       50
102
RTVSPost2010PropOp46
 70
     1
102
RTVSPost2010Prop47
 90
       50
102
RTVSPost2010PropOp47
 70
     1
102
RTVSPost2010Prop48
 90
       50
102
RTVSPost2010PropOp48
 70
     1
102
RTVSPost2010Prop49
280
     0
102
RTVSPost2010PropOp49
 70
     1
102
RTVSPost2010Prop50
 90
       50
102
RTVSPost2010PropOp50
 70
     1
102
RTVSPost2010Prop51ColorIndex
 90
      256
102
RTVSPost2010Prop51ColorRGB
 90
-16777216
102
RTVSPost2010PropOp51
 70
     0
102
RTVSPost2010Prop52
140
1.0
102
RTVSPost2010PropOp52
 70
     0
102
RTVSPost2010Prop53
 90
        2
102
RTVSPost2010PropOp53
 70
     1
102
RTVSPost2010Prop54
  1
strokes_ogs.tif
102
RTVSPost2010PropOp54
 70
     1
102
RTVSPost2010Prop55
280
     0
102
RTVSPost2010PropOp55
 70
     1
102
RTVSPost2010Prop56
140
1.0
102
RTVSPost2010PropOp56
 70
     1
102
RTVSPost2010Prop57
140
1.0
102
RTVSPost2010PropOp57
 70
     1
  0
XRECORD
  5
10E
102
{ACAD_REACTORS
330
10D
102
}
330
10D
100
AcDbXrecord
280
     1
102
RTVSPropertyOp0
 70
     1
102
RTVSPropertyOp1
 70
     1
102
RTVSPropertyOp2
 70
     1
102
RTVSPropertyOp3
 70
     1
102
RTVSPropertyOp4
 70
     1
102
RTVSPropertyOp5
 70
     1
102
RTVSPropertyOp6
 70
     1
102
RTVSPropertyOp7
 70
     1
102
RTVSPropertyOp8
 70
     1
102
RTVSPropertyOp9
 70
     1
102
RTVSPropertyOp10
 70
     1
102
RTVSPropertyOp11
 70
     1
102
RTVSPropertyOp12
 70
     1
102
RTVSPropertyOp13
 70
     1
102
RTVSPropertyOp14
 70
     1
102
RTVSPropertyOp15
 70
     1
102
RTVSPropertyOp16
 70
     1
102
RTVSPropertyOp17
 70
     1
102
RTVSPropertyOp18
 70
     1
102
RTVSPropertyOp19
 70
     1
102
RTVSPropertyOp20
 70
     1
102
RTVSPropertyOp21
 70
     1
102
RTVSPropertyOp22
 70
     1
102
RTVSPropertyOp23
 70
     1
102
RTVSPropertyOp24
 70
     1
102
RTVSPropertyOp25
 70
     1
102
RTVSPropertyOp26
 70
     1
102
RTVSPropertyOp27
 70
     1
102
RTVSPropertyOp28
 70
     1
102
RTVSPropertyOp29
 70
     1
102
RTVSPropertyOp30
 70
     1
102
RTVSPropertyOp31
 70
     1
102
RTVSPropertyOp32
 70
     1
102
RTVSPropertyOp33
 70
     1
102
RTVSPropertyOp34
 70
     1
102
RTVSPropertyOp35
 70
     1
102
RTVSPropertyOp36
 70
     1
102
RTVSPropertyOp37
 70
     1
102
RTVSPropertyOp38
 70
     1
102
RTVSPropertyOp39
 70
     1
102
RTVSPropertyOp40
 70
     1
102
RTVSPropertyOp41
 70
     1
102
RTVSPropertyOp42
 70
     1
102
RTVSPropertyOp43
 70
     1
102
RTVSPropertyOp44
 70
     1
102
RTVSPropertyOp45
 70
     1
102
RTVSPropertyOp46
 70
     1
102
RTVSPropertyOp47
 70
     1
102
RTVSPropertyOp48
 70
     1
102
RTVSPropertyOp49
 70
     1
102
RTVSPropertyOp50
 70
     1
102
RTVSPropertyOp51
 70
     0
102
RTVSPropertyOp52
 70
     0
102
RTVSPropertyOp53
 70
     1
102
RTVSPropertyOp54
 70
     1
102
RTVSPropertyOp55
 70
     1
102
RTVSPropertyOp56
 70
     1
102
RTVSPropertyOp57
 70
     1
102
RTVSPost2010Prop28
280
     0
102
RTVSPost2010PropOp28
 70
     1
102
RTVSPost2010Prop29
280
     1
102
RTVSPost2010PropOp29
 70
     1
102
RTVSPost2010Prop30
280
     1
102
RTVSPost2010PropOp30
 70
     1
102
RTVSPost2010Prop31
280
     0
102
RTVSPost2010PropOp31
 70
     1
102
RTVSPost2010Prop32
280
     0
102
RTVSPost2010PropOp32
 70
     1
102
RTVSPost2010Prop33
280
     0
102
RTVSPost2010PropOp33
 70
     1
102
RTVSPost2010Prop34
280
     0
102
RTVSPost2010PropOp34
 70
     1
102
RTVSPost2010Prop35
280
     0
102
RTVSPost2010PropOp35
 70
     1
102
RTVSPost2010Prop36
280
     0
102
RTVSPost2010PropOp36
 70
     1
102
RTVSPost2010Prop37
 90
       50
102
RTVSPost2010PropOp37
 70
     1
102
RTVSPost2010Prop38
140
0.0
102
RTVSPost2010PropOp38
 70
     1
102
RTVSPost2010Prop39
140
1.0
102
RTVSPost2010PropOp39
 70
     1
102
RTVSPost2010Prop40
 90
        0
102
RTVSPost2010PropOp40
 70
     1
102
RTVSPost2010Prop41ColorIndex
 90
       18
102
RTVSPost2010Prop41ColorRGB
 90
        0
102
RTVSPost2010PropOp41
 70
     1
102
RTVSPost2010Prop42
 90
       50
102
RTVSPost2010PropOp42
 70
     1
102
RTVSPost2010Prop43
 90
        3
102
RTVSPost2010PropOp43
 70
     1
102
RTVSPost2010Prop44ColorIndex
 90
        5
102
RTVSPost2010Prop44ColorRGB
 90
      255
102
RTVSPost2010PropOp44
 70
     1
102
RTVSPost2010Prop45
280
     0
102
RTVSPost2010PropOp45
 70
     1
102
RTVSPost2010Prop46
 90
       50
102
RTVSPost2010PropOp46
 70
     1
102
RTVSPost2010Prop47
 90
       50
102
RTVSPost2010PropOp47
 70
     1
102
RTVSPost2010Prop48
 90
       50
102
RTVSPost2010PropOp48
 70
     1
102
RTVSPost2010Prop49
280
     0
102
RTVSPost2010PropOp49
 70
     1
102
RTVSPost2010Prop50
 90
       50
102
RTVSPost2010PropOp50
 70
     1
102
RTVSPost2010Prop51ColorIndex
 90
      256
102
RTVSPost2010Prop51ColorRGB
 90
-16777216
102
RTVSPost2010PropOp51
 70
     0
102
RTVSPost2010Prop52
140
1.0
102
RTVSPost2010PropOp52
 70
     0
102
RTVSPost2010Prop53
 90
        2
102
RTVSPost2010PropOp53
 70
     1
102
RTVSPost2010Prop54
  1
strokes_ogs.tif
102
RTVSPost2010PropOp54
 70
     1
102
RTVSPost2010Prop55
280
     0
102
RTVSPost2010PropOp55
 70
     1
102
RTVSPost2010Prop56
140
1.0
102
RTVSPost2010PropOp56
 70
     1
102
RTVSPost2010Prop57
140
1.0
102
RTVSPost2010PropOp57
 70
     1
  0
XRECORD
  5
122
102
{ACAD_REACTORS
330
121
102
}
330
121
100
AcDbXrecord
280
     1
102
RTVSPropertyOp0
 70
     0
102
RTVSPropertyOp1
 70
     0
102
RTVSPropertyOp2
 70
     0
102
RTVSPropertyOp3
 70
     0
102
RTVSPropertyOp4
 70
     0
102
RTVSPropertyOp5
 70
     0
102
RTVSPropertyOp6
 70
     0
102
RTVSPropertyOp7
 70
     0
102
RTVSPropertyOp8
 70
     0
102
RTVSPropertyOp9
 70
     0
102
RTVSPropertyOp10
 70
     0
102
RTVSPropertyOp11
 70
     0
102
RTVSPropertyOp12
 70
     0
102
RTVSPropertyOp13
 70
     0
102
RTVSPropertyOp14
 70
     2
102
RTVSPropertyOp15
 70
     0
102
RTVSPropertyOp16
 70
     0
102
RTVSPropertyOp17
 70
     0
102
RTVSPropertyOp18
 70
     0
102
RTVSPropertyOp19
 70
     0
102
RTVSPropertyOp20
 70
     0
102
RTVSPropertyOp21
 70
     0
102
RTVSPropertyOp22
 70
     0
102
RTVSPropertyOp23
 70
     0
102
RTVSPropertyOp24
 70
     0
102
RTVSPropertyOp25
 70
     0
102
RTVSPropertyOp26
 70
     0
102
RTVSPropertyOp27
 70
     0
102
RTVSPropertyOp28
 70
     0
102
RTVSPropertyOp29
 70
     0
102
RTVSPropertyOp30
 70
     0
102
RTVSPropertyOp31
 70
     0
102
RTVSPropertyOp32
 70
     0
102
RTVSPropertyOp33
 70
     0
102
RTVSPropertyOp34
 70
     0
102
RTVSPropertyOp35
 70
     0
102
RTVSPropertyOp36
 70
     0
102
RTVSPropertyOp37
 70
     0
102
RTVSPropertyOp38
 70
     0
102
RTVSPropertyOp39
 70
     0
102
RTVSPropertyOp40
 70
     0
102
RTVSPropertyOp41
 70
     0
102
RTVSPropertyOp42
 70
     0
102
RTVSPropertyOp43
 70
     0
102
RTVSPropertyOp44
 70
     0
102
RTVSPropertyOp45
 70
     0
102
RTVSPropertyOp46
 70
     0
102
RTVSPropertyOp47
 70
     0
102
RTVSPropertyOp48
 70
     0
102
RTVSPropertyOp49
 70
     0
102
RTVSPropertyOp50
 70
     0
102
RTVSPropertyOp51
 70
     0
102
RTVSPropertyOp52
 70
     0
102
RTVSPropertyOp53
 70
     0
102
RTVSPropertyOp54
 70
     0
102
RTVSPropertyOp55
 70
     0
102
RTVSPropertyOp56
 70
     0
102
RTVSPropertyOp57
 70
     0
102
RTVSPost2010Prop28
280
     0
102
RTVSPost2010PropOp28
 70
     0
102
RTVSPost2010Prop29
280
     1
102
RTVSPost2010PropOp29
 70
     0
102
RTVSPost2010Prop30
280
     1
102
RTVSPost2010PropOp30
 70
     0
102
RTVSPost2010Prop31
280
     0
102
RTVSPost2010PropOp31
 70
     0
102
RTVSPost2010Prop32
280
     0
102
RTVSPost2010PropOp32
 70
     0
102
RTVSPost2010Prop33
280
     0
102
RTVSPost2010PropOp33
 70
     0
102
RTVSPost2010Prop34
280
     0
102
RTVSPost2010PropOp34
 70
     0
102
RTVSPost2010Prop35
280
     0
102
RTVSPost2010PropOp35
 70
     0
102
RTVSPost2010Prop36
280
     0
102
RTVSPost2010PropOp36
 70
     0
102
RTVSPost2010Prop37
 90
       50
102
RTVSPost2010PropOp37
 70
     0
102
RTVSPost2010Prop38
140
0.0
102
RTVSPost2010PropOp38
 70
     0
102
RTVSPost2010Prop39
140
1.0
102
RTVSPost2010PropOp39
 70
     0
102
RTVSPost2010Prop40
 90
        0
102
RTVSPost2010PropOp40
 70
     0
102
RTVSPost2010Prop41ColorIndex
 90
       18
102
RTVSPost2010Prop41ColorRGB
 90
        0
102
RTVSPost2010PropOp41
 70
     0
102
RTVSPost2010Prop42
 90
       50
102
RTVSPost2010PropOp42
 70
     0
102
RTVSPost2010Prop43
 90
        3
102
RTVSPost2010PropOp43
 70
     0
102
RTVSPost2010Prop44ColorIndex
 90
        5
102
RTVSPost2010Prop44ColorRGB
 90
      255
102
RTVSPost2010PropOp44
 70
     0
102
RTVSPost2010Prop45
280
     0
102
RTVSPost2010PropOp45
 70
     0
102
RTVSPost2010Prop46
 90
       50
102
RTVSPost2010PropOp46
 70
     0
102
RTVSPost2010Prop47
 90
       50
102
RTVSPost2010PropOp47
 70
     0
102
RTVSPost2010Prop48
 90
       50
102
RTVSPost2010PropOp48
 70
     0
102
RTVSPost2010Prop49
280
     0
102
RTVSPost2010PropOp49
 70
     0
102
RTVSPost2010Prop50
 90
       50
102
RTVSPost2010PropOp50
 70
     0
102
RTVSPost2010Prop51ColorIndex
 90
      256
102
RTVSPost2010Prop51ColorRGB
 90
-16777216
102
RTVSPost2010PropOp51
 70
     0
102
RTVSPost2010Prop52
140
1.0
102
RTVSPost2010PropOp52
 70
     0
102
RTVSPost2010Prop53
 90
        2
102
RTVSPost2010PropOp53
 70
     0
102
RTVSPost2010Prop54
  1
strokes_ogs.tif
102
RTVSPost2010PropOp54
 70
     0
102
RTVSPost2010Prop55
280
     0
102
RTVSPost2010PropOp55
 70
     0
102
RTVSPost2010Prop56
140
1.0
102
RTVSPost2010PropOp56
 70
     0
102
RTVSPost2010Prop57
140
1.0
102
RTVSPost2010PropOp57
 70
     0
  0
XRECORD
  5
11C
102
{ACAD_REACTORS
330
11B
102
}
330
11B
100
AcDbXrecord
280
     1
102
RTVSPropertyOp0
 70
     1
102
RTVSPropertyOp1
 70
     1
102
RTVSPropertyOp2
 70
     1
102
RTVSPropertyOp3
 70
     1
102
RTVSPropertyOp4
 70
     1
102
RTVSPropertyOp5
 70
     1
102
RTVSPropertyOp6
 70
     1
102
RTVSPropertyOp7
 70
     1
102
RTVSPropertyOp8
 70
     1
102
RTVSPropertyOp9
 70
     1
102
RTVSPropertyOp10
 70
     1
102
RTVSPropertyOp11
 70
     1
102
RTVSPropertyOp12
 70
     1
102
RTVSPropertyOp13
 70
     1
102
RTVSPropertyOp14
 70
     1
102
RTVSPropertyOp15
 70
     1
102
RTVSPropertyOp16
 70
     1
102
RTVSPropertyOp17
 70
     1
102
RTVSPropertyOp18
 70
     1
102
RTVSPropertyOp19
 70
     1
102
RTVSPropertyOp20
 70
     1
102
RTVSPropertyOp21
 70
     1
102
RTVSPropertyOp22
 70
     1
102
RTVSPropertyOp23
 70
     1
102
RTVSPropertyOp24
 70
     1
102
RTVSPropertyOp25
 70
     1
102
RTVSPropertyOp26
 70
     1
102
RTVSPropertyOp27
 70
     1
102
RTVSPropertyOp28
 70
     1
102
RTVSPropertyOp29
 70
     1
102
RTVSPropertyOp30
 70
     1
102
RTVSPropertyOp31
 70
     1
102
RTVSPropertyOp32
 70
     1
102
RTVSPropertyOp33
 70
     1
102
RTVSPropertyOp34
 70
     1
102
RTVSPropertyOp35
 70
     1
102
RTVSPropertyOp36
 70
     1
102
RTVSPropertyOp37
 70
     1
102
RTVSPropertyOp38
 70
     1
102
RTVSPropertyOp39
 70
     1
102
RTVSPropertyOp40
 70
     1
102
RTVSPropertyOp41
 70
     1
102
RTVSPropertyOp42
 70
     1
102
RTVSPropertyOp43
 70
     1
102
RTVSPropertyOp44
 70
     1
102
RTVSPropertyOp45
 70
     1
102
RTVSPropertyOp46
 70
     1
102
RTVSPropertyOp47
 70
     1
102
RTVSPropertyOp48
 70
     1
102
RTVSPropertyOp49
 70
     1
102
RTVSPropertyOp50
 70
     1
102
RTVSPropertyOp51
 70
     0
102
RTVSPropertyOp52
 70
     0
102
RTVSPropertyOp53
 70
     1
102
RTVSPropertyOp54
 70
     1
102
RTVSPropertyOp55
 70
     1
102
RTVSPropertyOp56
 70
     1
102
RTVSPropertyOp57
 70
     1
102
RTVSPost2010Prop28
280
     0
102
RTVSPost2010PropOp28
 70
     1
102
RTVSPost2010Prop29
280
     1
102
RTVSPost2010PropOp29
 70
     1
102
RTVSPost2010Prop30
280
     1
102
RTVSPost2010PropOp30
 70
     1
102
RTVSPost2010Prop31
280
     0
102
RTVSPost2010PropOp31
 70
     1
102
RTVSPost2010Prop32
280
     0
102
RTVSPost2010PropOp32
 70
     1
102
RTVSPost2010Prop33
280
     0
102
RTVSPost2010PropOp33
 70
     1
102
RTVSPost2010Prop34
280
     0
102
RTVSPost2010PropOp34
 70
     1
102
RTVSPost2010Prop35
280
     0
102
RTVSPost2010PropOp35
 70
     1
102
RTVSPost2010Prop36
280
     0
102
RTVSPost2010PropOp36
 70
     1
102
RTVSPost2010Prop37
 90
       50
102
RTVSPost2010PropOp37
 70
     1
102
RTVSPost2010Prop38
140
0.0
102
RTVSPost2010PropOp38
 70
     1
102
RTVSPost2010Prop39
140
1.0
102
RTVSPost2010PropOp39
 70
     1
102
RTVSPost2010Prop40
 90
        0
102
RTVSPost2010PropOp40
 70
     1
102
RTVSPost2010Prop41ColorIndex
 90
       18
102
RTVSPost2010Prop41ColorRGB
 90
        0
102
RTVSPost2010PropOp41
 70
     1
102
RTVSPost2010Prop42
 90
       50
102
RTVSPost2010PropOp42
 70
     1
102
RTVSPost2010Prop43
 90
        3
102
RTVSPost2010PropOp43
 70
     1
102
RTVSPost2010Prop44ColorIndex
 90
        5
102
RTVSPost2010Prop44ColorRGB
 90
      255
102
RTVSPost2010PropOp44
 70
     1
102
RTVSPost2010Prop45
280
     0
102
RTVSPost2010PropOp45
 70
     1
102
RTVSPost2010Prop46
 90
       50
102
RTVSPost2010PropOp46
 70
     1
102
RTVSPost2010Prop47
 90
       50
102
RTVSPost2010PropOp47
 70
     1
102
RTVSPost2010Prop48
 90
       50
102
RTVSPost2010PropOp48
 70
     1
102
RTVSPost2010Prop49
280
     0
102
RTVSPost2010PropOp49
 70
     1
102
RTVSPost2010Prop50
 90
       50
102
RTVSPost2010PropOp50
 70
     1
102
RTVSPost2010Prop51ColorIndex
 90
      256
102
RTVSPost2010Prop51ColorRGB
 90
-16777216
102
RTVSPost2010PropOp51
 70
     0
102
RTVSPost2010Prop52
140
1.0
102
RTVSPost2010PropOp52
 70
     0
102
RTVSPost2010Prop53
 90
        2
102
RTVSPost2010PropOp53
 70
     1
102
RTVSPost2010Prop54
  1
strokes_ogs.tif
102
RTVSPost2010PropOp54
 70
     1
102
RTVSPost2010Prop55
280
     0
102
RTVSPost2010PropOp55
 70
     1
102
RTVSPost2010Prop56
140
1.0
102
RTVSPost2010PropOp56
 70
     1
102
RTVSPost2010Prop57
140
1.0
102
RTVSPost2010PropOp57
 70
     1
  0
XRECORD
  5
124
102
{ACAD_REACTORS
330
123
102
}
330
123
100
AcDbXrecord
280
     1
102
RTVSPropertyOp0
 70
     0
102
RTVSPropertyOp1
 70
     0
102
RTVSPropertyOp2
 70
     0
102
RTVSPropertyOp3
 70
     0
102
RTVSPropertyOp4
 70
     0
102
RTVSPropertyOp5
 70
     0
102
RTVSPropertyOp6
 70
     0
102
RTVSPropertyOp7
 70
     0
102
RTVSPropertyOp8
 70
     0
102
RTVSPropertyOp9
 70
     0
102
RTVSPropertyOp10
 70
     0
102
RTVSPropertyOp11
 70
     0
102
RTVSPropertyOp12
 70
     0
102
RTVSPropertyOp13
 70
     0
102
RTVSPropertyOp14
 70
     2
102
RTVSPropertyOp15
 70
     0
102
RTVSPropertyOp16
 70
     0
102
RTVSPropertyOp17
 70
     0
102
RTVSPropertyOp18
 70
     0
102
RTVSPropertyOp19
 70
     0
102
RTVSPropertyOp20
 70
     0
102
RTVSPropertyOp21
 70
     0
102
RTVSPropertyOp22
 70
     0
102
RTVSPropertyOp23
 70
     0
102
RTVSPropertyOp24
 70
     0
102
RTVSPropertyOp25
 70
     0
102
RTVSPropertyOp26
 70
     0
102
RTVSPropertyOp27
 70
     0
102
RTVSPropertyOp28
 70
     0
102
RTVSPropertyOp29
 70
     0
102
RTVSPropertyOp30
 70
     0
102
RTVSPropertyOp31
 70
     0
102
RTVSPropertyOp32
 70
     0
102
RTVSPropertyOp33
 70
     0
102
RTVSPropertyOp34
 70
     0
102
RTVSPropertyOp35
 70
     0
102
RTVSPropertyOp36
 70
     0
102
RTVSPropertyOp37
 70
     0
102
RTVSPropertyOp38
 70
     0
102
RTVSPropertyOp39
 70
     0
102
RTVSPropertyOp40
 70
     0
102
RTVSPropertyOp41
 70
     0
102
RTVSPropertyOp42
 70
     0
102
RTVSPropertyOp43
 70
     0
102
RTVSPropertyOp44
 70
     0
102
RTVSPropertyOp45
 70
     0
102
RTVSPropertyOp46
 70
     0
102
RTVSPropertyOp47
 70
     0
102
RTVSPropertyOp48
 70
     0
102
RTVSPropertyOp49
 70
     0
102
RTVSPropertyOp50
 70
     0
102
RTVSPropertyOp51
 70
     0
102
RTVSPropertyOp52
 70
     0
102
RTVSPropertyOp53
 70
     0
102
RTVSPropertyOp54
 70
     0
102
RTVSPropertyOp55
 70
     0
102
RTVSPropertyOp56
 70
     0
102
RTVSPropertyOp57
 70
     0
102
RTVSPost2010Prop28
280
     0
102
RTVSPost2010PropOp28
 70
     0
102
RTVSPost2010Prop29
280
     1
102
RTVSPost2010PropOp29
 70
     0
102
RTVSPost2010Prop30
280
     1
102
RTVSPost2010PropOp30
 70
     0
102
RTVSPost2010Prop31
280
     0
102
RTVSPost2010PropOp31
 70
     0
102
RTVSPost2010Prop32
280
     0
102
RTVSPost2010PropOp32
 70
     0
102
RTVSPost2010Prop33
280
     0
102
RTVSPost2010PropOp33
 70
     0
102
RTVSPost2010Prop34
280
     0
102
RTVSPost2010PropOp34
 70
     0
102
RTVSPost2010Prop35
280
     0
102
RTVSPost2010PropOp35
 70
     0
102
RTVSPost2010Prop36
280
     0
102
RTVSPost2010PropOp36
 70
     0
102
RTVSPost2010Prop37
 90
       50
102
RTVSPost2010PropOp37
 70
     0
102
RTVSPost2010Prop38
140
0.0
102
RTVSPost2010PropOp38
 70
     0
102
RTVSPost2010Prop39
140
1.0
102
RTVSPost2010PropOp39
 70
     0
102
RTVSPost2010Prop40
 90
        0
102
RTVSPost2010PropOp40
 70
     0
102
RTVSPost2010Prop41ColorIndex
 90
       18
102
RTVSPost2010Prop41ColorRGB
 90
        0
102
RTVSPost2010PropOp41
 70
     0
102
RTVSPost2010Prop42
 90
       50
102
RTVSPost2010PropOp42
 70
     0
102
RTVSPost2010Prop43
 90
        3
102
RTVSPost2010PropOp43
 70
     0
102
RTVSPost2010Prop44ColorIndex
 90
        5
102
RTVSPost2010Prop44ColorRGB
 90
      255
102
RTVSPost2010PropOp44
 70
     0
102
RTVSPost2010Prop45
280
     0
102
RTVSPost2010PropOp45
 70
     0
102
RTVSPost2010Prop46
 90
       50
102
RTVSPost2010PropOp46
 70
     0
102
RTVSPost2010Prop47
 90
       50
102
RTVSPost2010PropOp47
 70
     0
102
RTVSPost2010Prop48
 90
       50
102
RTVSPost2010PropOp48
 70
     0
102
RTVSPost2010Prop49
280
     0
102
RTVSPost2010PropOp49
 70
     0
102
RTVSPost2010Prop50
 90
       50
102
RTVSPost2010PropOp50
 70
     0
102
RTVSPost2010Prop51ColorIndex
 90
      256
102
RTVSPost2010Prop51ColorRGB
 90
-16777216
102
RTVSPost2010PropOp51
 70
     0
102
RTVSPost2010Prop52
140
1.0
102
RTVSPost2010PropOp52
 70
     0
102
RTVSPost2010Prop53
 90
        2
102
RTVSPost2010PropOp53
 70
     0
102
RTVSPost2010Prop54
  1
strokes_ogs.tif
102
RTVSPost2010PropOp54
 70
     0
102
RTVSPost2010Prop55
280
     0
102
RTVSPost2010PropOp55
 70
     0
102
RTVSPost2010Prop56
140
1.0
102
RTVSPost2010PropOp56
 70
     0
102
RTVSPost2010Prop57
140
1.0
102
RTVSPost2010PropOp57
 70
     0
  0
XRECORD
  5
112
102
{ACAD_REACTORS
330
111
102
}
330
111
100
AcDbXrecord
280
     1
102
RTVSPropertyOp0
 70
     1
102
RTVSPropertyOp1
 70
     1
102
RTVSPropertyOp2
 70
     1
102
RTVSPropertyOp3
 70
     1
102
RTVSPropertyOp4
 70
     1
102
RTVSPropertyOp5
 70
     1
102
RTVSPropertyOp6
 70
     1
102
RTVSPropertyOp7
 70
     1
102
RTVSPropertyOp8
 70
     1
102
RTVSPropertyOp9
 70
     1
102
RTVSPropertyOp10
 70
     1
102
RTVSPropertyOp11
 70
     1
102
RTVSPropertyOp12
 70
     1
102
RTVSPropertyOp13
 70
     1
102
RTVSPropertyOp14
 70
     1
102
RTVSPropertyOp15
 70
     1
102
RTVSPropertyOp16
 70
     1
102
RTVSPropertyOp17
 70
     1
102
RTVSPropertyOp18
 70
     1
102
RTVSPropertyOp19
 70
     1
102
RTVSPropertyOp20
 70
     1
102
RTVSPropertyOp21
 70
     1
102
RTVSPropertyOp22
 70
     1
102
RTVSPropertyOp23
 70
     1
102
RTVSPropertyOp24
 70
     1
102
RTVSPropertyOp25
 70
     1
102
RTVSPropertyOp26
 70
     1
102
RTVSPropertyOp27
 70
     1
102
RTVSPropertyOp28
 70
     1
102
RTVSPropertyOp29
 70
     1
102
RTVSPropertyOp30
 70
     1
102
RTVSPropertyOp31
 70
     1
102
RTVSPropertyOp32
 70
     1
102
RTVSPropertyOp33
 70
     1
102
RTVSPropertyOp34
 70
     1
102
RTVSPropertyOp35
 70
     1
102
RTVSPropertyOp36
 70
     1
102
RTVSPropertyOp37
 70
     1
102
RTVSPropertyOp38
 70
     1
102
RTVSPropertyOp39
 70
     1
102
RTVSPropertyOp40
 70
     1
102
RTVSPropertyOp41
 70
     1
102
RTVSPropertyOp42
 70
     1
102
RTVSPropertyOp43
 70
     1
102
RTVSPropertyOp44
 70
     1
102
RTVSPropertyOp45
 70
     1
102
RTVSPropertyOp46
 70
     1
102
RTVSPropertyOp47
 70
     1
102
RTVSPropertyOp48
 70
     1
102
RTVSPropertyOp49
 70
     1
102
RTVSPropertyOp50
 70
     1
102
RTVSPropertyOp51
 70
     0
102
RTVSPropertyOp52
 70
     0
102
RTVSPropertyOp53
 70
     1
102
RTVSPropertyOp54
 70
     1
102
RTVSPropertyOp55
 70
     1
102
RTVSPropertyOp56
 70
     1
102
RTVSPropertyOp57
 70
     1
102
RTVSPost2010Prop28
280
     0
102
RTVSPost2010PropOp28
 70
     1
102
RTVSPost2010Prop29
280
     1
102
RTVSPost2010PropOp29
 70
     1
102
RTVSPost2010Prop30
280
     1
102
RTVSPost2010PropOp30
 70
     1
102
RTVSPost2010Prop31
280
     0
102
RTVSPost2010PropOp31
 70
     1
102
RTVSPost2010Prop32
280
     0
102
RTVSPost2010PropOp32
 70
     1
102
RTVSPost2010Prop33
280
     0
102
RTVSPost2010PropOp33
 70
     1
102
RTVSPost2010Prop34
280
     0
102
RTVSPost2010PropOp34
 70
     1
102
RTVSPost2010Prop35
280
     0
102
RTVSPost2010PropOp35
 70
     1
102
RTVSPost2010Prop36
280
     0
102
RTVSPost2010PropOp36
 70
     1
102
RTVSPost2010Prop37
 90
       50
102
RTVSPost2010PropOp37
 70
     1
102
RTVSPost2010Prop38
140
0.0
102
RTVSPost2010PropOp38
 70
     1
102
RTVSPost2010Prop39
140
1.0
102
RTVSPost2010PropOp39
 70
     1
102
RTVSPost2010Prop40
 90
        0
102
RTVSPost2010PropOp40
 70
     1
102
RTVSPost2010Prop41ColorIndex
 90
       18
102
RTVSPost2010Prop41ColorRGB
 90
        0
102
RTVSPost2010PropOp41
 70
     1
102
RTVSPost2010Prop42
 90
       50
102
RTVSPost2010PropOp42
 70
     1
102
RTVSPost2010Prop43
 90
        3
102
RTVSPost2010PropOp43
 70
     1
102
RTVSPost2010Prop44ColorIndex
 90
        5
102
RTVSPost2010Prop44ColorRGB
 90
      255
102
RTVSPost2010PropOp44
 70
     1
102
RTVSPost2010Prop45
280
     0
102
RTVSPost2010PropOp45
 70
     1
102
RTVSPost2010Prop46
 90
       50
102
RTVSPost2010PropOp46
 70
     1
102
RTVSPost2010Prop47
 90
       50
102
RTVSPost2010PropOp47
 70
     1
102
RTVSPost2010Prop48
 90
       50
102
RTVSPost2010PropOp48
 70
     1
102
RTVSPost2010Prop49
280
     0
102
RTVSPost2010PropOp49
 70
     1
102
RTVSPost2010Prop50
 90
       50
102
RTVSPost2010PropOp50
 70
     1
102
RTVSPost2010Prop51ColorIndex
 90
      256
102
RTVSPost2010Prop51ColorRGB
 90
-16777216
102
RTVSPost2010PropOp51
 70
     0
102
RTVSPost2010Prop52
140
1.0
102
RTVSPost2010PropOp52
 70
     0
102
RTVSPost2010Prop53
 90
        2
102
RTVSPost2010PropOp53
 70
     1
102
RTVSPost2010Prop54
  1
strokes_ogs.tif
102
RTVSPost2010PropOp54
 70
     1
102
RTVSPost2010Prop55
280
     0
102
RTVSPost2010PropOp55
 70
     1
102
RTVSPost2010Prop56
140
1.0
102
RTVSPost2010PropOp56
 70
     1
102
RTVSPost2010Prop57
140
1.0
102
RTVSPost2010PropOp57
 70
     1
  0
XRECORD
  5
130
102
{ACAD_REACTORS
330
12F
102
}
330
12F
100
AcDbXrecord
280
     1
102
RTVSPropertyOp0
 70
     1
102
RTVSPropertyOp1
 70
     1
102
RTVSPropertyOp2
 70
     1
102
RTVSPropertyOp3
 70
     1
102
RTVSPropertyOp4
 70
     1
102
RTVSPropertyOp5
 70
     1
102
RTVSPropertyOp6
 70
     1
102
RTVSPropertyOp7
 70
     1
102
RTVSPropertyOp8
 70
     1
102
RTVSPropertyOp9
 70
     1
102
RTVSPropertyOp10
 70
     1
102
RTVSPropertyOp11
 70
     1
102
RTVSPropertyOp12
 70
     1
102
RTVSPropertyOp13
 70
     1
102
RTVSPropertyOp14
 70
     1
102
RTVSPropertyOp15
 70
     1
102
RTVSPropertyOp16
 70
     1
102
RTVSPropertyOp17
 70
     1
102
RTVSPropertyOp18
 70
     1
102
RTVSPropertyOp19
 70
     1
102
RTVSPropertyOp20
 70
     1
102
RTVSPropertyOp21
 70
     1
102
RTVSPropertyOp22
 70
     1
102
RTVSPropertyOp23
 70
     1
102
RTVSPropertyOp24
 70
     1
102
RTVSPropertyOp25
 70
     1
102
RTVSPropertyOp26
 70
     1
102
RTVSPropertyOp27
 70
     1
102
RTVSPropertyOp28
 70
     1
102
RTVSPropertyOp29
 70
     1
102
RTVSPropertyOp30
 70
     1
102
RTVSPropertyOp31
 70
     1
102
RTVSPropertyOp32
 70
     1
102
RTVSPropertyOp33
 70
     1
102
RTVSPropertyOp34
 70
     1
102
RTVSPropertyOp35
 70
     1
102
RTVSPropertyOp36
 70
     1
102
RTVSPropertyOp37
 70
     1
102
RTVSPropertyOp38
 70
     1
102
RTVSPropertyOp39
 70
     1
102
RTVSPropertyOp40
 70
     1
102
RTVSPropertyOp41
 70
     1
102
RTVSPropertyOp42
 70
     1
102
RTVSPropertyOp43
 70
     1
102
RTVSPropertyOp44
 70
     1
102
RTVSPropertyOp45
 70
     1
102
RTVSPropertyOp46
 70
     1
102
RTVSPropertyOp47
 70
     1
102
RTVSPropertyOp48
 70
     1
102
RTVSPropertyOp49
 70
     1
102
RTVSPropertyOp50
 70
     1
102
RTVSPropertyOp51
 70
     0
102
RTVSPropertyOp52
 70
     0
102
RTVSPropertyOp53
 70
     1
102
RTVSPropertyOp54
 70
     1
102
RTVSPropertyOp55
 70
     1
102
RTVSPropertyOp56
 70
     1
102
RTVSPropertyOp57
 70
     1
102
RTVSPost2010Prop28
280
     0
102
RTVSPost2010PropOp28
 70
     1
102
RTVSPost2010Prop29
280
     1
102
RTVSPost2010PropOp29
 70
     1
102
RTVSPost2010Prop30
280
     1
102
RTVSPost2010PropOp30
 70
     1
102
RTVSPost2010Prop31
280
     0
102
RTVSPost2010PropOp31
 70
     1
102
RTVSPost2010Prop32
280
     0
102
RTVSPost2010PropOp32
 70
     1
102
RTVSPost2010Prop33
280
     0
102
RTVSPost2010PropOp33
 70
     1
102
RTVSPost2010Prop34
280
     0
102
RTVSPost2010PropOp34
 70
     1
102
RTVSPost2010Prop35
280
     0
102
RTVSPost2010PropOp35
 70
     1
102
RTVSPost2010Prop36
280
     0
102
RTVSPost2010PropOp36
 70
     1
102
RTVSPost2010Prop37
 90
       50
102
RTVSPost2010PropOp37
 70
     1
102
RTVSPost2010Prop38
140
0.0
102
RTVSPost2010PropOp38
 70
     1
102
RTVSPost2010Prop39
140
1.0
102
RTVSPost2010PropOp39
 70
     1
102
RTVSPost2010Prop40
 90
        0
102
RTVSPost2010PropOp40
 70
     1
102
RTVSPost2010Prop41ColorIndex
 90
       18
102
RTVSPost2010Prop41ColorRGB
 90
        0
102
RTVSPost2010PropOp41
 70
     1
102
RTVSPost2010Prop42
 90
       50
102
RTVSPost2010PropOp42
 70
     1
102
RTVSPost2010Prop43
 90
        3
102
RTVSPost2010PropOp43
 70
     1
102
RTVSPost2010Prop44ColorIndex
 90
        5
102
RTVSPost2010Prop44ColorRGB
 90
      255
102
RTVSPost2010PropOp44
 70
     1
102
RTVSPost2010Prop45
280
     0
102
RTVSPost2010PropOp45
 70
     1
102
RTVSPost2010Prop46
 90
       50
102
RTVSPost2010PropOp46
 70
     1
102
RTVSPost2010Prop47
 90
       50
102
RTVSPost2010PropOp47
 70
     1
102
RTVSPost2010Prop48
 90
       50
102
RTVSPost2010PropOp48
 70
     1
102
RTVSPost2010Prop49
280
     0
102
RTVSPost2010PropOp49
 70
     1
102
RTVSPost2010Prop50
 90
       50
102
RTVSPost2010PropOp50
 70
     1
102
RTVSPost2010Prop51ColorIndex
 90
      256
102
RTVSPost2010Prop51ColorRGB
 90
-16777216
102
RTVSPost2010PropOp51
 70
     0
102
RTVSPost2010Prop52
140
1.0
102
RTVSPost2010PropOp52
 70
     0
102
RTVSPost2010Prop53
 90
        2
102
RTVSPost2010PropOp53
 70
     1
102
RTVSPost2010Prop54
  1
strokes_ogs.tif
102
RTVSPost2010PropOp54
 70
     1
102
RTVSPost2010Prop55
280
     0
102
RTVSPost2010PropOp55
 70
     1
102
RTVSPost2010Prop56
140
1.0
102
RTVSPost2010PropOp56
 70
     1
102
RTVSPost2010Prop57
140
1.0
102
RTVSPost2010PropOp57
 70
     1
  0
XRECORD
  5
12E
102
{ACAD_REACTORS
330
12D
102
}
330
12D
100
AcDbXrecord
280
     1
102
RTVSPropertyOp0
 70
     1
102
RTVSPropertyOp1
 70
     1
102
RTVSPropertyOp2
 70
     1
102
RTVSPropertyOp3
 70
     1
102
RTVSPropertyOp4
 70
     1
102
RTVSPropertyOp5
 70
     1
102
RTVSPropertyOp6
 70
     1
102
RTVSPropertyOp7
 70
     1
102
RTVSPropertyOp8
 70
     1
102
RTVSPropertyOp9
 70
     1
102
RTVSPropertyOp10
 70
     1
102
RTVSPropertyOp11
 70
     1
102
RTVSPropertyOp12
 70
     1
102
RTVSPropertyOp13
 70
     1
102
RTVSPropertyOp14
 70
     1
102
RTVSPropertyOp15
 70
     1
102
RTVSPropertyOp16
 70
     1
102
RTVSPropertyOp17
 70
     1
102
RTVSPropertyOp18
 70
     1
102
RTVSPropertyOp19
 70
     1
102
RTVSPropertyOp20
 70
     1
102
RTVSPropertyOp21
 70
     1
102
RTVSPropertyOp22
 70
     1
102
RTVSPropertyOp23
 70
     1
102
RTVSPropertyOp24
 70
     1
102
RTVSPropertyOp25
 70
     1
102
RTVSPropertyOp26
 70
     1
102
RTVSPropertyOp27
 70
     1
102
RTVSPropertyOp28
 70
     1
102
RTVSPropertyOp29
 70
     1
102
RTVSPropertyOp30
 70
     1
102
RTVSPropertyOp31
 70
     1
102
RTVSPropertyOp32
 70
     1
102
RTVSPropertyOp33
 70
     1
102
RTVSPropertyOp34
 70
     1
102
RTVSPropertyOp35
 70
     1
102
RTVSPropertyOp36
 70
     1
102
RTVSPropertyOp37
 70
     1
102
RTVSPropertyOp38
 70
     1
102
RTVSPropertyOp39
 70
     1
102
RTVSPropertyOp40
 70
     1
102
RTVSPropertyOp41
 70
     1
102
RTVSPropertyOp42
 70
     1
102
RTVSPropertyOp43
 70
     1
102
RTVSPropertyOp44
 70
     1
102
RTVSPropertyOp45
 70
     1
102
RTVSPropertyOp46
 70
     1
102
RTVSPropertyOp47
 70
     1
102
RTVSPropertyOp48
 70
     1
102
RTVSPropertyOp49
 70
     1
102
RTVSPropertyOp50
 70
     1
102
RTVSPropertyOp51
 70
     0
102
RTVSPropertyOp52
 70
     0
102
RTVSPropertyOp53
 70
     1
102
RTVSPropertyOp54
 70
     1
102
RTVSPropertyOp55
 70
     1
102
RTVSPropertyOp56
 70
     1
102
RTVSPropertyOp57
 70
     1
102
RTVSPost2010Prop28
280
     0
102
RTVSPost2010PropOp28
 70
     1
102
RTVSPost2010Prop29
280
     1
102
RTVSPost2010PropOp29
 70
     1
102
RTVSPost2010Prop30
280
     1
102
RTVSPost2010PropOp30
 70
     1
102
RTVSPost2010Prop31
280
     0
102
RTVSPost2010PropOp31
 70
     1
102
RTVSPost2010Prop32
280
     0
102
RTVSPost2010PropOp32
 70
     1
102
RTVSPost2010Prop33
280
     0
102
RTVSPost2010PropOp33
 70
     1
102
RTVSPost2010Prop34
280
     0
102
RTVSPost2010PropOp34
 70
     1
102
RTVSPost2010Prop35
280
     0
102
RTVSPost2010PropOp35
 70
     1
102
RTVSPost2010Prop36
280
     0
102
RTVSPost2010PropOp36
 70
     1
102
RTVSPost2010Prop37
 90
       50
102
RTVSPost2010PropOp37
 70
     1
102
RTVSPost2010Prop38
140
0.0
102
RTVSPost2010PropOp38
 70
     1
102
RTVSPost2010Prop39
140
1.0
102
RTVSPost2010PropOp39
 70
     1
102
RTVSPost2010Prop40
 90
        0
102
RTVSPost2010PropOp40
 70
     1
102
RTVSPost2010Prop41ColorIndex
 90
       18
102
RTVSPost2010Prop41ColorRGB
 90
        0
102
RTVSPost2010PropOp41
 70
     1
102
RTVSPost2010Prop42
 90
       50
102
RTVSPost2010PropOp42
 70
     1
102
RTVSPost2010Prop43
 90
        3
102
RTVSPost2010PropOp43
 70
     1
102
RTVSPost2010Prop44ColorIndex
 90
        5
102
RTVSPost2010Prop44ColorRGB
 90
      255
102
RTVSPost2010PropOp44
 70
     1
102
RTVSPost2010Prop45
280
     0
102
RTVSPost2010PropOp45
 70
     1
102
RTVSPost2010Prop46
 90
       50
102
RTVSPost2010PropOp46
 70
     1
102
RTVSPost2010Prop47
 90
       50
102
RTVSPost2010PropOp47
 70
     1
102
RTVSPost2010Prop48
 90
       50
102
RTVSPost2010PropOp48
 70
     1
102
RTVSPost2010Prop49
280
     0
102
RTVSPost2010PropOp49
 70
     1
102
RTVSPost2010Prop50
 90
       50
102
RTVSPost2010PropOp50
 70
     1
102
RTVSPost2010Prop51ColorIndex
 90
      256
102
RTVSPost2010Prop51ColorRGB
 90
-16777216
102
RTVSPost2010PropOp51
 70
     0
102
RTVSPost2010Prop52
140
1.0
102
RTVSPost2010PropOp52
 70
     0
102
RTVSPost2010Prop53
 90
        2
102
RTVSPost2010PropOp53
 70
     1
102
RTVSPost2010Prop54
  1
strokes_ogs.tif
102
RTVSPost2010PropOp54
 70
     1
102
RTVSPost2010Prop55
280
     0
102
RTVSPost2010PropOp55
 70
     1
102
RTVSPost2010Prop56
140
1.0
102
RTVSPost2010PropOp56
 70
     1
102
RTVSPost2010Prop57
140
1.0
102
RTVSPost2010PropOp57
 70
     1
  0
XRECORD
  5
128
102
{ACAD_REACTORS
330
127
102
}
330
127
100
AcDbXrecord
280
     1
102
RTVSPropertyOp0
 70
     1
102
RTVSPropertyOp1
 70
     1
102
RTVSPropertyOp2
 70
     1
102
RTVSPropertyOp3
 70
     1
102
RTVSPropertyOp4
 70
     1
102
RTVSPropertyOp5
 70
     1
102
RTVSPropertyOp6
 70
     1
102
RTVSPropertyOp7
 70
     1
102
RTVSPropertyOp8
 70
     1
102
RTVSPropertyOp9
 70
     1
102
RTVSPropertyOp10
 70
     1
102
RTVSPropertyOp11
 70
     1
102
RTVSPropertyOp12
 70
     1
102
RTVSPropertyOp13
 70
     1
102
RTVSPropertyOp14
 70
     1
102
RTVSPropertyOp15
 70
     1
102
RTVSPropertyOp16
 70
     1
102
RTVSPropertyOp17
 70
     1
102
RTVSPropertyOp18
 70
     1
102
RTVSPropertyOp19
 70
     1
102
RTVSPropertyOp20
 70
     1
102
RTVSPropertyOp21
 70
     1
102
RTVSPropertyOp22
 70
     1
102
RTVSPropertyOp23
 70
     1
102
RTVSPropertyOp24
 70
     1
102
RTVSPropertyOp25
 70
     1
102
RTVSPropertyOp26
 70
     1
102
RTVSPropertyOp27
 70
     1
102
RTVSPropertyOp28
 70
     1
102
RTVSPropertyOp29
 70
     1
102
RTVSPropertyOp30
 70
     1
102
RTVSPropertyOp31
 70
     1
102
RTVSPropertyOp32
 70
     1
102
RTVSPropertyOp33
 70
     1
102
RTVSPropertyOp34
 70
     1
102
RTVSPropertyOp35
 70
     1
102
RTVSPropertyOp36
 70
     1
102
RTVSPropertyOp37
 70
     1
102
RTVSPropertyOp38
 70
     1
102
RTVSPropertyOp39
 70
     1
102
RTVSPropertyOp40
 70
     1
102
RTVSPropertyOp41
 70
     1
102
RTVSPropertyOp42
 70
     1
102
RTVSPropertyOp43
 70
     1
102
RTVSPropertyOp44
 70
     1
102
RTVSPropertyOp45
 70
     1
102
RTVSPropertyOp46
 70
     1
102
RTVSPropertyOp47
 70
     1
102
RTVSPropertyOp48
 70
     1
102
RTVSPropertyOp49
 70
     1
102
RTVSPropertyOp50
 70
     1
102
RTVSPropertyOp51
 70
     0
102
RTVSPropertyOp52
 70
     0
102
RTVSPropertyOp53
 70
     1
102
RTVSPropertyOp54
 70
     1
102
RTVSPropertyOp55
 70
     1
102
RTVSPropertyOp56
 70
     1
102
RTVSPropertyOp57
 70
     1
102
RTVSPost2010Prop28
280
     0
102
RTVSPost2010PropOp28
 70
     1
102
RTVSPost2010Prop29
280
     1
102
RTVSPost2010PropOp29
 70
     1
102
RTVSPost2010Prop30
280
     1
102
RTVSPost2010PropOp30
 70
     1
102
RTVSPost2010Prop31
280
     0
102
RTVSPost2010PropOp31
 70
     1
102
RTVSPost2010Prop32
280
     0
102
RTVSPost2010PropOp32
 70
     1
102
RTVSPost2010Prop33
280
     0
102
RTVSPost2010PropOp33
 70
     1
102
RTVSPost2010Prop34
280
     0
102
RTVSPost2010PropOp34
 70
     1
102
RTVSPost2010Prop35
280
     0
102
RTVSPost2010PropOp35
 70
     1
102
RTVSPost2010Prop36
280
     0
102
RTVSPost2010PropOp36
 70
     1
102
RTVSPost2010Prop37
 90
       50
102
RTVSPost2010PropOp37
 70
     1
102
RTVSPost2010Prop38
140
0.0
102
RTVSPost2010PropOp38
 70
     1
102
RTVSPost2010Prop39
140
1.0
102
RTVSPost2010PropOp39
 70
     1
102
RTVSPost2010Prop40
 90
        0
102
RTVSPost2010PropOp40
 70
     1
102
RTVSPost2010Prop41ColorIndex
 90
       18
102
RTVSPost2010Prop41ColorRGB
 90
        0
102
RTVSPost2010PropOp41
 70
     1
102
RTVSPost2010Prop42
 90
       50
102
RTVSPost2010PropOp42
 70
     1
102
RTVSPost2010Prop43
 90
        3
102
RTVSPost2010PropOp43
 70
     1
102
RTVSPost2010Prop44ColorIndex
 90
        5
102
RTVSPost2010Prop44ColorRGB
 90
      255
102
RTVSPost2010PropOp44
 70
     1
102
RTVSPost2010Prop45
280
     0
102
RTVSPost2010PropOp45
 70
     1
102
RTVSPost2010Prop46
 90
       50
102
RTVSPost2010PropOp46
 70
     1
102
RTVSPost2010Prop47
 90
       50
102
RTVSPost2010PropOp47
 70
     1
102
RTVSPost2010Prop48
 90
       50
102
RTVSPost2010PropOp48
 70
     1
102
RTVSPost2010Prop49
280
     0
102
RTVSPost2010PropOp49
 70
     1
102
RTVSPost2010Prop50
 90
       50
102
RTVSPost2010PropOp50
 70
     1
102
RTVSPost2010Prop51ColorIndex
 90
      256
102
RTVSPost2010Prop51ColorRGB
 90
-16777216
102
RTVSPost2010PropOp51
 70
     0
102
RTVSPost2010Prop52
140
1.0
102
RTVSPost2010PropOp52
 70
     0
102
RTVSPost2010Prop53
 90
        2
102
RTVSPost2010PropOp53
 70
     1
102
RTVSPost2010Prop54
  1
strokes_ogs.tif
102
RTVSPost2010PropOp54
 70
     1
102
RTVSPost2010Prop55
280
     0
102
RTVSPost2010PropOp55
 70
     1
102
RTVSPost2010Prop56
140
1.0
102
RTVSPost2010PropOp56
 70
     1
102
RTVSPost2010Prop57
140
1.0
102
RTVSPost2010PropOp57
 70
     1
  0
XRECORD
  5
12A
102
{ACAD_REACTORS
330
129
102
}
330
129
100
AcDbXrecord
280
     1
102
RTVSPropertyOp0
 70
     1
102
RTVSPropertyOp1
 70
     1
102
RTVSPropertyOp2
 70
     1
102
RTVSPropertyOp3
 70
     1
102
RTVSPropertyOp4
 70
     1
102
RTVSPropertyOp5
 70
     1
102
RTVSPropertyOp6
 70
     1
102
RTVSPropertyOp7
 70
     1
102
RTVSPropertyOp8
 70
     1
102
RTVSPropertyOp9
 70
     1
102
RTVSPropertyOp10
 70
     1
102
RTVSPropertyOp11
 70
     1
102
RTVSPropertyOp12
 70
     1
102
RTVSPropertyOp13
 70
     1
102
RTVSPropertyOp14
 70
     1
102
RTVSPropertyOp15
 70
     1
102
RTVSPropertyOp16
 70
     1
102
RTVSPropertyOp17
 70
     1
102
RTVSPropertyOp18
 70
     1
102
RTVSPropertyOp19
 70
     1
102
RTVSPropertyOp20
 70
     1
102
RTVSPropertyOp21
 70
     1
102
RTVSPropertyOp22
 70
     1
102
RTVSPropertyOp23
 70
     1
102
RTVSPropertyOp24
 70
     1
102
RTVSPropertyOp25
 70
     1
102
RTVSPropertyOp26
 70
     1
102
RTVSPropertyOp27
 70
     1
102
RTVSPropertyOp28
 70
     1
102
RTVSPropertyOp29
 70
     1
102
RTVSPropertyOp30
 70
     1
102
RTVSPropertyOp31
 70
     1
102
RTVSPropertyOp32
 70
     1
102
RTVSPropertyOp33
 70
     1
102
RTVSPropertyOp34
 70
     1
102
RTVSPropertyOp35
 70
     1
102
RTVSPropertyOp36
 70
     1
102
RTVSPropertyOp37
 70
     1
102
RTVSPropertyOp38
 70
     1
102
RTVSPropertyOp39
 70
     1
102
RTVSPropertyOp40
 70
     1
102
RTVSPropertyOp41
 70
     1
102
RTVSPropertyOp42
 70
     1
102
RTVSPropertyOp43
 70
     1
102
RTVSPropertyOp44
 70
     1
102
RTVSPropertyOp45
 70
     1
102
RTVSPropertyOp46
 70
     1
102
RTVSPropertyOp47
 70
     1
102
RTVSPropertyOp48
 70
     1
102
RTVSPropertyOp49
 70
     1
102
RTVSPropertyOp50
 70
     1
102
RTVSPropertyOp51
 70
     0
102
RTVSPropertyOp52
 70
     0
102
RTVSPropertyOp53
 70
     1
102
RTVSPropertyOp54
 70
     1
102
RTVSPropertyOp55
 70
     1
102
RTVSPropertyOp56
 70
     1
102
RTVSPropertyOp57
 70
     1
102
RTVSPost2010Prop28
280
     0
102
RTVSPost2010PropOp28
 70
     1
102
RTVSPost2010Prop29
280
     1
102
RTVSPost2010PropOp29
 70
     1
102
RTVSPost2010Prop30
280
     1
102
RTVSPost2010PropOp30
 70
     1
102
RTVSPost2010Prop31
280
     0
102
RTVSPost2010PropOp31
 70
     1
102
RTVSPost2010Prop32
280
     0
102
RTVSPost2010PropOp32
 70
     1
102
RTVSPost2010Prop33
280
     0
102
RTVSPost2010PropOp33
 70
     1
102
RTVSPost2010Prop34
280
     0
102
RTVSPost2010PropOp34
 70
     1
102
RTVSPost2010Prop35
280
     0
102
RTVSPost2010PropOp35
 70
     1
102
RTVSPost2010Prop36
280
     0
102
RTVSPost2010PropOp36
 70
     1
102
RTVSPost2010Prop37
 90
       50
102
RTVSPost2010PropOp37
 70
     1
102
RTVSPost2010Prop38
140
0.0
102
RTVSPost2010PropOp38
 70
     1
102
RTVSPost2010Prop39
140
1.0
102
RTVSPost2010PropOp39
 70
     1
102
RTVSPost2010Prop40
 90
        0
102
RTVSPost2010PropOp40
 70
     1
102
RTVSPost2010Prop41ColorIndex
 90
       18
102
RTVSPost2010Prop41ColorRGB
 90
        0
102
RTVSPost2010PropOp41
 70
     1
102
RTVSPost2010Prop42
 90
       50
102
RTVSPost2010PropOp42
 70
     1
102
RTVSPost2010Prop43
 90
        3
102
RTVSPost2010PropOp43
 70
     1
102
RTVSPost2010Prop44ColorIndex
 90
        5
102
RTVSPost2010Prop44ColorRGB
 90
      255
102
RTVSPost2010PropOp44
 70
     1
102
RTVSPost2010Prop45
280
     0
102
RTVSPost2010PropOp45
 70
     1
102
RTVSPost2010Prop46
 90
       50
102
RTVSPost2010PropOp46
 70
     1
102
RTVSPost2010Prop47
 90
       50
102
RTVSPost2010PropOp47
 70
     1
102
RTVSPost2010Prop48
 90
       50
102
RTVSPost2010PropOp48
 70
     1
102
RTVSPost2010Prop49
280
     0
102
RTVSPost2010PropOp49
 70
     1
102
RTVSPost2010Prop50
 90
       50
102
RTVSPost2010PropOp50
 70
     1
102
RTVSPost2010Prop51ColorIndex
 90
      256
102
RTVSPost2010Prop51ColorRGB
 90
-16777216
102
RTVSPost2010PropOp51
 70
     0
102
RTVSPost2010Prop52
140
1.0
102
RTVSPost2010PropOp52
 70
     0
102
RTVSPost2010Prop53
 90
        2
102
RTVSPost2010PropOp53
 70
     1
102
RTVSPost2010Prop54
  1
strokes_ogs.tif
102
RTVSPost2010PropOp54
 70
     1
102
RTVSPost2010Prop55
280
     0
102
RTVSPost2010PropOp55
 70
     1
102
RTVSPost2010Prop56
140
1.0
102
RTVSPost2010PropOp56
 70
     1
102
RTVSPost2010Prop57
140
1.0
102
RTVSPost2010PropOp57
 70
     1
  0
XRECORD
  5
11A
102
{ACAD_REACTORS
330
119
102
}
330
119
100
AcDbXrecord
280
     1
102
RTVSPropertyOp0
 70
     1
102
RTVSPropertyOp1
 70
     1
102
RTVSPropertyOp2
 70
     1
102
RTVSPropertyOp3
 70
     1
102
RTVSPropertyOp4
 70
     1
102
RTVSPropertyOp5
 70
     1
102
RTVSPropertyOp6
 70
     1
102
RTVSPropertyOp7
 70
     1
102
RTVSPropertyOp8
 70
     1
102
RTVSPropertyOp9
 70
     1
102
RTVSPropertyOp10
 70
     1
102
RTVSPropertyOp11
 70
     1
102
RTVSPropertyOp12
 70
     1
102
RTVSPropertyOp13
 70
     1
102
RTVSPropertyOp14
 70
     1
102
RTVSPropertyOp15
 70
     1
102
RTVSPropertyOp16
 70
     1
102
RTVSPropertyOp17
 70
     1
102
RTVSPropertyOp18
 70
     1
102
RTVSPropertyOp19
 70
     1
102
RTVSPropertyOp20
 70
     1
102
RTVSPropertyOp21
 70
     1
102
RTVSPropertyOp22
 70
     1
102
RTVSPropertyOp23
 70
     1
102
RTVSPropertyOp24
 70
     1
102
RTVSPropertyOp25
 70
     1
102
RTVSPropertyOp26
 70
     1
102
RTVSPropertyOp27
 70
     1
102
RTVSPropertyOp28
 70
     1
102
RTVSPropertyOp29
 70
     1
102
RTVSPropertyOp30
 70
     1
102
RTVSPropertyOp31
 70
     1
102
RTVSPropertyOp32
 70
     1
102
RTVSPropertyOp33
 70
     1
102
RTVSPropertyOp34
 70
     1
102
RTVSPropertyOp35
 70
     1
102
RTVSPropertyOp36
 70
     1
102
RTVSPropertyOp37
 70
     1
102
RTVSPropertyOp38
 70
     1
102
RTVSPropertyOp39
 70
     1
102
RTVSPropertyOp40
 70
     1
102
RTVSPropertyOp41
 70
     1
102
RTVSPropertyOp42
 70
     1
102
RTVSPropertyOp43
 70
     1
102
RTVSPropertyOp44
 70
     1
102
RTVSPropertyOp45
 70
     1
102
RTVSPropertyOp46
 70
     1
102
RTVSPropertyOp47
 70
     1
102
RTVSPropertyOp48
 70
     1
102
RTVSPropertyOp49
 70
     1
102
RTVSPropertyOp50
 70
     1
102
RTVSPropertyOp51
 70
     0
102
RTVSPropertyOp52
 70
     0
102
RTVSPropertyOp53
 70
     1
102
RTVSPropertyOp54
 70
     1
102
RTVSPropertyOp55
 70
     1
102
RTVSPropertyOp56
 70
     1
102
RTVSPropertyOp57
 70
     1
102
RTVSPost2010Prop28
280
     0
102
RTVSPost2010PropOp28
 70
     1
102
RTVSPost2010Prop29
280
     1
102
RTVSPost2010PropOp29
 70
     1
102
RTVSPost2010Prop30
280
     1
102
RTVSPost2010PropOp30
 70
     1
102
RTVSPost2010Prop31
280
     0
102
RTVSPost2010PropOp31
 70
     1
102
RTVSPost2010Prop32
280
     0
102
RTVSPost2010PropOp32
 70
     1
102
RTVSPost2010Prop33
280
     0
102
RTVSPost2010PropOp33
 70
     1
102
RTVSPost2010Prop34
280
     0
102
RTVSPost2010PropOp34
 70
     1
102
RTVSPost2010Prop35
280
     0
102
RTVSPost2010PropOp35
 70
     1
102
RTVSPost2010Prop36
280
     0
102
RTVSPost2010PropOp36
 70
     1
102
RTVSPost2010Prop37
 90
       50
102
RTVSPost2010PropOp37
 70
     1
102
RTVSPost2010Prop38
140
0.0
102
RTVSPost2010PropOp38
 70
     1
102
RTVSPost2010Prop39
140
1.0
102
RTVSPost2010PropOp39
 70
     1
102
RTVSPost2010Prop40
 90
        0
102
RTVSPost2010PropOp40
 70
     1
102
RTVSPost2010Prop41ColorIndex
 90
       18
102
RTVSPost2010Prop41ColorRGB
 90
        0
102
RTVSPost2010PropOp41
 70
     1
102
RTVSPost2010Prop42
 90
       50
102
RTVSPost2010PropOp42
 70
     1
102
RTVSPost2010Prop43
 90
        3
102
RTVSPost2010PropOp43
 70
     1
102
RTVSPost2010Prop44ColorIndex
 90
        5
102
RTVSPost2010Prop44ColorRGB
 90
      255
102
RTVSPost2010PropOp44
 70
     1
102
RTVSPost2010Prop45
280
     0
102
RTVSPost2010PropOp45
 70
     1
102
RTVSPost2010Prop46
 90
       50
102
RTVSPost2010PropOp46
 70
     1
102
RTVSPost2010Prop47
 90
       50
102
RTVSPost2010PropOp47
 70
     1
102
RTVSPost2010Prop48
 90
       50
102
RTVSPost2010PropOp48
 70
     1
102
RTVSPost2010Prop49
280
     0
102
RTVSPost2010PropOp49
 70
     1
102
RTVSPost2010Prop50
 90
       50
102
RTVSPost2010PropOp50
 70
     1
102
RTVSPost2010Prop51ColorIndex
 90
      256
102
RTVSPost2010Prop51ColorRGB
 90
-16777216
102
RTVSPost2010PropOp51
 70
     0
102
RTVSPost2010Prop52
140
1.0
102
RTVSPost2010PropOp52
 70
     0
102
RTVSPost2010Prop53
 90
        2
102
RTVSPost2010PropOp53
 70
     1
102
RTVSPost2010Prop54
  1
strokes_ogs.tif
102
RTVSPost2010PropOp54
 70
     1
102
RTVSPost2010Prop55
280
     0
102
RTVSPost2010PropOp55
 70
     1
102
RTVSPost2010Prop56
140
1.0
102
RTVSPost2010PropOp56
 70
     1
102
RTVSPost2010Prop57
140
1.0
102
RTVSPost2010PropOp57
 70
     1
  0
XRECORD
  5
10C
102
{ACAD_REACTORS
330
10B
102
}
330
10B
100
AcDbXrecord
280
     1
102
RTVSPropertyOp0
 70
     1
102
RTVSPropertyOp1
 70
     1
102
RTVSPropertyOp2
 70
     1
102
RTVSPropertyOp3
 70
     1
102
RTVSPropertyOp4
 70
     1
102
RTVSPropertyOp5
 70
     1
102
RTVSPropertyOp6
 70
     1
102
RTVSPropertyOp7
 70
     1
102
RTVSPropertyOp8
 70
     1
102
RTVSPropertyOp9
 70
     1
102
RTVSPropertyOp10
 70
     1
102
RTVSPropertyOp11
 70
     1
102
RTVSPropertyOp12
 70
     1
102
RTVSPropertyOp13
 70
     1
102
RTVSPropertyOp14
 70
     1
102
RTVSPropertyOp15
 70
     1
102
RTVSPropertyOp16
 70
     1
102
RTVSPropertyOp17
 70
     1
102
RTVSPropertyOp18
 70
     1
102
RTVSPropertyOp19
 70
     1
102
RTVSPropertyOp20
 70
     1
102
RTVSPropertyOp21
 70
     1
102
RTVSPropertyOp22
 70
     1
102
RTVSPropertyOp23
 70
     1
102
RTVSPropertyOp24
 70
     1
102
RTVSPropertyOp25
 70
     1
102
RTVSPropertyOp26
 70
     1
102
RTVSPropertyOp27
 70
     1
102
RTVSPropertyOp28
 70
     1
102
RTVSPropertyOp29
 70
     1
102
RTVSPropertyOp30
 70
     1
102
RTVSPropertyOp31
 70
     1
102
RTVSPropertyOp32
 70
     1
102
RTVSPropertyOp33
 70
     1
102
RTVSPropertyOp34
 70
     1
102
RTVSPropertyOp35
 70
     1
102
RTVSPropertyOp36
 70
     1
102
RTVSPropertyOp37
 70
     1
102
RTVSPropertyOp38
 70
     1
102
RTVSPropertyOp39
 70
     1
102
RTVSPropertyOp40
 70
     1
102
RTVSPropertyOp41
 70
     1
102
RTVSPropertyOp42
 70
     1
102
RTVSPropertyOp43
 70
     1
102
RTVSPropertyOp44
 70
     1
102
RTVSPropertyOp45
 70
     1
102
RTVSPropertyOp46
 70
     1
102
RTVSPropertyOp47
 70
     1
102
RTVSPropertyOp48
 70
     1
102
RTVSPropertyOp49
 70
     1
102
RTVSPropertyOp50
 70
     1
102
RTVSPropertyOp51
 70
     0
102
RTVSPropertyOp52
 70
     0
102
RTVSPropertyOp53
 70
     1
102
RTVSPropertyOp54
 70
     1
102
RTVSPropertyOp55
 70
     1
102
RTVSPropertyOp56
 70
     1
102
RTVSPropertyOp57
 70
     1
102
RTVSPost2010Prop28
280
     0
102
RTVSPost2010PropOp28
 70
     1
102
RTVSPost2010Prop29
280
     1
102
RTVSPost2010PropOp29
 70
     1
102
RTVSPost2010Prop30
280
     1
102
RTVSPost2010PropOp30
 70
     1
102
RTVSPost2010Prop31
280
     0
102
RTVSPost2010PropOp31
 70
     1
102
RTVSPost2010Prop32
280
     0
102
RTVSPost2010PropOp32
 70
     1
102
RTVSPost2010Prop33
280
     0
102
RTVSPost2010PropOp33
 70
     1
102
RTVSPost2010Prop34
280
     0
102
RTVSPost2010PropOp34
 70
     1
102
RTVSPost2010Prop35
280
     0
102
RTVSPost2010PropOp35
 70
     1
102
RTVSPost2010Prop36
280
     0
102
RTVSPost2010PropOp36
 70
     1
102
RTVSPost2010Prop37
 90
       50
102
RTVSPost2010PropOp37
 70
     1
102
RTVSPost2010Prop38
140
0.0
102
RTVSPost2010PropOp38
 70
     1
102
RTVSPost2010Prop39
140
1.0
102
RTVSPost2010PropOp39
 70
     1
102
RTVSPost2010Prop40
 90
        0
102
RTVSPost2010PropOp40
 70
     1
102
RTVSPost2010Prop41ColorIndex
 90
       18
102
RTVSPost2010Prop41ColorRGB
 90
        0
102
RTVSPost2010PropOp41
 70
     1
102
RTVSPost2010Prop42
 90
       50
102
RTVSPost2010PropOp42
 70
     1
102
RTVSPost2010Prop43
 90
        3
102
RTVSPost2010PropOp43
 70
     1
102
RTVSPost2010Prop44ColorIndex
 90
        5
102
RTVSPost2010Prop44ColorRGB
 90
      255
102
RTVSPost2010PropOp44
 70
     1
102
RTVSPost2010Prop45
280
     0
102
RTVSPost2010PropOp45
 70
     1
102
RTVSPost2010Prop46
 90
       50
102
RTVSPost2010PropOp46
 70
     1
102
RTVSPost2010Prop47
 90
       50
102
RTVSPost2010PropOp47
 70
     1
102
RTVSPost2010Prop48
 90
       50
102
RTVSPost2010PropOp48
 70
     1
102
RTVSPost2010Prop49
280
     0
102
RTVSPost2010PropOp49
 70
     1
102
RTVSPost2010Prop50
 90
       50
102
RTVSPost2010PropOp50
 70
     1
102
RTVSPost2010Prop51ColorIndex
 90
      256
102
RTVSPost2010Prop51ColorRGB
 90
-16777216
102
RTVSPost2010PropOp51
 70
     0
102
RTVSPost2010Prop52
140
1.0
102
RTVSPost2010PropOp52
 70
     0
102
RTVSPost2010Prop53
 90
        2
102
RTVSPost2010PropOp53
 70
     1
102
RTVSPost2010Prop54
  1
strokes_ogs.tif
102
RTVSPost2010PropOp54
 70
     1
102
RTVSPost2010Prop55
280
     0
102
RTVSPost2010PropOp55
 70
     1
102
RTVSPost2010Prop56
140
1.0
102
RTVSPost2010PropOp56
 70
     1
102
RTVSPost2010Prop57
140
1.0
102
RTVSPost2010PropOp57
 70
     1
  0
XRECORD
  5
12C
102
{ACAD_REACTORS
330
12B
102
}
330
12B
100
AcDbXrecord
280
     1
102
RTVSPropertyOp0
 70
     1
102
RTVSPropertyOp1
 70
     1
102
RTVSPropertyOp2
 70
     1
102
RTVSPropertyOp3
 70
     1
102
RTVSPropertyOp4
 70
     1
102
RTVSPropertyOp5
 70
     1
102
RTVSPropertyOp6
 70
     1
102
RTVSPropertyOp7
 70
     1
102
RTVSPropertyOp8
 70
     1
102
RTVSPropertyOp9
 70
     1
102
RTVSPropertyOp10
 70
     1
102
RTVSPropertyOp11
 70
     1
102
RTVSPropertyOp12
 70
     1
102
RTVSPropertyOp13
 70
     1
102
RTVSPropertyOp14
 70
     1
102
RTVSPropertyOp15
 70
     1
102
RTVSPropertyOp16
 70
     1
102
RTVSPropertyOp17
 70
     1
102
RTVSPropertyOp18
 70
     1
102
RTVSPropertyOp19
 70
     1
102
RTVSPropertyOp20
 70
     1
102
RTVSPropertyOp21
 70
     1
102
RTVSPropertyOp22
 70
     1
102
RTVSPropertyOp23
 70
     1
102
RTVSPropertyOp24
 70
     1
102
RTVSPropertyOp25
 70
     1
102
RTVSPropertyOp26
 70
     1
102
RTVSPropertyOp27
 70
     1
102
RTVSPropertyOp28
 70
     1
102
RTVSPropertyOp29
 70
     1
102
RTVSPropertyOp30
 70
     1
102
RTVSPropertyOp31
 70
     1
102
RTVSPropertyOp32
 70
     1
102
RTVSPropertyOp33
 70
     1
102
RTVSPropertyOp34
 70
     1
102
RTVSPropertyOp35
 70
     1
102
RTVSPropertyOp36
 70
     1
102
RTVSPropertyOp37
 70
     1
102
RTVSPropertyOp38
 70
     1
102
RTVSPropertyOp39
 70
     1
102
RTVSPropertyOp40
 70
     1
102
RTVSPropertyOp41
 70
     1
102
RTVSPropertyOp42
 70
     1
102
RTVSPropertyOp43
 70
     1
102
RTVSPropertyOp44
 70
     1
102
RTVSPropertyOp45
 70
     1
102
RTVSPropertyOp46
 70
     1
102
RTVSPropertyOp47
 70
     1
102
RTVSPropertyOp48
 70
     1
102
RTVSPropertyOp49
 70
     1
102
RTVSPropertyOp50
 70
     1
102
RTVSPropertyOp51
 70
     0
102
RTVSPropertyOp52
 70
     0
102
RTVSPropertyOp53
 70
     1
102
RTVSPropertyOp54
 70
     1
102
RTVSPropertyOp55
 70
     1
102
RTVSPropertyOp56
 70
     1
102
RTVSPropertyOp57
 70
     1
102
RTVSPost2010Prop28
280
     0
102
RTVSPost2010PropOp28
 70
     1
102
RTVSPost2010Prop29
280
     1
102
RTVSPost2010PropOp29
 70
     1
102
RTVSPost2010Prop30
280
     1
102
RTVSPost2010PropOp30
 70
     1
102
RTVSPost2010Prop31
280
     0
102
RTVSPost2010PropOp31
 70
     1
102
RTVSPost2010Prop32
280
     0
102
RTVSPost2010PropOp32
 70
     1
102
RTVSPost2010Prop33
280
     0
102
RTVSPost2010PropOp33
 70
     1
102
RTVSPost2010Prop34
280
     0
102
RTVSPost2010PropOp34
 70
     1
102
RTVSPost2010Prop35
280
     0
102
RTVSPost2010PropOp35
 70
     1
102
RTVSPost2010Prop36
280
     0
102
RTVSPost2010PropOp36
 70
     1
102
RTVSPost2010Prop37
 90
       50
102
RTVSPost2010PropOp37
 70
     1
102
RTVSPost2010Prop38
140
0.0
102
RTVSPost2010PropOp38
 70
     1
102
RTVSPost2010Prop39
140
1.0
102
RTVSPost2010PropOp39
 70
     1
102
RTVSPost2010Prop40
 90
        0
102
RTVSPost2010PropOp40
 70
     1
102
RTVSPost2010Prop41ColorIndex
 90
       18
102
RTVSPost2010Prop41ColorRGB
 90
        0
102
RTVSPost2010PropOp41
 70
     1
102
RTVSPost2010Prop42
 90
       50
102
RTVSPost2010PropOp42
 70
     1
102
RTVSPost2010Prop43
 90
        3
102
RTVSPost2010PropOp43
 70
     1
102
RTVSPost2010Prop44ColorIndex
 90
        5
102
RTVSPost2010Prop44ColorRGB
 90
      255
102
RTVSPost2010PropOp44
 70
     1
102
RTVSPost2010Prop45
280
     0
102
RTVSPost2010PropOp45
 70
     1
102
RTVSPost2010Prop46
 90
       50
102
RTVSPost2010PropOp46
 70
     1
102
RTVSPost2010Prop47
 90
       50
102
RTVSPost2010PropOp47
 70
     1
102
RTVSPost2010Prop48
 90
       50
102
RTVSPost2010PropOp48
 70
     1
102
RTVSPost2010Prop49
280
     0
102
RTVSPost2010PropOp49
 70
     1
102
RTVSPost2010Prop50
 90
       50
102
RTVSPost2010PropOp50
 70
     1
102
RTVSPost2010Prop51ColorIndex
 90
      256
102
RTVSPost2010Prop51ColorRGB
 90
-16777216
102
RTVSPost2010PropOp51
 70
     0
102
RTVSPost2010Prop52
140
1.0
102
RTVSPost2010PropOp52
 70
     0
102
RTVSPost2010Prop53
 90
        2
102
RTVSPost2010PropOp53
 70
     1
102
RTVSPost2010Prop54
  1
strokes_ogs.tif
102
RTVSPost2010PropOp54
 70
     1
102
RTVSPost2010Prop55
280
     0
102
RTVSPost2010PropOp55
 70
     1
102
RTVSPost2010Prop56
140
1.0
102
RTVSPost2010PropOp56
 70
     1
102
RTVSPost2010Prop57
140
1.0
102
RTVSPost2010PropOp57
 70
     1
  0
ENDSEC
  0
EOF
