  0
SECTION
  2
HEADER
  9
$ACADVER
  1
AC1024
  9
$ACADMAINTVER
 70
     6
  9
$DWGCODEPAGE
  3
ANSI_1252
  9
$LASTSAVEDBY
  1
ko72881
  9
$INSBASE
 10
0.0
 20
0.0
 30
0.0
  9
$EXTMIN
 10
175887.0635879788
 20
-42628.43573790474
 30
-0.0000000000000058
  9
$EXTMAX
 10
176457.5109131492
 20
-42221.97101582338
 30
0.0000000000000104
  9
$LIMMIN
 10
0.0
 20
0.0
  9
$LIMMAX
 10
420.0
 20
297.0
  9
$ORTHOMODE
 70
     0
  9
$REGENMODE
 70
     1
  9
$FILLMODE
 70
     1
  9
$QTEXTMODE
 70
     0
  9
$MIRRTEXT
 70
     1
  9
$LTSCALE
 40
1.0
  9
$ATTMODE
 70
     1
  9
$TEXTSIZE
 40
2.5
  9
$TRACEWID
 40
1.0
  9
$TEXTSTYLE
  7
Standard
  9
$CLAYER
  8
COTATION
  9
$CELTYPE
  6
ByLayer
  9
$CECOLOR
 62
   256
  9
$CELTSCALE
 40
30.0
  9
$DISPSILH
 70
     0
  9
$DIMSCALE
 40
0.0
  9
$DIMASZ
 40
50.0
  9
$DIMEXO
 40
45.0
  9
$DIMDLI
 40
20.182
  9
$DIMRND
 40
0.0
  9
$DIMDLE
 40
0.0
  9
$DIMEXE
 40
10.0
  9
$DIMTP
 40
0.0
  9
$DIMTM
 40
0.0
  9
$DIMTXT
 40
50.0
  9
$DIMCEN
 40
0.0
  9
$DIMTSZ
 40
0.0
  9
$DIMTOL
 70
     0
  9
$DIMLIM
 70
     0
  9
$DIMTIH
 70
     1
  9
$DIMTOH
 70
     1
  9
$DIMSE1
 70
     0
  9
$DIMSE2
 70
     0
  9
$DIMTAD
 70
     0
  9
$DIMZIN
 70
     8
  9
$DIMBLK
  1

  9
$DIMASO
 70
     1
  9
$DIMSHO
 70
     1
  9
$DIMPOST
  1

  9
$DIMAPOST
  1

  9
$DIMALT
 70
     0
  9
$DIMALTD
 70
     3
  9
$DIMALTF
 40
0.03937007874016
  9
$DIMLFAC
 40
1.0
  9
$DIMTOFL
 70
     0
  9
$DIMTVP
 40
0.0
  9
$DIMTIX
 70
     0
  9
$DIMSOXD
 70
     0
  9
$DIMSAH
 70
     0
  9
$DIMBLK1
  1

  9
$DIMBLK2
  1

  9
$DIMSTYLE
  2
ISO-25
  9
$DIMCLRD
 70
   256
  9
$DIMCLRE
 70
   256
  9
$DIMCLRT
 70
     0
  9
$DIMTFAC
 40
1.0
  9
$DIMGAP
 40
35.0
  9
$DIMJUST
 70
     0
  9
$DIMSD1
 70
     0
  9
$DIMSD2
 70
     0
  9
$DIMTOLJ
 70
     0
  9
$DIMTZIN
 70
     8
  9
$DIMALTZ
 70
     0
  9
$DIMALTTZ
 70
     0
  9
$DIMUPT
 70
     0
  9
$DIMDEC
 70
     0
  9
$DIMTDEC
 70
     0
  9
$DIMALTU
 70
     2
  9
$DIMALTTD
 70
     3
  9
$DIMTXSTY
  7
Standard
  9
$DIMAUNIT
 70
     0
  9
$DIMADEC
 70
     0
  9
$DIMALTRND
 40
0.0
  9
$DIMAZIN
 70
     0
  9
$DIMDSEP
 70
    44
  9
$DIMATFIT
 70
     3
  9
$DIMFRAC
 70
     0
  9
$DIMLDRBLK
  1

  9
$DIMLUNIT
 70
     2
  9
$DIMLWD
 70
    -1
  9
$DIMLWE
 70
    -1
  9
$DIMTMOVE
 70
     0
  9
$DIMFXL
 40
1.0
  9
$DIMFXLON
 70
     0
  9
$DIMJOGANG
 40
0.7853981633974483
  9
$DIMTFILL
 70
     0
  9
$DIMTFILLCLR
 70
     0
  9
$DIMARCSYM
 70
     0
  9
$DIMLTYPE
  6

  9
$DIMLTEX1
  6

  9
$DIMLTEX2
  6

  9
$DIMTXTDIRECTION
 70
     0
  9
$LUNITS
 70
     2
  9
$LUPREC
 70
     4
  9
$SKETCHINC
 40
1.0
  9
$FILLETRAD
 40
5.0
  9
$AUNITS
 70
     0
  9
$AUPREC
 70
     0
  9
$MENU
  1
.
  9
$ELEVATION
 40
0.0
  9
$PELEVATION
 40
0.0
  9
$THICKNESS
 40
0.0
  9
$LIMCHECK
 70
     0
  9
$CHAMFERA
 40
10.0
  9
$CHAMFERB
 40
10.0
  9
$CHAMFERC
 40
20.0
  9
$CHAMFERD
 40
0.0
  9
$SKPOLY
 70
     0
  9
$TDCREATE
 40
2451814.422419329
  9
$TDUCREATE
 40
2451814.380752662
  9
$TDUPDATE
 40
2458568.344525151
  9
$TDUUPDATE
 40
2458568.302858484
  9
$TDINDWG
 40
6.0051209606
  9
$TDUSRTIMER
 40
6.0051209606
  9
$USRTIMER
 70
     1
  9
$ANGBASE
 50
0.0
  9
$ANGDIR
 70
     0
  9
$PDMODE
 70
     0
  9
$PDSIZE
 40
0.0
  9
$PLINEWID
 40
0.0
  9
$SPLFRAME
 70
     0
  9
$SPLINETYPE
 70
     6
  9
$SPLINESEGS
 70
     8
  9
$HANDSEED
  5
377E8
  9
$SURFTAB1
 70
     6
  9
$SURFTAB2
 70
     6
  9
$SURFTYPE
 70
     6
  9
$SURFU
 70
     6
  9
$SURFV
 70
     6
  9
$UCSBASE
  2

  9
$UCSNAME
  2

  9
$UCSORG
 10
0.0
 20
0.0
 30
0.0
  9
$UCSXDIR
 10
1.0
 20
0.0
 30
0.0
  9
$UCSYDIR
 10
0.0
 20
1.0
 30
0.0
  9
$UCSORTHOREF
  2

  9
$UCSORTHOVIEW
 70
     0
  9
$UCSORGTOP
 10
0.0
 20
0.0
 30
0.0
  9
$UCSORGBOTTOM
 10
0.0
 20
0.0
 30
0.0
  9
$UCSORGLEFT
 10
0.0
 20
0.0
 30
0.0
  9
$UCSORGRIGHT
 10
0.0
 20
0.0
 30
0.0
  9
$UCSORGFRONT
 10
0.0
 20
0.0
 30
0.0
  9
$UCSORGBACK
 10
0.0
 20
0.0
 30
0.0
  9
$PUCSBASE
  2

  9
$PUCSNAME
  2

  9
$PUCSORG
 10
0.0
 20
0.0
 30
0.0
  9
$PUCSXDIR
 10
1.0
 20
0.0
 30
0.0
  9
$PUCSYDIR
 10
0.0
 20
1.0
 30
0.0
  9
$PUCSORTHOREF
  2

  9
$PUCSORTHOVIEW
 70
     0
  9
$PUCSORGTOP
 10
0.0
 20
0.0
 30
0.0
  9
$PUCSORGBOTTOM
 10
0.0
 20
0.0
 30
0.0
  9
$PUCSORGLEFT
 10
0.0
 20
0.0
 30
0.0
  9
$PUCSORGRIGHT
 10
0.0
 20
0.0
 30
0.0
  9
$PUCSORGFRONT
 10
0.0
 20
0.0
 30
0.0
  9
$PUCSORGBACK
 10
0.0
 20
0.0
 30
0.0
  9
$USERI1
 70
     0
  9
$USERI2
 70
     0
  9
$USERI3
 70
     0
  9
$USERI4
 70
     0
  9
$USERI5
 70
     0
  9
$USERR1
 40
0.0
  9
$USERR2
 40
0.0
  9
$USERR3
 40
0.0
  9
$USERR4
 40
0.0
  9
$USERR5
 40
0.0
  9
$WORLDVIEW
 70
     1
  9
$SHADEDGE
 70
     3
  9
$SHADEDIF
 70
    70
  9
$TILEMODE
 70
     1
  9
$MAXACTVP
 70
    64
  9
$PINSBASE
 10
0.0
 20
0.0
 30
0.0
  9
$PLIMCHECK
 70
     0
  9
$PEXTMIN
 10
4.65610217015574
 20
3.286023670294071
 30
0.0
  9
$PEXTMAX
 10
2873.756768105222
 20
1966.91281754242
 30
0.0
  9
$PLIMMIN
 10
-45.614588747813
 20
-64.76480907811893
  9
$PLIMMAX
 10
2924.06863879125
 20
2034.968467289068
  9
$UNITMODE
 70
     0
  9
$VISRETAIN
 70
     1
  9
$PLINEGEN
 70
     0
  9
$PSLTSCALE
 70
     1
  9
$TREEDEPTH
 70
  3020
  9
$CMLSTYLE
  2
Standard
  9
$CMLJUST
 70
     0
  9
$CMLSCALE
 40
20.0
  9
$PROXYGRAPHICS
 70
     1
  9
$MEASUREMENT
 70
     0
  9
$CELWEIGHT
370
    -1
  9
$ENDCAPS
280
     0
  9
$JOINSTYLE
280
     0
  9
$LWDISPLAY
290
     0
  9
$INSUNITS
 70
     4
  9
$HYPERLINKBASE
  1

  9
$STYLESHEET
  1
table_couleur.ctb
  9
$XEDIT
290
     1
  9
$CEPSNTYPE
380
     0
  9
$PSTYLEMODE
290
     1
  9
$FINGERPRINTGUID
  2
{3D662E1A-938F-11D4-85B7-00C04F172506}
  9
$VERSIONGUID
  2
{58A5DF35-8025-4FE3-9994-CDF67AB8219D}
  9
$EXTNAMES
290
     1
  9
$PSVPSCALE
 40
0.0
  9
$OLESTARTUP
290
     1
  9
$SORTENTS
280
   127
  9
$INDEXCTL
280
     0
  9
$HIDETEXT
280
     0
  9
$XCLIPFRAME
280
     0
  9
$HALOGAP
280
     0
  9
$OBSCOLOR
 70
   257
  9
$OBSLTYPE
280
     0
  9
$INTERSECTIONDISPLAY
280
     0
  9
$INTERSECTIONCOLOR
 70
   257
  9
$DIMASSOC
280
     1
  9
$PROJECTNAME
  1

  9
$CAMERADISPLAY
290
     0
  9
$LENSLENGTH
 40
50.0
  9
$CAMERAHEIGHT
 40
0.0
  9
$STEPSPERSEC
 40
2.0
  9
$STEPSIZE
 40
6.0
  9
$3DDWFPREC
 40
2.0
  9
$PSOLWIDTH
 40
0.25
  9
$PSOLHEIGHT
 40
4.0
  9
$LOFTANG1
 40
1.570796326794896
  9
$LOFTANG2
 40
1.570796326794896
  9
$LOFTMAG1
 40
0.0
  9
$LOFTMAG2
 40
0.0
  9
$LOFTPARAM
 70
     7
  9
$LOFTNORMALS
280
     1
  9
$LATITUDE
 40
37.795
  9
$LONGITUDE
 40
-122.394
  9
$NORTHDIRECTION
 40
0.0
  9
$TIMEZONE
 70
 -8000
  9
$LIGHTGLYPHDISPLAY
280
     1
  9
$TILEMODELIGHTSYNCH
280
     1
  9
$CMATERIAL
347
116F
  9
$SOLIDHIST
280
     1
  9
$SHOWHIST
280
     1
  9
$DWFFRAME
280
     2
  9
$DGNFRAME
280
     0
  9
$REALWORLDSCALE
290
     1
  9
$INTERFERECOLOR
 62
     1
  9
$INTERFEREOBJVS
345
1191
  9
$INTERFEREVPVS
346
118E
  9
$CSHADOW
280
     0
  9
$SHADOWPLANELOCATION
 40
0.0
  0
ENDSEC
  0
SECTION
  2
CLASSES
  0
CLASS
  1
ACDBDICTIONARYWDFLT
  2
AcDbDictionaryWithDefault
  3
ObjectDBX Classes
 90
        0
 91
        1
280
     0
281
     0
  0
CLASS
  1
SORTENTSTABLE
  2
AcDbSortentsTable
  3
ObjectDBX Classes
 90
        0
 91
        2
280
     0
281
     0
  0
CLASS
  1
MATERIAL
  2
AcDbMaterial
  3
ObjectDBX Classes
 90
     1153
 91
        3
280
     0
281
     0
  0
CLASS
  1
VISUALSTYLE
  2
AcDbVisualStyle
  3
ObjectDBX Classes
 90
     4095
 91
       19
280
     0
281
     0
  0
CLASS
  1
TABLESTYLE
  2
AcDbTableStyle
  3
ObjectDBX Classes
 90
     4095
 91
        1
280
     0
281
     0
  0
CLASS
  1
SCALE
  2
AcDbScale
  3
ObjectDBX Classes
 90
     1153
 91
       33
280
     0
281
     0
  0
CLASS
  1
MLEADERSTYLE
  2
AcDbMLeaderStyle
  3
ACDB_MLEADERSTYLE_CLASS
 90
     4095
 91
        1
280
     0
281
     0
  0
CLASS
  1
CELLSTYLEMAP
  2
AcDbCellStyleMap
  3
ObjectDBX Classes
 90
     1152
 91
        3
280
     0
281
     0
  0
CLASS
  1
DICTIONARYVAR
  2
AcDbDictionaryVar
  3
ObjectDBX Classes
 90
        0
 91
       10
280
     0
281
     0
  0
CLASS
  1
ACDB_ALDIMOBJECTCONTEXTDATA_CLASS
  2
AcDbAlignedDimensionObjectContextData
  3
ObjectDBX Classes
 90
     1153
 91
        0
280
     0
281
     0
  0
ENDSEC
  0
SECTION
  2
TABLES
  0
TABLE
  2
VPORT
  5
8
102
{ACAD_XDICTIONARY
360
11DC
102
}
330
0
100
AcDbSymbolTable
 70
     1
  0
VPORT
  5
372E1
330
8
100
AcDbSymbolTableRecord
100
AcDbViewportTableRecord
  2
*Active
 70
     0
 10
0.0
 20
0.0
 11
1.0
 21
1.0
 12
176175.7408264174
 22
-42425.06184924961
 13
0.0
 23
0.0
 14
10.0
 24
10.0
 15
10.0
 25
10.0
 16
0.0
 26
0.0
 36
1.0
 17
0.0
 27
0.0
 37
0.0
 40
462.7940636153603
 41
2.766260162601625
 42
50.0
 43
0.0
 44
0.0
 50
0.0
 51
0.0
 71
     0
 72
 20000
 73
     1
 74
     3
 75
     0
 76
     0
 77
     0
 78
     0
281
     0
 65
     1
110
0.0
120
0.0
130
0.0
111
1.0
121
0.0
131
0.0
112
0.0
122
1.0
132
0.0
 79
     0
146
0.0
348
118D
 60
     3
 61
     5
292
     1
282
     1
141
0.0
142
0.0
 63
   250
421
  3355443
  0
ENDTAB
  0
TABLE
  2
LTYPE
  5
5
330
0
100
AcDbSymbolTable
 70
     4
  0
LTYPE
  5
14
330
5
100
AcDbSymbolTableRecord
100
AcDbLinetypeTableRecord
  2
ByBlock
 70
     0
  3

 72
    65
 73
     0
 40
0.0
  0
LTYPE
  5
15
330
5
100
AcDbSymbolTableRecord
100
AcDbLinetypeTableRecord
  2
ByLayer
 70
     0
  3

 72
    65
 73
     0
 40
0.0
  0
LTYPE
  5
16
330
5
100
AcDbSymbolTableRecord
100
AcDbLinetypeTableRecord
  2
Continuous
 70
     0
  3
Solid line
 72
    65
 73
     0
 40
0.0
  0
LTYPE
  5
1151
330
5
100
AcDbSymbolTableRecord
100
AcDbLinetypeTableRecord
  2
AXES
 70
     0
  3
Centre ____ _ ____ _ ____ _ ____ _ ____ _ ____
 72
    65
 73
     4
 40
2.0
 49
1.25
 74
     0
 49
-0.25
 74
     0
 49
0.25
 74
     0
 49
-0.25
 74
     0
  0
LTYPE
  5
D3F0
330
5
100
AcDbSymbolTableRecord
100
AcDbLinetypeTableRecord
  2
CACHE
 70
     0
  3
Caché __ __ __ __ __ __ __ __ __ __ __ __ __ __
 72
    65
 73
     2
 40
9.524999999999998
 49
6.349999999999999
 74
     0
 49
-3.174999999999999
 74
     0
  0
LTYPE
  5
12266
330
5
100
AcDbSymbolTableRecord
100
AcDbLinetypeTableRecord
  2
ACAD_ISO02W100
 70
     0
  3
ISO interrompu __ __ __ __ __ __ __ __ __ __ __
 72
    65
 73
     2
 40
15.0
 49
12.0
 74
     0
 49
-3.0
 74
     0
  0
ENDTAB
  0
TABLE
  2
LAYER
  5
2
102
{ACAD_XDICTIONARY
360
1263
102
}
330
0
100
AcDbSymbolTable
 70
     9
  0
LAYER
  5
10
102
{ACAD_XDICTIONARY
360
11C8
102
}
330
2
100
AcDbSymbolTableRecord
100
AcDbLayerTableRecord
  2
0
 70
     0
 62
     7
  6
Continuous
370
    60
390
F
347
117F
  0
LAYER
  5
2C
102
{ACAD_XDICTIONARY
360
11CA
102
}
330
2
100
AcDbSymbolTableRecord
100
AcDbLayerTableRecord
  2
CARTOUCHE
 70
     0
 62
     7
  6
Continuous
370
    30
390
F
347
117F
  0
LAYER
  5
2D
102
{ACAD_XDICTIONARY
360
11CC
102
}
330
2
100
AcDbSymbolTableRecord
100
AcDbLayerTableRecord
  2
BORDS CARTOUCHE
 70
     0
 62
     6
  6
Continuous
370
    60
390
F
347
117F
  0
LAYER
  5
1C5
330
2
100
AcDbSymbolTableRecord
100
AcDbLayerTableRecord
  2
Defpoints
 70
     0
 62
     7
  6
Continuous
290
     0
370
    -3
390
F
347
117F
  0
LAYER
  5
B6E
102
{ACAD_XDICTIONARY
360
11CE
102
}
330
2
100
AcDbSymbolTableRecord
100
AcDbLayerTableRecord
  2
COTATION
 70
     0
 62
     7
  6
Continuous
370
    25
390
F
347
117F
  0
LAYER
  5
1154
102
{ACAD_XDICTIONARY
360
11D0
102
}
330
2
100
AcDbSymbolTableRecord
100
AcDbLayerTableRecord
  2
AXES
 70
     0
 62
     7
  6
AXES
370
    30
390
F
347
117F
  0
LAYER
  5
1396
330
2
100
AcDbSymbolTableRecord
100
AcDbLayerTableRecord
  2
CONTOURS
 70
     0
 62
     7
  6
Continuous
370
    60
390
F
347
117F
  0
LAYER
  5
139C
330
2
100
AcDbSymbolTableRecord
100
AcDbLayerTableRecord
  2
HACHURES MUR ET SOL
 70
     0
 62
     7
  6
Continuous
370
    15
390
F
347
117F
  0
LAYER
  5
139E
330
2
100
AcDbSymbolTableRecord
100
AcDbLayerTableRecord
  2
TRAITS INTERIEURS FIN
 70
     0
 62
     7
  6
Continuous
370
    20
390
F
347
117F
  0
ENDTAB
  0
TABLE
  2
STYLE
  5
3
330
0
100
AcDbSymbolTable
 70
     2
  0
STYLE
  5
11
330
3
100
AcDbSymbolTableRecord
100
AcDbTextStyleTableRecord
  2
Standard
 70
     0
 40
0.0
 41
1.0
 50
0.0
 71
     0
 42
2.5
  3
arial.ttf
  4

1001
AcadAnnotative
1000
AnnotativeData
1002
{
1070
     1
1070
     0
1002
}
1001
ACAD
1000
Arial
1071
       34
  0
STYLE
  5
2F
330
3
100
AcDbSymbolTableRecord
100
AcDbTextStyleTableRecord
  2
CARTOUCHE
 70
     0
 40
30.0
 41
1.0
 50
0.0
 71
     0
 42
30.0
  3
arial.ttf
  4

1001
ACAD
1000
Arial
1071
       34
  0
ENDTAB
  0
TABLE
  2
VIEW
  5
6
330
0
100
AcDbSymbolTable
 70
     0
  0
ENDTAB
  0
TABLE
  2
UCS
  5
7
330
0
100
AcDbSymbolTable
 70
     0
  0
ENDTAB
  0
TABLE
  2
APPID
  5
9
330
0
100
AcDbSymbolTable
 70
    12
  0
APPID
  5
12
330
9
100
AcDbSymbolTableRecord
100
AcDbRegAppTableRecord
  2
ACAD
 70
     0
  0
APPID
  5
11BE
330
9
100
AcDbSymbolTableRecord
100
AcDbRegAppTableRecord
  2
ACAD_MLEADERVER
 70
     0
  0
APPID
  5
126E
330
9
100
AcDbSymbolTableRecord
100
AcDbRegAppTableRecord
  2
AcAecLayerStandard
 70
     0
  0
APPID
  5
13A2
330
9
100
AcDbSymbolTableRecord
100
AcDbRegAppTableRecord
  2
ACAD_PSEXT
 70
     0
  0
APPID
  5
194D
330
9
100
AcDbSymbolTableRecord
100
AcDbRegAppTableRecord
  2
AcadAnnoPO
 70
     0
  0
APPID
  5
194E
330
9
100
AcDbSymbolTableRecord
100
AcDbRegAppTableRecord
  2
AcadAnnotative
 70
     0
  0
APPID
  5
194F
330
9
100
AcDbSymbolTableRecord
100
AcDbRegAppTableRecord
  2
ACAD_DSTYLE_DIMJAG
 70
     0
  0
APPID
  5
1950
330
9
100
AcDbSymbolTableRecord
100
AcDbRegAppTableRecord
  2
ACAD_DSTYLE_DIMTALN
 70
     0
  0
APPID
  5
2227
330
9
100
AcDbSymbolTableRecord
100
AcDbRegAppTableRecord
  2
ACAD_EXEMPT_FROM_CAD_STANDARDS
 70
     0
  0
APPID
  5
5739
330
9
100
AcDbSymbolTableRecord
100
AcDbRegAppTableRecord
  2
AcadAnnotativeDecomposition
 70
     0
  0
APPID
  5
8C37
330
9
100
AcDbSymbolTableRecord
100
AcDbRegAppTableRecord
  2
ACAD_DSTYLE_DIMRADIAL_EXTENSION
 70
     0
  0
APPID
  5
16D58
330
9
100
AcDbSymbolTableRecord
100
AcDbRegAppTableRecord
  2
ACAD_DSTYLE_DIMFLIPARROW_WHICH_SYMBOL
 70
     0
  0
ENDTAB
  0
TABLE
  2
DIMSTYLE
  5
A
330
0
100
AcDbSymbolTable
 70
     3
100
AcDbDimStyleTable
 71
     2
340
27
340
2DA
  0
DIMSTYLE
105
27
330
A
100
AcDbSymbolTableRecord
100
AcDbDimStyleTableRecord
  2
ISO-25
 70
     0
 41
20.0
 42
0.625
 43
3.75
 44
1.25
 77
     1
 78
     8
140
20.0
141
2.5
143
0.03937007874016
147
0.625
171
     3
172
     1
176
   256
177
   256
271
     0
272
     0
274
     3
278
    44
283
     0
284
     8
340
11
371
    -1
372
    -1
  0
DIMSTYLE
105
2DA
330
A
100
AcDbSymbolTableRecord
100
AcDbDimStyleTableRecord
  2
STANDARD
 70
     0
340
11
  0
DIMSTYLE
105
115EE
330
A
100
AcDbSymbolTableRecord
100
AcDbDimStyleTableRecord
  2
Copie de ISO-25
 70
     0
 41
50.0
 42
0.625
 43
3.75
 44
10.0
 77
     1
 78
     8
140
25.0
141
2.5
143
0.03937007874016
147
6.0
171
     3
172
     1
176
   256
177
   256
271
     0
272
     0
274
     3
278
    44
283
     0
284
     8
340
11
371
    -1
372
    -1
  0
ENDTAB
  0
TABLE
  2
BLOCK_RECORD
  5
1
330
0
100
AcDbSymbolTable
 70
    11
  0
BLOCK_RECORD
  5
1F
102
{ACAD_XDICTIONARY
360
F6C
102
}
330
1
100
AcDbSymbolTableRecord
100
AcDbBlockTableRecord
  2
*Model_Space
340
22
 70
     0
280
     1
281
     0
  0
BLOCK_RECORD
  5
23
330
1
100
AcDbSymbolTableRecord
100
AcDbBlockTableRecord
  2
*Paper_Space
340
26
 70
     0
280
     1
281
     0
  0
BLOCK_RECORD
  5
1B
330
1
100
AcDbSymbolTableRecord
100
AcDbBlockTableRecord
  2
*Paper_Space0
340
1E
 70
     0
280
     1
281
     0
  0
BLOCK_RECORD
  5
10040
102
{ACAD_XDICTIONARY
360
10044
102
}
330
1
100
AcDbSymbolTableRecord
100
AcDbBlockTableRecord
  2
A$C43963E35
340
0
 70
     4
280
     1
281
     0
  0
BLOCK_RECORD
  5
1E254
330
1
100
AcDbSymbolTableRecord
100
AcDbBlockTableRecord
  2
_None
340
0
 70
     0
280
     1
281
     0
  0
BLOCK_RECORD
  5
371BB
330
1
100
AcDbSymbolTableRecord
100
AcDbBlockTableRecord
  2
*D3
340
0
 70
     0
280
     1
281
     0
  0
BLOCK_RECORD
  5
37326
330
1
100
AcDbSymbolTableRecord
100
AcDbBlockTableRecord
  2
_FILLED
340
0
 70
     0
280
     1
281
     0
  0
BLOCK_RECORD
  5
37365
330
1
100
AcDbSymbolTableRecord
100
AcDbBlockTableRecord
  2
*D5
340
0
 70
     0
280
     1
281
     0
  0
BLOCK_RECORD
  5
37373
330
1
100
AcDbSymbolTableRecord
100
AcDbBlockTableRecord
  2
*D6
340
0
 70
     0
280
     1
281
     0
  0
BLOCK_RECORD
  5
37390
330
1
100
AcDbSymbolTableRecord
100
AcDbBlockTableRecord
  2
*D7
340
0
 70
     0
280
     1
281
     0
  0
BLOCK_RECORD
  5
37635
330
1
100
AcDbSymbolTableRecord
100
AcDbBlockTableRecord
  2
*D8
340
0
 70
     0
280
     1
281
     0
  0
BLOCK_RECORD
  5
37659
330
1
100
AcDbSymbolTableRecord
100
AcDbBlockTableRecord
  2
*D9
340
0
 70
     0
280
     1
281
     0
  0
BLOCK_RECORD
  5
37690
330
1
100
AcDbSymbolTableRecord
100
AcDbBlockTableRecord
  2
*D10
340
0
 70
     0
280
     1
281
     0
  0
ENDTAB
  0
ENDSEC
  0
SECTION
  2
BLOCKS
  0
BLOCK
  5
20
330
1F
100
AcDbEntity
  8
0
100
AcDbBlockBegin
  2
*Model_Space
 70
     0
 10
0.0
 20
0.0
 30
0.0
  3
*Model_Space
  1

  0
ENDBLK
  5
21
330
1F
100
AcDbEntity
  8
0
100
AcDbBlockEnd
  0
BLOCK
  5
24
330
23
100
AcDbEntity
 67
     1
  8
0
100
AcDbBlockBegin
  2
*Paper_Space
 70
     0
 10
0.0
 20
0.0
 30
0.0
  3
*Paper_Space
  1

  0
ENDBLK
  5
25
330
23
100
AcDbEntity
 67
     1
  8
0
100
AcDbBlockEnd
  0
BLOCK
  5
1C
330
1B
100
AcDbEntity
 67
     1
  8
0
100
AcDbBlockBegin
  2
*Paper_Space0
 70
     0
 10
0.0
 20
0.0
 30
0.0
  3
*Paper_Space0
  1

  0
VIEWPORT
  5
10D6
330
1B
100
AcDbEntity
 67
     1
  8
0
100
AcDbViewport
 10
2172.230288162508
 20
2164.44563953854
 30
0.0
 40
9864.54301089811
 41
5157.746774269583
 68
     0
 69
     0
 12
2172.230288162508
 22
2164.44563953854
 13
0.0
 23
0.0
 14
10.0
 24
10.0
 15
10.0
 25
10.0
 16
0.0
 26
0.0
 36
1.0
 17
0.0
 27
0.0
 37
0.0
 42
50.0
 43
0.0
 44
0.0
 45
5157.746774269583
 50
0.0
 51
0.0
 72
 20000
 90
    32800
  1

281
     0
 71
     1
 74
     0
110
0.0
120
0.0
130
0.0
111
1.0
121
0.0
131
0.0
112
0.0
122
1.0
132
0.0
 79
     0
146
0.0
170
     0
 61
     5
348
118D
292
     1
282
     1
141
0.0
142
0.0
 63
   250
421
  3355443
  0
VIEWPORT
  5
10D8
330
1B
100
AcDbEntity
 67
     1
  8
COTATION
100
AcDbViewport
 10
1433.871729034479
 20
982.4849351662237
 30
0.0
 40
2868.848312283058
 41
1962.882051772217
 68
     0
 69
     0
 12
4672.82154075406
 22
2036.915432569854
 13
0.0
 23
0.0
 14
10.0
 24
10.0
 15
10.0
 25
10.0
 16
0.0
 26
0.0
 36
1.0
 17
0.0
 27
0.0
 37
0.0
 42
50.0
 43
0.0
 44
0.0
 45
2021.894736842107
 50
0.0
 51
0.0
 72
 20000
 90
    32864
  1

281
     0
 71
     1
 74
     0
110
0.0
120
0.0
130
0.0
111
1.0
121
0.0
131
0.0
112
0.0
122
1.0
132
0.0
 79
     0
146
0.0
170
     0
 61
     5
348
118D
292
     1
282
     1
141
0.0
142
0.0
 63
   250
421
  3355443
  0
ENDBLK
  5
1D
330
1B
100
AcDbEntity
 67
     1
  8
0
100
AcDbBlockEnd
  0
BLOCK
  5
10046
330
10040
100
AcDbEntity
  8
0
 48
60.0
100
AcDbBlockBegin
  2
A$C43963E35
 70
     0
 10
0.0
 20
0.0
 30
0.0
  3
A$C43963E35
  1

  0
LINE
  5
10041
330
10040
100
AcDbEntity
  8
TRAITS INTERIEURS FIN
 48
60.0
100
AcDbLine
 10
487.0359303894111
 20
59.03352122927026
 30
0.0
 11
3335.277567270383
 21
59.03352122927026
 31
0.0
  0
HATCH
  5
10042
330
10040
100
AcDbEntity
  8
TRAITS INTERIEURS FIN
 48
60.0
100
AcDbHatch
 10
0.0
 20
0.0
 30
0.0
210
0.0
220
0.0
230
1.0
  2
ANSI31
 70
     0
 71
     1
 91
        1
 92
        7
 72
     0
 73
     1
 93
        4
 10
487.0359303894111
 20
59.03352122927026
 10
0.0
 20
59.03352122927026
 10
0.0
 20
0.0
 10
487.0359303894111
 20
0.0
 97
        1
330
10043
 75
     0
 76
     1
 52
0.0
 41
1.0
 77
     0
 78
     1
 53
45.0
 43
-23209.77219263157
 44
-8752.978071548815
 45
-0.0883883476483184
 46
0.0883883476483185
 79
     0
 47
3.536237473367383
 98
        1
 10
389.0278602149992
 20
49.50732069702644
1001
ACAD
1010
0.0
1020
0.0
1030
0.0
  0
LWPOLYLINE
  5
10043
102
{ACAD_REACTORS
330
10042
102
}
330
10040
100
AcDbEntity
  8
TRAITS INTERIEURS FIN
 48
60.0
100
AcDbPolyline
 90
        4
 70
     1
 43
0.0
 10
487.0359303894111
 20
59.03352122927026
 10
0.0
 20
59.03352122927026
 10
0.0
 20
0.0
 10
487.0359303894111
 20
0.0
  0
ENDBLK
  5
10047
330
10040
100
AcDbEntity
  8
0
 48
60.0
100
AcDbBlockEnd
  0
BLOCK
  5
1E255
330
1E254
100
AcDbEntity
  8
0
 48
60.0
100
AcDbBlockBegin
  2
_None
 70
     0
 10
0.0
 20
0.0
 30
0.0
  3
_None
  1

  0
ENDBLK
  5
1E256
330
1E254
100
AcDbEntity
  8
0
 48
60.0
100
AcDbBlockEnd
  0
BLOCK
  5
371C5
330
371BB
100
AcDbEntity
  8
0
 48
60.0
100
AcDbBlockBegin
  2
*D3
 70
     1
 10
0.0
 20
0.0
 30
0.0
  3
*D3
  1

  0
LINE
  5
37232
330
371BB
100
AcDbEntity
  8
COTATION
 48
30.0
100
AcDbLine
 10
180824.6837504896
 20
-44649.56630088022
 30
0.0
 11
180824.6837504896
 21
-44760.44301678589
 31
0.0
  0
LINE
  5
37233
330
371BB
100
AcDbEntity
  8
COTATION
 48
30.0
100
AcDbLine
 10
181180.0117264663
 20
-44647.66803116811
 30
0.0
 11
181180.0117264663
 21
-44760.44301678589
 31
0.0
  0
LINE
  5
37234
330
371BB
100
AcDbEntity
  8
COTATION
 48
30.0
100
AcDbLine
 10
180874.6837504896
 20
-44750.4430167859
 30
0.0
 11
181130.0117264664
 21
-44750.4430167859
 31
0.0
  0
SOLID
  5
37235
330
371BB
100
AcDbEntity
  8
COTATION
 48
30.0
100
AcDbTrace
 10
180874.6837504896
 20
-44742.10968345255
 30
0.0
 11
180874.6837504896
 21
-44758.77635011923
 31
0.0
 12
180824.6837504896
 22
-44750.4430167859
 32
0.0
 13
180824.6837504896
 23
-44750.4430167859
 33
0.0
  0
SOLID
  5
37236
330
371BB
100
AcDbEntity
  8
COTATION
 48
30.0
100
AcDbTrace
 10
181130.0117264664
 20
-44742.10968345255
 30
0.0
 11
181130.0117264664
 21
-44758.77635011923
 31
0.0
 12
181180.0117264663
 22
-44750.4430167859
 32
0.0
 13
181180.0117264663
 23
-44750.4430167859
 33
0.0
  0
MTEXT
  5
37237
330
371BB
100
AcDbEntity
  8
COTATION
 62
     0
 48
30.0
100
AcDbMText
 10
180993.6804942686
 20
-44704.89731419381
 30
0.0
 40
50.0
 41
0.0
 46
0.0
 71
     5
 72
     1
  1
355
 73
     1
 44
1.0
  0
POINT
  5
37238
330
371BB
100
AcDbEntity
  8
Defpoints
 62
     0
 48
30.0
100
AcDbPoint
 10
180824.6837504896
 20
-44604.56630088022
 30
0.0
  0
POINT
  5
37239
330
371BB
100
AcDbEntity
  8
Defpoints
 62
     0
 48
30.0
100
AcDbPoint
 10
181180.0117264663
 20
-44602.66803116811
 30
0.0
  0
POINT
  5
3723A
330
371BB
100
AcDbEntity
  8
Defpoints
 62
     0
 48
30.0
100
AcDbPoint
 10
181180.0117264663
 20
-44750.4430167859
 30
0.0
  0
ENDBLK
  5
371C6
330
371BB
100
AcDbEntity
  8
0
 48
60.0
100
AcDbBlockEnd
  0
BLOCK
  5
37327
330
37326
100
AcDbEntity
  8
0
100
AcDbBlockBegin
  2
_FILLED
 70
     0
 10
0.0
 20
0.0
 30
0.0
  3
_FILLED
  1

  0
SOLID
  5
37328
330
37326
100
AcDbEntity
  8
0
  6
ByBlock
 62
     0
100
AcDbTrace
 10
0.0
 20
0.0
 30
0.0
 11
-1.0
 21
0.2142857143
 31
0.0
 12
-1.0
 22
-0.2142857143
 32
0.0
 13
-1.0
 23
-0.2142857143
 33
0.0
  0
ENDBLK
  5
37329
330
37326
100
AcDbEntity
  8
0
  6
ByBlock
 62
     0
100
AcDbBlockEnd
  0
BLOCK
  5
37366
330
37365
100
AcDbEntity
  8
0
 48
30.0
100
AcDbBlockBegin
  2
*D5
 70
     1
 10
0.0
 20
0.0
 30
0.0
  3
*D5
  1

  0
LINE
  5
37721
330
37365
100
AcDbEntity
  8
COTATION
 48
30.0
100
AcDbLine
 10
175893.3190681291
 20
-42536.06518120225
 30
0.0
 11
175893.3190681291
 21
-42783.78600559475
 31
0.0
  0
LINE
  5
37722
330
37365
100
AcDbEntity
  8
COTATION
 48
30.0
100
AcDbLine
 10
176453.3563027866
 20
-42569.39734519725
 30
0.0
 11
176453.3563027866
 21
-42783.78600559475
 31
0.0
  0
LINE
  5
37723
330
37365
100
AcDbEntity
  8
COTATION
 48
30.0
100
AcDbLine
 10
175943.319068129
 20
-42773.78600559476
 30
0.0
 11
176083.2137194658
 21
-42773.78600559476
 31
0.0
  0
LINE
  5
37724
330
37365
100
AcDbEntity
  8
COTATION
 48
30.0
100
AcDbLine
 10
176403.3563027866
 20
-42773.78600559476
 30
0.0
 11
176263.5138558914
 21
-42773.78600559476
 31
0.0
  0
SOLID
  5
37725
330
37365
100
AcDbEntity
  8
COTATION
 48
30.0
100
AcDbTrace
 10
175943.319068129
 20
-42765.45267226143
 30
0.0
 11
175943.319068129
 21
-42782.11933892809
 31
0.0
 12
175893.3190681291
 22
-42773.78600559476
 32
0.0
 13
175893.3190681291
 23
-42773.78600559476
 33
0.0
  0
SOLID
  5
37726
330
37365
100
AcDbEntity
  8
COTATION
 48
30.0
100
AcDbTrace
 10
176403.3563027866
 20
-42765.45267226143
 30
0.0
 11
176403.3563027866
 21
-42782.11933892809
 31
0.0
 12
176453.3563027866
 22
-42773.78600559476
 32
0.0
 13
176453.3563027866
 23
-42773.78600559476
 33
0.0
  0
MTEXT
  5
37727
330
37365
100
AcDbEntity
  8
COTATION
 62
     0
 48
30.0
100
AcDbMText
 10
176173.3637876786
 20
-42773.78600559476
 30
0.0
 40
50.0
 41
0.0
 46
0.0
 71
     5
 72
     1
  1
560
 73
     1
 44
1.0
  0
POINT
  5
37728
330
37365
100
AcDbEntity
  8
Defpoints
 62
     0
 48
30.0
100
AcDbPoint
 10
175893.3190681291
 20
-42491.06518120226
 30
0.0
  0
POINT
  5
37729
330
37365
100
AcDbEntity
  8
Defpoints
 62
     0
 48
30.0
100
AcDbPoint
 10
176453.3563027866
 20
-42524.39734519725
 30
0.0
  0
POINT
  5
3772A
330
37365
100
AcDbEntity
  8
Defpoints
 62
     0
 48
30.0
100
AcDbPoint
 10
176453.3563027866
 20
-42773.78600559476
 30
0.0
  0
ENDBLK
  5
37367
330
37365
100
AcDbEntity
  8
0
 48
30.0
100
AcDbBlockEnd
  0
BLOCK
  5
37374
330
37373
100
AcDbEntity
  8
0
 48
30.0
100
AcDbBlockBegin
  2
*D6
 70
     1
 10
0.0
 20
0.0
 30
0.0
  3
*D6
  1

  0
LINE
  5
3773F
330
37373
100
AcDbEntity
  8
COTATION
 48
30.0
100
AcDbLine
 10
176187.5351663307
 20
-42224.37046700195
 30
0.0
 11
176649.3981355614
 21
-42224.37046700195
 31
0.0
  0
LINE
  5
37740
330
37373
100
AcDbEntity
  8
COTATION
 48
30.0
100
AcDbLine
 10
176498.3563027866
 20
-42627.71278531441
 30
0.0
 11
176649.3981355614
 21
-42627.71278531441
 31
0.0
  0
LINE
  5
37741
330
37373
100
AcDbEntity
  8
COTATION
 48
30.0
100
AcDbLine
 10
176639.3981355613
 20
-42274.37046700195
 30
0.0
 11
176639.3981355613
 21
-42365.5129767721
 31
0.0
  0
LINE
  5
37742
330
37373
100
AcDbEntity
  8
COTATION
 48
30.0
100
AcDbLine
 10
176639.3981355613
 20
-42577.71278531441
 30
0.0
 11
176639.3981355613
 21
-42486.57027554426
 31
0.0
  0
SOLID
  5
37743
330
37373
100
AcDbEntity
  8
COTATION
 48
30.0
100
AcDbTrace
 10
176631.064802228
 20
-42274.37046700195
 30
0.0
 11
176647.7314688947
 21
-42274.37046700195
 31
0.0
 12
176639.3981355613
 22
-42224.37046700195
 32
0.0
 13
176639.3981355613
 23
-42224.37046700195
 33
0.0
  0
SOLID
  5
37744
330
37373
100
AcDbEntity
  8
COTATION
 48
30.0
100
AcDbTrace
 10
176631.064802228
 20
-42577.71278531441
 30
0.0
 11
176647.7314688947
 21
-42577.71278531441
 31
0.0
 12
176639.3981355613
 22
-42627.71278531441
 32
0.0
 13
176639.3981355613
 23
-42627.71278531441
 33
0.0
  0
MTEXT
  5
37745
330
37373
100
AcDbEntity
  8
COTATION
 62
     0
 48
30.0
100
AcDbMText
 10
176639.3981355613
 20
-42426.04162615815
 30
0.0
 40
50.0
 41
0.0
 46
0.0
 71
     5
 72
     1
  1
400
 73
     1
 44
1.0
  0
POINT
  5
37746
330
37373
100
AcDbEntity
  8
Defpoints
 62
     0
 48
30.0
100
AcDbPoint
 10
176142.5351663307
 20
-42224.37046700195
 30
0.0
  0
POINT
  5
37747
330
37373
100
AcDbEntity
  8
Defpoints
 62
     0
 48
30.0
100
AcDbPoint
 10
176453.3563027866
 20
-42627.71278531441
 30
0.0
  0
POINT
  5
37748
330
37373
100
AcDbEntity
  8
Defpoints
 62
     0
 48
30.0
100
AcDbPoint
 10
176639.3981355613
 20
-42627.71278531441
 30
0.0
  0
ENDBLK
  5
37375
330
37373
100
AcDbEntity
  8
0
 48
30.0
100
AcDbBlockEnd
  0
BLOCK
  5
37391
330
37390
100
AcDbEntity
  8
0
 48
30.0
100
AcDbBlockBegin
  2
*D7
 70
     1
 10
0.0
 20
0.0
 30
0.0
  3
*D7
  1

  0
LINE
  5
37749
330
37390
100
AcDbEntity
  8
COTATION
 48
30.0
100
AcDbLine
 10
176006.5204382205
 20
-42224.36489927425
 30
0.0
 11
175714.8851194112
 21
-42224.36489927425
 31
0.0
  0
LINE
  5
3774A
330
37390
100
AcDbEntity
  8
COTATION
 48
30.0
100
AcDbLine
 10
175848.3712725706
 20
-42416.87001685436
 30
0.0
 11
175714.8851194112
 21
-42416.87001685436
 31
0.0
  0
LINE
  5
3774B
330
37390
100
AcDbEntity
  8
COTATION
 48
30.0
100
AcDbLine
 10
175724.8851194112
 20
-42174.36489927425
 30
0.0
 11
175724.8851194112
 21
-42124.36489927425
 31
0.0
  0
LINE
  5
3774C
330
37390
100
AcDbEntity
  8
COTATION
 48
30.0
100
AcDbLine
 10
175724.8851194112
 20
-42466.87001685436
 30
0.0
 11
175724.8851194112
 21
-42516.87001685436
 31
0.0
  0
SOLID
  5
3774D
330
37390
100
AcDbEntity
  8
COTATION
 48
30.0
100
AcDbTrace
 10
175716.5517860778
 20
-42174.36489927425
 30
0.0
 11
175733.2184527445
 21
-42174.36489927425
 31
0.0
 12
175724.8851194112
 22
-42224.36489927425
 32
0.0
 13
175724.8851194112
 23
-42224.36489927425
 33
0.0
  0
SOLID
  5
3774E
330
37390
100
AcDbEntity
  8
COTATION
 48
30.0
100
AcDbTrace
 10
175716.5517860778
 20
-42466.87001685436
 30
0.0
 11
175733.2184527445
 21
-42466.87001685436
 31
0.0
 12
175724.8851194112
 22
-42416.87001685436
 32
0.0
 13
175724.8851194112
 23
-42416.87001685436
 33
0.0
  0
MTEXT
  5
3774F
330
37390
100
AcDbEntity
  8
COTATION
 62
     0
 48
30.0
100
AcDbMText
 10
175724.8851194112
 20
-42314.50393153007
 30
0.0
 40
50.0
 41
0.0
 46
0.0
 71
     5
 72
     1
  1
195
 73
     1
 44
1.0
  0
POINT
  5
37750
330
37390
100
AcDbEntity
  8
Defpoints
 62
     0
 48
30.0
100
AcDbPoint
 10
176051.5204382205
 20
-42224.36489927425
 30
0.0
  0
POINT
  5
37751
330
37390
100
AcDbEntity
  8
Defpoints
 62
     0
 48
30.0
100
AcDbPoint
 10
175893.3712725706
 20
-42416.87001685436
 30
0.0
  0
POINT
  5
37752
330
37390
100
AcDbEntity
  8
Defpoints
 62
     0
 48
30.0
100
AcDbPoint
 10
175724.8851194112
 20
-42416.87001685436
 30
0.0
  0
ENDBLK
  5
37392
330
37390
100
AcDbEntity
  8
0
 48
30.0
100
AcDbBlockEnd
  0
BLOCK
  5
37636
330
37635
100
AcDbEntity
  8
0
 48
30.0
100
AcDbBlockBegin
  2
*D8
 70
     1
 10
0.0
 20
0.0
 30
0.0
  3
*D8
  1

  0
LINE
  5
376D0
330
37635
100
AcDbEntity
  8
COTATION
 48
30.0
100
AcDbLine
 10
178332.8134557447
 20
-42366.28836749781
 30
0.0
 11
178188.836661962
 21
-42366.28836749781
 31
0.0
  0
LINE
  5
376D1
330
37635
100
AcDbEntity
  8
COTATION
 48
30.0
100
AcDbLine
 10
178233.3752411672
 20
-42466.28837425909
 30
0.0
 11
178188.836661962
 21
-42466.28837425909
 31
0.0
  0
LINE
  5
376D2
330
37635
100
AcDbEntity
  8
COTATION
 48
30.0
100
AcDbLine
 10
178198.836661962
 20
-42316.28836749782
 30
0.0
 11
178198.836661962
 21
-42266.28836749782
 31
0.0
  0
LINE
  5
376D3
330
37635
100
AcDbEntity
  8
COTATION
 48
30.0
100
AcDbLine
 10
178198.836661962
 20
-42516.28837425909
 30
0.0
 11
178198.836661962
 21
-42566.28837425909
 31
0.0
  0
SOLID
  5
376D4
330
37635
100
AcDbEntity
  8
COTATION
 48
30.0
100
AcDbTrace
 10
178190.5033286287
 20
-42316.28836749782
 30
0.0
 11
178207.1699952954
 21
-42316.28836749782
 31
0.0
 12
178198.836661962
 22
-42366.28836749781
 32
0.0
 13
178198.836661962
 23
-42366.28836749781
 33
0.0
  0
SOLID
  5
376D5
330
37635
100
AcDbEntity
  8
COTATION
 48
30.0
100
AcDbTrace
 10
178190.5033286287
 20
-42516.28837425909
 30
0.0
 11
178207.1699952954
 21
-42516.28837425909
 31
0.0
 12
178198.836661962
 22
-42466.28837425909
 32
0.0
 13
178198.836661962
 23
-42466.28837425909
 33
0.0
  0
MTEXT
  5
376D6
330
37635
100
AcDbEntity
  8
COTATION
 62
     0
 48
30.0
100
AcDbMText
 10
178198.836661962
 20
-42416.28837087842
 30
0.0
 40
50.0
 41
0.0
 46
0.0
 71
     5
 72
     1
  1
100
 73
     1
 44
1.0
  0
POINT
  5
376D7
330
37635
100
AcDbEntity
  8
Defpoints
 62
     0
 48
30.0
100
AcDbPoint
 10
178377.8134557447
 20
-42366.28836749781
 30
0.0
  0
POINT
  5
376D8
330
37635
100
AcDbEntity
  8
Defpoints
 62
     0
 48
30.0
100
AcDbPoint
 10
178278.3752411672
 20
-42466.28837425909
 30
0.0
  0
POINT
  5
376D9
330
37635
100
AcDbEntity
  8
Defpoints
 62
     0
 48
30.0
100
AcDbPoint
 10
178198.836661962
 20
-42466.28837425909
 30
0.0
  0
ENDBLK
  5
37637
330
37635
100
AcDbEntity
  8
0
 48
30.0
100
AcDbBlockEnd
  0
BLOCK
  5
3765A
330
37659
100
AcDbEntity
  8
0
 48
30.0
100
AcDbBlockBegin
  2
*D9
 70
     1
 10
0.0
 20
0.0
 30
0.0
  3
*D9
  1

  0
LINE
  5
376DA
330
37659
100
AcDbEntity
  8
COTATION
 48
30.0
100
AcDbLine
 10
178820.2629635315
 20
-42366.28836836128
 30
0.0
 11
179261.8940052815
 21
-42366.28836836128
 31
0.0
  0
LINE
  5
376DB
330
37659
100
AcDbEntity
  8
COTATION
 48
30.0
100
AcDbLine
 10
179118.8547438671
 20
-42544.86599847688
 30
0.0
 11
179261.8940052815
 21
-42544.86599847688
 31
0.0
  0
LINE
  5
376DC
330
37659
100
AcDbEntity
  8
COTATION
 48
30.0
100
AcDbLine
 10
179251.8940052815
 20
-42316.28836836129
 30
0.0
 11
179251.8940052815
 21
-42266.28836836129
 31
0.0
  0
LINE
  5
376DD
330
37659
100
AcDbEntity
  8
COTATION
 48
30.0
100
AcDbLine
 10
179251.8940052815
 20
-42594.86599847688
 30
0.0
 11
179251.8940052815
 21
-42644.86599847689
 31
0.0
  0
SOLID
  5
376DE
330
37659
100
AcDbEntity
  8
COTATION
 48
30.0
100
AcDbTrace
 10
179243.5606719482
 20
-42316.28836836129
 30
0.0
 11
179260.2273386149
 21
-42316.28836836129
 31
0.0
 12
179251.8940052815
 22
-42366.28836836128
 32
0.0
 13
179251.8940052815
 23
-42366.28836836128
 33
0.0
  0
SOLID
  5
376DF
330
37659
100
AcDbEntity
  8
COTATION
 48
30.0
100
AcDbTrace
 10
179243.5606719482
 20
-42594.86599847688
 30
0.0
 11
179260.2273386149
 21
-42594.86599847688
 31
0.0
 12
179251.8940052815
 22
-42544.86599847688
 32
0.0
 13
179251.8940052815
 23
-42544.86599847688
 33
0.0
  0
MTEXT
  5
376E0
330
37659
100
AcDbEntity
  8
COTATION
 62
     0
 48
30.0
100
AcDbMText
 10
179251.8940052815
 20
-42460.06464178949
 30
0.0
 40
50.0
 41
0.0
 46
0.0
 71
     5
 72
     1
  1
180
 73
     1
 44
1.0
  0
POINT
  5
376E1
330
37659
100
AcDbEntity
  8
Defpoints
 62
     0
 48
30.0
100
AcDbPoint
 10
178775.2629635315
 20
-42366.28836836128
 30
0.0
  0
POINT
  5
376E2
330
37659
100
AcDbEntity
  8
Defpoints
 62
     0
 48
30.0
100
AcDbPoint
 10
179073.8547438671
 20
-42544.86599847688
 30
0.0
  0
POINT
  5
376E3
330
37659
100
AcDbEntity
  8
Defpoints
 62
     0
 48
30.0
100
AcDbPoint
 10
179251.8940052815
 20
-42544.86599847688
 30
0.0
  0
ENDBLK
  5
3765B
330
37659
100
AcDbEntity
  8
0
 48
30.0
100
AcDbBlockEnd
  0
BLOCK
  5
37691
330
37690
100
AcDbEntity
  8
0
 48
30.0
100
AcDbBlockBegin
  2
*D10
 70
     1
 10
0.0
 20
0.0
 30
0.0
  3
*D10
  1

  0
LINE
  5
376E4
330
37690
100
AcDbEntity
  8
COTATION
 48
30.0
100
AcDbLine
 10
178865.2629635316
 20
-42366.28836836128
 30
0.0
 11
179076.0434551422
 21
-42366.28836836128
 31
0.0
  0
LINE
  5
376E5
330
37690
100
AcDbEntity
  8
COTATION
 48
30.0
100
AcDbLine
 10
179021.0434551422
 20
-42497.99826612737
 30
0.0
 11
179056.0434551422
 21
-42497.99826612737
 31
0.0
  0
LINE
  5
376E6
330
37690
100
AcDbEntity
  8
COTATION
 48
30.0
100
AcDbLine
 10
179066.0434551422
 20
-42316.28836836129
 30
0.0
 11
179066.0434551422
 21
-42266.28836836129
 31
0.0
  0
LINE
  5
376E7
330
37690
100
AcDbEntity
  8
COTATION
 48
30.0
100
AcDbLine
 10
179066.0434551422
 20
-42547.99826612737
 30
0.0
 11
179066.0434551422
 21
-42597.99826612737
 31
0.0
  0
SOLID
  5
376E8
330
37690
100
AcDbEntity
  8
COTATION
 48
30.0
100
AcDbTrace
 10
179057.7101218088
 20
-42316.28836836129
 30
0.0
 11
179074.3767884755
 21
-42316.28836836129
 31
0.0
 12
179066.0434551422
 22
-42366.28836836128
 32
0.0
 13
179066.0434551422
 23
-42366.28836836128
 33
0.0
  0
SOLID
  5
376E9
330
37690
100
AcDbEntity
  8
COTATION
 48
30.0
100
AcDbTrace
 10
179057.7101218088
 20
-42547.99826612737
 30
0.0
 11
179074.3767884755
 21
-42547.99826612737
 31
0.0
 12
179066.0434551422
 22
-42497.99826612737
 32
0.0
 13
179066.0434551422
 23
-42497.99826612737
 33
0.0
  0
MTEXT
  5
376EA
330
37690
100
AcDbEntity
  8
COTATION
 62
     0
 48
30.0
100
AcDbMText
 10
179066.0434551422
 20
-42432.14331724431
 30
0.0
 40
50.0
 41
0.0
 46
0.0
 71
     5
 72
     1
  1
130
 73
     1
 44
1.0
  0
POINT
  5
376EB
330
37690
100
AcDbEntity
  8
Defpoints
 62
     0
 48
30.0
100
AcDbPoint
 10
178820.2629635315
 20
-42366.28836836128
 30
0.0
  0
POINT
  5
376EC
330
37690
100
AcDbEntity
  8
Defpoints
 62
     0
 48
30.0
100
AcDbPoint
 10
179066.0434551422
 20
-42497.99826612737
 30
0.0
  0
POINT
  5
376ED
330
37690
100
AcDbEntity
  8
Defpoints
 62
     0
 48
30.0
100
AcDbPoint
 10
179066.0434551422
 20
-42497.99826612737
 30
0.0
  0
ENDBLK
  5
37692
330
37690
100
AcDbEntity
  8
0
 48
30.0
100
AcDbBlockEnd
  0
ENDSEC
  0
SECTION
  2
ENTITIES
  0
MTEXT
  5
681
330
1F
100
AcDbEntity
  8
0
100
AcDbMText
 10
561.0024225737434
 20
809.2258672307794
 30
0.0
 40
30.0
 41
1388.165
 46
0.0
 71
     1
 72
     5
  1

  7
CARTOUCHE
 73
     1
 44
1.0
  0
MTEXT
  5
2CE81
330
1F
100
AcDbEntity
  8
AXES
 48
60.0
100
AcDbMText
 10
137145.267659208
 20
-26299.88381377913
 30
0.0
 40
50.0
 41
0.0
 46
0.0
 71
     9
 72
     1
  1

 73
     1
 44
1.0
  0
LWPOLYLINE
  5
37346
330
1F
100
AcDbEntity
  8
CONTOURS
100
AcDbPolyline
 90
      200
 70
     0
 43
0.0
 10
176331.1325523446
 20
-42607.99397949065
 10
176334.0018022788
 20
-42607.34755628655
 10
176336.9492396796
 20
-42606.66647650705
 10
176339.8644997717
 20
-42605.97526514795
 10
176342.7480557701
 20
-42605.27380984195
 10
176345.5993030372
 20
-42604.56227660245
 10
176348.4165233496
 20
-42603.84105955545
 10
176351.1995909343
 20
-42603.11011958915
 10
176353.9484148517
 20
-42602.36944198935
 10
176356.661325203
 20
-42601.61948921376
 10
176359.3382479309
 20
-42600.86034545225
 10
176361.9791277257
 20
-42600.09209639036
 10
176364.5822935741
 20
-42599.31520470956
 10
176367.1476450169
 20
-42598.52969128655
 10
176369.6750673014
 20
-42597.73562935746
 10
176372.1628918357
 20
-42596.93364683895
 10
176374.6110764775
 20
-42596.12391845585
 10
176377.0195157956
 20
-42595.30655825745
 10
176379.3864754035
 20
-42594.48220249025
 10
176381.7117943883
 20
-42593.65103521456
 10
176383.9954825969
 20
-42592.81324086495
 10
176386.2361203958
 20
-42591.96959638815
 10
176388.433002498
 20
-42591.12057299526
 10
176390.5866461781
 20
-42590.26613478675
 10
176392.6974713254
 20
-42589.40633393185
 10
176394.7650069083
 20
-42588.54165194145
 10
176396.7896638131
 20
-42587.67224321905
 10
176398.7731151915
 20
-42586.79756975036
 10
176400.7152391682
 20
-42585.91785478385
 10
176402.6159771832
 20
-42585.03337593675
 10
176404.4770814424
 20
-42584.14360808395
 10
176406.2988489186
 20
-42583.24860330575
 10
176408.0807396609
 20
-42582.34876331205
 10
176409.8232466383
 20
-42581.44405469985
 10
176411.5266548157
 20
-42580.53461083915
 10
176413.1905458666
 20
-42579.62091924145
 10
176414.8143513554
 20
-42578.70349714815
 10
176416.3976721207
 20
-42577.78288065115
 10
176417.94079899
 20
-42576.85931043405
 10
176419.4441896677
 20
-42575.93288669115
 10
176420.9068340735
 20
-42575.00456305155
 10
176422.3295754507
 20
-42574.07424020925
 10
176423.7155436943
 20
-42573.14029078576
 10
176425.0644448511
 20
-42572.20319511945
 10
176426.3762999121
 20
-42571.26321473935
 10
176427.6545718447
 20
-42570.31813180565
 10
176428.8996379952
 20
-42569.36785110525
 10
176430.1107336003
 20
-42568.41305434075
 10
176431.2895633924
 20
-42567.45250329506
 10
176432.4368093052
 20
-42566.48573886645
 10
176433.551324319
 20
-42565.51379512545
 10
176434.6320886488
 20
-42564.53768374416
 10
176435.678974685
 20
-42563.55779510855
 10
176436.6917670251
 20
-42562.57466492545
 10
176437.6693874263
 20
-42561.58968791265
 10
176438.6115888768
 20
-42560.60364119905
 10
176439.518472364
 20
-42559.61707265485
 10
176440.3895214088
 20
-42558.63122645675
 10
176441.2243505124
 20
-42557.64739283526
 10
176442.0234130029
 20
-42556.66605083225
 10
176442.787476564
 20
-42555.68726955095
 10
176443.5162386981
 20
-42554.71256311505
 10
176444.2104106618
 20
-42553.74228212785
 10
176444.8720251628
 20
-42552.77475740465
 10
176445.5000949102
 20
-42551.81262787846
 10
176446.0957634109
 20
-42550.85552914745
 10
176446.6637329343
 20
-42549.89711898505
 10
176447.2039455591
 20
-42548.93850123005
 10
176447.7163558964
 20
-42547.98082975815
 10
176448.2050354915
 20
-42547.01737267525
 10
176448.6704706622
 20
-42546.04773270655
 10
176449.1119690437
 20
-42545.07392264155
 10
176449.5313350525
 20
-42544.09240238286
 10
176449.9285268981
 20
-42543.10348585075
 10
176450.3032459679
 20
-42542.10813015386
 10
176450.6565588834
 20
-42541.10356955766
 10
176450.9880473099
 20
-42540.09106489536
 10
176451.2977016308
 20
-42539.07070559025
 10
176451.5867703419
 20
-42538.03785978355
 10
176451.8547589108
 20
-42536.99351537535
 10
176452.1014028763
 20
-42535.93789436814
 10
176452.3276684207
 20
-42534.86505769835
 10
176452.5330389763
 20
-42533.77479016255
 10
176452.7167154401
 20
-42532.66849598635
 10
176452.8786670361
 20
-42531.54259433745
 10
176453.0182739926
 20
-42530.39653550485
 10
176453.1346593327
 20
-42529.23215141465
 10
176453.2272155799
 20
-42528.04942569055
 10
176453.2953529736
 20
-42526.84896244785
 10
176453.3385400657
 20
-42525.63152769665
 10
176453.3563027866
 20
-42524.39734519725
 10
176453.3482217333
 20
-42523.14711742105
 10
176453.3139492756
 20
-42521.88149550125
 10
176453.253161099
 20
-42520.60061020995
 10
176453.1656060026
 20
-42519.30529955005
 10
176453.0510738154
 20
-42517.99598723325
 10
176452.9092928366
 20
-42516.67217680915
 10
176452.7401310302
 20
-42515.33471908465
 10
176452.5434390068
 20
-42513.98390894105
 10
176452.3188387481
 20
-42512.61844975845
 10
176452.0662184399
 20
-42511.23892749925
 10
176451.7854637602
 20
-42509.84581036165
 10
176451.4760998022
 20
-42508.43770208395
 10
176451.1381065769
 20
-42507.01534666576
 10
176450.7713395638
 20
-42505.57897559545
 10
176450.3750348784
 20
-42504.12651701846
 10
176449.9492540961
 20
-42502.65897704555
 10
176449.4937771685
 20
-42501.17627519035
 10
176449.0071604496
 20
-42499.67480288055
 10
176448.4892104574
 20
-42498.15508570446
 10
176447.93978034
 20
-42496.61753268175
 10
176447.3571422596
 20
-42495.05848043055
 10
176446.7405182592
 20
-42493.47727961976
 10
176446.0900935731
 20
-42491.87554131306
 10
176445.4054197291
 20
-42490.25305182215
 10
176444.6854649092
 20
-42488.60850597876
 10
176443.9307357025
 20
-42486.94407362645
 10
176443.1432376301
 20
-42485.26462686025
 10
176442.3230201653
 20
-42483.57038247895
 10
176441.4700919993
 20
-42481.86166203365
 10
176440.5868408059
 20
-42480.14327476905
 10
176439.67396322
 20
-42478.41622462345
 10
176438.7312708768
 20
-42476.67973408534
 10
176437.7599740471
 20
-42474.93578779836
 10
176436.7604759049
 20
-42473.18480558675
 10
176435.7328177793
 20
-42471.42646551096
 10
176434.6777554186
 20
-42469.66156696905
 10
176433.5955434684
 20
-42467.89011519725
 10
176432.4863602007
 20
-42466.11214594755
 10
176431.3509127103
 20
-42464.32845919815
 10
176430.1894520774
 20
-42462.53902573975
 10
176429.0022793439
 20
-42460.74382934075
 10
176427.7901686872
 20
-42458.94366428025
 10
176426.5532843524
 20
-42457.13849945746
 10
176425.2918317012
 20
-42455.32831779136
 10
176424.0066310642
 20
-42453.51391020245
 10
176422.6979642347
 20
-42451.69522086915
 10
176421.3660724603
 20
-42449.87217256195
 10
176420.0116946753
 20
-42448.04550998945
 10
176418.6352895304
 20
-42446.21555448436
 10
176417.23677357
 20
-42444.38186489135
 10
176415.8160953911
 20
-42442.54402508085
 10
176414.3737156213
 20
-42440.70224995305
 10
176412.9096055289
 20
-42438.85617694065
 10
176411.4229137798
 20
-42437.00456146346
 10
176409.9137551956
 20
-42435.14738544384
 10
176408.3822516426
 20
-42433.28460889715
 10
176406.8275375905
 20
-42431.41498066655
 10
176405.2497542107
 20
-42429.53846157855
 10
176403.6490536412
 20
-42427.65501131635
 10
176402.0244997973
 20
-42425.76343381445
 10
176400.3761381722
 20
-42423.86373819075
 10
176398.704033607
 20
-42421.95592960685
 10
176397.007232621
 20
-42420.03884133525
 10
176395.2858118183
 20
-42418.11247025966
 10
176393.5398653765
 20
-42416.17680313265
 10
176391.7684464817
 20
-42414.23067991575
 10
176389.971572907
 20
-42412.27411538135
 10
176388.1492743405
 20
-42410.30715239705
 10
176386.3005574672
 20
-42408.32871987315
 10
176384.4254482446
 20
-42406.33883612275
 10
176382.5239990401
 20
-42404.33752161606
 10
176380.5952517051
 20
-42402.32371931245
 10
176378.639264435
 20
-42400.29743429485
 10
176376.656057342
 20
-42398.25869667545
 10
176374.6445976259
 20
-42396.20650433885
 10
176372.6048794064
 20
-42394.14090244445
 10
176370.5369047655
 20
-42392.06192211465
 10
176368.4396476978
 20
-42389.96854939095
 10
176366.313250413
 20
-42387.86092971755
 10
176364.1576221552
 20
-42385.73895192666
 10
176361.9713657925
 20
-42383.60124500425
 10
176359.7546024789
 20
-42381.44802329055
 10
176357.5071692393
 20
-42379.27922365635
 10
176355.2271851253
 20
-42377.09312595395
 10
176352.9146427031
 20
-42374.88981509786
 10
176350.5695326931
 20
-42372.66935312815
 10
176348.1899571571
 20
-42370.43000860835
 10
176345.775923517
 20
-42368.17184776435
 10
176343.3274228066
 20
-42365.89492460225
 10
176340.8424858037
 20
-42363.59750590275
 10
176338.3211283917
 20
-42361.27970093636
 10
176335.7632313923
 20
-42358.94147172795
 10
176333.166603379
 20
-42356.58087956656
 10
176330.531342333
 20
-42354.19806770425
 10
176327.8572819381
 20
-42351.79291313825
 10
176325.1418144327
 20
-42349.36309731445
 10
176322.3847412913
 20
-42346.90880718585
 10
176319.5856144898
 20
-42344.43047368055
 10
176316.7413352444
 20
-42341.92626540055
 10
176313.8514238952
 20
-42339.39672657745
 10
176310.9152981824
 20
-42336.84235088995
 10
176307.9296297928
 20
-42334.26130689295
 10
176304.8942478742
 20
-42331.65457066375
 10
176301.8080696033
 20
-42329.02242061775
 10
176298.6662906839
 20
-42326.36221409455
 10
176295.4683830436
 20
-42323.67509711136
 10
176292.2133419808
 20
-42320.96189093345
 10
176288.8955069049
 20
-42318.21967050016
 10
176286.0696296153
 20
-42315.90304891335
  0
LWPOLYLINE
  5
37347
330
1F
100
AcDbEntity
  8
CONTOURS
100
AcDbPolyline
 90
       24
 70
     0
 43
0.0
 10
176175.6139940176
 20
-42626.68724783516
 10
176183.3123034497
 20
-42626.33223162985
 10
176190.9279556976
 20
-42625.93116234615
 10
176198.4607714858
 20
-42625.48534699385
 10
176205.9104890204
 20
-42624.99574308645
 10
176213.2767562659
 20
-42624.46323281265
 10
176220.5593864187
 20
-42623.88868560505
 10
176227.7581726827
 20
-42623.27270142115
 10
176234.8727545753
 20
-42622.61578214905
 10
176241.9029227818
 20
-42621.91846260775
 10
176248.8484276963
 20
-42621.18108876255
 10
176255.7088585409
 20
-42620.40386065925
 10
176262.4840299814
 20
-42619.58702822985
 10
176269.1736025285
 20
-42618.73073775055
 10
176275.7769167609
 20
-42617.83495324135
 10
176282.2936521995
 20
-42616.89968632995
 10
176288.723496176
 20
-42615.92488357115
 10
176295.0657506134
 20
-42614.91026662326
 10
176301.3200008643
 20
-42613.85561125915
 10
176307.4858728026
 20
-42612.76065034245
 10
176313.5626497218
 20
-42611.62484233105
 10
176319.5497830128
 20
-42610.44773006825
 10
176325.4468127043
 20
-42609.22877812145
 10
176331.1325463726
 20
-42607.99395267005
  0
LINE
  5
37348
330
1F
100
AcDbEntity
  8
CONTOURS
100
AcDbLine
 10
176167.7531018476
 20
-42626.99767520955
 30
0.0
 11
176175.6139940176
 21
-42626.68724783516
 31
0.0
  0
LWPOLYLINE
  5
37349
330
1F
100
AcDbEntity
  8
CONTOURS
100
AcDbPolyline
 90
       56
 70
     0
 43
0.0
 10
176244.0472451541
 20
-42283.67123088816
 10
176242.3931213443
 20
-42282.49706268565
 10
176240.7554415504
 20
-42281.34251073525
 10
176239.1340686119
 20
-42280.20737584295
 10
176237.5280598907
 20
-42279.09090166275
 10
176235.9371069839
 20
-42277.99278445406
 10
176234.3609528643
 20
-42276.91275912215
 10
176232.7985962553
 20
-42275.85005839915
 10
176231.2497324321
 20
-42274.80440045176
 10
176229.714003363
 20
-42273.77547044205
 10
176228.1902146959
 20
-42272.76240302695
 10
176226.6773978779
 20
-42271.76450171695
 10
176225.1758029111
 20
-42270.78187980795
 10
176223.6859690601
 20
-42269.81482667685
 10
176222.2064816788
 20
-42268.86236210715
 10
176220.7380086881
 20
-42267.92485459825
 10
176219.2841420775
 20
-42267.00449573175
 10
176217.8444898959
 20
-42266.10090365515
 10
176216.4187155806
 20
-42265.21373284975
 10
176215.0104692657
 20
-42264.34508697055
 10
176213.6197592865
 20
-42263.49476763315
 10
176212.2459419316
 20
-42262.66217692265
 10
176210.8917174066
 20
-42261.84872479535
 10
176209.5587990017
 20
-42261.05517357675
 10
176208.2449828759
 20
-42260.27994422505
 10
176206.9471409619
 20
-42259.52096254465
 10
176205.6660374724
 20
-42258.77846219325
 10
176204.4005373233
 20
-42258.05157167935
 10
176203.1446878944
 20
-42257.33671017665
 10
176201.8983491814
 20
-42256.63368015365
 10
176200.6613527231
 20
-42255.94226788505
 10
176199.4276975611
 20
-42255.25904486075
 10
176198.1968589653
 20
-42254.58369331006
 10
176196.9690773611
 20
-42253.91631729386
 10
176195.7394774648
 20
-42253.25427191545
 10
176194.5070423819
 20
-42252.59705777156
 10
176193.2725131889
 20
-42251.94511809036
 10
176192.0336343505
 20
-42251.29731949305
 10
176190.7900313517
 20
-42250.65354251765
 10
176189.5418338863
 20
-42250.01393089256
 10
176188.2875381913
 20
-42249.37779990305
 10
176187.0268778855
 20
-42248.74511294225
 10
176185.7599160948
 20
-42248.11600062965
 10
176184.4856460161
 20
-42247.49006850555
 10
176183.2040148366
 20
-42246.86740379465
 10
176181.9149297679
 20
-42246.24807516395
 10
176180.6173317401
 20
-42245.63169650545
 10
176179.3112153683
 20
-42245.01839654955
 10
176177.9965120472
 20
-42244.40827516795
 10
176176.6720789893
 20
-42243.80094458525
 10
176175.3377447945
 20
-42243.19648055005
 10
176173.9936986503
 20
-42242.59512427005
 10
176172.639358909
 20
-42241.99677601135
 10
176171.2745787087
 20
-42241.40153974445
 10
176169.8996513983
 20
-42240.80971375405
 10
176167.3907246226
 20
-42239.75014641365
  0
LWPOLYLINE
  5
3734A
330
1F
100
AcDbEntity
  8
CONTOURS
100
AcDbPolyline
 90
       22
 70
     0
 43
0.0
 10
176283.5076010502
 20
-42313.81776951075
 10
176281.3152517214
 20
-42312.04460596445
 10
176279.1744094691
 20
-42310.32329433635
 10
176277.0817674039
 20
-42308.65065403695
 10
176275.0283501466
 20
-42307.01906464616
 10
176273.0140904671
 20
-42305.42807922565
 10
176271.0384190377
 20
-42303.87684893745
 10
176269.0918495443
 20
-42302.35758787745
 10
176267.1739811857
 20
-42300.86970638786
 10
176265.2847703717
 20
-42299.41288876616
 10
176263.4155228732
 20
-42297.98020218556
 10
176261.5639356023
 20
-42296.56971949055
 10
176259.732090848
 20
-42295.18285690185
 10
176257.9180954912
 20
-42293.81800245075
 10
176256.1212120174
 20
-42292.47443383846
 10
176254.3421122201
 20
-42291.15247982996
 10
176252.5811219119
 20
-42289.85221867135
 10
176250.8382920813
 20
-42288.57355357215
 10
176249.1134893784
 20
-42287.31625479595
 10
176247.406705898
 20
-42286.08018458725
 10
176245.7180994372
 20
-42284.86532281976
 10
176244.0472451541
 20
-42283.67123088816
  0
LINE
  5
3734B
330
1F
100
AcDbEntity
  8
CONTOURS
100
AcDbLine
 10
176283.5076010502
 20
-42313.81776951075
 30
0.0
 11
176286.0701535014
 21
-42315.90346771706
 31
0.0
  0
LWPOLYLINE
  5
3734C
330
1F
100
AcDbEntity
  8
CONTOURS
100
AcDbPolyline
 90
       31
 70
     0
 43
0.0
 10
176167.3907983403
 20
-42239.75046644436
 10
176164.3182808518
 20
-42238.49284947105
 10
176161.1915924964
 20
-42237.26091944455
 10
176158.1173458018
 20
-42236.09752096605
 10
176155.0991409748
 20
-42235.00226001156
 10
176152.1357807314
 20
-42233.97297035475
 10
176149.2212092037
 20
-42233.00600464545
 10
176146.3564214956
 20
-42232.10021645085
 10
176143.5425399292
 20
-42231.25439857946
 10
176140.7735245359
 20
-42230.46524909195
 10
176138.0503605749
 20
-42229.73170464014
 10
176135.3740465812
 20
-42229.05261843705
 10
176132.7383792534
 20
-42228.42508410765
 10
176130.1439470349
 20
-42227.84804657956
 10
176127.5919855319
 20
-42227.32052540815
 10
176125.0771255784
 20
-42226.84022294315
 10
176122.5999854965
 20
-42226.40618247185
 10
176120.1615776426
 20
-42226.01746122415
 10
176117.7569885432
 20
-42225.67222573565
 10
176115.3869373221
 20
-42225.36964804425
 10
176113.0522229287
 20
-42225.10888356696
 10
176110.7479370402
 20
-42224.88851821895
 10
176108.4748488632
 20
-42224.70783330956
 10
176106.2335746528
 20
-42224.56602791895
 10
176104.0188626434
 20
-42224.46202304965
 10
176101.8314073963
 20
-42224.39520329055
 10
176099.6719385087
 20
-42224.36489927425
 10
176097.5351663307
 20
-42224.37046700195
 10
176095.4198086819
 20
-42224.41137829085
 10
176093.3286879601
 20
-42224.48665210655
 10
176091.3875722317
 20
-42224.58769452875
  0
LWPOLYLINE
  5
3734D
330
1F
100
AcDbEntity
  8
CONTOURS
100
AcDbPolyline
 90
      200
 70
     0
 43
0.0
 10
176091.3875722312
 20
-42224.58769451455
 10
176089.3327409116
 20
-42224.72750359745
 10
176087.1622786357
 20
-42224.91197544485
 10
176084.991393221
 20
-42225.13444096445
 10
176082.8223462542
 20
-42225.39481272475
 10
176080.6543142279
 20
-42225.69327429795
 10
176078.4834626755
 20
-42226.03059111196
 10
176076.3105421087
 20
-42226.40698871925
 10
176074.1362845086
 20
-42226.82255361905
 10
176071.9569346657
 20
-42227.27830512155
 10
176069.7732877433
 20
-42227.77448784006
 10
176067.5861044258
 20
-42228.31121515235
 10
176065.3917168609
 20
-42228.88974822585
 10
176063.1909280753
 20
-42229.51035156325
 10
176060.9845183903
 20
-42230.17322842095
 10
176058.7689493434
 20
-42230.87995749104
 10
176056.5450887556
 20
-42231.63088787275
 10
176054.3137378799
 20
-42232.42632871215
 10
176052.0714445012
 20
-42233.26818151945
 10
176049.8192890685
 20
-42234.15681721485
 10
176047.5580066403
 20
-42235.09269526965
 10
176045.2838417667
 20
-42236.07823565455
 10
176042.9979290905
 20
-42237.11392917315
 10
176040.7011436894
 20
-42238.20031735366
 10
176038.3895885051
 20
-42239.34028904345
 10
176036.0642176498
 20
-42240.53454965745
 10
176033.7263119994
 20
-42241.78357837755
 10
176031.3727143281
 20
-42243.09028256235
 10
176029.0035523702
 20
-42244.45594833825
 10
176026.6211316226
 20
-42245.88056715306
 10
176024.2257064737
 20
-42247.36525937545
 10
176021.818081974
 20
-42248.91079992126
 10
176019.399854607
 20
-42250.51740772955
 10
176016.9724683606
 20
-42252.18531634275
 10
176014.5370640532
 20
-42253.91487643575
 10
176012.0947695603
 20
-42255.70639423845
 10
176009.6469624331
 20
-42257.55994770215
 10
176007.1951484202
 20
-42259.47540881475
 10
176004.7399447484
 20
-42261.45327640305
 10
176002.2813855114
 20
-42263.49456398596
 10
175999.82134319
 20
-42265.59871448035
 10
175997.3600057591
 20
-42267.76652606205
 10
175994.8950123823
 20
-42270.00122950335
 10
175992.4275764631
 20
-42272.30296459145
 10
175989.958716628
 20
-42274.67197002385
 10
175987.4860301057
 20
-42277.11193196675
 10
175985.0110035909
 20
-42279.62288079975
 10
175982.5345822563
 20
-42282.20529367165
 10
175980.0538607886
 20
-42284.86386713585
 10
175977.5709559435
 20
-42287.59816889946
 10
175975.0864692381
 20
-42290.40930873906
 10
175972.5956854796
 20
-42293.30473635585
 10
175970.1003538098
 20
-42296.28489422745
 10
175967.6020177686
 20
-42299.35036444126
 10
175965.0962566958
 20
-42302.50930994975
 10
175962.5837775844
 20
-42305.76409473545
 10
175960.0678627963
 20
-42309.11371001905
 10
175957.5484013595
 20
-42312.56158457274
 10
175955.0259111298
 20
-42316.11068865145
 10
175952.5042027707
 20
-42319.75938942166
 10
175949.9880981658
 20
-42323.50416939715
 10
175947.478743767
 20
-42327.34690062835
 10
175944.9791650865
 20
-42331.28666278235
 10
175942.4965645945
 20
-42335.31540677875
 10
175940.0300127449
 20
-42339.43803238335
 10
175937.5842799876
 20
-42343.65017643515
 10
175935.1739471439
 20
-42347.92915251006
 10
175932.7990400898
 20
-42352.27679141615
 10
175930.4620295262
 20
-42356.69085024476
 10
175928.1792099404
 20
-42361.14142753515
 10
175925.9480412634
 20
-42365.63365986825
 10
175923.7719525264
 20
-42370.16131012835
 10
175921.6732895463
 20
-42374.67600466045
 10
175919.6508420749
 20
-42379.17724477515
 10
175917.7045261323
 20
-42383.66340752286
 10
175915.8547802182
 20
-42388.08280616025
 10
175914.1053283445
 20
-42392.41837365665
 10
175912.4474708444
 20
-42396.68346225855
 10
175910.8807924785
 20
-42400.87114605305
 10
175909.4059783291
 20
-42404.97056648945
 10
175908.0171073009
 20
-42408.98914099865
 10
175906.7043745302
 20
-42412.94768653395
 10
175905.4655220835
 20
-42416.84660618445
 10
175904.2994434922
 20
-42420.68306754935
 10
175903.1994280045
 20
-42424.47362112595
 10
175902.1633120717
 20
-42428.22128139735
 10
175901.1912121788
 20
-42431.92119814095
 10
175900.2806511324
 20
-42435.57844334035
 10
175899.4306270213
 20
-42439.19272830015
 10
175898.6403957039
 20
-42442.76268760866
 10
175897.9082536351
 20
-42446.29189478345
 10
175897.2333412087
 20
-42449.78034129915
 10
175896.6150560114
 20
-42453.22650202905
 10
175896.0523628927
 20
-42456.63171395915
 10
175895.5444247882
 20
-42459.99643183705
 10
175895.0907141391
 20
-42463.31870328395
 10
175894.6907136289
 20
-42466.59621932985
 10
175894.3436253616
 20
-42469.82828065455
 10
175894.0485799191
 20
-42473.01405278255
 10
175893.8048321019
 20
-42476.15095028045
 10
175893.6114166751
 20
-42479.23803395416
 10
175893.4672500134
 20
-42482.27470076595
 10
175893.3712725706
 20
-42485.25879855955
 10
175893.3223109945
 20
-42488.18902493935
 10
175893.3190681291
 20
-42491.06518120226
 10
175893.3602266661
 20
-42493.88671440515
 10
175893.4444249484
 20
-42496.65229914665
 10
175893.5702357998
 20
-42499.36185652456
 10
175893.7363042543
 20
-42502.01666131685
 10
175893.9410785434
 20
-42504.61467767935
 10
175894.1831192429
 20
-42507.15667788045
 10
175894.4615685889
 20
-42509.64810290175
 10
175894.7750824288
 20
-42512.08820377396
 10
175895.1222855097
 20
-42514.47659228145
 10
175895.5028206083
 20
-42516.81917926825
 10
175895.9156061145
 20
-42519.11593162516
 10
175896.3593293948
 20
-42521.36583828545
 10
175896.8337778031
 20
-42523.57325768835
 10
175897.33789017
 20
-42525.73783673796
 10
175897.8704898138
 20
-42527.85895563565
 10
175898.4315766567
 20
-42529.94048369085
 10
175899.0201081113
 20
-42531.98196697715
 10
175899.6349961036
 20
-42533.98297775524
 10
175900.276527399
 20
-42535.94733471645
 10
175900.9437317017
 20
-42537.87460726975
 10
175901.6356020195
 20
-42539.76439592185
 10
175902.352735161
 20
-42541.62045815025
 10
175903.0942532904
 20
-42543.44240751665
 10
175903.8592375701
 20
-42545.22987996665
 10
175904.6485975881
 20
-42546.98655249555
 10
175905.4615911281
 20
-42548.71203607355
 10
175906.2974423498
 20
-42550.40593774285
 10
175907.1574065603
 20
-42552.07177048615
 10
175908.0408168433
 20
-42553.70903464124
 10
175908.9470398326
 20
-42555.31739119695
 10
175909.8777725717
 20
-42556.90040821376
 10
175910.8321628147
 20
-42558.45705496735
 10
175911.809956379
 20
-42559.98739420655
 10
175912.814234615
 20
-42561.49634690495
 10
175913.8444470581
 20
-42562.98305800125
 10
175914.9002298301
 20
-42564.44713922435
 10
175915.9855155846
 20
-42565.89380208835
 10
175917.099955015
 20
-42567.32231408755
 10
175918.243032095
 20
-42568.73208092705
 10
175919.4189942397
 20
-42570.12807736745
 10
175920.6276811509
 20
-42571.50959377505
 10
175921.8687750649
 20
-42572.87584639415
 10
175923.1468587672
 20
-42574.23119231885
 10
175924.4624553623
 20
-42575.57526972695
 10
175925.8148454626
 20
-42576.90653751725
 10
175927.2071269551
 20
-42578.22712333065
 10
175928.6394349315
 20
-42579.53624171565
 10
175930.1112819743
 20
-42580.83279560155
 10
175931.6250213652
 20
-42582.11815071176
 10
175933.1804204376
 20
-42583.39138693215
 10
175934.7772412313
 20
-42584.65173641045
 10
175936.4179646888
 20
-42585.90053746885
 10
175938.1023565047
 20
-42587.13694099365
 10
175939.8301978568
 20
-42588.36018398145
 10
175941.6040975389
 20
-42589.57147733015
 10
175943.4237764431
 20
-42590.76994971735
 10
175945.2890846071
 20
-42591.95485736985
 10
175947.2028941279
 20
-42593.12734821165
 10
175949.1649568247
 20
-42594.28655956606
 10
175951.1751028384
 20
-42595.43169372265
 10
175953.2363648054
 20
-42596.56374899526
 10
175955.3487657507
 20
-42597.68198907465
 10
175957.5118510076
 20
-42598.78545741796
 10
175959.7279579702
 20
-42599.87462905025
 10
175961.9975898654
 20
-42600.94904095685
 10
175964.3197419473
 20
-42602.00754459026
 10
175966.6944948011
 20
-42603.04953770885
 10
175969.1217097728
 20
-42604.07440578535
 10
175971.6009162182
 20
-42605.08146523745
 10
175974.1317202185
 20
-42606.07005487916
 10
175976.7135142331
 20
-42607.03951594335
 10
175979.3462511331
 20
-42607.98950266315
 10
175982.0304230356
 20
-42608.91983361466
 10
175984.7653194353
 20
-42609.82989158825
 10
175987.5510546697
 20
-42610.71943332836
 10
175990.3894199214
 20
-42611.58876937165
 10
175993.2801271009
 20
-42612.43745478296
 10
175996.222933195
 20
-42613.26509773615
 10
175999.2197630368
 20
-42614.07197102076
 10
176002.2704894933
 20
-42614.85777823636
 10
176005.3746798467
 20
-42615.62206898475
 10
176008.5337507736
 20
-42616.36487828605
 10
176011.7484665741
 20
-42617.08611884725
 10
176015.0174687453
 20
-42617.78526787315
 10
176018.339035634
 20
-42618.46168962615
 10
176021.7133039049
 20
-42619.11519951985
 10
176025.1396199492
 20
-42619.74554048925
 10
176028.6150443067
 20
-42620.35214596205
 10
176032.139262886
 20
-42620.93488235565
 10
176035.7121271864
 20
-42621.49363762995
 10
176039.3309619897
 20
-42622.02800504045
 10
176042.9949248156
 20
-42622.53797643175
 10
176046.7043259988
 20
-42623.02366902815
 10
176050.458220939
 20
-42623.48495798495
 10
176054.2561722574
 20
-42623.92184792855
  0
LWPOLYLINE
  5
3734E
330
1F
100
AcDbEntity
  8
CONTOURS
100
AcDbPolyline
 90
       27
 70
     0
 43
0.0
 10
176054.2561722574
 20
-42623.92184792855
 10
176058.0981738363
 20
-42624.33445419365
 10
176061.9839146493
 20
-42624.72288771135
 10
176065.9132176492
 20
-42625.08717556905
 10
176069.8859074067
 20
-42625.42734346955
 10
176073.9017121734
 20
-42625.74346054125
 10
176077.9604369187
 20
-42626.03565501475
 10
176082.0618894532
 20
-42626.30403972256
 10
176086.2058245113
 20
-42626.54863876445
 10
176090.3921006767
 20
-42626.76951177355
 10
176094.6205555715
 20
-42626.96676143785
 10
176098.8909039207
 20
-42627.14052843675
 10
176103.2029900239
 20
-42627.29091822915
 10
176107.5567041522
 20
-42627.41797562106
 10
176111.9518311271
 20
-42627.52177458935
 10
176116.3882289864
 20
-42627.60243044265
 10
176120.8657696517
 20
-42627.66009489145
 10
176125.3842750973
 20
-42627.69487531405
 10
176129.9436536255
 20
-42627.70682544795
 10
176134.5438070912
 20
-42627.69602681816
 10
176139.184569138
 20
-42627.66259458375
 10
176143.8658357862
 20
-42627.60667707065
 10
176148.5875017839
 20
-42627.52839747715
 10
176153.3494007622
 20
-42627.42781825635
 10
176158.1514110858
 20
-42627.30502167506
 10
176162.9934546535
 20
-42627.16011736575
 10
176167.753101857
 20
-42626.99767522425
  0
ARC
  5
3734F
330
1F
100
AcDbEntity
  8
0
100
AcDbCircle
 10
176064.1669195531
 20
-42487.72143097025
 30
0.0
 40
268.5975526559
100
AcDbArc
 50
67.07006817960897
 51
67.38109253508506
  0
CIRCLE
  5
37350
330
1F
100
AcDbEntity
  8
TRAITS INTERIEURS FIN
100
AcDbCircle
 10
176142.9971967792
 20
-42416.87001685436
 30
0.0
 40
35.7208891929
  0
CIRCLE
  5
37351
330
1F
100
AcDbEntity
  8
TRAITS INTERIEURS FIN
100
AcDbCircle
 10
176142.9971967792
 20
-42416.87001685436
 30
0.0
 40
23.4
  0
SPLINE
  5
37352
330
1F
100
AcDbEntity
  8
TRAITS INTERIEURS FIN
100
AcDbSpline
210
0.0
220
0.0
230
1.0
 70
     8
 71
     3
 72
    14
 73
    10
 74
     0
 42
0.0000000001
 43
0.0000000001
 40
0.0
 40
0.0
 40
0.0
 40
0.0
 40
0.3096813941
 40
0.4546654621
 40
0.5884503042000001
 40
0.708982088
 40
0.8159069220999999
 40
0.9112703175
 40
1.0
 40
1.0
 40
1.0
 40
1.0
 10
176215.9351818228
 20
-42300.28047781585
 30
0.0
 10
176217.1082202768
 20
-42301.06602180676
 30
0.0
 10
176218.7207484073
 20
-42302.40474004266
 30
0.0
 10
176220.4512674563
 20
-42304.46163671595
 30
0.0
 10
176221.427909554
 20
-42306.00593721245
 30
0.0
 10
176222.0738651163
 20
-42307.53048519135
 30
0.0
 10
176222.3608741501
 20
-42308.98768664966
 30
0.0
 10
176222.2643113673
 20
-42310.33009909115
 30
0.0
 10
176221.9238676597
 20
-42311.11930958265
 30
0.0
 10
176221.6992046109
 20
-42311.45568217606
 30
0.0
  0
SPLINE
  5
37353
330
1F
100
AcDbEntity
  8
TRAITS INTERIEURS FIN
100
AcDbSpline
210
0.0
220
0.0
230
1.0
 70
     8
 71
     3
 72
    14
 73
    10
 74
     0
 42
0.0000000001
 43
0.0000000001
 40
0.0
 40
0.0
 40
0.0
 40
0.0
 40
0.0895839886
 40
0.1856306536
 40
0.2928925873
 40
0.4134033539
 40
0.5468880813000001
 40
0.6914010723999999
 40
1.0
 40
1.0
 40
1.0
 40
1.0
 10
176203.37563744
 20
-42299.27990957995
 30
0.0
 10
176203.6032179169
 20
-42298.93915387125
 30
0.0
 10
176204.2068515266
 20
-42298.31395152995
 30
0.0
 10
176205.4173891205
 20
-42297.69669531265
 30
0.0
 10
176206.8808907479
 20
-42297.39168709415
 30
0.0
 10
176208.5425087861
 20
-42297.39628272845
 30
0.0
 10
176210.3465427087
 20
-42297.70304786516
 30
0.0
 10
176212.9102302523
 20
-42298.51366075576
 30
0.0
 10
176214.7623204035
 20
-42299.49505237905
 30
0.0
 10
176215.9351818228
 20
-42300.28047781585
 30
0.0
  0
LINE
  5
37354
330
1F
100
AcDbEntity
  8
0
100
AcDbLine
 10
176168.8139046172
 20
-42240.34792024255
 30
0.0
 11
176168.8889687155
 21
-42240.37968752035
 31
0.0
  0
LINE
  5
37355
330
1F
100
AcDbEntity
  8
TRAITS INTERIEURS FIN
100
AcDbLine
 10
176167.7135878074
 20
-42620.72821518285
 30
0.0
 11
176167.5216394082
 21
-42620.73552096605
 31
0.0
  0
SPLINE
  5
37356
330
1F
100
AcDbEntity
  8
TRAITS INTERIEURS FIN
100
AcDbSpline
210
0.0
220
0.0
230
1.0
 70
     8
 71
     3
 72
    45
 73
    41
 74
     0
 42
0.0000000001
 43
0.0000000001
 40
0.0
 40
0.0
 40
0.0
 40
0.0
 40
0.0625115757
 40
0.0937688518
 40
0.1250259597
 40
0.1562827291
 40
0.1875389474
 40
0.2187940598
 40
0.2500468983
 40
0.2812952793
 40
0.312534997
 40
0.3281613974
 40
0.3437865609
 40
0.359410268
 40
0.3672245784000001
 40
0.375038829
 40
0.3906607592
 40
0.4062832994
 40
0.4219067950000001
 40
0.437531351
 40
0.4687577455
 40
0.4999960433
 40
0.5312416245
 40
0.5624914359000001
 40
0.5937437421000001
 40
0.6249975683
 40
0.6562522267000001
 40
0.6875073535
 40
0.7187623628000001
 40
0.750016943
 40
0.7812707481000001
 40
0.8125232137999999
 40
0.8437735876000001
 40
0.8750206901
 40
0.9062627485
 40
0.9374975952999999
 40
0.9531239077
 40
0.9687497143999999
 40
0.984375014
 40
1.0
 40
1.0
 40
1.0
 40
1.0
 10
176167.5216415374
 20
-42620.73557702555
 30
0.0
 10
176153.2141521174
 20
-42621.28488319265
 30
0.0
 10
176131.7333143974
 20
-42621.73400850605
 30
0.0
 10
176103.0970299503
 20
-42621.31439931395
 30
0.0
 10
176081.6352954212
 20
-42620.39684471215
 30
0.0
 10
176060.2152071167
 20
-42618.76158226165
 30
0.0
 10
176038.8770531299
 20
-42616.25900882395
 30
0.0
 10
176017.6879958736
 20
-42612.69208402045
 30
0.0
 10
175996.7599611822
 20
-42607.79604540675
 30
0.0
 10
175976.2930593362
 20
-42601.21543200515
 30
0.0
 10
175959.8970286138
 20
-42593.92137821655
 30
0.0
 10
175947.5155657752
 20
-42586.71260978156
 30
0.0
 10
175938.7128078197
 20
-42580.54073507235
 30
0.0
 10
175931.9033242488
 20
-42574.71014956225
 30
0.0
 10
175926.8608263663
 20
-42569.62461935315
 30
0.0
 10
175922.1194590503
 20
-42564.25769741755
 30
0.0
 10
175916.7944568576
 20
-42557.04170781525
 30
0.0
 10
175911.4289329813
 20
-42547.71917963576
 30
0.0
 10
175907.0975783161
 20
-42537.87453291505
 30
0.0
 10
175902.6560923441
 20
-42524.25129219045
 30
0.0
 10
175899.4337058318
 20
-42506.56839251194
 30
0.0
 10
175898.6608694561
 20
-42485.06300546606
 30
0.0
 10
175900.3732558271
 20
-42463.62247851245
 30
0.0
 10
175904.1083255948
 20
-42442.45034408035
 30
0.0
 10
175909.5235021396
 20
-42421.64953611715
 30
0.0
 10
175916.3712848203
 20
-42401.27878524795
 30
0.0
 10
175924.4764406755
 20
-42381.37712207626
 30
0.0
 10
175933.7077438895
 20
-42361.97346343056
 30
0.0
 10
175944.0120339229
 20
-42343.11718459975
 30
0.0
 10
175955.4079184062
 20
-42324.89839780416
 30
0.0
 10
175967.9300797314
 20
-42307.43238382856
 30
0.0
 10
175981.6391813887
 20
-42290.87776398935
 30
0.0
 10
175996.6130008973
 20
-42275.45161177785
 30
0.0
 10
176012.9390074106
 20
-42261.45238177066
 30
0.0
 10
176030.6843418138
 20
-42249.28845701175
 30
0.0
 10
176046.6757911275
 20
-42241.12356308776
 30
0.0
 10
176060.0943245578
 20
-42236.10678790985
 30
0.0
 10
176070.4384476658
 20
-42233.17918405325
 30
0.0
 10
176080.9977182847
 20
-42231.16201230035
 30
0.0
 10
176088.133451304
 20
-42230.46292127555
 30
0.0
 10
176091.7076627851
 20
-42230.28093529635
 30
0.0
  0
LINE
  5
37357
330
1F
100
AcDbEntity
  8
0
100
AcDbLine
 10
176168.8139112466
 20
-42240.34790318275
 30
0.0
 11
176168.8889650349
 21
-42240.37969275935
 31
0.0
  0
SPLINE
  5
37358
330
1F
100
AcDbEntity
  8
TRAITS INTERIEURS FIN
100
AcDbSpline
210
0.0
220
0.0
230
1.0
 70
     8
 71
     3
 72
    14
 73
    10
 74
     0
 42
0.0000000001
 43
0.0000000001
 40
0.0
 40
0.0
 40
0.0
 40
0.0
 40
0.0886154687
 40
0.1845254841
 40
0.2922063275
 40
0.4133182229
 40
0.5472855758000001
 40
0.6919891323999999
 40
1.0
 40
1.0
 40
1.0
 40
1.0
 10
176221.6992046109
 20
-42311.45568217606
 30
0.0
 10
176221.4733469385
 20
-42311.79384339765
 30
0.0
 10
176220.8692717453
 20
-42312.41545260045
 30
0.0
 10
176219.6582825838
 20
-42313.03272168185
 30
0.0
 10
176218.1889488788
 20
-42313.34955385436
 30
0.0
 10
176216.5155081501
 20
-42313.36594019915
 30
0.0
 10
176214.6953698694
 20
-42313.08541398145
 30
0.0
 10
176212.1104908865
 20
-42312.31280916395
 30
0.0
 10
176210.2403853773
 20
-42311.35189539796
 30
0.0
 10
176209.0603336675
 20
-42310.57388804106
 30
0.0
  0
SPLINE
  5
37359
330
1F
100
AcDbEntity
  8
TRAITS INTERIEURS FIN
100
AcDbSpline
210
0.0
220
0.0
230
1.0
 70
     8
 71
     3
 72
    14
 73
    10
 74
     0
 42
0.0000000001
 43
0.0000000001
 40
0.0
 40
0.0
 40
0.0
 40
0.0
 40
0.307447636
 40
0.4517053411
 40
0.5852642329
 40
0.7061584812000001
 40
0.8139647934999999
 40
0.9104376973999999
 40
1.0
 40
1.0
 40
1.0
 40
1.0
 10
176209.0603336675
 20
-42310.57388804106
 30
0.0
 10
176207.881727538
 20
-42309.79683375435
 30
0.0
 10
176206.2637098394
 20
-42308.45873874815
 30
0.0
 10
176204.5448464111
 20
-42306.38523943795
 30
0.0
 10
176203.5817785418
 20
-42304.81960501696
 30
0.0
 10
176202.9537183041
 20
-42303.26937795726
 30
0.0
 10
176202.6861577828
 20
-42301.78672860056
 30
0.0
 10
176202.7993165584
 20
-42300.42365802165
 30
0.0
 10
176203.1472354759
 20
-42299.62189529955
 30
0.0
 10
176203.37563744
 20
-42299.27990957995
 30
0.0
  0
SPLINE
  5
3735A
330
1F
100
AcDbEntity
  8
TRAITS INTERIEURS FIN
100
AcDbSpline
210
0.0
220
0.0
230
1.0
 70
     8
 71
     3
 72
    11
 73
     7
 74
     0
 42
0.0000000001
 43
0.0000000001
 40
0.0
 40
0.0
 40
0.0
 40
0.0
 40
0.2499125846
 40
0.4998961902000001
 40
0.7499310435
 40
1.0
 40
1.0
 40
1.0
 40
1.0
 10
176091.7076627851
 20
-42230.28093529635
 30
0.0
 10
176097.9768697171
 20
-42229.96174838315
 30
0.0
 10
176110.585290798
 20
-42230.35310962445
 30
0.0
 10
176129.1961160478
 20
-42233.54254610986
 30
0.0
 10
176147.3215535213
 20
-42238.80013601726
 30
0.0
 10
176159.0358483082
 20
-42243.37788223696
 30
0.0
 10
176164.799962999
 20
-42245.87370771445
 30
0.0
  0
SPLINE
  5
3735B
330
1F
100
AcDbEntity
  8
TRAITS INTERIEURS FIN
100
AcDbSpline
210
0.0
220
0.0
230
1.0
 70
     8
 71
     3
 72
    11
 73
     7
 74
     0
 42
0.0000000001
 43
0.0000000001
 40
0.0
 40
0.0
 40
0.0
 40
0.0
 40
0.2499676242
 40
0.4999533535000001
 40
0.7499650935
 40
1.0
 40
1.0
 40
1.0
 40
1.0
 10
176164.799962999
 20
-42245.87370771445
 30
0.0
 10
176171.3929092586
 20
-42248.72861558475
 30
0.0
 10
176184.3460522014
 20
-42254.98606357225
 30
0.0
 10
176203.115501784
 20
-42265.60662637526
 30
0.0
 10
176221.3134887156
 20
-42277.17742672416
 30
0.0
 10
176233.1131372027
 20
-42285.38950494055
 30
0.0
 10
176238.9420855891
 20
-42289.59290723645
 30
0.0
  0
SPLINE
  5
3735C
330
1F
100
AcDbEntity
  8
TRAITS INTERIEURS FIN
100
AcDbSpline
210
0.0
220
0.0
230
1.0
 70
     8
 71
     3
 72
    38
 73
    34
 74
     0
 42
0.0000000001
 43
0.0000000001
 40
0.0
 40
0.0
 40
0.0
 40
0.0
 40
0.0625061384
 40
0.1250135414
 40
0.1875217061
 40
0.2500301805
 40
0.3125383478
 40
0.3750456212
 40
0.4375505495000001
 40
0.4688050720000001
 40
0.5000591844
 40
0.5313124039
 40
0.5625639325999999
 40
0.5938116383
 40
0.6250512677000001
 40
0.6406761572999999
 40
0.6562993575000001
 40
0.6719201143000002
 40
0.6875376903000001
 40
0.7031518909000001
 40
0.7187638673000001
 40
0.7343760219
 40
0.7499919752
 40
0.7656125522
 40
0.7812361305
 40
0.7968614570999999
 40
0.812487855
 40
0.843733315
 40
0.8749839573999999
 40
0.9062368495000001
 40
0.9374907984
 40
0.9687453898999999
 40
1.0
 40
1.0
 40
1.0
 40
1.0
 10
176238.9420855891
 20
-42289.59290723645
 30
0.0
 10
176246.8283844624
 20
-42295.27994388925
 30
0.0
 10
176262.3428825968
 20
-42307.01438482765
 30
0.0
 10
176284.9895081853
 20
-42325.40494045525
 30
0.0
 10
176307.1390395489
 20
-42344.38961513755
 30
0.0
 10
176328.9338880143
 20
-42363.77892877255
 30
0.0
 10
176350.3407382906
 20
-42383.59786005115
 30
0.0
 10
176371.1699802969
 20
-42404.02481180545
 30
0.0
 10
176387.8524844914
 20
-42421.71824784915
 30
0.0
 10
176400.588383007
 20
-42436.41730822105
 30
0.0
 10
176409.7566930507
 20
-42447.76474335945
 30
0.0
 10
176418.4342324379
 20
-42459.49336703125
 30
0.0
 10
176426.4662544362
 20
-42471.67698594806
 30
0.0
 10
176433.6164275995
 20
-42484.40109003945
 30
0.0
 10
176438.538023737
 20
-42495.54392137426
 30
0.0
 10
176441.5399670572
 20
-42504.79787005115
 30
0.0
 10
176443.2118186137
 20
-42511.90444146195
 30
0.0
 10
176444.169053021
 20
-42519.14525282405
 30
0.0
 10
176444.2564686562
 20
-42526.45319030495
 30
0.0
 10
176443.3232962718
 20
-42533.70715465274
 30
0.0
 10
176441.2710015245
 20
-42540.73093060565
 30
0.0
 10
176438.1052944352
 20
-42547.32938266495
 30
0.0
 10
176433.9488835603
 20
-42553.34637968585
 30
0.0
 10
176429.0550913713
 20
-42558.77028956845
 30
0.0
 10
176423.6249348119
 20
-42563.65105173825
 30
0.0
 10
176417.8049077361
 20
-42568.05520932585
 30
0.0
 10
176409.6622884525
 20
-42573.37700733946
 30
0.0
 10
176398.9449369004
 20
-42579.15023259076
 30
0.0
 10
176385.5835729443
 20
-42585.01798257095
 30
0.0
 10
176371.8933608376
 20
-42590.06617056906
 30
0.0
 10
176357.9813453537
 20
-42594.45898063395
 30
0.0
 10
176343.9119022873
 20
-42598.31367605006
 30
0.0
 10
176334.4551125368
 20
-42600.58213584465
 30
0.0
 10
176329.7124890618
 20
-42601.65165771255
 30
0.0
  0
SPLINE
  5
3735D
330
1F
100
AcDbEntity
  8
TRAITS INTERIEURS FIN
100
AcDbSpline
210
0.0
220
0.0
230
1.0
 70
     8
 71
     3
 72
    13
 73
     9
 74
     0
 42
0.0000000001
 43
0.0000000001
 40
0.0
 40
0.0
 40
0.0
 40
0.0
 40
0.1250008134
 40
0.2500024525
 40
0.3750050661
 40
0.5000079383
 40
0.7500027814
 40
1.0
 40
1.0
 40
1.0
 40
1.0
 10
176329.7124890618
 20
-42601.65165771255
 30
0.0
 10
176323.0739661365
 20
-42603.14887087285
 30
0.0
 10
176309.7391003177
 20
-42605.89088367465
 30
0.0
 10
176289.6201366654
 20
-42609.37525432905
 30
0.0
 10
176269.415748574
 20
-42612.32267306936
 30
0.0
 10
176242.3938561215
 20
-42615.62436149965
 30
0.0
 10
176208.4985646542
 20
-42618.70150109965
 30
0.0
 10
176181.3137739664
 20
-42620.20386832785
 30
0.0
 10
176167.7135867454
 20
-42620.72818733935
 30
0.0
  0
LINE
  5
3740A
330
1F
100
AcDbEntity
  8
AXES
 48
30.0
100
AcDbLine
 10
176142.9971967792
 20
-42375.37001685436
 30
0.0
 11
176142.9971967792
 21
-42458.37001685435
 31
0.0
  0
LINE
  5
3740B
330
1F
100
AcDbEntity
  8
AXES
 48
30.0
100
AcDbLine
 10
176101.4971967792
 20
-42416.87001685436
 30
0.0
 11
176184.4971967792
 21
-42416.87001685436
 31
0.0
  0
VIEWPORT
  5
3EF
330
23
100
AcDbEntity
 67
     1
  8
0
100
AcDbViewport
 10
2430.509960921944
 20
1187.184910510923
 30
0.0
 40
5551.528278373901
 41
2902.656214121211
 68
     2
 69
     1
 12
2430.509960921944
 22
1187.184910510923
 13
0.0
 23
0.0
 14
10.0
 24
10.0
 15
10.0
 25
10.0
 16
0.0
 26
0.0
 36
1.0
 17
0.0
 27
0.0
 37
0.0
 42
50.0
 43
0.0
 44
0.0
 45
2902.656214121211
 50
0.0
 51
0.0
 72
 20000
 90
    32800
  1

281
     0
 71
     1
 74
     0
110
0.0
120
0.0
130
0.0
111
1.0
121
0.0
131
0.0
112
0.0
122
1.0
132
0.0
 79
     0
146
0.0
170
     0
 61
     5
348
118D
292
     1
282
     1
141
0.0
142
0.0
 63
   250
421
  3355443
  0
VIEWPORT
  5
3F1
330
23
100
AcDbEntity
 67
     1
  8
0
100
AcDbViewport
 10
1439.016350385474
 20
985.0994206063571
 30
0.0
 40
2868.720496430637
 41
1963.626793872126
 68
     1
 69
     2
 12
4567.076136122964
 22
2046.23637355573
 13
0.0
 23
0.0
 14
10.0
 24
10.0
 15
10.0
 25
10.0
 16
0.0
 26
0.0
 36
1.0
 17
0.0
 27
0.0
 37
0.0
 42
50.0
 43
0.0
 44
0.0
 45
1828.293185278945
 50
0.0
 51
0.0
 72
 20000
 90
    32864
  1

281
     0
 71
     1
 74
     0
110
0.0
120
0.0
130
0.0
111
1.0
121
0.0
131
0.0
112
0.0
122
1.0
132
0.0
 79
     0
146
0.0
170
     0
 61
     5
348
118D
292
     1
282
     1
141
0.0
142
0.0
 63
   250
421
  3355443
  0
ENDSEC
  0
SECTION
  2
OBJECTS
  0
DICTIONARY
  5
C
330
0
100
AcDbDictionary
281
     1
  3
ACAD_COLOR
350
B78
  3
ACAD_GROUP
350
D
  3
ACAD_LAYOUT
350
1A
  3
ACAD_MATERIAL
350
B77
  3
ACAD_MLEADERSTYLE
350
11BC
  3
ACAD_MLINESTYLE
350
17
  3
ACAD_PLOTSETTINGS
350
19
  3
ACAD_PLOTSTYLENAME
350
E
  3
ACAD_SCALELIST
350
119A
  3
ACAD_TABLESTYLE
350
1198
  3
ACAD_VISUALSTYLE
350
1187
  3
ACDB_RECOMPOSE_DATA
350
377E7
  3
AcDbVariableDictionary
350
1200
  0
DICTIONARY
  5
11DC
330
8
100
AcDbDictionary
280
     1
281
     1
  0
DICTIONARY
  5
1263
330
2
100
AcDbDictionary
280
     1
281
     1
  3
ACAD_LAYERFILTERS
360
51D8
  3
ACAD_LAYERSTATES
360
13A3
  3
ACLYDICTIONARY
360
51D7
  0
DICTIONARY
  5
11C8
330
10
100
AcDbDictionary
280
     1
281
     1
  3
ADSK_XREC_LAYER_RECONCILED
360
11C9
  0
DICTIONARY
  5
11CA
330
2C
100
AcDbDictionary
280
     1
281
     1
  3
ADSK_XREC_LAYER_RECONCILED
360
11CB
  0
DICTIONARY
  5
11CC
330
2D
100
AcDbDictionary
280
     1
281
     1
  3
ADSK_XREC_LAYER_RECONCILED
360
11CD
  0
DICTIONARY
  5
11CE
330
B6E
100
AcDbDictionary
280
     1
281
     1
  3
ADSK_XREC_LAYER_RECONCILED
360
11CF
  0
DICTIONARY
  5
11D0
330
1154
100
AcDbDictionary
280
     1
281
     1
  3
ADSK_XREC_LAYER_RECONCILED
360
11D1
  0
DICTIONARY
  5
F6C
330
1F
100
AcDbDictionary
280
     1
281
     1
  3
ACAD_SORTENTS
360
F6D
  0
DICTIONARY
  5
10044
330
10040
100
AcDbDictionary
280
     1
281
     1
  3
ACAD_SORTENTS
360
10045
  0
DICTIONARY
  5
B78
102
{ACAD_REACTORS
330
C
102
}
330
C
100
AcDbDictionary
281
     1
  0
DICTIONARY
  5
D
102
{ACAD_REACTORS
330
C
102
}
330
C
100
AcDbDictionary
281
     1
  3
*A1
350
1139
  3
*A2
350
113A
  3
*A3
350
374AA
  3
*A4
350
375E7
  3
*A5
350
375E8
  3
*A6
350
375F1
  3
*A7
350
37633
  0
DICTIONARY
  5
1A
102
{ACAD_REACTORS
330
C
102
}
330
C
100
AcDbDictionary
281
     1
  3
Model
350
22
  3
Présentation1
350
1E
  3
Présentation2
350
26
  0
DICTIONARY
  5
B77
102
{ACAD_REACTORS
330
C
102
}
330
C
100
AcDbDictionary
281
     1
  3
ByBlock
350
1177
  3
ByLayer
350
116F
  3
Global
350
117F
  0
DICTIONARY
  5
11BC
102
{ACAD_REACTORS
330
C
102
}
330
C
100
AcDbDictionary
281
     1
  3
Standard
350
11BD
  0
DICTIONARY
  5
17
102
{ACAD_REACTORS
330
C
102
}
330
C
100
AcDbDictionary
281
     1
  3
Standard
350
18
  0
DICTIONARY
  5
19
102
{ACAD_REACTORS
330
C
102
}
330
C
100
AcDbDictionary
281
     1
  0
ACDBDICTIONARYWDFLT
  5
E
102
{ACAD_REACTORS
330
C
102
}
330
C
100
AcDbDictionary
281
     1
  3
Normal
350
F
100
AcDbDictionaryWithDefault
340
F
  0
DICTIONARY
  5
119A
102
{ACAD_REACTORS
330
C
102
}
330
C
100
AcDbDictionary
281
     1
  3
A0
350
119B
  3
A1
350
119C
  3
A2
350
119D
  3
A3
350
119E
  3
A4
350
119F
  3
A5
350
11A0
  3
A6
350
11A1
  3
A7
350
11A2
  3
A8
350
11A3
  3
A9
350
11A4
  3
B0
350
11A5
  3
B1
350
11A6
  3
B2
350
11A7
  3
B3
350
11A8
  3
B4
350
11A9
  3
B5
350
11AA
  3
B6
350
11AB
  3
B7
350
11AC
  3
B8
350
11AD
  3
B9
350
11AE
  3
C0
350
11AF
  3
C1
350
11B0
  3
C2
350
11B1
  3
C3
350
11B2
  3
C4
350
11B3
  3
C5
350
11B4
  3
C6
350
11B5
  3
C7
350
11B6
  3
C8
350
11B7
  3
C9
350
11B8
  3
D0
350
11B9
  3
D1
350
11BA
  3
D2
350
11BB
  0
DICTIONARY
  5
1198
102
{ACAD_REACTORS
330
C
102
}
330
C
100
AcDbDictionary
281
     1
  3
Standard
350
1199
  0
DICTIONARY
  5
1187
102
{ACAD_REACTORS
330
C
102
}
330
C
100
AcDbDictionary
281
     1
  3
2dWireframe
350
118D
  3
3D Hidden
350
118F
  3
3dWireframe
350
118E
  3
Basic
350
118C
  3
Brighten
350
1193
  3
ColorChange
350
1197
  3
Conceptual
350
1190
  3
Dim
350
1192
  3
EdgeColorOff
350
377A5
  3
Facepattern
350
1196
  3
Flat
350
1188
  3
FlatWithEdges
350
1189
  3
Gouraud
350
118A
  3
GouraudWithEdges
350
118B
  3
JitterOff
350
377A3
  3
Linepattern
350
1195
  3
OverhangOff
350
377A4
  3
Realistic
350
1191
  3
Thicken
350
1194
  0
XRECORD
  5
377E7
102
{ACAD_REACTORS
330
C
102
}
330
C
100
AcDbXrecord
280
     1
 90
        1
330
1199
  0
DICTIONARY
  5
1200
102
{ACAD_REACTORS
330
C
102
}
330
C
100
AcDbDictionary
281
     1
  3
CANNOSCALE
350
1203
  3
CMLEADERSTYLE
350
1202
  3
CTABLESTYLE
350
1201
  3
DIMASSOC
350
1206
  3
INDEXCTL
350
1205
  3
LAYEREVAL
350
377E4
  3
LAYERNOTIFY
350
377E5
  3
LIGHTINGUNITS
350
37778
  3
MSLTSCALE
350
37777
  3
SORTENTS
350
1204
  0
DICTIONARY
  5
51D8
102
{ACAD_REACTORS
330
1263
102
}
330
1263
100
AcDbDictionary
281
     1
  0
DICTIONARY
  5
13A3
102
{ACAD_REACTORS
330
1263
102
}
330
1263
100
AcDbDictionary
281
     1
  0
DICTIONARY
  5
51D7
102
{ACAD_REACTORS
330
1263
102
}
330
1263
100
AcDbDictionary
281
     1
1001
ACAD
1000
<AllUsed
  0
XRECORD
  5
11C9
102
{ACAD_REACTORS
330
11C8
102
}
330
11C8
100
AcDbXrecord
280
     1
290
     1
  0
XRECORD
  5
11CB
102
{ACAD_REACTORS
330
11CA
102
}
330
11CA
100
AcDbXrecord
280
     1
290
     1
  0
XRECORD
  5
11CD
102
{ACAD_REACTORS
330
11CC
102
}
330
11CC
100
AcDbXrecord
280
     1
290
     1
  0
XRECORD
  5
11CF
102
{ACAD_REACTORS
330
11CE
102
}
330
11CE
100
AcDbXrecord
280
     1
290
     1
  0
XRECORD
  5
11D1
102
{ACAD_REACTORS
330
11D0
102
}
330
11D0
100
AcDbXrecord
280
     1
290
     1
  0
SORTENTSTABLE
  5
F6D
102
{ACAD_REACTORS
330
F6C
102
}
330
F6C
100
AcDbSortentsTable
330
1F
331
3734F
  5
3745E
331
3734B
  5
3745A
331
37347
  5
37456
331
3735C
  5
3746B
331
37358
  5
37467
331
37354
  5
37463
331
37350
  5
3745F
331
3740B
  5
37471
331
3734E
  5
3745D
331
3734A
  5
37459
331
37346
  5
37455
331
3735B
  5
3746A
331
37357
  5
37466
331
37353
  5
37462
331
3740A
  5
37470
331
3734D
  5
3745C
331
37349
  5
37458
331
681
  5
32AC0
331
3735A
  5
37469
331
37356
  5
37465
331
37352
  5
37461
331
3734C
  5
3745B
331
37348
  5
37457
331
3735D
  5
3746C
331
37359
  5
37468
331
37355
  5
37464
331
37351
  5
37460
331
2CE81
  5
32AC1
  0
SORTENTSTABLE
  5
10045
102
{ACAD_REACTORS
330
10044
102
}
330
10044
100
AcDbSortentsTable
330
10040
  0
GROUP
  5
1139
102
{ACAD_REACTORS
330
D
102
}
330
D
100
AcDbGroup
300

 70
     1
 71
     1
  0
GROUP
  5
113A
102
{ACAD_REACTORS
330
D
102
}
330
D
100
AcDbGroup
300

 70
     1
 71
     1
  0
GROUP
  5
374AA
102
{ACAD_REACTORS
330
D
102
}
330
D
100
AcDbGroup
300

 70
     1
 71
     1
  0
GROUP
  5
375E7
102
{ACAD_REACTORS
330
D
102
}
330
D
100
AcDbGroup
300

 70
     1
 71
     1
  0
GROUP
  5
375E8
102
{ACAD_REACTORS
330
D
102
}
330
D
100
AcDbGroup
300

 70
     1
 71
     1
  0
GROUP
  5
375F1
102
{ACAD_REACTORS
330
D
102
}
330
D
100
AcDbGroup
300

 70
     1
 71
     1
  0
GROUP
  5
37633
102
{ACAD_REACTORS
330
D
102
}
330
D
100
AcDbGroup
300

 70
     1
 71
     1
  0
LAYOUT
  5
22
102
{ACAD_REACTORS
330
1A
102
}
330
1A
100
AcDbPlotSettings
  1

  2
PDF995
  4
A4
  6

 40
3.174999952316284
 41
3.174999952316284
 42
3.175003051757812
 43
3.17498779296875
 44
209.9733276367187
 45
296.9683227539062
 46
1.173510970580707
 47
0.0
 48
174749.0813833014
 49
-44851.59189328006
140
180409.0813833014
141
-40931.59189328005
142
1.0
143
19.47571545970111
 70
 11956
 72
     1
 73
     1
 74
     4
  7
table_couleur.ctb
 75
     0
147
0.0513459955845621
 76
     0
 77
     2
 78
   300
148
-174749.0813833014
149
44851.59189328006
100
AcDbLayout
  1
Model
 70
     1
 71
     0
 10
0.0
 20
0.0
 11
12.0
 21
9.0
 12
0.0
 22
0.0
 32
0.0
 14
0.0
 24
0.0
 34
0.0
 15
0.0
 25
0.0
 35
0.0
146
0.0
 13
0.0
 23
0.0
 33
0.0
 16
1.0
 26
0.0
 36
0.0
 17
0.0
 27
1.0
 37
0.0
 76
     0
330
1F
331
372E1
1001
ACAD_PSEXT
1000
PDF995
1000
PDF995 Printer Driver
1000
PDF995PORT
1000

1070
     0
  0
LAYOUT
  5
1E
102
{ACAD_REACTORS
330
1A
102
}
330
1A
100
AcDbPlotSettings
  1

  2
\\KEDOD0229\HP LaserJet 4V
  4
A4
  6

 40
6.805083274841308
 41
5.069413185119628
 42
6.805084228515625
 43
5.027069091796875
 44
209.9733276367187
 45
296.9683227539062
 46
0.0
 47
0.0
 48
0.0
 49
0.0
140
0.0
141
0.0
142
1.0
143
10.0
 70
   688
 72
     1
 73
     1
 74
     5
  7
aclt.ctb
 75
    20
147
0.1
 76
     1
 77
     2
 78
   300
148
0.0
149
0.0
100
AcDbLayout
  1
Présentation1
 70
     1
 71
     1
 10
-50.27069091796875
 20
-68.05083274841308
 11
2919.412536621094
 21
2031.682443618775
 12
0.0
 22
0.0
 32
0.0
 14
-49.60246442199059
 24
-66.00788451328753
 34
0.0
 15
2917.059049332895
 25
2030.635493671731
 35
0.0
146
0.0
 13
0.0
 23
0.0
 33
0.0
 16
1.0
 26
0.0
 36
0.0
 17
0.0
 27
1.0
 37
0.0
 76
     0
330
1B
331
10D6
  0
LAYOUT
  5
26
102
{ACAD_REACTORS
330
1A
102
}
330
1A
100
AcDbPlotSettings
  1

  2
\\KEDOD0229\HP LaserJet 4V
  4
A4
  6

 40
6.805083274841308
 41
5.069413185119628
 42
6.805084228515625
 43
5.027069091796875
 44
209.9733276367187
 45
296.9683227539062
 46
0.0
 47
0.0
 48
0.0
 49
0.0
140
0.0
141
0.0
142
1.0
143
10.0
 70
   688
 72
     1
 73
     1
 74
     1
  7
aclt.ctb
 75
    20
147
0.1
 76
     1
 77
     4
 78
   600
148
-4.65610217015574
149
-3.286023670294152
100
AcDbLayout
  1
Présentation2
 70
     1
 71
     2
 10
-45.614588747813
 20
-64.76480907811893
 11
2924.06863879125
 21
2034.968467289068
 12
0.0
 22
0.0
 32
0.0
 14
4.65610217015574
 24
3.286023670294071
 34
0.0
 15
2873.756768105222
 25
1966.91281754242
 35
0.0
146
0.0
 13
0.0
 23
0.0
 33
0.0
 16
1.0
 26
0.0
 36
0.0
 17
0.0
 27
1.0
 37
0.0
 76
     0
330
23
331
3F1
  0
MATERIAL
  5
1177
102
{ACAD_XDICTIONARY
360
1178
102
}
102
{ACAD_REACTORS
330
B77
102
}
330
B77
100
AcDbMaterial
  1
ByBlock
 72
     0
 43
0.0008202099737533
 43
0.0
 43
0.0
 43
0.0
 43
0.0
 43
0.0008202099737533
 43
0.0
 43
0.0
 43
0.0
 43
0.0
 43
1.0
 43
0.0
 43
0.0
 43
0.0
 43
0.0
 43
1.0
 77
     0
 47
0.0008202099737533
 47
0.0
 47
0.0
 47
0.0
 47
0.0
 47
0.0008202099737533
 47
0.0
 47
0.0
 47
0.0
 47
0.0
 47
1.0
 47
0.0
 47
0.0
 47
0.0
 47
0.0
 47
1.0
171
     0
 49
0.0008202099737533
 49
0.0
 49
0.0
 49
0.0
 49
0.0
 49
0.0008202099737533
 49
0.0
 49
0.0
 49
0.0
 49
0.0
 49
1.0
 49
0.0
 49
0.0
 49
0.0
 49
0.0
 49
1.0
175
     0
142
0.0008202099737533
142
0.0
142
0.0
142
0.0
142
0.0
142
0.0008202099737533
142
0.0
142
0.0
142
0.0
142
0.0
142
1.0
142
0.0
142
0.0
142
0.0
142
0.0
142
1.0
179
     0
144
0.0008202099737533
144
0.0
144
0.0
144
0.0
144
0.0
144
0.0008202099737533
144
0.0
144
0.0
144
0.0
144
0.0
144
1.0
144
0.0
144
0.0
144
0.0
144
0.0
144
1.0
147
0.0008202099737533
147
0.0
147
0.0
147
0.0
147
0.0
147
0.0008202099737533
147
0.0
147
0.0
147
0.0
147
0.0
147
1.0
147
0.0
147
0.0
147
0.0
147
0.0
147
1.0
  0
MATERIAL
  5
116F
102
{ACAD_XDICTIONARY
360
1170
102
}
102
{ACAD_REACTORS
330
B77
102
}
330
B77
100
AcDbMaterial
  1
ByLayer
 72
     0
 43
0.0008202099737533
 43
0.0
 43
0.0
 43
0.0
 43
0.0
 43
0.0008202099737533
 43
0.0
 43
0.0
 43
0.0
 43
0.0
 43
1.0
 43
0.0
 43
0.0
 43
0.0
 43
0.0
 43
1.0
 77
     0
 47
0.0008202099737533
 47
0.0
 47
0.0
 47
0.0
 47
0.0
 47
0.0008202099737533
 47
0.0
 47
0.0
 47
0.0
 47
0.0
 47
1.0
 47
0.0
 47
0.0
 47
0.0
 47
0.0
 47
1.0
171
     0
 49
0.0008202099737533
 49
0.0
 49
0.0
 49
0.0
 49
0.0
 49
0.0008202099737533
 49
0.0
 49
0.0
 49
0.0
 49
0.0
 49
1.0
 49
0.0
 49
0.0
 49
0.0
 49
0.0
 49
1.0
175
     0
142
0.0008202099737533
142
0.0
142
0.0
142
0.0
142
0.0
142
0.0008202099737533
142
0.0
142
0.0
142
0.0
142
0.0
142
1.0
142
0.0
142
0.0
142
0.0
142
0.0
142
1.0
179
     0
144
0.0008202099737533
144
0.0
144
0.0
144
0.0
144
0.0
144
0.0008202099737533
144
0.0
144
0.0
144
0.0
144
0.0
144
1.0
144
0.0
144
0.0
144
0.0
144
0.0
144
1.0
147
0.0008202099737533
147
0.0
147
0.0
147
0.0
147
0.0
147
0.0008202099737533
147
0.0
147
0.0
147
0.0
147
0.0
147
1.0
147
0.0
147
0.0
147
0.0
147
0.0
147
1.0
  0
MATERIAL
  5
117F
102
{ACAD_XDICTIONARY
360
1180
102
}
102
{ACAD_REACTORS
330
B77
102
}
330
B77
100
AcDbMaterial
  1
Global
 72
     0
 43
0.0008202099737533
 43
0.0
 43
0.0
 43
0.0
 43
0.0
 43
0.0008202099737533
 43
0.0
 43
0.0
 43
0.0
 43
0.0
 43
1.0
 43
0.0
 43
0.0
 43
0.0
 43
0.0
 43
1.0
 77
     0
 47
0.0008202099737533
 47
0.0
 47
0.0
 47
0.0
 47
0.0
 47
0.0008202099737533
 47
0.0
 47
0.0
 47
0.0
 47
0.0
 47
1.0
 47
0.0
 47
0.0
 47
0.0
 47
0.0
 47
1.0
171
     0
 49
0.0008202099737533
 49
0.0
 49
0.0
 49
0.0
 49
0.0
 49
0.0008202099737533
 49
0.0
 49
0.0
 49
0.0
 49
0.0
 49
1.0
 49
0.0
 49
0.0
 49
0.0
 49
0.0
 49
1.0
175
     0
142
0.0008202099737533
142
0.0
142
0.0
142
0.0
142
0.0
142
0.0008202099737533
142
0.0
142
0.0
142
0.0
142
0.0
142
1.0
142
0.0
142
0.0
142
0.0
142
0.0
142
1.0
179
     0
144
0.0008202099737533
144
0.0
144
0.0
144
0.0
144
0.0
144
0.0008202099737533
144
0.0
144
0.0
144
0.0
144
0.0
144
1.0
144
0.0
144
0.0
144
0.0
144
0.0
144
1.0
147
0.0008202099737533
147
0.0
147
0.0
147
0.0
147
0.0
147
0.0008202099737533
147
0.0
147
0.0
147
0.0
147
0.0
147
1.0
147
0.0
147
0.0
147
0.0
147
0.0
147
1.0
  0
MLEADERSTYLE
  5
11BD
102
{ACAD_REACTORS
330
11BC
102
}
330
11BC
100
AcDbMLeaderStyle
179
     2
170
     2
171
     1
172
     0
 90
        2
 40
0.0
 41
0.0
173
     1
 91
-1056964608
340
14
 92
       -2
290
     1
 42
0.09
291
     1
 43
0.36
  3
Standard
 44
0.18
300

342
11
174
     1
178
     6
175
     1
176
     0
 93
-1056964608
 45
0.18
292
     0
297
     0
 46
0.18
 94
-1056964608
 47
1.0
 49
1.0
140
1.0
293
     1
141
0.0
294
     1
177
     0
142
1.0
295
     0
296
     0
143
0.125
271
     0
272
     9
273
     9
  0
MLINESTYLE
  5
18
102
{ACAD_REACTORS
330
17
102
}
330
17
100
AcDbMlineStyle
  2
STANDARD
 70
     0
  3

 62
   256
 51
90.0
 52
90.0
 71
     2
 49
0.5
 62
   256
  6
BYLAYER
 49
-0.5
 62
   256
  6
BYLAYER
  0
ACDBPLACEHOLDER
  5
F
102
{ACAD_REACTORS
330
E
102
}
330
E
  0
SCALE
  5
119B
102
{ACAD_REACTORS
330
119A
102
}
330
119A
100
AcDbScale
 70
     0
300
1:1
140
1.0
141
1.0
290
     1
  0
SCALE
  5
119C
102
{ACAD_REACTORS
330
119A
102
}
330
119A
100
AcDbScale
 70
     0
300
1:2
140
1.0
141
2.0
290
     0
  0
SCALE
  5
119D
102
{ACAD_REACTORS
330
119A
102
}
330
119A
100
AcDbScale
 70
     0
300
1:4
140
1.0
141
4.0
290
     0
  0
SCALE
  5
119E
102
{ACAD_REACTORS
330
119A
102
}
330
119A
100
AcDbScale
 70
     0
300
1:5
140
1.0
141
5.0
290
     0
  0
SCALE
  5
119F
102
{ACAD_REACTORS
330
119A
102
}
330
119A
100
AcDbScale
 70
     0
300
1:8
140
1.0
141
8.0
290
     0
  0
SCALE
  5
11A0
102
{ACAD_REACTORS
330
119A
102
}
330
119A
100
AcDbScale
 70
     0
300
1:10
140
1.0
141
10.0
290
     0
  0
SCALE
  5
11A1
102
{ACAD_REACTORS
330
119A
102
}
330
119A
100
AcDbScale
 70
     0
300
1:16
140
1.0
141
16.0
290
     0
  0
SCALE
  5
11A2
102
{ACAD_REACTORS
330
119A
102
}
330
119A
100
AcDbScale
 70
     0
300
1:20
140
1.0
141
20.0
290
     0
  0
SCALE
  5
11A3
102
{ACAD_REACTORS
330
119A
102
}
330
119A
100
AcDbScale
 70
     0
300
1:30
140
1.0
141
30.0
290
     0
  0
SCALE
  5
11A4
102
{ACAD_REACTORS
330
119A
102
}
330
119A
100
AcDbScale
 70
     0
300
1:40
140
1.0
141
40.0
290
     0
  0
SCALE
  5
11A5
102
{ACAD_REACTORS
330
119A
102
}
330
119A
100
AcDbScale
 70
     0
300
1:50
140
1.0
141
50.0
290
     0
  0
SCALE
  5
11A6
102
{ACAD_REACTORS
330
119A
102
}
330
119A
100
AcDbScale
 70
     0
300
1:100
140
1.0
141
100.0
290
     0
  0
SCALE
  5
11A7
102
{ACAD_REACTORS
330
119A
102
}
330
119A
100
AcDbScale
 70
     0
300
2:1
140
2.0
141
1.0
290
     0
  0
SCALE
  5
11A8
102
{ACAD_REACTORS
330
119A
102
}
330
119A
100
AcDbScale
 70
     0
300
4:1
140
4.0
141
1.0
290
     0
  0
SCALE
  5
11A9
102
{ACAD_REACTORS
330
119A
102
}
330
119A
100
AcDbScale
 70
     0
300
8:1
140
8.0
141
1.0
290
     0
  0
SCALE
  5
11AA
102
{ACAD_REACTORS
330
119A
102
}
330
119A
100
AcDbScale
 70
     0
300
10:1
140
10.0
141
1.0
290
     0
  0
SCALE
  5
11AB
102
{ACAD_REACTORS
330
119A
102
}
330
119A
100
AcDbScale
 70
     0
300
100:1
140
100.0
141
1.0
290
     0
  0
SCALE
  5
11AC
102
{ACAD_REACTORS
330
119A
102
}
330
119A
100
AcDbScale
 70
     0
300
1/128" = 1'-0"
140
0.0078125
141
12.0
290
     0
  0
SCALE
  5
11AD
102
{ACAD_REACTORS
330
119A
102
}
330
119A
100
AcDbScale
 70
     0
300
1/64" = 1'-0"
140
0.015625
141
12.0
290
     0
  0
SCALE
  5
11AE
102
{ACAD_REACTORS
330
119A
102
}
330
119A
100
AcDbScale
 70
     0
300
1/32" = 1'-0"
140
0.03125
141
12.0
290
     0
  0
SCALE
  5
11AF
102
{ACAD_REACTORS
330
119A
102
}
330
119A
100
AcDbScale
 70
     0
300
1/16" = 1'-0"
140
0.0625
141
12.0
290
     0
  0
SCALE
  5
11B0
102
{ACAD_REACTORS
330
119A
102
}
330
119A
100
AcDbScale
 70
     0
300
3/32" = 1'-0"
140
0.09375
141
12.0
290
     0
  0
SCALE
  5
11B1
102
{ACAD_REACTORS
330
119A
102
}
330
119A
100
AcDbScale
 70
     0
300
1/8" = 1'-0"
140
0.125
141
12.0
290
     0
  0
SCALE
  5
11B2
102
{ACAD_REACTORS
330
119A
102
}
330
119A
100
AcDbScale
 70
     0
300
3/16" = 1'-0"
140
0.1875
141
12.0
290
     0
  0
SCALE
  5
11B3
102
{ACAD_REACTORS
330
119A
102
}
330
119A
100
AcDbScale
 70
     0
300
1/4" = 1'-0"
140
0.25
141
12.0
290
     0
  0
SCALE
  5
11B4
102
{ACAD_REACTORS
330
119A
102
}
330
119A
100
AcDbScale
 70
     0
300
3/8" = 1'-0"
140
0.375
141
12.0
290
     0
  0
SCALE
  5
11B5
102
{ACAD_REACTORS
330
119A
102
}
330
119A
100
AcDbScale
 70
     0
300
1/2" = 1'-0"
140
0.5
141
12.0
290
     0
  0
SCALE
  5
11B6
102
{ACAD_REACTORS
330
119A
102
}
330
119A
100
AcDbScale
 70
     0
300
3/4" = 1'-0"
140
0.75
141
12.0
290
     0
  0
SCALE
  5
11B7
102
{ACAD_REACTORS
330
119A
102
}
330
119A
100
AcDbScale
 70
     0
300
1" = 1'-0"
140
1.0
141
12.0
290
     0
  0
SCALE
  5
11B8
102
{ACAD_REACTORS
330
119A
102
}
330
119A
100
AcDbScale
 70
     0
300
1-1/2" = 1'-0"
140
1.5
141
12.0
290
     0
  0
SCALE
  5
11B9
102
{ACAD_REACTORS
330
119A
102
}
330
119A
100
AcDbScale
 70
     0
300
3" = 1'-0"
140
3.0
141
12.0
290
     0
  0
SCALE
  5
11BA
102
{ACAD_REACTORS
330
119A
102
}
330
119A
100
AcDbScale
 70
     0
300
6" = 1'-0"
140
6.0
141
12.0
290
     0
  0
SCALE
  5
11BB
102
{ACAD_REACTORS
330
119A
102
}
330
119A
100
AcDbScale
 70
     0
300
1'-0" = 1'-0"
140
12.0
141
12.0
290
     0
  0
TABLESTYLE
  5
1199
102
{ACAD_XDICTIONARY
360
11D8
102
}
102
{ACAD_REACTORS
330
1198
102
}
330
1198
100
AcDbTableStyle
280
     0
  3
Standard
 70
     0
 71
     0
 40
0.06
 41
0.06
280
     0
281
     0
  7
Standard
140
0.18
170
     2
 62
     0
 63
     7
283
     0
 90
      512
 91
        0
  1

274
    -2
284
     1
 64
     0
275
    -2
285
     1
 65
     0
276
    -2
286
     1
 66
     0
277
    -2
287
     1
 67
     0
278
    -2
288
     1
 68
     0
279
    -2
289
     1
 69
     0
  7
Standard
140
0.25
170
     5
 62
     0
 63
     7
283
     0
 90
      512
 91
        0
  1

274
    -2
284
     1
 64
     0
275
    -2
285
     1
 65
     0
276
    -2
286
     1
 66
     0
277
    -2
287
     1
 67
     0
278
    -2
288
     1
 68
     0
279
    -2
289
     1
 69
     0
  7
Standard
140
0.18
170
     5
 62
     0
 63
     7
283
     0
 90
      512
 91
        0
  1

274
    -2
284
     1
 64
     0
275
    -2
285
     1
 65
     0
276
    -2
286
     1
 66
     0
277
    -2
287
     1
 67
     0
278
    -2
288
     1
 68
     0
279
    -2
289
     1
 69
     0
  0
VISUALSTYLE
  5
118D
102
{ACAD_REACTORS
330
1187
102
}
330
1187
100
AcDbVisualStyle
  2
2dWireframe
 70
     4
177
     2
291
     0
 71
     0
176
     1
 72
     2
176
     1
 73
     0
176
     1
 90
        0
176
     1
 40
0.6
176
     1
 41
30.0
176
     1
 63
     7
176
     1
 74
     1
176
     1
 91
        4
176
     1
 64
     7
176
     1
 65
   257
176
     1
 75
     1
176
     1
175
     1
176
     1
 42
1.0
176
     1
 92
        0
176
     1
 66
   257
176
     1
 43
1.0
176
     1
 76
     1
176
     1
 77
     6
176
     1
 78
     2
176
     1
 67
     7
176
     1
 79
     5
176
     1
170
     0
176
     1
171
     0
176
     1
290
     0
176
     1
 93
        1
176
     1
 44
0.0
176
     1
173
     0
176
     1
  0
VISUALSTYLE
  5
118F
102
{ACAD_REACTORS
330
1187
102
}
330
1187
100
AcDbVisualStyle
  2
3D Hidden
 70
     6
177
     2
291
     0
 71
     1
176
     1
 72
     2
176
     1
 73
     2
176
     1
 90
        0
176
     1
 40
0.6
176
     1
 41
30.0
176
     1
 63
     7
176
     1
 74
     2
176
     1
 91
        2
176
     1
 64
     7
176
     1
 65
   257
176
     1
 75
     2
176
     1
175
     1
176
     1
 42
40.0
176
     1
 92
        0
176
     1
 66
   257
176
     1
 43
1.0
176
     1
 76
     1
176
     1
 77
     6
176
     1
 78
     2
176
     1
 67
     7
176
     1
 79
     3
176
     1
170
     0
176
     1
171
     0
176
     1
290
     0
176
     1
 93
        1
176
     1
 44
0.0
176
     1
173
     0
176
     1
  0
VISUALSTYLE
  5
118E
102
{ACAD_REACTORS
330
1187
102
}
330
1187
100
AcDbVisualStyle
  2
3dWireframe
 70
     5
177
     2
291
     0
 71
     0
176
     1
 72
     2
176
     1
 73
     0
176
     1
 90
        0
176
     1
 40
0.6
176
     1
 41
30.0
176
     1
 63
     7
176
     1
 74
     1
176
     1
 91
        4
176
     1
 64
     7
176
     1
 65
   257
176
     1
 75
     1
176
     1
175
     1
176
     1
 42
1.0
176
     1
 92
        0
176
     1
 66
   257
176
     1
 43
1.0
176
     1
 76
     1
176
     1
 77
     6
176
     1
 78
     2
176
     1
 67
     7
176
     1
 79
     5
176
     1
170
     0
176
     1
171
     0
176
     1
290
     0
176
     1
 93
        1
176
     1
 44
0.0
176
     1
173
     0
176
     1
  0
VISUALSTYLE
  5
118C
102
{ACAD_REACTORS
330
1187
102
}
330
1187
100
AcDbVisualStyle
  2
Basic
 70
     7
177
     2
291
     1
 71
     1
176
     1
 72
     0
176
     1
 73
     1
176
     1
 90
        0
176
     1
 40
0.6
176
     1
 41
30.0
176
     1
 63
     7
176
     1
 74
     0
176
     1
 91
        4
176
     1
 64
     7
176
     1
 65
   257
176
     1
 75
     1
176
     1
175
     1
176
     1
 42
1.0
176
     1
 92
        8
176
     1
 66
     7
176
     1
 43
1.0
176
     1
 76
     1
176
     1
 77
     6
176
     1
 78
     2
176
     1
 67
     7
176
     1
 79
     5
176
     1
170
     0
176
     1
171
     0
176
     1
290
     0
176
     1
 93
        1
176
     1
 44
0.0
176
     1
173
     0
176
     1
  0
VISUALSTYLE
  5
1193
102
{ACAD_REACTORS
330
1187
102
}
330
1187
100
AcDbVisualStyle
  2
Brighten
 70
    12
177
     2
291
     1
 71
     2
176
     1
 72
     2
176
     1
 73
     0
176
     1
 90
        0
176
     1
 40
0.6
176
     1
 41
30.0
176
     1
 63
     7
176
     1
 74
     1
176
     1
 91
        4
176
     1
 64
     7
176
     1
 65
   257
176
     1
 75
     1
176
     1
175
     1
176
     1
 42
1.0
176
     1
 92
        8
176
     1
 66
     7
176
     1
 43
1.0
176
     1
 76
     1
176
     1
 77
     6
176
     1
 78
     2
176
     1
 67
     7
176
     1
 79
     5
176
     1
170
     0
176
     1
171
     0
176
     1
290
     0
176
     1
 93
        1
176
     1
 44
50.0
176
     1
173
     0
176
     1
  0
VISUALSTYLE
  5
1197
102
{ACAD_REACTORS
330
1187
102
}
330
1187
100
AcDbVisualStyle
  2
ColorChange
 70
    16
177
     2
291
     1
 71
     2
176
     1
 72
     2
176
     1
 73
     3
176
     1
 90
        0
176
     1
 40
0.6
176
     1
 41
30.0
176
     1
 63
     8
176
     1
 74
     1
176
     1
 91
        4
176
     1
 64
     7
176
     1
 65
   257
176
     1
 75
     1
176
     1
175
     1
176
     1
 42
1.0
176
     1
 92
        8
176
     1
 66
     8
176
     1
 43
1.0
176
     1
 76
     1
176
     1
 77
     6
176
     1
 78
     2
176
     1
 67
     7
176
     1
 79
     5
176
     1
170
     0
176
     1
171
     0
176
     1
290
     0
176
     1
 93
        1
176
     1
 44
0.0
176
     1
173
     0
176
     1
  0
VISUALSTYLE
  5
1190
102
{ACAD_REACTORS
330
1187
102
}
330
1187
100
AcDbVisualStyle
  2
Conceptual
 70
     9
177
     2
291
     0
 71
     3
176
     1
 72
     2
176
     1
 73
     0
176
     1
 90
        0
176
     1
 40
0.6
176
     1
 41
30.0
176
     1
 63
     7
176
     1
 74
     2
176
     1
 91
        2
176
     1
 64
     7
176
     1
 65
   257
176
     1
 75
     1
176
     1
175
     1
176
     1
 42
40.0
176
     1
 92
        8
176
     1
 66
     7
176
     1
 43
1.0
176
     1
 76
     1
176
     1
 77
     6
176
     1
 78
     2
176
     1
 67
     7
176
     1
 79
     3
176
     1
170
     0
176
     1
171
     0
176
     1
290
     0
176
     1
 93
        1
176
     1
 44
0.0
176
     1
173
     0
176
     1
  0
VISUALSTYLE
  5
1192
102
{ACAD_REACTORS
330
1187
102
}
330
1187
100
AcDbVisualStyle
  2
Dim
 70
    11
177
     2
291
     1
 71
     2
176
     1
 72
     2
176
     1
 73
     0
176
     1
 90
        0
176
     1
 40
0.6
176
     1
 41
30.0
176
     1
 63
     7
176
     1
 74
     1
176
     1
 91
        4
176
     1
 64
     7
176
     1
 65
   257
176
     1
 75
     1
176
     1
175
     1
176
     1
 42
1.0
176
     1
 92
        8
176
     1
 66
     7
176
     1
 43
1.0
176
     1
 76
     1
176
     1
 77
     6
176
     1
 78
     2
176
     1
 67
     7
176
     1
 79
     5
176
     1
170
     0
176
     1
171
     0
176
     1
290
     0
176
     1
 93
        1
176
     1
 44
-50.0
176
     1
173
     0
176
     1
  0
VISUALSTYLE
  5
377A5
102
{ACAD_REACTORS
330
1187
102
}
330
1187
100
AcDbVisualStyle
  2
EdgeColorOff
 70
    22
177
     2
291
     1
 71
     2
176
     0
 72
     2
176
     0
 73
     0
176
     0
 90
        0
176
     0
 40
0.6
176
     0
 41
30.0
176
     0
 63
     7
421
 16777215
176
     0
 74
     1
176
     0
 91
        4
176
     0
 64
     7
176
     0
 65
   257
176
     0
 75
     1
176
     0
175
     1
176
     0
 42
1.0
176
     0
 92
        8
176
     2
 66
     7
176
     0
 43
1.0
176
     0
 76
     1
176
     0
 77
     6
176
     0
 78
     2
176
     0
 67
     7
176
     0
 79
     5
176
     0
170
     0
176
     0
171
     0
176
     0
290
     0
176
     0
 93
        1
176
     0
 44
0.0
176
     0
173
     0
176
     0
  0
VISUALSTYLE
  5
1196
102
{ACAD_REACTORS
330
1187
102
}
330
1187
100
AcDbVisualStyle
  2
Facepattern
 70
    15
177
     2
291
     1
 71
     2
176
     1
 72
     2
176
     1
 73
     0
176
     1
 90
        0
176
     1
 40
0.6
176
     1
 41
30.0
176
     1
 63
     7
176
     1
 74
     1
176
     1
 91
        4
176
     1
 64
     7
176
     1
 65
   257
176
     1
 75
     1
176
     1
175
     1
176
     1
 42
1.0
176
     1
 92
        8
176
     1
 66
     7
176
     1
 43
1.0
176
     1
 76
     1
176
     1
 77
     6
176
     1
 78
     2
176
     1
 67
     7
176
     1
 79
     5
176
     1
170
     0
176
     1
171
     0
176
     1
290
     0
176
     1
 93
        1
176
     1
 44
0.0
176
     1
173
     0
176
     1
  0
VISUALSTYLE
  5
1188
102
{ACAD_REACTORS
330
1187
102
}
330
1187
100
AcDbVisualStyle
  2
Flat
 70
     0
177
     2
291
     1
 71
     2
176
     1
 72
     1
176
     1
 73
     1
176
     1
 90
        2
176
     1
 40
0.6
176
     1
 41
30.0
176
     1
 63
     7
176
     1
 74
     0
176
     1
 91
        4
176
     1
 64
     7
176
     1
 65
   257
176
     1
 75
     1
176
     1
175
     1
176
     1
 42
1.0
176
     1
 92
        8
176
     1
 66
     7
176
     1
 43
1.0
176
     1
 76
     1
176
     1
 77
     6
176
     1
 78
     2
176
     1
 67
     7
176
     1
 79
     5
176
     1
170
     0
176
     1
171
     0
176
     1
290
     0
176
     1
 93
       13
176
     1
 44
0.0
176
     1
173
     0
176
     1
  0
VISUALSTYLE
  5
1189
102
{ACAD_REACTORS
330
1187
102
}
330
1187
100
AcDbVisualStyle
  2
FlatWithEdges
 70
     1
177
     2
291
     1
 71
     2
176
     1
 72
     1
176
     1
 73
     1
176
     1
 90
        2
176
     1
 40
0.6
176
     1
 41
30.0
176
     1
 63
     7
176
     1
 74
     1
176
     1
 91
        4
176
     1
 64
     7
176
     1
 65
   257
176
     1
 75
     1
176
     1
175
     1
176
     1
 42
1.0
176
     1
 92
        0
176
     1
 66
   257
176
     1
 43
1.0
176
     1
 76
     1
176
     1
 77
     6
176
     1
 78
     2
176
     1
 67
     7
176
     1
 79
     5
176
     1
170
     0
176
     1
171
     0
176
     1
290
     0
176
     1
 93
       13
176
     1
 44
0.0
176
     1
173
     0
176
     1
  0
VISUALSTYLE
  5
118A
102
{ACAD_REACTORS
330
1187
102
}
330
1187
100
AcDbVisualStyle
  2
Gouraud
 70
     2
177
     2
291
     1
 71
     2
176
     1
 72
     2
176
     1
 73
     1
176
     1
 90
        2
176
     1
 40
0.6
176
     1
 41
30.0
176
     1
 63
     7
176
     1
 74
     0
176
     1
 91
        4
176
     1
 64
     7
176
     1
 65
   257
176
     1
 75
     1
176
     1
175
     1
176
     1
 42
1.0
176
     1
 92
        0
176
     1
 66
     7
176
     1
 43
1.0
176
     1
 76
     1
176
     1
 77
     6
176
     1
 78
     2
176
     1
 67
     7
176
     1
 79
     5
176
     1
170
     0
176
     1
171
     0
176
     1
290
     0
176
     1
 93
       13
176
     1
 44
0.0
176
     1
173
     0
176
     1
  0
VISUALSTYLE
  5
118B
102
{ACAD_REACTORS
330
1187
102
}
330
1187
100
AcDbVisualStyle
  2
GouraudWithEdges
 70
     3
177
     2
291
     1
 71
     2
176
     1
 72
     2
176
     1
 73
     1
176
     1
 90
        2
176
     1
 40
0.6
176
     1
 41
30.0
176
     1
 63
     7
176
     1
 74
     1
176
     1
 91
        4
176
     1
 64
     7
176
     1
 65
   257
176
     1
 75
     1
176
     1
175
     1
176
     1
 42
1.0
176
     1
 92
        0
176
     1
 66
   257
176
     1
 43
1.0
176
     1
 76
     1
176
     1
 77
     6
176
     1
 78
     2
176
     1
 67
     7
176
     1
 79
     5
176
     1
170
     0
176
     1
171
     0
176
     1
290
     0
176
     1
 93
       13
176
     1
 44
0.0
176
     1
173
     0
176
     1
  0
VISUALSTYLE
  5
377A3
102
{ACAD_REACTORS
330
1187
102
}
330
1187
100
AcDbVisualStyle
  2
JitterOff
 70
    20
177
     2
291
     1
 71
     2
176
     0
 72
     2
176
     0
 73
     0
176
     0
 90
        0
176
     0
 40
0.6
176
     0
 41
30.0
176
     0
 63
     7
421
 16777215
176
     0
 74
     1
176
     0
 91
        4
176
     0
 64
     7
176
     0
 65
   257
176
     0
 75
     1
176
     0
175
     1
176
     0
 42
1.0
176
     0
 92
       10
176
     2
 66
     7
176
     0
 43
1.0
176
     0
 76
     1
176
     0
 77
     6
176
     0
 78
     2
176
     0
 67
     7
176
     0
 79
     5
176
     0
170
     0
176
     0
171
     0
176
     0
290
     0
176
     0
 93
        1
176
     0
 44
0.0
176
     0
173
     0
176
     0
  0
VISUALSTYLE
  5
1195
102
{ACAD_REACTORS
330
1187
102
}
330
1187
100
AcDbVisualStyle
  2
Linepattern
 70
    14
177
     2
291
     1
 71
     2
176
     1
 72
     2
176
     1
 73
     0
176
     1
 90
        0
176
     1
 40
0.6
176
     1
 41
30.0
176
     1
 63
     7
176
     1
 74
     1
176
     1
 91
        4
176
     1
 64
     7
176
     1
 65
   257
176
     1
 75
     7
176
     1
175
     7
176
     1
 42
1.0
176
     1
 92
        8
176
     1
 66
     7
176
     1
 43
1.0
176
     1
 76
     1
176
     1
 77
     6
176
     1
 78
     2
176
     1
 67
     7
176
     1
 79
     5
176
     1
170
     0
176
     1
171
     0
176
     1
290
     0
176
     1
 93
        1
176
     1
 44
0.0
176
     1
173
     0
176
     1
  0
VISUALSTYLE
  5
377A4
102
{ACAD_REACTORS
330
1187
102
}
330
1187
100
AcDbVisualStyle
  2
OverhangOff
 70
    21
177
     2
291
     1
 71
     2
176
     0
 72
     2
176
     0
 73
     0
176
     0
 90
        0
176
     0
 40
0.6
176
     0
 41
30.0
176
     0
 63
     7
421
 16777215
176
     0
 74
     1
176
     0
 91
        4
176
     0
 64
     7
176
     0
 65
   257
176
     0
 75
     1
176
     0
175
     1
176
     0
 42
1.0
176
     0
 92
        9
176
     2
 66
     7
176
     0
 43
1.0
176
     0
 76
     1
176
     0
 77
     6
176
     0
 78
     2
176
     0
 67
     7
176
     0
 79
     5
176
     0
170
     0
176
     0
171
     0
176
     0
290
     0
176
     0
 93
        1
176
     0
 44
0.0
176
     0
173
     0
176
     0
  0
VISUALSTYLE
  5
1191
102
{ACAD_REACTORS
330
1187
102
}
330
1187
100
AcDbVisualStyle
  2
Realistic
 70
     8
177
     2
291
     0
 71
     2
176
     1
 72
     2
176
     1
 73
     0
176
     1
 90
        0
176
     1
 40
0.6
176
     1
 41
30.0
176
     1
 63
     7
176
     1
 74
     1
176
     1
 91
        0
176
     1
 64
     7
176
     1
 65
   257
176
     1
 75
     1
176
     1
175
     1
176
     1
 42
1.0
176
     1
 92
        8
176
     1
 66
     8
176
     1
 43
1.0
176
     1
 76
     1
176
     1
 77
     6
176
     1
 78
     2
176
     1
 67
     7
176
     1
 79
     5
176
     1
170
     0
176
     1
171
     0
176
     1
290
     0
176
     1
 93
       13
176
     1
 44
0.0
176
     1
173
     0
176
     1
  0
VISUALSTYLE
  5
1194
102
{ACAD_REACTORS
330
1187
102
}
330
1187
100
AcDbVisualStyle
  2
Thicken
 70
    13
177
     2
291
     1
 71
     2
176
     1
 72
     2
176
     1
 73
     0
176
     1
 90
        0
176
     1
 40
0.6
176
     1
 41
30.0
176
     1
 63
     7
176
     1
 74
     1
176
     1
 91
        4
176
     1
 64
     7
176
     1
 65
   257
176
     1
 75
     1
176
     1
175
     1
176
     1
 42
1.0
176
     1
 92
       12
176
     1
 66
     7
176
     1
 43
1.0
176
     1
 76
     1
176
     1
 77
     6
176
     1
 78
     2
176
     1
 67
     7
176
     1
 79
     5
176
     1
170
     0
176
     1
171
     0
176
     1
290
     0
176
     1
 93
        1
176
     1
 44
0.0
176
     1
173
     0
176
     1
  0
DICTIONARYVAR
  5
1203
102
{ACAD_REACTORS
330
1200
102
}
330
1200
100
DictionaryVariables
280
     0
  1
1:1
  0
DICTIONARYVAR
  5
1202
102
{ACAD_REACTORS
330
1200
102
}
330
1200
100
DictionaryVariables
280
     0
  1
STANDARD
  0
DICTIONARYVAR
  5
1201
102
{ACAD_REACTORS
330
1200
102
}
330
1200
100
DictionaryVariables
280
     0
  1
STANDARD
  0
DICTIONARYVAR
  5
1206
102
{ACAD_REACTORS
330
1200
102
}
330
1200
100
DictionaryVariables
280
     0
  1
1
  0
DICTIONARYVAR
  5
1205
102
{ACAD_REACTORS
330
1200
102
}
330
1200
100
DictionaryVariables
280
     0
  1
0
  0
DICTIONARYVAR
  5
377E4
102
{ACAD_REACTORS
330
1200
102
}
330
1200
100
DictionaryVariables
280
     0
  1
1
  0
DICTIONARYVAR
  5
377E5
102
{ACAD_REACTORS
330
1200
102
}
330
1200
100
DictionaryVariables
280
     0
  1
15
  0
DICTIONARYVAR
  5
37778
102
{ACAD_REACTORS
330
1200
102
}
330
1200
100
DictionaryVariables
280
     0
  1
0
  0
DICTIONARYVAR
  5
37777
102
{ACAD_REACTORS
330
1200
102
}
330
1200
100
DictionaryVariables
280
     0
  1
0
  0
DICTIONARYVAR
  5
1204
102
{ACAD_REACTORS
330
1200
102
}
330
1200
100
DictionaryVariables
280
     0
  1
127
  0
DICTIONARY
  5
1178
330
1177
100
AcDbDictionary
280
     1
281
     1
  3
BUMPTILE
360
117A
  3
DIFFUSETILE
360
1179
  3
OPACITYTILE
360
117D
  3
REFLECTIONTILE
360
117C
  3
REFRACTIONTILE
360
117E
  3
SPECULARTILE
360
117B
  0
DICTIONARY
  5
1170
330
116F
100
AcDbDictionary
280
     1
281
     1
  3
BUMPTILE
360
1172
  3
DIFFUSETILE
360
1171
  3
OPACITYTILE
360
1175
  3
REFLECTIONTILE
360
1174
  3
REFRACTIONTILE
360
1176
  3
SPECULARTILE
360
1173
  0
DICTIONARY
  5
1180
330
117F
100
AcDbDictionary
280
     1
281
     1
  3
BUMPTILE
360
1182
  3
DIFFUSETILE
360
1181
  3
OPACITYTILE
360
1185
  3
REFLECTIONTILE
360
1184
  3
REFRACTIONTILE
360
1186
  3
SPECULARTILE
360
1183
  0
DICTIONARY
  5
11D8
330
1199
100
AcDbDictionary
280
     1
281
     1
  3
ACAD_ROUNDTRIP_2008_TABLESTYLE_CELLSTYLEMAP
360
377E6
  0
XRECORD
  5
117A
102
{ACAD_REACTORS
330
1178
102
}
330
1178
100
AcDbXrecord
280
     1
270
     1
271
     1
  0
XRECORD
  5
1179
102
{ACAD_REACTORS
330
1178
102
}
330
1178
100
AcDbXrecord
280
     1
270
     1
271
     1
  0
XRECORD
  5
117D
102
{ACAD_REACTORS
330
1178
102
}
330
1178
100
AcDbXrecord
280
     1
270
     1
271
     1
  0
XRECORD
  5
117C
102
{ACAD_REACTORS
330
1178
102
}
330
1178
100
AcDbXrecord
280
     1
270
     1
271
     1
  0
XRECORD
  5
117E
102
{ACAD_REACTORS
330
1178
102
}
330
1178
100
AcDbXrecord
280
     1
270
     1
271
     1
  0
XRECORD
  5
117B
102
{ACAD_REACTORS
330
1178
102
}
330
1178
100
AcDbXrecord
280
     1
270
     1
271
     1
  0
XRECORD
  5
1172
102
{ACAD_REACTORS
330
1170
102
}
330
1170
100
AcDbXrecord
280
     1
270
     1
271
     1
  0
XRECORD
  5
1171
102
{ACAD_REACTORS
330
1170
102
}
330
1170
100
AcDbXrecord
280
     1
270
     1
271
     1
  0
XRECORD
  5
1175
102
{ACAD_REACTORS
330
1170
102
}
330
1170
100
AcDbXrecord
280
     1
270
     1
271
     1
  0
XRECORD
  5
1174
102
{ACAD_REACTORS
330
1170
102
}
330
1170
100
AcDbXrecord
280
     1
270
     1
271
     1
  0
XRECORD
  5
1176
102
{ACAD_REACTORS
330
1170
102
}
330
1170
100
AcDbXrecord
280
     1
270
     1
271
     1
  0
XRECORD
  5
1173
102
{ACAD_REACTORS
330
1170
102
}
330
1170
100
AcDbXrecord
280
     1
270
     1
271
     1
  0
XRECORD
  5
1182
102
{ACAD_REACTORS
330
1180
102
}
330
1180
100
AcDbXrecord
280
     1
270
     1
271
     1
  0
XRECORD
  5
1181
102
{ACAD_REACTORS
330
1180
102
}
330
1180
100
AcDbXrecord
280
     1
270
     1
271
     1
  0
XRECORD
  5
1185
102
{ACAD_REACTORS
330
1180
102
}
330
1180
100
AcDbXrecord
280
     1
270
     1
271
     1
  0
XRECORD
  5
1184
102
{ACAD_REACTORS
330
1180
102
}
330
1180
100
AcDbXrecord
280
     1
270
     1
271
     1
  0
XRECORD
  5
1186
102
{ACAD_REACTORS
330
1180
102
}
330
1180
100
AcDbXrecord
280
     1
270
     1
271
     1
  0
XRECORD
  5
1183
102
{ACAD_REACTORS
330
1180
102
}
330
1180
100
AcDbXrecord
280
     1
270
     1
271
     1
  0
CELLSTYLEMAP
  5
377E6
102
{ACAD_REACTORS
330
11D8
102
}
330
11D8
100
AcDbCellStyleMap
 90
        3
300
CELLSTYLE
  1
TABLEFORMAT_BEGIN
 90
        5
170
     1
 91
        0
 92
    32768
 62
   257
 93
        1
300
CONTENTFORMAT
  1
CONTENTFORMAT_BEGIN
 90
        0
 91
        0
 92
      512
 93
        0
300

 40
0.0
140
1.0
 94
        5
 62
     0
340
11
144
0.25
309
CONTENTFORMAT_END
171
     1
301
MARGIN
  1
CELLMARGIN_BEGIN
 40
0.06
 40
0.06
 40
0.06
 40
0.06
 40
0.18
 40
0.18
309
CELLMARGIN_END
 94
        6
 95
        1
302
GRIDFORMAT
  1
GRIDFORMAT_BEGIN
 90
        0
 91
        1
 62
     0
 92
       -2
340
0
 93
        0
 40
0.045
309
GRIDFORMAT_END
 95
        2
302
GRIDFORMAT
  1
GRIDFORMAT_BEGIN
 90
        0
 91
        1
 62
     0
 92
       -2
340
0
 93
        0
 40
0.045
309
GRIDFORMAT_END
 95
        4
302
GRIDFORMAT
  1
GRIDFORMAT_BEGIN
 90
        0
 91
        1
 62
     0
 92
       -2
340
0
 93
        0
 40
0.045
309
GRIDFORMAT_END
 95
        8
302
GRIDFORMAT
  1
GRIDFORMAT_BEGIN
 90
        0
 91
        1
 62
     0
 92
       -2
340
0
 93
        0
 40
0.045
309
GRIDFORMAT_END
 95
       16
302
GRIDFORMAT
  1
GRIDFORMAT_BEGIN
 90
        0
 91
        1
 62
     0
 92
       -2
340
0
 93
        0
 40
0.045
309
GRIDFORMAT_END
 95
       32
302
GRIDFORMAT
  1
GRIDFORMAT_BEGIN
 90
        0
 91
        1
 62
     0
 92
       -2
340
0
 93
        0
 40
0.045
309
GRIDFORMAT_END
309
TABLEFORMAT_END
  1
CELLSTYLE_BEGIN
 90
        1
 91
        1
300
_TITLE
309
CELLSTYLE_END
300
CELLSTYLE
  1
TABLEFORMAT_BEGIN
 90
        5
170
     1
 91
        0
 92
        0
 62
   257
 93
        1
300
CONTENTFORMAT
  1
CONTENTFORMAT_BEGIN
 90
        0
 91
        0
 92
      512
 93
        0
300

 40
0.0
140
1.0
 94
        5
 62
     0
340
11
144
0.18
309
CONTENTFORMAT_END
171
     1
301
MARGIN
  1
CELLMARGIN_BEGIN
 40
0.06
 40
0.06
 40
0.06
 40
0.06
 40
0.18
 40
0.18
309
CELLMARGIN_END
 94
        6
 95
        1
302
GRIDFORMAT
  1
GRIDFORMAT_BEGIN
 90
        0
 91
        1
 62
     0
 92
       -2
340
0
 93
        0
 40
0.045
309
GRIDFORMAT_END
 95
        2
302
GRIDFORMAT
  1
GRIDFORMAT_BEGIN
 90
        0
 91
        1
 62
     0
 92
       -2
340
0
 93
        0
 40
0.045
309
GRIDFORMAT_END
 95
        4
302
GRIDFORMAT
  1
GRIDFORMAT_BEGIN
 90
        0
 91
        1
 62
     0
 92
       -2
340
0
 93
        0
 40
0.045
309
GRIDFORMAT_END
 95
        8
302
GRIDFORMAT
  1
GRIDFORMAT_BEGIN
 90
        0
 91
        1
 62
     0
 92
       -2
340
0
 93
        0
 40
0.045
309
GRIDFORMAT_END
 95
       16
302
GRIDFORMAT
  1
GRIDFORMAT_BEGIN
 90
        0
 91
        1
 62
     0
 92
       -2
340
0
 93
        0
 40
0.045
309
GRIDFORMAT_END
 95
       32
302
GRIDFORMAT
  1
GRIDFORMAT_BEGIN
 90
        0
 91
        1
 62
     0
 92
       -2
340
0
 93
        0
 40
0.045
309
GRIDFORMAT_END
309
TABLEFORMAT_END
  1
CELLSTYLE_BEGIN
 90
        2
 91
        1
300
_HEADER
309
CELLSTYLE_END
300
CELLSTYLE
  1
TABLEFORMAT_BEGIN
 90
        5
170
     1
 91
        0
 92
        0
 62
   257
 93
        1
300
CONTENTFORMAT
  1
CONTENTFORMAT_BEGIN
 90
        0
 91
        0
 92
      512
 93
        0
300

 40
0.0
140
1.0
 94
        2
 62
     0
340
11
144
0.18
309
CONTENTFORMAT_END
171
     1
301
MARGIN
  1
CELLMARGIN_BEGIN
 40
0.06
 40
0.06
 40
0.06
 40
0.06
 40
0.18
 40
0.18
309
CELLMARGIN_END
 94
        6
 95
        1
302
GRIDFORMAT
  1
GRIDFORMAT_BEGIN
 90
        0
 91
        1
 62
     0
 92
       -2
340
0
 93
        0
 40
0.045
309
GRIDFORMAT_END
 95
        2
302
GRIDFORMAT
  1
GRIDFORMAT_BEGIN
 90
        0
 91
        1
 62
     0
 92
       -2
340
0
 93
        0
 40
0.045
309
GRIDFORMAT_END
 95
        4
302
GRIDFORMAT
  1
GRIDFORMAT_BEGIN
 90
        0
 91
        1
 62
     0
 92
       -2
340
0
 93
        0
 40
0.045
309
GRIDFORMAT_END
 95
        8
302
GRIDFORMAT
  1
GRIDFORMAT_BEGIN
 90
        0
 91
        1
 62
     0
 92
       -2
340
0
 93
        0
 40
0.045
309
GRIDFORMAT_END
 95
       16
302
GRIDFORMAT
  1
GRIDFORMAT_BEGIN
 90
        0
 91
        1
 62
     0
 92
       -2
340
0
 93
        0
 40
0.045
309
GRIDFORMAT_END
 95
       32
302
GRIDFORMAT
  1
GRIDFORMAT_BEGIN
 90
        0
 91
        1
 62
     0
 92
       -2
340
0
 93
        0
 40
0.045
309
GRIDFORMAT_END
309
TABLEFORMAT_END
  1
CELLSTYLE_BEGIN
 90
        3
 91
        2
300
_DATA
309
CELLSTYLE_END
  0
ENDSEC
  0
EOF
