  0
SECTION
  2
HEADER
  9
$ACADVER
  1
AC1024
  9
$ACADMAINTVER
 70
     6
  9
$DWGCODEPAGE
  3
ANSI_1252
  9
$LASTSAVEDBY
  1
ko72881
  9
$INSBASE
 10
0.0
 20
0.0
 30
0.0
  9
$EXTMIN
 10
177097.5254357839
 20
-42556.09878648539
 30
-0.0000000000000058
  9
$EXTMAX
 10
177598.4059880921
 20
-42363.20030192782
 30
0.0000000000000104
  9
$LIMMIN
 10
0.0
 20
0.0
  9
$LIMMAX
 10
420.0
 20
297.0
  9
$ORTHOMODE
 70
     0
  9
$REGENMODE
 70
     1
  9
$FILLMODE
 70
     1
  9
$QTEXTMODE
 70
     0
  9
$MIRRTEXT
 70
     1
  9
$LTSCALE
 40
1.0
  9
$ATTMODE
 70
     1
  9
$TEXTSIZE
 40
2.5
  9
$TRACEWID
 40
1.0
  9
$TEXTSTYLE
  7
Standard
  9
$CLAYER
  8
COTATION
  9
$CELTYPE
  6
ByLayer
  9
$CECOLOR
 62
   256
  9
$CELTSCALE
 40
30.0
  9
$DISPSILH
 70
     0
  9
$DIMSCALE
 40
0.0
  9
$DIMASZ
 40
50.0
  9
$DIMEXO
 40
45.0
  9
$DIMDLI
 40
20.182
  9
$DIMRND
 40
0.0
  9
$DIMDLE
 40
0.0
  9
$DIMEXE
 40
10.0
  9
$DIMTP
 40
0.0
  9
$DIMTM
 40
0.0
  9
$DIMTXT
 40
50.0
  9
$DIMCEN
 40
0.0
  9
$DIMTSZ
 40
0.0
  9
$DIMTOL
 70
     0
  9
$DIMLIM
 70
     0
  9
$DIMTIH
 70
     1
  9
$DIMTOH
 70
     1
  9
$DIMSE1
 70
     0
  9
$DIMSE2
 70
     0
  9
$DIMTAD
 70
     0
  9
$DIMZIN
 70
     8
  9
$DIMBLK
  1

  9
$DIMASO
 70
     1
  9
$DIMSHO
 70
     1
  9
$DIMPOST
  1

  9
$DIMAPOST
  1

  9
$DIMALT
 70
     0
  9
$DIMALTD
 70
     3
  9
$DIMALTF
 40
0.03937007874016
  9
$DIMLFAC
 40
1.0
  9
$DIMTOFL
 70
     0
  9
$DIMTVP
 40
0.0
  9
$DIMTIX
 70
     0
  9
$DIMSOXD
 70
     0
  9
$DIMSAH
 70
     0
  9
$DIMBLK1
  1

  9
$DIMBLK2
  1

  9
$DIMSTYLE
  2
ISO-25
  9
$DIMCLRD
 70
   256
  9
$DIMCLRE
 70
   256
  9
$DIMCLRT
 70
     0
  9
$DIMTFAC
 40
1.0
  9
$DIMGAP
 40
35.0
  9
$DIMJUST
 70
     0
  9
$DIMSD1
 70
     0
  9
$DIMSD2
 70
     0
  9
$DIMTOLJ
 70
     0
  9
$DIMTZIN
 70
     8
  9
$DIMALTZ
 70
     0
  9
$DIMALTTZ
 70
     0
  9
$DIMUPT
 70
     0
  9
$DIMDEC
 70
     0
  9
$DIMTDEC
 70
     0
  9
$DIMALTU
 70
     2
  9
$DIMALTTD
 70
     3
  9
$DIMTXSTY
  7
Standard
  9
$DIMAUNIT
 70
     0
  9
$DIMADEC
 70
     0
  9
$DIMALTRND
 40
0.0
  9
$DIMAZIN
 70
     0
  9
$DIMDSEP
 70
    44
  9
$DIMATFIT
 70
     3
  9
$DIMFRAC
 70
     0
  9
$DIMLDRBLK
  1

  9
$DIMLUNIT
 70
     2
  9
$DIMLWD
 70
    -1
  9
$DIMLWE
 70
    -1
  9
$DIMTMOVE
 70
     0
  9
$DIMFXL
 40
1.0
  9
$DIMFXLON
 70
     0
  9
$DIMJOGANG
 40
0.7853981633974483
  9
$DIMTFILL
 70
     0
  9
$DIMTFILLCLR
 70
     0
  9
$DIMARCSYM
 70
     0
  9
$DIMLTYPE
  6

  9
$DIMLTEX1
  6

  9
$DIMLTEX2
  6

  9
$DIMTXTDIRECTION
 70
     0
  9
$LUNITS
 70
     2
  9
$LUPREC
 70
     4
  9
$SKETCHINC
 40
1.0
  9
$FILLETRAD
 40
5.0
  9
$AUNITS
 70
     0
  9
$AUPREC
 70
     0
  9
$MENU
  1
.
  9
$ELEVATION
 40
0.0
  9
$PELEVATION
 40
0.0
  9
$THICKNESS
 40
0.0
  9
$LIMCHECK
 70
     0
  9
$CHAMFERA
 40
10.0
  9
$CHAMFERB
 40
10.0
  9
$CHAMFERC
 40
20.0
  9
$CHAMFERD
 40
0.0
  9
$SKPOLY
 70
     0
  9
$TDCREATE
 40
2451814.422419329
  9
$TDUCREATE
 40
2451814.380752662
  9
$TDUPDATE
 40
2458568.345662176
  9
$TDUUPDATE
 40
2458568.303995509
  9
$TDINDWG
 40
6.0055849306
  9
$TDUSRTIMER
 40
6.0055849306
  9
$USRTIMER
 70
     1
  9
$ANGBASE
 50
0.0
  9
$ANGDIR
 70
     0
  9
$PDMODE
 70
     0
  9
$PDSIZE
 40
0.0
  9
$PLINEWID
 40
0.0
  9
$SPLFRAME
 70
     0
  9
$SPLINETYPE
 70
     6
  9
$SPLINESEGS
 70
     8
  9
$HANDSEED
  5
377E8
  9
$SURFTAB1
 70
     6
  9
$SURFTAB2
 70
     6
  9
$SURFTYPE
 70
     6
  9
$SURFU
 70
     6
  9
$SURFV
 70
     6
  9
$UCSBASE
  2

  9
$UCSNAME
  2

  9
$UCSORG
 10
0.0
 20
0.0
 30
0.0
  9
$UCSXDIR
 10
1.0
 20
0.0
 30
0.0
  9
$UCSYDIR
 10
0.0
 20
1.0
 30
0.0
  9
$UCSORTHOREF
  2

  9
$UCSORTHOVIEW
 70
     0
  9
$UCSORGTOP
 10
0.0
 20
0.0
 30
0.0
  9
$UCSORGBOTTOM
 10
0.0
 20
0.0
 30
0.0
  9
$UCSORGLEFT
 10
0.0
 20
0.0
 30
0.0
  9
$UCSORGRIGHT
 10
0.0
 20
0.0
 30
0.0
  9
$UCSORGFRONT
 10
0.0
 20
0.0
 30
0.0
  9
$UCSORGBACK
 10
0.0
 20
0.0
 30
0.0
  9
$PUCSBASE
  2

  9
$PUCSNAME
  2

  9
$PUCSORG
 10
0.0
 20
0.0
 30
0.0
  9
$PUCSXDIR
 10
1.0
 20
0.0
 30
0.0
  9
$PUCSYDIR
 10
0.0
 20
1.0
 30
0.0
  9
$PUCSORTHOREF
  2

  9
$PUCSORTHOVIEW
 70
     0
  9
$PUCSORGTOP
 10
0.0
 20
0.0
 30
0.0
  9
$PUCSORGBOTTOM
 10
0.0
 20
0.0
 30
0.0
  9
$PUCSORGLEFT
 10
0.0
 20
0.0
 30
0.0
  9
$PUCSORGRIGHT
 10
0.0
 20
0.0
 30
0.0
  9
$PUCSORGFRONT
 10
0.0
 20
0.0
 30
0.0
  9
$PUCSORGBACK
 10
0.0
 20
0.0
 30
0.0
  9
$USERI1
 70
     0
  9
$USERI2
 70
     0
  9
$USERI3
 70
     0
  9
$USERI4
 70
     0
  9
$USERI5
 70
     0
  9
$USERR1
 40
0.0
  9
$USERR2
 40
0.0
  9
$USERR3
 40
0.0
  9
$USERR4
 40
0.0
  9
$USERR5
 40
0.0
  9
$WORLDVIEW
 70
     1
  9
$SHADEDGE
 70
     3
  9
$SHADEDIF
 70
    70
  9
$TILEMODE
 70
     1
  9
$MAXACTVP
 70
    64
  9
$PINSBASE
 10
0.0
 20
0.0
 30
0.0
  9
$PLIMCHECK
 70
     0
  9
$PEXTMIN
 10
4.65610217015574
 20
3.286023670294071
 30
0.0
  9
$PEXTMAX
 10
2873.756768105222
 20
1966.91281754242
 30
0.0
  9
$PLIMMIN
 10
-45.614588747813
 20
-64.76480907811893
  9
$PLIMMAX
 10
2924.06863879125
 20
2034.968467289068
  9
$UNITMODE
 70
     0
  9
$VISRETAIN
 70
     1
  9
$PLINEGEN
 70
     0
  9
$PSLTSCALE
 70
     1
  9
$TREEDEPTH
 70
  3020
  9
$CMLSTYLE
  2
Standard
  9
$CMLJUST
 70
     0
  9
$CMLSCALE
 40
20.0
  9
$PROXYGRAPHICS
 70
     1
  9
$MEASUREMENT
 70
     0
  9
$CELWEIGHT
370
    -1
  9
$ENDCAPS
280
     0
  9
$JOINSTYLE
280
     0
  9
$LWDISPLAY
290
     0
  9
$INSUNITS
 70
     4
  9
$HYPERLINKBASE
  1

  9
$STYLESHEET
  1
table_couleur.ctb
  9
$XEDIT
290
     1
  9
$CEPSNTYPE
380
     0
  9
$PSTYLEMODE
290
     1
  9
$FINGERPRINTGUID
  2
{3D662E1A-938F-11D4-85B7-00C04F172506}
  9
$VERSIONGUID
  2
{948C2E28-8DE2-4504-B10E-25513B04A21E}
  9
$EXTNAMES
290
     1
  9
$PSVPSCALE
 40
0.0
  9
$OLESTARTUP
290
     1
  9
$SORTENTS
280
   127
  9
$INDEXCTL
280
     0
  9
$HIDETEXT
280
     0
  9
$XCLIPFRAME
280
     0
  9
$HALOGAP
280
     0
  9
$OBSCOLOR
 70
   257
  9
$OBSLTYPE
280
     0
  9
$INTERSECTIONDISPLAY
280
     0
  9
$INTERSECTIONCOLOR
 70
   257
  9
$DIMASSOC
280
     1
  9
$PROJECTNAME
  1

  9
$CAMERADISPLAY
290
     0
  9
$LENSLENGTH
 40
50.0
  9
$CAMERAHEIGHT
 40
0.0
  9
$STEPSPERSEC
 40
2.0
  9
$STEPSIZE
 40
6.0
  9
$3DDWFPREC
 40
2.0
  9
$PSOLWIDTH
 40
0.25
  9
$PSOLHEIGHT
 40
4.0
  9
$LOFTANG1
 40
1.570796326794896
  9
$LOFTANG2
 40
1.570796326794896
  9
$LOFTMAG1
 40
0.0
  9
$LOFTMAG2
 40
0.0
  9
$LOFTPARAM
 70
     7
  9
$LOFTNORMALS
280
     1
  9
$LATITUDE
 40
37.795
  9
$LONGITUDE
 40
-122.394
  9
$NORTHDIRECTION
 40
0.0
  9
$TIMEZONE
 70
 -8000
  9
$LIGHTGLYPHDISPLAY
280
     1
  9
$TILEMODELIGHTSYNCH
280
     1
  9
$CMATERIAL
347
116F
  9
$SOLIDHIST
280
     1
  9
$SHOWHIST
280
     1
  9
$DWFFRAME
280
     2
  9
$DGNFRAME
280
     0
  9
$REALWORLDSCALE
290
     1
  9
$INTERFERECOLOR
 62
     1
  9
$INTERFEREOBJVS
345
1191
  9
$INTERFEREVPVS
346
118E
  9
$CSHADOW
280
     0
  9
$SHADOWPLANELOCATION
 40
0.0
  0
ENDSEC
  0
SECTION
  2
CLASSES
  0
CLASS
  1
ACDBDICTIONARYWDFLT
  2
AcDbDictionaryWithDefault
  3
ObjectDBX Classes
 90
        0
 91
        1
280
     0
281
     0
  0
CLASS
  1
SORTENTSTABLE
  2
AcDbSortentsTable
  3
ObjectDBX Classes
 90
        0
 91
        2
280
     0
281
     0
  0
CLASS
  1
MATERIAL
  2
AcDbMaterial
  3
ObjectDBX Classes
 90
     1153
 91
        3
280
     0
281
     0
  0
CLASS
  1
VISUALSTYLE
  2
AcDbVisualStyle
  3
ObjectDBX Classes
 90
     4095
 91
       19
280
     0
281
     0
  0
CLASS
  1
TABLESTYLE
  2
AcDbTableStyle
  3
ObjectDBX Classes
 90
     4095
 91
        1
280
     0
281
     0
  0
CLASS
  1
SCALE
  2
AcDbScale
  3
ObjectDBX Classes
 90
     1153
 91
       33
280
     0
281
     0
  0
CLASS
  1
MLEADERSTYLE
  2
AcDbMLeaderStyle
  3
ACDB_MLEADERSTYLE_CLASS
 90
     4095
 91
        1
280
     0
281
     0
  0
CLASS
  1
CELLSTYLEMAP
  2
AcDbCellStyleMap
  3
ObjectDBX Classes
 90
     1152
 91
        3
280
     0
281
     0
  0
CLASS
  1
DICTIONARYVAR
  2
AcDbDictionaryVar
  3
ObjectDBX Classes
 90
        0
 91
       10
280
     0
281
     0
  0
CLASS
  1
ACDB_ALDIMOBJECTCONTEXTDATA_CLASS
  2
AcDbAlignedDimensionObjectContextData
  3
ObjectDBX Classes
 90
     1153
 91
        0
280
     0
281
     0
  0
ENDSEC
  0
SECTION
  2
TABLES
  0
TABLE
  2
VPORT
  5
8
102
{ACAD_XDICTIONARY
360
11DC
102
}
330
0
100
AcDbSymbolTable
 70
     1
  0
VPORT
  5
372E1
330
8
100
AcDbSymbolTableRecord
100
AcDbViewportTableRecord
  2
*Active
 70
     0
 10
0.0
 20
0.0
 11
1.0
 21
1.0
 12
177347.965711938
 22
-42459.6495442066
 13
0.0
 23
0.0
 14
10.0
 24
10.0
 15
10.0
 25
10.0
 16
0.0
 26
0.0
 36
1.0
 17
0.0
 27
0.0
 37
0.0
 40
195.2461334568506
 41
2.766260162601626
 42
50.0
 43
0.0
 44
0.0
 50
0.0
 51
0.0
 71
     0
 72
 20000
 73
     1
 74
     3
 75
     0
 76
     0
 77
     0
 78
     0
281
     0
 65
     1
110
0.0
120
0.0
130
0.0
111
1.0
121
0.0
131
0.0
112
0.0
122
1.0
132
0.0
 79
     0
146
0.0
348
118D
 60
     3
 61
     5
292
     1
282
     1
141
0.0
142
0.0
 63
   250
421
  3355443
  0
ENDTAB
  0
TABLE
  2
LTYPE
  5
5
330
0
100
AcDbSymbolTable
 70
     4
  0
LTYPE
  5
14
330
5
100
AcDbSymbolTableRecord
100
AcDbLinetypeTableRecord
  2
ByBlock
 70
     0
  3

 72
    65
 73
     0
 40
0.0
  0
LTYPE
  5
15
330
5
100
AcDbSymbolTableRecord
100
AcDbLinetypeTableRecord
  2
ByLayer
 70
     0
  3

 72
    65
 73
     0
 40
0.0
  0
LTYPE
  5
16
330
5
100
AcDbSymbolTableRecord
100
AcDbLinetypeTableRecord
  2
Continuous
 70
     0
  3
Solid line
 72
    65
 73
     0
 40
0.0
  0
LTYPE
  5
1151
330
5
100
AcDbSymbolTableRecord
100
AcDbLinetypeTableRecord
  2
AXES
 70
     0
  3
Centre ____ _ ____ _ ____ _ ____ _ ____ _ ____
 72
    65
 73
     4
 40
2.0
 49
1.25
 74
     0
 49
-0.25
 74
     0
 49
0.25
 74
     0
 49
-0.25
 74
     0
  0
LTYPE
  5
D3F0
330
5
100
AcDbSymbolTableRecord
100
AcDbLinetypeTableRecord
  2
CACHE
 70
     0
  3
Caché __ __ __ __ __ __ __ __ __ __ __ __ __ __
 72
    65
 73
     2
 40
9.524999999999998
 49
6.349999999999999
 74
     0
 49
-3.174999999999999
 74
     0
  0
LTYPE
  5
12266
330
5
100
AcDbSymbolTableRecord
100
AcDbLinetypeTableRecord
  2
ACAD_ISO02W100
 70
     0
  3
ISO interrompu __ __ __ __ __ __ __ __ __ __ __
 72
    65
 73
     2
 40
15.0
 49
12.0
 74
     0
 49
-3.0
 74
     0
  0
ENDTAB
  0
TABLE
  2
LAYER
  5
2
102
{ACAD_XDICTIONARY
360
1263
102
}
330
0
100
AcDbSymbolTable
 70
     9
  0
LAYER
  5
10
102
{ACAD_XDICTIONARY
360
11C8
102
}
330
2
100
AcDbSymbolTableRecord
100
AcDbLayerTableRecord
  2
0
 70
     0
 62
     7
  6
Continuous
370
    60
390
F
347
117F
  0
LAYER
  5
2C
102
{ACAD_XDICTIONARY
360
11CA
102
}
330
2
100
AcDbSymbolTableRecord
100
AcDbLayerTableRecord
  2
CARTOUCHE
 70
     0
 62
     7
  6
Continuous
370
    30
390
F
347
117F
  0
LAYER
  5
2D
102
{ACAD_XDICTIONARY
360
11CC
102
}
330
2
100
AcDbSymbolTableRecord
100
AcDbLayerTableRecord
  2
BORDS CARTOUCHE
 70
     0
 62
     6
  6
Continuous
370
    60
390
F
347
117F
  0
LAYER
  5
1C5
330
2
100
AcDbSymbolTableRecord
100
AcDbLayerTableRecord
  2
Defpoints
 70
     0
 62
     7
  6
Continuous
290
     0
370
    -3
390
F
347
117F
  0
LAYER
  5
B6E
102
{ACAD_XDICTIONARY
360
11CE
102
}
330
2
100
AcDbSymbolTableRecord
100
AcDbLayerTableRecord
  2
COTATION
 70
     0
 62
     7
  6
Continuous
370
    25
390
F
347
117F
  0
LAYER
  5
1154
102
{ACAD_XDICTIONARY
360
11D0
102
}
330
2
100
AcDbSymbolTableRecord
100
AcDbLayerTableRecord
  2
AXES
 70
     0
 62
     7
  6
AXES
370
    30
390
F
347
117F
  0
LAYER
  5
1396
330
2
100
AcDbSymbolTableRecord
100
AcDbLayerTableRecord
  2
CONTOURS
 70
     0
 62
     7
  6
Continuous
370
    60
390
F
347
117F
  0
LAYER
  5
139C
330
2
100
AcDbSymbolTableRecord
100
AcDbLayerTableRecord
  2
HACHURES MUR ET SOL
 70
     0
 62
     7
  6
Continuous
370
    15
390
F
347
117F
  0
LAYER
  5
139E
330
2
100
AcDbSymbolTableRecord
100
AcDbLayerTableRecord
  2
TRAITS INTERIEURS FIN
 70
     0
 62
     7
  6
Continuous
370
    20
390
F
347
117F
  0
ENDTAB
  0
TABLE
  2
STYLE
  5
3
330
0
100
AcDbSymbolTable
 70
     2
  0
STYLE
  5
11
330
3
100
AcDbSymbolTableRecord
100
AcDbTextStyleTableRecord
  2
Standard
 70
     0
 40
0.0
 41
1.0
 50
0.0
 71
     0
 42
2.5
  3
arial.ttf
  4

1001
AcadAnnotative
1000
AnnotativeData
1002
{
1070
     1
1070
     0
1002
}
1001
ACAD
1000
Arial
1071
       34
  0
STYLE
  5
2F
330
3
100
AcDbSymbolTableRecord
100
AcDbTextStyleTableRecord
  2
CARTOUCHE
 70
     0
 40
30.0
 41
1.0
 50
0.0
 71
     0
 42
30.0
  3
arial.ttf
  4

1001
ACAD
1000
Arial
1071
       34
  0
ENDTAB
  0
TABLE
  2
VIEW
  5
6
330
0
100
AcDbSymbolTable
 70
     0
  0
ENDTAB
  0
TABLE
  2
UCS
  5
7
330
0
100
AcDbSymbolTable
 70
     0
  0
ENDTAB
  0
TABLE
  2
APPID
  5
9
330
0
100
AcDbSymbolTable
 70
    12
  0
APPID
  5
12
330
9
100
AcDbSymbolTableRecord
100
AcDbRegAppTableRecord
  2
ACAD
 70
     0
  0
APPID
  5
11BE
330
9
100
AcDbSymbolTableRecord
100
AcDbRegAppTableRecord
  2
ACAD_MLEADERVER
 70
     0
  0
APPID
  5
126E
330
9
100
AcDbSymbolTableRecord
100
AcDbRegAppTableRecord
  2
AcAecLayerStandard
 70
     0
  0
APPID
  5
13A2
330
9
100
AcDbSymbolTableRecord
100
AcDbRegAppTableRecord
  2
ACAD_PSEXT
 70
     0
  0
APPID
  5
194D
330
9
100
AcDbSymbolTableRecord
100
AcDbRegAppTableRecord
  2
AcadAnnoPO
 70
     0
  0
APPID
  5
194E
330
9
100
AcDbSymbolTableRecord
100
AcDbRegAppTableRecord
  2
AcadAnnotative
 70
     0
  0
APPID
  5
194F
330
9
100
AcDbSymbolTableRecord
100
AcDbRegAppTableRecord
  2
ACAD_DSTYLE_DIMJAG
 70
     0
  0
APPID
  5
1950
330
9
100
AcDbSymbolTableRecord
100
AcDbRegAppTableRecord
  2
ACAD_DSTYLE_DIMTALN
 70
     0
  0
APPID
  5
2227
330
9
100
AcDbSymbolTableRecord
100
AcDbRegAppTableRecord
  2
ACAD_EXEMPT_FROM_CAD_STANDARDS
 70
     0
  0
APPID
  5
5739
330
9
100
AcDbSymbolTableRecord
100
AcDbRegAppTableRecord
  2
AcadAnnotativeDecomposition
 70
     0
  0
APPID
  5
8C37
330
9
100
AcDbSymbolTableRecord
100
AcDbRegAppTableRecord
  2
ACAD_DSTYLE_DIMRADIAL_EXTENSION
 70
     0
  0
APPID
  5
16D58
330
9
100
AcDbSymbolTableRecord
100
AcDbRegAppTableRecord
  2
ACAD_DSTYLE_DIMFLIPARROW_WHICH_SYMBOL
 70
     0
  0
ENDTAB
  0
TABLE
  2
DIMSTYLE
  5
A
330
0
100
AcDbSymbolTable
 70
     3
100
AcDbDimStyleTable
 71
     2
340
27
340
2DA
  0
DIMSTYLE
105
27
330
A
100
AcDbSymbolTableRecord
100
AcDbDimStyleTableRecord
  2
ISO-25
 70
     0
 41
20.0
 42
0.625
 43
3.75
 44
1.25
 77
     1
 78
     8
140
20.0
141
2.5
143
0.03937007874016
147
0.625
171
     3
172
     1
176
   256
177
   256
271
     0
272
     0
274
     3
278
    44
283
     0
284
     8
340
11
371
    -1
372
    -1
  0
DIMSTYLE
105
2DA
330
A
100
AcDbSymbolTableRecord
100
AcDbDimStyleTableRecord
  2
STANDARD
 70
     0
340
11
  0
DIMSTYLE
105
115EE
330
A
100
AcDbSymbolTableRecord
100
AcDbDimStyleTableRecord
  2
Copie de ISO-25
 70
     0
 41
50.0
 42
0.625
 43
3.75
 44
10.0
 77
     1
 78
     8
140
25.0
141
2.5
143
0.03937007874016
147
6.0
171
     3
172
     1
176
   256
177
   256
271
     0
272
     0
274
     3
278
    44
283
     0
284
     8
340
11
371
    -1
372
    -1
  0
ENDTAB
  0
TABLE
  2
BLOCK_RECORD
  5
1
330
0
100
AcDbSymbolTable
 70
    11
  0
BLOCK_RECORD
  5
1F
102
{ACAD_XDICTIONARY
360
F6C
102
}
330
1
100
AcDbSymbolTableRecord
100
AcDbBlockTableRecord
  2
*Model_Space
340
22
 70
     0
280
     1
281
     0
  0
BLOCK_RECORD
  5
23
330
1
100
AcDbSymbolTableRecord
100
AcDbBlockTableRecord
  2
*Paper_Space
340
26
 70
     0
280
     1
281
     0
  0
BLOCK_RECORD
  5
1B
330
1
100
AcDbSymbolTableRecord
100
AcDbBlockTableRecord
  2
*Paper_Space0
340
1E
 70
     0
280
     1
281
     0
  0
BLOCK_RECORD
  5
10040
102
{ACAD_XDICTIONARY
360
10044
102
}
330
1
100
AcDbSymbolTableRecord
100
AcDbBlockTableRecord
  2
A$C43963E35
340
0
 70
     4
280
     1
281
     0
  0
BLOCK_RECORD
  5
1E254
330
1
100
AcDbSymbolTableRecord
100
AcDbBlockTableRecord
  2
_None
340
0
 70
     0
280
     1
281
     0
  0
BLOCK_RECORD
  5
371BB
330
1
100
AcDbSymbolTableRecord
100
AcDbBlockTableRecord
  2
*D3
340
0
 70
     0
280
     1
281
     0
  0
BLOCK_RECORD
  5
37326
330
1
100
AcDbSymbolTableRecord
100
AcDbBlockTableRecord
  2
_FILLED
340
0
 70
     0
280
     1
281
     0
  0
BLOCK_RECORD
  5
37365
330
1
100
AcDbSymbolTableRecord
100
AcDbBlockTableRecord
  2
*D5
340
0
 70
     0
280
     1
281
     0
  0
BLOCK_RECORD
  5
37373
330
1
100
AcDbSymbolTableRecord
100
AcDbBlockTableRecord
  2
*D6
340
0
 70
     0
280
     1
281
     0
  0
BLOCK_RECORD
  5
37390
330
1
100
AcDbSymbolTableRecord
100
AcDbBlockTableRecord
  2
*D7
340
0
 70
     0
280
     1
281
     0
  0
BLOCK_RECORD
  5
37635
330
1
100
AcDbSymbolTableRecord
100
AcDbBlockTableRecord
  2
*D8
340
0
 70
     0
280
     1
281
     0
  0
BLOCK_RECORD
  5
37659
330
1
100
AcDbSymbolTableRecord
100
AcDbBlockTableRecord
  2
*D9
340
0
 70
     0
280
     1
281
     0
  0
BLOCK_RECORD
  5
37690
330
1
100
AcDbSymbolTableRecord
100
AcDbBlockTableRecord
  2
*D10
340
0
 70
     0
280
     1
281
     0
  0
ENDTAB
  0
ENDSEC
  0
SECTION
  2
BLOCKS
  0
BLOCK
  5
20
330
1F
100
AcDbEntity
  8
0
100
AcDbBlockBegin
  2
*Model_Space
 70
     0
 10
0.0
 20
0.0
 30
0.0
  3
*Model_Space
  1

  0
ENDBLK
  5
21
330
1F
100
AcDbEntity
  8
0
100
AcDbBlockEnd
  0
BLOCK
  5
24
330
23
100
AcDbEntity
 67
     1
  8
0
100
AcDbBlockBegin
  2
*Paper_Space
 70
     0
 10
0.0
 20
0.0
 30
0.0
  3
*Paper_Space
  1

  0
ENDBLK
  5
25
330
23
100
AcDbEntity
 67
     1
  8
0
100
AcDbBlockEnd
  0
BLOCK
  5
1C
330
1B
100
AcDbEntity
 67
     1
  8
0
100
AcDbBlockBegin
  2
*Paper_Space0
 70
     0
 10
0.0
 20
0.0
 30
0.0
  3
*Paper_Space0
  1

  0
VIEWPORT
  5
10D6
330
1B
100
AcDbEntity
 67
     1
  8
0
100
AcDbViewport
 10
2172.230288162508
 20
2164.44563953854
 30
0.0
 40
9864.54301089811
 41
5157.746774269583
 68
     0
 69
     0
 12
2172.230288162508
 22
2164.44563953854
 13
0.0
 23
0.0
 14
10.0
 24
10.0
 15
10.0
 25
10.0
 16
0.0
 26
0.0
 36
1.0
 17
0.0
 27
0.0
 37
0.0
 42
50.0
 43
0.0
 44
0.0
 45
5157.746774269583
 50
0.0
 51
0.0
 72
 20000
 90
    32800
  1

281
     0
 71
     1
 74
     0
110
0.0
120
0.0
130
0.0
111
1.0
121
0.0
131
0.0
112
0.0
122
1.0
132
0.0
 79
     0
146
0.0
170
     0
 61
     5
348
118D
292
     1
282
     1
141
0.0
142
0.0
 63
   250
421
  3355443
  0
VIEWPORT
  5
10D8
330
1B
100
AcDbEntity
 67
     1
  8
COTATION
100
AcDbViewport
 10
1433.871729034479
 20
982.4849351662237
 30
0.0
 40
2868.848312283058
 41
1962.882051772217
 68
     0
 69
     0
 12
4672.82154075406
 22
2036.915432569854
 13
0.0
 23
0.0
 14
10.0
 24
10.0
 15
10.0
 25
10.0
 16
0.0
 26
0.0
 36
1.0
 17
0.0
 27
0.0
 37
0.0
 42
50.0
 43
0.0
 44
0.0
 45
2021.894736842107
 50
0.0
 51
0.0
 72
 20000
 90
    32864
  1

281
     0
 71
     1
 74
     0
110
0.0
120
0.0
130
0.0
111
1.0
121
0.0
131
0.0
112
0.0
122
1.0
132
0.0
 79
     0
146
0.0
170
     0
 61
     5
348
118D
292
     1
282
     1
141
0.0
142
0.0
 63
   250
421
  3355443
  0
ENDBLK
  5
1D
330
1B
100
AcDbEntity
 67
     1
  8
0
100
AcDbBlockEnd
  0
BLOCK
  5
10046
330
10040
100
AcDbEntity
  8
0
 48
60.0
100
AcDbBlockBegin
  2
A$C43963E35
 70
     0
 10
0.0
 20
0.0
 30
0.0
  3
A$C43963E35
  1

  0
LINE
  5
10041
330
10040
100
AcDbEntity
  8
TRAITS INTERIEURS FIN
 48
60.0
100
AcDbLine
 10
487.0359303894111
 20
59.03352122927026
 30
0.0
 11
3335.277567270383
 21
59.03352122927026
 31
0.0
  0
HATCH
  5
10042
330
10040
100
AcDbEntity
  8
TRAITS INTERIEURS FIN
 48
60.0
100
AcDbHatch
 10
0.0
 20
0.0
 30
0.0
210
0.0
220
0.0
230
1.0
  2
ANSI31
 70
     0
 71
     1
 91
        1
 92
        7
 72
     0
 73
     1
 93
        4
 10
487.0359303894111
 20
59.03352122927026
 10
0.0
 20
59.03352122927026
 10
0.0
 20
0.0
 10
487.0359303894111
 20
0.0
 97
        1
330
10043
 75
     0
 76
     1
 52
0.0
 41
1.0
 77
     0
 78
     1
 53
45.0
 43
-23209.77219263157
 44
-8752.978071548815
 45
-0.0883883476483184
 46
0.0883883476483185
 79
     0
 47
3.536237473367383
 98
        1
 10
389.0278602149992
 20
49.50732069702644
1001
ACAD
1010
0.0
1020
0.0
1030
0.0
  0
LWPOLYLINE
  5
10043
102
{ACAD_REACTORS
330
10042
102
}
330
10040
100
AcDbEntity
  8
TRAITS INTERIEURS FIN
 48
60.0
100
AcDbPolyline
 90
        4
 70
     1
 43
0.0
 10
487.0359303894111
 20
59.03352122927026
 10
0.0
 20
59.03352122927026
 10
0.0
 20
0.0
 10
487.0359303894111
 20
0.0
  0
ENDBLK
  5
10047
330
10040
100
AcDbEntity
  8
0
 48
60.0
100
AcDbBlockEnd
  0
BLOCK
  5
1E255
330
1E254
100
AcDbEntity
  8
0
 48
60.0
100
AcDbBlockBegin
  2
_None
 70
     0
 10
0.0
 20
0.0
 30
0.0
  3
_None
  1

  0
ENDBLK
  5
1E256
330
1E254
100
AcDbEntity
  8
0
 48
60.0
100
AcDbBlockEnd
  0
BLOCK
  5
371C5
330
371BB
100
AcDbEntity
  8
0
 48
60.0
100
AcDbBlockBegin
  2
*D3
 70
     1
 10
0.0
 20
0.0
 30
0.0
  3
*D3
  1

  0
LINE
  5
37232
330
371BB
100
AcDbEntity
  8
COTATION
 48
30.0
100
AcDbLine
 10
180824.6837504896
 20
-44649.56630088022
 30
0.0
 11
180824.6837504896
 21
-44760.44301678589
 31
0.0
  0
LINE
  5
37233
330
371BB
100
AcDbEntity
  8
COTATION
 48
30.0
100
AcDbLine
 10
181180.0117264663
 20
-44647.66803116811
 30
0.0
 11
181180.0117264663
 21
-44760.44301678589
 31
0.0
  0
LINE
  5
37234
330
371BB
100
AcDbEntity
  8
COTATION
 48
30.0
100
AcDbLine
 10
180874.6837504896
 20
-44750.4430167859
 30
0.0
 11
181130.0117264664
 21
-44750.4430167859
 31
0.0
  0
SOLID
  5
37235
330
371BB
100
AcDbEntity
  8
COTATION
 48
30.0
100
AcDbTrace
 10
180874.6837504896
 20
-44742.10968345255
 30
0.0
 11
180874.6837504896
 21
-44758.77635011923
 31
0.0
 12
180824.6837504896
 22
-44750.4430167859
 32
0.0
 13
180824.6837504896
 23
-44750.4430167859
 33
0.0
  0
SOLID
  5
37236
330
371BB
100
AcDbEntity
  8
COTATION
 48
30.0
100
AcDbTrace
 10
181130.0117264664
 20
-44742.10968345255
 30
0.0
 11
181130.0117264664
 21
-44758.77635011923
 31
0.0
 12
181180.0117264663
 22
-44750.4430167859
 32
0.0
 13
181180.0117264663
 23
-44750.4430167859
 33
0.0
  0
MTEXT
  5
37237
330
371BB
100
AcDbEntity
  8
COTATION
 62
     0
 48
30.0
100
AcDbMText
 10
180993.6804942686
 20
-44704.89731419381
 30
0.0
 40
50.0
 41
0.0
 46
0.0
 71
     5
 72
     1
  1
355
 73
     1
 44
1.0
  0
POINT
  5
37238
330
371BB
100
AcDbEntity
  8
Defpoints
 62
     0
 48
30.0
100
AcDbPoint
 10
180824.6837504896
 20
-44604.56630088022
 30
0.0
  0
POINT
  5
37239
330
371BB
100
AcDbEntity
  8
Defpoints
 62
     0
 48
30.0
100
AcDbPoint
 10
181180.0117264663
 20
-44602.66803116811
 30
0.0
  0
POINT
  5
3723A
330
371BB
100
AcDbEntity
  8
Defpoints
 62
     0
 48
30.0
100
AcDbPoint
 10
181180.0117264663
 20
-44750.4430167859
 30
0.0
  0
ENDBLK
  5
371C6
330
371BB
100
AcDbEntity
  8
0
 48
60.0
100
AcDbBlockEnd
  0
BLOCK
  5
37327
330
37326
100
AcDbEntity
  8
0
100
AcDbBlockBegin
  2
_FILLED
 70
     0
 10
0.0
 20
0.0
 30
0.0
  3
_FILLED
  1

  0
SOLID
  5
37328
330
37326
100
AcDbEntity
  8
0
  6
ByBlock
 62
     0
100
AcDbTrace
 10
0.0
 20
0.0
 30
0.0
 11
-1.0
 21
0.2142857143
 31
0.0
 12
-1.0
 22
-0.2142857143
 32
0.0
 13
-1.0
 23
-0.2142857143
 33
0.0
  0
ENDBLK
  5
37329
330
37326
100
AcDbEntity
  8
0
  6
ByBlock
 62
     0
100
AcDbBlockEnd
  0
BLOCK
  5
37366
330
37365
100
AcDbEntity
  8
0
 48
30.0
100
AcDbBlockBegin
  2
*D5
 70
     1
 10
0.0
 20
0.0
 30
0.0
  3
*D5
  1

  0
LINE
  5
37721
330
37365
100
AcDbEntity
  8
COTATION
 48
30.0
100
AcDbLine
 10
175893.3190681291
 20
-42536.06518120225
 30
0.0
 11
175893.3190681291
 21
-42783.78600559475
 31
0.0
  0
LINE
  5
37722
330
37365
100
AcDbEntity
  8
COTATION
 48
30.0
100
AcDbLine
 10
176453.3563027866
 20
-42569.39734519725
 30
0.0
 11
176453.3563027866
 21
-42783.78600559475
 31
0.0
  0
LINE
  5
37723
330
37365
100
AcDbEntity
  8
COTATION
 48
30.0
100
AcDbLine
 10
175943.319068129
 20
-42773.78600559476
 30
0.0
 11
176083.2137194658
 21
-42773.78600559476
 31
0.0
  0
LINE
  5
37724
330
37365
100
AcDbEntity
  8
COTATION
 48
30.0
100
AcDbLine
 10
176403.3563027866
 20
-42773.78600559476
 30
0.0
 11
176263.5138558914
 21
-42773.78600559476
 31
0.0
  0
SOLID
  5
37725
330
37365
100
AcDbEntity
  8
COTATION
 48
30.0
100
AcDbTrace
 10
175943.319068129
 20
-42765.45267226143
 30
0.0
 11
175943.319068129
 21
-42782.11933892809
 31
0.0
 12
175893.3190681291
 22
-42773.78600559476
 32
0.0
 13
175893.3190681291
 23
-42773.78600559476
 33
0.0
  0
SOLID
  5
37726
330
37365
100
AcDbEntity
  8
COTATION
 48
30.0
100
AcDbTrace
 10
176403.3563027866
 20
-42765.45267226143
 30
0.0
 11
176403.3563027866
 21
-42782.11933892809
 31
0.0
 12
176453.3563027866
 22
-42773.78600559476
 32
0.0
 13
176453.3563027866
 23
-42773.78600559476
 33
0.0
  0
MTEXT
  5
37727
330
37365
100
AcDbEntity
  8
COTATION
 62
     0
 48
30.0
100
AcDbMText
 10
176173.3637876786
 20
-42773.78600559476
 30
0.0
 40
50.0
 41
0.0
 46
0.0
 71
     5
 72
     1
  1
560
 73
     1
 44
1.0
  0
POINT
  5
37728
330
37365
100
AcDbEntity
  8
Defpoints
 62
     0
 48
30.0
100
AcDbPoint
 10
175893.3190681291
 20
-42491.06518120226
 30
0.0
  0
POINT
  5
37729
330
37365
100
AcDbEntity
  8
Defpoints
 62
     0
 48
30.0
100
AcDbPoint
 10
176453.3563027866
 20
-42524.39734519725
 30
0.0
  0
POINT
  5
3772A
330
37365
100
AcDbEntity
  8
Defpoints
 62
     0
 48
30.0
100
AcDbPoint
 10
176453.3563027866
 20
-42773.78600559476
 30
0.0
  0
ENDBLK
  5
37367
330
37365
100
AcDbEntity
  8
0
 48
30.0
100
AcDbBlockEnd
  0
BLOCK
  5
37374
330
37373
100
AcDbEntity
  8
0
 48
30.0
100
AcDbBlockBegin
  2
*D6
 70
     1
 10
0.0
 20
0.0
 30
0.0
  3
*D6
  1

  0
LINE
  5
3773F
330
37373
100
AcDbEntity
  8
COTATION
 48
30.0
100
AcDbLine
 10
176187.5351663307
 20
-42224.37046700195
 30
0.0
 11
176649.3981355614
 21
-42224.37046700195
 31
0.0
  0
LINE
  5
37740
330
37373
100
AcDbEntity
  8
COTATION
 48
30.0
100
AcDbLine
 10
176498.3563027866
 20
-42627.71278531441
 30
0.0
 11
176649.3981355614
 21
-42627.71278531441
 31
0.0
  0
LINE
  5
37741
330
37373
100
AcDbEntity
  8
COTATION
 48
30.0
100
AcDbLine
 10
176639.3981355613
 20
-42274.37046700195
 30
0.0
 11
176639.3981355613
 21
-42365.5129767721
 31
0.0
  0
LINE
  5
37742
330
37373
100
AcDbEntity
  8
COTATION
 48
30.0
100
AcDbLine
 10
176639.3981355613
 20
-42577.71278531441
 30
0.0
 11
176639.3981355613
 21
-42486.57027554426
 31
0.0
  0
SOLID
  5
37743
330
37373
100
AcDbEntity
  8
COTATION
 48
30.0
100
AcDbTrace
 10
176631.064802228
 20
-42274.37046700195
 30
0.0
 11
176647.7314688947
 21
-42274.37046700195
 31
0.0
 12
176639.3981355613
 22
-42224.37046700195
 32
0.0
 13
176639.3981355613
 23
-42224.37046700195
 33
0.0
  0
SOLID
  5
37744
330
37373
100
AcDbEntity
  8
COTATION
 48
30.0
100
AcDbTrace
 10
176631.064802228
 20
-42577.71278531441
 30
0.0
 11
176647.7314688947
 21
-42577.71278531441
 31
0.0
 12
176639.3981355613
 22
-42627.71278531441
 32
0.0
 13
176639.3981355613
 23
-42627.71278531441
 33
0.0
  0
MTEXT
  5
37745
330
37373
100
AcDbEntity
  8
COTATION
 62
     0
 48
30.0
100
AcDbMText
 10
176639.3981355613
 20
-42426.04162615815
 30
0.0
 40
50.0
 41
0.0
 46
0.0
 71
     5
 72
     1
  1
400
 73
     1
 44
1.0
  0
POINT
  5
37746
330
37373
100
AcDbEntity
  8
Defpoints
 62
     0
 48
30.0
100
AcDbPoint
 10
176142.5351663307
 20
-42224.37046700195
 30
0.0
  0
POINT
  5
37747
330
37373
100
AcDbEntity
  8
Defpoints
 62
     0
 48
30.0
100
AcDbPoint
 10
176453.3563027866
 20
-42627.71278531441
 30
0.0
  0
POINT
  5
37748
330
37373
100
AcDbEntity
  8
Defpoints
 62
     0
 48
30.0
100
AcDbPoint
 10
176639.3981355613
 20
-42627.71278531441
 30
0.0
  0
ENDBLK
  5
37375
330
37373
100
AcDbEntity
  8
0
 48
30.0
100
AcDbBlockEnd
  0
BLOCK
  5
37391
330
37390
100
AcDbEntity
  8
0
 48
30.0
100
AcDbBlockBegin
  2
*D7
 70
     1
 10
0.0
 20
0.0
 30
0.0
  3
*D7
  1

  0
LINE
  5
37749
330
37390
100
AcDbEntity
  8
COTATION
 48
30.0
100
AcDbLine
 10
176006.5204382205
 20
-42224.36489927425
 30
0.0
 11
175714.8851194112
 21
-42224.36489927425
 31
0.0
  0
LINE
  5
3774A
330
37390
100
AcDbEntity
  8
COTATION
 48
30.0
100
AcDbLine
 10
175848.3712725706
 20
-42416.87001685436
 30
0.0
 11
175714.8851194112
 21
-42416.87001685436
 31
0.0
  0
LINE
  5
3774B
330
37390
100
AcDbEntity
  8
COTATION
 48
30.0
100
AcDbLine
 10
175724.8851194112
 20
-42174.36489927425
 30
0.0
 11
175724.8851194112
 21
-42124.36489927425
 31
0.0
  0
LINE
  5
3774C
330
37390
100
AcDbEntity
  8
COTATION
 48
30.0
100
AcDbLine
 10
175724.8851194112
 20
-42466.87001685436
 30
0.0
 11
175724.8851194112
 21
-42516.87001685436
 31
0.0
  0
SOLID
  5
3774D
330
37390
100
AcDbEntity
  8
COTATION
 48
30.0
100
AcDbTrace
 10
175716.5517860778
 20
-42174.36489927425
 30
0.0
 11
175733.2184527445
 21
-42174.36489927425
 31
0.0
 12
175724.8851194112
 22
-42224.36489927425
 32
0.0
 13
175724.8851194112
 23
-42224.36489927425
 33
0.0
  0
SOLID
  5
3774E
330
37390
100
AcDbEntity
  8
COTATION
 48
30.0
100
AcDbTrace
 10
175716.5517860778
 20
-42466.87001685436
 30
0.0
 11
175733.2184527445
 21
-42466.87001685436
 31
0.0
 12
175724.8851194112
 22
-42416.87001685436
 32
0.0
 13
175724.8851194112
 23
-42416.87001685436
 33
0.0
  0
MTEXT
  5
3774F
330
37390
100
AcDbEntity
  8
COTATION
 62
     0
 48
30.0
100
AcDbMText
 10
175724.8851194112
 20
-42314.50393153007
 30
0.0
 40
50.0
 41
0.0
 46
0.0
 71
     5
 72
     1
  1
195
 73
     1
 44
1.0
  0
POINT
  5
37750
330
37390
100
AcDbEntity
  8
Defpoints
 62
     0
 48
30.0
100
AcDbPoint
 10
176051.5204382205
 20
-42224.36489927425
 30
0.0
  0
POINT
  5
37751
330
37390
100
AcDbEntity
  8
Defpoints
 62
     0
 48
30.0
100
AcDbPoint
 10
175893.3712725706
 20
-42416.87001685436
 30
0.0
  0
POINT
  5
37752
330
37390
100
AcDbEntity
  8
Defpoints
 62
     0
 48
30.0
100
AcDbPoint
 10
175724.8851194112
 20
-42416.87001685436
 30
0.0
  0
ENDBLK
  5
37392
330
37390
100
AcDbEntity
  8
0
 48
30.0
100
AcDbBlockEnd
  0
BLOCK
  5
37636
330
37635
100
AcDbEntity
  8
0
 48
30.0
100
AcDbBlockBegin
  2
*D8
 70
     1
 10
0.0
 20
0.0
 30
0.0
  3
*D8
  1

  0
LINE
  5
376D0
330
37635
100
AcDbEntity
  8
COTATION
 48
30.0
100
AcDbLine
 10
178332.8134557447
 20
-42366.28836749781
 30
0.0
 11
178188.836661962
 21
-42366.28836749781
 31
0.0
  0
LINE
  5
376D1
330
37635
100
AcDbEntity
  8
COTATION
 48
30.0
100
AcDbLine
 10
178233.3752411672
 20
-42466.28837425909
 30
0.0
 11
178188.836661962
 21
-42466.28837425909
 31
0.0
  0
LINE
  5
376D2
330
37635
100
AcDbEntity
  8
COTATION
 48
30.0
100
AcDbLine
 10
178198.836661962
 20
-42316.28836749782
 30
0.0
 11
178198.836661962
 21
-42266.28836749782
 31
0.0
  0
LINE
  5
376D3
330
37635
100
AcDbEntity
  8
COTATION
 48
30.0
100
AcDbLine
 10
178198.836661962
 20
-42516.28837425909
 30
0.0
 11
178198.836661962
 21
-42566.28837425909
 31
0.0
  0
SOLID
  5
376D4
330
37635
100
AcDbEntity
  8
COTATION
 48
30.0
100
AcDbTrace
 10
178190.5033286287
 20
-42316.28836749782
 30
0.0
 11
178207.1699952954
 21
-42316.28836749782
 31
0.0
 12
178198.836661962
 22
-42366.28836749781
 32
0.0
 13
178198.836661962
 23
-42366.28836749781
 33
0.0
  0
SOLID
  5
376D5
330
37635
100
AcDbEntity
  8
COTATION
 48
30.0
100
AcDbTrace
 10
178190.5033286287
 20
-42516.28837425909
 30
0.0
 11
178207.1699952954
 21
-42516.28837425909
 31
0.0
 12
178198.836661962
 22
-42466.28837425909
 32
0.0
 13
178198.836661962
 23
-42466.28837425909
 33
0.0
  0
MTEXT
  5
376D6
330
37635
100
AcDbEntity
  8
COTATION
 62
     0
 48
30.0
100
AcDbMText
 10
178198.836661962
 20
-42416.28837087842
 30
0.0
 40
50.0
 41
0.0
 46
0.0
 71
     5
 72
     1
  1
100
 73
     1
 44
1.0
  0
POINT
  5
376D7
330
37635
100
AcDbEntity
  8
Defpoints
 62
     0
 48
30.0
100
AcDbPoint
 10
178377.8134557447
 20
-42366.28836749781
 30
0.0
  0
POINT
  5
376D8
330
37635
100
AcDbEntity
  8
Defpoints
 62
     0
 48
30.0
100
AcDbPoint
 10
178278.3752411672
 20
-42466.28837425909
 30
0.0
  0
POINT
  5
376D9
330
37635
100
AcDbEntity
  8
Defpoints
 62
     0
 48
30.0
100
AcDbPoint
 10
178198.836661962
 20
-42466.28837425909
 30
0.0
  0
ENDBLK
  5
37637
330
37635
100
AcDbEntity
  8
0
 48
30.0
100
AcDbBlockEnd
  0
BLOCK
  5
3765A
330
37659
100
AcDbEntity
  8
0
 48
30.0
100
AcDbBlockBegin
  2
*D9
 70
     1
 10
0.0
 20
0.0
 30
0.0
  3
*D9
  1

  0
LINE
  5
376DA
330
37659
100
AcDbEntity
  8
COTATION
 48
30.0
100
AcDbLine
 10
178820.2629635315
 20
-42366.28836836128
 30
0.0
 11
179261.8940052815
 21
-42366.28836836128
 31
0.0
  0
LINE
  5
376DB
330
37659
100
AcDbEntity
  8
COTATION
 48
30.0
100
AcDbLine
 10
179118.8547438671
 20
-42544.86599847688
 30
0.0
 11
179261.8940052815
 21
-42544.86599847688
 31
0.0
  0
LINE
  5
376DC
330
37659
100
AcDbEntity
  8
COTATION
 48
30.0
100
AcDbLine
 10
179251.8940052815
 20
-42316.28836836129
 30
0.0
 11
179251.8940052815
 21
-42266.28836836129
 31
0.0
  0
LINE
  5
376DD
330
37659
100
AcDbEntity
  8
COTATION
 48
30.0
100
AcDbLine
 10
179251.8940052815
 20
-42594.86599847688
 30
0.0
 11
179251.8940052815
 21
-42644.86599847689
 31
0.0
  0
SOLID
  5
376DE
330
37659
100
AcDbEntity
  8
COTATION
 48
30.0
100
AcDbTrace
 10
179243.5606719482
 20
-42316.28836836129
 30
0.0
 11
179260.2273386149
 21
-42316.28836836129
 31
0.0
 12
179251.8940052815
 22
-42366.28836836128
 32
0.0
 13
179251.8940052815
 23
-42366.28836836128
 33
0.0
  0
SOLID
  5
376DF
330
37659
100
AcDbEntity
  8
COTATION
 48
30.0
100
AcDbTrace
 10
179243.5606719482
 20
-42594.86599847688
 30
0.0
 11
179260.2273386149
 21
-42594.86599847688
 31
0.0
 12
179251.8940052815
 22
-42544.86599847688
 32
0.0
 13
179251.8940052815
 23
-42544.86599847688
 33
0.0
  0
MTEXT
  5
376E0
330
37659
100
AcDbEntity
  8
COTATION
 62
     0
 48
30.0
100
AcDbMText
 10
179251.8940052815
 20
-42460.06464178949
 30
0.0
 40
50.0
 41
0.0
 46
0.0
 71
     5
 72
     1
  1
180
 73
     1
 44
1.0
  0
POINT
  5
376E1
330
37659
100
AcDbEntity
  8
Defpoints
 62
     0
 48
30.0
100
AcDbPoint
 10
178775.2629635315
 20
-42366.28836836128
 30
0.0
  0
POINT
  5
376E2
330
37659
100
AcDbEntity
  8
Defpoints
 62
     0
 48
30.0
100
AcDbPoint
 10
179073.8547438671
 20
-42544.86599847688
 30
0.0
  0
POINT
  5
376E3
330
37659
100
AcDbEntity
  8
Defpoints
 62
     0
 48
30.0
100
AcDbPoint
 10
179251.8940052815
 20
-42544.86599847688
 30
0.0
  0
ENDBLK
  5
3765B
330
37659
100
AcDbEntity
  8
0
 48
30.0
100
AcDbBlockEnd
  0
BLOCK
  5
37691
330
37690
100
AcDbEntity
  8
0
 48
30.0
100
AcDbBlockBegin
  2
*D10
 70
     1
 10
0.0
 20
0.0
 30
0.0
  3
*D10
  1

  0
LINE
  5
376E4
330
37690
100
AcDbEntity
  8
COTATION
 48
30.0
100
AcDbLine
 10
178865.2629635316
 20
-42366.28836836128
 30
0.0
 11
179076.0434551422
 21
-42366.28836836128
 31
0.0
  0
LINE
  5
376E5
330
37690
100
AcDbEntity
  8
COTATION
 48
30.0
100
AcDbLine
 10
179021.0434551422
 20
-42497.99826612737
 30
0.0
 11
179056.0434551422
 21
-42497.99826612737
 31
0.0
  0
LINE
  5
376E6
330
37690
100
AcDbEntity
  8
COTATION
 48
30.0
100
AcDbLine
 10
179066.0434551422
 20
-42316.28836836129
 30
0.0
 11
179066.0434551422
 21
-42266.28836836129
 31
0.0
  0
LINE
  5
376E7
330
37690
100
AcDbEntity
  8
COTATION
 48
30.0
100
AcDbLine
 10
179066.0434551422
 20
-42547.99826612737
 30
0.0
 11
179066.0434551422
 21
-42597.99826612737
 31
0.0
  0
SOLID
  5
376E8
330
37690
100
AcDbEntity
  8
COTATION
 48
30.0
100
AcDbTrace
 10
179057.7101218088
 20
-42316.28836836129
 30
0.0
 11
179074.3767884755
 21
-42316.28836836129
 31
0.0
 12
179066.0434551422
 22
-42366.28836836128
 32
0.0
 13
179066.0434551422
 23
-42366.28836836128
 33
0.0
  0
SOLID
  5
376E9
330
37690
100
AcDbEntity
  8
COTATION
 48
30.0
100
AcDbTrace
 10
179057.7101218088
 20
-42547.99826612737
 30
0.0
 11
179074.3767884755
 21
-42547.99826612737
 31
0.0
 12
179066.0434551422
 22
-42497.99826612737
 32
0.0
 13
179066.0434551422
 23
-42497.99826612737
 33
0.0
  0
MTEXT
  5
376EA
330
37690
100
AcDbEntity
  8
COTATION
 62
     0
 48
30.0
100
AcDbMText
 10
179066.0434551422
 20
-42432.14331724431
 30
0.0
 40
50.0
 41
0.0
 46
0.0
 71
     5
 72
     1
  1
130
 73
     1
 44
1.0
  0
POINT
  5
376EB
330
37690
100
AcDbEntity
  8
Defpoints
 62
     0
 48
30.0
100
AcDbPoint
 10
178820.2629635315
 20
-42366.28836836128
 30
0.0
  0
POINT
  5
376EC
330
37690
100
AcDbEntity
  8
Defpoints
 62
     0
 48
30.0
100
AcDbPoint
 10
179066.0434551422
 20
-42497.99826612737
 30
0.0
  0
POINT
  5
376ED
330
37690
100
AcDbEntity
  8
Defpoints
 62
     0
 48
30.0
100
AcDbPoint
 10
179066.0434551422
 20
-42497.99826612737
 30
0.0
  0
ENDBLK
  5
37692
330
37690
100
AcDbEntity
  8
0
 48
30.0
100
AcDbBlockEnd
  0
ENDSEC
  0
SECTION
  2
ENTITIES
  0
MTEXT
  5
681
330
1F
100
AcDbEntity
  8
0
100
AcDbMText
 10
561.0024225737434
 20
809.2258672307794
 30
0.0
 40
30.0
 41
1388.165
 46
0.0
 71
     1
 72
     5
  1

  7
CARTOUCHE
 73
     1
 44
1.0
  0
MTEXT
  5
2CE81
330
1F
100
AcDbEntity
  8
AXES
 48
60.0
100
AcDbMText
 10
137145.267659208
 20
-26299.88381377913
 30
0.0
 40
50.0
 41
0.0
 46
0.0
 71
     9
 72
     1
  1

 73
     1
 44
1.0
  0
LINE
  5
37452
330
1F
100
AcDbEntity
  8
0
100
AcDbLine
 10
177101.3475257518
 20
-42370.2883745038
 30
0.0
 11
177101.2752655243
 21
-42369.4720788555
 31
0.0
  0
LINE
  5
37453
330
1F
100
AcDbEntity
  8
CONTOURS
100
AcDbLine
 10
177304.6199443841
 20
-42544.8660044621
 30
0.0
 11
177372.9866001982
 21
-42544.8660044621
 31
0.0
  0
LINE
  5
37454
330
1F
100
AcDbEntity
  8
CONTOURS
100
AcDbLine
 10
177295.6593144693
 20
-42504.7596999702
 30
0.0
 11
177297.5610068517
 21
-42506.5022799834
 31
0.0
  0
LINE
  5
37455
330
1F
100
AcDbEntity
  8
TRAITS INTERIEURS FIN
100
AcDbLine
 10
177303.0823830983
 20
-42497.9982721125
 30
0.0
 11
177315.2984567326
 21
-42509.1922412078
 31
0.0
  0
LINE
  5
37456
330
1F
100
AcDbEntity
  8
TRAITS INTERIEURS FIN
100
AcDbLine
 10
177299.8425208623
 20
-42490.47847630269
 30
0.0
 11
177300.7223692427
 21
-42494.0258992994
 31
0.0
  0
LINE
  5
37457
330
1F
100
AcDbEntity
  8
CONTOURS
100
AcDbLine
 10
177299.4798427962
 20
-42510.35086948919
 30
0.0
 11
177302.6291519872
 21
-42543.0576959671
 31
0.0
  0
LINE
  5
37458
330
1F
100
AcDbEntity
  8
TRAITS INTERIEURS FIN
100
AcDbLine
 10
177315.2984567326
 20
-42509.1922412078
 30
0.0
 11
177315.4032722911
 21
-42511.19224120779
 31
0.0
  0
LINE
  5
37459
330
1F
100
AcDbEntity
  8
TRAITS INTERIEURS FIN
100
AcDbLine
 10
177299.8424916161
 20
-42490.4783227909
 30
0.0
 11
177299.8425208623
 21
-42490.47847630269
 31
0.0
  0
LINE
  5
3745A
330
1F
100
AcDbEntity
  8
TRAITS INTERIEURS FIN
100
AcDbLine
 10
177315.4032722911
 20
-42511.19224120779
 30
0.0
 11
177315.4032722911
 21
-42544.8660044621
 31
0.0
  0
LINE
  5
3745B
330
1F
100
AcDbEntity
  8
TRAITS INTERIEURS FIN
100
AcDbLine
 10
177362.3080878496
 20
-42509.1922412078
 30
0.0
 11
177315.2984567326
 21
-42509.1922412078
 31
0.0
  0
LINE
  5
3745C
330
1F
100
AcDbEntity
  8
TRAITS INTERIEURS FIN
100
AcDbLine
 10
177303.0823830983
 20
-42497.9982721125
 30
0.0
 11
177374.524161484
 21
-42497.9982721125
 31
0.0
  0
LINE
  5
3745D
330
1F
100
AcDbEntity
  8
TRAITS INTERIEURS FIN
100
AcDbLine
 10
177362.203272291
 20
-42511.19224120779
 30
0.0
 11
177362.203272291
 21
-42544.8660044621
 31
0.0
  0
LINE
  5
3745E
330
1F
100
AcDbEntity
  8
TRAITS INTERIEURS FIN
100
AcDbLine
 10
177362.3080878496
 20
-42509.1922412078
 30
0.0
 11
177362.203272291
 21
-42511.19224120779
 31
0.0
  0
LINE
  5
3745F
330
1F
100
AcDbEntity
  8
CONTOURS
100
AcDbLine
 10
177509.2682222112
 20
-42462.5164406801
 30
0.0
 11
177509.0459811622
 21
-42462.51608746161
 31
0.0
  0
LINE
  5
37460
330
1F
100
AcDbEntity
  8
CONTOURS
100
AcDbLine
 10
177146.0309536502
 20
-42457.4760082065
 30
0.0
 11
177171.8968733832
 21
-42457.83493468329
 31
0.0
  0
LINE
  5
37461
330
1F
100
AcDbEntity
  8
CONTOURS
100
AcDbLine
 10
177509.2682221837
 20
-42462.51644266251
 30
0.0
 11
177540.6628990801
 21
-42462.9520885201
 31
0.0
  0
LINE
  5
37462
330
1F
100
AcDbEntity
  8
CONTOURS
100
AcDbLine
 10
177378.126701786
 20
-42510.35086948919
 30
0.0
 11
177374.977392595
 21
-42543.0576959671
 31
0.0
  0
LINE
  5
37463
330
1F
100
AcDbEntity
  8
TRAITS INTERIEURS FIN
100
AcDbLine
 10
177377.7332845997
 20
-42490.6024120445
 30
0.0
 11
177376.8841753395
 21
-42494.0258992994
 31
0.0
  0
LINE
  5
37464
330
1F
100
AcDbEntity
  8
TRAITS INTERIEURS FIN
100
AcDbLine
 10
177374.524161484
 20
-42497.9982721125
 30
0.0
 11
177362.3080878496
 21
-42509.1922412078
 31
0.0
  0
LINE
  5
37465
330
1F
100
AcDbEntity
  8
CONTOURS
100
AcDbLine
 10
177380.0455377305
 20
-42506.5022799834
 30
0.0
 11
177381.9472301128
 21
-42504.7596999702
 31
0.0
  0
LINE
  5
37466
330
1F
100
AcDbEntity
  8
CONTOURS
100
AcDbLine
 10
177584.1959765614
 20
-42366.2883739384
 30
0.0
 11
177104.3392583582
 21
-42366.2883738654
 31
0.0
  0
ARC
  5
37467
330
1F
100
AcDbEntity
  8
CONTOURS
100
AcDbCircle
 10
177359.2185827508
 20
-42063.29159536419
 30
0.0
 40
433.4441978066
100
AcDbArc
 50
274.1020799786962
 51
277.8448565841216
  0
ARC
  5
37468
330
1F
100
AcDbEntity
  8
CONTOURS
100
AcDbCircle
 10
177330.3747906847
 20
-42066.4953906387
 30
0.0
 40
430.9779511826999
100
AcDbArc
 50
260.9014922260403
 51
264.2789079855309
  0
ARC
  5
37469
330
1F
100
AcDbEntity
  8
TRAITS INTERIEURS FIN
100
AcDbCircle
 10
177330.2940144233
 20
-42067.79617881579
 30
0.0
 40
419.6750609344999
100
AcDbArc
 50
260.8839961469096
 51
265.111486127573
  0
ARC
  5
3746A
330
1F
100
AcDbEntity
  8
TRAITS INTERIEURS FIN
100
AcDbCircle
 10
177359.3968541771
 20
-42076.6668516363
 30
0.0
 40
410.0807372883
100
AcDbArc
 50
273.3288362752498
 51
278.0471569195545
  0
ARC
  5
3746B
330
1F
100
AcDbEntity
  8
0
100
AcDbCircle
 10
177189.4839345204
 20
-42258.8835539436
 30
0.0
 40
199.7272055021
100
AcDbArc
 50
264.9482538626819
 51
265.0628926515902
  0
ARC
  5
3746C
330
1F
100
AcDbEntity
  8
CONTOURS
100
AcDbCircle
 10
177371.8133769985
 20
-42493.70053991801
 30
0.0
 40
15.0
100
AcDbArc
 50
312.5000000003674
 51
339.7655901511498
  0
ARC
  5
3746D
330
1F
100
AcDbEntity
  8
CONTOURS
100
AcDbCircle
 10
177305.7931675837
 20
-42493.70053991801
 30
0.0
 40
15.0
100
AcDbArc
 50
199.2733529520999
 51
227.4999999996326
  0
ARC
  5
3746E
330
1F
100
AcDbEntity
  8
TRAITS INTERIEURS FIN
100
AcDbCircle
 10
177308.4871047592
 20
-42492.1000534181
 30
0.0
 40
8.0
100
AcDbArc
 50
193.9296729442968
 51
227.4999999996326
  0
ARC
  5
3746F
330
1F
100
AcDbEntity
  8
TRAITS INTERIEURS FIN
100
AcDbCircle
 10
177369.1194398231
 20
-42492.1000534181
 30
0.0
 40
8.0
100
AcDbArc
 50
312.5000000003674
 51
346.0703270557032
  0
ARC
  5
37470
330
1F
100
AcDbEntity
  8
CONTOURS
100
AcDbCircle
 10
177384.0990789762
 20
-42510.9259440043
 30
0.0
 40
6.0
100
AcDbArc
 50
132.5000000003674
 51
174.4999999999844
  0
ARC
  5
37471
330
1F
100
AcDbEntity
  8
CONTOURS
100
AcDbCircle
 10
177293.507465606
 20
-42510.9259440043
 30
0.0
 40
6.0
100
AcDbArc
 50
5.500000000015534
 51
47.4999999996326
  0
ARC
  5
37472
330
1F
100
AcDbEntity
  8
TRAITS INTERIEURS FIN
100
AcDbCircle
 10
177294.0189884381
 20
-42491.9227505924
 30
0.0
 40
5.999963411299999
100
AcDbArc
 50
13.93018651041461
 51
85.0456208086833
  0
ARC
  5
37473
330
1F
100
AcDbEntity
  8
TRAITS INTERIEURS FIN
100
AcDbCircle
 10
177383.5563980506
 20
-42492.0448944244
 30
0.0
 40
5.999282156699999
100
AcDbArc
 50
93.32160307825937
 51
166.0757251575135
  0
ARC
  5
37474
330
1F
100
AcDbEntity
  8
0
100
AcDbCircle
 10
177171.8211343893
 20
-42463.2840174032
 30
0.0
 40
5.449609404299999
100
AcDbArc
 50
84.95691470002986
 51
89.20367418035487
  0
ARC
  5
37475
330
1F
100
AcDbEntity
  8
CONTOURS
100
AcDbCircle
 10
177390.5852714204
 20
-42500.6181162078
 30
0.0
 40
5.005838341899999
100
AcDbArc
 50
94.13377509146348
 51
159.7864109789631
  0
ARC
  5
37476
330
1F
100
AcDbEntity
  8
CONTOURS
100
AcDbCircle
 10
177286.9136767815
 20
-42500.3020800015
 30
0.0
 40
5.0003879695
100
AcDbArc
 50
19.27218569567203
 51
84.27710815404257
  0
ARC
  5
37477
330
1F
100
AcDbEntity
  8
CONTOURS
100
AcDbCircle
 10
177304.6199443841
 20
-42542.8660044621
 30
0.0
 40
2.0
100
AcDbArc
 50
185.5000000000155
 51
270.0
  0
ARC
  5
37478
330
1F
100
AcDbEntity
  8
CONTOURS
100
AcDbCircle
 10
177372.9866001982
 20
-42542.8660044621
 30
0.0
 40
2.0
100
AcDbArc
 50
270.0
 51
354.4999999999845
  0
SPLINE
  5
37479
330
1F
100
AcDbEntity
  8
TRAITS INTERIEURS FIN
100
AcDbSpline
210
0.0
220
0.0
230
1.0
 70
     8
 71
     3
 72
    11
 73
     7
 74
     0
 42
0.0000000001
 43
0.0000000001
 40
0.0
 40
0.0
 40
0.0
 40
0.0
 40
0.2723053182
 40
0.5271853209000001
 40
0.7678623020000001
 40
1.0
 40
1.0
 40
1.0
 40
1.0
 10
177404.8664091793
 20
-42425.7923629918
 30
0.0
 10
177404.3599895739
 20
-42425.7900096856
 30
0.0
 10
177403.3770874355
 20
-42425.7059918796
 30
0.0
 10
177401.9939126551
 20
-42425.3133292697
 30
0.0
 10
177400.7925473785
 20
-42424.6655661276
 30
0.0
 10
177400.1336000569
 20
-42424.0672818262
 30
0.0
 10
177399.8533003078
 20
-42423.7389277114
 30
0.0
  0
SPLINE
  5
3747A
330
1F
100
AcDbEntity
  8
CONTOURS
100
AcDbSpline
210
0.0
220
0.0
230
1.0
 70
     8
 71
     3
 72
     9
 73
     5
 74
     0
 42
0.0000000001
 43
0.0000000001
 40
0.0
 40
0.0
 40
0.0
 40
0.0
 40
0.2512502835
 40
1.0
 40
1.0
 40
1.0
 40
1.0
 10
177509.0459798316
 20
-42462.5159461813
 30
0.0
 10
177508.6550635801
 20
-42462.5196282955
 30
0.0
 10
177507.1035238349
 20
-42462.6287280825
 30
0.0
 10
177505.5632884863
 20
-42463.127613629
 30
0.0
 10
177504.5729724158
 20
-42463.7412453828
 30
0.0
  0
SPLINE
  5
3747B
330
1F
100
AcDbEntity
  8
CONTOURS
100
AcDbSpline
210
0.0
220
0.0
230
1.0
 70
     8
 71
     3
 72
    13
 73
     9
 74
     0
 42
0.0000000001
 43
0.0000000001
 40
0.0
 40
0.0
 40
0.0
 40
0.0
 40
0.2500569499
 40
0.4998004188000001
 40
0.6250029458
 40
0.7501131194
 40
0.8751007653
 40
1.0
 40
1.0
 40
1.0
 40
1.0
 10
177584.1959765068
 20
-42366.28837207391
 30
0.0
 10
177584.8767575264
 20
-42366.2883581766
 30
0.0
 10
177586.2434419236
 20
-42366.4637585469
 30
0.0
 10
177587.8331849671
 20
-42367.1542939427
 30
0.0
 10
177588.8956466503
 20
-42368.0191790979
 30
0.0
 10
177589.5331125127
 20
-42368.8309882456
 30
0.0
 10
177589.9330732369
 20
-42369.7856205877
 30
0.0
 10
177589.9900882454
 20
-42370.47771077199
 30
0.0
 10
177589.9628119517
 20
-42370.8166536715
 30
0.0
  0
SPLINE
  5
3747C
330
1F
100
AcDbEntity
  8
TRAITS INTERIEURS FIN
100
AcDbSpline
210
0.0
220
0.0
230
1.0
 70
     8
 71
     3
 72
    18
 73
    14
 74
     0
 42
0.0000000001
 43
0.0000000001
 40
0.0
 40
0.0
 40
0.0
 40
0.0
 40
0.0492200197
 40
0.0995864584
 40
0.1521040122
 40
0.2074746297
 40
0.266057217
 40
0.3278864061
 40
0.459838885
 40
0.5993270547
 40
0.7401046006000001
 40
0.8755090297
 40
1.0
 40
1.0
 40
1.0
 40
1.0
 10
177416.7646544174
 20
-42409.6647692979
 30
0.0
 10
177417.0187203514
 20
-42409.9623954325
 30
0.0
 10
177417.4667633723
 20
-42410.624441938
 30
0.0
 10
177417.9143527395
 20
-42411.7571178058
 30
0.0
 10
177418.1321951417
 20
-42413.0044549485
 30
0.0
 10
177418.1169183455
 20
-42414.3345248784
 30
0.0
 10
177417.870903136
 20
-42415.7160906611
 30
0.0
 10
177417.230656289
 20
-42417.6239129092
 30
0.0
 10
177415.8844280431
 20
-42419.94070395549
 30
0.0
 10
177413.6283298372
 20
-42422.3510081437
 30
0.0
 10
177410.8940119687
 20
-42424.2522289425
 30
0.0
 10
177407.9286983244
 20
-42425.4812055329
 30
0.0
 10
177405.8561527202
 20
-42425.7969622797
 30
0.0
 10
177404.8664091793
 20
-42425.7923629918
 30
0.0
  0
SPLINE
  5
3747D
330
1F
100
AcDbEntity
  8
CONTOURS
100
AcDbSpline
210
0.0
220
0.0
230
1.0
 70
     8
 71
     3
 72
    11
 73
     7
 74
     0
 42
0.0000000001
 43
0.0000000001
 40
0.0
 40
0.0
 40
0.0
 40
0.0
 40
0.2500444498999999
 40
0.5000660158
 40
0.7500504142000001
 40
1.0
 40
1.0
 40
1.0
 40
1.0
 10
177136.0832501262
 20
-42466.2883742995
 30
0.0
 10
177135.7419829845
 20
-42466.2883742995
 30
0.0
 10
177135.0541031347
 20
-42466.1739055927
 30
0.0
 10
177134.1389043171
 20
-42465.6748636164
 30
0.0
 10
177133.4397141611
 20
-42464.9010566039
 30
0.0
 10
177133.1744720848
 20
-42464.2548538531
 30
0.0
 10
177133.1013170945
 20
-42463.921652328
 30
0.0
  0
SPLINE
  5
3747E
330
1F
100
AcDbEntity
  8
CONTOURS
100
AcDbSpline
210
0.0
220
0.0
230
1.0
 70
     8
 71
     3
 72
    11
 73
     7
 74
     0
 42
0.0000000001
 43
0.0000000001
 40
0.0
 40
0.0
 40
0.0
 40
0.0
 40
0.2494746301
 40
0.4994111011
 40
0.7496388462000001
 40
1.0
 40
1.0
 40
1.0
 40
1.0
 10
177554.8556704411
 20
-42463.9956325476
 30
0.0
 10
177554.7538490226
 20
-42464.349471339
 30
0.0
 10
177554.3935258443
 20
-42465.01932978731
 30
0.0
 10
177553.538286094
 20
-42465.7517202023
 30
0.0
 10
177552.5055999578
 20
-42466.1914958475
 30
0.0
 10
177551.762983095
 20
-42466.2883742995
 30
0.0
 10
177551.3934770559
 20
-42466.2883742995
 30
0.0
  0
SPLINE
  5
3747F
330
1F
100
AcDbEntity
  8
CONTOURS
100
AcDbSpline
210
0.0
220
0.0
230
1.0
 70
     8
 71
     3
 72
    13
 73
     9
 74
     0
 42
0.0000000001
 43
0.0000000001
 40
0.0
 40
0.0
 40
0.0
 40
0.0
 40
0.1250112239
 40
0.2500220324
 40
0.3750345358
 40
0.5000490008
 40
0.7500077031999999
 40
1.0
 40
1.0
 40
1.0
 40
1.0
 10
177504.5729701808
 20
-42463.741241776
 30
0.0
 10
177501.3287034689
 20
-42465.751512952
 30
0.0
 10
177494.7120407435
 20
-42469.56946841859
 30
0.0
 10
177484.4471239574
 20
-42474.6581253572
 30
0.0
 10
177473.8859663148
 20
-42479.0998869988
 30
0.0
 10
177459.4848787082
 20
-42484.1838022465
 30
0.0
 10
177441.0006275613
 20
-42489.0515391909
 30
0.0
 10
177425.9416071761
 20
-42491.6363280929
 30
0.0
 10
177418.3809032835
 20
-42492.6791758147
 30
0.0
  0
SPLINE
  5
37480
330
1F
100
AcDbEntity
  8
CONTOURS
100
AcDbSpline
210
0.0
220
0.0
230
1.0
 70
     8
 71
     3
 72
    14
 73
    10
 74
     0
 42
0.0000000001
 43
0.0000000001
 40
0.0
 40
0.0
 40
0.0
 40
0.0
 40
0.2499631658
 40
0.3749724597
 40
0.4999796711000001
 40
0.6249857106000001
 40
0.7499907154000001
 40
0.8749949843999999
 40
1.0
 40
1.0
 40
1.0
 40
1.0
 10
177262.2220457171
 20
-42492.0505685362
 30
0.0
 10
177254.4681620859
 20
-42490.80865766719
 30
0.0
 10
177242.8971726936
 20
-42488.4936322371
 30
0.0
 10
177227.7594832555
 20
-42484.2812256068
 30
0.0
 10
177216.5912505334
 20
-42480.5091328516
 30
0.0
 10
177205.6623344045
 20
-42476.0903506087
 30
0.0
 10
177195.0257095393
 20
-42471.0065492654
 30
0.0
 10
177184.7310242019
 20
-42465.2624655809
 30
0.0
 10
177178.1219462456
 20
-42461.0078265019
 30
0.0
 10
177174.8865300599
 20
-42458.7820396966
 30
0.0
  0
SPLINE
  5
37481
330
1F
100
AcDbEntity
  8
CONTOURS
100
AcDbSpline
210
0.0
220
0.0
230
1.0
 70
     8
 71
     3
 72
    26
 73
    22
 74
     0
 42
0.0000000001
 43
0.0000000001
 40
0.0
 40
0.0
 40
0.0
 40
0.0
 40
0.1250173928
 40
0.2500305802
 40
0.3125405244
 40
0.3750496093
 40
0.4375570244000001
 40
0.5000610936
 40
0.5625579282000001
 40
0.6250386648
 40
0.6562906331000001
 40
0.6875411199000001
 40
0.718792271
 40
0.7344200221
 40
0.7500477979000002
 40
0.7813031562
 40
0.8125542734999999
 40
0.8438016184
 40
0.8750492098
 40
0.9375099221999999
 40
1.0
 40
1.0
 40
1.0
 40
1.0
 10
177589.9628053837
 20
-42370.816653143
 30
0.0
 10
177589.6215485819
 20
-42375.0572509583
 30
0.0
 10
177588.8132668346
 20
-42383.52886035451
 30
0.0
 10
177587.3983637997
 20
-42394.0740418967
 30
0.0
 10
177585.9356005349
 20
-42402.4570221578
 30
0.0
 10
177584.634605945
 20
-42408.7059131053
 30
0.0
 10
177583.079470526
 20
-42414.89702309459
 30
0.0
 10
177581.1987268358
 20
-42420.9986950612
 30
0.0
 10
177578.8836707821
 20
-42426.9509947042
 30
0.0
 10
177576.4640730611
 20
-42431.7010646801
 30
0.0
 10
177574.1487506849
 20
-42435.2731010235
 30
0.0
 10
177572.2126117237
 20
-42437.8129076168
 30
0.0
 10
177570.4463637756
 20
-42439.80299352879
 30
0.0
 10
177568.9664224659
 20
-42441.3310195798
 30
0.0
 10
177567.4536178604
 20
-42442.8266524087
 30
0.0
 10
177565.5423837991
 20
-42444.6751386198
 30
0.0
 10
177563.3532439675
 20
-42446.99945374049
 30
0.0
 10
177561.3710907246
 20
-42449.5052971503
 30
0.0
 10
177559.0612860507
 20
-42453.0826231618
 30
0.0
 10
177556.7826687018
 20
-42457.9094260008
 30
0.0
 10
177555.4437374746
 20
-42461.9520416853
 30
0.0
 10
177554.8556697281
 20
-42463.9956323424
 30
0.0
  0
SPLINE
  5
37482
330
1F
100
AcDbEntity
  8
CONTOURS
100
AcDbSpline
210
0.0
220
0.0
230
1.0
 70
     8
 71
     3
 72
    26
 73
    22
 74
     0
 42
0.0000000001
 43
0.0000000001
 40
0.0
 40
0.0
 40
0.0
 40
0.0
 40
0.0624873642
 40
0.0937380424
 40
0.1249864142
 40
0.1562317255
 40
0.1874763466
 40
0.2187257463
 40
0.2499797218
 40
0.2812317078
 40
0.3124812634
 40
0.3437301517
 40
0.3749800852
 40
0.437459153
 40
0.4999545838000001
 40
0.5624570385000001
 40
0.6249621798
 40
0.6874687540000001
 40
0.7499760774
 40
0.8749866164
 40
1.0
 40
1.0
 40
1.0
 40
1.0
 10
177133.1013173704
 20
-42463.9216522674
 30
0.0
 10
177132.6502116369
 20
-42461.8669859603
 30
0.0
 10
177131.8564534515
 20
-42458.80576951149
 30
0.0
 10
177130.4368543422
 20
-42454.8418246277
 30
0.0
 10
177129.1469197725
 20
-42451.9573808388
 30
0.0
 10
177127.5914044126
 20
-42449.2055007094
 30
0.0
 10
177125.7546615816
 20
-42446.6322676776
 30
0.0
 10
177123.6857682667
 20
-42444.2453273946
 30
0.0
 10
177121.510885823
 20
-42441.9583409201
 30
0.0
 10
177119.3974577625
 20
-42439.6125984359
 30
0.0
 10
177117.436542287
 20
-42437.1361104491
 30
0.0
 10
177115.6678963374
 20
-42434.5184946532
 30
0.0
 10
177113.5770438884
 20
-42430.8636444738
 30
0.0
 10
177111.4214376687
 20
-42426.0528415556
 30
0.0
 10
177109.3808871487
 20
-42420.0748592124
 30
0.0
 10
177107.7274321197
 20
-42413.979816724
 30
0.0
 10
177106.3568488576
 20
-42407.8162342041
 30
0.0
 10
177105.1987777765
 20
-42401.6096705105
 30
0.0
 10
177103.8751292446
 20
-42393.2967204552
 30
0.0
 10
177102.5465284871
 20
-42382.8573544858
 30
0.0
 10
177101.7185280708
 20
-42374.4804991161
 30
0.0
 10
177101.3475257518
 20
-42370.2883745038
 30
0.0
  0
SPLINE
  5
37483
330
1F
100
AcDbEntity
  8
CONTOURS
100
AcDbSpline
210
0.0
220
0.0
230
1.0
 70
     8
 71
     3
 72
     9
 73
     5
 74
     0
 42
0.0000000001
 43
0.0000000001
 40
0.0
 40
0.0
 40
0.0
 40
0.0
 40
0.4999807433
 40
1.0
 40
1.0
 40
1.0
 40
1.0
 10
177174.8865300594
 20
-42458.782039697
 30
0.0
 10
177174.5061733793
 20
-42458.5203755526
 30
0.0
 10
177173.6732930714
 20
-42458.0952340656
 30
0.0
 10
177172.7600997024
 20
-42457.89609148279
 30
0.0
 10
177172.3001814151
 20
-42457.8555041071
 30
0.0
  0
SPLINE
  5
37484
330
1F
100
AcDbEntity
  8
CONTOURS
100
AcDbSpline
210
0.0
220
0.0
230
1.0
 70
     8
 71
     3
 72
    11
 73
     7
 74
     0
 42
0.0000000001
 43
0.0000000001
 40
0.0
 40
0.0
 40
0.0
 40
0.0
 40
0.2497732512
 40
0.4996815062
 40
0.7497797731999999
 40
1.0
 40
1.0
 40
1.0
 40
1.0
 10
177101.2752529622
 20
-42369.4720799677
 30
0.0
 10
177101.239025703
 20
-42369.06288770581
 30
0.0
 10
177101.35212099
 20
-42368.2165744894
 30
0.0
 10
177102.0404686555
 20
-42367.1493629075
 30
0.0
 10
177103.0959334234
 20
-42366.4492468704
 30
0.0
 10
177103.9277304613
 20
-42366.2883821432
 30
0.0
 10
177104.3392583817
 20
-42366.28837482379
 30
0.0
  0
SPLINE
  5
37485
330
1F
100
AcDbEntity
  8
TRAITS INTERIEURS FIN
100
AcDbSpline
210
0.0
220
0.0
230
1.0
 70
     8
 71
     3
 72
    18
 73
    14
 74
     0
 42
0.0000000001
 43
0.0000000001
 40
0.0
 40
0.0
 40
0.0
 40
0.0
 40
0.048697364
 40
0.0984796693
 40
0.1504736258
 40
0.2054739553
 40
0.2638884157
 40
0.3257568239
 40
0.4582860531000001
 40
0.5985993163000001
 40
0.7399799312999999
 40
0.8755566975
 40
1.0
 40
1.0
 40
1.0
 40
1.0
 10
177399.8533003078
 20
-42423.7389277114
 30
0.0
 10
177399.6031970414
 20
-42423.4459469401
 30
0.0
 10
177399.1631866946
 20
-42422.7936860103
 30
0.0
 10
177398.7289121336
 20
-42421.6759828881
 30
0.0
 10
177398.5252523692
 20
-42420.4444512608
 30
0.0
 10
177398.553840355
 20
-42419.1297405551
 30
0.0
 10
177398.8107812889
 20
-42417.7615273308
 30
0.0
 10
177399.4621122552
 20
-42415.8646766348
 30
0.0
 10
177400.8103122121
 20
-42413.5534372468
 30
0.0
 10
177403.0491423643
 20
-42411.1302682592
 30
0.0
 10
177405.7563249048
 20
-42409.1989665063
 30
0.0
 10
177408.6955093762
 20
-42407.9342616915
 30
0.0
 10
177410.7568671427
 20
-42407.6002311822
 30
0.0
 10
177411.7412573346
 20
-42407.5992843733
 30
0.0
  0
SPLINE
  5
37486
330
1F
100
AcDbEntity
  8
CONTOURS
100
AcDbSpline
210
0.0
220
0.0
230
1.0
 70
     8
 71
     3
 72
    11
 73
     7
 74
     0
 42
0.0000000001
 43
0.0000000001
 40
0.0
 40
0.0
 40
0.0
 40
0.0
 40
0.2500768133
 40
0.5001029771
 40
0.7500689529000001
 40
1.0
 40
1.0
 40
1.0
 40
1.0
 10
177146.0309536502
 20
-42457.4760082065
 30
0.0
 10
177145.6438900444
 20
-42457.4706371477
 30
0.0
 10
177144.8598479167
 20
-42457.6074779678
 30
0.0
 10
177143.8489982434
 20
-42458.2335145229
 30
0.0
 10
177143.1479390259
 20
-42459.1950455558
 30
0.0
 10
177142.9637265704
 20
-42459.9714068647
 30
0.0
 10
177142.9499838648
 20
-42460.35803793519
 30
0.0
  0
SPLINE
  5
37487
330
1F
100
AcDbEntity
  8
CONTOURS
100
AcDbSpline
210
0.0
220
0.0
230
1.0
 70
     8
 71
     3
 72
    10
 73
     6
 74
     0
 42
0.0000000001
 43
0.0000000001
 40
0.0
 40
0.0
 40
0.0
 40
0.0
 40
0.2505429080999999
 40
0.5013201438000001
 40
1.0
 40
1.0
 40
1.0
 40
1.0
 10
177543.7800068874
 20
-42464.6104232555
 30
0.0
 10
177543.625408978
 20
-42464.3462412736
 30
0.0
 10
177543.2261634614
 20
-42463.8661981821
 30
0.0
 10
177542.2053599222
 20
-42463.1762865279
 30
0.0
 10
177541.2720860774
 20
-42462.9605418574
 30
0.0
 10
177540.6628990801
 20
-42462.9520885201
 30
0.0
  0
SPLINE
  5
37488
330
1F
100
AcDbEntity
  8
CONTOURS
100
AcDbSpline
210
0.0
220
0.0
230
1.0
 70
     8
 71
     3
 72
    10
 73
     6
 74
     0
 42
0.0000000001
 43
0.0000000001
 40
0.0
 40
0.0
 40
0.0
 40
0.0
 40
0.4986328477000001
 40
0.7494413244000001
 40
1.0
 40
1.0
 40
1.0
 40
1.0
 10
177546.9870568465
 20
-42466.2883742591
 30
0.0
 10
177546.3620252114
 20
-42466.28837424689
 30
0.0
 10
177545.4013405591
 20
-42466.0750809395
 30
0.0
 10
177544.3499655005
 20
-42465.3731371536
 30
0.0
 10
177543.9386348284
 20
-42464.88149336809
 30
0.0
 10
177543.7800061292
 20
-42464.6104236993
 30
0.0
  0
SPLINE
  5
37489
330
1F
100
AcDbEntity
  8
CONTOURS
100
AcDbSpline
210
0.0
220
0.0
230
1.0
 70
     8
 71
     3
 72
    11
 73
     7
 74
     0
 42
0.0000000001
 43
0.0000000001
 40
0.0
 40
0.0
 40
0.0
 40
0.0
 40
0.2499264314
 40
0.4998990307000001
 40
0.7499298681000001
 40
1.0
 40
1.0
 40
1.0
 40
1.0
 10
177142.8421042946
 20
-42463.3930728047
 30
0.0
 10
177142.8284308752
 20
-42463.7777620837
 30
0.0
 10
177142.6459563745
 20
-42464.550068538
 30
0.0
 10
177141.9535669022
 20
-42465.5096723814
 30
0.0
 10
177140.9544059886
 20
-42466.1419402222
 30
0.0
 10
177140.1764297551
 20
-42466.288375146
 30
0.0
 10
177139.7912762235
 20
-42466.2883751616
 30
0.0
  0
SPLINE
  5
3748A
330
1F
100
AcDbEntity
  8
TRAITS INTERIEURS FIN
100
AcDbSpline
210
0.0
220
0.0
230
1.0
 70
     8
 71
     3
 72
    22
 73
    18
 74
     0
 42
0.0000000001
 43
0.0000000001
 40
0.0
 40
0.0
 40
0.0
 40
0.0
 40
0.0312539772
 40
0.0625094438
 40
0.0937653093
 40
0.1250213398
 40
0.1875313953
 40
0.2500412743
 40
0.3750238828
 40
0.4999838531
 40
0.5624897575
 40
0.6249947181000001
 40
0.6874996648999999
 40
0.7500051872000001
 40
0.8125114629
 40
0.8750191642
 40
1.0
 40
1.0
 40
1.0
 40
1.0
 10
177107.056601327
 20
-42367.8486878667
 30
0.0
 10
177108.0742374955
 20
-42369.6807444341
 30
0.0
 10
177110.2210302284
 20
-42373.282943913
 30
0.0
 10
177113.6173875084
 20
-42378.5745995976
 30
0.0
 10
177117.1406965591
 20
-42383.7828869866
 30
0.0
 10
177121.9736536702
 20
-42390.6332451755
 30
0.0
 10
177128.2380992059
 20
-42399.0365025039
 30
0.0
 10
177138.7002449891
 20
-42412.13774352679
 30
0.0
 10
177152.7664189543
 20
-42427.7065008709
 30
0.0
 10
177168.4452138184
 20
-42441.68780963589
 30
0.0
 10
177181.9998437372
 20
-42451.5677707385
 30
0.0
 10
177192.6602295019
 20
-42458.2556020734
 30
0.0
 10
177203.7720339709
 20
-42464.1629749513
 30
0.0
 10
177215.2748487448
 20
-42469.26610227609
 30
0.0
 10
177227.0973864326
 20
-42473.5752496233
 30
0.0
 10
177243.1847439573
 20
-42478.3168165486
 30
0.0
 10
177255.5286220093
 20
-42480.8428055021
 30
0.0
 10
177263.8032727837
 20
-42482.17057238591
 30
0.0
  0
LINE
  5
3748B
330
1F
100
AcDbEntity
  8
CONTOURS
100
AcDbLine
 10
177142.9499871636
 20
-42460.3580380524
 30
0.0
 11
177142.8421086008
 21
-42463.39307295779
 31
0.0
  0
SPLINE
  5
3748C
330
1F
100
AcDbEntity
  8
TRAITS INTERIEURS FIN
100
AcDbSpline
210
0.0
220
0.0
230
1.0
 70
     8
 71
     3
 72
    11
 73
     7
 74
     0
 42
0.0000000001
 43
0.0000000001
 40
0.0
 40
0.0
 40
0.0
 40
0.0
 40
0.2495671975
 40
0.4995648466
 40
0.7497482594
 40
1.0
 40
1.0
 40
1.0
 40
1.0
 10
177578.9878840732
 20
-42368.6640032123
 30
0.0
 10
177579.264288383
 20
-42368.2554170246
 30
0.0
 10
177579.9736521455
 20
-42367.53860699741
 30
0.0
 10
177581.2780578545
 20
-42366.8077392184
 30
0.0
 10
177582.7095926897
 20
-42366.381508841
 30
0.0
 10
177583.7013263458
 20
-42366.2883821716
 30
0.0
 10
177584.1959765068
 20
-42366.28837207391
 30
0.0
  0
LINE
  5
3748D
330
1F
100
AcDbEntity
  8
0
100
AcDbLine
 10
177172.6833281002
 20
-42457.9029156785
 30
0.0
 11
177172.2949750819
 21
-42457.8697250488
 31
0.0
  0
LINE
  5
3748E
330
1F
100
AcDbEntity
  8
CONTOURS
100
AcDbLine
 10
177509.2682221837
 20
-42462.51644266251
 30
0.0
 11
177509.0468025663
 21
-42462.518527365
 31
0.0
  0
SPLINE
  5
3748F
330
1F
100
AcDbEntity
  8
TRAITS INTERIEURS FIN
100
AcDbSpline
210
0.0
220
0.0
230
1.0
 70
     8
 71
     3
 72
    11
 73
     7
 74
     0
 42
0.0000000001
 43
0.0000000001
 40
0.0
 40
0.0
 40
0.0
 40
0.0
 40
0.2704542459
 40
0.5245661543
 40
0.7658672735
 40
1.0
 40
1.0
 40
1.0
 40
1.0
 10
177411.7412573346
 20
-42407.5992843733
 30
0.0
 10
177412.2458067633
 20
-42407.5987990861
 30
0.0
 10
177413.2274517226
 20
-42407.6792056691
 30
0.0
 10
177414.611458223
 20
-42408.07281705531
 30
0.0
 10
177415.8178489508
 20
-42408.72780239929
 30
0.0
 10
177416.4810667249
 20
-42409.33255983
 30
0.0
 10
177416.7646544174
 20
-42409.6647692979
 30
0.0
  0
SPLINE
  5
37490
330
1F
100
AcDbEntity
  8
TRAITS INTERIEURS FIN
100
AcDbSpline
210
0.0
220
0.0
230
1.0
 70
     8
 71
     3
 72
    22
 73
    18
 74
     0
 42
0.0000000001
 43
0.0000000001
 40
0.0
 40
0.0
 40
0.0
 40
0.0
 40
0.1249780668
 40
0.187483069
 40
0.2499864095
 40
0.3124882788
 40
0.3749891298
 40
0.437490343
 40
0.4999931906000001
 40
0.6249501384000001
 40
0.6874569849
 40
0.7499643751999999
 40
0.8124727084999999
 40
0.8749815554000001
 40
0.9374903734
 40
0.9687452788999999
 40
1.0
 40
1.0
 40
1.0
 40
1.0
 10
177416.8032559284
 20
-42482.7096032443
 30
0.0
 10
177425.2758429732
 20
-42481.5114667081
 30
0.0
 10
177437.9306652789
 20
-42479.2065797783
 30
0.0
 10
177454.4599446911
 20
-42474.7296506289
 30
0.0
 10
177466.6186020943
 20
-42470.575881732
 30
0.0
 10
177478.449383317
 20
-42465.56094156081
 30
0.0
 10
177489.8656754455
 20
-42459.6615002293
 30
0.0
 10
177500.7965083655
 20
-42452.9050087081
 30
0.0
 10
177514.66610396
 20
-42442.8568712846
 30
0.0
 10
177527.4810016297
 20
-42431.440911688
 30
0.0
 10
177539.3615679784
 20
-42419.11785323289
 30
0.0
 10
177547.8739011574
 20
-42409.5010256589
 30
0.0
 10
177556.0470628563
 20
-42399.596990079
 30
0.0
 10
177563.9617799253
 20
-42389.4858155519
 30
0.0
 10
177570.3619008611
 20
-42380.9101139148
 30
0.0
 10
177575.3494182518
 20
-42373.95342781559
 30
0.0
 10
177577.7887785598
 20
-42370.4364032985
 30
0.0
 10
177578.9878310478
 20
-42368.6639673407
 30
0.0
  0
SPLINE
  5
37491
330
1F
100
AcDbEntity
  8
TRAITS INTERIEURS FIN
100
AcDbSpline
210
0.0
220
0.0
230
1.0
 70
     8
 71
     3
 72
    11
 73
     7
 74
     0
 42
0.0000000001
 43
0.0000000001
 40
0.0
 40
0.0
 40
0.0
 40
0.0
 40
0.2500516672
 40
0.5000823920000001
 40
0.7500692354
 40
1.0
 40
1.0
 40
1.0
 40
1.0
 10
177104.3392583817
 20
-42366.28837482379
 30
0.0
 10
177104.6122874174
 20
-42366.2883699677
 30
0.0
 10
177105.1608754101
 20
-42366.3583935767
 30
0.0
 10
177105.9284064417
 20
-42366.6688726247
 30
0.0
 10
177106.589139001
 20
-42367.168483024
 30
0.0
 10
177106.9240834087
 20
-42367.61012595279
 30
0.0
 10
177107.0565968555
 20
-42367.8486903504
 30
0.0
  0
LINE
  5
37492
330
1F
100
AcDbEntity
  8
CONTOURS
100
AcDbLine
 10
177136.0832501262
 20
-42466.2883742995
 30
0.0
 11
177139.7912762235
 21
-42466.2883751616
 31
0.0
  0
LINE
  5
37493
330
1F
100
AcDbEntity
  8
CONTOURS
100
AcDbLine
 10
177546.9870568465
 20
-42466.2883742591
 30
0.0
 11
177551.3934770559
 21
-42466.2883742995
 31
0.0
  0
LINE
  5
374C5
330
1F
100
AcDbEntity
  8
AXES
 48
30.0
100
AcDbLine
 10
177338.6659874726
 20
-42553.53409616102
 30
0.0
 11
177338.6659874726
 21
-42486.33409616102
 31
0.0
  0
VIEWPORT
  5
3EF
330
23
100
AcDbEntity
 67
     1
  8
0
100
AcDbViewport
 10
2430.509960921944
 20
1187.184910510923
 30
0.0
 40
5551.528278373901
 41
2902.656214121211
 68
     2
 69
     1
 12
2430.509960921944
 22
1187.184910510923
 13
0.0
 23
0.0
 14
10.0
 24
10.0
 15
10.0
 25
10.0
 16
0.0
 26
0.0
 36
1.0
 17
0.0
 27
0.0
 37
0.0
 42
50.0
 43
0.0
 44
0.0
 45
2902.656214121211
 50
0.0
 51
0.0
 72
 20000
 90
    32800
  1

281
     0
 71
     1
 74
     0
110
0.0
120
0.0
130
0.0
111
1.0
121
0.0
131
0.0
112
0.0
122
1.0
132
0.0
 79
     0
146
0.0
170
     0
 61
     5
348
118D
292
     1
282
     1
141
0.0
142
0.0
 63
   250
421
  3355443
  0
VIEWPORT
  5
3F1
330
23
100
AcDbEntity
 67
     1
  8
0
100
AcDbViewport
 10
1439.016350385474
 20
985.0994206063571
 30
0.0
 40
2868.720496430637
 41
1963.626793872126
 68
     1
 69
     2
 12
4567.076136122964
 22
2046.23637355573
 13
0.0
 23
0.0
 14
10.0
 24
10.0
 15
10.0
 25
10.0
 16
0.0
 26
0.0
 36
1.0
 17
0.0
 27
0.0
 37
0.0
 42
50.0
 43
0.0
 44
0.0
 45
1828.293185278945
 50
0.0
 51
0.0
 72
 20000
 90
    32864
  1

281
     0
 71
     1
 74
     0
110
0.0
120
0.0
130
0.0
111
1.0
121
0.0
131
0.0
112
0.0
122
1.0
132
0.0
 79
     0
146
0.0
170
     0
 61
     5
348
118D
292
     1
282
     1
141
0.0
142
0.0
 63
   250
421
  3355443
  0
ENDSEC
  0
SECTION
  2
OBJECTS
  0
DICTIONARY
  5
C
330
0
100
AcDbDictionary
281
     1
  3
ACAD_COLOR
350
B78
  3
ACAD_GROUP
350
D
  3
ACAD_LAYOUT
350
1A
  3
ACAD_MATERIAL
350
B77
  3
ACAD_MLEADERSTYLE
350
11BC
  3
ACAD_MLINESTYLE
350
17
  3
ACAD_PLOTSETTINGS
350
19
  3
ACAD_PLOTSTYLENAME
350
E
  3
ACAD_SCALELIST
350
119A
  3
ACAD_TABLESTYLE
350
1198
  3
ACAD_VISUALSTYLE
350
1187
  3
ACDB_RECOMPOSE_DATA
350
377E7
  3
AcDbVariableDictionary
350
1200
  0
DICTIONARY
  5
11DC
330
8
100
AcDbDictionary
280
     1
281
     1
  0
DICTIONARY
  5
1263
330
2
100
AcDbDictionary
280
     1
281
     1
  3
ACAD_LAYERFILTERS
360
51D8
  3
ACAD_LAYERSTATES
360
13A3
  3
ACLYDICTIONARY
360
51D7
  0
DICTIONARY
  5
11C8
330
10
100
AcDbDictionary
280
     1
281
     1
  3
ADSK_XREC_LAYER_RECONCILED
360
11C9
  0
DICTIONARY
  5
11CA
330
2C
100
AcDbDictionary
280
     1
281
     1
  3
ADSK_XREC_LAYER_RECONCILED
360
11CB
  0
DICTIONARY
  5
11CC
330
2D
100
AcDbDictionary
280
     1
281
     1
  3
ADSK_XREC_LAYER_RECONCILED
360
11CD
  0
DICTIONARY
  5
11CE
330
B6E
100
AcDbDictionary
280
     1
281
     1
  3
ADSK_XREC_LAYER_RECONCILED
360
11CF
  0
DICTIONARY
  5
11D0
330
1154
100
AcDbDictionary
280
     1
281
     1
  3
ADSK_XREC_LAYER_RECONCILED
360
11D1
  0
DICTIONARY
  5
F6C
330
1F
100
AcDbDictionary
280
     1
281
     1
  3
ACAD_SORTENTS
360
F6D
  0
DICTIONARY
  5
10044
330
10040
100
AcDbDictionary
280
     1
281
     1
  3
ACAD_SORTENTS
360
10045
  0
DICTIONARY
  5
B78
102
{ACAD_REACTORS
330
C
102
}
330
C
100
AcDbDictionary
281
     1
  0
DICTIONARY
  5
D
102
{ACAD_REACTORS
330
C
102
}
330
C
100
AcDbDictionary
281
     1
  3
*A1
350
1139
  3
*A2
350
113A
  3
*A3
350
374AA
  3
*A4
350
375E7
  3
*A5
350
375E8
  3
*A6
350
375F1
  3
*A7
350
37633
  0
DICTIONARY
  5
1A
102
{ACAD_REACTORS
330
C
102
}
330
C
100
AcDbDictionary
281
     1
  3
Model
350
22
  3
Présentation1
350
1E
  3
Présentation2
350
26
  0
DICTIONARY
  5
B77
102
{ACAD_REACTORS
330
C
102
}
330
C
100
AcDbDictionary
281
     1
  3
ByBlock
350
1177
  3
ByLayer
350
116F
  3
Global
350
117F
  0
DICTIONARY
  5
11BC
102
{ACAD_REACTORS
330
C
102
}
330
C
100
AcDbDictionary
281
     1
  3
Standard
350
11BD
  0
DICTIONARY
  5
17
102
{ACAD_REACTORS
330
C
102
}
330
C
100
AcDbDictionary
281
     1
  3
Standard
350
18
  0
DICTIONARY
  5
19
102
{ACAD_REACTORS
330
C
102
}
330
C
100
AcDbDictionary
281
     1
  0
ACDBDICTIONARYWDFLT
  5
E
102
{ACAD_REACTORS
330
C
102
}
330
C
100
AcDbDictionary
281
     1
  3
Normal
350
F
100
AcDbDictionaryWithDefault
340
F
  0
DICTIONARY
  5
119A
102
{ACAD_REACTORS
330
C
102
}
330
C
100
AcDbDictionary
281
     1
  3
A0
350
119B
  3
A1
350
119C
  3
A2
350
119D
  3
A3
350
119E
  3
A4
350
119F
  3
A5
350
11A0
  3
A6
350
11A1
  3
A7
350
11A2
  3
A8
350
11A3
  3
A9
350
11A4
  3
B0
350
11A5
  3
B1
350
11A6
  3
B2
350
11A7
  3
B3
350
11A8
  3
B4
350
11A9
  3
B5
350
11AA
  3
B6
350
11AB
  3
B7
350
11AC
  3
B8
350
11AD
  3
B9
350
11AE
  3
C0
350
11AF
  3
C1
350
11B0
  3
C2
350
11B1
  3
C3
350
11B2
  3
C4
350
11B3
  3
C5
350
11B4
  3
C6
350
11B5
  3
C7
350
11B6
  3
C8
350
11B7
  3
C9
350
11B8
  3
D0
350
11B9
  3
D1
350
11BA
  3
D2
350
11BB
  0
DICTIONARY
  5
1198
102
{ACAD_REACTORS
330
C
102
}
330
C
100
AcDbDictionary
281
     1
  3
Standard
350
1199
  0
DICTIONARY
  5
1187
102
{ACAD_REACTORS
330
C
102
}
330
C
100
AcDbDictionary
281
     1
  3
2dWireframe
350
118D
  3
3D Hidden
350
118F
  3
3dWireframe
350
118E
  3
Basic
350
118C
  3
Brighten
350
1193
  3
ColorChange
350
1197
  3
Conceptual
350
1190
  3
Dim
350
1192
  3
EdgeColorOff
350
377A5
  3
Facepattern
350
1196
  3
Flat
350
1188
  3
FlatWithEdges
350
1189
  3
Gouraud
350
118A
  3
GouraudWithEdges
350
118B
  3
JitterOff
350
377A3
  3
Linepattern
350
1195
  3
OverhangOff
350
377A4
  3
Realistic
350
1191
  3
Thicken
350
1194
  0
XRECORD
  5
377E7
102
{ACAD_REACTORS
330
C
102
}
330
C
100
AcDbXrecord
280
     1
 90
        1
330
1199
  0
DICTIONARY
  5
1200
102
{ACAD_REACTORS
330
C
102
}
330
C
100
AcDbDictionary
281
     1
  3
CANNOSCALE
350
1203
  3
CMLEADERSTYLE
350
1202
  3
CTABLESTYLE
350
1201
  3
DIMASSOC
350
1206
  3
INDEXCTL
350
1205
  3
LAYEREVAL
350
377E4
  3
LAYERNOTIFY
350
377E5
  3
LIGHTINGUNITS
350
37778
  3
MSLTSCALE
350
37777
  3
SORTENTS
350
1204
  0
DICTIONARY
  5
51D8
102
{ACAD_REACTORS
330
1263
102
}
330
1263
100
AcDbDictionary
281
     1
  0
DICTIONARY
  5
13A3
102
{ACAD_REACTORS
330
1263
102
}
330
1263
100
AcDbDictionary
281
     1
  0
DICTIONARY
  5
51D7
102
{ACAD_REACTORS
330
1263
102
}
330
1263
100
AcDbDictionary
281
     1
1001
ACAD
1000
<AllUsed
  0
XRECORD
  5
11C9
102
{ACAD_REACTORS
330
11C8
102
}
330
11C8
100
AcDbXrecord
280
     1
290
     1
  0
XRECORD
  5
11CB
102
{ACAD_REACTORS
330
11CA
102
}
330
11CA
100
AcDbXrecord
280
     1
290
     1
  0
XRECORD
  5
11CD
102
{ACAD_REACTORS
330
11CC
102
}
330
11CC
100
AcDbXrecord
280
     1
290
     1
  0
XRECORD
  5
11CF
102
{ACAD_REACTORS
330
11CE
102
}
330
11CE
100
AcDbXrecord
280
     1
290
     1
  0
XRECORD
  5
11D1
102
{ACAD_REACTORS
330
11D0
102
}
330
11D0
100
AcDbXrecord
280
     1
290
     1
  0
SORTENTSTABLE
  5
F6D
102
{ACAD_REACTORS
330
F6C
102
}
330
F6C
100
AcDbSortentsTable
330
1F
331
37456
  5
37476
331
37452
  5
37472
331
3748D
  5
37520
331
37489
  5
3751C
331
37485
  5
37518
331
37481
  5
374BB
331
3747D
  5
374B7
331
37479
  5
374B0
331
37475
  5
374AC
331
37471
  5
37491
331
3746D
  5
3748D
331
37469
  5
37489
331
681
  5
32AC0
331
37465
  5
37485
331
37461
  5
37481
331
3745D
  5
3747D
331
37459
  5
37479
331
37490
  5
37523
331
37455
  5
37475
331
3748C
  5
3751F
331
37488
  5
3751B
331
37484
  5
374C5
331
37480
  5
374BA
331
3747C
  5
374B6
331
37478
  5
374AF
331
37474
  5
374AB
331
37470
  5
37490
331
3746C
  5
3748C
331
37468
  5
37488
331
37464
  5
37484
331
37460
  5
37480
331
3745C
  5
3747C
331
37458
  5
37478
331
37493
  5
37526
331
37454
  5
37474
331
3748F
  5
37522
331
3748B
  5
3751E
331
37487
  5
3751A
331
37483
  5
374BD
331
3747F
  5
374B9
331
3747B
  5
374B5
331
37477
  5
374AE
331
37473
  5
37493
331
3746F
  5
3748F
331
3746B
  5
3748B
331
37467
  5
37487
331
37463
  5
37483
331
3745F
  5
3747F
331
3745B
  5
3747B
331
37492
  5
37525
331
37457
  5
37477
331
37453
  5
37473
331
3748E
  5
37521
331
3748A
  5
3751D
331
37486
  5
37519
331
37482
  5
374BC
331
3747E
  5
374B8
331
374C5
  5
37527
331
3747A
  5
374B2
331
37476
  5
374AD
331
37472
  5
37492
331
3746E
  5
3748E
331
3746A
  5
3748A
331
37466
  5
37486
331
2CE81
  5
32AC1
331
37462
  5
37482
331
3745E
  5
3747E
331
3745A
  5
3747A
331
37491
  5
37524
  0
SORTENTSTABLE
  5
10045
102
{ACAD_REACTORS
330
10044
102
}
330
10044
100
AcDbSortentsTable
330
10040
  0
GROUP
  5
1139
102
{ACAD_REACTORS
330
D
102
}
330
D
100
AcDbGroup
300

 70
     1
 71
     1
  0
GROUP
  5
113A
102
{ACAD_REACTORS
330
D
102
}
330
D
100
AcDbGroup
300

 70
     1
 71
     1
  0
GROUP
  5
374AA
102
{ACAD_REACTORS
330
D
102
}
330
D
100
AcDbGroup
300

 70
     1
 71
     1
  0
GROUP
  5
375E7
102
{ACAD_REACTORS
330
D
102
}
330
D
100
AcDbGroup
300

 70
     1
 71
     1
  0
GROUP
  5
375E8
102
{ACAD_REACTORS
330
D
102
}
330
D
100
AcDbGroup
300

 70
     1
 71
     1
  0
GROUP
  5
375F1
102
{ACAD_REACTORS
330
D
102
}
330
D
100
AcDbGroup
300

 70
     1
 71
     1
  0
GROUP
  5
37633
102
{ACAD_REACTORS
330
D
102
}
330
D
100
AcDbGroup
300

 70
     1
 71
     1
  0
LAYOUT
  5
22
102
{ACAD_REACTORS
330
1A
102
}
330
1A
100
AcDbPlotSettings
  1

  2
PDF995
  4
A4
  6

 40
3.174999952316284
 41
3.174999952316284
 42
3.175003051757812
 43
3.17498779296875
 44
209.9733276367187
 45
296.9683227539062
 46
1.173510970580707
 47
0.0
 48
174749.0813833014
 49
-44851.59189328006
140
180409.0813833014
141
-40931.59189328005
142
1.0
143
19.47571545970111
 70
 11956
 72
     1
 73
     1
 74
     4
  7
table_couleur.ctb
 75
     0
147
0.0513459955845621
 76
     0
 77
     2
 78
   300
148
-174749.0813833014
149
44851.59189328006
100
AcDbLayout
  1
Model
 70
     1
 71
     0
 10
0.0
 20
0.0
 11
12.0
 21
9.0
 12
0.0
 22
0.0
 32
0.0
 14
0.0
 24
0.0
 34
0.0
 15
0.0
 25
0.0
 35
0.0
146
0.0
 13
0.0
 23
0.0
 33
0.0
 16
1.0
 26
0.0
 36
0.0
 17
0.0
 27
1.0
 37
0.0
 76
     0
330
1F
331
372E1
1001
ACAD_PSEXT
1000
PDF995
1000
PDF995 Printer Driver
1000
PDF995PORT
1000

1070
     0
  0
LAYOUT
  5
1E
102
{ACAD_REACTORS
330
1A
102
}
330
1A
100
AcDbPlotSettings
  1

  2
\\KEDOD0229\HP LaserJet 4V
  4
A4
  6

 40
6.805083274841308
 41
5.069413185119628
 42
6.805084228515625
 43
5.027069091796875
 44
209.9733276367187
 45
296.9683227539062
 46
0.0
 47
0.0
 48
0.0
 49
0.0
140
0.0
141
0.0
142
1.0
143
10.0
 70
   688
 72
     1
 73
     1
 74
     5
  7
aclt.ctb
 75
    20
147
0.1
 76
     1
 77
     2
 78
   300
148
0.0
149
0.0
100
AcDbLayout
  1
Présentation1
 70
     1
 71
     1
 10
-50.27069091796875
 20
-68.05083274841308
 11
2919.412536621094
 21
2031.682443618775
 12
0.0
 22
0.0
 32
0.0
 14
-49.60246442199059
 24
-66.00788451328753
 34
0.0
 15
2917.059049332895
 25
2030.635493671731
 35
0.0
146
0.0
 13
0.0
 23
0.0
 33
0.0
 16
1.0
 26
0.0
 36
0.0
 17
0.0
 27
1.0
 37
0.0
 76
     0
330
1B
331
10D6
  0
LAYOUT
  5
26
102
{ACAD_REACTORS
330
1A
102
}
330
1A
100
AcDbPlotSettings
  1

  2
\\KEDOD0229\HP LaserJet 4V
  4
A4
  6

 40
6.805083274841308
 41
5.069413185119628
 42
6.805084228515625
 43
5.027069091796875
 44
209.9733276367187
 45
296.9683227539062
 46
0.0
 47
0.0
 48
0.0
 49
0.0
140
0.0
141
0.0
142
1.0
143
10.0
 70
   688
 72
     1
 73
     1
 74
     1
  7
aclt.ctb
 75
    20
147
0.1
 76
     1
 77
     4
 78
   600
148
-4.65610217015574
149
-3.286023670294152
100
AcDbLayout
  1
Présentation2
 70
     1
 71
     2
 10
-45.614588747813
 20
-64.76480907811893
 11
2924.06863879125
 21
2034.968467289068
 12
0.0
 22
0.0
 32
0.0
 14
4.65610217015574
 24
3.286023670294071
 34
0.0
 15
2873.756768105222
 25
1966.91281754242
 35
0.0
146
0.0
 13
0.0
 23
0.0
 33
0.0
 16
1.0
 26
0.0
 36
0.0
 17
0.0
 27
1.0
 37
0.0
 76
     0
330
23
331
3F1
  0
MATERIAL
  5
1177
102
{ACAD_XDICTIONARY
360
1178
102
}
102
{ACAD_REACTORS
330
B77
102
}
330
B77
100
AcDbMaterial
  1
ByBlock
 72
     0
 43
0.0008202099737533
 43
0.0
 43
0.0
 43
0.0
 43
0.0
 43
0.0008202099737533
 43
0.0
 43
0.0
 43
0.0
 43
0.0
 43
1.0
 43
0.0
 43
0.0
 43
0.0
 43
0.0
 43
1.0
 77
     0
 47
0.0008202099737533
 47
0.0
 47
0.0
 47
0.0
 47
0.0
 47
0.0008202099737533
 47
0.0
 47
0.0
 47
0.0
 47
0.0
 47
1.0
 47
0.0
 47
0.0
 47
0.0
 47
0.0
 47
1.0
171
     0
 49
0.0008202099737533
 49
0.0
 49
0.0
 49
0.0
 49
0.0
 49
0.0008202099737533
 49
0.0
 49
0.0
 49
0.0
 49
0.0
 49
1.0
 49
0.0
 49
0.0
 49
0.0
 49
0.0
 49
1.0
175
     0
142
0.0008202099737533
142
0.0
142
0.0
142
0.0
142
0.0
142
0.0008202099737533
142
0.0
142
0.0
142
0.0
142
0.0
142
1.0
142
0.0
142
0.0
142
0.0
142
0.0
142
1.0
179
     0
144
0.0008202099737533
144
0.0
144
0.0
144
0.0
144
0.0
144
0.0008202099737533
144
0.0
144
0.0
144
0.0
144
0.0
144
1.0
144
0.0
144
0.0
144
0.0
144
0.0
144
1.0
147
0.0008202099737533
147
0.0
147
0.0
147
0.0
147
0.0
147
0.0008202099737533
147
0.0
147
0.0
147
0.0
147
0.0
147
1.0
147
0.0
147
0.0
147
0.0
147
0.0
147
1.0
  0
MATERIAL
  5
116F
102
{ACAD_XDICTIONARY
360
1170
102
}
102
{ACAD_REACTORS
330
B77
102
}
330
B77
100
AcDbMaterial
  1
ByLayer
 72
     0
 43
0.0008202099737533
 43
0.0
 43
0.0
 43
0.0
 43
0.0
 43
0.0008202099737533
 43
0.0
 43
0.0
 43
0.0
 43
0.0
 43
1.0
 43
0.0
 43
0.0
 43
0.0
 43
0.0
 43
1.0
 77
     0
 47
0.0008202099737533
 47
0.0
 47
0.0
 47
0.0
 47
0.0
 47
0.0008202099737533
 47
0.0
 47
0.0
 47
0.0
 47
0.0
 47
1.0
 47
0.0
 47
0.0
 47
0.0
 47
0.0
 47
1.0
171
     0
 49
0.0008202099737533
 49
0.0
 49
0.0
 49
0.0
 49
0.0
 49
0.0008202099737533
 49
0.0
 49
0.0
 49
0.0
 49
0.0
 49
1.0
 49
0.0
 49
0.0
 49
0.0
 49
0.0
 49
1.0
175
     0
142
0.0008202099737533
142
0.0
142
0.0
142
0.0
142
0.0
142
0.0008202099737533
142
0.0
142
0.0
142
0.0
142
0.0
142
1.0
142
0.0
142
0.0
142
0.0
142
0.0
142
1.0
179
     0
144
0.0008202099737533
144
0.0
144
0.0
144
0.0
144
0.0
144
0.0008202099737533
144
0.0
144
0.0
144
0.0
144
0.0
144
1.0
144
0.0
144
0.0
144
0.0
144
0.0
144
1.0
147
0.0008202099737533
147
0.0
147
0.0
147
0.0
147
0.0
147
0.0008202099737533
147
0.0
147
0.0
147
0.0
147
0.0
147
1.0
147
0.0
147
0.0
147
0.0
147
0.0
147
1.0
  0
MATERIAL
  5
117F
102
{ACAD_XDICTIONARY
360
1180
102
}
102
{ACAD_REACTORS
330
B77
102
}
330
B77
100
AcDbMaterial
  1
Global
 72
     0
 43
0.0008202099737533
 43
0.0
 43
0.0
 43
0.0
 43
0.0
 43
0.0008202099737533
 43
0.0
 43
0.0
 43
0.0
 43
0.0
 43
1.0
 43
0.0
 43
0.0
 43
0.0
 43
0.0
 43
1.0
 77
     0
 47
0.0008202099737533
 47
0.0
 47
0.0
 47
0.0
 47
0.0
 47
0.0008202099737533
 47
0.0
 47
0.0
 47
0.0
 47
0.0
 47
1.0
 47
0.0
 47
0.0
 47
0.0
 47
0.0
 47
1.0
171
     0
 49
0.0008202099737533
 49
0.0
 49
0.0
 49
0.0
 49
0.0
 49
0.0008202099737533
 49
0.0
 49
0.0
 49
0.0
 49
0.0
 49
1.0
 49
0.0
 49
0.0
 49
0.0
 49
0.0
 49
1.0
175
     0
142
0.0008202099737533
142
0.0
142
0.0
142
0.0
142
0.0
142
0.0008202099737533
142
0.0
142
0.0
142
0.0
142
0.0
142
1.0
142
0.0
142
0.0
142
0.0
142
0.0
142
1.0
179
     0
144
0.0008202099737533
144
0.0
144
0.0
144
0.0
144
0.0
144
0.0008202099737533
144
0.0
144
0.0
144
0.0
144
0.0
144
1.0
144
0.0
144
0.0
144
0.0
144
0.0
144
1.0
147
0.0008202099737533
147
0.0
147
0.0
147
0.0
147
0.0
147
0.0008202099737533
147
0.0
147
0.0
147
0.0
147
0.0
147
1.0
147
0.0
147
0.0
147
0.0
147
0.0
147
1.0
  0
MLEADERSTYLE
  5
11BD
102
{ACAD_REACTORS
330
11BC
102
}
330
11BC
100
AcDbMLeaderStyle
179
     2
170
     2
171
     1
172
     0
 90
        2
 40
0.0
 41
0.0
173
     1
 91
-1056964608
340
14
 92
       -2
290
     1
 42
0.09
291
     1
 43
0.36
  3
Standard
 44
0.18
300

342
11
174
     1
178
     6
175
     1
176
     0
 93
-1056964608
 45
0.18
292
     0
297
     0
 46
0.18
 94
-1056964608
 47
1.0
 49
1.0
140
1.0
293
     1
141
0.0
294
     1
177
     0
142
1.0
295
     0
296
     0
143
0.125
271
     0
272
     9
273
     9
  0
MLINESTYLE
  5
18
102
{ACAD_REACTORS
330
17
102
}
330
17
100
AcDbMlineStyle
  2
STANDARD
 70
     0
  3

 62
   256
 51
90.0
 52
90.0
 71
     2
 49
0.5
 62
   256
  6
BYLAYER
 49
-0.5
 62
   256
  6
BYLAYER
  0
ACDBPLACEHOLDER
  5
F
102
{ACAD_REACTORS
330
E
102
}
330
E
  0
SCALE
  5
119B
102
{ACAD_REACTORS
330
119A
102
}
330
119A
100
AcDbScale
 70
     0
300
1:1
140
1.0
141
1.0
290
     1
  0
SCALE
  5
119C
102
{ACAD_REACTORS
330
119A
102
}
330
119A
100
AcDbScale
 70
     0
300
1:2
140
1.0
141
2.0
290
     0
  0
SCALE
  5
119D
102
{ACAD_REACTORS
330
119A
102
}
330
119A
100
AcDbScale
 70
     0
300
1:4
140
1.0
141
4.0
290
     0
  0
SCALE
  5
119E
102
{ACAD_REACTORS
330
119A
102
}
330
119A
100
AcDbScale
 70
     0
300
1:5
140
1.0
141
5.0
290
     0
  0
SCALE
  5
119F
102
{ACAD_REACTORS
330
119A
102
}
330
119A
100
AcDbScale
 70
     0
300
1:8
140
1.0
141
8.0
290
     0
  0
SCALE
  5
11A0
102
{ACAD_REACTORS
330
119A
102
}
330
119A
100
AcDbScale
 70
     0
300
1:10
140
1.0
141
10.0
290
     0
  0
SCALE
  5
11A1
102
{ACAD_REACTORS
330
119A
102
}
330
119A
100
AcDbScale
 70
     0
300
1:16
140
1.0
141
16.0
290
     0
  0
SCALE
  5
11A2
102
{ACAD_REACTORS
330
119A
102
}
330
119A
100
AcDbScale
 70
     0
300
1:20
140
1.0
141
20.0
290
     0
  0
SCALE
  5
11A3
102
{ACAD_REACTORS
330
119A
102
}
330
119A
100
AcDbScale
 70
     0
300
1:30
140
1.0
141
30.0
290
     0
  0
SCALE
  5
11A4
102
{ACAD_REACTORS
330
119A
102
}
330
119A
100
AcDbScale
 70
     0
300
1:40
140
1.0
141
40.0
290
     0
  0
SCALE
  5
11A5
102
{ACAD_REACTORS
330
119A
102
}
330
119A
100
AcDbScale
 70
     0
300
1:50
140
1.0
141
50.0
290
     0
  0
SCALE
  5
11A6
102
{ACAD_REACTORS
330
119A
102
}
330
119A
100
AcDbScale
 70
     0
300
1:100
140
1.0
141
100.0
290
     0
  0
SCALE
  5
11A7
102
{ACAD_REACTORS
330
119A
102
}
330
119A
100
AcDbScale
 70
     0
300
2:1
140
2.0
141
1.0
290
     0
  0
SCALE
  5
11A8
102
{ACAD_REACTORS
330
119A
102
}
330
119A
100
AcDbScale
 70
     0
300
4:1
140
4.0
141
1.0
290
     0
  0
SCALE
  5
11A9
102
{ACAD_REACTORS
330
119A
102
}
330
119A
100
AcDbScale
 70
     0
300
8:1
140
8.0
141
1.0
290
     0
  0
SCALE
  5
11AA
102
{ACAD_REACTORS
330
119A
102
}
330
119A
100
AcDbScale
 70
     0
300
10:1
140
10.0
141
1.0
290
     0
  0
SCALE
  5
11AB
102
{ACAD_REACTORS
330
119A
102
}
330
119A
100
AcDbScale
 70
     0
300
100:1
140
100.0
141
1.0
290
     0
  0
SCALE
  5
11AC
102
{ACAD_REACTORS
330
119A
102
}
330
119A
100
AcDbScale
 70
     0
300
1/128" = 1'-0"
140
0.0078125
141
12.0
290
     0
  0
SCALE
  5
11AD
102
{ACAD_REACTORS
330
119A
102
}
330
119A
100
AcDbScale
 70
     0
300
1/64" = 1'-0"
140
0.015625
141
12.0
290
     0
  0
SCALE
  5
11AE
102
{ACAD_REACTORS
330
119A
102
}
330
119A
100
AcDbScale
 70
     0
300
1/32" = 1'-0"
140
0.03125
141
12.0
290
     0
  0
SCALE
  5
11AF
102
{ACAD_REACTORS
330
119A
102
}
330
119A
100
AcDbScale
 70
     0
300
1/16" = 1'-0"
140
0.0625
141
12.0
290
     0
  0
SCALE
  5
11B0
102
{ACAD_REACTORS
330
119A
102
}
330
119A
100
AcDbScale
 70
     0
300
3/32" = 1'-0"
140
0.09375
141
12.0
290
     0
  0
SCALE
  5
11B1
102
{ACAD_REACTORS
330
119A
102
}
330
119A
100
AcDbScale
 70
     0
300
1/8" = 1'-0"
140
0.125
141
12.0
290
     0
  0
SCALE
  5
11B2
102
{ACAD_REACTORS
330
119A
102
}
330
119A
100
AcDbScale
 70
     0
300
3/16" = 1'-0"
140
0.1875
141
12.0
290
     0
  0
SCALE
  5
11B3
102
{ACAD_REACTORS
330
119A
102
}
330
119A
100
AcDbScale
 70
     0
300
1/4" = 1'-0"
140
0.25
141
12.0
290
     0
  0
SCALE
  5
11B4
102
{ACAD_REACTORS
330
119A
102
}
330
119A
100
AcDbScale
 70
     0
300
3/8" = 1'-0"
140
0.375
141
12.0
290
     0
  0
SCALE
  5
11B5
102
{ACAD_REACTORS
330
119A
102
}
330
119A
100
AcDbScale
 70
     0
300
1/2" = 1'-0"
140
0.5
141
12.0
290
     0
  0
SCALE
  5
11B6
102
{ACAD_REACTORS
330
119A
102
}
330
119A
100
AcDbScale
 70
     0
300
3/4" = 1'-0"
140
0.75
141
12.0
290
     0
  0
SCALE
  5
11B7
102
{ACAD_REACTORS
330
119A
102
}
330
119A
100
AcDbScale
 70
     0
300
1" = 1'-0"
140
1.0
141
12.0
290
     0
  0
SCALE
  5
11B8
102
{ACAD_REACTORS
330
119A
102
}
330
119A
100
AcDbScale
 70
     0
300
1-1/2" = 1'-0"
140
1.5
141
12.0
290
     0
  0
SCALE
  5
11B9
102
{ACAD_REACTORS
330
119A
102
}
330
119A
100
AcDbScale
 70
     0
300
3" = 1'-0"
140
3.0
141
12.0
290
     0
  0
SCALE
  5
11BA
102
{ACAD_REACTORS
330
119A
102
}
330
119A
100
AcDbScale
 70
     0
300
6" = 1'-0"
140
6.0
141
12.0
290
     0
  0
SCALE
  5
11BB
102
{ACAD_REACTORS
330
119A
102
}
330
119A
100
AcDbScale
 70
     0
300
1'-0" = 1'-0"
140
12.0
141
12.0
290
     0
  0
TABLESTYLE
  5
1199
102
{ACAD_XDICTIONARY
360
11D8
102
}
102
{ACAD_REACTORS
330
1198
102
}
330
1198
100
AcDbTableStyle
280
     0
  3
Standard
 70
     0
 71
     0
 40
0.06
 41
0.06
280
     0
281
     0
  7
Standard
140
0.18
170
     2
 62
     0
 63
     7
283
     0
 90
      512
 91
        0
  1

274
    -2
284
     1
 64
     0
275
    -2
285
     1
 65
     0
276
    -2
286
     1
 66
     0
277
    -2
287
     1
 67
     0
278
    -2
288
     1
 68
     0
279
    -2
289
     1
 69
     0
  7
Standard
140
0.25
170
     5
 62
     0
 63
     7
283
     0
 90
      512
 91
        0
  1

274
    -2
284
     1
 64
     0
275
    -2
285
     1
 65
     0
276
    -2
286
     1
 66
     0
277
    -2
287
     1
 67
     0
278
    -2
288
     1
 68
     0
279
    -2
289
     1
 69
     0
  7
Standard
140
0.18
170
     5
 62
     0
 63
     7
283
     0
 90
      512
 91
        0
  1

274
    -2
284
     1
 64
     0
275
    -2
285
     1
 65
     0
276
    -2
286
     1
 66
     0
277
    -2
287
     1
 67
     0
278
    -2
288
     1
 68
     0
279
    -2
289
     1
 69
     0
  0
VISUALSTYLE
  5
118D
102
{ACAD_REACTORS
330
1187
102
}
330
1187
100
AcDbVisualStyle
  2
2dWireframe
 70
     4
177
     2
291
     0
 71
     0
176
     1
 72
     2
176
     1
 73
     0
176
     1
 90
        0
176
     1
 40
0.6
176
     1
 41
30.0
176
     1
 63
     7
176
     1
 74
     1
176
     1
 91
        4
176
     1
 64
     7
176
     1
 65
   257
176
     1
 75
     1
176
     1
175
     1
176
     1
 42
1.0
176
     1
 92
        0
176
     1
 66
   257
176
     1
 43
1.0
176
     1
 76
     1
176
     1
 77
     6
176
     1
 78
     2
176
     1
 67
     7
176
     1
 79
     5
176
     1
170
     0
176
     1
171
     0
176
     1
290
     0
176
     1
 93
        1
176
     1
 44
0.0
176
     1
173
     0
176
     1
  0
VISUALSTYLE
  5
118F
102
{ACAD_REACTORS
330
1187
102
}
330
1187
100
AcDbVisualStyle
  2
3D Hidden
 70
     6
177
     2
291
     0
 71
     1
176
     1
 72
     2
176
     1
 73
     2
176
     1
 90
        0
176
     1
 40
0.6
176
     1
 41
30.0
176
     1
 63
     7
176
     1
 74
     2
176
     1
 91
        2
176
     1
 64
     7
176
     1
 65
   257
176
     1
 75
     2
176
     1
175
     1
176
     1
 42
40.0
176
     1
 92
        0
176
     1
 66
   257
176
     1
 43
1.0
176
     1
 76
     1
176
     1
 77
     6
176
     1
 78
     2
176
     1
 67
     7
176
     1
 79
     3
176
     1
170
     0
176
     1
171
     0
176
     1
290
     0
176
     1
 93
        1
176
     1
 44
0.0
176
     1
173
     0
176
     1
  0
VISUALSTYLE
  5
118E
102
{ACAD_REACTORS
330
1187
102
}
330
1187
100
AcDbVisualStyle
  2
3dWireframe
 70
     5
177
     2
291
     0
 71
     0
176
     1
 72
     2
176
     1
 73
     0
176
     1
 90
        0
176
     1
 40
0.6
176
     1
 41
30.0
176
     1
 63
     7
176
     1
 74
     1
176
     1
 91
        4
176
     1
 64
     7
176
     1
 65
   257
176
     1
 75
     1
176
     1
175
     1
176
     1
 42
1.0
176
     1
 92
        0
176
     1
 66
   257
176
     1
 43
1.0
176
     1
 76
     1
176
     1
 77
     6
176
     1
 78
     2
176
     1
 67
     7
176
     1
 79
     5
176
     1
170
     0
176
     1
171
     0
176
     1
290
     0
176
     1
 93
        1
176
     1
 44
0.0
176
     1
173
     0
176
     1
  0
VISUALSTYLE
  5
118C
102
{ACAD_REACTORS
330
1187
102
}
330
1187
100
AcDbVisualStyle
  2
Basic
 70
     7
177
     2
291
     1
 71
     1
176
     1
 72
     0
176
     1
 73
     1
176
     1
 90
        0
176
     1
 40
0.6
176
     1
 41
30.0
176
     1
 63
     7
176
     1
 74
     0
176
     1
 91
        4
176
     1
 64
     7
176
     1
 65
   257
176
     1
 75
     1
176
     1
175
     1
176
     1
 42
1.0
176
     1
 92
        8
176
     1
 66
     7
176
     1
 43
1.0
176
     1
 76
     1
176
     1
 77
     6
176
     1
 78
     2
176
     1
 67
     7
176
     1
 79
     5
176
     1
170
     0
176
     1
171
     0
176
     1
290
     0
176
     1
 93
        1
176
     1
 44
0.0
176
     1
173
     0
176
     1
  0
VISUALSTYLE
  5
1193
102
{ACAD_REACTORS
330
1187
102
}
330
1187
100
AcDbVisualStyle
  2
Brighten
 70
    12
177
     2
291
     1
 71
     2
176
     1
 72
     2
176
     1
 73
     0
176
     1
 90
        0
176
     1
 40
0.6
176
     1
 41
30.0
176
     1
 63
     7
176
     1
 74
     1
176
     1
 91
        4
176
     1
 64
     7
176
     1
 65
   257
176
     1
 75
     1
176
     1
175
     1
176
     1
 42
1.0
176
     1
 92
        8
176
     1
 66
     7
176
     1
 43
1.0
176
     1
 76
     1
176
     1
 77
     6
176
     1
 78
     2
176
     1
 67
     7
176
     1
 79
     5
176
     1
170
     0
176
     1
171
     0
176
     1
290
     0
176
     1
 93
        1
176
     1
 44
50.0
176
     1
173
     0
176
     1
  0
VISUALSTYLE
  5
1197
102
{ACAD_REACTORS
330
1187
102
}
330
1187
100
AcDbVisualStyle
  2
ColorChange
 70
    16
177
     2
291
     1
 71
     2
176
     1
 72
     2
176
     1
 73
     3
176
     1
 90
        0
176
     1
 40
0.6
176
     1
 41
30.0
176
     1
 63
     8
176
     1
 74
     1
176
     1
 91
        4
176
     1
 64
     7
176
     1
 65
   257
176
     1
 75
     1
176
     1
175
     1
176
     1
 42
1.0
176
     1
 92
        8
176
     1
 66
     8
176
     1
 43
1.0
176
     1
 76
     1
176
     1
 77
     6
176
     1
 78
     2
176
     1
 67
     7
176
     1
 79
     5
176
     1
170
     0
176
     1
171
     0
176
     1
290
     0
176
     1
 93
        1
176
     1
 44
0.0
176
     1
173
     0
176
     1
  0
VISUALSTYLE
  5
1190
102
{ACAD_REACTORS
330
1187
102
}
330
1187
100
AcDbVisualStyle
  2
Conceptual
 70
     9
177
     2
291
     0
 71
     3
176
     1
 72
     2
176
     1
 73
     0
176
     1
 90
        0
176
     1
 40
0.6
176
     1
 41
30.0
176
     1
 63
     7
176
     1
 74
     2
176
     1
 91
        2
176
     1
 64
     7
176
     1
 65
   257
176
     1
 75
     1
176
     1
175
     1
176
     1
 42
40.0
176
     1
 92
        8
176
     1
 66
     7
176
     1
 43
1.0
176
     1
 76
     1
176
     1
 77
     6
176
     1
 78
     2
176
     1
 67
     7
176
     1
 79
     3
176
     1
170
     0
176
     1
171
     0
176
     1
290
     0
176
     1
 93
        1
176
     1
 44
0.0
176
     1
173
     0
176
     1
  0
VISUALSTYLE
  5
1192
102
{ACAD_REACTORS
330
1187
102
}
330
1187
100
AcDbVisualStyle
  2
Dim
 70
    11
177
     2
291
     1
 71
     2
176
     1
 72
     2
176
     1
 73
     0
176
     1
 90
        0
176
     1
 40
0.6
176
     1
 41
30.0
176
     1
 63
     7
176
     1
 74
     1
176
     1
 91
        4
176
     1
 64
     7
176
     1
 65
   257
176
     1
 75
     1
176
     1
175
     1
176
     1
 42
1.0
176
     1
 92
        8
176
     1
 66
     7
176
     1
 43
1.0
176
     1
 76
     1
176
     1
 77
     6
176
     1
 78
     2
176
     1
 67
     7
176
     1
 79
     5
176
     1
170
     0
176
     1
171
     0
176
     1
290
     0
176
     1
 93
        1
176
     1
 44
-50.0
176
     1
173
     0
176
     1
  0
VISUALSTYLE
  5
377A5
102
{ACAD_REACTORS
330
1187
102
}
330
1187
100
AcDbVisualStyle
  2
EdgeColorOff
 70
    22
177
     2
291
     1
 71
     2
176
     0
 72
     2
176
     0
 73
     0
176
     0
 90
        0
176
     0
 40
0.6
176
     0
 41
30.0
176
     0
 63
     7
421
 16777215
176
     0
 74
     1
176
     0
 91
        4
176
     0
 64
     7
176
     0
 65
   257
176
     0
 75
     1
176
     0
175
     1
176
     0
 42
1.0
176
     0
 92
        8
176
     2
 66
     7
176
     0
 43
1.0
176
     0
 76
     1
176
     0
 77
     6
176
     0
 78
     2
176
     0
 67
     7
176
     0
 79
     5
176
     0
170
     0
176
     0
171
     0
176
     0
290
     0
176
     0
 93
        1
176
     0
 44
0.0
176
     0
173
     0
176
     0
  0
VISUALSTYLE
  5
1196
102
{ACAD_REACTORS
330
1187
102
}
330
1187
100
AcDbVisualStyle
  2
Facepattern
 70
    15
177
     2
291
     1
 71
     2
176
     1
 72
     2
176
     1
 73
     0
176
     1
 90
        0
176
     1
 40
0.6
176
     1
 41
30.0
176
     1
 63
     7
176
     1
 74
     1
176
     1
 91
        4
176
     1
 64
     7
176
     1
 65
   257
176
     1
 75
     1
176
     1
175
     1
176
     1
 42
1.0
176
     1
 92
        8
176
     1
 66
     7
176
     1
 43
1.0
176
     1
 76
     1
176
     1
 77
     6
176
     1
 78
     2
176
     1
 67
     7
176
     1
 79
     5
176
     1
170
     0
176
     1
171
     0
176
     1
290
     0
176
     1
 93
        1
176
     1
 44
0.0
176
     1
173
     0
176
     1
  0
VISUALSTYLE
  5
1188
102
{ACAD_REACTORS
330
1187
102
}
330
1187
100
AcDbVisualStyle
  2
Flat
 70
     0
177
     2
291
     1
 71
     2
176
     1
 72
     1
176
     1
 73
     1
176
     1
 90
        2
176
     1
 40
0.6
176
     1
 41
30.0
176
     1
 63
     7
176
     1
 74
     0
176
     1
 91
        4
176
     1
 64
     7
176
     1
 65
   257
176
     1
 75
     1
176
     1
175
     1
176
     1
 42
1.0
176
     1
 92
        8
176
     1
 66
     7
176
     1
 43
1.0
176
     1
 76
     1
176
     1
 77
     6
176
     1
 78
     2
176
     1
 67
     7
176
     1
 79
     5
176
     1
170
     0
176
     1
171
     0
176
     1
290
     0
176
     1
 93
       13
176
     1
 44
0.0
176
     1
173
     0
176
     1
  0
VISUALSTYLE
  5
1189
102
{ACAD_REACTORS
330
1187
102
}
330
1187
100
AcDbVisualStyle
  2
FlatWithEdges
 70
     1
177
     2
291
     1
 71
     2
176
     1
 72
     1
176
     1
 73
     1
176
     1
 90
        2
176
     1
 40
0.6
176
     1
 41
30.0
176
     1
 63
     7
176
     1
 74
     1
176
     1
 91
        4
176
     1
 64
     7
176
     1
 65
   257
176
     1
 75
     1
176
     1
175
     1
176
     1
 42
1.0
176
     1
 92
        0
176
     1
 66
   257
176
     1
 43
1.0
176
     1
 76
     1
176
     1
 77
     6
176
     1
 78
     2
176
     1
 67
     7
176
     1
 79
     5
176
     1
170
     0
176
     1
171
     0
176
     1
290
     0
176
     1
 93
       13
176
     1
 44
0.0
176
     1
173
     0
176
     1
  0
VISUALSTYLE
  5
118A
102
{ACAD_REACTORS
330
1187
102
}
330
1187
100
AcDbVisualStyle
  2
Gouraud
 70
     2
177
     2
291
     1
 71
     2
176
     1
 72
     2
176
     1
 73
     1
176
     1
 90
        2
176
     1
 40
0.6
176
     1
 41
30.0
176
     1
 63
     7
176
     1
 74
     0
176
     1
 91
        4
176
     1
 64
     7
176
     1
 65
   257
176
     1
 75
     1
176
     1
175
     1
176
     1
 42
1.0
176
     1
 92
        0
176
     1
 66
     7
176
     1
 43
1.0
176
     1
 76
     1
176
     1
 77
     6
176
     1
 78
     2
176
     1
 67
     7
176
     1
 79
     5
176
     1
170
     0
176
     1
171
     0
176
     1
290
     0
176
     1
 93
       13
176
     1
 44
0.0
176
     1
173
     0
176
     1
  0
VISUALSTYLE
  5
118B
102
{ACAD_REACTORS
330
1187
102
}
330
1187
100
AcDbVisualStyle
  2
GouraudWithEdges
 70
     3
177
     2
291
     1
 71
     2
176
     1
 72
     2
176
     1
 73
     1
176
     1
 90
        2
176
     1
 40
0.6
176
     1
 41
30.0
176
     1
 63
     7
176
     1
 74
     1
176
     1
 91
        4
176
     1
 64
     7
176
     1
 65
   257
176
     1
 75
     1
176
     1
175
     1
176
     1
 42
1.0
176
     1
 92
        0
176
     1
 66
   257
176
     1
 43
1.0
176
     1
 76
     1
176
     1
 77
     6
176
     1
 78
     2
176
     1
 67
     7
176
     1
 79
     5
176
     1
170
     0
176
     1
171
     0
176
     1
290
     0
176
     1
 93
       13
176
     1
 44
0.0
176
     1
173
     0
176
     1
  0
VISUALSTYLE
  5
377A3
102
{ACAD_REACTORS
330
1187
102
}
330
1187
100
AcDbVisualStyle
  2
JitterOff
 70
    20
177
     2
291
     1
 71
     2
176
     0
 72
     2
176
     0
 73
     0
176
     0
 90
        0
176
     0
 40
0.6
176
     0
 41
30.0
176
     0
 63
     7
421
 16777215
176
     0
 74
     1
176
     0
 91
        4
176
     0
 64
     7
176
     0
 65
   257
176
     0
 75
     1
176
     0
175
     1
176
     0
 42
1.0
176
     0
 92
       10
176
     2
 66
     7
176
     0
 43
1.0
176
     0
 76
     1
176
     0
 77
     6
176
     0
 78
     2
176
     0
 67
     7
176
     0
 79
     5
176
     0
170
     0
176
     0
171
     0
176
     0
290
     0
176
     0
 93
        1
176
     0
 44
0.0
176
     0
173
     0
176
     0
  0
VISUALSTYLE
  5
1195
102
{ACAD_REACTORS
330
1187
102
}
330
1187
100
AcDbVisualStyle
  2
Linepattern
 70
    14
177
     2
291
     1
 71
     2
176
     1
 72
     2
176
     1
 73
     0
176
     1
 90
        0
176
     1
 40
0.6
176
     1
 41
30.0
176
     1
 63
     7
176
     1
 74
     1
176
     1
 91
        4
176
     1
 64
     7
176
     1
 65
   257
176
     1
 75
     7
176
     1
175
     7
176
     1
 42
1.0
176
     1
 92
        8
176
     1
 66
     7
176
     1
 43
1.0
176
     1
 76
     1
176
     1
 77
     6
176
     1
 78
     2
176
     1
 67
     7
176
     1
 79
     5
176
     1
170
     0
176
     1
171
     0
176
     1
290
     0
176
     1
 93
        1
176
     1
 44
0.0
176
     1
173
     0
176
     1
  0
VISUALSTYLE
  5
377A4
102
{ACAD_REACTORS
330
1187
102
}
330
1187
100
AcDbVisualStyle
  2
OverhangOff
 70
    21
177
     2
291
     1
 71
     2
176
     0
 72
     2
176
     0
 73
     0
176
     0
 90
        0
176
     0
 40
0.6
176
     0
 41
30.0
176
     0
 63
     7
421
 16777215
176
     0
 74
     1
176
     0
 91
        4
176
     0
 64
     7
176
     0
 65
   257
176
     0
 75
     1
176
     0
175
     1
176
     0
 42
1.0
176
     0
 92
        9
176
     2
 66
     7
176
     0
 43
1.0
176
     0
 76
     1
176
     0
 77
     6
176
     0
 78
     2
176
     0
 67
     7
176
     0
 79
     5
176
     0
170
     0
176
     0
171
     0
176
     0
290
     0
176
     0
 93
        1
176
     0
 44
0.0
176
     0
173
     0
176
     0
  0
VISUALSTYLE
  5
1191
102
{ACAD_REACTORS
330
1187
102
}
330
1187
100
AcDbVisualStyle
  2
Realistic
 70
     8
177
     2
291
     0
 71
     2
176
     1
 72
     2
176
     1
 73
     0
176
     1
 90
        0
176
     1
 40
0.6
176
     1
 41
30.0
176
     1
 63
     7
176
     1
 74
     1
176
     1
 91
        0
176
     1
 64
     7
176
     1
 65
   257
176
     1
 75
     1
176
     1
175
     1
176
     1
 42
1.0
176
     1
 92
        8
176
     1
 66
     8
176
     1
 43
1.0
176
     1
 76
     1
176
     1
 77
     6
176
     1
 78
     2
176
     1
 67
     7
176
     1
 79
     5
176
     1
170
     0
176
     1
171
     0
176
     1
290
     0
176
     1
 93
       13
176
     1
 44
0.0
176
     1
173
     0
176
     1
  0
VISUALSTYLE
  5
1194
102
{ACAD_REACTORS
330
1187
102
}
330
1187
100
AcDbVisualStyle
  2
Thicken
 70
    13
177
     2
291
     1
 71
     2
176
     1
 72
     2
176
     1
 73
     0
176
     1
 90
        0
176
     1
 40
0.6
176
     1
 41
30.0
176
     1
 63
     7
176
     1
 74
     1
176
     1
 91
        4
176
     1
 64
     7
176
     1
 65
   257
176
     1
 75
     1
176
     1
175
     1
176
     1
 42
1.0
176
     1
 92
       12
176
     1
 66
     7
176
     1
 43
1.0
176
     1
 76
     1
176
     1
 77
     6
176
     1
 78
     2
176
     1
 67
     7
176
     1
 79
     5
176
     1
170
     0
176
     1
171
     0
176
     1
290
     0
176
     1
 93
        1
176
     1
 44
0.0
176
     1
173
     0
176
     1
  0
DICTIONARYVAR
  5
1203
102
{ACAD_REACTORS
330
1200
102
}
330
1200
100
DictionaryVariables
280
     0
  1
1:1
  0
DICTIONARYVAR
  5
1202
102
{ACAD_REACTORS
330
1200
102
}
330
1200
100
DictionaryVariables
280
     0
  1
STANDARD
  0
DICTIONARYVAR
  5
1201
102
{ACAD_REACTORS
330
1200
102
}
330
1200
100
DictionaryVariables
280
     0
  1
STANDARD
  0
DICTIONARYVAR
  5
1206
102
{ACAD_REACTORS
330
1200
102
}
330
1200
100
DictionaryVariables
280
     0
  1
1
  0
DICTIONARYVAR
  5
1205
102
{ACAD_REACTORS
330
1200
102
}
330
1200
100
DictionaryVariables
280
     0
  1
0
  0
DICTIONARYVAR
  5
377E4
102
{ACAD_REACTORS
330
1200
102
}
330
1200
100
DictionaryVariables
280
     0
  1
1
  0
DICTIONARYVAR
  5
377E5
102
{ACAD_REACTORS
330
1200
102
}
330
1200
100
DictionaryVariables
280
     0
  1
15
  0
DICTIONARYVAR
  5
37778
102
{ACAD_REACTORS
330
1200
102
}
330
1200
100
DictionaryVariables
280
     0
  1
0
  0
DICTIONARYVAR
  5
37777
102
{ACAD_REACTORS
330
1200
102
}
330
1200
100
DictionaryVariables
280
     0
  1
0
  0
DICTIONARYVAR
  5
1204
102
{ACAD_REACTORS
330
1200
102
}
330
1200
100
DictionaryVariables
280
     0
  1
127
  0
DICTIONARY
  5
1178
330
1177
100
AcDbDictionary
280
     1
281
     1
  3
BUMPTILE
360
117A
  3
DIFFUSETILE
360
1179
  3
OPACITYTILE
360
117D
  3
REFLECTIONTILE
360
117C
  3
REFRACTIONTILE
360
117E
  3
SPECULARTILE
360
117B
  0
DICTIONARY
  5
1170
330
116F
100
AcDbDictionary
280
     1
281
     1
  3
BUMPTILE
360
1172
  3
DIFFUSETILE
360
1171
  3
OPACITYTILE
360
1175
  3
REFLECTIONTILE
360
1174
  3
REFRACTIONTILE
360
1176
  3
SPECULARTILE
360
1173
  0
DICTIONARY
  5
1180
330
117F
100
AcDbDictionary
280
     1
281
     1
  3
BUMPTILE
360
1182
  3
DIFFUSETILE
360
1181
  3
OPACITYTILE
360
1185
  3
REFLECTIONTILE
360
1184
  3
REFRACTIONTILE
360
1186
  3
SPECULARTILE
360
1183
  0
DICTIONARY
  5
11D8
330
1199
100
AcDbDictionary
280
     1
281
     1
  3
ACAD_ROUNDTRIP_2008_TABLESTYLE_CELLSTYLEMAP
360
377E6
  0
XRECORD
  5
117A
102
{ACAD_REACTORS
330
1178
102
}
330
1178
100
AcDbXrecord
280
     1
270
     1
271
     1
  0
XRECORD
  5
1179
102
{ACAD_REACTORS
330
1178
102
}
330
1178
100
AcDbXrecord
280
     1
270
     1
271
     1
  0
XRECORD
  5
117D
102
{ACAD_REACTORS
330
1178
102
}
330
1178
100
AcDbXrecord
280
     1
270
     1
271
     1
  0
XRECORD
  5
117C
102
{ACAD_REACTORS
330
1178
102
}
330
1178
100
AcDbXrecord
280
     1
270
     1
271
     1
  0
XRECORD
  5
117E
102
{ACAD_REACTORS
330
1178
102
}
330
1178
100
AcDbXrecord
280
     1
270
     1
271
     1
  0
XRECORD
  5
117B
102
{ACAD_REACTORS
330
1178
102
}
330
1178
100
AcDbXrecord
280
     1
270
     1
271
     1
  0
XRECORD
  5
1172
102
{ACAD_REACTORS
330
1170
102
}
330
1170
100
AcDbXrecord
280
     1
270
     1
271
     1
  0
XRECORD
  5
1171
102
{ACAD_REACTORS
330
1170
102
}
330
1170
100
AcDbXrecord
280
     1
270
     1
271
     1
  0
XRECORD
  5
1175
102
{ACAD_REACTORS
330
1170
102
}
330
1170
100
AcDbXrecord
280
     1
270
     1
271
     1
  0
XRECORD
  5
1174
102
{ACAD_REACTORS
330
1170
102
}
330
1170
100
AcDbXrecord
280
     1
270
     1
271
     1
  0
XRECORD
  5
1176
102
{ACAD_REACTORS
330
1170
102
}
330
1170
100
AcDbXrecord
280
     1
270
     1
271
     1
  0
XRECORD
  5
1173
102
{ACAD_REACTORS
330
1170
102
}
330
1170
100
AcDbXrecord
280
     1
270
     1
271
     1
  0
XRECORD
  5
1182
102
{ACAD_REACTORS
330
1180
102
}
330
1180
100
AcDbXrecord
280
     1
270
     1
271
     1
  0
XRECORD
  5
1181
102
{ACAD_REACTORS
330
1180
102
}
330
1180
100
AcDbXrecord
280
     1
270
     1
271
     1
  0
XRECORD
  5
1185
102
{ACAD_REACTORS
330
1180
102
}
330
1180
100
AcDbXrecord
280
     1
270
     1
271
     1
  0
XRECORD
  5
1184
102
{ACAD_REACTORS
330
1180
102
}
330
1180
100
AcDbXrecord
280
     1
270
     1
271
     1
  0
XRECORD
  5
1186
102
{ACAD_REACTORS
330
1180
102
}
330
1180
100
AcDbXrecord
280
     1
270
     1
271
     1
  0
XRECORD
  5
1183
102
{ACAD_REACTORS
330
1180
102
}
330
1180
100
AcDbXrecord
280
     1
270
     1
271
     1
  0
CELLSTYLEMAP
  5
377E6
102
{ACAD_REACTORS
330
11D8
102
}
330
11D8
100
AcDbCellStyleMap
 90
        3
300
CELLSTYLE
  1
TABLEFORMAT_BEGIN
 90
        5
170
     1
 91
        0
 92
    32768
 62
   257
 93
        1
300
CONTENTFORMAT
  1
CONTENTFORMAT_BEGIN
 90
        0
 91
        0
 92
      512
 93
        0
300

 40
0.0
140
1.0
 94
        5
 62
     0
340
11
144
0.25
309
CONTENTFORMAT_END
171
     1
301
MARGIN
  1
CELLMARGIN_BEGIN
 40
0.06
 40
0.06
 40
0.06
 40
0.06
 40
0.18
 40
0.18
309
CELLMARGIN_END
 94
        6
 95
        1
302
GRIDFORMAT
  1
GRIDFORMAT_BEGIN
 90
        0
 91
        1
 62
     0
 92
       -2
340
0
 93
        0
 40
0.045
309
GRIDFORMAT_END
 95
        2
302
GRIDFORMAT
  1
GRIDFORMAT_BEGIN
 90
        0
 91
        1
 62
     0
 92
       -2
340
0
 93
        0
 40
0.045
309
GRIDFORMAT_END
 95
        4
302
GRIDFORMAT
  1
GRIDFORMAT_BEGIN
 90
        0
 91
        1
 62
     0
 92
       -2
340
0
 93
        0
 40
0.045
309
GRIDFORMAT_END
 95
        8
302
GRIDFORMAT
  1
GRIDFORMAT_BEGIN
 90
        0
 91
        1
 62
     0
 92
       -2
340
0
 93
        0
 40
0.045
309
GRIDFORMAT_END
 95
       16
302
GRIDFORMAT
  1
GRIDFORMAT_BEGIN
 90
        0
 91
        1
 62
     0
 92
       -2
340
0
 93
        0
 40
0.045
309
GRIDFORMAT_END
 95
       32
302
GRIDFORMAT
  1
GRIDFORMAT_BEGIN
 90
        0
 91
        1
 62
     0
 92
       -2
340
0
 93
        0
 40
0.045
309
GRIDFORMAT_END
309
TABLEFORMAT_END
  1
CELLSTYLE_BEGIN
 90
        1
 91
        1
300
_TITLE
309
CELLSTYLE_END
300
CELLSTYLE
  1
TABLEFORMAT_BEGIN
 90
        5
170
     1
 91
        0
 92
        0
 62
   257
 93
        1
300
CONTENTFORMAT
  1
CONTENTFORMAT_BEGIN
 90
        0
 91
        0
 92
      512
 93
        0
300

 40
0.0
140
1.0
 94
        5
 62
     0
340
11
144
0.18
309
CONTENTFORMAT_END
171
     1
301
MARGIN
  1
CELLMARGIN_BEGIN
 40
0.06
 40
0.06
 40
0.06
 40
0.06
 40
0.18
 40
0.18
309
CELLMARGIN_END
 94
        6
 95
        1
302
GRIDFORMAT
  1
GRIDFORMAT_BEGIN
 90
        0
 91
        1
 62
     0
 92
       -2
340
0
 93
        0
 40
0.045
309
GRIDFORMAT_END
 95
        2
302
GRIDFORMAT
  1
GRIDFORMAT_BEGIN
 90
        0
 91
        1
 62
     0
 92
       -2
340
0
 93
        0
 40
0.045
309
GRIDFORMAT_END
 95
        4
302
GRIDFORMAT
  1
GRIDFORMAT_BEGIN
 90
        0
 91
        1
 62
     0
 92
       -2
340
0
 93
        0
 40
0.045
309
GRIDFORMAT_END
 95
        8
302
GRIDFORMAT
  1
GRIDFORMAT_BEGIN
 90
        0
 91
        1
 62
     0
 92
       -2
340
0
 93
        0
 40
0.045
309
GRIDFORMAT_END
 95
       16
302
GRIDFORMAT
  1
GRIDFORMAT_BEGIN
 90
        0
 91
        1
 62
     0
 92
       -2
340
0
 93
        0
 40
0.045
309
GRIDFORMAT_END
 95
       32
302
GRIDFORMAT
  1
GRIDFORMAT_BEGIN
 90
        0
 91
        1
 62
     0
 92
       -2
340
0
 93
        0
 40
0.045
309
GRIDFORMAT_END
309
TABLEFORMAT_END
  1
CELLSTYLE_BEGIN
 90
        2
 91
        1
300
_HEADER
309
CELLSTYLE_END
300
CELLSTYLE
  1
TABLEFORMAT_BEGIN
 90
        5
170
     1
 91
        0
 92
        0
 62
   257
 93
        1
300
CONTENTFORMAT
  1
CONTENTFORMAT_BEGIN
 90
        0
 91
        0
 92
      512
 93
        0
300

 40
0.0
140
1.0
 94
        2
 62
     0
340
11
144
0.18
309
CONTENTFORMAT_END
171
     1
301
MARGIN
  1
CELLMARGIN_BEGIN
 40
0.06
 40
0.06
 40
0.06
 40
0.06
 40
0.18
 40
0.18
309
CELLMARGIN_END
 94
        6
 95
        1
302
GRIDFORMAT
  1
GRIDFORMAT_BEGIN
 90
        0
 91
        1
 62
     0
 92
       -2
340
0
 93
        0
 40
0.045
309
GRIDFORMAT_END
 95
        2
302
GRIDFORMAT
  1
GRIDFORMAT_BEGIN
 90
        0
 91
        1
 62
     0
 92
       -2
340
0
 93
        0
 40
0.045
309
GRIDFORMAT_END
 95
        4
302
GRIDFORMAT
  1
GRIDFORMAT_BEGIN
 90
        0
 91
        1
 62
     0
 92
       -2
340
0
 93
        0
 40
0.045
309
GRIDFORMAT_END
 95
        8
302
GRIDFORMAT
  1
GRIDFORMAT_BEGIN
 90
        0
 91
        1
 62
     0
 92
       -2
340
0
 93
        0
 40
0.045
309
GRIDFORMAT_END
 95
       16
302
GRIDFORMAT
  1
GRIDFORMAT_BEGIN
 90
        0
 91
        1
 62
     0
 92
       -2
340
0
 93
        0
 40
0.045
309
GRIDFORMAT_END
 95
       32
302
GRIDFORMAT
  1
GRIDFORMAT_BEGIN
 90
        0
 91
        1
 62
     0
 92
       -2
340
0
 93
        0
 40
0.045
309
GRIDFORMAT_END
309
TABLEFORMAT_END
  1
CELLSTYLE_BEGIN
 90
        3
 91
        2
300
_DATA
309
CELLSTYLE_END
  0
ENDSEC
  0
EOF
