  0
SECTION
  2
HEADER
  9
$ACADVER
  1
AC1009
  9
$INSBASE
 10
4.2712767593000001
 20
34.1658911842320592
 30
0.0
  9
$EXTMIN
 10
-19.3583252468201898
 20
18.4373174822641097
 30
0.0
  9
$EXTMAX
 10
27.9008787654201917
 20
49.894464886199998
 30
0.0
  9
$LIMMIN
 10
0.0
 20
0.0
  9
$LIMMAX
 10
11.6929133858000007
 20
8.2677165353999982
  9
$ORTHOMODE
 70
     0
  9
$REGENMODE
 70
     1
  9
$FILLMODE
 70
     1
  9
$QTEXTMODE
 70
     0
  9
$MIRRTEXT
 70
     0
  9
$DRAGMODE
 70
     2
  9
$LTSCALE
 40
0.6431102362
  9
$OSMODE
 70
  4095
  9
$ATTMODE
 70
     1
  9
$TEXTSIZE
 40
0.2
  9
$TRACEWID
 40
0.05
  9
$TEXTSTYLE
  7
STANDARD
  9
$CLAYER
  8
0
  9
$CELTYPE
  6
BYLAYER
  9
$CECOLOR
 62
   256
  9
$DIMSCALE
 40
1.0
  9
$DIMASZ
 40
0.1875
  9
$DIMEXO
 40
0.0625
  9
$DIMDLI
 40
0.4443307087
  9
$DIMRND
 40
0.0
  9
$DIMDLE
 40
0.0
  9
$DIMEXE
 40
0.125
  9
$DIMTP
 40
0.0
  9
$DIMTM
 40
0.0
  9
$DIMTXT
 40
1.0
  9
$DIMCEN
 40
0.1052362205
  9
$DIMTSZ
 40
0.0
  9
$DIMTOL
 70
     0
  9
$DIMLIM
 70
     0
  9
$DIMTIH
 70
     1
  9
$DIMTOH
 70
     1
  9
$DIMSE1
 70
     0
  9
$DIMSE2
 70
     0
  9
$DIMTAD
 70
     0
  9
$DIMZIN
 70
     0
  9
$DIMBLK
  1
CLOSED
  9
$DIMASO
 70
     1
  9
$DIMSHO
 70
     1
  9
$DIMPOST
  1
\X
  9
$DIMAPOST
  1

  9
$DIMALT
 70
     1
  9
$DIMALTD
 70
     2
  9
$DIMALTF
 40
25.3999999999999986
  9
$DIMLFAC
 40
1.0
  9
$DIMTOFL
 70
     0
  9
$DIMTVP
 40
0.0
  9
$DIMTIX
 70
     0
  9
$DIMSOXD
 70
     0
  9
$DIMSAH
 70
     0
  9
$DIMBLK1
  1

  9
$DIMBLK2
  1

  9
$DIMSTYLE
  2
STANDARD
  9
$DIMCLRD
 70
     0
  9
$DIMCLRE
 70
     0
  9
$DIMCLRT
 70
     0
  9
$DIMTFAC
 40
1.0
  9
$DIMGAP
 40
0.09
  9
$LUNITS
 70
     2
  9
$LUPREC
 70
     4
  9
$SKETCHINC
 40
0.1
  9
$FILLETRAD
 40
0.0
  9
$AUNITS
 70
     0
  9
$AUPREC
 70
     0
  9
$MENU
  1
.
  9
$ELEVATION
 40
0.0
  9
$PELEVATION
 40
0.0
  9
$THICKNESS
 40
0.0
  9
$LIMCHECK
 70
     0
  9
$BLIPMODE
 70
     0
  9
$CHAMFERA
 40
0.0
  9
$CHAMFERB
 40
0.0
  9
$SKPOLY
 70
     0
  9
$TDCREATE
 40
2458873.2902199071832001
  9
$TDUPDATE
 40
2458873.3491435190662742
  9
$TDINDWG
 40
0.0586921296
  9
$TDUSRTIMER
 40
0.0586921296
  9
$USRTIMER
 70
     1
  9
$ANGBASE
 50
0.0
  9
$ANGDIR
 70
     0
  9
$PDMODE
 70
     0
  9
$PDSIZE
 40
0.3125
  9
$PLINEWID
 40
0.0
  9
$COORDS
 70
     1
  9
$SPLFRAME
 70
     0
  9
$SPLINETYPE
 70
     6
  9
$SPLINESEGS
 70
     8
  9
$ATTDIA
 70
     1
  9
$ATTREQ
 70
     1
  9
$HANDLING
 70
     1
  9
$HANDSEED
  5
8D6
  9
$SURFTAB1
 70
     6
  9
$SURFTAB2
 70
     6
  9
$SURFTYPE
 70
     6
  9
$SURFU
 70
     6
  9
$SURFV
 70
     6
  9
$UCSNAME
  2

  9
$UCSORG
 10
0.0
 20
0.0
 30
0.0
  9
$UCSXDIR
 10
1.0
 20
0.0
 30
0.0
  9
$UCSYDIR
 10
0.0
 20
1.0
 30
0.0
  9
$PUCSNAME
  2

  9
$PUCSORG
 10
0.0
 20
0.0
 30
0.0
  9
$PUCSXDIR
 10
1.0
 20
0.0
 30
0.0
  9
$PUCSYDIR
 10
0.0
 20
1.0
 30
0.0
  9
$USERI1
 70
     0
  9
$USERI2
 70
     0
  9
$USERI3
 70
     0
  9
$USERI4
 70
     0
  9
$USERI5
 70
     0
  9
$USERR1
 40
0.0
  9
$USERR2
 40
0.0
  9
$USERR3
 40
0.0
  9
$USERR4
 40
0.0
  9
$USERR5
 40
0.0
  9
$WORLDVIEW
 70
     1
  9
$SHADEDGE
 70
     3
  9
$SHADEDIF
 70
    70
  9
$TILEMODE
 70
     1
  9
$MAXACTVP
 70
    48
  9
$PLIMCHECK
 70
     0
  9
$PEXTMIN
 10
1.0000000000000000E+20
 20
1.0000000000000000E+20
 30
1.0000000000000000E+20
  9
$PEXTMAX
 10
-1.0000000000000000E+20
 20
-1.0000000000000000E+20
 30
-1.0000000000000000E+20
  9
$PLIMMIN
 10
0.0
 20
0.0
  9
$PLIMMAX
 10
12.0
 20
9.0
  9
$UNITMODE
 70
     0
  9
$VISRETAIN
 70
     1
  9
$PLINEGEN
 70
     0
  9
$PSLTSCALE
 70
     1
  0
ENDSEC
  0
SECTION
  2
TABLES
  0
TABLE
  2
VPORT
 70
     1
  0
VPORT
  2
*ACTIVE
 70
     0
 10
0.0
 20
0.0
 11
1.0
 21
1.0
 12
0.0
 22
0.0
 13
0.0
 23
0.0
 14
1.0
 24
1.0
 15
0.0
 25
0.0
 16
-0.0000000000000364
 26
0.0
 36
162.6994829726401974
 17
4.2712764739990234
 27
34.1658916473388672
 37
0.0
 40
56.7713369531103496
 41
2.1491525423728808
 42
50.0
 43
0.0
 44
0.0
 50
0.0
 51
0.0
 71
     0
 72
   100
 73
     1
 74
     1
 75
     0
 76
     0
 77
     0
 78
     0
  0
ENDTAB
  0
TABLE
  2
LTYPE
 70
     1
  0
LTYPE
  2
CONTINUOUS
 70
     0
  3
Solid line
 72
    65
 73
     0
 40
0.0
  0
ENDTAB
  0
TABLE
  2
LAYER
 70
     2
  0
LAYER
  2
0
 70
     0
 62
     7
  6
CONTINUOUS
  0
LAYER
  2
DEFPOINTS
 70
     0
 62
     7
  6
CONTINUOUS
  0
ENDTAB
  0
TABLE
  2
STYLE
 70
     1
  0
STYLE
  2
STANDARD
 70
     0
 40
0.0
 41
0.8
 50
0.0
 71
     0
 42
0.2
  3
txt
  4

  0
ENDTAB
  0
TABLE
  2
VIEW
 70
     0
  0
ENDTAB
  0
TABLE
  2
UCS
 70
     0
  0
ENDTAB
  0
TABLE
  2
APPID
 70
     6
  0
APPID
  2
ACAD
 70
     0
  0
APPID
  2
ACAD_MLEADERVER
 70
     0
  0
APPID
  2
ACAD_NAV_VCDISPLAY
 70
     0
  0
APPID
  2
ACAD_EXEMPT_FROM_CAD_STANDARDS
 70
     0
  0
APPID
  2
ACAD_DSTYLE_DIMJAG
 70
     0
  0
APPID
  2
ACAD_DSTYLE_DIMTALN
 70
     0
  0
ENDTAB
  0
TABLE
  2
DIMSTYLE
 70
     1
  0
DIMSTYLE
  2
STANDARD
 70
     0
  3

  4

  5
CLOSED
  6
CLOSED
  7
CLOSED
 40
1.0
 41
0.1875
 42
0.0625
 43
0.38
 44
0.125
 45
0.0
 46
0.0
 47
1.5
 48
1.5
140
0.15625
141
0.09
142
0.0
143
25.3999999999999986
144
1.0
145
0.0
146
1.0
147
0.09
 71
     0
 72
     0
 73
     1
 74
     1
 75
     0
 76
     0
 77
     0
 78
     4
170
     0
171
     0
172
     0
173
     0
174
     0
175
     0
176
     0
177
     0
178
     0
  0
ENDTAB
  0
ENDSEC
  0
SECTION
  2
BLOCKS
  0
BLOCK
  8
0
  2
$MODEL_SPACE
 70
     0
 10
0.0
 20
0.0
 30
0.0
  3
$MODEL_SPACE
  1

  0
ENDBLK
  5
21
  8
0
  0
BLOCK
 67
     1
  8
0
  2
$PAPER_SPACE
 70
     0
 10
0.0
 20
0.0
 30
0.0
  3
$PAPER_SPACE
  1

  0
ENDBLK
  5
1D
 67
     1
  8
0
  0
BLOCK
  8
0
  2
_CLOSED
 70
     0
 10
0.0
 20
0.0
 30
0.0
  3
_CLOSED
  1

  0
LINE
  5
209
  8
0
  6
BYBLOCK
 62
     0
 10
0.0
 20
0.0
 30
0.0
 11
-1.0
 21
0.1666666667
 31
0.0
  0
LINE
  5
20A
  8
0
  6
BYBLOCK
 62
     0
 10
-1.0
 20
0.1666666667
 30
0.0
 11
-1.0
 21
-0.1666666667
 31
0.0
  0
LINE
  5
20B
  8
0
  6
BYBLOCK
 62
     0
 10
-1.0
 20
-0.1666666667
 30
0.0
 11
0.0
 21
0.0
 31
0.0
  0
LINE
  5
20C
  8
0
  6
BYBLOCK
 62
     0
 10
-1.0
 20
0.0
 30
0.0
 11
0.0
 21
0.0
 31
0.0
  0
ENDBLK
  5
20D
  8
0
  6
BYBLOCK
 62
     0
  0
ENDSEC
  0
SECTION
  2
ENTITIES
  0
LINE
  5
499
  8
0
 10
27.5858878387000104
 20
49.894464886199998
 30
0.0
 11
-19.0433343201000014
 21
49.894464886199998
 31
0.0
  0
ARC
  5
49A
  8
0
 10
-19.0267597704953495
 20
49.5628978127646391
 30
0.0
 40
0.3319810836193548
 50
92.8617495108767486
 51
177.1327348239505
  0
LINE
  5
49B
  8
0
 10
-19.3583252468201898
 20
49.5795042810999931
 30
0.0
 11
-19.3583252468201898
 21
18.7328046532275003
 31
0.0
  0
ARC
  5
49C
  8
0
 10
-19.0319186662487283
 20
18.7650567528060392
 30
0.0
 40
0.3279961185251639
 50
185.643054898632613
 51
267.7323830069693145
  0
LINE
  5
49D
  8
0
 10
-19.0448965055226509
 20
18.4373174822641097
 30
0.0
 11
27.5874500241226492
 21
18.4373174822641097
 31
0.0
  0
ARC
  5
4A5
  8
0
 10
3.4065380593489061
 20
1388.1455787363549916
 30
0.0
 40
1340.8593968486370613
 50
269.1583640384754972
 51
270.0369508402146721
  0
ARC
  5
4A6
  8
0
 10
-16.2776330381169601
 20
48.2090044559501933
 30
0.0
 40
0.7782464379239823
 50
256.8919799469841792
 51
269.1583640384756109
  0
ARC
  5
4A7
  8
0
 10
-16.5778720354570304
 20
46.919621837014418
 30
0.0
 40
0.5456308198070464
 50
76.8919799469843213
 51
93.7850015193229751
  0
ARC
  5
4A8
  8
0
 10
-16.5926467382723786
 20
47.1429497088630924
 30
0.0
 40
0.3218147565145819
 50
93.7850015193235862
 51
165.9226195801626034
  0
LINE
  5
4A9
  8
0
 10
-16.904796791199999
 20
47.221225388149989
 30
0.0
 11
-16.9415665137534717
 21
21.1394780794440393
 31
0.0
  0
ARC
  5
4AA
  8
0
 10
-16.6240061246071384
 20
21.1747235115176693
 30
0.0
 40
0.3195103147581079
 50
186.3332309844483916
 51
268.0937774936656979
  0
LINE
  5
4AB
  8
0
 10
-16.6346342267999994
 20
20.8553900108000008
 30
0.0
 11
25.174253632300001
 21
20.8623196939000017
 31
0.0
  0
CIRCLE
  5
4EE
  8
0
 10
4.2712767593000001
 20
43.6346223664999968
 30
0.0
 40
1.7716535433000009
  0
CIRCLE
  5
4EF
  8
0
 10
4.2712767593000001
 20
43.6346223664999968
 30
0.0
 40
2.602873342035287
  0
ARC
  5
538
  8
0
 10
27.5693132890953585
 20
49.5628978127646391
 30
0.0
 40
0.3319810836193548
 50
2.867265176049508
 51
87.1382504891232657
  0
LINE
  5
539
  8
0
 10
27.9008787654201917
 20
49.5795042810999931
 30
0.0
 11
27.9008787654201917
 21
18.7328046532275003
 31
0.0
  0
ARC
  5
53A
  8
0
 10
27.5650379238866705
 20
18.7750638489813788
 30
0.0
 40
0.3384891585674513
 50
273.796455072698393
 51
352.8281070217009869
  0
ARC
  5
53B
  8
0
 10
5.1360154592510927
 20
1388.1455787363549916
 30
0.0
 40
1340.8593968486370613
 50
269.9630491597853279
 51
270.8416359615245028
  0
ARC
  5
53C
  8
0
 10
24.8201865567169584
 20
48.2090044559501933
 30
0.0
 40
0.7782464379239823
 50
270.8416359615243891
 51
283.1080200530158208
  0
ARC
  5
53D
  8
0
 10
25.1204255540570287
 20
46.919621837014418
 30
0.0
 40
0.5456308198070464
 50
86.2149984806770391
 51
103.108020053015693
  0
ARC
  5
53E
  8
0
 10
25.1352002568723805
 20
47.1429497088630924
 30
0.0
 40
0.3218147565145819
 50
14.0773804198374002
 51
86.2149984806764138
  0
LINE
  5
53F
  8
0
 10
25.4473503098000009
 20
47.221225388149989
 30
0.0
 11
25.4841278535118505
 21
21.1339303226941801
 31
0.0
  0
ARC
  5
540
  8
0
 10
25.1839564203103592
 20
21.1638194540826916
 30
0.0
 40
0.3016558460984861
 50
268.1567580593160756
 51
354.3136004717990204
  0
ENDSEC
  0
EOF
