  0
SECTION
  2
HEADER
  9
$ACADVER
  1
AC1018
  9
$ACADMAINTVER
 70
     0
  9
$DWGCODEPAGE
  3
ANSI_936
  9
$INSBASE
 10
0.0
 20
0.0
 30
0.0
  9
$EXTMIN
 10
2244.123447179977
 20
2506.123443244078
 30
0.0
  9
$EXTMAX
 10
4244.123447179978
 20
2901.123448709931
 30
0.0
  9
$LIMMIN
 10
0.0
 20
0.0
  9
$LIMMAX
 10
12.0
 20
9.0
  9
$ORTHOMODE
 70
     0
  9
$REGENMODE
 70
     1
  9
$FILLMODE
 70
     1
  9
$QTEXTMODE
 70
     0
  9
$MIRRTEXT
 70
     1
  9
$LTSCALE
 40
1.0
  9
$ATTMODE
 70
     1
  9
$TEXTSIZE
 40
0.2
  9
$TRACEWID
 40
0.05
  9
$TEXTSTYLE
  7
Standard
  9
$CLAYER
  8
EN290
  9
$CELTYPE
  6
ByLayer
  9
$CECOLOR
 62
   256
  9
$CELTSCALE
 40
1.0
  9
$DISPSILH
 70
     0
  9
$DIMSCALE
 40
1.0
  9
$DIMASZ
 40
0.18
  9
$DIMEXO
 40
0.0625
  9
$DIMDLI
 40
0.38
  9
$DIMRND
 40
0.0
  9
$DIMDLE
 40
0.0
  9
$DIMEXE
 40
0.18
  9
$DIMTP
 40
0.0
  9
$DIMTM
 40
0.0
  9
$DIMTXT
 40
0.18
  9
$DIMCEN
 40
0.09
  9
$DIMTSZ
 40
0.0
  9
$DIMTOL
 70
     0
  9
$DIMLIM
 70
     0
  9
$DIMTIH
 70
     1
  9
$DIMTOH
 70
     1
  9
$DIMSE1
 70
     0
  9
$DIMSE2
 70
     0
  9
$DIMTAD
 70
     0
  9
$DIMZIN
 70
     0
  9
$DIMBLK
  1

  9
$DIMASO
 70
     1
  9
$DIMSHO
 70
     1
  9
$DIMPOST
  1

  9
$DIMAPOST
  1

  9
$DIMALT
 70
     0
  9
$DIMALTD
 70
     2
  9
$DIMALTF
 40
25.4
  9
$DIMLFAC
 40
1.0
  9
$DIMTOFL
 70
     0
  9
$DIMTVP
 40
0.0
  9
$DIMTIX
 70
     0
  9
$DIMSOXD
 70
     0
  9
$DIMSAH
 70
     0
  9
$DIMBLK1
  1

  9
$DIMBLK2
  1

  9
$DIMSTYLE
  2
Standard
  9
$DIMCLRD
 70
     0
  9
$DIMCLRE
 70
     0
  9
$DIMCLRT
 70
     0
  9
$DIMTFAC
 40
1.0
  9
$DIMGAP
 40
0.09
  9
$DIMJUST
 70
     0
  9
$DIMSD1
 70
     0
  9
$DIMSD2
 70
     0
  9
$DIMTOLJ
 70
     1
  9
$DIMTZIN
 70
     0
  9
$DIMALTZ
 70
     0
  9
$DIMALTTZ
 70
     0
  9
$DIMUPT
 70
     0
  9
$DIMDEC
 70
     4
  9
$DIMTDEC
 70
     4
  9
$DIMALTU
 70
     2
  9
$DIMALTTD
 70
     2
  9
$DIMTXSTY
  7
Standard
  9
$DIMAUNIT
 70
     0
  9
$DIMADEC
 70
     0
  9
$DIMALTRND
 40
0.0
  9
$DIMAZIN
 70
     0
  9
$DIMDSEP
 70
    46
  9
$DIMATFIT
 70
     3
  9
$DIMFRAC
 70
     0
  9
$DIMLDRBLK
  1

  9
$DIMLUNIT
 70
     2
  9
$DIMLWD
 70
    -2
  9
$DIMLWE
 70
    -2
  9
$DIMTMOVE
 70
     2
  9
$LUNITS
 70
     2
  9
$LUPREC
 70
     2
  9
$SKETCHINC
 40
0.1
  9
$FILLETRAD
 40
0.5
  9
$AUNITS
 70
     0
  9
$AUPREC
 70
     0
  9
$MENU
  1
.
  9
$ELEVATION
 40
0.0
  9
$PELEVATION
 40
0.0
  9
$THICKNESS
 40
0.0
  9
$LIMCHECK
 70
     0
  9
$CHAMFERA
 40
0.5
  9
$CHAMFERB
 40
0.5
  9
$CHAMFERC
 40
1.0
  9
$CHAMFERD
 40
0.0
  9
$SKPOLY
 70
     0
  9
$TDCREATE
 40
2456560.37127875
  9
$TDUCREATE
 40
2456560.287945417
  9
$TDUPDATE
 40
2456560.371278761
  9
$TDUUPDATE
 40
2456560.287945428
  9
$TDINDWG
 40
0.0000000116
  9
$TDUSRTIMER
 40
0.0000000116
  9
$USRTIMER
 70
     1
  9
$ANGBASE
 50
0.0
  9
$ANGDIR
 70
     0
  9
$PDMODE
 70
     0
  9
$PDSIZE
 40
0.0
  9
$PLINEWID
 40
0.0
  9
$SPLFRAME
 70
     0
  9
$SPLINETYPE
 70
     6
  9
$SPLINESEGS
 70
     8
  9
$HANDSEED
  5
B2
  9
$SURFTAB1
 70
     6
  9
$SURFTAB2
 70
     6
  9
$SURFTYPE
 70
     6
  9
$SURFU
 70
     6
  9
$SURFV
 70
     6
  9
$UCSBASE
  2

  9
$UCSNAME
  2

  9
$UCSORG
 10
0.0
 20
0.0
 30
0.0
  9
$UCSXDIR
 10
1.0
 20
0.0
 30
0.0
  9
$UCSYDIR
 10
0.0
 20
1.0
 30
0.0
  9
$UCSORTHOREF
  2

  9
$UCSORTHOVIEW
 70
     0
  9
$UCSORGTOP
 10
0.0
 20
0.0
 30
0.0
  9
$UCSORGBOTTOM
 10
0.0
 20
0.0
 30
0.0
  9
$UCSORGLEFT
 10
0.0
 20
0.0
 30
0.0
  9
$UCSORGRIGHT
 10
0.0
 20
0.0
 30
0.0
  9
$UCSORGFRONT
 10
0.0
 20
0.0
 30
0.0
  9
$UCSORGBACK
 10
0.0
 20
0.0
 30
0.0
  9
$PUCSBASE
  2

  9
$PUCSNAME
  2

  9
$PUCSORG
 10
0.0
 20
0.0
 30
0.0
  9
$PUCSXDIR
 10
1.0
 20
0.0
 30
0.0
  9
$PUCSYDIR
 10
0.0
 20
1.0
 30
0.0
  9
$PUCSORTHOREF
  2

  9
$PUCSORTHOVIEW
 70
     0
  9
$PUCSORGTOP
 10
0.0
 20
0.0
 30
0.0
  9
$PUCSORGBOTTOM
 10
0.0
 20
0.0
 30
0.0
  9
$PUCSORGLEFT
 10
0.0
 20
0.0
 30
0.0
  9
$PUCSORGRIGHT
 10
0.0
 20
0.0
 30
0.0
  9
$PUCSORGFRONT
 10
0.0
 20
0.0
 30
0.0
  9
$PUCSORGBACK
 10
0.0
 20
0.0
 30
0.0
  9
$USERI1
 70
     0
  9
$USERI2
 70
     0
  9
$USERI3
 70
     0
  9
$USERI4
 70
     0
  9
$USERI5
 70
     0
  9
$USERR1
 40
0.0
  9
$USERR2
 40
0.0
  9
$USERR3
 40
0.0
  9
$USERR4
 40
0.0
  9
$USERR5
 40
0.0
  9
$WORLDVIEW
 70
     1
  9
$SHADEDGE
 70
     3
  9
$SHADEDIF
 70
    70
  9
$TILEMODE
 70
     1
  9
$MAXACTVP
 70
    64
  9
$PINSBASE
 10
0.0
 20
0.0
 30
0.0
  9
$PLIMCHECK
 70
     0
  9
$PEXTMIN
 10
1.000000000000000E+20
 20
1.000000000000000E+20
 30
1.000000000000000E+20
  9
$PEXTMAX
 10
-1.000000000000000E+20
 20
-1.000000000000000E+20
 30
-1.000000000000000E+20
  9
$PLIMMIN
 10
0.0
 20
0.0
  9
$PLIMMAX
 10
12.0
 20
9.0
  9
$UNITMODE
 70
     0
  9
$VISRETAIN
 70
     1
  9
$PLINEGEN
 70
     0
  9
$PSLTSCALE
 70
     1
  9
$TREEDEPTH
 70
  3020
  9
$CMLSTYLE
  2
Standard
  9
$CMLJUST
 70
     0
  9
$CMLSCALE
 40
1.0
  9
$PROXYGRAPHICS
 70
     1
  9
$MEASUREMENT
 70
     0
  9
$CELWEIGHT
370
    -1
  9
$ENDCAPS
280
     0
  9
$JOINSTYLE
280
     0
  9
$LWDISPLAY
290
     0
  9
$INSUNITS
 70
     4
  9
$HYPERLINKBASE
  1

  9
$STYLESHEET
  1

  9
$XEDIT
290
     1
  9
$CEPSNTYPE
380
     0
  9
$PSTYLEMODE
290
     1
  9
$FINGERPRINTGUID
  2
{B4FBBFE8-852C-4B7B-839B-641BB9636A7C}
  9
$VERSIONGUID
  2
{FAEB1C32-E019-11D5-929B-00C0DF256EC4}
  9
$EXTNAMES
290
     1
  9
$PSVPSCALE
 40
0.0
  9
$OLESTARTUP
290
     0
  9
$SORTENTS
280
   127
  9
$INDEXCTL
280
     0
  9
$HIDETEXT
280
     1
  9
$XCLIPFRAME
290
     0
  9
$HALOGAP
280
     0
  9
$OBSCOLOR
 70
   257
  9
$OBSLTYPE
280
     0
  9
$INTERSECTIONDISPLAY
280
     0
  9
$INTERSECTIONCOLOR
 70
   257
  9
$DIMASSOC
280
     2
  9
$PROJECTNAME
  1

  0
ENDSEC
  0
SECTION
  2
CLASSES
  0
CLASS
  1
ACDBDICTIONARYWDFLT
  2
AcDbDictionaryWithDefault
  3
ObjectDBX Classes
 90
        0
 91
        4
280
     0
281
     0
  0
CLASS
  1
VISUALSTYLE
  2
AcDbVisualStyle
  3
ObjectDBX Classes
 90
     4095
 91
        4
280
     0
281
     0
  0
ENDSEC
  0
SECTION
  2
TABLES
  0
TABLE
  2
VPORT
  5
8
330
0
100
AcDbSymbolTable
 70
     1
  0
VPORT
  5
29
330
8
100
AcDbSymbolTableRecord
100
AcDbViewportTableRecord
  2
*Active
 70
     0
 10
0.0
 20
0.0
 11
1.0
 21
1.0
 12
3244.123447179978
 22
2703.623445977005
 13
0.0
 23
0.0
 14
0.5
 24
0.5
 15
0.5
 25
0.5
 16
0.0
 26
0.0
 36
1.0
 17
0.0
 27
0.0
 37
0.0
 40
402.9000055751692
 41
5.06329106917671
 42
50.0
 43
0.0
 44
0.0
 50
0.0
 51
0.0
 71
     0
 72
   100
 73
     1
 74
     3
 75
     0
 76
     0
 77
     0
 78
     0
281
     0
 65
     1
110
0.0
120
0.0
130
0.0
111
1.0
121
0.0
131
0.0
112
0.0
122
1.0
132
0.0
 79
     0
146
0.0
  0
ENDTAB
  0
TABLE
  2
LTYPE
  5
5
330
0
100
AcDbSymbolTable
 70
     1
  0
LTYPE
  5
14
330
5
100
AcDbSymbolTableRecord
100
AcDbLinetypeTableRecord
  2
ByBlock
 70
     0
  3

 72
    65
 73
     0
 40
0.0
  0
LTYPE
  5
15
330
5
100
AcDbSymbolTableRecord
100
AcDbLinetypeTableRecord
  2
ByLayer
 70
     0
  3

 72
    65
 73
     0
 40
0.0
  0
LTYPE
  5
16
330
5
100
AcDbSymbolTableRecord
100
AcDbLinetypeTableRecord
  2
Continuous
 70
     0
  3
Solid line
 72
    65
 73
     0
 40
0.0
  0
ENDTAB
  0
TABLE
  2
LAYER
  5
2
330
0
100
AcDbSymbolTable
 70
     3
  0
LAYER
  5
10
330
2
100
AcDbSymbolTableRecord
100
AcDbLayerTableRecord
  2
0
 70
     0
 62
     7
  6
Continuous
370
    -3
390
F
  0
LAYER
  5
3B
330
2
100
AcDbSymbolTableRecord
100
AcDbLayerTableRecord
  2
MAKE2D VISIBLE LINES
 70
     0
 62
     7
  6
Continuous
370
    -3
390
F
  0
LAYER
  5
50
330
2
100
AcDbSymbolTableRecord
100
AcDbLayerTableRecord
  2
EN290
 70
     0
 62
     7
  6
Continuous
370
    -3
390
F
  0
ENDTAB
  0
TABLE
  2
STYLE
  5
3
330
0
100
AcDbSymbolTable
 70
     1
  0
STYLE
  5
11
330
3
100
AcDbSymbolTableRecord
100
AcDbTextStyleTableRecord
  2
Standard
 70
     0
 40
0.0
 41
1.0
 50
0.0
 71
     0
 42
0.2
  3
txt
  4

  0
ENDTAB
  0
TABLE
  2
VIEW
  5
6
330
0
100
AcDbSymbolTable
 70
     0
  0
ENDTAB
  0
TABLE
  2
UCS
  5
7
330
0
100
AcDbSymbolTable
 70
     0
  0
ENDTAB
  0
TABLE
  2
APPID
  5
9
330
0
100
AcDbSymbolTable
 70
     1
  0
APPID
  5
12
330
9
100
AcDbSymbolTableRecord
100
AcDbRegAppTableRecord
  2
ACAD
 70
     0
  0
ENDTAB
  0
TABLE
  2
DIMSTYLE
  5
A
330
0
100
AcDbSymbolTable
 70
     1
100
AcDbDimStyleTable
  0
DIMSTYLE
105
27
330
A
100
AcDbSymbolTableRecord
100
AcDbDimStyleTableRecord
  2
Standard
 70
     0
340
11
  0
ENDTAB
  0
TABLE
  2
BLOCK_RECORD
  5
1
330
0
100
AcDbSymbolTable
 70
     1
  0
BLOCK_RECORD
  5
1F
330
1
100
AcDbSymbolTableRecord
100
AcDbBlockTableRecord
  2
*Model_Space
340
22
  0
BLOCK_RECORD
  5
1B
330
1
100
AcDbSymbolTableRecord
100
AcDbBlockTableRecord
  2
*Paper_Space
340
1E
  0
BLOCK_RECORD
  5
23
330
1
100
AcDbSymbolTableRecord
100
AcDbBlockTableRecord
  2
*Paper_Space0
340
26
  0
ENDTAB
  0
ENDSEC
  0
SECTION
  2
BLOCKS
  0
BLOCK
  5
20
330
1F
100
AcDbEntity
  8
0
100
AcDbBlockBegin
  2
*Model_Space
 70
     0
 10
0.0
 20
0.0
 30
0.0
  3
*Model_Space
  1

  0
ENDBLK
  5
21
330
1F
100
AcDbEntity
  8
0
100
AcDbBlockEnd
  0
BLOCK
  5
1C
330
1B
100
AcDbEntity
 67
     1
  8
0
100
AcDbBlockBegin
  2
*Paper_Space
 70
     0
 10
0.0
 20
0.0
 30
0.0
  3
*Paper_Space
  1

  0
ENDBLK
  5
1D
330
1B
100
AcDbEntity
 67
     1
  8
0
100
AcDbBlockEnd
  0
BLOCK
  5
24
330
23
100
AcDbEntity
  8
0
100
AcDbBlockBegin
  2
*Paper_Space0
 70
     0
 10
0.0
 20
0.0
 30
0.0
  3
*Paper_Space0
  1

  0
ENDBLK
  5
25
330
23
100
AcDbEntity
  8
0
100
AcDbBlockEnd
  0
ENDSEC
  0
SECTION
  2
ENTITIES
  0
LINE
  5
3C
330
1F
100
AcDbEntity
  8
MAKE2D VISIBLE LINES
100
AcDbLine
 10
3209.123447204329
 20
2521.123443244078
 30
0.0
 11
2259.123447108934
 21
2521.123443244078
 31
0.0
  0
POLYLINE
  5
3D
330
1F
100
AcDbEntity
  8
MAKE2D VISIBLE LINES
100
AcDb2dPolyline
 66
     1
 10
0.0
 20
0.0
 30
0.0
  0
VERTEX
  5
3E
330
3D
100
AcDbEntity
  8
MAKE2D VISIBLE LINES
100
AcDbVertex
100
AcDb2dVertex
 10
3209.123447179978
 20
2681.3645396828
 30
0.0
  0
VERTEX
  5
3F
330
3D
100
AcDbEntity
  8
MAKE2D VISIBLE LINES
100
AcDbVertex
100
AcDb2dVertex
 10
3209.123447179977
 20
2896.123444133699
 30
0.0
 42
-0.4142208882903223
  0
VERTEX
  5
40
330
3D
100
AcDbEntity
  8
MAKE2D VISIBLE LINES
100
AcDbVertex
100
AcDb2dVertex
 10
3214.123447179977
 20
2901.123444228976
 30
0.0
  0
VERTEX
  5
41
330
3D
100
AcDbEntity
  8
MAKE2D VISIBLE LINES
100
AcDbVertex
100
AcDb2dVertex
 10
3274.123447179977
 20
2901.123448709931
 30
0.0
 42
-0.4142124761294741
  0
VERTEX
  5
42
330
3D
100
AcDbEntity
  8
MAKE2D VISIBLE LINES
100
AcDbVertex
100
AcDb2dVertex
 10
3279.123447179977
 20
2896.1234483456
 30
0.0
  0
VERTEX
  5
43
330
3D
100
AcDbEntity
  8
MAKE2D VISIBLE LINES
100
AcDbVertex
100
AcDb2dVertex
 10
3279.123447179977
 20
2681.3645396828
 30
0.0
  0
SEQEND
  5
44
330
3D
100
AcDbEntity
  8
MAKE2D VISIBLE LINES
  0
ARC
  5
45
330
1F
100
AcDbEntity
  8
MAKE2D VISIBLE LINES
100
AcDbCircle
 10
4229.123020872423
 20
2656.123125682709
 30
0.0
 40
15.00031756742681
100
AcDbArc
 50
8.456120269642764
 51
89.99837165956444
  0
ARC
  5
46
330
1F
100
AcDbEntity
  8
MAKE2D VISIBLE LINES
100
AcDbCircle
 10
2259.125100934388
 20
2656.121660045525
 30
0.0
 40
15.00178328970476
100
AcDbArc
 50
90.00631612565279
 51
172.5749591210693
  0
POLYLINE
  5
47
330
1F
100
AcDbEntity
  8
MAKE2D VISIBLE LINES
100
AcDb2dPolyline
 66
     1
 10
0.0
 20
0.0
 30
0.0
  0
VERTEX
  5
48
330
47
100
AcDbEntity
  8
MAKE2D VISIBLE LINES
100
AcDbVertex
100
AcDb2dVertex
 10
2257.959213914675
 20
2521.168715760731
 30
0.0
  0
VERTEX
  5
49
330
47
100
AcDbEntity
  8
MAKE2D VISIBLE LINES
100
AcDbVertex
100
AcDb2dVertex
 10
2257.572405188324
 20
2521.20396735245
 30
0.0
 42
-0.0453136587442508
  0
VERTEX
  5
4A
330
47
100
AcDbEntity
  8
MAKE2D VISIBLE LINES
100
AcDbVertex
100
AcDb2dVertex
 10
2254.898279286091
 20
2521.730605581002
 30
0.0
 42
-0.1955837755172549
  0
VERTEX
  5
4B
330
47
100
AcDbEntity
  8
MAKE2D VISIBLE LINES
100
AcDbVertex
100
AcDb2dVertex
 10
2246.052346188954
 20
2528.76597864022
 30
0.0
  0
VERTEX
  5
4C
330
47
100
AcDbEntity
  8
MAKE2D VISIBLE LINES
100
AcDbVertex
100
AcDb2dVertex
 10
2245.742454527754
 20
2529.345201704362
 30
0.0
 42
-0.1177590140382206
  0
VERTEX
  5
4D
330
47
100
AcDbEntity
  8
MAKE2D VISIBLE LINES
100
AcDbVertex
100
AcDb2dVertex
 10
2244.123447179977
 20
2536.123443244078
 30
0.0
  0
VERTEX
  5
4E
330
47
100
AcDbEntity
  8
MAKE2D VISIBLE LINES
100
AcDbVertex
100
AcDb2dVertex
 10
2244.143398218508
 20
2656.900039721198
 30
0.0
  0
SEQEND
  5
4F
330
47
100
AcDbEntity
  8
MAKE2D VISIBLE LINES
  0
POLYLINE
  5
51
330
1F
100
AcDbEntity
  8
EN290
100
AcDb2dPolyline
 66
     1
 10
0.0
 20
0.0
 30
0.0
  0
VERTEX
  5
52
330
51
100
AcDbEntity
  8
EN290
100
AcDbVertex
100
AcDb2dVertex
 10
3279.123447155624
 20
2521.123443244078
 30
0.0
  0
VERTEX
  5
53
330
51
100
AcDbEntity
  8
EN290
100
AcDbVertex
100
AcDb2dVertex
 10
4229.12344725102
 20
2521.123443244078
 30
0.0
  0
VERTEX
  5
54
330
51
100
AcDbEntity
  8
EN290
100
AcDbVertex
100
AcDb2dVertex
 10
4230.454000941855
 20
2521.138206045156
 30
0.0
  0
VERTEX
  5
55
330
51
100
AcDbEntity
  8
EN290
100
AcDbVertex
100
AcDb2dVertex
 10
4230.789579720142
 20
2521.151734432848
 30
0.0
  0
VERTEX
  5
56
330
51
100
AcDbEntity
  8
EN290
100
AcDbVertex
100
AcDb2dVertex
 10
4231.126825955776
 20
2521.171403744443
 30
0.0
  0
VERTEX
  5
57
330
51
100
AcDbEntity
  8
EN290
100
AcDbVertex
100
AcDb2dVertex
 10
4231.465869566882
 20
2521.19814805994
 30
0.0
  0
VERTEX
  5
58
330
51
100
AcDbEntity
  8
EN290
100
AcDbVertex
100
AcDb2dVertex
 10
4231.806779048371
 20
2521.232809690391
 30
0.0
  0
VERTEX
  5
59
330
51
100
AcDbEntity
  8
EN290
100
AcDbVertex
100
AcDb2dVertex
 10
4232.149564417938
 20
2521.276142123907
 30
0.0
  0
VERTEX
  5
5A
330
51
100
AcDbEntity
  8
EN290
100
AcDbVertex
100
AcDb2dVertex
 10
4232.494180162072
 20
2521.328812971657
 30
0.0
  0
VERTEX
  5
5B
330
51
100
AcDbEntity
  8
EN290
100
AcDbVertex
100
AcDb2dVertex
 10
4232.840528182056
 20
2521.391406913872
 30
0.0
  0
VERTEX
  5
5C
330
51
100
AcDbEntity
  8
EN290
100
AcDbVertex
100
AcDb2dVertex
 10
4233.188460739971
 20
2521.464428645848
 30
0.0
  0
VERTEX
  5
5D
330
51
100
AcDbEntity
  8
EN290
100
AcDbVertex
100
AcDb2dVertex
 10
4233.537783404698
 20
2521.54830582395
 30
0.0
  0
VERTEX
  5
5E
330
51
100
AcDbEntity
  8
EN290
100
AcDbVertex
100
AcDb2dVertex
 10
4233.88825799792
 20
2521.643392011617
 30
0.0
  0
VERTEX
  5
5F
330
51
100
AcDbEntity
  8
EN290
100
AcDbVertex
100
AcDb2dVertex
 10
4234.23960554013
 20
2521.749969625359
 30
0.0
  0
VERTEX
  5
60
330
51
100
AcDbEntity
  8
EN290
100
AcDbVertex
100
AcDb2dVertex
 10
4234.591509196628
 20
2521.868252880769
 30
0.0
  0
VERTEX
  5
61
330
51
100
AcDbEntity
  8
EN290
100
AcDbVertex
100
AcDb2dVertex
 10
4234.94361722353
 20
2521.998390738516
 30
0.0
  0
VERTEX
  5
62
330
51
100
AcDbEntity
  8
EN290
100
AcDbVertex
100
AcDb2dVertex
 10
4235.295545913765
 20
2522.140469850358
 30
0.0
  0
VERTEX
  5
63
330
51
100
AcDbEntity
  8
EN290
100
AcDbVertex
100
AcDb2dVertex
 10
4235.646882543082
 20
2522.294517505138
 30
0.0
  0
VERTEX
  5
64
330
51
100
AcDbEntity
  8
EN290
100
AcDbVertex
100
AcDb2dVertex
 10
4235.997188316052
 20
2522.460504574789
 30
0.0
  0
VERTEX
  5
65
330
51
100
AcDbEntity
  8
EN290
100
AcDbVertex
100
AcDb2dVertex
 10
4236.346001312073
 20
2522.638348460341
 30
0.0
  0
VERTEX
  5
66
330
51
100
AcDbEntity
  8
EN290
100
AcDbVertex
100
AcDb2dVertex
 10
4236.69283943137
 20
2522.827916037917
 30
0.0
  0
VERTEX
  5
67
330
51
100
AcDbEntity
  8
EN290
100
AcDbVertex
100
AcDb2dVertex
 10
4237.037203340999
 20
2523.029026604743
 30
0.0
  0
VERTEX
  5
68
330
51
100
AcDbEntity
  8
EN290
100
AcDbVertex
100
AcDb2dVertex
 10
4237.378579420851
 20
2523.241454825147
 30
0.0
  0
VERTEX
  5
69
330
51
100
AcDbEntity
  8
EN290
100
AcDbVertex
100
AcDb2dVertex
 10
4237.716442709654
 20
2523.464933676563
 30
0.0
  0
VERTEX
  5
6A
330
51
100
AcDbEntity
  8
EN290
100
AcDbVertex
100
AcDb2dVertex
 10
4238.050259850978
 20
2523.699157395537
 30
0.0
  0
VERTEX
  5
6B
330
51
100
AcDbEntity
  8
EN290
100
AcDbVertex
100
AcDb2dVertex
 10
4238.379492039237
 20
2523.943784423723
 30
0.0
  0
VERTEX
  5
6C
330
51
100
AcDbEntity
  8
EN290
100
AcDbVertex
100
AcDb2dVertex
 10
4238.70359796569
 20
2524.198440353895
 30
0.0
  0
VERTEX
  5
6D
330
51
100
AcDbEntity
  8
EN290
100
AcDbVertex
100
AcDb2dVertex
 10
4239.022036764447
 20
2524.462720875944
 30
0.0
  0
VERTEX
  5
6E
330
51
100
AcDbEntity
  8
EN290
100
AcDbVertex
100
AcDb2dVertex
 10
4239.334270958472
 20
2524.736194722884
 30
0.0
  0
VERTEX
  5
6F
330
51
100
AcDbEntity
  8
EN290
100
AcDbVertex
100
AcDb2dVertex
 10
4239.639769405585
 20
2525.018406616852
 30
0.0
  0
VERTEX
  5
70
330
51
100
AcDbEntity
  8
EN290
100
AcDbVertex
100
AcDb2dVertex
 10
4239.938010244461
 20
2525.308880215116
 30
0.0
  0
VERTEX
  5
71
330
51
100
AcDbEntity
  8
EN290
100
AcDbVertex
100
AcDb2dVertex
 10
4240.228483840645
 20
2525.607121056073
 30
0.0
  0
VERTEX
  5
72
330
51
100
AcDbEntity
  8
EN290
100
AcDbVertex
100
AcDb2dVertex
 10
4240.510695732541
 20
2525.912619505257
 30
0.0
  0
VERTEX
  5
73
330
51
100
AcDbEntity
  8
EN290
100
AcDbVertex
100
AcDb2dVertex
 10
4240.784169577425
 20
2526.224853701337
 30
0.0
  0
VERTEX
  5
74
330
51
100
AcDbEntity
  8
EN290
100
AcDbVertex
100
AcDb2dVertex
 10
4241.048450097443
 20
2526.543292502126
 30
0.0
  0
VERTEX
  5
75
330
51
100
AcDbEntity
  8
EN290
100
AcDbVertex
100
AcDb2dVertex
 10
4241.303106025616
 20
2526.867398430579
 30
0.0
  0
VERTEX
  5
76
330
51
100
AcDbEntity
  8
EN290
100
AcDbVertex
100
AcDb2dVertex
 10
4241.547733051842
 20
2527.196630620797
 30
0.0
  0
VERTEX
  5
77
330
51
100
AcDbEntity
  8
EN290
100
AcDbVertex
100
AcDb2dVertex
 10
4241.781956768902
 20
2527.530447764034
 30
0.0
  0
VERTEX
  5
78
330
51
100
AcDbEntity
  8
EN290
100
AcDbVertex
100
AcDb2dVertex
 10
4242.005435618461
 20
2527.868311054696
 30
0.0
  0
VERTEX
  5
79
330
51
100
AcDbEntity
  8
EN290
100
AcDbVertex
100
AcDb2dVertex
 10
4242.217863837066
 20
2528.209687136346
 30
0.0
  0
VERTEX
  5
7A
330
51
100
AcDbEntity
  8
EN290
100
AcDbVertex
100
AcDb2dVertex
 10
4242.418974402162
 20
2528.554051047705
 30
0.0
  0
VERTEX
  5
7B
330
51
100
AcDbEntity
  8
EN290
100
AcDbVertex
100
AcDb2dVertex
 10
4242.608541978081
 20
2528.900889168658
 30
0.0
  0
VERTEX
  5
7C
330
51
100
AcDbEntity
  8
EN290
100
AcDbVertex
100
AcDb2dVertex
 10
4242.786385862055
 20
2529.249702166258
 30
0.0
  0
VERTEX
  5
7D
330
51
100
AcDbEntity
  8
EN290
100
AcDbVertex
100
AcDb2dVertex
 10
4242.952372930213
 20
2529.600007940723
 30
0.0
  0
VERTEX
  5
7E
330
51
100
AcDbEntity
  8
EN290
100
AcDbVertex
100
AcDb2dVertex
 10
4243.106420583586
 20
2529.951344571446
 30
0.0
  0
VERTEX
  5
7F
330
51
100
AcDbEntity
  8
EN290
100
AcDbVertex
100
AcDb2dVertex
 10
4243.248499694113
 20
2530.303273262995
 30
0.0
  0
VERTEX
  5
80
330
51
100
AcDbEntity
  8
EN290
100
AcDbVertex
100
AcDb2dVertex
 10
4243.378637550642
 20
2530.655381291116
 30
0.0
  0
VERTEX
  5
81
330
51
100
AcDbEntity
  8
EN290
100
AcDbVertex
100
AcDb2dVertex
 10
4243.49692080493
 20
2531.007284948736
 30
0.0
  0
VERTEX
  5
82
330
51
100
AcDbEntity
  8
EN290
100
AcDbVertex
100
AcDb2dVertex
 10
4243.603498417649
 20
2531.358632491969
 30
0.0
  0
VERTEX
  5
83
330
51
100
AcDbEntity
  8
EN290
100
AcDbVertex
100
AcDb2dVertex
 10
4243.698584604392
 20
2531.709107086114
 30
0.0
  0
VERTEX
  5
84
330
51
100
AcDbEntity
  8
EN290
100
AcDbVertex
100
AcDb2dVertex
 10
4243.782461781673
 20
2532.058429751663
 30
0.0
  0
VERTEX
  5
85
330
51
100
AcDbEntity
  8
EN290
100
AcDbVertex
100
AcDb2dVertex
 10
4243.855483512925
 20
2532.406362310301
 30
0.0
  0
VERTEX
  5
86
330
51
100
AcDbEntity
  8
EN290
100
AcDbVertex
100
AcDb2dVertex
 10
4243.918077454513
 20
2532.752710330912
 30
0.0
  0
VERTEX
  5
87
330
51
100
AcDbEntity
  8
EN290
100
AcDbVertex
100
AcDb2dVertex
 10
4243.970748301731
 20
2533.097326075578
 30
0.0
  0
VERTEX
  5
88
330
51
100
AcDbEntity
  8
EN290
100
AcDbVertex
100
AcDb2dVertex
 10
4244.014080734805
 20
2533.440111445587
 30
0.0
  0
VERTEX
  5
89
330
51
100
AcDbEntity
  8
EN290
100
AcDbVertex
100
AcDb2dVertex
 10
4244.048742364901
 20
2533.781020927432
 30
0.0
  0
VERTEX
  5
8A
330
51
100
AcDbEntity
  8
EN290
100
AcDbVertex
100
AcDb2dVertex
 10
4244.075486680119
 20
2534.120064538816
 30
0.0
  0
VERTEX
  5
8B
330
51
100
AcDbEntity
  8
EN290
100
AcDbVertex
100
AcDb2dVertex
 10
4244.095155991508
 20
2534.457310774656
 30
0.0
  0
VERTEX
  5
8C
330
51
100
AcDbEntity
  8
EN290
100
AcDbVertex
100
AcDb2dVertex
 10
4244.108684379058
 20
2534.792889553086
 30
0.0
  0
VERTEX
  5
8D
330
51
100
AcDbEntity
  8
EN290
100
AcDbVertex
100
AcDb2dVertex
 10
4244.123447179977
 20
2536.123443244078
 30
0.0
  0
VERTEX
  5
8E
330
51
100
AcDbEntity
  8
EN290
100
AcDbVertex
100
AcDb2dVertex
 10
4244.103496166976
 20
2656.90003972244
 30
0.0
  0
SEQEND
  5
8F
330
51
100
AcDbEntity
  8
EN290
  0
POLYLINE
  5
90
330
1F
100
AcDbEntity
  8
MAKE2D VISIBLE LINES
100
AcDb2dPolyline
 66
     1
 10
0.0
 20
0.0
 30
0.0
  0
VERTEX
  5
91
330
90
100
AcDbEntity
  8
MAKE2D VISIBLE LINES
100
AcDbVertex
100
AcDb2dVertex
 10
3209.123447204408
 20
2671.123443244078
 30
0.0
  0
VERTEX
  5
92
330
90
100
AcDbEntity
  8
MAKE2D VISIBLE LINES
100
AcDbVertex
100
AcDb2dVertex
 10
2244.123447179977
 20
2671.123443244078
 30
0.0
  0
VERTEX
  5
93
330
90
100
AcDbEntity
  8
MAKE2D VISIBLE LINES
100
AcDbVertex
100
AcDb2dVertex
 10
2244.123447179977
 20
2866.123443244078
 30
0.0
 42
-0.4142135623731005
  0
VERTEX
  5
94
330
90
100
AcDbEntity
  8
MAKE2D VISIBLE LINES
100
AcDbVertex
100
AcDb2dVertex
 10
2264.123447179977
 20
2886.123443244078
 30
0.0
  0
VERTEX
  5
95
330
90
100
AcDbEntity
  8
MAKE2D VISIBLE LINES
100
AcDbVertex
100
AcDb2dVertex
 10
3209.123447179977
 20
2886.123443244078
 30
0.0
  0
SEQEND
  5
96
330
90
100
AcDbEntity
  8
MAKE2D VISIBLE LINES
  0
POLYLINE
  5
97
330
1F
100
AcDbEntity
  8
MAKE2D VISIBLE LINES
100
AcDb2dPolyline
 66
     1
 10
0.0
 20
0.0
 30
0.0
  0
VERTEX
  5
98
330
97
100
AcDbEntity
  8
MAKE2D VISIBLE LINES
100
AcDbVertex
100
AcDb2dVertex
 10
3279.123447179977
 20
2507.063134819125
 30
0.0
  0
VERTEX
  5
99
330
97
100
AcDbEntity
  8
MAKE2D VISIBLE LINES
100
AcDbVertex
100
AcDb2dVertex
 10
3279.123445143474
 20
2681.12986146865
 30
0.0
 42
0.4138363269004054
  0
VERTEX
  5
9A
330
97
100
AcDbEntity
  8
MAKE2D VISIBLE LINES
100
AcDbVertex
100
AcDb2dVertex
 10
3274.123447179977
 20
2686.123444805755
 30
0.0
  0
VERTEX
  5
9B
330
97
100
AcDbEntity
  8
MAKE2D VISIBLE LINES
100
AcDbVertex
100
AcDb2dVertex
 10
3214.123447179977
 20
2686.123443806881
 30
0.0
 42
0.4138446987139179
  0
VERTEX
  5
9C
330
97
100
AcDbEntity
  8
MAKE2D VISIBLE LINES
100
AcDbVertex
100
AcDb2dVertex
 10
3209.123449251202
 20
2681.126639983381
 30
0.0
  0
VERTEX
  5
9D
330
97
100
AcDbEntity
  8
MAKE2D VISIBLE LINES
100
AcDbVertex
100
AcDb2dVertex
 10
3209.123447179977
 20
2507.063134805413
 30
0.0
  0
SEQEND
  5
9E
330
97
100
AcDbEntity
  8
MAKE2D VISIBLE LINES
  0
POLYLINE
  5
9F
330
1F
100
AcDbEntity
  8
MAKE2D VISIBLE LINES
100
AcDb2dPolyline
 66
     1
 10
0.0
 20
0.0
 30
0.0
  0
VERTEX
  5
A0
330
9F
100
AcDbEntity
  8
MAKE2D VISIBLE LINES
100
AcDbVertex
100
AcDb2dVertex
 10
3209.123447179977
 20
2506.964008483968
 30
0.0
  0
VERTEX
  5
A1
330
9F
100
AcDbEntity
  8
MAKE2D VISIBLE LINES
100
AcDbVertex
100
AcDb2dVertex
 10
3209.123447179977
 20
2506.123443244078
 30
0.0
  0
VERTEX
  5
A2
330
9F
100
AcDbEntity
  8
MAKE2D VISIBLE LINES
100
AcDbVertex
100
AcDb2dVertex
 10
3279.123447179977
 20
2506.123443244078
 30
0.0
  0
VERTEX
  5
A3
330
9F
100
AcDbEntity
  8
MAKE2D VISIBLE LINES
100
AcDbVertex
100
AcDb2dVertex
 10
3279.123447179977
 20
2506.964008483968
 30
0.0
  0
SEQEND
  5
A4
330
9F
100
AcDbEntity
  8
MAKE2D VISIBLE LINES
  0
POLYLINE
  5
A5
330
1F
100
AcDbEntity
  8
MAKE2D VISIBLE LINES
100
AcDb2dPolyline
 66
     1
 10
0.0
 20
0.0
 30
0.0
  0
VERTEX
  5
A6
330
A5
100
AcDbEntity
  8
MAKE2D VISIBLE LINES
100
AcDbVertex
100
AcDb2dVertex
 10
3279.123447155546
 20
2671.123443244078
 30
0.0
  0
VERTEX
  5
A7
330
A5
100
AcDbEntity
  8
MAKE2D VISIBLE LINES
100
AcDbVertex
100
AcDb2dVertex
 10
4244.123447179977
 20
2671.123443244078
 30
0.0
  0
VERTEX
  5
A8
330
A5
100
AcDbEntity
  8
MAKE2D VISIBLE LINES
100
AcDbVertex
100
AcDb2dVertex
 10
4244.123447179978
 20
2866.123443244078
 30
0.0
 42
0.4142135623730778
  0
VERTEX
  5
A9
330
A5
100
AcDbEntity
  8
MAKE2D VISIBLE LINES
100
AcDbVertex
100
AcDb2dVertex
 10
4224.123447179977
 20
2886.123443244078
 30
0.0
  0
VERTEX
  5
AA
330
A5
100
AcDbEntity
  8
MAKE2D VISIBLE LINES
100
AcDbVertex
100
AcDb2dVertex
 10
3279.123447179978
 20
2886.123443244078
 30
0.0
  0
SEQEND
  5
AB
330
A5
100
AcDbEntity
  8
MAKE2D VISIBLE LINES
  0
CIRCLE
  5
AC
330
1F
100
AcDbEntity
  8
MAKE2D VISIBLE LINES
100
AcDbCircle
 10
4149.123337969155
 20
2778.623528662491
 30
0.0
 40
5.000106650953628
  0
CIRCLE
  5
AD
330
1F
100
AcDbEntity
  8
MAKE2D VISIBLE LINES
100
AcDbCircle
 10
3149.123337969154
 20
2778.623528662492
 30
0.0
 40
5.000106650954537
  0
CIRCLE
  5
AE
330
1F
100
AcDbEntity
  8
MAKE2D VISIBLE LINES
100
AcDbCircle
 10
2339.1235563908
 20
2778.623528662492
 30
0.0
 40
5.000106650954992
  0
CIRCLE
  5
AF
330
1F
100
AcDbEntity
  8
MAKE2D VISIBLE LINES
100
AcDbCircle
 10
3339.1235563908
 20
2778.623528662492
 30
0.0
 40
5.000106650955447
  0
ENDSEC
  0
SECTION
  2
OBJECTS
  0
DICTIONARY
  5
C
330
0
100
AcDbDictionary
281
     1
  3
ACAD_GROUP
350
D
  3
ACAD_LAYOUT
350
1A
  3
ACAD_MLEADERSTYLE
350
B1
  3
ACAD_MLINESTYLE
350
17
  3
ACAD_PLOTSETTINGS
350
19
  3
ACAD_PLOTSTYLENAME
350
E
  3
ACAD_TABLESTYLE
350
B0
  3
ACAD_VISUALSTYLE
350
2A
  0
DICTIONARY
  5
D
102
{ACAD_REACTORS
330
C
102
}
330
C
100
AcDbDictionary
281
     1
  0
DICTIONARY
  5
1A
102
{ACAD_REACTORS
330
C
102
}
330
C
100
AcDbDictionary
281
     1
  3
Layout1
350
1E
  3
Layout2
350
26
  3
Model
350
22
  0
DICTIONARY
  5
B1
102
{ACAD_REACTORS
330
C
102
}
330
C
100
AcDbDictionary
281
     1
  0
DICTIONARY
  5
17
102
{ACAD_REACTORS
330
C
102
}
330
C
100
AcDbDictionary
281
     1
  3
Standard
350
18
  0
DICTIONARY
  5
19
102
{ACAD_REACTORS
330
C
102
}
330
C
100
AcDbDictionary
281
     1
  0
ACDBDICTIONARYWDFLT
  5
E
102
{ACAD_REACTORS
330
C
102
}
330
C
100
AcDbDictionary
281
     1
  3
Normal
350
F
100
AcDbDictionaryWithDefault
340
F
  0
DICTIONARY
  5
B0
102
{ACAD_REACTORS
330
C
102
}
330
C
100
AcDbDictionary
281
     1
  0
DICTIONARY
  5
2A
102
{ACAD_REACTORS
330
C
102
}
330
C
100
AcDbDictionary
281
     1
  3
2dWireframe
350
2F
  3
3D Hidden
350
31
  3
3dWireframe
350
30
  3
Basic
350
32
  3
Brighten
350
36
  3
ColorChange
350
3A
  3
Conceptual
350
34
  3
Dim
350
35
  3
Facepattern
350
39
  3
Flat
350
2B
  3
FlatWithEdges
350
2C
  3
Gouraud
350
2D
  3
GouraudWithEdges
350
2E
  3
Linepattern
350
38
  3
Realistic
350
33
  3
Thicken
350
37
  0
LAYOUT
  5
1E
102
{ACAD_REACTORS
330
1A
102
}
330
1A
100
AcDbPlotSettings
  1

  2
none_device
  4

  6

 40
0.0
 41
0.0
 42
0.0
 43
0.0
 44
0.0
 45
0.0
 46
0.0
 47
0.0
 48
0.0
 49
0.0
140
0.0
141
0.0
142
1.0
143
1.0
 70
   688
 72
     0
 73
     0
 74
     5
  7

 75
    16
 76
     0
 77
     2
 78
   300
147
1.0
148
0.0
149
0.0
100
AcDbLayout
  1
Layout1
 70
     1
 71
     1
 10
0.0
 20
0.0
 11
12.0
 21
9.0
 12
0.0
 22
0.0
 32
0.0
 14
1.000000000000000E+20
 24
1.000000000000000E+20
 34
1.000000000000000E+20
 15
-1.000000000000000E+20
 25
-1.000000000000000E+20
 35
-1.000000000000000E+20
146
0.0
 13
0.0
 23
0.0
 33
0.0
 16
1.0
 26
0.0
 36
0.0
 17
0.0
 27
1.0
 37
0.0
 76
     0
330
1B
  0
LAYOUT
  5
26
102
{ACAD_REACTORS
330
1A
102
}
330
1A
100
AcDbPlotSettings
  1

  2
none_device
  4

  6

 40
0.0
 41
0.0
 42
0.0
 43
0.0
 44
0.0
 45
0.0
 46
0.0
 47
0.0
 48
0.0
 49
0.0
140
0.0
141
0.0
142
1.0
143
1.0
 70
   688
 72
     0
 73
     0
 74
     5
  7

 75
    16
 76
     0
 77
     2
 78
   300
147
1.0
148
0.0
149
0.0
100
AcDbLayout
  1
Layout2
 70
     1
 71
     2
 10
0.0
 20
0.0
 11
0.0
 21
0.0
 12
0.0
 22
0.0
 32
0.0
 14
0.0
 24
0.0
 34
0.0
 15
0.0
 25
0.0
 35
0.0
146
0.0
 13
0.0
 23
0.0
 33
0.0
 16
1.0
 26
0.0
 36
0.0
 17
0.0
 27
1.0
 37
0.0
 76
     0
330
23
  0
LAYOUT
  5
22
102
{ACAD_REACTORS
330
1A
102
}
330
1A
100
AcDbPlotSettings
  1

  2
none_device
  4

  6

 40
0.0
 41
0.0
 42
0.0
 43
0.0
 44
0.0
 45
0.0
 46
0.0
 47
0.0
 48
0.0
 49
0.0
140
0.0
141
0.0
142
1.0
143
1.0
 70
  1712
 72
     0
 73
     0
 74
     0
  7

 75
     0
 76
     0
 77
     2
 78
   300
147
1.0
148
0.0
149
0.0
100
AcDbLayout
  1
Model
 70
     1
 71
     0
 10
0.0
 20
0.0
 11
12.0
 21
9.0
 12
0.0
 22
0.0
 32
0.0
 14
2244.123447179977
 24
2506.123443244078
 34
0.0
 15
4244.123447179978
 25
2901.123448709931
 35
0.0
146
0.0
 13
0.0
 23
0.0
 33
0.0
 16
1.0
 26
0.0
 36
0.0
 17
0.0
 27
1.0
 37
0.0
 76
     0
330
1F
331
29
  0
MLINESTYLE
  5
18
102
{ACAD_REACTORS
330
17
102
}
330
17
100
AcDbMlineStyle
  2
Standard
 70
     0
  3

 62
   256
 51
90.0
 52
90.0
 71
     2
 49
0.5
 62
   256
  6
BYLAYER
 49
-0.5
 62
   256
  6
BYLAYER
  0
ACDBPLACEHOLDER
  5
F
102
{ACAD_REACTORS
330
E
102
}
330
E
  0
VISUALSTYLE
  5
2F
102
{ACAD_REACTORS
330
2A
102
}
330
2A
100
AcDbVisualStyle
  2
2dWireframe
 70
     4
 71
     0
 72
     2
 73
     0
 90
        0
 40
-0.6
 41
-30.0
 62
     5
 63
     7
421
 16777215
 74
     1
 91
        4
 64
     7
 65
   257
 75
     1
175
     1
 42
1.0
 92
        0
 66
   257
 43
1.0
 76
     1
 77
     6
 78
     2
 67
     7
 79
     5
170
     0
171
     0
290
     0
174
     0
 93
        1
 44
0.0
173
     0
291
     0
 45
0.0
1001
ACAD
1000
AcDbSavedByObjectVersion
1070
     0
  0
VISUALSTYLE
  5
31
102
{ACAD_REACTORS
330
2A
102
}
330
2A
100
AcDbVisualStyle
  2
3D Hidden
 70
     6
 71
     1
 72
     2
 73
     2
 90
        0
 40
-0.6
 41
-30.0
 62
     5
 63
     7
421
 16777215
 74
     2
 91
        2
 64
     7
 65
   257
 75
     2
175
     1
 42
40.0
 92
        0
 66
   257
 43
1.0
 76
     1
 77
     6
 78
     2
 67
     7
 79
     3
170
     0
171
     0
290
     0
174
     0
 93
        1
 44
0.0
173
     0
291
     0
 45
0.0
1001
ACAD
1000
AcDbSavedByObjectVersion
1070
     0
  0
VISUALSTYLE
  5
30
102
{ACAD_REACTORS
330
2A
102
}
330
2A
100
AcDbVisualStyle
  2
3dWireframe
 70
     5
 71
     0
 72
     2
 73
     0
 90
        0
 40
-0.6
 41
-30.0
 62
     5
 63
     7
421
 16777215
 74
     1
 91
        4
 64
     7
 65
   257
 75
     1
175
     1
 42
1.0
 92
        0
 66
   257
 43
1.0
 76
     1
 77
     6
 78
     2
 67
     7
 79
     5
170
     0
171
     0
290
     0
174
     0
 93
        1
 44
0.0
173
     0
291
     0
 45
0.0
1001
ACAD
1000
AcDbSavedByObjectVersion
1070
     0
  0
VISUALSTYLE
  5
32
102
{ACAD_REACTORS
330
2A
102
}
330
2A
100
AcDbVisualStyle
  2
Basic
 70
     7
 71
     1
 72
     0
 73
     1
 90
        0
 40
-0.6
 41
-30.0
 62
     5
 63
     7
421
 16777215
 74
     0
 91
        4
 64
     7
 65
   257
 75
     1
175
     1
 42
1.0
 92
        8
 66
     7
 43
1.0
 76
     1
 77
     6
 78
     2
 67
     7
 79
     5
170
     0
171
     0
290
     0
174
     0
 93
        1
 44
0.0
173
     0
291
     1
 45
0.0
1001
ACAD
1000
AcDbSavedByObjectVersion
1070
     0
  0
VISUALSTYLE
  5
36
102
{ACAD_REACTORS
330
2A
102
}
330
2A
100
AcDbVisualStyle
  2
Brighten
 70
    12
 71
     2
 72
     2
 73
     0
 90
        0
 40
-0.6
 41
-30.0
 62
     5
 63
     7
421
 16777215
 74
     1
 91
        4
 64
     7
 65
   257
 75
     1
175
     1
 42
1.0
 92
        8
 66
     7
 43
1.0
 76
     1
 77
     6
 78
     2
 67
     7
 79
     5
170
     0
171
     0
290
     0
174
     0
 93
        1
 44
50.0
173
     0
291
     1
 45
0.0
1001
ACAD
1000
AcDbSavedByObjectVersion
1070
     0
  0
VISUALSTYLE
  5
3A
102
{ACAD_REACTORS
330
2A
102
}
330
2A
100
AcDbVisualStyle
  2
ColorChange
 70
    16
 71
     2
 72
     2
 73
     3
 90
        0
 40
-0.6
 41
-30.0
 62
     5
 63
     8
421
  8421504
 74
     1
 91
        4
 64
     7
 65
   257
 75
     1
175
     1
 42
1.0
 92
        8
 66
     8
424
  8421504
 43
1.0
 76
     1
 77
     6
 78
     2
 67
     7
 79
     5
170
     0
171
     0
290
     0
174
     0
 93
        1
 44
0.0
173
     0
291
     1
 45
0.0
1001
ACAD
1000
AcDbSavedByObjectVersion
1070
     0
  0
VISUALSTYLE
  5
34
102
{ACAD_REACTORS
330
2A
102
}
330
2A
100
AcDbVisualStyle
  2
Conceptual
 70
     9
 71
     3
 72
     2
 73
     0
 90
        0
 40
-0.6
 41
-30.0
 62
     5
 63
     7
421
 16777215
 74
     2
 91
        2
 64
     7
 65
   257
 75
     1
175
     1
 42
40.0
 92
        8
 66
     7
 43
1.0
 76
     1
 77
     6
 78
     2
 67
     7
 79
     3
170
     0
171
     0
290
     0
174
     0
 93
        1
 44
0.0
173
     0
291
     0
 45
0.0
1001
ACAD
1000
AcDbSavedByObjectVersion
1070
     0
  0
VISUALSTYLE
  5
35
102
{ACAD_REACTORS
330
2A
102
}
330
2A
100
AcDbVisualStyle
  2
Dim
 70
    11
 71
     2
 72
     2
 73
     0
 90
        0
 40
-0.6
 41
-30.0
 62
     5
 63
     7
421
 16777215
 74
     1
 91
        4
 64
     7
 65
   257
 75
     1
175
     1
 42
1.0
 92
        8
 66
     7
 43
1.0
 76
     1
 77
     6
 78
     2
 67
     7
 79
     5
170
     0
171
     0
290
     0
174
     0
 93
        1
 44
-50.0
173
     0
291
     1
 45
0.0
1001
ACAD
1000
AcDbSavedByObjectVersion
1070
     0
  0
VISUALSTYLE
  5
39
102
{ACAD_REACTORS
330
2A
102
}
330
2A
100
AcDbVisualStyle
  2
Facepattern
 70
    15
 71
     2
 72
     2
 73
     0
 90
        0
 40
-0.6
 41
-30.0
 62
     5
 63
     7
421
 16777215
 74
     1
 91
        4
 64
     7
 65
   257
 75
     1
175
     1
 42
1.0
 92
        8
 66
     7
 43
1.0
 76
     1
 77
     6
 78
     2
 67
     7
 79
     5
170
     0
171
     0
290
     0
174
     0
 93
        1
 44
0.0
173
     0
291
     1
 45
0.0
1001
ACAD
1000
AcDbSavedByObjectVersion
1070
     0
  0
VISUALSTYLE
  5
2B
102
{ACAD_REACTORS
330
2A
102
}
330
2A
100
AcDbVisualStyle
  2
Flat
 70
     0
 71
     2
 72
     1
 73
     1
 90
        2
 40
-0.6
 41
30.0
 62
     5
 63
     7
421
 16777215
 74
     0
 91
        4
 64
     7
 65
   257
 75
     1
175
     1
 42
1.0
 92
        8
 66
     7
 43
1.0
 76
     1
 77
     6
 78
     2
 67
     7
 79
     5
170
     0
171
     0
290
     0
174
     0
 93
       13
 44
0.0
173
     0
291
     1
 45
0.0
1001
ACAD
1000
AcDbSavedByObjectVersion
1070
     0
  0
VISUALSTYLE
  5
2C
102
{ACAD_REACTORS
330
2A
102
}
330
2A
100
AcDbVisualStyle
  2
FlatWithEdges
 70
     1
 71
     2
 72
     1
 73
     1
 90
        2
 40
-0.6
 41
30.0
 62
     5
 63
     7
421
 16777215
 74
     1
 91
        4
 64
     7
 65
   257
 75
     1
175
     1
 42
1.0
 92
        0
 66
   257
 43
1.0
 76
     1
 77
     6
 78
     2
 67
     7
 79
     5
170
     0
171
     0
290
     0
174
     0
 93
       13
 44
0.0
173
     0
291
     1
 45
0.0
1001
ACAD
1000
AcDbSavedByObjectVersion
1070
     0
  0
VISUALSTYLE
  5
2D
102
{ACAD_REACTORS
330
2A
102
}
330
2A
100
AcDbVisualStyle
  2
Gouraud
 70
     2
 71
     2
 72
     2
 73
     1
 90
        2
 40
-0.6
 41
30.0
 62
     5
 63
     7
421
 16777215
 74
     0
 91
        4
 64
     7
 65
   257
 75
     1
175
     1
 42
1.0
 92
        0
 66
     7
 43
1.0
 76
     1
 77
     6
 78
     2
 67
     7
 79
     5
170
     0
171
     0
290
     0
174
     0
 93
       13
 44
0.0
173
     0
291
     1
 45
0.0
1001
ACAD
1000
AcDbSavedByObjectVersion
1070
     0
  0
VISUALSTYLE
  5
2E
102
{ACAD_REACTORS
330
2A
102
}
330
2A
100
AcDbVisualStyle
  2
GouraudWithEdges
 70
     3
 71
     2
 72
     2
 73
     1
 90
        2
 40
-0.6
 41
30.0
 62
     5
 63
     7
421
 16777215
 74
     1
 91
        4
 64
     7
 65
   257
 75
     1
175
     1
 42
1.0
 92
        0
 66
   257
 43
1.0
 76
     1
 77
     6
 78
     2
 67
     7
 79
     5
170
     0
171
     0
290
     0
174
     0
 93
       13
 44
0.0
173
     0
291
     1
 45
0.0
1001
ACAD
1000
AcDbSavedByObjectVersion
1070
     0
  0
VISUALSTYLE
  5
38
102
{ACAD_REACTORS
330
2A
102
}
330
2A
100
AcDbVisualStyle
  2
Linepattern
 70
    14
 71
     2
 72
     2
 73
     0
 90
        0
 40
-0.6
 41
-30.0
 62
     5
 63
     7
421
 16777215
 74
     1
 91
        4
 64
     7
 65
   257
 75
     7
175
     7
 42
1.0
 92
        8
 66
     7
 43
1.0
 76
     1
 77
     6
 78
     2
 67
     7
 79
     5
170
     0
171
     0
290
     0
174
     0
 93
        1
 44
0.0
173
     0
291
     1
 45
0.0
1001
ACAD
1000
AcDbSavedByObjectVersion
1070
     0
  0
VISUALSTYLE
  5
33
102
{ACAD_REACTORS
330
2A
102
}
330
2A
100
AcDbVisualStyle
  2
Realistic
 70
     8
 71
     2
 72
     2
 73
     0
 90
        0
 40
-0.6
 41
-30.0
 62
     5
 63
     7
421
 16777215
 74
     1
 91
        0
 64
     7
 65
   257
 75
     1
175
     1
 42
1.0
 92
        8
 66
     8
424
  7895160
 43
1.0
 76
     1
 77
     6
 78
     2
 67
     7
 79
     5
170
     0
171
     0
290
     0
174
     0
 93
       13
 44
0.0
173
     0
291
     0
 45
0.0
1001
ACAD
1000
AcDbSavedByObjectVersion
1070
     0
  0
VISUALSTYLE
  5
37
102
{ACAD_REACTORS
330
2A
102
}
330
2A
100
AcDbVisualStyle
  2
Thicken
 70
    13
 71
     2
 72
     2
 73
     0
 90
        0
 40
-0.6
 41
-30.0
 62
     5
 63
     7
421
 16777215
 74
     1
 91
        4
 64
     7
 65
   257
 75
     1
175
     1
 42
1.0
 92
       12
 66
     7
 43
1.0
 76
     1
 77
     6
 78
     2
 67
     7
 79
     5
170
     0
171
     0
290
     0
174
     0
 93
        1
 44
0.0
173
     0
291
     1
 45
0.0
1001
ACAD
1000
AcDbSavedByObjectVersion
1070
     0
  0
ENDSEC
  0
EOF
