  0
SECTION
  2
HEADER
  9
$ACADVER
  1
AC1018
  9
$ACADMAINTVER
 70
     0
  9
$DWGCODEPAGE
  3
ANSI_936
  9
$INSBASE
 10
0.0
 20
0.0
 30
0.0
  9
$EXTMIN
 10
1666.42702551642
 20
-79.5729858210325
 30
0.0
  9
$EXTMAX
 10
2056.742246770573
 20
235.4270141793861
 30
0.0
  9
$LIMMIN
 10
0.0
 20
0.0
  9
$LIMMAX
 10
12.0
 20
9.0
  9
$ORTHOMODE
 70
     0
  9
$REGENMODE
 70
     1
  9
$FILLMODE
 70
     1
  9
$QTEXTMODE
 70
     0
  9
$MIRRTEXT
 70
     1
  9
$LTSCALE
 40
1.0
  9
$ATTMODE
 70
     1
  9
$TEXTSIZE
 40
0.2
  9
$TRACEWID
 40
0.05
  9
$TEXTSTYLE
  7
Standard
  9
$CLAYER
  8
NOUVELLE VAGUE$EMD0002
  9
$CELTYPE
  6
ByLayer
  9
$CECOLOR
 62
   256
  9
$CELTSCALE
 40
1.0
  9
$DISPSILH
 70
     0
  9
$DIMSCALE
 40
1.0
  9
$DIMASZ
 40
0.18
  9
$DIMEXO
 40
0.0625
  9
$DIMDLI
 40
0.38
  9
$DIMRND
 40
0.0
  9
$DIMDLE
 40
0.0
  9
$DIMEXE
 40
0.18
  9
$DIMTP
 40
0.0
  9
$DIMTM
 40
0.0
  9
$DIMTXT
 40
0.18
  9
$DIMCEN
 40
0.09
  9
$DIMTSZ
 40
0.0
  9
$DIMTOL
 70
     0
  9
$DIMLIM
 70
     0
  9
$DIMTIH
 70
     1
  9
$DIMTOH
 70
     1
  9
$DIMSE1
 70
     0
  9
$DIMSE2
 70
     0
  9
$DIMTAD
 70
     0
  9
$DIMZIN
 70
     0
  9
$DIMBLK
  1

  9
$DIMASO
 70
     1
  9
$DIMSHO
 70
     1
  9
$DIMPOST
  1

  9
$DIMAPOST
  1

  9
$DIMALT
 70
     0
  9
$DIMALTD
 70
     2
  9
$DIMALTF
 40
25.4
  9
$DIMLFAC
 40
1.0
  9
$DIMTOFL
 70
     0
  9
$DIMTVP
 40
0.0
  9
$DIMTIX
 70
     0
  9
$DIMSOXD
 70
     0
  9
$DIMSAH
 70
     0
  9
$DIMBLK1
  1

  9
$DIMBLK2
  1

  9
$DIMSTYLE
  2
Standard
  9
$DIMCLRD
 70
     0
  9
$DIMCLRE
 70
     0
  9
$DIMCLRT
 70
     0
  9
$DIMTFAC
 40
1.0
  9
$DIMGAP
 40
0.09
  9
$DIMJUST
 70
     0
  9
$DIMSD1
 70
     0
  9
$DIMSD2
 70
     0
  9
$DIMTOLJ
 70
     1
  9
$DIMTZIN
 70
     0
  9
$DIMALTZ
 70
     0
  9
$DIMALTTZ
 70
     0
  9
$DIMUPT
 70
     0
  9
$DIMDEC
 70
     4
  9
$DIMTDEC
 70
     4
  9
$DIMALTU
 70
     2
  9
$DIMALTTD
 70
     2
  9
$DIMTXSTY
  7
Standard
  9
$DIMAUNIT
 70
     0
  9
$DIMADEC
 70
     0
  9
$DIMALTRND
 40
0.0
  9
$DIMAZIN
 70
     0
  9
$DIMDSEP
 70
    46
  9
$DIMATFIT
 70
     3
  9
$DIMFRAC
 70
     0
  9
$DIMLDRBLK
  1

  9
$DIMLUNIT
 70
     2
  9
$DIMLWD
 70
    -2
  9
$DIMLWE
 70
    -2
  9
$DIMTMOVE
 70
     2
  9
$LUNITS
 70
     2
  9
$LUPREC
 70
     3
  9
$SKETCHINC
 40
0.1
  9
$FILLETRAD
 40
0.5
  9
$AUNITS
 70
     0
  9
$AUPREC
 70
     0
  9
$MENU
  1
.
  9
$ELEVATION
 40
0.0
  9
$PELEVATION
 40
0.0
  9
$THICKNESS
 40
0.0
  9
$LIMCHECK
 70
     0
  9
$CHAMFERA
 40
0.5
  9
$CHAMFERB
 40
0.5
  9
$CHAMFERC
 40
1.0
  9
$CHAMFERD
 40
0.0
  9
$SKPOLY
 70
     0
  9
$TDCREATE
 40
2458215.987662199
  9
$TDUCREATE
 40
2458215.654328866
  9
$TDUPDATE
 40
2458215.987662257
  9
$TDUUPDATE
 40
2458215.654328924
  9
$TDINDWG
 40
0.0000000116
  9
$TDUSRTIMER
 40
0.0000000116
  9
$USRTIMER
 70
     1
  9
$ANGBASE
 50
0.0
  9
$ANGDIR
 70
     0
  9
$PDMODE
 70
     0
  9
$PDSIZE
 40
0.0
  9
$PLINEWID
 40
0.0
  9
$SPLFRAME
 70
     0
  9
$SPLINETYPE
 70
     6
  9
$SPLINESEGS
 70
     8
  9
$HANDSEED
  5
A6
  9
$SURFTAB1
 70
     6
  9
$SURFTAB2
 70
     6
  9
$SURFTYPE
 70
     6
  9
$SURFU
 70
     6
  9
$SURFV
 70
     6
  9
$UCSBASE
  2

  9
$UCSNAME
  2

  9
$UCSORG
 10
0.0
 20
0.0
 30
0.0
  9
$UCSXDIR
 10
1.0
 20
0.0
 30
0.0
  9
$UCSYDIR
 10
0.0
 20
1.0
 30
0.0
  9
$UCSORTHOREF
  2

  9
$UCSORTHOVIEW
 70
     0
  9
$UCSORGTOP
 10
0.0
 20
0.0
 30
0.0
  9
$UCSORGBOTTOM
 10
0.0
 20
0.0
 30
0.0
  9
$UCSORGLEFT
 10
0.0
 20
0.0
 30
0.0
  9
$UCSORGRIGHT
 10
0.0
 20
0.0
 30
0.0
  9
$UCSORGFRONT
 10
0.0
 20
0.0
 30
0.0
  9
$UCSORGBACK
 10
0.0
 20
0.0
 30
0.0
  9
$PUCSBASE
  2

  9
$PUCSNAME
  2

  9
$PUCSORG
 10
0.0
 20
0.0
 30
0.0
  9
$PUCSXDIR
 10
1.0
 20
0.0
 30
0.0
  9
$PUCSYDIR
 10
0.0
 20
1.0
 30
0.0
  9
$PUCSORTHOREF
  2

  9
$PUCSORTHOVIEW
 70
     0
  9
$PUCSORGTOP
 10
0.0
 20
0.0
 30
0.0
  9
$PUCSORGBOTTOM
 10
0.0
 20
0.0
 30
0.0
  9
$PUCSORGLEFT
 10
0.0
 20
0.0
 30
0.0
  9
$PUCSORGRIGHT
 10
0.0
 20
0.0
 30
0.0
  9
$PUCSORGFRONT
 10
0.0
 20
0.0
 30
0.0
  9
$PUCSORGBACK
 10
0.0
 20
0.0
 30
0.0
  9
$USERI1
 70
     0
  9
$USERI2
 70
     0
  9
$USERI3
 70
     0
  9
$USERI4
 70
     0
  9
$USERI5
 70
     0
  9
$USERR1
 40
0.0
  9
$USERR2
 40
0.0
  9
$USERR3
 40
0.0
  9
$USERR4
 40
0.0
  9
$USERR5
 40
0.0
  9
$WORLDVIEW
 70
     1
  9
$SHADEDGE
 70
     3
  9
$SHADEDIF
 70
    70
  9
$TILEMODE
 70
     1
  9
$MAXACTVP
 70
    64
  9
$PINSBASE
 10
0.0
 20
0.0
 30
0.0
  9
$PLIMCHECK
 70
     0
  9
$PEXTMIN
 10
1.000000000000000E+20
 20
1.000000000000000E+20
 30
1.000000000000000E+20
  9
$PEXTMAX
 10
-1.000000000000000E+20
 20
-1.000000000000000E+20
 30
-1.000000000000000E+20
  9
$PLIMMIN
 10
0.0
 20
0.0
  9
$PLIMMAX
 10
12.0
 20
9.0
  9
$UNITMODE
 70
     0
  9
$VISRETAIN
 70
     1
  9
$PLINEGEN
 70
     0
  9
$PSLTSCALE
 70
     1
  9
$TREEDEPTH
 70
  3020
  9
$CMLSTYLE
  2
Standard
  9
$CMLJUST
 70
     0
  9
$CMLSCALE
 40
1.0
  9
$PROXYGRAPHICS
 70
     1
  9
$MEASUREMENT
 70
     0
  9
$CELWEIGHT
370
    -1
  9
$ENDCAPS
280
     0
  9
$JOINSTYLE
280
     0
  9
$LWDISPLAY
290
     0
  9
$INSUNITS
 70
     4
  9
$HYPERLINKBASE
  1

  9
$STYLESHEET
  1

  9
$XEDIT
290
     1
  9
$CEPSNTYPE
380
     0
  9
$PSTYLEMODE
290
     1
  9
$FINGERPRINTGUID
  2
{19F623A9-B9A1-4D5B-8DE9-C6857F3EEF61}
  9
$VERSIONGUID
  2
{FAEB1C32-E019-11D5-929B-00C0DF256EC4}
  9
$EXTNAMES
290
     1
  9
$PSVPSCALE
 40
0.0
  9
$OLESTARTUP
290
     0
  9
$SORTENTS
280
   127
  9
$INDEXCTL
280
     0
  9
$HIDETEXT
280
     1
  9
$XCLIPFRAME
290
     0
  9
$HALOGAP
280
     0
  9
$OBSCOLOR
 70
   257
  9
$OBSLTYPE
280
     0
  9
$INTERSECTIONDISPLAY
280
     0
  9
$INTERSECTIONCOLOR
 70
   257
  9
$DIMASSOC
280
     2
  9
$PROJECTNAME
  1

  0
ENDSEC
  0
SECTION
  2
CLASSES
  0
CLASS
  1
ACDBDICTIONARYWDFLT
  2
AcDbDictionaryWithDefault
  3
ObjectDBX Classes
 90
        0
 91
        4
280
     0
281
     0
  0
CLASS
  1
VISUALSTYLE
  2
AcDbVisualStyle
  3
ObjectDBX Classes
 90
     4095
 91
        4
280
     0
281
     0
  0
CLASS
  1
MATERIAL
  2
AcDbMaterial
  3
ObjectDBX Classes
 90
     1153
 91
        4
280
     0
281
     0
  0
CLASS
  1
SCALE
  2
AcDbScale
  3
ObjectDBX Classes
 90
     1153
 91
        4
280
     0
281
     0
  0
CLASS
  1
SUN
  2
AcDbSun
  3
SCENEOE
 90
     1153
 91
        4
280
     0
281
     0
  0
CLASS
  1
DICTIONARYVAR
  2
AcDbDictionaryVar
  3
ObjectDBX Classes
 90
        0
 91
        4
280
     0
281
     0
  0
ENDSEC
  0
SECTION
  2
TABLES
  0
TABLE
  2
VPORT
  5
8
330
0
100
AcDbSymbolTable
 70
     1
  0
VPORT
  5
29
330
8
100
AcDbSymbolTableRecord
100
AcDbViewportTableRecord
  2
*Active
 70
     0
 10
0.0
 20
0.0
 11
1.0
 21
1.0
 12
1861.584636143496
 22
77.9270141791768
 13
0.0
 23
0.0
 14
0.5
 24
0.5
 15
0.5
 25
0.5
 16
0.0
 26
0.0
 36
1.0
 17
0.0
 27
0.0
 37
0.0
 40
321.300000000427
 41
1.239095940487727
 42
50.0
 43
0.0
 44
0.0
 50
0.0
 51
0.0
 71
     0
 72
   100
 73
     1
 74
     3
 75
     0
 76
     0
 77
     0
 78
     0
281
     0
 65
     1
110
0.0
120
0.0
130
0.0
111
1.0
121
0.0
131
0.0
112
0.0
122
1.0
132
0.0
 79
     0
146
0.0
  0
ENDTAB
  0
TABLE
  2
LTYPE
  5
5
330
0
100
AcDbSymbolTable
 70
     1
  0
LTYPE
  5
14
330
5
100
AcDbSymbolTableRecord
100
AcDbLinetypeTableRecord
  2
ByBlock
 70
     0
  3

 72
    65
 73
     0
 40
0.0
  0
LTYPE
  5
15
330
5
100
AcDbSymbolTableRecord
100
AcDbLinetypeTableRecord
  2
ByLayer
 70
     0
  3

 72
    65
 73
     0
 40
0.0
  0
LTYPE
  5
16
330
5
100
AcDbSymbolTableRecord
100
AcDbLinetypeTableRecord
  2
Continuous
 70
     0
  3
Solid line
 72
    65
 73
     0
 40
0.0
  0
ENDTAB
  0
TABLE
  2
LAYER
  5
2
330
0
100
AcDbSymbolTable
 70
     2
  0
LAYER
  5
10
330
2
100
AcDbSymbolTableRecord
100
AcDbLayerTableRecord
  2
0
 70
     0
 62
     7
  6
Continuous
370
    -3
390
F
  0
LAYER
  5
62
330
2
100
AcDbSymbolTableRecord
100
AcDbLayerTableRecord
  2
NOUVELLE VAGUE$EMD0002
 70
     0
 62
    30
420
 16744192
  6
Continuous
370
    -3
390
F
  0
ENDTAB
  0
TABLE
  2
STYLE
  5
3
330
0
100
AcDbSymbolTable
 70
     1
  0
STYLE
  5
11
330
3
100
AcDbSymbolTableRecord
100
AcDbTextStyleTableRecord
  2
Standard
 70
     0
 40
0.0
 41
1.0
 50
0.0
 71
     0
 42
0.2
  3
txt
  4

  0
ENDTAB
  0
TABLE
  2
VIEW
  5
6
330
0
100
AcDbSymbolTable
 70
     0
  0
ENDTAB
  0
TABLE
  2
UCS
  5
7
330
0
100
AcDbSymbolTable
 70
     0
  0
ENDTAB
  0
TABLE
  2
APPID
  5
9
330
0
100
AcDbSymbolTable
 70
     1
  0
APPID
  5
12
330
9
100
AcDbSymbolTableRecord
100
AcDbRegAppTableRecord
  2
ACAD
 70
     0
  0
ENDTAB
  0
TABLE
  2
DIMSTYLE
  5
A
330
0
100
AcDbSymbolTable
 70
     1
100
AcDbDimStyleTable
  0
DIMSTYLE
105
27
330
A
100
AcDbSymbolTableRecord
100
AcDbDimStyleTableRecord
  2
Standard
 70
     0
178
     0
340
11
  0
ENDTAB
  0
TABLE
  2
BLOCK_RECORD
  5
1
330
0
100
AcDbSymbolTable
 70
     1
  0
BLOCK_RECORD
  5
1F
330
1
100
AcDbSymbolTableRecord
100
AcDbBlockTableRecord
  2
*Model_Space
340
22
  0
BLOCK_RECORD
  5
1B
330
1
100
AcDbSymbolTableRecord
100
AcDbBlockTableRecord
  2
*Paper_Space
340
1E
  0
BLOCK_RECORD
  5
23
330
1
100
AcDbSymbolTableRecord
100
AcDbBlockTableRecord
  2
*Paper_Space0
340
26
  0
ENDTAB
  0
ENDSEC
  0
SECTION
  2
BLOCKS
  0
BLOCK
  5
20
330
1F
100
AcDbEntity
  8
0
100
AcDbBlockBegin
  2
*Model_Space
 70
     0
 10
0.0
 20
0.0
 30
0.0
  3
*Model_Space
  1
*Model_Space
  0
ENDBLK
  5
21
330
1F
100
AcDbEntity
  8
0
100
AcDbBlockEnd
  0
BLOCK
  5
1C
330
1B
100
AcDbEntity
 67
     1
  8
0
100
AcDbBlockBegin
  2
*Paper_Space
 70
     0
 10
0.0
 20
0.0
 30
0.0
  3
*Paper_Space
  1
*Paper_Space
  0
ENDBLK
  5
1D
330
1B
100
AcDbEntity
 67
     1
  8
0
100
AcDbBlockEnd
  0
BLOCK
  5
24
330
23
100
AcDbEntity
  8
0
100
AcDbBlockBegin
  2
*Paper_Space0
 70
     0
 10
0.0
 20
0.0
 30
0.0
  3
*Paper_Space0
  1
*Paper_Space0
  0
ENDBLK
  5
25
330
23
100
AcDbEntity
  8
0
100
AcDbBlockEnd
  0
ENDSEC
  0
SECTION
  2
ENTITIES
  0
SPLINE
  5
63
330
1F
100
AcDbEntity
  8
NOUVELLE VAGUE$EMD0002
100
AcDbSpline
210
0.0
220
0.0
230
1.0
 70
    12
 71
     2
 72
    20
 73
    17
 74
     0
 42
0.000000001
 43
0.0000000001
 12
1.0
 22
0.0
 32
0.0
 13
1.0
 23
0.0
 33
0.0
 40
223.9917250566181
 40
223.9917250566181
 40
223.9917250566181
 40
233.374500185999
 40
233.374500185999
 40
241.2860812539229
 40
241.2860812539229
 40
249.1910094253305
 40
249.1910094253305
 40
257.082556241023
 40
257.082556241023
 40
264.9644794997748
 40
264.9644794997748
 40
280.7097062141468
 40
280.7097062141468
 40
296.4769296067027
 40
296.4769296067027
 40
304.4269512848042
 40
304.4269512848042
 40
304.4269512848042
 10
1680.749916447677
 20
140.948107783312
 30
0.0
 41
1.0
 10
1679.419109682307
 20
145.4543051129421
 30
0.0
 41
0.9999910049989301
 10
1678.126576101214
 20
149.971629316723
 30
0.0
 41
1.0
 10
1677.036743667938
 20
153.7743761960767
 30
0.0
 41
0.9999837136107856
 10
1675.990387852962
 20
157.5893149989306
 30
0.0
 41
1.0
 10
1674.944861711233
 20
161.4011029762807
 30
0.0
 41
0.9999577470037143
 10
1673.969589925003
 20
165.2314681599537
 30
0.0
 41
1.0
 10
1672.995932754855
 20
169.0554461044468
 30
0.0
 41
0.999918702550552
 10
1672.120103439252
 20
172.9030087894307
 30
0.0
 41
1.0
 10
1671.24546100226
 20
176.7460430757711
 30
0.0
 41
0.9998680290707537
 10
1670.496129725757
 20
180.6154635177272
 30
0.0
 41
1.0
 10
1668.991570596699
 20
188.3476357223285
 30
0.0
 41
0.9991350530208649
 10
1668.134712286119
 20
196.1780877533438
 30
0.0
 41
1.0
 10
1667.298343381238
 20
203.9952184477293
 30
0.0
 41
0.9996894457142409
 10
1666.852499862991
 20
211.8443119492358
 30
0.0
 41
1.0
 10
1666.612980166509
 20
215.8091752355918
 30
0.0
 41
0.9999636633690195
 10
1666.441092032337
 20
219.7775458122678
 30
0.0
 41
1.0
  0
LINE
  5
64
330
1F
100
AcDbEntity
  8
NOUVELLE VAGUE$EMD0002
100
AcDbLine
 10
1680.888245204228
 20
140.4797282200434
 30
0.0
 11
1680.881495256053
 21
140.5025651255501
 31
0.0
  0
LINE
  5
65
330
1F
100
AcDbEntity
  8
NOUVELLE VAGUE$EMD0002
100
AcDbLine
 10
1680.881495734203
 20
140.5025652668332
 30
0.0
 11
1680.749922242519
 21
140.9481094935286
 31
0.0
  0
SPLINE
  5
66
330
1F
100
AcDbEntity
  8
NOUVELLE VAGUE$EMD0002
100
AcDbSpline
210
0.0
220
0.0
230
1.0
 70
    12
 71
     3
 72
    95
 73
    91
 74
     0
 42
0.000000001
 43
0.0000000001
 12
1.0
 22
0.0
 32
0.0
 13
1.0
 23
0.0
 33
0.0
 40
0.0
 40
0.0
 40
0.0
 40
0.0
 40
6.479364910660721
 40
6.479364910660721
 40
6.479364910660721
 40
14.26834125894954
 40
14.26834125894954
 40
14.26834125894954
 40
22.05810026506219
 40
22.05810026506219
 40
22.05810026506219
 40
29.84966301544703
 40
29.84966301544703
 40
29.84966301544703
 40
37.64336395746597
 40
37.64336395746597
 40
37.64336395746597
 40
45.4394125473351
 40
45.4394125473351
 40
45.4394125473351
 40
53.23858136677529
 40
53.23858136677529
 40
53.23858136677529
 40
61.04116155441366
 40
61.04116155441366
 40
61.04116155441366
 40
68.84949374496375
 40
68.84949374496375
 40
68.84949374496375
 40
76.66395048295921
 40
76.66395048295921
 40
76.66395048295921
 40
84.48390865826897
 40
84.48390865826897
 40
84.48390865826897
 40
92.31102135805735
 40
92.31102135805735
 40
92.31102135805735
 40
100.1475519141268
 40
100.1475519141268
 40
100.1475519141268
 40
107.9948447343889
 40
107.9948447343889
 40
107.9948447343889
 40
111.2786249006492
 40
111.2786249006492
 40
111.2786249006492
 40
115.864378096529
 40
115.864378096529
 40
115.864378096529
 40
123.7359691624699
 40
123.7359691624699
 40
123.7359691624699
 40
131.6207159427522
 40
131.6207159427522
 40
131.6207159427522
 40
139.5155054722654
 40
139.5155054722654
 40
139.5155054722654
 40
147.4199069984313
 40
147.4199069984313
 40
147.4199069984313
 40
155.3326133460957
 40
155.3326133460957
 40
155.3326133460957
 40
163.2536080684045
 40
163.2536080684045
 40
163.2536080684045
 40
171.1789659701881
 40
171.1789659701881
 40
171.1789659701881
 40
179.1581786626288
 40
179.1581786626288
 40
179.1581786626288
 40
187.148143379226
 40
187.148143379226
 40
187.148143379226
 40
195.1462912458978
 40
195.1462912458978
 40
195.1462912458978
 40
203.0744071056383
 40
203.0744071056383
 40
203.0744071056383
 40
211.0008846734708
 40
211.0008846734708
 40
211.0008846734708
 40
216.9429491136499
 40
216.9429491136499
 40
216.9429491136499
 40
216.9575863941137
 40
216.9575863941137
 40
216.9575863941137
 40
216.9575863941137
 10
1728.260811066573
 20
-70.51408721789721
 30
0.0
 41
1.0
 10
1728.057623923691
 20
-68.3638746500189
 30
0.0
 41
0.9999970875040511
 10
1727.84808181007
 20
-66.21427208100722
 30
0.0
 41
0.9999970875040498
 10
1727.632186556579
 20
-64.06529829298323
 30
0.0
 41
1.0
 10
1727.372691490972
 20
-61.48196694258451
 30
0.0
 41
0.9999951467217938
 10
1727.10334102421
 20
-58.89964456126031
 30
0.0
 41
0.9999951467217936
 10
1726.82413907799
 20
-56.31836874719919
 30
0.0
 41
1.0
 10
1726.54491655319
 20
-53.73683173109497
 30
0.0
 41
0.999994365896367
 10
1726.255083087127
 20
-51.15646448090963
 30
0.0
 41
0.9999943658963671
 10
1725.954643578654
 20
-48.5773106108154
 30
0.0
 41
1.0
 10
1725.654130722347
 20
-45.99755885366131
 30
0.0
 41
0.9999935124025725
 10
1725.342239816373
 20
-43.41915796006116
 30
0.0
 41
0.9999935124025723
 10
1725.018976930997
 20
-40.84215811289732
 30
0.0
 41
1.0
 10
1724.695624791363
 20
-38.26444996161614
 30
0.0
 41
0.9999926097478328
 10
1724.360138916346
 20
-35.68829291146356
 30
0.0
 41
0.9999926097478327
 10
1724.012526743921
 20
-33.11374407779113
 30
0.0
 41
1.0
 10
1723.664798892387
 20
-30.53841997051035
 30
0.0
 41
0.9999916643697209
 10
1723.304197033878
 20
-27.96486693707023
 30
0.0
 41
0.9999916643697214
 10
1722.930730185924
 20
-25.39314933403602
 30
0.0
 41
1.0
 10
1722.557093537661
 20
-22.82040406470145
 30
0.0
 41
0.9999906486962016
 10
1722.169835390188
 20
-20.2496738779586
 30
0.0
 41
0.9999906486962012
 10
1721.768966607609
 20
-17.68103089284568
 30
0.0
 41
1.0
 10
1721.367911859398
 20
-15.11126458679014
 30
0.0
 41
0.9999895464131106
 10
1720.952472590449
 20
-12.54378450067022
 30
0.0
 41
0.9999895464131106
 10
1720.522661829253
 20
-9.978671152616698
 30
0.0
 41
1.0
 10
1720.092510887242
 20
-7.411669347747913
 30
0.0
 41
0.9999884978813229
 10
1719.647288321249
 20
-4.847238618355969
 30
0.0
 41
0.999988497881323
 10
1719.187009494285
 20
-2.285467453602905
 30
0.0
 41
1.0
 10
1718.72642159634
 20
0.2783240527224246
 30
0.0
 41
0.9999872469339967
 10
1718.249984503963
 20
2.839217607060758
 30
0.0
 41
0.9999872469339977
 10
1717.757716445256
 20
5.397115231676253
 30
0.0
 41
1.0
 10
1717.264870164643
 20
7.956769614240407
 30
0.0
 41
0.9999868155090987
 10
1716.755935646928
 20
10.51327380378894
 30
0.0
 41
0.9999868155090991
 10
1716.230933022241
 20
13.06652668170045
 30
0.0
 41
1.0
 10
1715.705352350741
 20
15.62209392323496
 30
0.0
 41
0.9999879620558901
 10
1715.164423612437
 20
18.17445656759631
 30
0.0
 41
0.9999879620558907
 10
1714.608166342341
 20
20.72352243918976
 30
0.0
 41
1.0
 10
1714.051260466401
 20
23.27565804589264
 30
0.0
 41
0.9999893891888338
 10
1713.479964301547
 20
25.82461096850348
 30
0.0
 41
0.9999893891888328
 10
1712.894296033521
 20
28.37030006764416
 30
0.0
 41
1.0
 10
1712.307824601872
 20
30.91948387999377
 30
0.0
 41
0.9999906295814276
 10
1711.707845675938
 20
33.46552239850075
 30
0.0
 41
0.9999906295814268
 10
1711.094376121873
 20
36.00834405082332
 30
0.0
 41
1.0
 10
1710.856959838228
 20
36.99267893116575
 30
0.0
 41
1.0
 10
1710.599219234791
 20
38.05273529946589
 30
0.0
 41
1.0
 10
1710.320203699498
 20
39.18851849388556
 30
0.0
 41
1.0
 10
1709.955504935605
 20
40.67296161568594
 30
0.0
 41
0.9999973009569082
 10
1709.586583602026
 20
42.15636096174279
 30
0.0
 41
0.9999973009569079
 10
1709.213442685967
 20
43.63870452077708
 30
0.0
 41
1.0
 10
1708.572845316294
 20
46.18317782398226
 30
0.0
 41
0.9999929228532646
 10
1707.920530459149
 20
48.7246724055005
 30
0.0
 41
0.999992922853264
 10
1707.256511964115
 20
51.26313430574827
 30
0.0
 41
1.0
 10
1706.59138483832
 20
53.80583769914614
 30
0.0
 41
0.9999938881251833
 10
1705.915375949487
 20
56.34566970589113
 30
0.0
 41
0.9999938881251829
 10
1705.228497692657
 20
58.88258375657595
 30
0.0
 41
1.0
 10
1704.540763464083
 20
61.42273303531127
 30
0.0
 41
0.9999947241855358
 10
1703.842929039393
 20
63.96012615485867
 30
0.0
 41
0.9999947241855347
 10
1703.135005463521
 20
66.49472295477288
 30
0.0
 41
1.0
 10
1702.42620936277
 20
69.03240165258661
 30
0.0
 41
0.9999954819838801
 10
1701.708075408357
 20
71.5674536657212
 30
0.0
 41
0.99999548198388
 10
1700.980613333901
 20
74.0998446339572
 30
0.0
 41
1.0
 10
1700.252423394637
 20
76.63490588649843
 30
0.0
 41
0.9999961104143473
 10
1699.515578058265
 20
79.16746488720116
 30
0.0
 41
0.999996110414347
 10
1698.770085922851
 20
81.69749208425218
 30
0.0
 41
1.0
 10
1698.023593800805
 20
84.2301034445956
 30
0.0
 41
0.9999971354837194
 10
1697.269680605985
 20
86.76051560183285
 30
0.0
 41
0.9999971354837192
 10
1696.508352817184
 20
89.28870681074476
 30
0.0
 41
1.0
 10
1695.74652330706
 20
91.81826389463536
 30
0.0
 41
0.9999985461709509
 10
1694.979412690198
 20
94.34622444508905
 30
0.0
 41
0.9999985461709511
 10
1694.207024312338
 20
96.87257743643929
 30
0.0
 41
1.0
 10
1693.434381457672
 20
99.40118470014974
 30
0.0
 41
1.0
 10
1692.658041659291
 20
101.9272490001708
 30
0.0
 41
1.0
 10
1691.880303042054
 20
104.4511229210175
 30
0.0
 41
1.0
 10
1691.101324021763
 20
106.979022128573
 30
0.0
 41
1.0
 10
1690.320887440225
 20
109.5049029748406
 30
0.0
 41
1.0
 10
1689.541379428745
 20
112.0291165138037
 30
0.0
 41
1.0
 10
1688.760906558214
 20
114.5564544725839
 30
0.0
 41
1.0
 10
1687.981279061565
 20
117.0823960101279
 30
0.0
 41
1.0
 10
1687.204650585509
 20
119.6071964076709
 30
0.0
 41
1.0
 10
1686.427361854245
 20
122.1330066984884
 30
0.0
 41
0.9999994035943929
 10
1685.653452382099
 20
124.6598544433817
 30
0.0
 41
0.9999994035943928
 10
1684.88292355376
 20
127.1877351212733
 30
0.0
 41
1.0
 10
1684.112549998326
 20
129.7150934341269
 30
0.0
 41
0.9999985281543151
 10
1683.347488924114
 20
132.2440649660329
 30
0.0
 41
0.9999985281543144
 10
1682.587743709278
 20
134.7746385502223
 30
0.0
 41
1.0
 10
1682.018448631738
 20
136.6717488879262
 30
0.0
 41
1.0
 10
1681.452683315087
 20
138.5699197840513
 30
0.0
 41
1.0
 10
1680.891301749807
 20
140.4693872998568
 30
0.0
 41
1.0
 10
1680.890282971304
 20
140.4728342929444
 30
0.0
 41
1.0
 10
1680.889264192802
 20
140.476281286032
 30
0.0
 41
1.0
 10
1680.888245414299
 20
140.4797282791196
 30
0.0
 41
1.0
  0
SPLINE
  5
67
330
1F
100
AcDbEntity
  8
NOUVELLE VAGUE$EMD0002
100
AcDbSpline
210
0.0
220
0.0
230
1.0
 70
    12
 71
     3
 72
    54
 73
    50
 74
     0
 42
0.000000001
 43
0.0000000001
 12
1.0
 22
0.0
 32
0.0
 13
1.0
 23
0.0
 33
0.0
 40
193.6601358308047
 40
193.6601358308047
 40
193.6601358308047
 40
193.6601358308047
 40
194.1546726702902
 40
194.1546726702902
 40
194.7732805405345
 40
194.7732805405345
 40
196.8347830340137
 40
196.8347830340137
 40
196.8347830340137
 40
204.6820575732538
 40
204.6820575732538
 40
204.6820575732538
 40
212.5185695741891
 40
212.5185695741891
 40
212.5185695741891
 40
220.3456637819819
 40
220.3456637819819
 40
220.3456637819819
 40
228.1656038221449
 40
228.1656038221449
 40
228.1656038221449
 40
235.9800429965959
 40
235.9800429965959
 40
235.9800429965959
 40
243.7883583310399
 40
243.7883583310399
 40
243.7883583310399
 40
251.5909226293249
 40
251.5909226293249
 40
251.5909226293249
 40
259.38995846495
 40
259.38995846495
 40
259.38995846495
 40
267.1861116501256
 40
267.1861116501256
 40
267.1861116501256
 40
274.9797999713934
 40
274.9797999713934
 40
274.9797999713934
 40
282.7713510991106
 40
282.7713510991106
 40
282.7713510991106
 40
290.5610993662593
 40
290.5610993662593
 40
290.5610993662593
 40
298.3500656885453
 40
298.3500656885453
 40
298.3500656885453
 40
304.8267647072383
 40
304.8267647072383
 40
304.8267647072383
 40
304.8267647072383
 10
2012.817334908491
 20
39.06076846312953
 30
0.0
 41
1.0
 10
2012.775743562408
 20
38.89133850578946
 30
0.0
 41
1.0
 10
2012.734208567813
 20
38.7218949597609
 30
0.0
 41
1.0
 10
2012.64084568679
 20
38.34046689315437
 30
0.0
 41
1.0
 10
2012.58904976311
 20
38.12847459365457
 30
0.0
 41
1.0
 10
2012.365031241804
 20
37.20992916490013
 30
0.0
 41
1.0
 10
2012.210930068426
 20
36.57380399802969
 30
0.0
 41
1.0
 10
2012.074515964287
 20
36.00821709593311
 30
0.0
 41
1.0
 10
2011.461058103783
 20
33.46539889077557
 30
0.0
 41
0.9999906293917157
 10
2010.861090989615
 20
30.91936384918614
 30
0.0
 41
0.9999906293917156
 10
2010.274631487952
 20
28.37018354485099
 30
0.0
 41
1.0
 10
2009.688975142661
 20
25.82449804912429
 30
0.0
 41
0.9999893889772951
 10
2009.117691023371
 20
23.27554876501032
 30
0.0
 41
0.9999893889772953
 10
2008.560797315809
 20
20.72341683338618
 30
0.0
 41
1.0
 10
2008.004552181418
 20
18.17435462234145
 30
0.0
 41
0.9999879618197031
 10
2007.463635707075
 20
15.62199567950318
 30
0.0
 41
0.9999879618197027
 10
2006.938067427728
 20
13.06643218214003
 30
0.0
 41
1.0
 10
2006.4130771476
 20
10.51318293718533
 30
0.0
 41
0.999986815264406
 10
2005.904155100553
 20
7.956682428458299
 30
0.0
 41
0.9999868152644062
 10
2005.411321416591
 20
5.397031776309632
 30
0.0
 41
1.0
 10
2004.919065915262
 20
2.839137696749094
 30
0.0
 41
0.9999872467194775
 10
2004.442641491318
 20
0.2782477402871441
 30
0.0
 41
0.9999872467194777
 10
2003.982066372685
 20
-2.285540113834031
 30
0.0
 41
1.0
 10
2003.521800285023
 20
-4.847307859031982
 30
0.0
 41
0.9999884976691664
 10
2003.076590576956
 20
-7.411735118211255
 30
0.0
 41
0.999988497669166
 10
2002.646452611328
 20
-9.978733400702367
 30
0.0
 41
1.0
 10
2002.216654775782
 20
-12.54384354450741
 30
0.0
 41
0.9999895462058612
 10
2001.801228556862
 20
-15.11132037710481
 30
0.0
 41
0.9999895462058618
 10
2001.400186982911
 20
-17.68108337887179
 30
0.0
 41
1.0
 10
2000.999326998869
 20
-20.24968289139625
 30
0.0
 41
0.9999906342494114
 10
2000.612087933097
 20
-22.82037114330176
 30
0.0
 41
0.9999906342494109
 10
2000.238480665946
 20
-25.3930759053128
 30
0.0
 41
1.0
 10
1999.865011210632
 20
-27.96482837782794
 30
0.0
 41
0.9999916513031425
 10
1999.504417002257
 20
-30.53841770614352
 30
0.0
 41
0.9999916513031404
 10
1999.156707072296
 20
-33.11377943191019
 30
0.0
 41
1.0
 10
1998.809108487733
 20
-35.6883258553368
 30
0.0
 41
0.9999926095362485
 10
1998.473636362722
 20
-38.26448045390141
 30
0.0
 41
0.9999926095362459
 10
1998.150298135145
 20
-40.84218611067354
 30
0.0
 41
1.0
 10
1997.827049123689
 20
-43.4191837938567
 30
0.0
 41
0.9999935121841848
 10
1997.515172273407
 20
-45.99758248544734
 30
0.0
 41
0.9999935121841843
 10
1997.214673654496
 20
-48.57733200091752
 30
0.0
 41
1.0
 10
1996.914248352591
 20
-51.15648392228667
 30
0.0
 41
0.9999943656723169
 10
1996.624429295895
 20
-53.7368491890477
 30
0.0
 41
0.9999943656723164
 10
1996.345221383216
 20
-56.31838418532971
 30
0.0
 41
1.0
 10
1996.066034026641
 20
-58.89965821622855
 30
0.0
 41
0.9999951464922645
 10
1995.796698375614
 20
-61.48197878303354
 30
0.0
 41
0.9999951464922646
 10
1995.537218351802
 20
-64.06530828580708
 30
0.0
 41
1.0
 10
1995.321424102678
 20
-66.21339911359419
 30
0.0
 41
0.9999970896507618
 10
1995.11197804186
 20
-68.36211819946514
 30
0.0
 41
0.99999708965076
 10
1994.908881998028
 20
-70.51144678285073
 30
0.0
 41
1.0
  0
LINE
  5
68
330
1F
100
AcDbEntity
  8
NOUVELLE VAGUE$EMD0002
100
AcDbLine
 10
2012.817335595258
 20
39.06076829465655
 30
0.0
 11
2012.844701530758
 21
39.17220734424882
 31
0.0
  0
SPLINE
  5
69
330
1F
100
AcDbEntity
  8
NOUVELLE VAGUE$EMD0002
100
AcDbSpline
210
0.0
220
0.0
230
1.0
 70
    12
 71
     3
 72
    29
 73
    25
 74
     0
 42
0.000000001
 43
0.0000000001
 12
1.0
 22
0.0
 32
0.0
 13
1.0
 23
0.0
 33
0.0
 40
0.0
 40
0.0
 40
0.0
 40
0.0
 40
13.82649172503803
 40
13.82649172503803
 40
13.82649172503803
 40
21.75462516889198
 40
21.75462516889198
 40
21.75462516889198
 40
29.75268409514314
 40
29.75268409514314
 40
29.75268409514314
 40
37.74255535369531
 40
37.74255535369531
 40
37.74255535369531
 40
45.72167390085902
 40
45.72167390085902
 40
45.72167390085902
 40
53.64703084477551
 40
53.64703084477551
 40
53.64703084477551
 40
61.56802003917842
 40
61.56802003917842
 40
61.56802003917842
 40
105.6433786271784
 40
105.6433786271784
 40
105.6433786271784
 40
105.6433786271784
 10
2042.265333417376
 20
140.4289715410519
 30
0.0
 41
1.0
 10
2040.95705762934
 20
136.009712195944
 30
0.0
 41
0.9999942801345382
 10
2039.630486702123
 20
131.5959101759221
 30
0.0
 41
0.9999942801345382
 10
2038.285643399149
 20
127.1876412200472
 30
0.0
 41
1.0
 10
2037.515116748176
 20
124.659751906277
 30
0.0
 41
0.9999994038494322
 10
2036.74121071774
 20
122.1328971087069
 30
0.0
 41
0.9999994038495745
 10
2035.963926140813
 20
119.6070795384094
 30
0.0
 41
1.000000000000426
 10
2035.187291129265
 20
117.0822372198818
 30
0.0
 41
1.000000000000426
 10
2034.407667776335
 20
114.5562863956829
 30
0.0
 41
1.000000000000426
 10
2033.627212399079
 20
112.0289805221178
 30
0.0
 41
1.000000000000426
 10
2032.847700237833
 20
109.5047290132588
 30
0.0
 41
1.000000000000426
 10
2032.067269684258
 20
106.9788413624692
 30
0.0
 41
1.000000000000426
 10
2031.288308364149
 20
104.4509719774383
 30
0.0
 41
1.000000000000426
 10
2030.510567109866
 20
101.9270619251338
 30
0.0
 41
1.000000000000426
 10
2029.734235176977
 20
99.40099398782104
 30
0.0
 41
1.000000000000426
 10
2028.961610405921
 20
96.87241580320551
 30
0.0
 41
1.000000000000426
 10
2028.189230577359
 20
94.34606066289881
 30
0.0
 41
0.9999985460391436
 10
2027.422128754353
 20
91.81809790849289
 30
0.0
 41
0.999998546039144
 10
2026.660308282913
 20
89.28853856666728
 30
0.0
 41
1.000000000000426
 10
2025.898989937921
 20
86.76034643808211
 30
0.0
 41
0.9999971353401195
 10
2025.145086376046
 20
84.22993333329963
 30
0.0
 41
0.9999971353401195
 10
2024.398604076322
 20
81.69732099864177
 30
0.0
 41
1.000000000000426
 10
2020.225186897628
 20
67.61111349419139
 30
0.0
 41
0.9998275532012086
 10
2016.373220991275
 20
53.43363094395914
 30
0.0
 41
0.9998275532012086
 10
2012.844699134835
 20
39.17220793240534
 30
0.0
 41
1.000000000000426
  0
SPLINE
  5
6A
330
1F
100
AcDbEntity
  8
NOUVELLE VAGUE$EMD0002
100
AcDbSpline
210
0.0
220
0.0
230
1.0
 70
    12
 71
     2
 72
    20
 73
    17
 74
     0
 42
0.000000001
 43
0.0000000001
 12
1.0
 22
0.0
 32
0.0
 13
1.0
 23
0.0
 33
0.0
 40
3.648952452531256
 40
3.648952452531256
 40
3.648952452531256
 40
11.59880833349664
 40
11.59880833349664
 40
27.36528862413693
 40
27.36528862413693
 40
43.11053278735477
 40
43.11053278735477
 40
50.99246898165205
 40
50.99246898165205
 40
58.88403376546235
 40
58.88403376546235
 40
66.78898540259827
 40
66.78898540259827
 40
74.70059471243952
 40
74.70059471243952
 40
84.64606984086471
 40
84.64606984086471
 40
84.64606984086471
 10
2056.728171419661
 20
219.7773552776716
 30
0.0
 41
1.0
 10
2056.556229406865
 20
215.80908586432
 30
0.0
 41
0.9999636580607275
 10
2056.316652626869
 20
211.8443249435086
 30
0.0
 41
1.0
 10
2055.870706031342
 20
203.995232541379
 30
0.0
 41
0.999689450691124
 10
2055.034237354365
 20
196.1781077466949
 30
0.0
 41
1.0
 10
2054.177277208885
 20
188.3476584543761
 30
0.0
 41
0.9991351232444686
 10
2052.6726429407
 20
180.6154923588037
 30
0.0
 41
1.0
 10
2051.923274104952
 20
176.7460726443336
 30
0.0
 41
0.9998680448732095
 10
2051.048601628738
 20
172.9030386036216
 30
0.0
 41
1.0
 10
2050.172741780934
 20
169.0554736883279
 30
0.0
 41
0.9999187150940423
 10
2049.199061555423
 20
165.2314923770709
 30
0.0
 41
1.0
 10
2048.223765995077
 20
161.4011211631471
 30
0.0
 41
0.9999577558189445
 10
2047.178223283384
 20
157.5893255882884
 30
0.0
 41
1.0
 10
2046.131850117766
 20
153.7743769162318
 30
0.0
 41
0.9999837189132467
 10
2045.042007289016
 20
149.9716183410955
 30
0.0
 41
1.0
 10
2043.674937174731
 20
145.1941068227309
 30
0.0
 41
0.9999900667792699
 10
2042.265333461996
 20
140.4289715278501
 30
0.0
 41
1.0
  0
ARC
  5
6B
330
1F
100
AcDbEntity
  8
NOUVELLE VAGUE$EMD0002
100
AcDbCircle
 10
1738.216426408073
 20
-69.57298552256056
 30
0.0
 40
10.00000029847193
100
AcDbArc
 50
185.4258454949232
 51
270.000000830539
  0
ARC
  5
6C
330
1F
100
AcDbEntity
  8
NOUVELLE VAGUE$EMD0002
100
AcDbCircle
 10
1984.953016584221
 20
-69.57298559047068
 30
0.0
 40
10.00000023056162
100
AcDbArc
 50
269.9999993110471
 51
354.6003021221462
  0
ARC
  5
6D
330
1F
100
AcDbEntity
  8
NOUVELLE VAGUE$EMD0002
100
AcDbCircle
 10
1681.559206422643
 20
218.3549605430228
 30
0.0
 40
17.07256446386374
100
AcDbArc
 50
90.44322743809965
 51
99.32484385620658
  0
ARC
  5
6E
330
1F
100
AcDbEntity
  8
NOUVELLE VAGUE$EMD0002
100
AcDbCircle
 10
1675.637140165737
 20
276.413095439802
 30
0.0
 40
41.33292699126807
100
AcDbArc
 50
274.3878124470945
 51
277.2350015202861
  0
ARC
  5
6F
330
1F
100
AcDbEntity
  8
NOUVELLE VAGUE$EMD0002
100
AcDbCircle
 10
1680.917483076207
 20
231.6224217344951
 30
0.0
 40
3.800562139684359
100
AcDbArc
 50
90.17568588618107
 51
96.10434834894737
  0
LINE
  5
70
330
1F
100
AcDbEntity
  8
NOUVELLE VAGUE$EMD0002
100
AcDbLine
 10
1679.498180627361
 20
235.3127377664059
 30
0.0
 11
1679.766800772493
 21
235.3373759407605
 31
0.0
  0
ARC
  5
71
330
1F
100
AcDbEntity
  8
NOUVELLE VAGUE$EMD0002
100
AcDbCircle
 10
1681.329064012148
 20
226.5010869679501
 30
0.0
 40
8.944429655365802
100
AcDbArc
 50
94.92542918438436
 51
95.46655105020302
  0
ARC
  5
72
330
1F
100
AcDbEntity
  8
NOUVELLE VAGUE$EMD0002
100
AcDbCircle
 10
1681.427023310179
 20
220.4270195501833
 30
0.0
 40
14.99999463437351
100
AcDbArc
 50
98.76822130380638
 51
99.9515030649271
  0
ARC
  5
73
330
1F
100
AcDbEntity
  8
NOUVELLE VAGUE$EMD0002
100
AcDbCircle
 10
1681.427020010195
 20
220.4270191044533
 30
0.0
 40
14.99999449377442
100
AcDbArc
 50
100.1123759620105
 51
182.4660700663224
  0
ARC
  5
74
330
1F
100
AcDbEntity
  8
NOUVELLE VAGUE$EMD0002
100
AcDbCircle
 10
2041.742247475471
 20
220.4270148842841
 30
0.0
 40
14.99999929510206
100
AcDbArc
 50
357.532973899624
 51
90.00041865089482
  0
LINE
  5
75
330
1F
100
AcDbEntity
  8
NOUVELLE VAGUE$EMD0002
100
AcDbLine
 10
1712.816861882594
 20
235.4270141789857
 30
0.0
 11
1711.796948483589
 21
235.4270141789857
 31
0.0
  0
SPLINE
  5
76
330
1F
100
AcDbEntity
  8
NOUVELLE VAGUE$EMD0002
100
AcDbSpline
210
0.0
220
0.0
230
1.0
 70
    12
 71
     3
 72
   428
 73
   424
 74
     0
 42
0.000000001
 43
0.0000000001
 12
1.0
 22
0.0
 32
0.0
 13
1.0
 23
0.0
 33
0.0
 40
144.3381965684546
 40
144.3381965684546
 40
144.3381965684546
 40
144.3381965684546
 40
153.7945452936038
 40
153.7945452936038
 40
153.7945452936038
 40
154.6045684959085
 40
154.6045684959085
 40
154.6045684959085
 40
156.0636423220307
 40
156.0636423220307
 40
156.0636423220307
 40
162.8007419295781
 40
162.8007419295781
 40
162.8007419295781
 40
166.1009017804787
 40
166.1009017804787
 40
166.1009017804787
 40
168.7442956211125
 40
168.7442956211125
 40
168.7442956211125
 40
172.1871226250083
 40
172.1871226250083
 40
172.1871226250083
 40
175.6778626990523
 40
175.6778626990523
 40
175.6778626990523
 40
179.1800070065007
 40
179.1800070065007
 40
179.1800070065007
 40
182.6703249601462
 40
182.6703249601462
 40
182.6703249601462
 40
186.1582976006828
 40
186.1582976006828
 40
186.1582976006828
 40
189.6462792236263
 40
189.6462792236263
 40
189.6462792236263
 40
193.1335404867923
 40
193.1335404867923
 40
193.1335404867923
 40
196.6201141208691
 40
196.6201141208691
 40
196.6201141208691
 40
200.1062222356182
 40
200.1062222356182
 40
200.1062222356182
 40
203.5896679242278
 40
203.5896679242278
 40
203.5896679242278
 40
207.0704680298884
 40
207.0704680298884
 40
207.0704680298884
 40
210.5509011978527
 40
210.5509011978527
 40
210.5509011978527
 40
214.0308864852576
 40
214.0308864852576
 40
214.0308864852576
 40
217.51017292636
 40
217.51017292636
 40
217.51017292636
 40
220.9896382465238
 40
220.9896382465238
 40
220.9896382465238
 40
224.4703353753106
 40
224.4703353753106
 40
224.4703353753106
 40
227.9484830275768
 40
227.9484830275768
 40
227.9484830275768
 40
231.4266619763799
 40
231.4266619763799
 40
231.4266619763799
 40
234.9030724067198
 40
234.9030724067198
 40
234.9030724067198
 40
238.3786169431254
 40
238.3786169431254
 40
238.3786169431254
 40
241.8542499231198
 40
241.8542499231198
 40
241.8542499231198
 40
245.3296182679719
 40
245.3296182679719
 40
245.3296182679719
 40
248.8045714618641
 40
248.8045714618641
 40
248.8045714618641
 40
252.278646731533
 40
252.278646731533
 40
252.278646731533
 40
255.7521730627342
 40
255.7521730627342
 40
255.7521730627342
 40
259.2341158732436
 40
259.2341158732436
 40
259.2341158732436
 40
262.8092904298563
 40
262.8092904298563
 40
262.8092904298563
 40
266.2740074061039
 40
266.2740074061039
 40
266.2740074061039
 40
269.7402506363512
 40
269.7402506363512
 40
269.7402506363512
 40
273.2107982337056
 40
273.2107982337056
 40
273.2107982337056
 40
276.6627625532309
 40
276.6627625532309
 40
276.6627625532309
 40
280.1225079390224
 40
280.1225079390224
 40
280.1225079390224
 40
283.5794016932063
 40
283.5794016932063
 40
283.5794016932063
 40
287.03381882333
 40
287.03381882333
 40
287.03381882333
 40
290.4851055875321
 40
290.4851055875321
 40
290.4851055875321
 40
293.9327685433304
 40
293.9327685433304
 40
293.9327685433304
 40
297.3759564091892
 40
297.3759564091892
 40
297.3759564091892
 40
300.8140649203258
 40
300.8140649203258
 40
300.8140649203258
 40
304.2465195049143
 40
304.2465195049143
 40
304.2465195049143
 40
307.6726479892404
 40
307.6726479892404
 40
307.6726479892404
 40
311.0916805683413
 40
311.0916805683413
 40
311.0916805683413
 40
314.5030731788801
 40
314.5030731788801
 40
314.5030731788801
 40
317.9057954999743
 40
317.9057954999743
 40
317.9057954999743
 40
321.2991387824374
 40
321.2991387824374
 40
321.2991387824374
 40
324.681275749778
 40
324.681275749778
 40
324.681275749778
 40
328.0725480433918
 40
328.0725480433918
 40
328.0725480433918
 40
331.4556032861692
 40
331.4556032861692
 40
331.4556032861692
 40
334.8223665278708
 40
334.8223665278708
 40
334.8223665278708
 40
338.2632632960783
 40
338.2632632960783
 40
338.2632632960783
 40
341.6043435778901
 40
341.6043435778901
 40
341.6043435778901
 40
344.9436056666714
 40
344.9436056666714
 40
344.9436056666714
 40
348.2567560840631
 40
348.2567560840631
 40
348.2567560840631
 40
351.5519115191036
 40
351.5519115191036
 40
351.5519115191036
 40
354.8231413832416
 40
354.8231413832416
 40
354.8231413832416
 40
358.0669714181971
 40
358.0669714181971
 40
358.0669714181971
 40
361.2791260312076
 40
361.2791260312076
 40
361.2791260312076
 40
364.4559628542126
 40
364.4559628542126
 40
364.4559628542126
 40
367.598644951319
 40
367.598644951319
 40
367.598644951319
 40
370.7055507250799
 40
370.7055507250799
 40
370.7055507250799
 40
373.8010588868674
 40
373.8010588868674
 40
373.8010588868674
 40
376.8599635656673
 40
376.8599635656673
 40
376.8599635656673
 40
379.8785966082036
 40
379.8785966082036
 40
379.8785966082036
 40
382.8792838449179
 40
382.8792838449179
 40
382.8792838449179
 40
385.8313690624591
 40
385.8313690624591
 40
385.8313690624591
 40
388.7476086427319
 40
388.7476086427319
 40
388.7476086427319
 40
391.6605516277922
 40
391.6605516277922
 40
391.6605516277922
 40
394.6078021513414
 40
394.6078021513414
 40
394.6078021513414
 40
397.6162558537237
 40
397.6162558537237
 40
397.6162558537237
 40
400.6363932849287
 40
400.6363932849287
 40
400.6363932849287
 40
403.6995637622318
 40
403.6995637622318
 40
403.6995637622318
 40
406.7951790734522
 40
406.7951790734522
 40
406.7951790734522
 40
409.9244934635937
 40
409.9244934635937
 40
409.9244934635937
 40
413.0802141281986
 40
413.0802141281986
 40
413.0802141281986
 40
416.2760135261177
 40
416.2760135261177
 40
416.2760135261177
 40
419.4536899249282
 40
419.4536899249282
 40
419.4536899249282
 40
422.7274600578585
 40
422.7274600578585
 40
422.7274600578585
 40
425.9994752047069
 40
425.9994752047069
 40
425.9994752047069
 40
429.2976693559439
 40
429.2976693559439
 40
429.2976693559439
 40
432.6128769354257
 40
432.6128769354257
 40
432.6128769354257
 40
435.9459904087993
 40
435.9459904087993
 40
435.9459904087993
 40
439.2941819418723
 40
439.2941819418723
 40
439.2941819418723
 40
442.6561313853427
 40
442.6561313853427
 40
442.6561313853427
 40
446.030239373483
 40
446.030239373483
 40
446.030239373483
 40
449.4152335893687
 40
449.4152335893687
 40
449.4152335893687
 40
452.8096490343332
 40
452.8096490343332
 40
452.8096490343332
 40
456.2124199707009
 40
456.2124199707009
 40
456.2124199707009
 40
459.6226596439801
 40
459.6226596439801
 40
459.6226596439801
 40
463.0396448246179
 40
463.0396448246179
 40
463.0396448246179
 40
466.4626611000261
 40
466.4626611000261
 40
466.4626611000261
 40
469.8911870343674
 40
469.8911870343674
 40
469.8911870343674
 40
473.3248899310318
 40
473.3248899310318
 40
473.3248899310318
 40
476.7633767010846
 40
476.7633767010846
 40
476.7633767010846
 40
480.2062339575213
 40
480.2062339575213
 40
480.2062339575213
 40
483.6530852128573
 40
483.6530852128573
 40
483.6530852128573
 40
487.1035426298933
 40
487.1035426298933
 40
487.1035426298933
 40
490.556995643207
 40
490.556995643207
 40
490.556995643207
 40
494.0129450309869
 40
494.0129450309869
 40
494.0129450309869
 40
497.4711737539124
 40
497.4711737539124
 40
497.4711737539124
 40
500.9314559851923
 40
500.9314559851923
 40
500.9314559851923
 40
504.3936358363529
 40
504.3936358363529
 40
504.3936358363529
 40
507.8575663970964
 40
507.8575663970964
 40
507.8575663970964
 40
511.3233354086422
 40
511.3233354086422
 40
511.3233354086422
 40
514.7910089816924
 40
514.7910089816924
 40
514.7910089816924
 40
518.2604589063675
 40
518.2604589063675
 40
518.2604589063675
 40
521.7317150614
 40
521.7317150614
 40
521.7317150614
 40
525.2044256178563
 40
525.2044256178563
 40
525.2044256178563
 40
528.6793157998245
 40
528.6793157998245
 40
528.6793157998245
 40
532.1495537628739
 40
532.1495537628739
 40
532.1495537628739
 40
535.6242357114428
 40
535.6242357114428
 40
535.6242357114428
 40
539.1031398556883
 40
539.1031398556883
 40
539.1031398556883
 40
542.5858612750525
 40
542.5858612750525
 40
542.5858612750525
 40
546.0696352880608
 40
546.0696352880608
 40
546.0696352880608
 40
549.5564735027305
 40
549.5564735027305
 40
549.5564735027305
 40
553.0428229791532
 40
553.0428229791532
 40
553.0428229791532
 40
556.5265642875647
 40
556.5265642875647
 40
556.5265642875647
 40
560.0068649936493
 40
560.0068649936493
 40
560.0068649936493
 40
563.4828321645806
 40
563.4828321645806
 40
563.4828321645806
 40
566.9533697975767
 40
566.9533697975767
 40
566.9533697975767
 40
570.4167521879359
 40
570.4167521879359
 40
570.4167521879359
 40
573.8977199577793
 40
573.8977199577793
 40
573.8977199577793
 40
577.3805269354368
 40
577.3805269354368
 40
577.3805269354368
 40
580.8661033733146
 40
580.8661033733146
 40
580.8661033733146
 40
584.351795807818
 40
584.351795807818
 40
584.351795807818
 40
587.8378392440819
 40
587.8378392440819
 40
587.8378392440819
 40
591.3244182198616
 40
591.3244182198616
 40
591.3244182198616
 40
594.8156283645283
 40
594.8156283645283
 40
594.8156283645283
 40
598.314207713606
 40
598.314207713606
 40
598.314207713606
 40
601.7857693414406
 40
601.7857693414406
 40
601.7857693414406
 40
605.281395475535
 40
605.281395475535
 40
605.281395475535
 40
608.7512286254009
 40
608.7512286254009
 40
608.7512286254009
 40
614.6161645811351
 40
614.6161645811351
 40
614.6161645811351
 40
621.4669057332109
 40
621.4669057332109
 40
621.4669057332109
 40
622.9237617317037
 40
622.9237617317037
 40
622.9237617317037
 40
623.7318307490277
 40
623.7318307490277
 40
623.7318307490277
 40
623.9055170009807
 40
623.9055170009807
 40
623.9055170009807
 40
623.9055170009807
 10
1994.908143503964
 20
-70.51137697581773
 30
0.0
 41
1.0
 10
1994.857460226992
 20
-70.54617879442068
 30
0.0
 41
0.9588552731989899
 10
1994.797868113455
 20
-70.56130298520308
 30
0.0
 41
0.9588552731989899
 10
1994.736722867046
 20
-70.55488270607147
 30
0.0
 41
1.0
 10
1994.468108184411
 20
-70.58263869937701
 30
0.0
 41
0.9997248433808125
 10
1994.198806993528
 20
-70.60266646708959
 30
0.0
 41
0.9997248433808125
 10
1993.92904159441
 20
-70.61494947689062
 30
0.0
 41
1.0
 10
1993.443391765494
 20
-70.64144519010564
 30
0.0
 41
0.9999419539725973
 10
1992.957434588142
 20
-70.66153003326163
 30
0.0
 41
0.999941953972597
 10
1992.471254686003
 20
-70.67520050881967
 30
0.0
 41
1.0
 10
1992.144542810409
 20
-70.6847028379112
 30
0.0
 41
0.9999999999999989
 10
1991.792046001317
 20
-70.69292261489593
 30
0.0
 41
0.9999999999999996
 10
1991.420430388287
 20
-70.70221145526968
 30
0.0
 41
0.9999999999999998
 10
1991.238394943135
 20
-70.70676158215612
 30
0.0
 41
0.9999999999999998
 10
1991.051771906522
 20
-70.71156823272943
 30
0.0
 41
0.9999999999999997
 10
1990.859593490298
 20
-70.71715631012925
 30
0.0
 41
0.9999999999999993
 10
1990.70566057047
 20
-70.72163230221673
 30
0.0
 41
0.9999999999999991
 10
1990.548163405756
 20
-70.72660964556425
 30
0.0
 41
0.9999999999999989
 10
1990.385335396202
 20
-70.73282417703012
 30
0.0
 41
1.0
 10
1990.173618595645
 20
-70.74081294579665
 30
0.0
 41
1.000000000000001
 10
1989.947943024931
 20
-70.75200249733508
 30
0.0
 41
0.9999999999999999
 10
1989.71939455031
 20
-70.76262654239326
 30
0.0
 41
1.0
 10
1989.487999090298
 20
-70.77327323817643
 30
0.0
 41
1.0
 10
1989.250755900608
 20
-70.78264263852634
 30
0.0
 41
1.0
 10
1989.004337138555
 20
-70.79205667572205
 30
0.0
 41
1.0
 10
1988.757042173426
 20
-70.80149577601789
 30
0.0
 41
0.9999999999999998
 10
1988.502227687598
 20
-70.8110328321404
 30
0.0
 41
1.0
 10
1988.241373893551
 20
-70.82056171238037
 30
0.0
 41
1.0
 10
1987.981410699423
 20
-70.83005747981451
 30
0.0
 41
1.0
 10
1987.714564262597
 20
-70.83952774543656
 30
0.0
 41
0.9999999999999992
 10
1987.440751557357
 20
-70.84895106466138
 30
0.0
 41
1.0
 10
1987.167124568254
 20
-70.85836789893719
 30
0.0
 41
0.999999999999999
 10
1986.886775959959
 20
-70.86773597879207
 30
0.0
 41
1.0
 10
1986.599947918233
 20
-70.8770603634066
 30
0.0
 41
1.0
 10
1986.313118771869
 20
-70.88638498721002
 30
0.0
 41
1.0
 10
1986.01972177813
 20
-70.89566736727919
 30
0.0
 41
1.0
 10
1985.719880620537
 20
-70.9048822902705
 30
0.0
 41
1.0
 10
1985.42010149077
 20
-70.91409533346263
 30
0.0
 41
1.000000000000001
 10
1985.113894840899
 20
-70.92324051583228
 30
0.0
 41
1.0
 10
1984.801399021405
 20
-70.93230867173725
 30
0.0
 41
1.0
 10
1984.488964809535
 20
-70.94137511192413
 30
0.0
 41
0.9999999999999998
 10
1984.170219144217
 20
-70.950364883498
 30
0.0
 41
0.9999999999999996
 10
1983.845269492487
 20
-70.95925275593436
 30
0.0
 41
1.0
 10
1983.520363210422
 20
-70.96813947867481
 30
0.0
 41
1.000000000000001
 10
1983.189286969815
 20
-70.97692402563467
 30
0.0
 41
0.9999999999999991
 10
1982.852181769334
 20
-70.9856410017137
 30
0.0
 41
1.0
 10
1982.515334207524
 20
-70.99435141273129
 30
0.0
 41
0.9999999999999993
 10
1982.172204814556
 20
-71.00299795668342
 30
0.0
 41
1.0
 10
1981.822653404233
 20
-71.01126565840514
 30
0.0
 41
1.0
 10
1981.47336768347
 20
-71.01952720246837
 30
0.0
 41
1.000000000000001
 10
1981.117896374595
 20
-71.02740728020032
 30
0.0
 41
1.0
 10
1980.756339574586
 20
-71.03491368504183
 30
0.0
 41
1.0
 10
1980.394820863564
 20
-71.04241933041206
 30
0.0
 41
0.9999999999999996
 10
1980.027196004934
 20
-71.04955187170123
 30
0.0
 41
0.9999999999999992
 10
1979.653539077061
 20
-71.0563028892102
 30
0.0
 41
1.0
 10
1979.279930245712
 20
-71.06305311434421
 30
0.0
 41
1.000000000000001
 10
1978.900293384624
 20
-71.06942144785673
 30
0.0
 41
0.9999999999999998
 10
1978.514707299889
 20
-71.07541582059639
 30
0.0
 41
1.0
 10
1978.129198526801
 20
-71.08140886068294
 30
0.0
 41
1.000000000000001
 10
1977.73770208617
 20
-71.08703010301991
 30
0.0
 41
1.000000000000001
 10
1977.340240165252
 20
-71.09224457601931
 30
0.0
 41
1.0
 10
1976.942758129985
 20
-71.09745991554566
 30
0.0
 41
0.9999999999999999
 10
1976.53943733265
 20
-71.10226170598982
 30
0.0
 41
0.9999999999999999
 10
1976.130473314593
 20
-71.10679505992812
 30
0.0
 41
1.0
 10
1975.721364043289
 20
-71.11132953725424
 30
0.0
 41
1.000000000000001
 10
1975.306342543538
 20
-71.11560834589089
 30
0.0
 41
1.0
 10
1974.885257827375
 20
-71.11946414458589
 30
0.0
 41
1.0
 10
1974.464481039519
 20
-71.12331663820808
 30
0.0
 41
0.9999999999999997
 10
1974.037976474237
 20
-71.12673379820218
 30
0.0
 41
0.9999999999999998
 10
1973.605962706071
 20
-71.12991912997677
 30
0.0
 41
1.0
 10
1973.173945335474
 20
-71.13310505477196
 30
0.0
 41
0.9999999999999997
 10
1972.73612882609
 20
-71.13606485505082
 30
0.0
 41
0.9999999999999996
 10
1972.29245056838
 20
-71.13870538556239
 30
0.0
 41
1.0
 10
1971.848997768761
 20
-71.14134437408306
 30
0.0
 41
0.9999999999999993
 10
1971.399775342121
 20
-71.14366324520638
 30
0.0
 41
1.000000000000001
 10
1970.94479678125
 20
-71.14566708755319
 30
0.0
 41
1.0
 10
1970.489931662182
 20
-71.14767061003842
 30
0.0
 41
0.9999999999999998
 10
1970.029336811334
 20
-71.14935863111128
 30
0.0
 41
0.9999999999999992
 10
1969.563053328527
 20
-71.15077823111687
 30
0.0
 41
1.0
 10
1969.09675807734
 20
-71.15219805303427
 30
0.0
 41
0.9999999999999993
 10
1968.624759960005
 20
-71.15335002366642
 30
0.0
 41
1.000000000000001
 10
1968.147082396325
 20
-71.15427775291573
 30
0.0
 41
1.0
 10
1967.669441102904
 20
-71.15520516489377
 30
0.0
 41
0.999999999999999
 10
1967.186081138573
 20
-71.15590964243752
 30
0.0
 41
1.000000000000001
 10
1966.69698109931
 20
-71.15641182775516
 30
0.0
 41
1.0
 10
1966.207939224431
 20
-71.1569139857752
 30
0.0
 41
0.9999999999999998
 10
1965.713302899503
 20
-71.15721258549
 30
0.0
 41
1.0
 10
1965.213152639734
 20
-71.15743742226914
 30
0.0
 41
1.0
 10
1964.713130040817
 20
-71.15766233920569
 30
0.0
 41
0.9999999999999999
 10
1964.207214575925
 20
-71.1578101667728
 30
0.0
 41
1.0
 10
1963.69533124281
 20
-71.15780597337061
 30
0.0
 41
1.0
 10
1963.183525217622
 20
-71.15780165635763
 30
0.0
 41
0.9999999999999996
 10
1962.666278247235
 20
-71.15765317176053
 30
0.0
 41
1.0
 10
1962.143355285198
 20
-71.15734164905416
 30
0.0
 41
1.0
 10
1961.619194660439
 20
-71.15702966706426
 30
0.0
 41
1.000000000000001
 10
1961.087667998473
 20
-71.15652291777397
 30
0.0
 41
1.000000000000001
 10
1960.550762928886
 20
-71.1558633633922
 30
0.0
 41
1.0
 10
1959.999459621441
 20
-71.15518569648792
 30
0.0
 41
1.0
 10
1959.444014268173
 20
-71.15437576484148
 30
0.0
 41
0.9999999999999998
 10
1958.880385118258
 20
-71.15328994163247
 30
0.0
 41
1.0
 10
1958.334148329024
 20
-71.15223727491369
 30
0.0
 41
0.9999999999999996
 10
1957.780459676102
 20
-71.15093683154372
 30
0.0
 41
1.0
 10
1957.222311565981
 20
-71.14946132416844
 30
0.0
 41
1.0
 10
1956.663950762791
 20
-71.1479856563219
 30
0.0
 41
1.0
 10
1956.099519421269
 20
-71.14628581302249
 30
0.0
 41
1.000000000000001
 10
1955.528215525295
 20
-71.14432684585245
 30
0.0
 41
1.0
 10
1954.956189351954
 20
-71.14236522967579
 30
0.0
 41
0.9999999999999997
 10
1954.378192550696
 20
-71.140171860427
 30
0.0
 41
1.0
 10
1953.793807033911
 20
-71.13772768908802
 30
0.0
 41
1.0
 10
1953.212553874597
 20
-71.13529669291852
 30
0.0
 41
0.9999999999999993
 10
1952.624641798273
 20
-71.13260769501947
 30
0.0
 41
1.0
 10
1952.030606977742
 20
-71.1297135626096
 30
0.0
 41
1.0
 10
1951.435237249805
 20
-71.12681300669148
 30
0.0
 41
0.9999999999999998
 10
1950.83357118219
 20
-71.12369988368614
 30
0.0
 41
1.000000000000001
 10
1950.225110350751
 20
-71.1203674873741
 30
0.0
 41
1.0
 10
1949.617147648421
 20
-71.11703781011377
 30
0.0
 41
0.9999999999999996
 10
1949.002560630384
 20
-71.11349577572993
 30
0.0
 41
0.9999999999999999
 10
1948.381343933457
 20
-71.10976222701447
 30
0.0
 41
1.0
 10
1947.760573325765
 20
-71.10603139057407
 30
0.0
 41
1.000000000000001
 10
1947.133076031037
 20
-71.10210500815805
 30
0.0
 41
1.000000000000001
 10
1946.498671955465
 20
-71.09799749653848
 30
0.0
 41
1.0
 10
1945.864842622721
 20
-71.09389374342344
 30
0.0
 41
1.0
 10
1945.22412972171
 20
-71.0896096930464
 30
0.0
 41
1.000000000000001
 10
1944.57639223969
 20
-71.08516801900123
 30
0.0
 41
1.0
 10
1943.929335071179
 20
-71.08073105323237
 30
0.0
 41
0.9999999999999989
 10
1943.275181996218
 20
-71.07613333734074
 30
0.0
 41
0.9999999999999996
 10
1942.61373813447
 20
-71.07136530771322
 30
0.0
 41
1.0
 10
1941.953152950212
 20
-71.06660351657504
 30
0.0
 41
0.9999999999999996
 10
1941.28524682379
 20
-71.06166990513248
 30
0.0
 41
1.0
 10
1940.609802733383
 20
-71.05654251835676
 30
0.0
 41
1.0
 10
1939.935355202917
 20
-71.05142274471653
 30
0.0
 41
1.0
 10
1939.253359157678
 20
-71.04610842553254
 30
0.0
 41
1.0
 10
1938.56358054979
 20
-71.04058254417714
 30
0.0
 41
1.0
 10
1937.874936448974
 20
-71.03506582004735
 30
0.0
 41
0.9999999999999991
 10
1937.17849605379
 20
-71.02933651278501
 30
0.0
 41
0.9999999999999998
 10
1936.474008751428
 20
-71.02338100825091
 30
0.0
 41
1.0
 10
1935.770820001371
 20
-71.01743653838821
 30
0.0
 41
1.0
 10
1935.059563119413
 20
-71.01126476728766
 30
0.0
 41
1.0
 10
1934.339959350671
 20
-71.0048480692003
 30
0.0
 41
1.0
 10
1933.621846179519
 20
-70.99844470947433
 30
0.0
 41
1.000000000000001
 10
1932.895387640195
 20
-70.9917959659034
 30
0.0
 41
0.9999999999999986
 10
1932.160297076182
 20
-70.9849023592783
 30
0.0
 41
1.0
 10
1931.42684917922
 20
-70.97802424452999
 30
0.0
 41
0.9999999999999991
 10
1930.684806996934
 20
-70.97090217816091
 30
0.0
 41
1.0
 10
1929.933861425409
 20
-70.96355697860145
 30
0.0
 41
1.0
 10
1929.18482527987
 20
-70.95623053922012
 30
0.0
 41
0.9999999999999997
 10
1928.426789496807
 20
-70.94867658655082
 30
0.0
 41
1.0
 10
1927.659479092225
 20
-70.94092042366992
 30
0.0
 41
1.0
 10
1926.894281578085
 20
-70.93318572731464
 30
0.0
 41
0.9999999999999993
 10
1926.11998298667
 20
-70.92525394256742
 30
0.0
 41
1.0
 10
1925.33596637021
 20
-70.91712543407812
 30
0.0
 41
1.0
 10
1924.554548045763
 20
-70.90902375164379
 30
0.0
 41
1.000000000000001
 10
1923.763002112676
 20
-70.90071184947288
 30
0.0
 41
0.9999999999999991
 10
1922.962119072547
 20
-70.8923003840473
 30
0.0
 41
1.0
 10
1922.159077356845
 20
-70.88386621310063
 30
0.0
 41
1.0
 10
1921.34586125552
 20
-70.87529563950463
 30
0.0
 41
1.0
 10
1920.521204054294
 20
-70.86657955848932
 30
0.0
 41
1.0
 10
1919.698522958111
 20
-70.85788493265444
 30
0.0
 41
1.000000000000001
 10
1918.866581309377
 20
-70.84912364216791
 30
0.0
 41
0.9999999999999986
 10
1918.023745244724
 20
-70.84020584959762
 30
0.0
 41
1.0
 10
1917.185037545707
 20
-70.83132965943466
 30
0.0
 41
1.0
 10
1916.33072510403
 20
-70.82215291184912
 30
0.0
 41
1.0
 10
1915.467860868011
 20
-70.81321295458065
 30
0.0
 41
1.0
 10
1914.585941574218
 20
-70.80407576799149
 30
0.0
 41
0.9999999999999991
 10
1913.697697857749
 20
-70.79520515437198
 30
0.0
 41
1.000000000000001
 10
1912.789957423538
 20
-70.78583945986793
 30
0.0
 41
1.0
 10
1911.908483797656
 20
-70.7767450773345
 30
0.0
 41
0.9999999999999994
 10
1911.010677821185
 20
-70.76729892686399
 30
0.0
 41
1.0
 10
1910.105777330707
 20
-70.75806155772989
 30
0.0
 41
1.0
 10
1909.201418875738
 20
-70.74882830779234
 30
0.0
 41
1.0
 10
1908.284919654013
 20
-70.73960954916988
 30
0.0
 41
1.000000000000001
 10
1907.352021963278
 20
-70.73026929759772
 30
0.0
 41
1.0
 10
1906.426394364735
 20
-70.72100253668171
 30
0.0
 41
0.9999999999999997
 10
1905.486715339905
 20
-70.71169036106632
 30
0.0
 41
0.9999999999999999
 10
1904.533819082083
 20
-70.70243018167457
 30
0.0
 41
1.0
 10
1903.586109871818
 20
-70.69322036450144
 30
0.0
 41
1.000000000000001
 10
1902.623977911033
 20
-70.68402034898916
 30
0.0
 41
1.0
 10
1901.646275611495
 20
-70.6748769510018
 30
0.0
 41
1.0
 10
1900.675672757658
 20
-70.66580031206472
 30
0.0
 41
0.9999999999999994
 10
1899.689789246771
 20
-70.65678229310241
 30
0.0
 41
1.0
 10
1898.688023562167
 20
-70.64783644039926
 30
0.0
 41
1.0
 10
1897.694653800573
 20
-70.63896546588602
 30
0.0
 41
1.0
 10
1896.68490944375
 20
-70.6301498339949
 30
0.0
 41
0.9999999999999999
 10
1895.657861652839
 20
-70.62126725449798
 30
0.0
 41
1.0
 10
1894.640847763189
 20
-70.61247146820281
 30
0.0
 41
0.9999999999999997
 10
1893.606841978603
 20
-70.60360696040655
 30
0.0
 41
0.9999999999999997
 10
1892.555013356901
 20
-70.59458340141555
 30
0.0
 41
1.0
 10
1891.514759597826
 20
-70.58565895113496
 30
0.0
 41
1.0
 10
1890.456323727023
 20
-70.57656865662786
 30
0.0
 41
0.9999999999999999
 10
1889.379092938099
 20
-70.56717735339771
 30
0.0
 41
1.0
 10
1888.313444744613
 20
-70.55788734996167
 30
0.0
 41
1.0
 10
1887.231266275724
 20
-70.5483285273349
 30
0.0
 41
0.9999999999999999
 10
1886.131025547045
 20
-70.53872104331867
 30
0.0
 41
1.0
 10
1885.043354019876
 20
-70.5292227835434
 30
0.0
 41
1.000000000000001
 10
1883.935742451841
 20
-70.51965371014055
 30
0.0
 41
1.0
 10
1882.813179789091
 20
-70.51052994232441
 30
0.0
 41
1.0
 10
1881.694755060574
 20
-70.50144039692447
 30
0.0
 41
0.9999999999999991
 10
1880.560677594651
 20
-70.49275606197166
 30
0.0
 41
1.000000000000001
 10
1879.406390104561
 20
-70.4847668463749
 30
0.0
 41
1.0
 10
1878.265730768559
 20
-70.47687430272846
 30
0.0
 41
0.9999999999999999
 10
1877.108414629572
 20
-70.46971169147633
 30
0.0
 41
0.9999999999999991
 10
1875.934724923121
 20
-70.46331832413989
 30
0.0
 41
1.0
 10
1874.776556047362
 20
-70.45700700091218
 30
0.0
 41
1.0
 10
1873.598110205038
 20
-70.45142020522826
 30
0.0
 41
1.0
 10
1872.405773145158
 20
-70.44660323206517
 30
0.0
 41
1.0
 10
1871.220539151294
 20
-70.44181606781599
 30
0.0
 41
1.000000000000001
 10
1870.025327193162
 20
-70.43777886991435
 30
0.0
 41
1.0
 10
1868.811773414671
 20
-70.43446739057208
 30
0.0
 41
1.0
 10
1867.617844350998
 20
-70.43121187455696
 30
0.0
 41
1.0
 10
1866.41248038564
 20
-70.42871137259002
 30
0.0
 41
0.9999999999999997
 10
1865.199757137464
 20
-70.42704864869529
 30
0.0
 41
1.0
 10
1864.001792895564
 20
-70.42540432128861
 30
0.0
 41
1.0
 10
1862.795726449619
 20
-70.42457395985817
 30
0.0
 41
1.000000000000001
 10
1861.584813351707
 20
-70.42457844496494
 30
0.0
 41
1.0
 10
1860.375263238954
 20
-70.424581170777
 30
0.0
 41
0.9999999999999991
 10
1859.170279320227
 20
-70.42541780403002
 30
0.0
 41
1.000000000000001
 10
1857.974410619115
 20
-70.42706447742876
 30
0.0
 41
1.0
 10
1856.764402099905
 20
-70.42872681315879
 30
0.0
 41
1.000000000000001
 10
1855.559214853489
 20
-70.43123879024459
 30
0.0
 41
1.0
 10
1854.366843402559
 20
-70.43449885469727
 30
0.0
 41
1.0
 10
1853.149767154522
 20
-70.43782926061894
 30
0.0
 41
0.999999999999999
 10
1851.953696292589
 20
-70.44185718258721
 30
0.0
 41
1.0
 10
1850.765137899295
 20
-70.44664952621179
 30
0.0
 41
1.0
 10
1849.571960510047
 20
-70.45146248814034
 30
0.0
 41
1.0
 10
1848.39152214489
 20
-70.45706746146429
 30
0.0
 41
0.9999999999999994
 10
1847.232786008225
 20
-70.46338662802691
 30
0.0
 41
1.0
 10
1846.057463588411
 20
-70.46979357116744
 30
0.0
 41
0.9999999999999998
 10
1844.899858504266
 20
-70.47694778075264
 30
0.0
 41
1.0
 10
1843.758183969539
 20
-70.48484287949759
 30
0.0
 41
1.0
 10
1842.604409416136
 20
-70.4928226637894
 30
0.0
 41
1.0
 10
1841.467699231134
 20
-70.50155652837888
 30
0.0
 41
0.9999999999999993
 10
1840.348859146077
 20
-70.5106360765144
 30
0.0
 41
1.0
 10
1839.217826413223
 20
-70.51981554234135
 30
0.0
 41
1.0
 10
1838.105428556059
 20
-70.52933746761941
 30
0.0
 41
0.9999999999999993
 10
1837.010436272969
 20
-70.53884466524687
 30
0.0
 41
1.0
 10
1835.90617513829
 20
-70.54843256949201
 30
0.0
 41
0.9999999999999996
 10
1834.817190744475
 20
-70.5580550419018
 30
0.0
 41
0.9999999999999994
 10
1833.746558414248
 20
-70.5673682920733
 30
0.0
 41
1.0
 10
1832.662409824584
 20
-70.57680047529949
 30
0.0
 41
0.9999999999999999
 10
1831.603711188149
 20
-70.5857792874676
 30
0.0
 41
1.0
 10
1830.559249712745
 20
-70.59474666173082
 30
0.0
 41
1.0
 10
1829.520659705445
 20
-70.60366106423407
 30
0.0
 41
1.0
 10
1828.490096012795
 20
-70.61273544211653
 30
0.0
 41
0.999999999999999
 10
1827.484525135601
 20
-70.62146844030713
 30
0.0
 41
1.0
 10
1826.448505594123
 20
-70.63046463562937
 30
0.0
 41
0.9999999999999994
 10
1825.43581154133
 20
-70.63910627503441
 30
0.0
 41
1.000000000000001
 10
1824.432566311315
 20
-70.64802003526711
 30
0.0
 41
1.0
 10
1823.429928424978
 20
-70.65693000964669
 30
0.0
 41
0.9999999999999997
 10
1822.441824349165
 20
-70.66604161550046
 30
0.0
 41
1.0
 10
1821.472596581788
 20
-70.6751092737677
 30
0.0
 41
1.0
 10
1820.495562613833
 20
-70.68424885433889
 30
0.0
 41
0.9999999999999999
 10
1819.533523712352
 20
-70.69342993561666
 30
0.0
 41
1.0
 10
1818.584790767358
 20
-70.702656663364
 30
0.0
 41
1.0
 10
1817.631169322261
 20
-70.71193146952558
 30
0.0
 41
0.9999999999999996
 10
1816.692085046681
 20
-70.7212270124351
 30
0.0
 41
0.9999999999999997
 10
1815.767135677623
 20
-70.73048488297263
 30
0.0
 41
1.0
 10
1814.837185134722
 20
-70.73979294644184
 30
0.0
 41
1.0
 10
1813.920830137665
 20
-70.74908220985249
 30
0.0
 41
1.000000000000001
 10
1813.017436285357
 20
-70.75832262603217
 30
0.0
 41
1.0
 10
1812.109954065718
 20
-70.76760503077779
 30
0.0
 41
0.9999999999999997
 10
1811.215473781967
 20
-70.77684087743862
 30
0.0
 41
1.0
 10
1810.333444512705
 20
-70.78600109683339
 30
0.0
 41
1.0
 10
1809.447788968737
 20
-70.7951990836768
 30
0.0
 41
1.0
 10
1808.574456745286
 20
-70.80432846648716
 30
0.0
 41
1.000000000000002
 10
1807.712921696513
 20
-70.81336778142622
 30
0.0
 41
1.0
 10
1806.848269352032
 20
-70.82243998501777
 30
0.0
 41
1.000000000000001
 10
1805.995338185591
 20
-70.831426533302
 30
0.0
 41
0.9999999999999997
 10
1805.153650440356
 20
-70.84030793337752
 30
0.0
 41
1.0
 10
1804.309245803869
 20
-70.84921811900863
 30
0.0
 41
0.9999999999999994
 10
1803.475976964705
 20
-70.8580298375678
 30
0.0
 41
0.9999999999999993
 10
1802.653395864197
 20
-70.86671366513065
 30
0.0
 41
1.0
 10
1801.828524351462
 20
-70.8754217183373
 30
0.0
 41
1.0
 10
1801.014262026856
 20
-70.88400590542814
 30
0.0
 41
1.000000000000001
 10
1800.210207736128
 20
-70.89243231152204
 30
0.0
 41
1.0
 10
1799.404173348205
 20
-70.90087957519528
 30
0.0
 41
0.9999999999999987
 10
1798.608288572413
 20
-70.90917259648722
 30
0.0
 41
1.0
 10
1797.822179760637
 20
-70.91728365914969
 30
0.0
 41
1.0
 10
1797.034344757815
 20
-70.92541264492225
 30
0.0
 41
1.000000000000001
 10
1796.256225562805
 20
-70.93336281522627
 30
0.0
 41
0.9999999999999997
 10
1795.487481682323
 20
-70.94110720723984
 30
0.0
 41
1.0
 10
1794.717216569184
 20
-70.94886702274657
 30
0.0
 41
0.9999999999999993
 10
1793.956281259565
 20
-70.95642379161696
 30
0.0
 41
1.000000000000001
 10
1793.204356869603
 20
-70.96375648507183
 30
0.0
 41
1.0
 10
1792.451104785511
 20
-70.97110218502257
 30
0.0
 41
1.0
 10
1791.706814287068
 20
-70.9782263348925
 30
0.0
 41
1.0
 10
1790.971194367596
 20
-70.9851067338941
 30
0.0
 41
1.0
 10
1790.23438995481
 20
-70.99199826413586
 30
0.0
 41
1.0
 10
1789.506249533698
 20
-70.99864670398436
 30
0.0
 41
1.0
 10
1788.7864908977
 20
-71.00505224573863
 30
0.0
 41
1.0
 10
1788.065645056219
 20
-71.01146752330044
 30
0.0
 41
0.9999999999999986
 10
1787.353166286579
 20
-71.01764073451336
 30
0.0
 41
1.000000000000001
 10
1786.648786614185
 20
-71.02358633201038
 30
0.0
 41
1.0
 10
1785.943425238638
 20
-71.02954028719162
 30
0.0
 41
0.9999999999999997
 10
1785.246128773134
 20
-71.03526832446684
 30
0.0
 41
1.0
 10
1784.556651057871
 20
-71.04078420757605
 30
0.0
 41
1.0
 10
1783.86629668787
 20
-71.04630715528164
 30
0.0
 41
1.000000000000001
 10
1783.183737629638
 20
-71.05161926137909
 30
0.0
 41
0.9999999999999999
 10
1782.508743559532
 20
-71.05673823573852
 30
0.0
 41
1.0
 10
1781.832966179074
 20
-71.0618632041273
 30
0.0
 41
1.000000000000001
 10
1781.164731220891
 20
-71.06679609052392
 30
0.0
 41
0.9999999999999997
 10
1780.503826670914
 20
-71.07155695627625
 30
0.0
 41
1.0
 10
1779.842230431485
 20
-71.07632286605295
 30
0.0
 41
1.000000000000001
 10
1779.187924910377
 20
-71.08091863244049
 30
0.0
 41
0.9999999999999994
 10
1778.540722233678
 20
-71.08535326780157
 30
0.0
 41
1.0
 10
1777.89295748382
 20
-71.0897917873922
 30
0.0
 41
0.9999999999999998
 10
1777.25223242423
 20
-71.09407191812763
 30
0.0
 41
0.9999999999999999
 10
1776.618395261392
 20
-71.09817261653916
 30
0.0
 41
1.0
 10
1775.984099759113
 20
-71.10227630745888
 30
0.0
 41
0.9999999999999997
 10
1775.356678090292
 20
-71.10620115512484
 30
0.0
 41
1.0
 10
1774.735990815341
 20
-71.10993105977923
 30
0.0
 41
1.0
 10
1774.114894025983
 20
-71.11366345707664
 30
0.0
 41
1.0
 10
1773.50051295105
 20
-71.11720169971159
 30
0.0
 41
1.0
 10
1772.892721642798
 20
-71.12053002123639
 30
0.0
 41
1.0
 10
1772.284569291019
 20
-71.12386035835334
 30
0.0
 41
1.0
 10
1771.682988544921
 20
-71.12698136905833
 30
0.0
 41
0.9999999999999993
 10
1771.087867935685
 20
-71.12987685203916
 30
0.0
 41
1.0
 10
1770.492420850946
 20
-71.13277394999389
 30
0.0
 41
0.9999999999999996
 10
1769.903421008549
 20
-71.13544608189389
 30
0.0
 41
0.9999999999999997
 10
1769.320766165395
 20
-71.13787960795617
 30
0.0
 41
1.0
 10
1768.737816601942
 20
-71.14031438261246
 30
0.0
 41
0.9999999999999987
 10
1768.161206971159
 20
-71.14251058607627
 30
0.0
 41
0.9999999999999996
 10
1767.590842690079
 20
-71.14446193142885
 30
0.0
 41
1.0
 10
1767.020175592532
 20
-71.14641435220531
 30
0.0
 41
0.9999999999999997
 10
1766.455772313499
 20
-71.14812126863912
 30
0.0
 41
0.9999999999999983
 10
1765.897531431693
 20
-71.14960316228598
 30
0.0
 41
1.0
 10
1765.338983688519
 20
-71.15108591280519
 30
0.0
 41
1.000000000000001
 10
1764.786585663042
 20
-71.1523439410189
 30
0.0
 41
1.0
 10
1764.240246495501
 20
-71.15339596957665
 30
0.0
 41
1.0
 10
1763.693627347112
 20
-71.15444858702496
 30
0.0
 41
0.9999999999999998
 10
1763.153052956087
 20
-71.15529545322761
 30
0.0
 41
1.0
 10
1762.618447792712
 20
-71.15595475822965
 30
0.0
 41
1.0
 10
1762.083564324058
 20
-71.15661442366448
 30
0.0
 41
0.9999999999999997
 10
1761.55466143967
 20
-71.15708643478824
 30
0.0
 41
0.9999999999999993
 10
1761.031649336128
 20
-71.15740090874579
 30
0.0
 41
1.0
 10
1760.508417701105
 20
-71.15771561938936
 30
0.0
 41
1.0
 10
1759.991012850684
 20
-71.15787342080012
 30
0.0
 41
1.0
 10
1759.479426549708
 20
-71.15787223237749
 30
0.0
 41
1.0
 10
1758.967520365391
 20
-71.15787085977178
 30
0.0
 41
0.9999999999999992
 10
1758.461584386172
 20
-71.15770979815073
 30
0.0
 41
1.000000000000001
 10
1757.961389401317
 20
-71.15749792515271
 30
0.0
 41
1.0
 10
1757.46186370139
 20
-71.15728666036237
 30
0.0
 41
1.0
 10
1756.967729798218
 20
-71.15702555624775
 30
0.0
 41
1.000000000000001
 10
1756.479250052243
 20
-71.15651209772432
 30
0.0
 41
1.0
 10
1755.990143281605
 20
-71.15599797071116
 30
0.0
 41
1.000000000000002
 10
1755.506872243187
 20
-71.15523581082378
 30
0.0
 41
1.0
 10
1755.029338741658
 20
-71.15428374627845
 30
0.0
 41
1.0
 10
1754.551225524035
 20
-71.15333026975131
 30
0.0
 41
0.9999999999999989
 10
1754.078704890738
 20
-71.15218232759159
 30
0.0
 41
1.0
 10
1753.611865269488
 20
-71.1507154731521
 30
0.0
 41
1.0
 10
1753.144513844625
 20
-71.14924692721159
 30
0.0
 41
1.0
 10
1752.683062238716
 20
-71.14746201173054
 30
0.0
 41
1.0
 10
1752.227407092419
 20
-71.14545288179715
 30
0.0
 41
1.0
 10
1751.771614420809
 20
-71.14344349409973
 30
0.0
 41
1.0
 10
1751.321357245696
 20
-71.14120396778762
 30
0.0
 41
0.999999999999999
 10
1750.876811094258
 20
-71.1385520006329
 30
0.0
 41
1.0
 10
1750.431874411924
 20
-71.13589767254237
 30
0.0
 41
0.9999999999999997
 10
1749.99302578989
 20
-71.13283901550126
 30
0.0
 41
1.000000000000001
 10
1749.560068708476
 20
-71.1295955248529
 30
0.0
 41
1.0
 10
1749.127172989478
 20
-71.12635214193466
 30
0.0
 41
0.9999999999999992
 10
1748.699857680339
 20
-71.12291635966491
 30
0.0
 41
1.0
 10
1748.278266988681
 20
-71.11915126895474
 30
0.0
 41
1.0
 10
1747.856991919196
 20
-71.11538923138961
 30
0.0
 41
0.9999999999999998
 10
1747.441491228698
 20
-71.11130305443557
 30
0.0
 41
1.000000000000001
 10
1747.031827532969
 20
-71.1068334863221
 30
0.0
 41
1.0
 10
1746.622569014618
 20
-71.1023681702909
 30
0.0
 41
1.0
 10
1746.219199452534
 20
-71.09751824608425
 30
0.0
 41
1.000000000000001
 10
1745.821751377111
 20
-71.09228403679208
 30
0.0
 41
1.0
 10
1745.424798140719
 20
-71.08705646086399
 30
0.0
 41
1.0
 10
1745.033724449686
 20
-71.0814460446982
 30
0.0
 41
0.9999999999999997
 10
1744.648618310651
 20
-71.07545236561828
 30
0.0
 41
1.0
 10
1744.264115461047
 20
-71.06946798932677
 30
0.0
 41
1.0
 10
1743.88560658234
 20
-71.0631024160816
 30
0.0
 41
1.0
 10
1743.513046785542
 20
-71.05633734300682
 30
0.0
 41
1.0
 10
1743.141250180967
 20
-71.04958638833662
 30
0.0
 41
0.9999999999999996
 10
1742.775330038543
 20
-71.0424347028397
 30
0.0
 41
1.0
 10
1742.415655291538
 20
-71.03494573614444
 30
0.0
 41
1.0
 10
1742.054152676371
 20
-71.0274188304838
 30
0.0
 41
1.000000000000001
 10
1741.698753578959
 20
-71.01955093372997
 30
0.0
 41
1.0
 10
1741.349362034549
 20
-71.01129027168872
 30
0.0
 41
1.0
 10
1740.999789503848
 20
-71.00302524761628
 30
0.0
 41
1.0
 10
1740.656667229061
 20
-70.99437172961736
 30
0.0
 41
0.9999999999999998
 10
1740.319883037659
 20
-70.98565915666813
 30
0.0
 41
1.0
 10
1739.982829607379
 20
-70.97693976760553
 30
0.0
 41
0.9999999999999992
 10
1739.651783557224
 20
-70.96815645761166
 30
0.0
 41
1.000000000000001
 10
1739.326886467708
 20
-70.95926898410198
 30
0.0
 41
1.0
 10
1739.001978868972
 20
-70.95038126280178
 30
0.0
 41
1.0
 10
1738.683281828702
 20
-70.94139016253493
 30
0.0
 41
0.999999999999999
 10
1738.370898835487
 20
-70.93232286766579
 30
0.0
 41
1.0
 10
1738.058484412271
 20
-70.92325473711298
 30
0.0
 41
1.0
 10
1737.75234370639
 20
-70.91410979588733
 30
0.0
 41
0.9999999999999992
 10
1737.452623030823
 20
-70.90489434309075
 30
0.0
 41
1.0
 10
1737.152856003284
 20
-70.89567746699326
 30
0.0
 41
0.9999999999999994
 10
1736.859565076302
 20
-70.88639103460679
 30
0.0
 41
0.9999999999999991
 10
1736.5728386785
 20
-70.87706830050638
 30
0.0
 41
1.0
 10
1736.285727605311
 20
-70.86773332305305
 30
0.0
 41
0.9999999999999996
 10
1736.004975949667
 20
-70.85836042439946
 30
0.0
 41
1.000000000000001
 10
1735.731042882604
 20
-70.84895863714246
 30
0.0
 41
1.0
 10
1735.456543161888
 20
-70.83953731518115
 30
0.0
 41
0.9999999999999999
 10
1735.189218437181
 20
-70.83008393715541
 30
0.0
 41
1.000000000000001
 10
1734.928502655906
 20
-70.82047896663607
 30
0.0
 41
1.0
 10
1734.669786570947
 20
-70.81094586073509
 30
0.0
 41
0.9999999999999994
 10
1734.417037854833
 20
-70.80128940367106
 30
0.0
 41
0.9999999999999997
 10
1734.172138947712
 20
-70.79190019166299
 30
0.0
 41
1.0
 10
1733.92559791384
 20
-70.78244084926973
 30
0.0
 41
1.0
 10
1733.687931683814
 20
-70.77318194549125
 30
0.0
 41
0.999999999999999
 10
1733.455885167349
 20
-70.76262717935151
 30
0.0
 41
1.0
 10
1733.225223402632
 20
-70.7520299603301
 30
0.0
 41
1.000000000000002
 10
1732.997748689718
 20
-70.7408266996667
 30
0.0
 41
1.000000000000001
 10
1732.784290298218
 20
-70.73281566928199
 30
0.0
 41
1.0
 10
1732.423782581614
 20
-70.71942324966723
 30
0.0
 41
0.9999999999999999
 10
1732.085893029634
 20
-70.71068747956411
 30
0.0
 41
0.9999999999999991
 10
1731.762127513885
 20
-70.70264413458159
 30
0.0
 41
0.9999999999999992
 10
1731.383942012952
 20
-70.69324882747382
 30
0.0
 41
0.9999999999999993
 10
1731.025027651369
 20
-70.68479828012002
 30
0.0
 41
1.0
 10
1730.693263563048
 20
-70.6752123909846
 30
0.0
 41
1.0
 10
1730.20782260428
 20
-70.66155937742293
 30
0.0
 41
0.9999413152209581
 10
1729.722605529171
 20
-70.64146661131386
 30
0.0
 41
0.999941315220958
 10
1729.237697762289
 20
-70.61493763007547
 30
0.0
 41
1.0
 10
1728.968584158249
 20
-70.6026583574923
 30
0.0
 41
0.9997233931609792
 10
1728.699935899672
 20
-70.58263273445846
 30
0.0
 41
0.9997233931609792
 10
1728.431975916394
 20
-70.55487737864678
 30
0.0
 41
1.0
 10
1728.373773295332
 20
-70.55321890968408
 30
0.0
 41
0.9886879693252514
 10
1728.316862479273
 20
-70.54091221909007
 30
0.0
 41
0.9886879693252514
 10
1728.263174798909
 20
-70.51837494784928
 30
0.0
 41
1.0
  0
LINE
  5
77
330
1F
100
AcDbEntity
  8
NOUVELLE VAGUE$EMD0002
100
AcDbLine
 10
1984.952297415497
 20
-79.5729858210325
 30
0.0
 11
1738.218309184067
 21
-79.57298582103249
 31
0.0
  0
LINE
  5
78
330
1F
100
AcDbEntity
  8
NOUVELLE VAGUE$EMD0002
100
AcDbLine
 10
1711.796948483589
 20
235.4270141789857
 30
0.0
 11
1681.427138169058
 21
235.4270141789852
 31
0.0
  0
SPLINE
  5
79
330
1F
100
AcDbEntity
  8
NOUVELLE VAGUE$EMD0002
100
AcDbSpline
210
0.0
220
0.0
230
1.0
 70
    24
 71
     3
 72
    12
 73
     8
 74
     0
 42
0.000000001
 43
0.0000000001
 12
1.0
 22
0.0
 32
0.0
 13
1.0
 23
0.0
 33
0.0
 40
179.8914073632777
 40
179.8914073632777
 40
179.8914073632777
 40
179.8914073632777
 40
182.8654603886271
 40
189.6978050839626
 40
189.6978050839626
 40
189.6978050839626
 40
824.0859030583279
 40
824.0859030583279
 40
824.0859030583279
 40
824.0859030583279
 10
2041.734526532393
 20
235.4270141789853
 30
0.0
 10
2041.740318375723
 20
235.4270141789858
 30
0.0
 10
2041.748589410531
 20
235.4270141789858
 30
0.0
 10
2041.722098113099
 20
235.4270141789851
 30
0.0
 10
2041.69760110708
 20
235.4270141789857
 30
0.0
 10
1932.070688032251
 20
235.4270141789856
 30
0.0
 10
1822.443774957422
 20
235.4270141789855
 30
0.0
 10
1712.816861882594
 20
235.4270141789854
 30
0.0
  0
SPLINE
  5
7A
330
1F
100
AcDbEntity
  8
NOUVELLE VAGUE$EMD0002
100
AcDbSpline
210
0.0
220
0.0
230
1.0
 70
    12
 71
     3
 72
   347
 73
   343
 74
     0
 42
0.000000001
 43
0.0000000001
 12
1.0
 22
0.0
 32
0.0
 13
1.0
 23
0.0
 33
0.0
 40
182.687894452749
 40
182.687894452749
 40
182.687894452749
 40
182.687894452749
 40
182.8654603886271
 40
182.8654603886271
 40
182.8654603886271
 40
182.954458187939
 40
182.954458187939
 40
182.954458187939
 40
183.0692924919349
 40
183.0692924919349
 40
183.0692924919349
 40
189.4907093372647
 40
189.4907093372647
 40
189.4907093372647
 40
195.9541546005183
 40
195.9541546005183
 40
195.9541546005183
 40
202.4692638603798
 40
202.4692638603798
 40
202.4692638603798
 40
208.9857889527235
 40
208.9857889527235
 40
208.9857889527235
 40
215.5045648592403
 40
215.5045648592403
 40
215.5045648592403
 40
222.0281443847172
 40
222.0281443847172
 40
222.0281443847172
 40
228.5531540882309
 40
228.5531540882309
 40
228.5531540882309
 40
235.0890232145995
 40
235.0890232145995
 40
235.0890232145995
 40
241.5685560724723
 40
241.5685560724723
 40
241.5685560724723
 40
247.9848235039091
 40
247.9848235039091
 40
247.9848235039091
 40
254.4079142341099
 40
254.4079142341099
 40
254.4079142341099
 40
260.8337322054342
 40
260.8337322054342
 40
260.8337322054342
 40
267.2653005259477
 40
267.2653005259477
 40
267.2653005259477
 40
273.6928245606033
 40
273.6928245606033
 40
273.6928245606033
 40
280.2167638283571
 40
280.2167638283571
 40
280.2167638283571
 40
286.6934095621427
 40
286.6934095621427
 40
286.6934095621427
 40
293.1697592478694
 40
293.1697592478694
 40
293.1697592478694
 40
299.6262530924968
 40
299.6262530924968
 40
299.6262530924968
 40
306.072441456907
 40
306.072441456907
 40
306.072441456907
 40
312.543904421438
 40
312.543904421438
 40
312.543904421438
 40
319.0534004697064
 40
319.0534004697064
 40
319.0534004697064
 40
325.5726193744829
 40
325.5726193744829
 40
325.5726193744829
 40
332.1141973502459
 40
332.1141973502459
 40
332.1141973502459
 40
345.1482404486435
 40
345.1482404486435
 40
345.1482404486435
 40
351.64823399452
 40
351.64823399452
 40
351.64823399452
 40
358.1298901354411
 40
358.1298901354411
 40
358.1298901354411
 40
364.5943536444175
 40
364.5943536444175
 40
364.5943536444175
 40
371.0483903846425
 40
371.0483903846425
 40
371.0483903846425
 40
377.4988576435931
 40
377.4988576435931
 40
377.4988576435931
 40
383.9485185005557
 40
383.9485185005557
 40
383.9485185005557
 40
390.3966553768834
 40
390.3966553768834
 40
390.3966553768834
 40
396.8415650616633
 40
396.8415650616633
 40
396.8415650616633
 40
403.2841603514765
 40
403.2841603514765
 40
403.2841603514765
 40
409.7179636956607
 40
409.7179636956607
 40
409.7179636956607
 40
416.1317793026802
 40
416.1317793026802
 40
416.1317793026802
 40
422.522212449245
 40
422.522212449245
 40
422.522212449245
 40
428.8895149898665
 40
428.8895149898665
 40
428.8895149898665
 40
435.2340468640592
 40
435.2340468640592
 40
435.2340468640592
 40
441.5564217951962
 40
441.5564217951962
 40
441.5564217951962
 40
447.8642997623239
 40
447.8642997623239
 40
447.8642997623239
 40
454.1628924714018
 40
454.1628924714018
 40
454.1628924714018
 40
460.4510555511299
 40
460.4510555511299
 40
460.4510555511299
 40
466.727956653578
 40
466.727956653578
 40
466.727956653578
 40
472.9916323678945
 40
472.9916323678945
 40
472.9916323678945
 40
479.2429199461281
 40
479.2429199461281
 40
479.2429199461281
 40
485.4728286405248
 40
485.4728286405248
 40
485.4728286405248
 40
491.6832660285623
 40
491.6832660285623
 40
491.6832660285623
 40
497.863324529707
 40
497.863324529707
 40
497.863324529707
 40
504.0160442265137
 40
504.0160442265137
 40
504.0160442265137
 40
510.1400583819414
 40
510.1400583819414
 40
510.1400583819414
 40
516.2394754866464
 40
516.2394754866464
 40
516.2394754866464
 40
534.1443483757502
 40
534.1443483757502
 40
534.1443483757502
 40
557.2556647552589
 40
557.2556647552589
 40
557.2556647552589
 40
614.9203702575493
 40
614.9203702575493
 40
614.9203702575493
 40
638.030580387807
 40
638.030580387807
 40
638.030580387807
 40
655.9403660246841
 40
655.9403660246841
 40
655.9403660246841
 40
662.0393908648628
 40
662.0393908648628
 40
662.0393908648628
 40
668.1633658149636
 40
668.1633658149636
 40
668.1633658149636
 40
674.315872991579
 40
674.315872991579
 40
674.315872991579
 40
680.4959555687068
 40
680.4959555687068
 40
680.4959555687068
 40
686.7019336131696
 40
686.7019336131696
 40
686.7019336131696
 40
692.932274557274
 40
692.932274557274
 40
692.932274557274
 40
699.1863715139045
 40
699.1863715139045
 40
699.1863715139045
 40
705.4521485438365
 40
705.4521485438365
 40
705.4521485438365
 40
711.7277897246056
 40
711.7277897246056
 40
711.7277897246056
 40
718.0135824477541
 40
718.0135824477541
 40
718.0135824477541
 40
724.3119333436903
 40
724.3119333436903
 40
724.3119333436903
 40
730.6216870624763
 40
730.6216870624763
 40
730.6216870624763
 40
736.9455676272073
 40
736.9455676272073
 40
736.9455676272073
 40
743.290133451811
 40
743.290133451811
 40
743.290133451811
 40
749.6582184930876
 40
749.6582184930876
 40
749.6582184930876
 40
756.049394542037
 40
756.049394542037
 40
756.049394542037
 40
762.4629641759767
 40
762.4629641759767
 40
762.4629641759767
 40
768.8969876227844
 40
768.8969876227844
 40
768.8969876227844
 40
775.3403338884684
 40
775.3403338884684
 40
775.3403338884684
 40
781.7851475191303
 40
781.7851475191303
 40
781.7851475191303
 40
788.2320995486966
 40
788.2320995486966
 40
788.2320995486966
 40
794.6809460050104
 40
794.6809460050104
 40
794.6809460050104
 40
801.1324821458679
 40
801.1324821458679
 40
801.1324821458679
 40
807.5866061152315
 40
807.5866061152315
 40
807.5866061152315
 40
814.051083937225
 40
814.051083937225
 40
814.051083937225
 40
820.5312405126285
 40
820.5312405126285
 40
820.5312405126285
 40
827.0265575952133
 40
827.0265575952133
 40
827.0265575952133
 40
833.5376596365287
 40
833.5376596365287
 40
833.5376596365287
 40
840.0617698899875
 40
840.0617698899875
 40
840.0617698899875
 40
846.6032749408282
 40
846.6032749408282
 40
846.6032749408282
 40
853.1125677814629
 40
853.1125677814629
 40
853.1125677814629
 40
859.6420641943937
 40
859.6420641943937
 40
859.6420641943937
 40
866.125855271962
 40
866.125855271962
 40
866.125855271962
 40
872.6031399188521
 40
872.6031399188521
 40
872.6031399188521
 40
879.0445774530401
 40
879.0445774530401
 40
879.0445774530401
 40
885.5534669825122
 40
885.5534669825122
 40
885.5534669825122
 40
892.0275668852072
 40
892.0275668852072
 40
892.0275668852072
 40
898.4825350098233
 40
898.4825350098233
 40
898.4825350098233
 40
904.9103657303648
 40
904.9103657303648
 40
904.9103657303648
 40
911.3408730451039
 40
911.3408730451039
 40
911.3408730451039
 40
917.7663038993389
 40
917.7663038993389
 40
917.7663038993389
 40
924.1888951814881
 40
924.1888951814881
 40
924.1888951814881
 40
930.6060609414019
 40
930.6060609414019
 40
930.6060609414019
 40
937.0861812888346
 40
937.0861812888346
 40
937.0861812888346
 40
943.6218829836247
 40
943.6218829836247
 40
943.6218829836247
 40
950.1467873634068
 40
950.1467873634068
 40
950.1467873634068
 40
956.6702624547981
 40
956.6702624547981
 40
956.6702624547981
 40
963.1890618499598
 40
963.1890618499598
 40
963.1890618499598
 40
969.7060708562452
 40
969.7060708562452
 40
969.7060708562452
 40
976.2359018181204
 40
976.2359018181204
 40
976.2359018181204
 40
982.7121795017058
 40
982.7121795017058
 40
982.7121795017058
 40
989.100677661957
 40
989.100677661957
 40
989.100677661957
 40
989.2159469865574
 40
989.2159469865574
 40
989.2159469865574
 40
989.3053159527584
 40
989.3053159527584
 40
989.3053159527584
 40
989.4852720349477
 40
989.4852720349477
 40
989.4852720349477
 40
989.4852720349477
 10
2056.728247191885
 20
219.7795975578375
 30
0.0
 41
1.0
 10
2056.728184806014
 20
219.7788517298914
 30
0.0
 41
1.0
 10
2056.728122420144
 20
219.7781059019454
 30
0.0
 41
1.0
 10
2056.728060034273
 20
219.7773600739993
 30
0.0
 41
1.0
 10
2056.722592360021
 20
219.7472867055491
 30
0.0
 41
0.9424502841508868
 10
2056.70537352211
 20
219.7220317145043
 30
0.0
 41
0.9424502841508868
 10
2056.679376338228
 20
219.7059553535402
 30
0.0
 41
1.0
 10
2056.647434188241
 20
219.6845836268568
 30
0.0
 41
0.9919945953932906
 10
2056.612573548871
 20
219.6684037792078
 30
0.0
 41
0.9919945953932906
 10
2056.575631640687
 20
219.6578043892737
 30
0.0
 41
1.0
 10
2056.526909017739
 20
219.641804595895
 30
0.0
 41
1.0
 10
2056.459143746919
 20
219.6249468167718
 30
0.0
 41
1.0
 10
2056.380407431612
 20
219.6084334192165
 30
0.0
 41
1.0
 10
2056.301221089285
 20
219.591805606343
 30
0.0
 41
1.0
 10
2056.21064549657
 20
219.5751424695109
 30
0.0
 41
1.0
 10
2056.109952262072
 20
219.5584192153506
 30
0.0
 41
1.0
 10
2056.008443561993
 20
219.541562870971
 30
0.0
 41
1.0
 10
2055.896813340329
 20
219.5247116730253
 30
0.0
 41
1.0
 10
2055.777202391904
 20
219.5077267001589
 30
0.0
 41
1.0
 10
2055.65756162314
 20
219.4907383488569
 30
0.0
 41
1.0
 10
2055.529570873709
 20
219.4734470398962
 30
0.0
 41
1.0
 10
2055.392875595903
 20
219.4559542373073
 30
0.0
 41
1.0
 10
2055.256135932776
 20
219.4384554594048
 30
0.0
 41
1.0
 10
2055.110770734843
 20
219.4207882853744
 30
0.0
 41
1.0
 10
2054.956865446819
 20
219.402952025208
 30
0.0
 41
1.0
 10
2054.802845876588
 20
219.3851025782867
 30
0.0
 41
1.0
 10
2054.640273543934
 20
219.3670882785035
 30
0.0
 41
1.0
 10
2054.469270883338
 20
219.3489329923378
 30
0.0
 41
1.0
 10
2054.298230908292
 20
219.3307737066116
 30
0.0
 41
1.0
 10
2054.118666677835
 20
219.3124184395519
 30
0.0
 41
1.0
 10
2053.930177326498
 20
219.2938905481051
 30
0.0
 41
1.0
 10
2053.741373387832
 20
219.2753317732406
 30
0.0
 41
1.0
 10
2053.544013926969
 20
219.2568356772009
 30
0.0
 41
1.0
 10
2053.339716503239
 20
219.2383882111381
 30
0.0
 41
1.0
 10
2053.137156212455
 20
219.2201015392659
 30
0.0
 41
1.0
 10
2052.925377351557
 20
219.2003417612334
 30
0.0
 41
1.0
 10
2052.693346674075
 20
219.1792580867396
 30
0.0
 41
1.0
 10
2052.463559052795
 20
219.1583821106095
 30
0.0
 41
1.0
 10
2052.216420673131
 20
219.1377288477712
 30
0.0
 41
1.0
 10
2051.952332621272
 20
219.1173199078458
 30
0.0
 41
1.0
 10
2051.687962997691
 20
219.0968892024364
 30
0.0
 41
1.0
 10
2051.406525320611
 20
219.0766547333527
 30
0.0
 41
1.0
 10
2051.108026946647
 20
219.0566217095766
 30
0.0
 41
1.0
 10
2050.809403595716
 20
219.0365800631918
 30
0.0
 41
1.0
 10
2050.493640807433
 20
219.0167209623401
 30
0.0
 41
1.0
 10
2050.160725873939
 20
218.9971042796452
 30
0.0
 41
1.0
 10
2049.827504590382
 20
218.9774704101046
 30
0.0
 41
1.0
 10
2049.477446427086
 20
218.9581963857412
 30
0.0
 41
1.0
 10
2049.110825530555
 20
218.9391324190629
 30
0.0
 41
1.0
 10
2048.744470598974
 20
218.9200796481573
 30
0.0
 41
1.0
 10
2048.360398954997
 20
218.9008810865393
 30
0.0
 41
1.0
 10
2047.958621137142
 20
218.8821700481631
 30
0.0
 41
1.0
 10
2047.550810204785
 20
218.8631859893477
 30
0.0
 41
1.0
 10
2047.127463360941
 20
218.8454964538714
 30
0.0
 41
1.0
 10
2046.690727999485
 20
218.8281221507933
 30
0.0
 41
1.0
 10
2046.257143429169
 20
218.810879667687
 30
0.0
 41
1.0
 10
2045.809061625299
 20
218.7936733040269
 30
0.0
 41
1.0
 10
2045.348458963592
 20
218.7770152421472
 30
0.0
 41
1.0
 10
2044.887897536302
 20
218.7603556406673
 30
0.0
 41
1.0
 10
2044.41354907551
 20
218.7436589135763
 30
0.0
 41
1.0
 10
2043.923597995018
 20
218.726812108022
 30
0.0
 41
1.0
 10
2043.435136707386
 20
218.7100169012575
 30
0.0
 41
1.0
 10
2042.931956902171
 20
218.6933883268552
 30
0.0
 41
1.0
 10
2042.41399825955
 20
218.6769434133831
 30
0.0
 41
1.0
 10
2041.896873315274
 20
218.6605242927137
 30
0.0
 41
1.0
 10
2041.365129217177
 20
218.6443427049544
 30
0.0
 41
1.0
 10
2040.819379323188
 20
218.628491607673
 30
0.0
 41
1.0
 10
2040.271496275929
 20
218.6125777931368
 30
0.0
 41
1.0
 10
2039.709836554954
 20
218.5970989221542
 30
0.0
 41
1.0
 10
2039.135571938221
 20
218.5820289669728
 30
0.0
 41
1.0
 10
2038.557923348696
 20
218.566871871427
 30
0.0
 41
1.0
 10
2037.968495261365
 20
218.5524241526387
 30
0.0
 41
1.0
 10
2037.369306484926
 20
218.5384349636652
 30
0.0
 41
1.0
 10
2036.769220903563
 20
218.524424873894
 30
0.0
 41
1.0
 10
2036.159007265973
 20
218.5108084076179
 30
0.0
 41
1.0
 10
2035.541005793915
 20
218.4976979869999
 30
0.0
 41
1.0
 10
2034.910117319766
 20
218.484249910534
 30
0.0
 41
1.0
 10
2034.279228845616
 20
218.4708018340681
 30
0.0
 41
1.0
 10
2033.648340371466
 20
218.4573537576021
 30
0.0
 41
1.0
 10
2032.320090740126
 20
218.4292973173843
 30
0.0
 41
1.0
 10
2030.991841108786
 20
218.4012408771665
 30
0.0
 41
1.0
 10
2029.663591477445
 20
218.3731844369486
 30
0.0
 41
1.0
 10
2028.974991823457
 20
218.3586433636889
 30
0.0
 41
1.0
 10
2028.272999523825
 20
218.3439053331105
 30
0.0
 41
1.0
 10
2027.557013387488
 20
218.3294581901083
 30
0.0
 41
1.0
 10
2026.843046356747
 20
218.3150507968243
 30
0.0
 41
1.0
 10
2026.114478542131
 20
218.3007094150463
 30
0.0
 41
1.0
 10
2025.369898012171
 20
218.2861857011686
 30
0.0
 41
1.0
 10
2024.627294348596
 20
218.2717022731644
 30
0.0
 41
1.0
 10
2023.868976039732
 20
218.2571072309966
 30
0.0
 41
1.0
 10
2023.09375507912
 20
218.2424711499035
 30
0.0
 41
1.0
 10
2022.319783577113
 20
218.2278579723732
 30
0.0
 41
1.0
 10
2021.529711210247
 20
218.2134167523883
 30
0.0
 41
1.0
 10
2020.723314500013
 20
218.1991959859698
 30
0.0
 41
1.0
 10
2019.917364426401
 20
218.1849831868231
 30
0.0
 41
1.0
 10
2019.095241149083
 20
218.1710231399216
 30
0.0
 41
1.0
 10
2018.256907167771
 20
218.1572489592064
 30
0.0
 41
1.0
 10
2017.418678334645
 20
218.1434766857993
 30
0.0
 41
1.0
 10
2016.564261266212
 20
218.1298980563333
 30
0.0
 41
1.0
 10
2015.69361965595
 20
218.1165292209562
 30
0.0
 41
1.0
 10
2014.823183206158
 20
218.1031633305138
 30
0.0
 41
1.0
 10
2013.936533535845
 20
218.0900060192876
 30
0.0
 41
1.0
 10
2013.03361277083
 20
218.0770307410376
 30
0.0
 41
1.0
 10
2012.131143749484
 20
218.0640619802745
 30
0.0
 41
1.0
 10
2011.212380856228
 20
218.0512666182732
 30
0.0
 41
1.0
 10
2010.277246689437
 20
218.038633865368
 30
0.0
 41
1.0
 10
2009.342448495629
 20
218.0260055835727
 30
0.0
 41
1.0
 10
2008.39146506647
 20
218.0135815871635
 30
0.0
 41
1.0
 10
2007.424393650654
 20
218.0013381004674
 30
0.0
 41
1.0
 10
2006.458642170447
 20
217.9891113169378
 30
0.0
 41
1.0
 10
2005.475659475903
 20
217.9767857390709
 30
0.0
 41
1.0
 10
2004.474393036583
 20
217.9643837548284
 30
0.0
 41
1.0
 10
2003.476237344865
 20
217.9520203695268
 30
0.0
 41
1.0
 10
2002.459409940199
 20
217.9394660084259
 30
0.0
 41
1.0
 10
2001.422378559177
 20
217.9267583632428
 30
0.0
 41
1.0
 10
2000.389127850517
 20
217.9140971537765
 30
0.0
 41
1.0
 10
1999.33594817817
 20
217.9013122230133
 30
0.0
 41
1.0
 10
1998.261438794287
 20
217.8884373431993
 30
0.0
 41
1.0
 10
1997.190820027402
 20
217.8756091645673
 30
0.0
 41
1.0
 10
1996.09899171256
 20
217.8626858020849
 30
0.0
 41
1.0
 10
1994.984624034885
 20
217.8497131595832
 30
0.0
 41
1.0
 10
1993.874242266503
 20
217.8367870350939
 30
0.0
 41
1.0
 10
1992.741393044889
 20
217.8237913079727
 30
0.0
 41
1.0
 10
1991.584584680295
 20
217.8107534758715
 30
0.0
 41
1.0
 10
1990.431816327897
 20
217.7977612863417
 30
0.0
 41
1.0
 10
1989.255870455918
 20
217.784849811861
 30
0.0
 41
1.0
 10
1988.055834313387
 20
217.7720362073279
 30
0.0
 41
1.0
 10
1986.858551782421
 20
217.759251940896
 30
0.0
 41
1.0
 10
1985.638126739649
 20
217.7467238282817
 30
0.0
 41
1.0
 10
1984.394398749957
 20
217.734444189307
 30
0.0
 41
1.0
 10
1983.152503019333
 20
217.7221826011964
 30
0.0
 41
1.0
 10
1981.887173275292
 20
217.7101310267948
 30
0.0
 41
1.0
 10
1980.598050056656
 20
217.6982667707685
 30
0.0
 41
1.0
 10
1979.311062206961
 20
217.6864220252118
 30
0.0
 41
1.0
 10
1978.000422953643
 20
217.6747764884779
 30
0.0
 41
1.0
 10
1976.665860928266
 20
217.6633166835418
 30
0.0
 41
1.0
 10
1975.333688931402
 20
217.6518779095765
 30
0.0
 41
1.0
 10
1973.977690789856
 20
217.6406198556607
 30
0.0
 41
1.0
 10
1972.597476278025
 20
217.629483022336
 30
0.0
 41
1.0
 10
1971.220171356108
 20
217.6183698774179
 30
0.0
 41
1.0
 10
1969.818859726196
 20
217.6074036160364
 30
0.0
 41
1.0
 10
1968.393501181222
 20
217.5965773482204
 30
0.0
 41
1.0
 10
1966.970962381579
 20
217.5857713208816
 30
0.0
 41
1.0
 10
1965.524218697088
 20
217.5750645979761
 30
0.0
 41
1.0
 10
1964.052782026372
 20
217.5644440358256
 30
0.0
 41
1.0
 10
1962.586384619709
 20
217.5538628010728
 30
0.0
 41
1.0
 10
1961.093857883452
 20
217.5431189835591
 30
0.0
 41
1.0
 10
1959.574587595514
 20
217.5321937225709
 30
0.0
 41
1.0
 10
1958.060066247842
 20
217.5213006637967
 30
0.0
 41
1.0
 10
1956.519639266039
 20
217.5103604938156
 30
0.0
 41
1.0
 10
1954.951860430988
 20
217.499404090203
 30
0.0
 41
1.0
 10
1953.39175018591
 20
217.4884995640313
 30
0.0
 41
1.0
 10
1951.804214800788
 20
217.4774900009417
 30
0.0
 41
1.0
 10
1950.188789942219
 20
217.4663756324435
 30
0.0
 41
1.0
 10
1948.580519681055
 20
217.4553133314109
 30
0.0
 41
1.0
 10
1946.944684428132
 20
217.4441828456842
 30
0.0
 41
1.0
 10
1945.280444664972
 20
217.432974132772
 30
0.0
 41
1.0
 10
1943.623974586855
 20
217.4218170258528
 30
0.0
 41
1.0
 10
1941.939081269927
 20
217.410540477802
 30
0.0
 41
1.0
 10
1940.225219055257
 20
217.3991725161905
 30
0.0
 41
1.0
 10
1938.518247232179
 20
217.3878508500333
 30
0.0
 41
1.0
 10
1936.78361294805
 20
217.3765600338965
 30
0.0
 41
1.0
 10
1935.021157960669
 20
217.3652615604588
 30
0.0
 41
1.0
 10
1929.510003246141
 20
217.3264991357632
 30
0.0
 41
1.0
 10
1923.998848531613
 20
217.2877367110675
 30
0.0
 41
1.0
 10
1918.487693817086
 20
217.2489742863718
 30
0.0
 41
1.0
 10
1910.369620823089
 20
217.1810363942642
 30
0.0
 41
0.9999951732081752
 10
1902.251348081271
 20
217.143990713165
 30
0.0
 41
0.9999951732081752
 10
1894.132993147269
 20
217.1378377795099
 30
0.0
 41
1.0
 10
1872.434109823059
 20
217.0777349083618
 30
0.0
 41
0.9999974453952515
 10
1850.73514326076
 20
217.0777025194678
 30
0.0
 41
0.9999974453952515
 10
1829.036259757221
 20
217.1377406130778
 30
0.0
 41
1.0
 10
1820.918233248125
 20
217.1438293923258
 30
0.0
 41
0.999995157180849
 10
1812.800288918308
 20
217.1808609144573
 30
0.0
 41
0.999995157180849
 10
1804.682544708981
 20
217.2488346414616
 30
0.0
 41
1.0
 10
1799.170100883764
 20
217.2876097797371
 30
0.0
 41
1.0
 10
1793.657657058546
 20
217.3263849180126
 30
0.0
 41
1.0
 10
1788.145213233329
 20
217.3651600562881
 30
0.0
 41
1.0
 10
1786.382845551935
 20
217.3764571821748
 30
0.0
 41
1.0
 10
1784.648286801149
 20
217.3877645285262
 30
0.0
 41
1.0
 10
1782.94148191484
 20
217.3990888138288
 30
0.0
 41
1.0
 10
1781.227687949846
 20
217.4104592918393
 30
0.0
 41
1.0
 10
1779.542883796195
 20
217.4217311232664
 30
0.0
 41
1.0
 10
1777.886444277538
 20
217.4328942491512
 30
0.0
 41
1.0
 10
1776.222280959189
 20
217.4441097516113
 30
0.0
 41
1.0
 10
1774.586463215344
 20
217.4552493754847
 30
0.0
 41
1.0
 10
1772.978305407374
 20
217.4663072936146
 30
0.0
 41
1.0
 10
1771.362935729716
 20
217.4774150033418
 30
0.0
 41
1.0
 10
1769.775534158689
 20
217.4884320698739
 30
0.0
 41
1.0
 10
1768.215244588894
 20
217.4993576378566
 30
0.0
 41
1.0
 10
1766.648415162506
 20
217.5103292506285
 30
0.0
 41
1.0
 10
1765.108927186011
 20
217.5212075598269
 30
0.0
 41
1.0
 10
1763.595804152158
 20
217.5319999781314
 30
0.0
 41
1.0
 10
1762.076735083627
 20
217.5428348835968
 30
0.0
 41
1.0
 10
1760.58423501231
 20
217.5535885988631
 30
0.0
 41
1.0
 10
1759.117619989668
 20
217.5642103771762
 30
0.0
 41
1.0
 10
1757.645410206851
 20
217.5748728097689
 30
0.0
 41
1.0
 10
1756.198032874724
 20
217.585574962126
 30
0.0
 41
1.0
 10
1754.774854188935
 20
217.5963835242019
 30
0.0
 41
1.0
 10
1753.349019319084
 20
217.6072124016565
 30
0.0
 41
1.0
 10
1751.947325055881
 20
217.6181749107346
 30
0.0
 41
1.0
 10
1750.569618750521
 20
217.6292966192596
 30
0.0
 41
1.0
 10
1749.189742011939
 20
217.6404358198974
 30
0.0
 41
1.0
 10
1747.833998601083
 20
217.6517229414054
 30
0.0
 41
1.0
 10
1746.502102553708
 20
217.6631846727851
 30
0.0
 41
1.0
 10
1745.168049658214
 20
217.6746648841572
 30
0.0
 41
1.0
 10
1743.857858663844
 20
217.6863325202904
 30
0.0
 41
1.0
 10
1742.571354433841
 20
217.6981919772207
 30
0.0
 41
1.0
 10
1741.282277874095
 20
217.710075072956
 30
0.0
 41
1.0
 10
1740.016977388333
 20
217.7221494733372
 30
0.0
 41
1.0
 10
1738.77509745925
 20
217.7344359058494
 30
0.0
 41
1.0
 10
1737.530968902645
 20
217.7467445944101
 30
0.0
 41
1.0
 10
1736.310188960101
 20
217.7592945018606
 30
0.0
 41
1.0
 10
1735.112524117279
 20
217.7721079433268
 30
0.0
 41
1.0
 10
1733.912177567619
 20
217.7849501213406
 30
0.0
 41
1.0
 10
1732.73596281503
 20
217.7978845684906
 30
0.0
 41
1.0
 10
1731.582924230692
 20
217.8109002511983
 30
0.0
 41
1.0
 10
1730.426113092899
 20
217.8239586274501
 30
0.0
 41
1.0
 10
1729.2932261525
 20
217.8369820911535
 30
0.0
 41
1.0
 10
1728.182849343696
 20
217.8499270072016
 30
0.0
 41
1.0
 10
1727.068354808554
 20
217.8629200385886
 30
0.0
 41
1.0
 10
1725.976407597394
 20
217.875860636413
 30
0.0
 41
1.0
 10
1724.905654099332
 20
217.8887095585779
 30
0.0
 41
1.0
 10
1723.831017683021
 20
217.9016051889351
 30
0.0
 41
1.0
 10
1722.777735883467
 20
217.914405750178
 30
0.0
 41
1.0
 10
1721.744378932155
 20
217.9270827367901
 30
0.0
 41
1.0
 10
1720.70740095874
 20
217.9398042590952
 30
0.0
 41
1.0
 10
1719.690610868398
 20
217.9523754340371
 30
0.0
 41
1.0
 10
1718.692510871169
 20
217.9647500261354
 30
0.0
 41
1.0
 10
1717.691226937093
 20
217.9771641621116
 30
0.0
 41
1.0
 10
1716.708222852393
 20
217.9895013115934
 30
0.0
 41
1.0
 10
1715.742448741725
 20
218.0017395541118
 30
0.0
 41
1.0
 10
1714.775275463582
 20
218.0139955470852
 30
0.0
 41
1.0
 10
1713.824206013416
 20
218.0264287223729
 30
0.0
 41
1.0
 10
1712.88931389453
 20
218.0390687479913
 30
0.0
 41
1.0
 10
1711.954209130143
 20
218.0517116270317
 30
0.0
 41
1.0
 10
1711.035480842464
 20
218.0645158585935
 30
0.0
 41
1.0
 10
1710.13304698224
 20
218.0774941376754
 30
0.0
 41
1.0
 10
1709.230313647646
 20
218.0904766857375
 30
0.0
 41
1.0
 10
1708.343832153104
 20
218.103646333114
 30
0.0
 41
1.0
 10
1707.473563007398
 20
218.1170193173544
 30
0.0
 41
1.0
 10
1706.60303767075
 20
218.130396173075
 30
0.0
 41
1.0
 10
1705.748752099293
 20
218.1439730265789
 30
0.0
 41
1.0
 10
1704.910671278169
 20
218.1577533433984
 30
0.0
 41
1.0
 10
1704.072240926359
 20
218.1715393726145
 30
0.0
 41
1.0
 10
1703.249952593892
 20
218.1855472665569
 30
0.0
 41
1.0
 10
1702.443799159928
 20
218.1997984008995
 30
0.0
 41
1.0
 10
1701.637322770015
 20
218.214055245376
 30
0.0
 41
1.0
 10
1700.847267589062
 20
218.2284818684326
 30
0.0
 41
1.0
 10
1700.073348209475
 20
218.2430755227802
 30
0.0
 41
1.0
 10
1699.298187012144
 20
218.2576926098175
 30
0.0
 41
1.0
 10
1698.539941749664
 20
218.2722704721124
 30
0.0
 41
1.0
 10
1697.797404170366
 20
218.2867711044733
 30
0.0
 41
1.0
 10
1697.053065582934
 20
218.3013069708234
 30
0.0
 41
1.0
 10
1696.324418174324
 20
218.315792254538
 30
0.0
 41
1.0
 10
1695.610362234072
 20
218.3301947396949
 30
0.0
 41
1.0
 10
1694.8946353578
 20
218.3446309790291
 30
0.0
 41
1.0
 10
1694.193569636075
 20
218.3589843647242
 30
0.0
 41
1.0
 10
1693.506067131699
 20
218.3732164808617
 30
0.0
 41
1.0
 10
1692.816895020997
 20
218.3874832279271
 30
0.0
 41
1.0
 10
1692.141411679443
 20
218.4016065272481
 30
0.0
 41
1.0
 10
1691.478379848523
 20
218.4155714541712
 30
0.0
 41
1.0
 10
1690.814021055907
 20
218.4295643556021
 30
0.0
 41
1.0
 10
1690.161983923431
 20
218.4434638541352
 30
0.0
 41
1.0
 10
1689.521444190353
 20
218.4571899505236
 30
0.0
 41
1.0
 10
1688.890605122861
 20
218.4706260748148
 30
0.0
 41
1.0
 10
1688.259766055369
 20
218.4840621991059
 30
0.0
 41
1.0
 10
1687.628926987876
 20
218.497498323397
 30
0.0
 41
1.0
 10
1687.011866227869
 20
218.5105799080658
 30
0.0
 41
1.0
 10
1686.402317014459
 20
218.5242606351294
 30
0.0
 41
1.0
 10
1685.8031228176
 20
218.538259680965
 30
0.0
 41
1.0
 10
1685.202071922563
 20
218.5523023780135
 30
0.0
 41
1.0
 10
1684.61113896906
 20
218.5666691979258
 30
0.0
 41
1.0
 10
1684.031767509941
 20
218.5818240330778
 30
0.0
 41
1.0
 10
1683.456456925304
 20
218.5968744105369
 30
0.0
 41
1.0
 10
1682.893457196506
 20
218.61249286091
 30
0.0
 41
1.0
 10
1682.344658590517
 20
218.6284561571102
 30
0.0
 41
1.0
 10
1681.796418034502
 20
218.6444029076455
 30
0.0
 41
1.0
 10
1681.262851877315
 20
218.6604335390591
 30
0.0
 41
1.0
 10
1680.743442821262
 20
218.6768887243016
 30
0.0
 41
1.0
 10
1680.226891407554
 20
218.6932522028362
 30
0.0
 41
1.0
 10
1679.724495398134
 20
218.7101224690878
 30
0.0
 41
1.0
 10
1679.237459594559
 20
218.7269074654942
 30
0.0
 41
1.0
 10
1678.745328681508
 20
218.7438662414883
 30
0.0
 41
1.0
 10
1678.269144099978
 20
218.7604571744815
 30
0.0
 41
1.0
 10
1677.80644199216
 20
218.7772076756019
 30
0.0
 41
1.0
 10
1677.346234506864
 20
218.7938667791679
 30
0.0
 41
1.0
 10
1676.898920753982
 20
218.8109943494714
 30
0.0
 41
1.0
 10
1676.465783250976
 20
218.8282543399737
 30
0.0
 41
1.0
 10
1676.033915876138
 20
218.8454635366401
 30
0.0
 41
1.0
 10
1675.614404128042
 20
218.863387153686
 30
0.0
 41
1.0
 10
1675.210889276615
 20
218.8823153322692
 30
0.0
 41
1.0
 10
1674.80907774602
 20
218.9011657183356
 30
0.0
 41
1.0
 10
1674.425311096225
 20
218.9201828584858
 30
0.0
 41
1.0
 10
1674.058751967518
 20
218.9392403311695
 30
0.0
 41
1.0
 10
1673.69203584325
 20
218.9583057092822
 30
0.0
 41
1.0
 10
1673.341973748242
 20
218.9776354216484
 30
0.0
 41
1.0
 10
1673.008889480409
 20
218.9972486544057
 30
0.0
 41
1.0
 10
1672.676069820265
 20
219.0168462818076
 30
0.0
 41
1.0
 10
1672.360335529114
 20
219.0366724653775
 30
0.0
 41
1.0
 10
1672.061727420439
 20
219.0566815191851
 30
0.0
 41
1.0
 10
1671.763251028695
 20
219.0766820101375
 30
0.0
 41
1.0
 10
1671.481920852637
 20
219.0968438428353
 30
0.0
 41
1.0
 10
1671.217635846546
 20
219.1172250467562
 30
0.0
 41
1.0
 10
1670.953574211105
 20
219.1375890441796
 30
0.0
 41
1.0
 10
1670.706378150678
 20
219.1582558852934
 30
0.0
 41
1.0
 10
1670.47653334443
 20
219.1791464757144
 30
0.0
 41
1.0
 10
1670.244457263717
 20
219.2002435059223
 30
0.0
 41
1.0
 10
1670.032665491732
 20
219.2199974730105
 30
0.0
 41
1.0
 10
1669.830090934955
 20
219.2382809762321
 30
0.0
 41
1.0
 10
1669.625802952571
 20
219.2567230748029
 30
0.0
 41
1.0
 10
1669.428442814625
 20
219.2752213631284
 30
0.0
 41
1.0
 10
1669.239640655835
 20
219.2937805990205
 30
0.0
 41
1.0
 10
1669.051151247667
 20
219.3123091013505
 30
0.0
 41
1.0
 10
1668.871590358888
 20
219.3306617960777
 30
0.0
 41
1.0
 10
1668.70055150068
 20
219.3488190539784
 30
0.0
 41
1.0
 10
1668.529549851905
 20
219.3669723131079
 30
0.0
 41
1.0
 10
1668.366975509447
 20
219.3849866223141
 30
0.0
 41
1.0
 10
1668.212960446532
 20
219.4028327011811
 30
0.0
 41
1.0
 10
1668.059057132336
 20
219.4206659519259
 30
0.0
 41
1.0
 10
1667.913701774607
 20
219.4383231356886
 30
0.0
 41
1.0
 10
1667.776956256936
 20
219.4558221769967
 30
0.0
 41
1.0
 10
1667.640243422689
 20
219.4733166828723
 30
0.0
 41
1.0
 10
1667.512233816541
 20
219.4906225891267
 30
0.0
 41
1.0
 10
1667.392563708157
 20
219.5076284037842
 30
0.0
 41
1.0
 10
1667.272660009588
 20
219.5246675096001
 30
0.0
 41
1.0
 10
1667.160700673344
 20
219.5416036348836
 30
0.0
 41
1.0
 10
1667.059109942178
 20
219.5584293848188
 30
0.0
 41
1.0
 10
1666.95837627377
 20
219.5751184837516
 30
0.0
 41
1.0
 10
1666.868051855391
 20
219.591557022684
 30
0.0
 41
1.0
 10
1666.788790301137
 20
219.6081598829697
 30
0.0
 41
1.0
 10
1666.71052550393
 20
219.6245309076728
 30
0.0
 41
1.0
 10
1666.642864003224
 20
219.6415113566692
 30
0.0
 41
1.0
 10
1666.59436599405
 20
219.6575487485161
 30
0.0
 41
1.0
 10
1666.557314618045
 20
219.6682806456307
 30
0.0
 41
0.9921845672245162
 10
1666.52233606549
 20
219.6845434541438
 30
0.0
 41
0.9921845672245162
 10
1666.490250453965
 20
219.7059558713955
 30
0.0
 41
1.0
 10
1666.464108232916
 20
219.7220405412161
 30
0.0
 41
0.9424305625009047
 10
1666.446762098087
 20
219.7473633359091
 30
0.0
 41
0.9424305625009047
 10
1666.441207871151
 20
219.7775507983352
 30
0.0
 41
1.0
 10
1666.441143972394
 20
219.7783085130551
 30
0.0
 41
1.0
 10
1666.441080073636
 20
219.7790662277749
 30
0.0
 41
1.0
 10
1666.441016174878
 20
219.7798239424947
 30
0.0
 41
1.0
  0
ENDSEC
  0
SECTION
  2
OBJECTS
  0
DICTIONARY
  5
C
330
0
100
AcDbDictionary
281
     1
  3
ACAD_GROUP
350
D
  3
ACAD_LAYOUT
350
1A
  3
ACAD_MATERIAL
350
3B
  3
ACAD_MLEADERSTYLE
350
A5
  3
ACAD_MLINESTYLE
350
17
  3
ACAD_PLOTSETTINGS
350
19
  3
ACAD_PLOTSTYLENAME
350
E
  3
ACAD_SCALELIST
350
3F
  3
ACAD_TABLESTYLE
350
A4
  3
ACAD_VISUALSTYLE
350
2A
  3
AcDbVariableDictionary
350
7B
  0
DICTIONARY
  5
D
102
{ACAD_REACTORS
330
C
102
}
330
C
100
AcDbDictionary
281
     1
  0
DICTIONARY
  5
1A
102
{ACAD_REACTORS
330
C
102
}
330
C
100
AcDbDictionary
281
     1
  3
Layout1
350
1E
  3
Layout2
350
26
  3
Model
350
22
  0
DICTIONARY
  5
3B
102
{ACAD_REACTORS
330
C
102
}
330
C
100
AcDbDictionary
281
     1
  3
ByBlock
350
3D
  3
ByLayer
350
3C
  3
Global
350
3E
  0
DICTIONARY
  5
A5
102
{ACAD_REACTORS
330
C
102
}
330
C
100
AcDbDictionary
281
     1
  0
DICTIONARY
  5
17
102
{ACAD_REACTORS
330
C
102
}
330
C
100
AcDbDictionary
281
     1
  3
Standard
350
18
  0
DICTIONARY
  5
19
102
{ACAD_REACTORS
330
C
102
}
330
C
100
AcDbDictionary
281
     1
  0
ACDBDICTIONARYWDFLT
  5
E
102
{ACAD_REACTORS
330
C
102
}
330
C
100
AcDbDictionary
281
     1
  3
Normal
350
F
100
AcDbDictionaryWithDefault
340
F
  0
DICTIONARY
  5
3F
102
{ACAD_REACTORS
330
C
102
}
330
C
100
AcDbDictionary
281
     1
  3
A0
350
40
  3
A1
350
41
  3
A2
350
42
  3
A3
350
43
  3
A4
350
44
  3
A5
350
45
  3
A6
350
46
  3
A7
350
47
  3
A8
350
48
  3
A9
350
49
  3
B0
350
4A
  3
B1
350
4B
  3
B2
350
4C
  3
B3
350
4D
  3
B4
350
4E
  3
B5
350
4F
  3
B6
350
50
  3
B7
350
51
  3
B8
350
52
  3
B9
350
53
  3
C0
350
54
  3
C1
350
55
  3
C2
350
56
  3
C3
350
57
  3
C4
350
58
  3
C5
350
59
  3
C6
350
5A
  3
C7
350
5B
  3
C8
350
5C
  3
C9
350
5D
  3
D0
350
5E
  3
D1
350
5F
  3
D2
350
60
  0
DICTIONARY
  5
A4
102
{ACAD_REACTORS
330
C
102
}
330
C
100
AcDbDictionary
281
     1
  0
DICTIONARY
  5
2A
102
{ACAD_REACTORS
330
C
102
}
330
C
100
AcDbDictionary
281
     1
  3
2dWireframe
350
2F
  3
3D Hidden
350
31
  3
3dWireframe
350
30
  3
Basic
350
32
  3
Brighten
350
36
  3
ColorChange
350
3A
  3
Conceptual
350
34
  3
Dim
350
35
  3
Facepattern
350
39
  3
Flat
350
2B
  3
FlatWithEdges
350
2C
  3
Gouraud
350
2D
  3
GouraudWithEdges
350
2E
  3
Linepattern
350
38
  3
Realistic
350
33
  3
Thicken
350
37
  0
DICTIONARY
  5
7B
102
{ACAD_REACTORS
330
C
102
}
330
C
100
AcDbDictionary
281
     1
  3
CANNOSCALE
350
7C
  3
MSLTSCALE
350
7D
  0
LAYOUT
  5
1E
102
{ACAD_REACTORS
330
1A
102
}
330
1A
100
AcDbPlotSettings
  1

  2
none_device
  4

  6

 40
0.0
 41
0.0
 42
0.0
 43
0.0
 44
0.0
 45
0.0
 46
0.0
 47
0.0
 48
0.0
 49
0.0
140
0.0
141
0.0
142
1.0
143
1.0
 70
   688
 72
     0
 73
     0
 74
     5
  7

 75
    16
 76
     0
 77
     2
 78
   300
147
1.0
148
0.0
149
0.0
100
AcDbLayout
  1
Layout1
 70
     1
 71
     1
 10
0.0
 20
0.0
 11
12.0
 21
9.0
 12
0.0
 22
0.0
 32
0.0
 14
1.000000000000000E+20
 24
1.000000000000000E+20
 34
1.000000000000000E+20
 15
-1.000000000000000E+20
 25
-1.000000000000000E+20
 35
-1.000000000000000E+20
146
0.0
 13
0.0
 23
0.0
 33
0.0
 16
1.0
 26
0.0
 36
0.0
 17
0.0
 27
1.0
 37
0.0
 76
     0
330
1B
  0
LAYOUT
  5
26
102
{ACAD_REACTORS
330
1A
102
}
330
1A
100
AcDbPlotSettings
  1

  2
none_device
  4

  6

 40
0.0
 41
0.0
 42
0.0
 43
0.0
 44
0.0
 45
0.0
 46
0.0
 47
0.0
 48
0.0
 49
0.0
140
0.0
141
0.0
142
1.0
143
1.0
 70
   688
 72
     0
 73
     0
 74
     5
  7

 75
    16
 76
     0
 77
     2
 78
   300
147
1.0
148
0.0
149
0.0
100
AcDbLayout
  1
Layout2
 70
     1
 71
     2
 10
0.0
 20
0.0
 11
0.0
 21
0.0
 12
0.0
 22
0.0
 32
0.0
 14
0.0
 24
0.0
 34
0.0
 15
0.0
 25
0.0
 35
0.0
146
0.0
 13
0.0
 23
0.0
 33
0.0
 16
1.0
 26
0.0
 36
0.0
 17
0.0
 27
1.0
 37
0.0
 76
     0
330
23
  0
LAYOUT
  5
22
102
{ACAD_REACTORS
330
1A
102
}
330
1A
100
AcDbPlotSettings
  1

  2
none_device
  4
Letter_(8.50_x_11.00_Inches)
  6

 40
6.35
 41
6.35
 42
6.35000508
 43
6.35000508
 44
215.9
 45
279.4
 46
0.0
 47
0.0
 48
0.0
 49
0.0
140
0.0
141
0.0
142
1.0
143
1.0
 70
  1712
 72
     0
 73
     0
 74
     0
  7

 75
     0
 76
     0
 77
     2
 78
   300
147
1.0
148
0.0
149
0.0
100
AcDbLayout
  1
Model
 70
     1
 71
     0
 10
0.0
 20
0.0
 11
12.0
 21
9.0
 12
0.0
 22
0.0
 32
0.0
 14
1666.42702551642
 24
-79.5729858210325
 34
0.0
 15
2056.742246770573
 25
235.4270141793861
 35
0.0
146
0.0
 13
0.0
 23
0.0
 33
0.0
 16
1.0
 26
0.0
 36
0.0
 17
0.0
 27
1.0
 37
0.0
 76
     0
330
1F
331
29
  0
MATERIAL
  5
3D
102
{ACAD_REACTORS
330
3B
102
}
102
{ACAD_XDICTIONARY
360
A0
102
}
330
3B
100
AcDbMaterial
  1
ByBlock
  0
MATERIAL
  5
3C
102
{ACAD_REACTORS
330
3B
102
}
102
{ACAD_XDICTIONARY
360
9E
102
}
330
3B
100
AcDbMaterial
  1
ByLayer
  0
MATERIAL
  5
3E
102
{ACAD_REACTORS
330
3B
102
}
102
{ACAD_XDICTIONARY
360
A2
102
}
330
3B
100
AcDbMaterial
  1
Global
  0
MLINESTYLE
  5
18
102
{ACAD_REACTORS
330
17
102
}
330
17
100
AcDbMlineStyle
  2
Standard
 70
     0
  3

 62
   256
 51
90.0
 52
90.0
 71
     2
 49
0.5
 62
   256
  6
BYLAYER
 49
-0.5
 62
   256
  6
BYLAYER
  0
ACDBPLACEHOLDER
  5
F
102
{ACAD_REACTORS
330
E
102
}
330
E
  0
SCALE
  5
40
102
{ACAD_REACTORS
330
3F
102
}
330
3F
100
AcDbScale
 70
     0
300
1:1
140
1.0
141
1.0
290
     1
  0
SCALE
  5
41
102
{ACAD_REACTORS
330
3F
102
}
330
3F
100
AcDbScale
 70
     0
300
1:2
140
1.0
141
2.0
290
     0
  0
SCALE
  5
42
102
{ACAD_REACTORS
330
3F
102
}
330
3F
100
AcDbScale
 70
     0
300
1:4
140
1.0
141
4.0
290
     0
  0
SCALE
  5
43
102
{ACAD_REACTORS
330
3F
102
}
330
3F
100
AcDbScale
 70
     0
300
1:5
140
1.0
141
5.0
290
     0
  0
SCALE
  5
44
102
{ACAD_REACTORS
330
3F
102
}
330
3F
100
AcDbScale
 70
     0
300
1:8
140
1.0
141
8.0
290
     0
  0
SCALE
  5
45
102
{ACAD_REACTORS
330
3F
102
}
330
3F
100
AcDbScale
 70
     0
300
1:10
140
1.0
141
10.0
290
     0
  0
SCALE
  5
46
102
{ACAD_REACTORS
330
3F
102
}
330
3F
100
AcDbScale
 70
     0
300
1:16
140
1.0
141
16.0
290
     0
  0
SCALE
  5
47
102
{ACAD_REACTORS
330
3F
102
}
330
3F
100
AcDbScale
 70
     0
300
1:20
140
1.0
141
20.0
290
     0
  0
SCALE
  5
48
102
{ACAD_REACTORS
330
3F
102
}
330
3F
100
AcDbScale
 70
     0
300
1:30
140
1.0
141
30.0
290
     0
  0
SCALE
  5
49
102
{ACAD_REACTORS
330
3F
102
}
330
3F
100
AcDbScale
 70
     0
300
1:40
140
1.0
141
40.0
290
     0
  0
SCALE
  5
4A
102
{ACAD_REACTORS
330
3F
102
}
330
3F
100
AcDbScale
 70
     0
300
1:50
140
1.0
141
50.0
290
     0
  0
SCALE
  5
4B
102
{ACAD_REACTORS
330
3F
102
}
330
3F
100
AcDbScale
 70
     0
300
1:100
140
1.0
141
100.0
290
     0
  0
SCALE
  5
4C
102
{ACAD_REACTORS
330
3F
102
}
330
3F
100
AcDbScale
 70
     0
300
2:1
140
2.0
141
1.0
290
     0
  0
SCALE
  5
4D
102
{ACAD_REACTORS
330
3F
102
}
330
3F
100
AcDbScale
 70
     0
300
4:1
140
4.0
141
1.0
290
     0
  0
SCALE
  5
4E
102
{ACAD_REACTORS
330
3F
102
}
330
3F
100
AcDbScale
 70
     0
300
8:1
140
8.0
141
1.0
290
     0
  0
SCALE
  5
4F
102
{ACAD_REACTORS
330
3F
102
}
330
3F
100
AcDbScale
 70
     0
300
10:1
140
10.0
141
1.0
290
     0
  0
SCALE
  5
50
102
{ACAD_REACTORS
330
3F
102
}
330
3F
100
AcDbScale
 70
     0
300
100:1
140
100.0
141
1.0
290
     0
  0
SCALE
  5
51
102
{ACAD_REACTORS
330
3F
102
}
330
3F
100
AcDbScale
 70
     0
300
1/128" = 1'-0"
140
0.0078125
141
12.0
290
     0
  0
SCALE
  5
52
102
{ACAD_REACTORS
330
3F
102
}
330
3F
100
AcDbScale
 70
     0
300
1/64" = 1'-0"
140
0.015625
141
12.0
290
     0
  0
SCALE
  5
53
102
{ACAD_REACTORS
330
3F
102
}
330
3F
100
AcDbScale
 70
     0
300
1/32" = 1'-0"
140
0.03125
141
12.0
290
     0
  0
SCALE
  5
54
102
{ACAD_REACTORS
330
3F
102
}
330
3F
100
AcDbScale
 70
     0
300
1/16" = 1'-0"
140
0.0625
141
12.0
290
     0
  0
SCALE
  5
55
102
{ACAD_REACTORS
330
3F
102
}
330
3F
100
AcDbScale
 70
     0
300
3/32" = 1'-0"
140
0.09375
141
12.0
290
     0
  0
SCALE
  5
56
102
{ACAD_REACTORS
330
3F
102
}
330
3F
100
AcDbScale
 70
     0
300
1/8" = 1'-0"
140
0.125
141
12.0
290
     0
  0
SCALE
  5
57
102
{ACAD_REACTORS
330
3F
102
}
330
3F
100
AcDbScale
 70
     0
300
3/16" = 1'-0"
140
0.1875
141
12.0
290
     0
  0
SCALE
  5
58
102
{ACAD_REACTORS
330
3F
102
}
330
3F
100
AcDbScale
 70
     0
300
1/4" = 1'-0"
140
0.25
141
12.0
290
     0
  0
SCALE
  5
59
102
{ACAD_REACTORS
330
3F
102
}
330
3F
100
AcDbScale
 70
     0
300
3/8" = 1'-0"
140
0.375
141
12.0
290
     0
  0
SCALE
  5
5A
102
{ACAD_REACTORS
330
3F
102
}
330
3F
100
AcDbScale
 70
     0
300
1/2" = 1'-0"
140
0.5
141
12.0
290
     0
  0
SCALE
  5
5B
102
{ACAD_REACTORS
330
3F
102
}
330
3F
100
AcDbScale
 70
     0
300
3/4" = 1'-0"
140
0.75
141
12.0
290
     0
  0
SCALE
  5
5C
102
{ACAD_REACTORS
330
3F
102
}
330
3F
100
AcDbScale
 70
     0
300
1" = 1'-0"
140
1.0
141
12.0
290
     0
  0
SCALE
  5
5D
102
{ACAD_REACTORS
330
3F
102
}
330
3F
100
AcDbScale
 70
     0
300
1-1/2" = 1'-0"
140
1.5
141
12.0
290
     0
  0
SCALE
  5
5E
102
{ACAD_REACTORS
330
3F
102
}
330
3F
100
AcDbScale
 70
     0
300
3" = 1'-0"
140
3.0
141
12.0
290
     0
  0
SCALE
  5
5F
102
{ACAD_REACTORS
330
3F
102
}
330
3F
100
AcDbScale
 70
     0
300
6" = 1'-0"
140
6.0
141
12.0
290
     0
  0
SCALE
  5
60
102
{ACAD_REACTORS
330
3F
102
}
330
3F
100
AcDbScale
 70
     0
300
1'-0" = 1'-0"
140
12.0
141
12.0
290
     0
  0
VISUALSTYLE
  5
2F
102
{ACAD_REACTORS
330
2A
102
}
102
{ACAD_XDICTIONARY
360
86
102
}
330
2A
100
AcDbVisualStyle
  2
2dWireframe
 70
     4
 71
     0
 72
     2
 73
     0
 90
        0
 40
0.6
 41
30.0
 62
     5
 63
     7
421
 16777215
 74
     1
 91
        4
 64
     7
 65
   257
 75
     1
175
     1
 42
1.0
 92
        0
 66
   257
 43
1.0
 76
     1
 77
     6
 78
     2
 67
     7
 79
     5
170
     0
171
     0
290
     0
174
     0
 93
        1
 44
0.0
173
     0
291
     0
 45
0.0
1001
ACAD
1000
AcDbSavedByObjectVersion
1070
     0
  0
VISUALSTYLE
  5
31
102
{ACAD_REACTORS
330
2A
102
}
102
{ACAD_XDICTIONARY
360
8A
102
}
330
2A
100
AcDbVisualStyle
  2
3D Hidden
 70
     6
 71
     1
 72
     2
 73
     2
 90
        0
 40
0.6
 41
30.0
 62
     5
 63
     7
421
 16777215
 74
     2
 91
        2
 64
     7
 65
   257
 75
     2
175
     1
 42
40.0
 92
        0
 66
   257
 43
1.0
 76
     1
 77
     6
 78
     2
 67
     7
 79
     3
170
     0
171
     0
290
     0
174
     0
 93
        1
 44
0.0
173
     0
291
     0
 45
0.0
1001
ACAD
1000
AcDbSavedByObjectVersion
1070
     0
  0
VISUALSTYLE
  5
30
102
{ACAD_REACTORS
330
2A
102
}
102
{ACAD_XDICTIONARY
360
88
102
}
330
2A
100
AcDbVisualStyle
  2
3dWireframe
 70
     5
 71
     0
 72
     2
 73
     0
 90
        0
 40
0.6
 41
30.0
 62
     5
 63
     7
421
 16777215
 74
     1
 91
        4
 64
     7
 65
   257
 75
     1
175
     1
 42
1.0
 92
        0
 66
   257
 43
1.0
 76
     1
 77
     6
 78
     2
 67
     7
 79
     5
170
     0
171
     0
290
     0
174
     0
 93
        1
 44
0.0
173
     0
291
     0
 45
0.0
1001
ACAD
1000
AcDbSavedByObjectVersion
1070
     0
  0
VISUALSTYLE
  5
32
102
{ACAD_REACTORS
330
2A
102
}
102
{ACAD_XDICTIONARY
360
8C
102
}
330
2A
100
AcDbVisualStyle
  2
Basic
 70
     7
 71
     1
 72
     0
 73
     1
 90
        0
 40
0.6
 41
30.0
 62
     5
 63
     7
421
 16777215
 74
     0
 91
        4
 64
     7
 65
   257
 75
     1
175
     1
 42
1.0
 92
        8
 66
     7
 43
1.0
 76
     1
 77
     6
 78
     2
 67
     7
 79
     5
170
     0
171
     0
290
     0
174
     0
 93
        1
 44
0.0
173
     0
291
     1
 45
0.0
1001
ACAD
1000
AcDbSavedByObjectVersion
1070
     0
  0
VISUALSTYLE
  5
36
102
{ACAD_REACTORS
330
2A
102
}
102
{ACAD_XDICTIONARY
360
94
102
}
330
2A
100
AcDbVisualStyle
  2
Brighten
 70
    12
 71
     2
 72
     2
 73
     0
 90
        0
 40
0.6
 41
30.0
 62
     5
 63
     7
421
 16777215
 74
     1
 91
        4
 64
     7
 65
   257
 75
     1
175
     1
 42
1.0
 92
        8
 66
     7
 43
1.0
 76
     1
 77
     6
 78
     2
 67
     7
 79
     5
170
     0
171
     0
290
     0
174
     0
 93
        1
 44
50.0
173
     0
291
     1
 45
0.0
1001
ACAD
1000
AcDbSavedByObjectVersion
1070
     0
  0
VISUALSTYLE
  5
3A
102
{ACAD_REACTORS
330
2A
102
}
102
{ACAD_XDICTIONARY
360
9C
102
}
330
2A
100
AcDbVisualStyle
  2
ColorChange
 70
    16
 71
     2
 72
     2
 73
     3
 90
        0
 40
0.6
 41
30.0
 62
     5
 63
     8
421
  8421504
 74
     1
 91
        4
 64
     7
 65
   257
 75
     1
175
     1
 42
1.0
 92
        8
 66
     8
424
  8421504
 43
1.0
 76
     1
 77
     6
 78
     2
 67
     7
 79
     5
170
     0
171
     0
290
     0
174
     0
 93
        1
 44
0.0
173
     0
291
     1
 45
0.0
1001
ACAD
1000
AcDbSavedByObjectVersion
1070
     0
  0
VISUALSTYLE
  5
34
102
{ACAD_REACTORS
330
2A
102
}
102
{ACAD_XDICTIONARY
360
90
102
}
330
2A
100
AcDbVisualStyle
  2
Conceptual
 70
     9
 71
     3
 72
     2
 73
     0
 90
        0
 40
0.6
 41
30.0
 62
     5
 63
     7
421
 16777215
 74
     2
 91
        2
 64
     7
 65
   257
 75
     1
175
     1
 42
40.0
 92
        8
 66
     7
 43
1.0
 76
     1
 77
     6
 78
     2
 67
     7
 79
     3
170
     0
171
     0
290
     0
174
     0
 93
        1
 44
0.0
173
     0
291
     0
 45
0.0
1001
ACAD
1000
AcDbSavedByObjectVersion
1070
     0
  0
VISUALSTYLE
  5
35
102
{ACAD_REACTORS
330
2A
102
}
102
{ACAD_XDICTIONARY
360
92
102
}
330
2A
100
AcDbVisualStyle
  2
Dim
 70
    11
 71
     2
 72
     2
 73
     0
 90
        0
 40
0.6
 41
30.0
 62
     5
 63
     7
421
 16777215
 74
     1
 91
        4
 64
     7
 65
   257
 75
     1
175
     1
 42
1.0
 92
        8
 66
     7
 43
1.0
 76
     1
 77
     6
 78
     2
 67
     7
 79
     5
170
     0
171
     0
290
     0
174
     0
 93
        1
 44
-50.0
173
     0
291
     1
 45
0.0
1001
ACAD
1000
AcDbSavedByObjectVersion
1070
     0
  0
VISUALSTYLE
  5
39
102
{ACAD_REACTORS
330
2A
102
}
102
{ACAD_XDICTIONARY
360
9A
102
}
330
2A
100
AcDbVisualStyle
  2
Facepattern
 70
    15
 71
     2
 72
     2
 73
     0
 90
        0
 40
0.6
 41
30.0
 62
     5
 63
     7
421
 16777215
 74
     1
 91
        4
 64
     7
 65
   257
 75
     1
175
     1
 42
1.0
 92
        8
 66
     7
 43
1.0
 76
     1
 77
     6
 78
     2
 67
     7
 79
     5
170
     0
171
     0
290
     0
174
     0
 93
        1
 44
0.0
173
     0
291
     1
 45
0.0
1001
ACAD
1000
AcDbSavedByObjectVersion
1070
     0
  0
VISUALSTYLE
  5
2B
102
{ACAD_REACTORS
330
2A
102
}
102
{ACAD_XDICTIONARY
360
7E
102
}
330
2A
100
AcDbVisualStyle
  2
Flat
 70
     0
 71
     2
 72
     1
 73
     1
 90
        2
 40
0.6
 41
30.0
 62
     5
 63
     7
421
 16777215
 74
     0
 91
        4
 64
     7
 65
   257
 75
     1
175
     1
 42
1.0
 92
        8
 66
     7
 43
1.0
 76
     1
 77
     6
 78
     2
 67
     7
 79
     5
170
     0
171
     0
290
     0
174
     0
 93
       13
 44
0.0
173
     0
291
     1
 45
0.0
1001
ACAD
1000
AcDbSavedByObjectVersion
1070
     0
  0
VISUALSTYLE
  5
2C
102
{ACAD_REACTORS
330
2A
102
}
102
{ACAD_XDICTIONARY
360
80
102
}
330
2A
100
AcDbVisualStyle
  2
FlatWithEdges
 70
     1
 71
     2
 72
     1
 73
     1
 90
        2
 40
0.6
 41
30.0
 62
     5
 63
     7
421
 16777215
 74
     1
 91
        4
 64
     7
 65
   257
 75
     1
175
     1
 42
1.0
 92
        0
 66
   257
 43
1.0
 76
     1
 77
     6
 78
     2
 67
     7
 79
     5
170
     0
171
     0
290
     0
174
     0
 93
       13
 44
0.0
173
     0
291
     1
 45
0.0
1001
ACAD
1000
AcDbSavedByObjectVersion
1070
     0
  0
VISUALSTYLE
  5
2D
102
{ACAD_REACTORS
330
2A
102
}
102
{ACAD_XDICTIONARY
360
82
102
}
330
2A
100
AcDbVisualStyle
  2
Gouraud
 70
     2
 71
     2
 72
     2
 73
     1
 90
        2
 40
0.6
 41
30.0
 62
     5
 63
     7
421
 16777215
 74
     0
 91
        4
 64
     7
 65
   257
 75
     1
175
     1
 42
1.0
 92
        0
 66
     7
 43
1.0
 76
     1
 77
     6
 78
     2
 67
     7
 79
     5
170
     0
171
     0
290
     0
174
     0
 93
       13
 44
0.0
173
     0
291
     1
 45
0.0
1001
ACAD
1000
AcDbSavedByObjectVersion
1070
     0
  0
VISUALSTYLE
  5
2E
102
{ACAD_REACTORS
330
2A
102
}
102
{ACAD_XDICTIONARY
360
84
102
}
330
2A
100
AcDbVisualStyle
  2
GouraudWithEdges
 70
     3
 71
     2
 72
     2
 73
     1
 90
        2
 40
0.6
 41
30.0
 62
     5
 63
     7
421
 16777215
 74
     1
 91
        4
 64
     7
 65
   257
 75
     1
175
     1
 42
1.0
 92
        0
 66
   257
 43
1.0
 76
     1
 77
     6
 78
     2
 67
     7
 79
     5
170
     0
171
     0
290
     0
174
     0
 93
       13
 44
0.0
173
     0
291
     1
 45
0.0
1001
ACAD
1000
AcDbSavedByObjectVersion
1070
     0
  0
VISUALSTYLE
  5
38
102
{ACAD_REACTORS
330
2A
102
}
102
{ACAD_XDICTIONARY
360
98
102
}
330
2A
100
AcDbVisualStyle
  2
Linepattern
 70
    14
 71
     2
 72
     2
 73
     0
 90
        0
 40
0.6
 41
30.0
 62
     5
 63
     7
421
 16777215
 74
     1
 91
        4
 64
     7
 65
   257
 75
     7
175
     7
 42
1.0
 92
        8
 66
     7
 43
1.0
 76
     1
 77
     6
 78
     2
 67
     7
 79
     5
170
     0
171
     0
290
     0
174
     0
 93
        1
 44
0.0
173
     0
291
     1
 45
0.0
1001
ACAD
1000
AcDbSavedByObjectVersion
1070
     0
  0
VISUALSTYLE
  5
33
102
{ACAD_REACTORS
330
2A
102
}
102
{ACAD_XDICTIONARY
360
8E
102
}
330
2A
100
AcDbVisualStyle
  2
Realistic
 70
     8
 71
     2
 72
     3
 73
     0
 90
        2
 40
0.6
 41
30.0
 62
     5
 63
     7
421
 16777215
 74
     0
 91
        0
 64
     7
 65
   257
 75
     1
175
     1
 42
1.0
 92
        8
 66
   257
 43
1.0
 76
     1
 77
     6
 78
     2
 67
     7
 79
     3
170
     0
171
     0
290
     0
174
     0
 93
       13
 44
0.0
173
     0
291
     0
 45
0.0
1001
ACAD
1000
AcDbSavedByObjectVersion
1070
     0
  0
VISUALSTYLE
  5
37
102
{ACAD_REACTORS
330
2A
102
}
102
{ACAD_XDICTIONARY
360
96
102
}
330
2A
100
AcDbVisualStyle
  2
Thicken
 70
    13
 71
     2
 72
     2
 73
     0
 90
        0
 40
0.6
 41
30.0
 62
     5
 63
     7
421
 16777215
 74
     1
 91
        4
 64
     7
 65
   257
 75
     1
175
     1
 42
1.0
 92
       12
 66
     7
 43
1.0
 76
     1
 77
     6
 78
     2
 67
     7
 79
     5
170
     0
171
     0
290
     0
174
     0
 93
        1
 44
0.0
173
     0
291
     1
 45
0.0
1001
ACAD
1000
AcDbSavedByObjectVersion
1070
     0
  0
DICTIONARYVAR
  5
7C
102
{ACAD_REACTORS
330
7B
102
}
330
7B
100
DictionaryVariables
280
     0
  1
1:1
  0
DICTIONARYVAR
  5
7D
102
{ACAD_REACTORS
330
7B
102
}
330
7B
100
DictionaryVariables
280
     0
  1
1
  0
DICTIONARY
  5
A0
330
3D
100
AcDbDictionary
280
     1
281
     1
  3
ACAD_XREC_ROUNDTRIP
360
A1
  0
DICTIONARY
  5
9E
330
3C
100
AcDbDictionary
280
     1
281
     1
  3
ACAD_XREC_ROUNDTRIP
360
9F
  0
DICTIONARY
  5
A2
330
3E
100
AcDbDictionary
280
     1
281
     1
  3
ACAD_XREC_ROUNDTRIP
360
A3
  0
DICTIONARY
  5
86
330
2F
100
AcDbDictionary
280
     1
281
     1
  3
ACAD_XREC_ROUNDTRIP
360
87
  0
DICTIONARY
  5
8A
330
31
100
AcDbDictionary
280
     1
281
     1
  3
ACAD_XREC_ROUNDTRIP
360
8B
  0
DICTIONARY
  5
88
330
30
100
AcDbDictionary
280
     1
281
     1
  3
ACAD_XREC_ROUNDTRIP
360
89
  0
DICTIONARY
  5
8C
330
32
100
AcDbDictionary
280
     1
281
     1
  3
ACAD_XREC_ROUNDTRIP
360
8D
  0
DICTIONARY
  5
94
330
36
100
AcDbDictionary
280
     1
281
     1
  3
ACAD_XREC_ROUNDTRIP
360
95
  0
DICTIONARY
  5
9C
330
3A
100
AcDbDictionary
280
     1
281
     1
  3
ACAD_XREC_ROUNDTRIP
360
9D
  0
DICTIONARY
  5
90
330
34
100
AcDbDictionary
280
     1
281
     1
  3
ACAD_XREC_ROUNDTRIP
360
91
  0
DICTIONARY
  5
92
330
35
100
AcDbDictionary
280
     1
281
     1
  3
ACAD_XREC_ROUNDTRIP
360
93
  0
DICTIONARY
  5
9A
330
39
100
AcDbDictionary
280
     1
281
     1
  3
ACAD_XREC_ROUNDTRIP
360
9B
  0
DICTIONARY
  5
7E
330
2B
100
AcDbDictionary
280
     1
281
     1
  3
ACAD_XREC_ROUNDTRIP
360
7F
  0
DICTIONARY
  5
80
330
2C
100
AcDbDictionary
280
     1
281
     1
  3
ACAD_XREC_ROUNDTRIP
360
81
  0
DICTIONARY
  5
82
330
2D
100
AcDbDictionary
280
     1
281
     1
  3
ACAD_XREC_ROUNDTRIP
360
83
  0
DICTIONARY
  5
84
330
2E
100
AcDbDictionary
280
     1
281
     1
  3
ACAD_XREC_ROUNDTRIP
360
85
  0
DICTIONARY
  5
98
330
38
100
AcDbDictionary
280
     1
281
     1
  3
ACAD_XREC_ROUNDTRIP
360
99
  0
DICTIONARY
  5
8E
330
33
100
AcDbDictionary
280
     1
281
     1
  3
ACAD_XREC_ROUNDTRIP
360
8F
  0
DICTIONARY
  5
96
330
37
100
AcDbDictionary
280
     1
281
     1
  3
ACAD_XREC_ROUNDTRIP
360
97
  0
XRECORD
  5
A1
102
{ACAD_REACTORS
330
A0
102
}
330
A0
100
AcDbXrecord
280
     1
102
MATERIAL
148
0.0
149
0.0
149
0.0
 93
        0
 94
      127
282
     0
 72
     1
 77
     1
171
     1
175
     1
179
     1
273
     0
  0
XRECORD
  5
9F
102
{ACAD_REACTORS
330
9E
102
}
330
9E
100
AcDbXrecord
280
     1
102
MATERIAL
148
0.0
149
0.0
149
0.0
 93
        0
 94
      127
282
     0
 72
     1
 77
     1
171
     1
175
     1
179
     1
273
     0
  0
XRECORD
  5
A3
102
{ACAD_REACTORS
330
A2
102
}
330
A2
100
AcDbXrecord
280
     1
102
MATERIAL
148
0.0
149
0.0
149
0.0
 93
        0
 94
      127
282
     0
 72
     1
 77
     1
171
     1
175
     1
179
     1
273
     0
  0
XRECORD
  5
87
102
{ACAD_REACTORS
330
86
102
}
330
86
100
AcDbXrecord
280
     1
102
RTVSPropertyOp0
 70
     1
102
RTVSPropertyOp1
 70
     1
102
RTVSPropertyOp2
 70
     1
102
RTVSPropertyOp3
 70
     1
102
RTVSPropertyOp4
 70
     1
102
RTVSPropertyOp5
 70
     1
102
RTVSPropertyOp6
 70
     1
102
RTVSPropertyOp7
 70
     1
102
RTVSPropertyOp8
 70
     1
102
RTVSPropertyOp9
 70
     1
102
RTVSPropertyOp10
 70
     1
102
RTVSPropertyOp11
 70
     1
102
RTVSPropertyOp12
 70
     1
102
RTVSPropertyOp13
 70
     1
102
RTVSPropertyOp14
 70
     1
102
RTVSPropertyOp15
 70
     1
102
RTVSPropertyOp16
 70
     1
102
RTVSPropertyOp17
 70
     1
102
RTVSPropertyOp18
 70
     1
102
RTVSPropertyOp19
 70
     1
102
RTVSPropertyOp20
 70
     1
102
RTVSPropertyOp21
 70
     1
102
RTVSPropertyOp22
 70
     1
102
RTVSPropertyOp23
 70
     1
102
RTVSPropertyOp24
 70
     1
102
RTVSPropertyOp25
 70
     1
102
RTVSPropertyOp26
 70
     1
102
RTVSPropertyOp27
 70
     1
102
RTVSPropertyOp28
 70
     1
102
RTVSPropertyOp29
 70
     1
102
RTVSPropertyOp30
 70
     1
102
RTVSPropertyOp31
 70
     1
102
RTVSPropertyOp32
 70
     1
102
RTVSPropertyOp33
 70
     1
102
RTVSPropertyOp34
 70
     1
102
RTVSPropertyOp35
 70
     1
102
RTVSPropertyOp36
 70
     1
102
RTVSPropertyOp37
 70
     1
102
RTVSPropertyOp38
 70
     1
102
RTVSPropertyOp39
 70
     1
102
RTVSPropertyOp40
 70
     1
102
RTVSPropertyOp41
 70
     1
102
RTVSPropertyOp42
 70
     1
102
RTVSPropertyOp43
 70
     1
102
RTVSPropertyOp44
 70
     1
102
RTVSPropertyOp45
 70
     1
102
RTVSPropertyOp46
 70
     1
102
RTVSPropertyOp47
 70
     1
102
RTVSPropertyOp48
 70
     1
102
RTVSPropertyOp49
 70
     1
102
RTVSPropertyOp50
 70
     1
102
RTVSPropertyOp51
 70
     0
102
RTVSPropertyOp52
 70
     0
102
RTVSPropertyOp53
 70
     1
102
RTVSPropertyOp54
 70
     1
102
RTVSPropertyOp55
 70
     1
102
RTVSPropertyOp56
 70
     1
102
RTVSPropertyOp57
 70
     1
102
RTVSPost2010Prop28
280
     1
102
RTVSPost2010PropOp28
 70
     1
102
RTVSPost2010Prop29
280
     1
102
RTVSPost2010PropOp29
 70
     1
102
RTVSPost2010Prop30
280
     0
102
RTVSPost2010PropOp30
 70
     1
102
RTVSPost2010Prop31
280
     0
102
RTVSPost2010PropOp31
 70
     1
102
RTVSPost2010Prop32
280
     0
102
RTVSPost2010PropOp32
 70
     1
102
RTVSPost2010Prop33
280
     0
102
RTVSPost2010PropOp33
 70
     1
102
RTVSPost2010Prop34
280
     0
102
RTVSPost2010PropOp34
 70
     1
102
RTVSPost2010Prop35
280
     0
102
RTVSPost2010PropOp35
 70
     1
102
RTVSPost2010Prop36
280
     0
102
RTVSPost2010PropOp36
 70
     1
102
RTVSPost2010Prop37
 90
       50
102
RTVSPost2010PropOp37
 70
     1
102
RTVSPost2010Prop38
140
0.0
102
RTVSPost2010PropOp38
 70
     1
102
RTVSPost2010Prop39
140
1.0
102
RTVSPost2010PropOp39
 70
     1
102
RTVSPost2010Prop40
 90
        0
102
RTVSPost2010PropOp40
 70
     1
102
RTVSPost2010Prop41ColorIndex
 90
       18
102
RTVSPost2010Prop41ColorRGB
 90
        0
102
RTVSPost2010PropOp41
 70
     1
102
RTVSPost2010Prop42
 90
       50
102
RTVSPost2010PropOp42
 70
     1
102
RTVSPost2010Prop43
 90
        3
102
RTVSPost2010PropOp43
 70
     1
102
RTVSPost2010Prop44ColorIndex
 90
        5
102
RTVSPost2010Prop44ColorRGB
 90
      255
102
RTVSPost2010PropOp44
 70
     1
102
RTVSPost2010Prop45
280
     0
102
RTVSPost2010PropOp45
 70
     1
102
RTVSPost2010Prop46
 90
       50
102
RTVSPost2010PropOp46
 70
     1
102
RTVSPost2010Prop47
 90
       50
102
RTVSPost2010PropOp47
 70
     1
102
RTVSPost2010Prop48
 90
       50
102
RTVSPost2010PropOp48
 70
     1
102
RTVSPost2010Prop49
280
     0
102
RTVSPost2010PropOp49
 70
     1
102
RTVSPost2010Prop50
 90
       50
102
RTVSPost2010PropOp50
 70
     1
102
RTVSPost2010Prop51ColorIndex
 90
      256
102
RTVSPost2010Prop51ColorRGB
 90
-16777216
102
RTVSPost2010PropOp51
 70
     0
102
RTVSPost2010Prop52
140
1.0
102
RTVSPost2010PropOp52
 70
     0
102
RTVSPost2010Prop53
 90
        2
102
RTVSPost2010PropOp53
 70
     1
102
RTVSPost2010Prop54
  1
strokes_ogs.tif
102
RTVSPost2010PropOp54
 70
     1
102
RTVSPost2010Prop55
280
     0
102
RTVSPost2010PropOp55
 70
     1
102
RTVSPost2010Prop56
140
1.0
102
RTVSPost2010PropOp56
 70
     1
102
RTVSPost2010Prop57
140
1.0
102
RTVSPost2010PropOp57
 70
     1
  0
XRECORD
  5
8B
102
{ACAD_REACTORS
330
8A
102
}
330
8A
100
AcDbXrecord
280
     1
102
RTVSPropertyOp0
 70
     1
102
RTVSPropertyOp1
 70
     1
102
RTVSPropertyOp2
 70
     1
102
RTVSPropertyOp3
 70
     1
102
RTVSPropertyOp4
 70
     1
102
RTVSPropertyOp5
 70
     1
102
RTVSPropertyOp6
 70
     1
102
RTVSPropertyOp7
 70
     1
102
RTVSPropertyOp8
 70
     1
102
RTVSPropertyOp9
 70
     1
102
RTVSPropertyOp10
 70
     1
102
RTVSPropertyOp11
 70
     1
102
RTVSPropertyOp12
 70
     1
102
RTVSPropertyOp13
 70
     1
102
RTVSPropertyOp14
 70
     1
102
RTVSPropertyOp15
 70
     1
102
RTVSPropertyOp16
 70
     1
102
RTVSPropertyOp17
 70
     1
102
RTVSPropertyOp18
 70
     1
102
RTVSPropertyOp19
 70
     1
102
RTVSPropertyOp20
 70
     1
102
RTVSPropertyOp21
 70
     1
102
RTVSPropertyOp22
 70
     1
102
RTVSPropertyOp23
 70
     1
102
RTVSPropertyOp24
 70
     1
102
RTVSPropertyOp25
 70
     1
102
RTVSPropertyOp26
 70
     1
102
RTVSPropertyOp27
 70
     1
102
RTVSPropertyOp28
 70
     1
102
RTVSPropertyOp29
 70
     1
102
RTVSPropertyOp30
 70
     1
102
RTVSPropertyOp31
 70
     1
102
RTVSPropertyOp32
 70
     1
102
RTVSPropertyOp33
 70
     1
102
RTVSPropertyOp34
 70
     1
102
RTVSPropertyOp35
 70
     1
102
RTVSPropertyOp36
 70
     1
102
RTVSPropertyOp37
 70
     1
102
RTVSPropertyOp38
 70
     1
102
RTVSPropertyOp39
 70
     1
102
RTVSPropertyOp40
 70
     1
102
RTVSPropertyOp41
 70
     1
102
RTVSPropertyOp42
 70
     1
102
RTVSPropertyOp43
 70
     1
102
RTVSPropertyOp44
 70
     1
102
RTVSPropertyOp45
 70
     1
102
RTVSPropertyOp46
 70
     1
102
RTVSPropertyOp47
 70
     1
102
RTVSPropertyOp48
 70
     1
102
RTVSPropertyOp49
 70
     1
102
RTVSPropertyOp50
 70
     1
102
RTVSPropertyOp51
 70
     0
102
RTVSPropertyOp52
 70
     0
102
RTVSPropertyOp53
 70
     1
102
RTVSPropertyOp54
 70
     1
102
RTVSPropertyOp55
 70
     1
102
RTVSPropertyOp56
 70
     1
102
RTVSPropertyOp57
 70
     1
102
RTVSPost2010Prop28
280
     0
102
RTVSPost2010PropOp28
 70
     1
102
RTVSPost2010Prop29
280
     1
102
RTVSPost2010PropOp29
 70
     1
102
RTVSPost2010Prop30
280
     1
102
RTVSPost2010PropOp30
 70
     1
102
RTVSPost2010Prop31
280
     0
102
RTVSPost2010PropOp31
 70
     1
102
RTVSPost2010Prop32
280
     0
102
RTVSPost2010PropOp32
 70
     1
102
RTVSPost2010Prop33
280
     0
102
RTVSPost2010PropOp33
 70
     1
102
RTVSPost2010Prop34
280
     0
102
RTVSPost2010PropOp34
 70
     1
102
RTVSPost2010Prop35
280
     0
102
RTVSPost2010PropOp35
 70
     1
102
RTVSPost2010Prop36
280
     0
102
RTVSPost2010PropOp36
 70
     1
102
RTVSPost2010Prop37
 90
       50
102
RTVSPost2010PropOp37
 70
     1
102
RTVSPost2010Prop38
140
0.0
102
RTVSPost2010PropOp38
 70
     1
102
RTVSPost2010Prop39
140
1.0
102
RTVSPost2010PropOp39
 70
     1
102
RTVSPost2010Prop40
 90
        0
102
RTVSPost2010PropOp40
 70
     1
102
RTVSPost2010Prop41ColorIndex
 90
       18
102
RTVSPost2010Prop41ColorRGB
 90
        0
102
RTVSPost2010PropOp41
 70
     1
102
RTVSPost2010Prop42
 90
       50
102
RTVSPost2010PropOp42
 70
     1
102
RTVSPost2010Prop43
 90
        3
102
RTVSPost2010PropOp43
 70
     1
102
RTVSPost2010Prop44ColorIndex
 90
        5
102
RTVSPost2010Prop44ColorRGB
 90
      255
102
RTVSPost2010PropOp44
 70
     1
102
RTVSPost2010Prop45
280
     0
102
RTVSPost2010PropOp45
 70
     1
102
RTVSPost2010Prop46
 90
       50
102
RTVSPost2010PropOp46
 70
     1
102
RTVSPost2010Prop47
 90
       50
102
RTVSPost2010PropOp47
 70
     1
102
RTVSPost2010Prop48
 90
       50
102
RTVSPost2010PropOp48
 70
     1
102
RTVSPost2010Prop49
280
     0
102
RTVSPost2010PropOp49
 70
     1
102
RTVSPost2010Prop50
 90
       50
102
RTVSPost2010PropOp50
 70
     1
102
RTVSPost2010Prop51ColorIndex
 90
      256
102
RTVSPost2010Prop51ColorRGB
 90
-16777216
102
RTVSPost2010PropOp51
 70
     0
102
RTVSPost2010Prop52
140
1.0
102
RTVSPost2010PropOp52
 70
     0
102
RTVSPost2010Prop53
 90
        2
102
RTVSPost2010PropOp53
 70
     1
102
RTVSPost2010Prop54
  1
strokes_ogs.tif
102
RTVSPost2010PropOp54
 70
     1
102
RTVSPost2010Prop55
280
     0
102
RTVSPost2010PropOp55
 70
     1
102
RTVSPost2010Prop56
140
1.0
102
RTVSPost2010PropOp56
 70
     1
102
RTVSPost2010Prop57
140
1.0
102
RTVSPost2010PropOp57
 70
     1
  0
XRECORD
  5
89
102
{ACAD_REACTORS
330
88
102
}
330
88
100
AcDbXrecord
280
     1
102
RTVSPropertyOp0
 70
     1
102
RTVSPropertyOp1
 70
     1
102
RTVSPropertyOp2
 70
     1
102
RTVSPropertyOp3
 70
     1
102
RTVSPropertyOp4
 70
     1
102
RTVSPropertyOp5
 70
     1
102
RTVSPropertyOp6
 70
     1
102
RTVSPropertyOp7
 70
     1
102
RTVSPropertyOp8
 70
     1
102
RTVSPropertyOp9
 70
     1
102
RTVSPropertyOp10
 70
     1
102
RTVSPropertyOp11
 70
     1
102
RTVSPropertyOp12
 70
     1
102
RTVSPropertyOp13
 70
     1
102
RTVSPropertyOp14
 70
     1
102
RTVSPropertyOp15
 70
     1
102
RTVSPropertyOp16
 70
     1
102
RTVSPropertyOp17
 70
     1
102
RTVSPropertyOp18
 70
     1
102
RTVSPropertyOp19
 70
     1
102
RTVSPropertyOp20
 70
     1
102
RTVSPropertyOp21
 70
     1
102
RTVSPropertyOp22
 70
     1
102
RTVSPropertyOp23
 70
     1
102
RTVSPropertyOp24
 70
     1
102
RTVSPropertyOp25
 70
     1
102
RTVSPropertyOp26
 70
     1
102
RTVSPropertyOp27
 70
     1
102
RTVSPropertyOp28
 70
     1
102
RTVSPropertyOp29
 70
     1
102
RTVSPropertyOp30
 70
     1
102
RTVSPropertyOp31
 70
     1
102
RTVSPropertyOp32
 70
     1
102
RTVSPropertyOp33
 70
     1
102
RTVSPropertyOp34
 70
     1
102
RTVSPropertyOp35
 70
     1
102
RTVSPropertyOp36
 70
     1
102
RTVSPropertyOp37
 70
     1
102
RTVSPropertyOp38
 70
     1
102
RTVSPropertyOp39
 70
     1
102
RTVSPropertyOp40
 70
     1
102
RTVSPropertyOp41
 70
     1
102
RTVSPropertyOp42
 70
     1
102
RTVSPropertyOp43
 70
     1
102
RTVSPropertyOp44
 70
     1
102
RTVSPropertyOp45
 70
     1
102
RTVSPropertyOp46
 70
     1
102
RTVSPropertyOp47
 70
     1
102
RTVSPropertyOp48
 70
     1
102
RTVSPropertyOp49
 70
     1
102
RTVSPropertyOp50
 70
     1
102
RTVSPropertyOp51
 70
     0
102
RTVSPropertyOp52
 70
     0
102
RTVSPropertyOp53
 70
     1
102
RTVSPropertyOp54
 70
     1
102
RTVSPropertyOp55
 70
     1
102
RTVSPropertyOp56
 70
     1
102
RTVSPropertyOp57
 70
     1
102
RTVSPost2010Prop28
280
     0
102
RTVSPost2010PropOp28
 70
     1
102
RTVSPost2010Prop29
280
     1
102
RTVSPost2010PropOp29
 70
     1
102
RTVSPost2010Prop30
280
     1
102
RTVSPost2010PropOp30
 70
     1
102
RTVSPost2010Prop31
280
     0
102
RTVSPost2010PropOp31
 70
     1
102
RTVSPost2010Prop32
280
     0
102
RTVSPost2010PropOp32
 70
     1
102
RTVSPost2010Prop33
280
     0
102
RTVSPost2010PropOp33
 70
     1
102
RTVSPost2010Prop34
280
     0
102
RTVSPost2010PropOp34
 70
     1
102
RTVSPost2010Prop35
280
     0
102
RTVSPost2010PropOp35
 70
     1
102
RTVSPost2010Prop36
280
     0
102
RTVSPost2010PropOp36
 70
     1
102
RTVSPost2010Prop37
 90
       50
102
RTVSPost2010PropOp37
 70
     1
102
RTVSPost2010Prop38
140
0.0
102
RTVSPost2010PropOp38
 70
     1
102
RTVSPost2010Prop39
140
1.0
102
RTVSPost2010PropOp39
 70
     1
102
RTVSPost2010Prop40
 90
        0
102
RTVSPost2010PropOp40
 70
     1
102
RTVSPost2010Prop41ColorIndex
 90
       18
102
RTVSPost2010Prop41ColorRGB
 90
        0
102
RTVSPost2010PropOp41
 70
     1
102
RTVSPost2010Prop42
 90
       50
102
RTVSPost2010PropOp42
 70
     1
102
RTVSPost2010Prop43
 90
        3
102
RTVSPost2010PropOp43
 70
     1
102
RTVSPost2010Prop44ColorIndex
 90
        5
102
RTVSPost2010Prop44ColorRGB
 90
      255
102
RTVSPost2010PropOp44
 70
     1
102
RTVSPost2010Prop45
280
     0
102
RTVSPost2010PropOp45
 70
     1
102
RTVSPost2010Prop46
 90
       50
102
RTVSPost2010PropOp46
 70
     1
102
RTVSPost2010Prop47
 90
       50
102
RTVSPost2010PropOp47
 70
     1
102
RTVSPost2010Prop48
 90
       50
102
RTVSPost2010PropOp48
 70
     1
102
RTVSPost2010Prop49
280
     0
102
RTVSPost2010PropOp49
 70
     1
102
RTVSPost2010Prop50
 90
       50
102
RTVSPost2010PropOp50
 70
     1
102
RTVSPost2010Prop51ColorIndex
 90
      256
102
RTVSPost2010Prop51ColorRGB
 90
-16777216
102
RTVSPost2010PropOp51
 70
     0
102
RTVSPost2010Prop52
140
1.0
102
RTVSPost2010PropOp52
 70
     0
102
RTVSPost2010Prop53
 90
        2
102
RTVSPost2010PropOp53
 70
     1
102
RTVSPost2010Prop54
  1
strokes_ogs.tif
102
RTVSPost2010PropOp54
 70
     1
102
RTVSPost2010Prop55
280
     0
102
RTVSPost2010PropOp55
 70
     1
102
RTVSPost2010Prop56
140
1.0
102
RTVSPost2010PropOp56
 70
     1
102
RTVSPost2010Prop57
140
1.0
102
RTVSPost2010PropOp57
 70
     1
  0
XRECORD
  5
8D
102
{ACAD_REACTORS
330
8C
102
}
330
8C
100
AcDbXrecord
280
     1
102
RTVSPropertyOp0
 70
     1
102
RTVSPropertyOp1
 70
     1
102
RTVSPropertyOp2
 70
     1
102
RTVSPropertyOp3
 70
     1
102
RTVSPropertyOp4
 70
     1
102
RTVSPropertyOp5
 70
     1
102
RTVSPropertyOp6
 70
     1
102
RTVSPropertyOp7
 70
     1
102
RTVSPropertyOp8
 70
     1
102
RTVSPropertyOp9
 70
     1
102
RTVSPropertyOp10
 70
     1
102
RTVSPropertyOp11
 70
     1
102
RTVSPropertyOp12
 70
     1
102
RTVSPropertyOp13
 70
     1
102
RTVSPropertyOp14
 70
     1
102
RTVSPropertyOp15
 70
     1
102
RTVSPropertyOp16
 70
     1
102
RTVSPropertyOp17
 70
     1
102
RTVSPropertyOp18
 70
     1
102
RTVSPropertyOp19
 70
     1
102
RTVSPropertyOp20
 70
     1
102
RTVSPropertyOp21
 70
     1
102
RTVSPropertyOp22
 70
     1
102
RTVSPropertyOp23
 70
     1
102
RTVSPropertyOp24
 70
     1
102
RTVSPropertyOp25
 70
     1
102
RTVSPropertyOp26
 70
     1
102
RTVSPropertyOp27
 70
     1
102
RTVSPropertyOp28
 70
     1
102
RTVSPropertyOp29
 70
     1
102
RTVSPropertyOp30
 70
     1
102
RTVSPropertyOp31
 70
     1
102
RTVSPropertyOp32
 70
     1
102
RTVSPropertyOp33
 70
     1
102
RTVSPropertyOp34
 70
     1
102
RTVSPropertyOp35
 70
     1
102
RTVSPropertyOp36
 70
     1
102
RTVSPropertyOp37
 70
     1
102
RTVSPropertyOp38
 70
     1
102
RTVSPropertyOp39
 70
     1
102
RTVSPropertyOp40
 70
     1
102
RTVSPropertyOp41
 70
     1
102
RTVSPropertyOp42
 70
     1
102
RTVSPropertyOp43
 70
     1
102
RTVSPropertyOp44
 70
     1
102
RTVSPropertyOp45
 70
     1
102
RTVSPropertyOp46
 70
     1
102
RTVSPropertyOp47
 70
     1
102
RTVSPropertyOp48
 70
     1
102
RTVSPropertyOp49
 70
     1
102
RTVSPropertyOp50
 70
     1
102
RTVSPropertyOp51
 70
     0
102
RTVSPropertyOp52
 70
     0
102
RTVSPropertyOp53
 70
     1
102
RTVSPropertyOp54
 70
     1
102
RTVSPropertyOp55
 70
     1
102
RTVSPropertyOp56
 70
     1
102
RTVSPropertyOp57
 70
     1
102
RTVSPost2010Prop28
280
     0
102
RTVSPost2010PropOp28
 70
     1
102
RTVSPost2010Prop29
280
     1
102
RTVSPost2010PropOp29
 70
     1
102
RTVSPost2010Prop30
280
     1
102
RTVSPost2010PropOp30
 70
     1
102
RTVSPost2010Prop31
280
     0
102
RTVSPost2010PropOp31
 70
     1
102
RTVSPost2010Prop32
280
     0
102
RTVSPost2010PropOp32
 70
     1
102
RTVSPost2010Prop33
280
     0
102
RTVSPost2010PropOp33
 70
     1
102
RTVSPost2010Prop34
280
     0
102
RTVSPost2010PropOp34
 70
     1
102
RTVSPost2010Prop35
280
     0
102
RTVSPost2010PropOp35
 70
     1
102
RTVSPost2010Prop36
280
     0
102
RTVSPost2010PropOp36
 70
     1
102
RTVSPost2010Prop37
 90
       50
102
RTVSPost2010PropOp37
 70
     1
102
RTVSPost2010Prop38
140
0.0
102
RTVSPost2010PropOp38
 70
     1
102
RTVSPost2010Prop39
140
1.0
102
RTVSPost2010PropOp39
 70
     1
102
RTVSPost2010Prop40
 90
        0
102
RTVSPost2010PropOp40
 70
     1
102
RTVSPost2010Prop41ColorIndex
 90
       18
102
RTVSPost2010Prop41ColorRGB
 90
        0
102
RTVSPost2010PropOp41
 70
     1
102
RTVSPost2010Prop42
 90
       50
102
RTVSPost2010PropOp42
 70
     1
102
RTVSPost2010Prop43
 90
        3
102
RTVSPost2010PropOp43
 70
     1
102
RTVSPost2010Prop44ColorIndex
 90
        5
102
RTVSPost2010Prop44ColorRGB
 90
      255
102
RTVSPost2010PropOp44
 70
     1
102
RTVSPost2010Prop45
280
     0
102
RTVSPost2010PropOp45
 70
     1
102
RTVSPost2010Prop46
 90
       50
102
RTVSPost2010PropOp46
 70
     1
102
RTVSPost2010Prop47
 90
       50
102
RTVSPost2010PropOp47
 70
     1
102
RTVSPost2010Prop48
 90
       50
102
RTVSPost2010PropOp48
 70
     1
102
RTVSPost2010Prop49
280
     0
102
RTVSPost2010PropOp49
 70
     1
102
RTVSPost2010Prop50
 90
       50
102
RTVSPost2010PropOp50
 70
     1
102
RTVSPost2010Prop51ColorIndex
 90
      256
102
RTVSPost2010Prop51ColorRGB
 90
-16777216
102
RTVSPost2010PropOp51
 70
     0
102
RTVSPost2010Prop52
140
1.0
102
RTVSPost2010PropOp52
 70
     0
102
RTVSPost2010Prop53
 90
        2
102
RTVSPost2010PropOp53
 70
     1
102
RTVSPost2010Prop54
  1
strokes_ogs.tif
102
RTVSPost2010PropOp54
 70
     1
102
RTVSPost2010Prop55
280
     0
102
RTVSPost2010PropOp55
 70
     1
102
RTVSPost2010Prop56
140
1.0
102
RTVSPost2010PropOp56
 70
     1
102
RTVSPost2010Prop57
140
1.0
102
RTVSPost2010PropOp57
 70
     1
  0
XRECORD
  5
95
102
{ACAD_REACTORS
330
94
102
}
330
94
100
AcDbXrecord
280
     1
102
RTVSPropertyOp0
 70
     1
102
RTVSPropertyOp1
 70
     1
102
RTVSPropertyOp2
 70
     1
102
RTVSPropertyOp3
 70
     1
102
RTVSPropertyOp4
 70
     1
102
RTVSPropertyOp5
 70
     1
102
RTVSPropertyOp6
 70
     1
102
RTVSPropertyOp7
 70
     1
102
RTVSPropertyOp8
 70
     1
102
RTVSPropertyOp9
 70
     1
102
RTVSPropertyOp10
 70
     1
102
RTVSPropertyOp11
 70
     1
102
RTVSPropertyOp12
 70
     1
102
RTVSPropertyOp13
 70
     1
102
RTVSPropertyOp14
 70
     1
102
RTVSPropertyOp15
 70
     1
102
RTVSPropertyOp16
 70
     1
102
RTVSPropertyOp17
 70
     1
102
RTVSPropertyOp18
 70
     1
102
RTVSPropertyOp19
 70
     1
102
RTVSPropertyOp20
 70
     1
102
RTVSPropertyOp21
 70
     1
102
RTVSPropertyOp22
 70
     1
102
RTVSPropertyOp23
 70
     1
102
RTVSPropertyOp24
 70
     1
102
RTVSPropertyOp25
 70
     1
102
RTVSPropertyOp26
 70
     1
102
RTVSPropertyOp27
 70
     1
102
RTVSPropertyOp28
 70
     1
102
RTVSPropertyOp29
 70
     1
102
RTVSPropertyOp30
 70
     1
102
RTVSPropertyOp31
 70
     1
102
RTVSPropertyOp32
 70
     1
102
RTVSPropertyOp33
 70
     1
102
RTVSPropertyOp34
 70
     1
102
RTVSPropertyOp35
 70
     1
102
RTVSPropertyOp36
 70
     1
102
RTVSPropertyOp37
 70
     1
102
RTVSPropertyOp38
 70
     1
102
RTVSPropertyOp39
 70
     1
102
RTVSPropertyOp40
 70
     1
102
RTVSPropertyOp41
 70
     1
102
RTVSPropertyOp42
 70
     1
102
RTVSPropertyOp43
 70
     1
102
RTVSPropertyOp44
 70
     1
102
RTVSPropertyOp45
 70
     1
102
RTVSPropertyOp46
 70
     1
102
RTVSPropertyOp47
 70
     1
102
RTVSPropertyOp48
 70
     1
102
RTVSPropertyOp49
 70
     1
102
RTVSPropertyOp50
 70
     1
102
RTVSPropertyOp51
 70
     0
102
RTVSPropertyOp52
 70
     0
102
RTVSPropertyOp53
 70
     1
102
RTVSPropertyOp54
 70
     1
102
RTVSPropertyOp55
 70
     1
102
RTVSPropertyOp56
 70
     1
102
RTVSPropertyOp57
 70
     1
102
RTVSPost2010Prop28
280
     0
102
RTVSPost2010PropOp28
 70
     1
102
RTVSPost2010Prop29
280
     1
102
RTVSPost2010PropOp29
 70
     1
102
RTVSPost2010Prop30
280
     1
102
RTVSPost2010PropOp30
 70
     1
102
RTVSPost2010Prop31
280
     0
102
RTVSPost2010PropOp31
 70
     1
102
RTVSPost2010Prop32
280
     0
102
RTVSPost2010PropOp32
 70
     1
102
RTVSPost2010Prop33
280
     0
102
RTVSPost2010PropOp33
 70
     1
102
RTVSPost2010Prop34
280
     0
102
RTVSPost2010PropOp34
 70
     1
102
RTVSPost2010Prop35
280
     0
102
RTVSPost2010PropOp35
 70
     1
102
RTVSPost2010Prop36
280
     0
102
RTVSPost2010PropOp36
 70
     1
102
RTVSPost2010Prop37
 90
       50
102
RTVSPost2010PropOp37
 70
     1
102
RTVSPost2010Prop38
140
0.0
102
RTVSPost2010PropOp38
 70
     1
102
RTVSPost2010Prop39
140
1.0
102
RTVSPost2010PropOp39
 70
     1
102
RTVSPost2010Prop40
 90
        0
102
RTVSPost2010PropOp40
 70
     1
102
RTVSPost2010Prop41ColorIndex
 90
       18
102
RTVSPost2010Prop41ColorRGB
 90
        0
102
RTVSPost2010PropOp41
 70
     1
102
RTVSPost2010Prop42
 90
       50
102
RTVSPost2010PropOp42
 70
     1
102
RTVSPost2010Prop43
 90
        3
102
RTVSPost2010PropOp43
 70
     1
102
RTVSPost2010Prop44ColorIndex
 90
        5
102
RTVSPost2010Prop44ColorRGB
 90
      255
102
RTVSPost2010PropOp44
 70
     1
102
RTVSPost2010Prop45
280
     0
102
RTVSPost2010PropOp45
 70
     1
102
RTVSPost2010Prop46
 90
       50
102
RTVSPost2010PropOp46
 70
     1
102
RTVSPost2010Prop47
 90
       50
102
RTVSPost2010PropOp47
 70
     1
102
RTVSPost2010Prop48
 90
       50
102
RTVSPost2010PropOp48
 70
     1
102
RTVSPost2010Prop49
280
     0
102
RTVSPost2010PropOp49
 70
     1
102
RTVSPost2010Prop50
 90
       50
102
RTVSPost2010PropOp50
 70
     1
102
RTVSPost2010Prop51ColorIndex
 90
      256
102
RTVSPost2010Prop51ColorRGB
 90
-16777216
102
RTVSPost2010PropOp51
 70
     0
102
RTVSPost2010Prop52
140
1.0
102
RTVSPost2010PropOp52
 70
     0
102
RTVSPost2010Prop53
 90
        2
102
RTVSPost2010PropOp53
 70
     1
102
RTVSPost2010Prop54
  1
strokes_ogs.tif
102
RTVSPost2010PropOp54
 70
     1
102
RTVSPost2010Prop55
280
     0
102
RTVSPost2010PropOp55
 70
     1
102
RTVSPost2010Prop56
140
1.0
102
RTVSPost2010PropOp56
 70
     1
102
RTVSPost2010Prop57
140
1.0
102
RTVSPost2010PropOp57
 70
     1
  0
XRECORD
  5
9D
102
{ACAD_REACTORS
330
9C
102
}
330
9C
100
AcDbXrecord
280
     1
102
RTVSPropertyOp0
 70
     1
102
RTVSPropertyOp1
 70
     1
102
RTVSPropertyOp2
 70
     1
102
RTVSPropertyOp3
 70
     1
102
RTVSPropertyOp4
 70
     1
102
RTVSPropertyOp5
 70
     1
102
RTVSPropertyOp6
 70
     1
102
RTVSPropertyOp7
 70
     1
102
RTVSPropertyOp8
 70
     1
102
RTVSPropertyOp9
 70
     1
102
RTVSPropertyOp10
 70
     1
102
RTVSPropertyOp11
 70
     1
102
RTVSPropertyOp12
 70
     1
102
RTVSPropertyOp13
 70
     1
102
RTVSPropertyOp14
 70
     1
102
RTVSPropertyOp15
 70
     1
102
RTVSPropertyOp16
 70
     1
102
RTVSPropertyOp17
 70
     1
102
RTVSPropertyOp18
 70
     1
102
RTVSPropertyOp19
 70
     1
102
RTVSPropertyOp20
 70
     1
102
RTVSPropertyOp21
 70
     1
102
RTVSPropertyOp22
 70
     1
102
RTVSPropertyOp23
 70
     1
102
RTVSPropertyOp24
 70
     1
102
RTVSPropertyOp25
 70
     1
102
RTVSPropertyOp26
 70
     1
102
RTVSPropertyOp27
 70
     1
102
RTVSPropertyOp28
 70
     1
102
RTVSPropertyOp29
 70
     1
102
RTVSPropertyOp30
 70
     1
102
RTVSPropertyOp31
 70
     1
102
RTVSPropertyOp32
 70
     1
102
RTVSPropertyOp33
 70
     1
102
RTVSPropertyOp34
 70
     1
102
RTVSPropertyOp35
 70
     1
102
RTVSPropertyOp36
 70
     1
102
RTVSPropertyOp37
 70
     1
102
RTVSPropertyOp38
 70
     1
102
RTVSPropertyOp39
 70
     1
102
RTVSPropertyOp40
 70
     1
102
RTVSPropertyOp41
 70
     1
102
RTVSPropertyOp42
 70
     1
102
RTVSPropertyOp43
 70
     1
102
RTVSPropertyOp44
 70
     1
102
RTVSPropertyOp45
 70
     1
102
RTVSPropertyOp46
 70
     1
102
RTVSPropertyOp47
 70
     1
102
RTVSPropertyOp48
 70
     1
102
RTVSPropertyOp49
 70
     1
102
RTVSPropertyOp50
 70
     1
102
RTVSPropertyOp51
 70
     0
102
RTVSPropertyOp52
 70
     0
102
RTVSPropertyOp53
 70
     1
102
RTVSPropertyOp54
 70
     1
102
RTVSPropertyOp55
 70
     1
102
RTVSPropertyOp56
 70
     1
102
RTVSPropertyOp57
 70
     1
102
RTVSPost2010Prop28
280
     0
102
RTVSPost2010PropOp28
 70
     1
102
RTVSPost2010Prop29
280
     1
102
RTVSPost2010PropOp29
 70
     1
102
RTVSPost2010Prop30
280
     1
102
RTVSPost2010PropOp30
 70
     1
102
RTVSPost2010Prop31
280
     0
102
RTVSPost2010PropOp31
 70
     1
102
RTVSPost2010Prop32
280
     0
102
RTVSPost2010PropOp32
 70
     1
102
RTVSPost2010Prop33
280
     0
102
RTVSPost2010PropOp33
 70
     1
102
RTVSPost2010Prop34
280
     0
102
RTVSPost2010PropOp34
 70
     1
102
RTVSPost2010Prop35
280
     0
102
RTVSPost2010PropOp35
 70
     1
102
RTVSPost2010Prop36
280
     0
102
RTVSPost2010PropOp36
 70
     1
102
RTVSPost2010Prop37
 90
       50
102
RTVSPost2010PropOp37
 70
     1
102
RTVSPost2010Prop38
140
0.0
102
RTVSPost2010PropOp38
 70
     1
102
RTVSPost2010Prop39
140
1.0
102
RTVSPost2010PropOp39
 70
     1
102
RTVSPost2010Prop40
 90
        0
102
RTVSPost2010PropOp40
 70
     1
102
RTVSPost2010Prop41ColorIndex
 90
       18
102
RTVSPost2010Prop41ColorRGB
 90
        0
102
RTVSPost2010PropOp41
 70
     1
102
RTVSPost2010Prop42
 90
       50
102
RTVSPost2010PropOp42
 70
     1
102
RTVSPost2010Prop43
 90
        3
102
RTVSPost2010PropOp43
 70
     1
102
RTVSPost2010Prop44ColorIndex
 90
        5
102
RTVSPost2010Prop44ColorRGB
 90
      255
102
RTVSPost2010PropOp44
 70
     1
102
RTVSPost2010Prop45
280
     0
102
RTVSPost2010PropOp45
 70
     1
102
RTVSPost2010Prop46
 90
       50
102
RTVSPost2010PropOp46
 70
     1
102
RTVSPost2010Prop47
 90
       50
102
RTVSPost2010PropOp47
 70
     1
102
RTVSPost2010Prop48
 90
       50
102
RTVSPost2010PropOp48
 70
     1
102
RTVSPost2010Prop49
280
     0
102
RTVSPost2010PropOp49
 70
     1
102
RTVSPost2010Prop50
 90
       50
102
RTVSPost2010PropOp50
 70
     1
102
RTVSPost2010Prop51ColorIndex
 90
      256
102
RTVSPost2010Prop51ColorRGB
 90
-16777216
102
RTVSPost2010PropOp51
 70
     0
102
RTVSPost2010Prop52
140
1.0
102
RTVSPost2010PropOp52
 70
     0
102
RTVSPost2010Prop53
 90
        2
102
RTVSPost2010PropOp53
 70
     1
102
RTVSPost2010Prop54
  1
strokes_ogs.tif
102
RTVSPost2010PropOp54
 70
     1
102
RTVSPost2010Prop55
280
     0
102
RTVSPost2010PropOp55
 70
     1
102
RTVSPost2010Prop56
140
1.0
102
RTVSPost2010PropOp56
 70
     1
102
RTVSPost2010Prop57
140
1.0
102
RTVSPost2010PropOp57
 70
     1
  0
XRECORD
  5
91
102
{ACAD_REACTORS
330
90
102
}
330
90
100
AcDbXrecord
280
     1
102
RTVSPropertyOp0
 70
     1
102
RTVSPropertyOp1
 70
     1
102
RTVSPropertyOp2
 70
     1
102
RTVSPropertyOp3
 70
     1
102
RTVSPropertyOp4
 70
     1
102
RTVSPropertyOp5
 70
     1
102
RTVSPropertyOp6
 70
     1
102
RTVSPropertyOp7
 70
     1
102
RTVSPropertyOp8
 70
     1
102
RTVSPropertyOp9
 70
     1
102
RTVSPropertyOp10
 70
     1
102
RTVSPropertyOp11
 70
     1
102
RTVSPropertyOp12
 70
     1
102
RTVSPropertyOp13
 70
     1
102
RTVSPropertyOp14
 70
     1
102
RTVSPropertyOp15
 70
     1
102
RTVSPropertyOp16
 70
     1
102
RTVSPropertyOp17
 70
     1
102
RTVSPropertyOp18
 70
     1
102
RTVSPropertyOp19
 70
     1
102
RTVSPropertyOp20
 70
     1
102
RTVSPropertyOp21
 70
     1
102
RTVSPropertyOp22
 70
     1
102
RTVSPropertyOp23
 70
     1
102
RTVSPropertyOp24
 70
     1
102
RTVSPropertyOp25
 70
     1
102
RTVSPropertyOp26
 70
     1
102
RTVSPropertyOp27
 70
     1
102
RTVSPropertyOp28
 70
     1
102
RTVSPropertyOp29
 70
     1
102
RTVSPropertyOp30
 70
     1
102
RTVSPropertyOp31
 70
     1
102
RTVSPropertyOp32
 70
     1
102
RTVSPropertyOp33
 70
     1
102
RTVSPropertyOp34
 70
     1
102
RTVSPropertyOp35
 70
     1
102
RTVSPropertyOp36
 70
     1
102
RTVSPropertyOp37
 70
     1
102
RTVSPropertyOp38
 70
     1
102
RTVSPropertyOp39
 70
     1
102
RTVSPropertyOp40
 70
     1
102
RTVSPropertyOp41
 70
     1
102
RTVSPropertyOp42
 70
     1
102
RTVSPropertyOp43
 70
     1
102
RTVSPropertyOp44
 70
     1
102
RTVSPropertyOp45
 70
     1
102
RTVSPropertyOp46
 70
     1
102
RTVSPropertyOp47
 70
     1
102
RTVSPropertyOp48
 70
     1
102
RTVSPropertyOp49
 70
     1
102
RTVSPropertyOp50
 70
     1
102
RTVSPropertyOp51
 70
     0
102
RTVSPropertyOp52
 70
     0
102
RTVSPropertyOp53
 70
     1
102
RTVSPropertyOp54
 70
     1
102
RTVSPropertyOp55
 70
     1
102
RTVSPropertyOp56
 70
     1
102
RTVSPropertyOp57
 70
     1
102
RTVSPost2010Prop28
280
     0
102
RTVSPost2010PropOp28
 70
     1
102
RTVSPost2010Prop29
280
     1
102
RTVSPost2010PropOp29
 70
     1
102
RTVSPost2010Prop30
280
     1
102
RTVSPost2010PropOp30
 70
     1
102
RTVSPost2010Prop31
280
     0
102
RTVSPost2010PropOp31
 70
     1
102
RTVSPost2010Prop32
280
     0
102
RTVSPost2010PropOp32
 70
     1
102
RTVSPost2010Prop33
280
     0
102
RTVSPost2010PropOp33
 70
     1
102
RTVSPost2010Prop34
280
     0
102
RTVSPost2010PropOp34
 70
     1
102
RTVSPost2010Prop35
280
     0
102
RTVSPost2010PropOp35
 70
     1
102
RTVSPost2010Prop36
280
     0
102
RTVSPost2010PropOp36
 70
     1
102
RTVSPost2010Prop37
 90
       50
102
RTVSPost2010PropOp37
 70
     1
102
RTVSPost2010Prop38
140
0.0
102
RTVSPost2010PropOp38
 70
     1
102
RTVSPost2010Prop39
140
1.0
102
RTVSPost2010PropOp39
 70
     1
102
RTVSPost2010Prop40
 90
        0
102
RTVSPost2010PropOp40
 70
     1
102
RTVSPost2010Prop41ColorIndex
 90
       18
102
RTVSPost2010Prop41ColorRGB
 90
        0
102
RTVSPost2010PropOp41
 70
     1
102
RTVSPost2010Prop42
 90
       50
102
RTVSPost2010PropOp42
 70
     1
102
RTVSPost2010Prop43
 90
        3
102
RTVSPost2010PropOp43
 70
     1
102
RTVSPost2010Prop44ColorIndex
 90
        5
102
RTVSPost2010Prop44ColorRGB
 90
      255
102
RTVSPost2010PropOp44
 70
     1
102
RTVSPost2010Prop45
280
     0
102
RTVSPost2010PropOp45
 70
     1
102
RTVSPost2010Prop46
 90
       50
102
RTVSPost2010PropOp46
 70
     1
102
RTVSPost2010Prop47
 90
       50
102
RTVSPost2010PropOp47
 70
     1
102
RTVSPost2010Prop48
 90
       50
102
RTVSPost2010PropOp48
 70
     1
102
RTVSPost2010Prop49
280
     0
102
RTVSPost2010PropOp49
 70
     1
102
RTVSPost2010Prop50
 90
       50
102
RTVSPost2010PropOp50
 70
     1
102
RTVSPost2010Prop51ColorIndex
 90
      256
102
RTVSPost2010Prop51ColorRGB
 90
-16777216
102
RTVSPost2010PropOp51
 70
     0
102
RTVSPost2010Prop52
140
1.0
102
RTVSPost2010PropOp52
 70
     0
102
RTVSPost2010Prop53
 90
        2
102
RTVSPost2010PropOp53
 70
     1
102
RTVSPost2010Prop54
  1
strokes_ogs.tif
102
RTVSPost2010PropOp54
 70
     1
102
RTVSPost2010Prop55
280
     0
102
RTVSPost2010PropOp55
 70
     1
102
RTVSPost2010Prop56
140
1.0
102
RTVSPost2010PropOp56
 70
     1
102
RTVSPost2010Prop57
140
1.0
102
RTVSPost2010PropOp57
 70
     1
  0
XRECORD
  5
93
102
{ACAD_REACTORS
330
92
102
}
330
92
100
AcDbXrecord
280
     1
102
RTVSPropertyOp0
 70
     1
102
RTVSPropertyOp1
 70
     1
102
RTVSPropertyOp2
 70
     1
102
RTVSPropertyOp3
 70
     1
102
RTVSPropertyOp4
 70
     1
102
RTVSPropertyOp5
 70
     1
102
RTVSPropertyOp6
 70
     1
102
RTVSPropertyOp7
 70
     1
102
RTVSPropertyOp8
 70
     1
102
RTVSPropertyOp9
 70
     1
102
RTVSPropertyOp10
 70
     1
102
RTVSPropertyOp11
 70
     1
102
RTVSPropertyOp12
 70
     1
102
RTVSPropertyOp13
 70
     1
102
RTVSPropertyOp14
 70
     1
102
RTVSPropertyOp15
 70
     1
102
RTVSPropertyOp16
 70
     1
102
RTVSPropertyOp17
 70
     1
102
RTVSPropertyOp18
 70
     1
102
RTVSPropertyOp19
 70
     1
102
RTVSPropertyOp20
 70
     1
102
RTVSPropertyOp21
 70
     1
102
RTVSPropertyOp22
 70
     1
102
RTVSPropertyOp23
 70
     1
102
RTVSPropertyOp24
 70
     1
102
RTVSPropertyOp25
 70
     1
102
RTVSPropertyOp26
 70
     1
102
RTVSPropertyOp27
 70
     1
102
RTVSPropertyOp28
 70
     1
102
RTVSPropertyOp29
 70
     1
102
RTVSPropertyOp30
 70
     1
102
RTVSPropertyOp31
 70
     1
102
RTVSPropertyOp32
 70
     1
102
RTVSPropertyOp33
 70
     1
102
RTVSPropertyOp34
 70
     1
102
RTVSPropertyOp35
 70
     1
102
RTVSPropertyOp36
 70
     1
102
RTVSPropertyOp37
 70
     1
102
RTVSPropertyOp38
 70
     1
102
RTVSPropertyOp39
 70
     1
102
RTVSPropertyOp40
 70
     1
102
RTVSPropertyOp41
 70
     1
102
RTVSPropertyOp42
 70
     1
102
RTVSPropertyOp43
 70
     1
102
RTVSPropertyOp44
 70
     1
102
RTVSPropertyOp45
 70
     1
102
RTVSPropertyOp46
 70
     1
102
RTVSPropertyOp47
 70
     1
102
RTVSPropertyOp48
 70
     1
102
RTVSPropertyOp49
 70
     1
102
RTVSPropertyOp50
 70
     1
102
RTVSPropertyOp51
 70
     0
102
RTVSPropertyOp52
 70
     0
102
RTVSPropertyOp53
 70
     1
102
RTVSPropertyOp54
 70
     1
102
RTVSPropertyOp55
 70
     1
102
RTVSPropertyOp56
 70
     1
102
RTVSPropertyOp57
 70
     1
102
RTVSPost2010Prop28
280
     0
102
RTVSPost2010PropOp28
 70
     1
102
RTVSPost2010Prop29
280
     1
102
RTVSPost2010PropOp29
 70
     1
102
RTVSPost2010Prop30
280
     1
102
RTVSPost2010PropOp30
 70
     1
102
RTVSPost2010Prop31
280
     0
102
RTVSPost2010PropOp31
 70
     1
102
RTVSPost2010Prop32
280
     0
102
RTVSPost2010PropOp32
 70
     1
102
RTVSPost2010Prop33
280
     0
102
RTVSPost2010PropOp33
 70
     1
102
RTVSPost2010Prop34
280
     0
102
RTVSPost2010PropOp34
 70
     1
102
RTVSPost2010Prop35
280
     0
102
RTVSPost2010PropOp35
 70
     1
102
RTVSPost2010Prop36
280
     0
102
RTVSPost2010PropOp36
 70
     1
102
RTVSPost2010Prop37
 90
       50
102
RTVSPost2010PropOp37
 70
     1
102
RTVSPost2010Prop38
140
0.0
102
RTVSPost2010PropOp38
 70
     1
102
RTVSPost2010Prop39
140
1.0
102
RTVSPost2010PropOp39
 70
     1
102
RTVSPost2010Prop40
 90
        0
102
RTVSPost2010PropOp40
 70
     1
102
RTVSPost2010Prop41ColorIndex
 90
       18
102
RTVSPost2010Prop41ColorRGB
 90
        0
102
RTVSPost2010PropOp41
 70
     1
102
RTVSPost2010Prop42
 90
       50
102
RTVSPost2010PropOp42
 70
     1
102
RTVSPost2010Prop43
 90
        3
102
RTVSPost2010PropOp43
 70
     1
102
RTVSPost2010Prop44ColorIndex
 90
        5
102
RTVSPost2010Prop44ColorRGB
 90
      255
102
RTVSPost2010PropOp44
 70
     1
102
RTVSPost2010Prop45
280
     0
102
RTVSPost2010PropOp45
 70
     1
102
RTVSPost2010Prop46
 90
       50
102
RTVSPost2010PropOp46
 70
     1
102
RTVSPost2010Prop47
 90
       50
102
RTVSPost2010PropOp47
 70
     1
102
RTVSPost2010Prop48
 90
       50
102
RTVSPost2010PropOp48
 70
     1
102
RTVSPost2010Prop49
280
     0
102
RTVSPost2010PropOp49
 70
     1
102
RTVSPost2010Prop50
 90
       50
102
RTVSPost2010PropOp50
 70
     1
102
RTVSPost2010Prop51ColorIndex
 90
      256
102
RTVSPost2010Prop51ColorRGB
 90
-16777216
102
RTVSPost2010PropOp51
 70
     0
102
RTVSPost2010Prop52
140
1.0
102
RTVSPost2010PropOp52
 70
     0
102
RTVSPost2010Prop53
 90
        2
102
RTVSPost2010PropOp53
 70
     1
102
RTVSPost2010Prop54
  1
strokes_ogs.tif
102
RTVSPost2010PropOp54
 70
     1
102
RTVSPost2010Prop55
280
     0
102
RTVSPost2010PropOp55
 70
     1
102
RTVSPost2010Prop56
140
1.0
102
RTVSPost2010PropOp56
 70
     1
102
RTVSPost2010Prop57
140
1.0
102
RTVSPost2010PropOp57
 70
     1
  0
XRECORD
  5
9B
102
{ACAD_REACTORS
330
9A
102
}
330
9A
100
AcDbXrecord
280
     1
102
RTVSPropertyOp0
 70
     1
102
RTVSPropertyOp1
 70
     1
102
RTVSPropertyOp2
 70
     1
102
RTVSPropertyOp3
 70
     1
102
RTVSPropertyOp4
 70
     1
102
RTVSPropertyOp5
 70
     1
102
RTVSPropertyOp6
 70
     1
102
RTVSPropertyOp7
 70
     1
102
RTVSPropertyOp8
 70
     1
102
RTVSPropertyOp9
 70
     1
102
RTVSPropertyOp10
 70
     1
102
RTVSPropertyOp11
 70
     1
102
RTVSPropertyOp12
 70
     1
102
RTVSPropertyOp13
 70
     1
102
RTVSPropertyOp14
 70
     1
102
RTVSPropertyOp15
 70
     1
102
RTVSPropertyOp16
 70
     1
102
RTVSPropertyOp17
 70
     1
102
RTVSPropertyOp18
 70
     1
102
RTVSPropertyOp19
 70
     1
102
RTVSPropertyOp20
 70
     1
102
RTVSPropertyOp21
 70
     1
102
RTVSPropertyOp22
 70
     1
102
RTVSPropertyOp23
 70
     1
102
RTVSPropertyOp24
 70
     1
102
RTVSPropertyOp25
 70
     1
102
RTVSPropertyOp26
 70
     1
102
RTVSPropertyOp27
 70
     1
102
RTVSPropertyOp28
 70
     1
102
RTVSPropertyOp29
 70
     1
102
RTVSPropertyOp30
 70
     1
102
RTVSPropertyOp31
 70
     1
102
RTVSPropertyOp32
 70
     1
102
RTVSPropertyOp33
 70
     1
102
RTVSPropertyOp34
 70
     1
102
RTVSPropertyOp35
 70
     1
102
RTVSPropertyOp36
 70
     1
102
RTVSPropertyOp37
 70
     1
102
RTVSPropertyOp38
 70
     1
102
RTVSPropertyOp39
 70
     1
102
RTVSPropertyOp40
 70
     1
102
RTVSPropertyOp41
 70
     1
102
RTVSPropertyOp42
 70
     1
102
RTVSPropertyOp43
 70
     1
102
RTVSPropertyOp44
 70
     1
102
RTVSPropertyOp45
 70
     1
102
RTVSPropertyOp46
 70
     1
102
RTVSPropertyOp47
 70
     1
102
RTVSPropertyOp48
 70
     1
102
RTVSPropertyOp49
 70
     1
102
RTVSPropertyOp50
 70
     1
102
RTVSPropertyOp51
 70
     0
102
RTVSPropertyOp52
 70
     0
102
RTVSPropertyOp53
 70
     1
102
RTVSPropertyOp54
 70
     1
102
RTVSPropertyOp55
 70
     1
102
RTVSPropertyOp56
 70
     1
102
RTVSPropertyOp57
 70
     1
102
RTVSPost2010Prop28
280
     0
102
RTVSPost2010PropOp28
 70
     1
102
RTVSPost2010Prop29
280
     1
102
RTVSPost2010PropOp29
 70
     1
102
RTVSPost2010Prop30
280
     1
102
RTVSPost2010PropOp30
 70
     1
102
RTVSPost2010Prop31
280
     0
102
RTVSPost2010PropOp31
 70
     1
102
RTVSPost2010Prop32
280
     0
102
RTVSPost2010PropOp32
 70
     1
102
RTVSPost2010Prop33
280
     0
102
RTVSPost2010PropOp33
 70
     1
102
RTVSPost2010Prop34
280
     0
102
RTVSPost2010PropOp34
 70
     1
102
RTVSPost2010Prop35
280
     0
102
RTVSPost2010PropOp35
 70
     1
102
RTVSPost2010Prop36
280
     0
102
RTVSPost2010PropOp36
 70
     1
102
RTVSPost2010Prop37
 90
       50
102
RTVSPost2010PropOp37
 70
     1
102
RTVSPost2010Prop38
140
0.0
102
RTVSPost2010PropOp38
 70
     1
102
RTVSPost2010Prop39
140
1.0
102
RTVSPost2010PropOp39
 70
     1
102
RTVSPost2010Prop40
 90
        0
102
RTVSPost2010PropOp40
 70
     1
102
RTVSPost2010Prop41ColorIndex
 90
       18
102
RTVSPost2010Prop41ColorRGB
 90
        0
102
RTVSPost2010PropOp41
 70
     1
102
RTVSPost2010Prop42
 90
       50
102
RTVSPost2010PropOp42
 70
     1
102
RTVSPost2010Prop43
 90
        3
102
RTVSPost2010PropOp43
 70
     1
102
RTVSPost2010Prop44ColorIndex
 90
        5
102
RTVSPost2010Prop44ColorRGB
 90
      255
102
RTVSPost2010PropOp44
 70
     1
102
RTVSPost2010Prop45
280
     0
102
RTVSPost2010PropOp45
 70
     1
102
RTVSPost2010Prop46
 90
       50
102
RTVSPost2010PropOp46
 70
     1
102
RTVSPost2010Prop47
 90
       50
102
RTVSPost2010PropOp47
 70
     1
102
RTVSPost2010Prop48
 90
       50
102
RTVSPost2010PropOp48
 70
     1
102
RTVSPost2010Prop49
280
     0
102
RTVSPost2010PropOp49
 70
     1
102
RTVSPost2010Prop50
 90
       50
102
RTVSPost2010PropOp50
 70
     1
102
RTVSPost2010Prop51ColorIndex
 90
      256
102
RTVSPost2010Prop51ColorRGB
 90
-16777216
102
RTVSPost2010PropOp51
 70
     0
102
RTVSPost2010Prop52
140
1.0
102
RTVSPost2010PropOp52
 70
     0
102
RTVSPost2010Prop53
 90
        2
102
RTVSPost2010PropOp53
 70
     1
102
RTVSPost2010Prop54
  1
strokes_ogs.tif
102
RTVSPost2010PropOp54
 70
     1
102
RTVSPost2010Prop55
280
     0
102
RTVSPost2010PropOp55
 70
     1
102
RTVSPost2010Prop56
140
1.0
102
RTVSPost2010PropOp56
 70
     1
102
RTVSPost2010Prop57
140
1.0
102
RTVSPost2010PropOp57
 70
     1
  0
XRECORD
  5
7F
102
{ACAD_REACTORS
330
7E
102
}
330
7E
100
AcDbXrecord
280
     1
102
RTVSPropertyOp0
 70
     1
102
RTVSPropertyOp1
 70
     1
102
RTVSPropertyOp2
 70
     1
102
RTVSPropertyOp3
 70
     1
102
RTVSPropertyOp4
 70
     1
102
RTVSPropertyOp5
 70
     1
102
RTVSPropertyOp6
 70
     1
102
RTVSPropertyOp7
 70
     1
102
RTVSPropertyOp8
 70
     1
102
RTVSPropertyOp9
 70
     1
102
RTVSPropertyOp10
 70
     1
102
RTVSPropertyOp11
 70
     1
102
RTVSPropertyOp12
 70
     1
102
RTVSPropertyOp13
 70
     1
102
RTVSPropertyOp14
 70
     1
102
RTVSPropertyOp15
 70
     1
102
RTVSPropertyOp16
 70
     1
102
RTVSPropertyOp17
 70
     1
102
RTVSPropertyOp18
 70
     1
102
RTVSPropertyOp19
 70
     1
102
RTVSPropertyOp20
 70
     1
102
RTVSPropertyOp21
 70
     1
102
RTVSPropertyOp22
 70
     1
102
RTVSPropertyOp23
 70
     1
102
RTVSPropertyOp24
 70
     1
102
RTVSPropertyOp25
 70
     1
102
RTVSPropertyOp26
 70
     1
102
RTVSPropertyOp27
 70
     1
102
RTVSPropertyOp28
 70
     1
102
RTVSPropertyOp29
 70
     1
102
RTVSPropertyOp30
 70
     1
102
RTVSPropertyOp31
 70
     1
102
RTVSPropertyOp32
 70
     1
102
RTVSPropertyOp33
 70
     1
102
RTVSPropertyOp34
 70
     1
102
RTVSPropertyOp35
 70
     1
102
RTVSPropertyOp36
 70
     1
102
RTVSPropertyOp37
 70
     1
102
RTVSPropertyOp38
 70
     1
102
RTVSPropertyOp39
 70
     1
102
RTVSPropertyOp40
 70
     1
102
RTVSPropertyOp41
 70
     1
102
RTVSPropertyOp42
 70
     1
102
RTVSPropertyOp43
 70
     1
102
RTVSPropertyOp44
 70
     1
102
RTVSPropertyOp45
 70
     1
102
RTVSPropertyOp46
 70
     1
102
RTVSPropertyOp47
 70
     1
102
RTVSPropertyOp48
 70
     1
102
RTVSPropertyOp49
 70
     1
102
RTVSPropertyOp50
 70
     1
102
RTVSPropertyOp51
 70
     0
102
RTVSPropertyOp52
 70
     0
102
RTVSPropertyOp53
 70
     1
102
RTVSPropertyOp54
 70
     1
102
RTVSPropertyOp55
 70
     1
102
RTVSPropertyOp56
 70
     1
102
RTVSPropertyOp57
 70
     1
102
RTVSPost2010Prop28
280
     0
102
RTVSPost2010PropOp28
 70
     1
102
RTVSPost2010Prop29
280
     1
102
RTVSPost2010PropOp29
 70
     1
102
RTVSPost2010Prop30
280
     1
102
RTVSPost2010PropOp30
 70
     1
102
RTVSPost2010Prop31
280
     0
102
RTVSPost2010PropOp31
 70
     1
102
RTVSPost2010Prop32
280
     0
102
RTVSPost2010PropOp32
 70
     1
102
RTVSPost2010Prop33
280
     0
102
RTVSPost2010PropOp33
 70
     1
102
RTVSPost2010Prop34
280
     0
102
RTVSPost2010PropOp34
 70
     1
102
RTVSPost2010Prop35
280
     0
102
RTVSPost2010PropOp35
 70
     1
102
RTVSPost2010Prop36
280
     0
102
RTVSPost2010PropOp36
 70
     1
102
RTVSPost2010Prop37
 90
       50
102
RTVSPost2010PropOp37
 70
     1
102
RTVSPost2010Prop38
140
0.0
102
RTVSPost2010PropOp38
 70
     1
102
RTVSPost2010Prop39
140
1.0
102
RTVSPost2010PropOp39
 70
     1
102
RTVSPost2010Prop40
 90
        0
102
RTVSPost2010PropOp40
 70
     1
102
RTVSPost2010Prop41ColorIndex
 90
       18
102
RTVSPost2010Prop41ColorRGB
 90
        0
102
RTVSPost2010PropOp41
 70
     1
102
RTVSPost2010Prop42
 90
       50
102
RTVSPost2010PropOp42
 70
     1
102
RTVSPost2010Prop43
 90
        3
102
RTVSPost2010PropOp43
 70
     1
102
RTVSPost2010Prop44ColorIndex
 90
        5
102
RTVSPost2010Prop44ColorRGB
 90
      255
102
RTVSPost2010PropOp44
 70
     1
102
RTVSPost2010Prop45
280
     0
102
RTVSPost2010PropOp45
 70
     1
102
RTVSPost2010Prop46
 90
       50
102
RTVSPost2010PropOp46
 70
     1
102
RTVSPost2010Prop47
 90
       50
102
RTVSPost2010PropOp47
 70
     1
102
RTVSPost2010Prop48
 90
       50
102
RTVSPost2010PropOp48
 70
     1
102
RTVSPost2010Prop49
280
     0
102
RTVSPost2010PropOp49
 70
     1
102
RTVSPost2010Prop50
 90
       50
102
RTVSPost2010PropOp50
 70
     1
102
RTVSPost2010Prop51ColorIndex
 90
      256
102
RTVSPost2010Prop51ColorRGB
 90
-16777216
102
RTVSPost2010PropOp51
 70
     0
102
RTVSPost2010Prop52
140
1.0
102
RTVSPost2010PropOp52
 70
     0
102
RTVSPost2010Prop53
 90
        2
102
RTVSPost2010PropOp53
 70
     1
102
RTVSPost2010Prop54
  1
strokes_ogs.tif
102
RTVSPost2010PropOp54
 70
     1
102
RTVSPost2010Prop55
280
     0
102
RTVSPost2010PropOp55
 70
     1
102
RTVSPost2010Prop56
140
1.0
102
RTVSPost2010PropOp56
 70
     1
102
RTVSPost2010Prop57
140
1.0
102
RTVSPost2010PropOp57
 70
     1
  0
XRECORD
  5
81
102
{ACAD_REACTORS
330
80
102
}
330
80
100
AcDbXrecord
280
     1
102
RTVSPropertyOp0
 70
     1
102
RTVSPropertyOp1
 70
     1
102
RTVSPropertyOp2
 70
     1
102
RTVSPropertyOp3
 70
     1
102
RTVSPropertyOp4
 70
     1
102
RTVSPropertyOp5
 70
     1
102
RTVSPropertyOp6
 70
     1
102
RTVSPropertyOp7
 70
     1
102
RTVSPropertyOp8
 70
     1
102
RTVSPropertyOp9
 70
     1
102
RTVSPropertyOp10
 70
     1
102
RTVSPropertyOp11
 70
     1
102
RTVSPropertyOp12
 70
     1
102
RTVSPropertyOp13
 70
     1
102
RTVSPropertyOp14
 70
     1
102
RTVSPropertyOp15
 70
     1
102
RTVSPropertyOp16
 70
     1
102
RTVSPropertyOp17
 70
     1
102
RTVSPropertyOp18
 70
     1
102
RTVSPropertyOp19
 70
     1
102
RTVSPropertyOp20
 70
     1
102
RTVSPropertyOp21
 70
     1
102
RTVSPropertyOp22
 70
     1
102
RTVSPropertyOp23
 70
     1
102
RTVSPropertyOp24
 70
     1
102
RTVSPropertyOp25
 70
     1
102
RTVSPropertyOp26
 70
     1
102
RTVSPropertyOp27
 70
     1
102
RTVSPropertyOp28
 70
     1
102
RTVSPropertyOp29
 70
     1
102
RTVSPropertyOp30
 70
     1
102
RTVSPropertyOp31
 70
     1
102
RTVSPropertyOp32
 70
     1
102
RTVSPropertyOp33
 70
     1
102
RTVSPropertyOp34
 70
     1
102
RTVSPropertyOp35
 70
     1
102
RTVSPropertyOp36
 70
     1
102
RTVSPropertyOp37
 70
     1
102
RTVSPropertyOp38
 70
     1
102
RTVSPropertyOp39
 70
     1
102
RTVSPropertyOp40
 70
     1
102
RTVSPropertyOp41
 70
     1
102
RTVSPropertyOp42
 70
     1
102
RTVSPropertyOp43
 70
     1
102
RTVSPropertyOp44
 70
     1
102
RTVSPropertyOp45
 70
     1
102
RTVSPropertyOp46
 70
     1
102
RTVSPropertyOp47
 70
     1
102
RTVSPropertyOp48
 70
     1
102
RTVSPropertyOp49
 70
     1
102
RTVSPropertyOp50
 70
     1
102
RTVSPropertyOp51
 70
     0
102
RTVSPropertyOp52
 70
     0
102
RTVSPropertyOp53
 70
     1
102
RTVSPropertyOp54
 70
     1
102
RTVSPropertyOp55
 70
     1
102
RTVSPropertyOp56
 70
     1
102
RTVSPropertyOp57
 70
     1
102
RTVSPost2010Prop28
280
     0
102
RTVSPost2010PropOp28
 70
     1
102
RTVSPost2010Prop29
280
     1
102
RTVSPost2010PropOp29
 70
     1
102
RTVSPost2010Prop30
280
     1
102
RTVSPost2010PropOp30
 70
     1
102
RTVSPost2010Prop31
280
     0
102
RTVSPost2010PropOp31
 70
     1
102
RTVSPost2010Prop32
280
     0
102
RTVSPost2010PropOp32
 70
     1
102
RTVSPost2010Prop33
280
     0
102
RTVSPost2010PropOp33
 70
     1
102
RTVSPost2010Prop34
280
     0
102
RTVSPost2010PropOp34
 70
     1
102
RTVSPost2010Prop35
280
     0
102
RTVSPost2010PropOp35
 70
     1
102
RTVSPost2010Prop36
280
     0
102
RTVSPost2010PropOp36
 70
     1
102
RTVSPost2010Prop37
 90
       50
102
RTVSPost2010PropOp37
 70
     1
102
RTVSPost2010Prop38
140
0.0
102
RTVSPost2010PropOp38
 70
     1
102
RTVSPost2010Prop39
140
1.0
102
RTVSPost2010PropOp39
 70
     1
102
RTVSPost2010Prop40
 90
        0
102
RTVSPost2010PropOp40
 70
     1
102
RTVSPost2010Prop41ColorIndex
 90
       18
102
RTVSPost2010Prop41ColorRGB
 90
        0
102
RTVSPost2010PropOp41
 70
     1
102
RTVSPost2010Prop42
 90
       50
102
RTVSPost2010PropOp42
 70
     1
102
RTVSPost2010Prop43
 90
        3
102
RTVSPost2010PropOp43
 70
     1
102
RTVSPost2010Prop44ColorIndex
 90
        5
102
RTVSPost2010Prop44ColorRGB
 90
      255
102
RTVSPost2010PropOp44
 70
     1
102
RTVSPost2010Prop45
280
     0
102
RTVSPost2010PropOp45
 70
     1
102
RTVSPost2010Prop46
 90
       50
102
RTVSPost2010PropOp46
 70
     1
102
RTVSPost2010Prop47
 90
       50
102
RTVSPost2010PropOp47
 70
     1
102
RTVSPost2010Prop48
 90
       50
102
RTVSPost2010PropOp48
 70
     1
102
RTVSPost2010Prop49
280
     0
102
RTVSPost2010PropOp49
 70
     1
102
RTVSPost2010Prop50
 90
       50
102
RTVSPost2010PropOp50
 70
     1
102
RTVSPost2010Prop51ColorIndex
 90
      256
102
RTVSPost2010Prop51ColorRGB
 90
-16777216
102
RTVSPost2010PropOp51
 70
     0
102
RTVSPost2010Prop52
140
1.0
102
RTVSPost2010PropOp52
 70
     0
102
RTVSPost2010Prop53
 90
        2
102
RTVSPost2010PropOp53
 70
     1
102
RTVSPost2010Prop54
  1
strokes_ogs.tif
102
RTVSPost2010PropOp54
 70
     1
102
RTVSPost2010Prop55
280
     0
102
RTVSPost2010PropOp55
 70
     1
102
RTVSPost2010Prop56
140
1.0
102
RTVSPost2010PropOp56
 70
     1
102
RTVSPost2010Prop57
140
1.0
102
RTVSPost2010PropOp57
 70
     1
  0
XRECORD
  5
83
102
{ACAD_REACTORS
330
82
102
}
330
82
100
AcDbXrecord
280
     1
102
RTVSPropertyOp0
 70
     1
102
RTVSPropertyOp1
 70
     1
102
RTVSPropertyOp2
 70
     1
102
RTVSPropertyOp3
 70
     1
102
RTVSPropertyOp4
 70
     1
102
RTVSPropertyOp5
 70
     1
102
RTVSPropertyOp6
 70
     1
102
RTVSPropertyOp7
 70
     1
102
RTVSPropertyOp8
 70
     1
102
RTVSPropertyOp9
 70
     1
102
RTVSPropertyOp10
 70
     1
102
RTVSPropertyOp11
 70
     1
102
RTVSPropertyOp12
 70
     1
102
RTVSPropertyOp13
 70
     1
102
RTVSPropertyOp14
 70
     1
102
RTVSPropertyOp15
 70
     1
102
RTVSPropertyOp16
 70
     1
102
RTVSPropertyOp17
 70
     1
102
RTVSPropertyOp18
 70
     1
102
RTVSPropertyOp19
 70
     1
102
RTVSPropertyOp20
 70
     1
102
RTVSPropertyOp21
 70
     1
102
RTVSPropertyOp22
 70
     1
102
RTVSPropertyOp23
 70
     1
102
RTVSPropertyOp24
 70
     1
102
RTVSPropertyOp25
 70
     1
102
RTVSPropertyOp26
 70
     1
102
RTVSPropertyOp27
 70
     1
102
RTVSPropertyOp28
 70
     1
102
RTVSPropertyOp29
 70
     1
102
RTVSPropertyOp30
 70
     1
102
RTVSPropertyOp31
 70
     1
102
RTVSPropertyOp32
 70
     1
102
RTVSPropertyOp33
 70
     1
102
RTVSPropertyOp34
 70
     1
102
RTVSPropertyOp35
 70
     1
102
RTVSPropertyOp36
 70
     1
102
RTVSPropertyOp37
 70
     1
102
RTVSPropertyOp38
 70
     1
102
RTVSPropertyOp39
 70
     1
102
RTVSPropertyOp40
 70
     1
102
RTVSPropertyOp41
 70
     1
102
RTVSPropertyOp42
 70
     1
102
RTVSPropertyOp43
 70
     1
102
RTVSPropertyOp44
 70
     1
102
RTVSPropertyOp45
 70
     1
102
RTVSPropertyOp46
 70
     1
102
RTVSPropertyOp47
 70
     1
102
RTVSPropertyOp48
 70
     1
102
RTVSPropertyOp49
 70
     1
102
RTVSPropertyOp50
 70
     1
102
RTVSPropertyOp51
 70
     0
102
RTVSPropertyOp52
 70
     0
102
RTVSPropertyOp53
 70
     1
102
RTVSPropertyOp54
 70
     1
102
RTVSPropertyOp55
 70
     1
102
RTVSPropertyOp56
 70
     1
102
RTVSPropertyOp57
 70
     1
102
RTVSPost2010Prop28
280
     0
102
RTVSPost2010PropOp28
 70
     1
102
RTVSPost2010Prop29
280
     1
102
RTVSPost2010PropOp29
 70
     1
102
RTVSPost2010Prop30
280
     1
102
RTVSPost2010PropOp30
 70
     1
102
RTVSPost2010Prop31
280
     0
102
RTVSPost2010PropOp31
 70
     1
102
RTVSPost2010Prop32
280
     0
102
RTVSPost2010PropOp32
 70
     1
102
RTVSPost2010Prop33
280
     0
102
RTVSPost2010PropOp33
 70
     1
102
RTVSPost2010Prop34
280
     0
102
RTVSPost2010PropOp34
 70
     1
102
RTVSPost2010Prop35
280
     0
102
RTVSPost2010PropOp35
 70
     1
102
RTVSPost2010Prop36
280
     0
102
RTVSPost2010PropOp36
 70
     1
102
RTVSPost2010Prop37
 90
       50
102
RTVSPost2010PropOp37
 70
     1
102
RTVSPost2010Prop38
140
0.0
102
RTVSPost2010PropOp38
 70
     1
102
RTVSPost2010Prop39
140
1.0
102
RTVSPost2010PropOp39
 70
     1
102
RTVSPost2010Prop40
 90
        0
102
RTVSPost2010PropOp40
 70
     1
102
RTVSPost2010Prop41ColorIndex
 90
       18
102
RTVSPost2010Prop41ColorRGB
 90
        0
102
RTVSPost2010PropOp41
 70
     1
102
RTVSPost2010Prop42
 90
       50
102
RTVSPost2010PropOp42
 70
     1
102
RTVSPost2010Prop43
 90
        3
102
RTVSPost2010PropOp43
 70
     1
102
RTVSPost2010Prop44ColorIndex
 90
        5
102
RTVSPost2010Prop44ColorRGB
 90
      255
102
RTVSPost2010PropOp44
 70
     1
102
RTVSPost2010Prop45
280
     0
102
RTVSPost2010PropOp45
 70
     1
102
RTVSPost2010Prop46
 90
       50
102
RTVSPost2010PropOp46
 70
     1
102
RTVSPost2010Prop47
 90
       50
102
RTVSPost2010PropOp47
 70
     1
102
RTVSPost2010Prop48
 90
       50
102
RTVSPost2010PropOp48
 70
     1
102
RTVSPost2010Prop49
280
     0
102
RTVSPost2010PropOp49
 70
     1
102
RTVSPost2010Prop50
 90
       50
102
RTVSPost2010PropOp50
 70
     1
102
RTVSPost2010Prop51ColorIndex
 90
      256
102
RTVSPost2010Prop51ColorRGB
 90
-16777216
102
RTVSPost2010PropOp51
 70
     0
102
RTVSPost2010Prop52
140
1.0
102
RTVSPost2010PropOp52
 70
     0
102
RTVSPost2010Prop53
 90
        2
102
RTVSPost2010PropOp53
 70
     1
102
RTVSPost2010Prop54
  1
strokes_ogs.tif
102
RTVSPost2010PropOp54
 70
     1
102
RTVSPost2010Prop55
280
     0
102
RTVSPost2010PropOp55
 70
     1
102
RTVSPost2010Prop56
140
1.0
102
RTVSPost2010PropOp56
 70
     1
102
RTVSPost2010Prop57
140
1.0
102
RTVSPost2010PropOp57
 70
     1
  0
XRECORD
  5
85
102
{ACAD_REACTORS
330
84
102
}
330
84
100
AcDbXrecord
280
     1
102
RTVSPropertyOp0
 70
     1
102
RTVSPropertyOp1
 70
     1
102
RTVSPropertyOp2
 70
     1
102
RTVSPropertyOp3
 70
     1
102
RTVSPropertyOp4
 70
     1
102
RTVSPropertyOp5
 70
     1
102
RTVSPropertyOp6
 70
     1
102
RTVSPropertyOp7
 70
     1
102
RTVSPropertyOp8
 70
     1
102
RTVSPropertyOp9
 70
     1
102
RTVSPropertyOp10
 70
     1
102
RTVSPropertyOp11
 70
     1
102
RTVSPropertyOp12
 70
     1
102
RTVSPropertyOp13
 70
     1
102
RTVSPropertyOp14
 70
     1
102
RTVSPropertyOp15
 70
     1
102
RTVSPropertyOp16
 70
     1
102
RTVSPropertyOp17
 70
     1
102
RTVSPropertyOp18
 70
     1
102
RTVSPropertyOp19
 70
     1
102
RTVSPropertyOp20
 70
     1
102
RTVSPropertyOp21
 70
     1
102
RTVSPropertyOp22
 70
     1
102
RTVSPropertyOp23
 70
     1
102
RTVSPropertyOp24
 70
     1
102
RTVSPropertyOp25
 70
     1
102
RTVSPropertyOp26
 70
     1
102
RTVSPropertyOp27
 70
     1
102
RTVSPropertyOp28
 70
     1
102
RTVSPropertyOp29
 70
     1
102
RTVSPropertyOp30
 70
     1
102
RTVSPropertyOp31
 70
     1
102
RTVSPropertyOp32
 70
     1
102
RTVSPropertyOp33
 70
     1
102
RTVSPropertyOp34
 70
     1
102
RTVSPropertyOp35
 70
     1
102
RTVSPropertyOp36
 70
     1
102
RTVSPropertyOp37
 70
     1
102
RTVSPropertyOp38
 70
     1
102
RTVSPropertyOp39
 70
     1
102
RTVSPropertyOp40
 70
     1
102
RTVSPropertyOp41
 70
     1
102
RTVSPropertyOp42
 70
     1
102
RTVSPropertyOp43
 70
     1
102
RTVSPropertyOp44
 70
     1
102
RTVSPropertyOp45
 70
     1
102
RTVSPropertyOp46
 70
     1
102
RTVSPropertyOp47
 70
     1
102
RTVSPropertyOp48
 70
     1
102
RTVSPropertyOp49
 70
     1
102
RTVSPropertyOp50
 70
     1
102
RTVSPropertyOp51
 70
     0
102
RTVSPropertyOp52
 70
     0
102
RTVSPropertyOp53
 70
     1
102
RTVSPropertyOp54
 70
     1
102
RTVSPropertyOp55
 70
     1
102
RTVSPropertyOp56
 70
     1
102
RTVSPropertyOp57
 70
     1
102
RTVSPost2010Prop28
280
     0
102
RTVSPost2010PropOp28
 70
     1
102
RTVSPost2010Prop29
280
     1
102
RTVSPost2010PropOp29
 70
     1
102
RTVSPost2010Prop30
280
     1
102
RTVSPost2010PropOp30
 70
     1
102
RTVSPost2010Prop31
280
     0
102
RTVSPost2010PropOp31
 70
     1
102
RTVSPost2010Prop32
280
     0
102
RTVSPost2010PropOp32
 70
     1
102
RTVSPost2010Prop33
280
     0
102
RTVSPost2010PropOp33
 70
     1
102
RTVSPost2010Prop34
280
     0
102
RTVSPost2010PropOp34
 70
     1
102
RTVSPost2010Prop35
280
     0
102
RTVSPost2010PropOp35
 70
     1
102
RTVSPost2010Prop36
280
     0
102
RTVSPost2010PropOp36
 70
     1
102
RTVSPost2010Prop37
 90
       50
102
RTVSPost2010PropOp37
 70
     1
102
RTVSPost2010Prop38
140
0.0
102
RTVSPost2010PropOp38
 70
     1
102
RTVSPost2010Prop39
140
1.0
102
RTVSPost2010PropOp39
 70
     1
102
RTVSPost2010Prop40
 90
        0
102
RTVSPost2010PropOp40
 70
     1
102
RTVSPost2010Prop41ColorIndex
 90
       18
102
RTVSPost2010Prop41ColorRGB
 90
        0
102
RTVSPost2010PropOp41
 70
     1
102
RTVSPost2010Prop42
 90
       50
102
RTVSPost2010PropOp42
 70
     1
102
RTVSPost2010Prop43
 90
        3
102
RTVSPost2010PropOp43
 70
     1
102
RTVSPost2010Prop44ColorIndex
 90
        5
102
RTVSPost2010Prop44ColorRGB
 90
      255
102
RTVSPost2010PropOp44
 70
     1
102
RTVSPost2010Prop45
280
     0
102
RTVSPost2010PropOp45
 70
     1
102
RTVSPost2010Prop46
 90
       50
102
RTVSPost2010PropOp46
 70
     1
102
RTVSPost2010Prop47
 90
       50
102
RTVSPost2010PropOp47
 70
     1
102
RTVSPost2010Prop48
 90
       50
102
RTVSPost2010PropOp48
 70
     1
102
RTVSPost2010Prop49
280
     0
102
RTVSPost2010PropOp49
 70
     1
102
RTVSPost2010Prop50
 90
       50
102
RTVSPost2010PropOp50
 70
     1
102
RTVSPost2010Prop51ColorIndex
 90
      256
102
RTVSPost2010Prop51ColorRGB
 90
-16777216
102
RTVSPost2010PropOp51
 70
     0
102
RTVSPost2010Prop52
140
1.0
102
RTVSPost2010PropOp52
 70
     0
102
RTVSPost2010Prop53
 90
        2
102
RTVSPost2010PropOp53
 70
     1
102
RTVSPost2010Prop54
  1
strokes_ogs.tif
102
RTVSPost2010PropOp54
 70
     1
102
RTVSPost2010Prop55
280
     0
102
RTVSPost2010PropOp55
 70
     1
102
RTVSPost2010Prop56
140
1.0
102
RTVSPost2010PropOp56
 70
     1
102
RTVSPost2010Prop57
140
1.0
102
RTVSPost2010PropOp57
 70
     1
  0
XRECORD
  5
99
102
{ACAD_REACTORS
330
98
102
}
330
98
100
AcDbXrecord
280
     1
102
RTVSPropertyOp0
 70
     1
102
RTVSPropertyOp1
 70
     1
102
RTVSPropertyOp2
 70
     1
102
RTVSPropertyOp3
 70
     1
102
RTVSPropertyOp4
 70
     1
102
RTVSPropertyOp5
 70
     1
102
RTVSPropertyOp6
 70
     1
102
RTVSPropertyOp7
 70
     1
102
RTVSPropertyOp8
 70
     1
102
RTVSPropertyOp9
 70
     1
102
RTVSPropertyOp10
 70
     1
102
RTVSPropertyOp11
 70
     1
102
RTVSPropertyOp12
 70
     1
102
RTVSPropertyOp13
 70
     1
102
RTVSPropertyOp14
 70
     1
102
RTVSPropertyOp15
 70
     1
102
RTVSPropertyOp16
 70
     1
102
RTVSPropertyOp17
 70
     1
102
RTVSPropertyOp18
 70
     1
102
RTVSPropertyOp19
 70
     1
102
RTVSPropertyOp20
 70
     1
102
RTVSPropertyOp21
 70
     1
102
RTVSPropertyOp22
 70
     1
102
RTVSPropertyOp23
 70
     1
102
RTVSPropertyOp24
 70
     1
102
RTVSPropertyOp25
 70
     1
102
RTVSPropertyOp26
 70
     1
102
RTVSPropertyOp27
 70
     1
102
RTVSPropertyOp28
 70
     1
102
RTVSPropertyOp29
 70
     1
102
RTVSPropertyOp30
 70
     1
102
RTVSPropertyOp31
 70
     1
102
RTVSPropertyOp32
 70
     1
102
RTVSPropertyOp33
 70
     1
102
RTVSPropertyOp34
 70
     1
102
RTVSPropertyOp35
 70
     1
102
RTVSPropertyOp36
 70
     1
102
RTVSPropertyOp37
 70
     1
102
RTVSPropertyOp38
 70
     1
102
RTVSPropertyOp39
 70
     1
102
RTVSPropertyOp40
 70
     1
102
RTVSPropertyOp41
 70
     1
102
RTVSPropertyOp42
 70
     1
102
RTVSPropertyOp43
 70
     1
102
RTVSPropertyOp44
 70
     1
102
RTVSPropertyOp45
 70
     1
102
RTVSPropertyOp46
 70
     1
102
RTVSPropertyOp47
 70
     1
102
RTVSPropertyOp48
 70
     1
102
RTVSPropertyOp49
 70
     1
102
RTVSPropertyOp50
 70
     1
102
RTVSPropertyOp51
 70
     0
102
RTVSPropertyOp52
 70
     0
102
RTVSPropertyOp53
 70
     1
102
RTVSPropertyOp54
 70
     1
102
RTVSPropertyOp55
 70
     1
102
RTVSPropertyOp56
 70
     1
102
RTVSPropertyOp57
 70
     1
102
RTVSPost2010Prop28
280
     0
102
RTVSPost2010PropOp28
 70
     1
102
RTVSPost2010Prop29
280
     1
102
RTVSPost2010PropOp29
 70
     1
102
RTVSPost2010Prop30
280
     1
102
RTVSPost2010PropOp30
 70
     1
102
RTVSPost2010Prop31
280
     0
102
RTVSPost2010PropOp31
 70
     1
102
RTVSPost2010Prop32
280
     0
102
RTVSPost2010PropOp32
 70
     1
102
RTVSPost2010Prop33
280
     0
102
RTVSPost2010PropOp33
 70
     1
102
RTVSPost2010Prop34
280
     0
102
RTVSPost2010PropOp34
 70
     1
102
RTVSPost2010Prop35
280
     0
102
RTVSPost2010PropOp35
 70
     1
102
RTVSPost2010Prop36
280
     0
102
RTVSPost2010PropOp36
 70
     1
102
RTVSPost2010Prop37
 90
       50
102
RTVSPost2010PropOp37
 70
     1
102
RTVSPost2010Prop38
140
0.0
102
RTVSPost2010PropOp38
 70
     1
102
RTVSPost2010Prop39
140
1.0
102
RTVSPost2010PropOp39
 70
     1
102
RTVSPost2010Prop40
 90
        0
102
RTVSPost2010PropOp40
 70
     1
102
RTVSPost2010Prop41ColorIndex
 90
       18
102
RTVSPost2010Prop41ColorRGB
 90
        0
102
RTVSPost2010PropOp41
 70
     1
102
RTVSPost2010Prop42
 90
       50
102
RTVSPost2010PropOp42
 70
     1
102
RTVSPost2010Prop43
 90
        3
102
RTVSPost2010PropOp43
 70
     1
102
RTVSPost2010Prop44ColorIndex
 90
        5
102
RTVSPost2010Prop44ColorRGB
 90
      255
102
RTVSPost2010PropOp44
 70
     1
102
RTVSPost2010Prop45
280
     0
102
RTVSPost2010PropOp45
 70
     1
102
RTVSPost2010Prop46
 90
       50
102
RTVSPost2010PropOp46
 70
     1
102
RTVSPost2010Prop47
 90
       50
102
RTVSPost2010PropOp47
 70
     1
102
RTVSPost2010Prop48
 90
       50
102
RTVSPost2010PropOp48
 70
     1
102
RTVSPost2010Prop49
280
     0
102
RTVSPost2010PropOp49
 70
     1
102
RTVSPost2010Prop50
 90
       50
102
RTVSPost2010PropOp50
 70
     1
102
RTVSPost2010Prop51ColorIndex
 90
      256
102
RTVSPost2010Prop51ColorRGB
 90
-16777216
102
RTVSPost2010PropOp51
 70
     0
102
RTVSPost2010Prop52
140
1.0
102
RTVSPost2010PropOp52
 70
     0
102
RTVSPost2010Prop53
 90
        2
102
RTVSPost2010PropOp53
 70
     1
102
RTVSPost2010Prop54
  1
strokes_ogs.tif
102
RTVSPost2010PropOp54
 70
     1
102
RTVSPost2010Prop55
280
     0
102
RTVSPost2010PropOp55
 70
     1
102
RTVSPost2010Prop56
140
1.0
102
RTVSPost2010PropOp56
 70
     1
102
RTVSPost2010Prop57
140
1.0
102
RTVSPost2010PropOp57
 70
     1
  0
XRECORD
  5
8F
102
{ACAD_REACTORS
330
8E
102
}
330
8E
100
AcDbXrecord
280
     1
102
RTVSPropertyOp0
 70
     1
102
RTVSPropertyOp1
 70
     1
102
RTVSPropertyOp2
 70
     1
102
RTVSPropertyOp3
 70
     1
102
RTVSPropertyOp4
 70
     1
102
RTVSPropertyOp5
 70
     1
102
RTVSPropertyOp6
 70
     1
102
RTVSPropertyOp7
 70
     1
102
RTVSPropertyOp8
 70
     1
102
RTVSPropertyOp9
 70
     1
102
RTVSPropertyOp10
 70
     1
102
RTVSPropertyOp11
 70
     1
102
RTVSPropertyOp12
 70
     1
102
RTVSPropertyOp13
 70
     1
102
RTVSPropertyOp14
 70
     1
102
RTVSPropertyOp15
 70
     1
102
RTVSPropertyOp16
 70
     1
102
RTVSPropertyOp17
 70
     1
102
RTVSPropertyOp18
 70
     1
102
RTVSPropertyOp19
 70
     1
102
RTVSPropertyOp20
 70
     1
102
RTVSPropertyOp21
 70
     1
102
RTVSPropertyOp22
 70
     1
102
RTVSPropertyOp23
 70
     1
102
RTVSPropertyOp24
 70
     1
102
RTVSPropertyOp25
 70
     1
102
RTVSPropertyOp26
 70
     1
102
RTVSPropertyOp27
 70
     1
102
RTVSPropertyOp28
 70
     1
102
RTVSPropertyOp29
 70
     1
102
RTVSPropertyOp30
 70
     1
102
RTVSPropertyOp31
 70
     1
102
RTVSPropertyOp32
 70
     1
102
RTVSPropertyOp33
 70
     1
102
RTVSPropertyOp34
 70
     1
102
RTVSPropertyOp35
 70
     1
102
RTVSPropertyOp36
 70
     1
102
RTVSPropertyOp37
 70
     1
102
RTVSPropertyOp38
 70
     1
102
RTVSPropertyOp39
 70
     1
102
RTVSPropertyOp40
 70
     1
102
RTVSPropertyOp41
 70
     1
102
RTVSPropertyOp42
 70
     1
102
RTVSPropertyOp43
 70
     1
102
RTVSPropertyOp44
 70
     1
102
RTVSPropertyOp45
 70
     1
102
RTVSPropertyOp46
 70
     1
102
RTVSPropertyOp47
 70
     1
102
RTVSPropertyOp48
 70
     1
102
RTVSPropertyOp49
 70
     1
102
RTVSPropertyOp50
 70
     1
102
RTVSPropertyOp51
 70
     0
102
RTVSPropertyOp52
 70
     0
102
RTVSPropertyOp53
 70
     1
102
RTVSPropertyOp54
 70
     1
102
RTVSPropertyOp55
 70
     1
102
RTVSPropertyOp56
 70
     1
102
RTVSPropertyOp57
 70
     1
102
RTVSPost2010Prop28
280
     0
102
RTVSPost2010PropOp28
 70
     1
102
RTVSPost2010Prop29
280
     1
102
RTVSPost2010PropOp29
 70
     1
102
RTVSPost2010Prop30
280
     1
102
RTVSPost2010PropOp30
 70
     1
102
RTVSPost2010Prop31
280
     0
102
RTVSPost2010PropOp31
 70
     1
102
RTVSPost2010Prop32
280
     0
102
RTVSPost2010PropOp32
 70
     1
102
RTVSPost2010Prop33
280
     0
102
RTVSPost2010PropOp33
 70
     1
102
RTVSPost2010Prop34
280
     0
102
RTVSPost2010PropOp34
 70
     1
102
RTVSPost2010Prop35
280
     0
102
RTVSPost2010PropOp35
 70
     1
102
RTVSPost2010Prop36
280
     0
102
RTVSPost2010PropOp36
 70
     1
102
RTVSPost2010Prop37
 90
       50
102
RTVSPost2010PropOp37
 70
     1
102
RTVSPost2010Prop38
140
0.0
102
RTVSPost2010PropOp38
 70
     1
102
RTVSPost2010Prop39
140
1.0
102
RTVSPost2010PropOp39
 70
     1
102
RTVSPost2010Prop40
 90
        0
102
RTVSPost2010PropOp40
 70
     1
102
RTVSPost2010Prop41ColorIndex
 90
       18
102
RTVSPost2010Prop41ColorRGB
 90
        0
102
RTVSPost2010PropOp41
 70
     1
102
RTVSPost2010Prop42
 90
       50
102
RTVSPost2010PropOp42
 70
     1
102
RTVSPost2010Prop43
 90
        3
102
RTVSPost2010PropOp43
 70
     1
102
RTVSPost2010Prop44ColorIndex
 90
        5
102
RTVSPost2010Prop44ColorRGB
 90
      255
102
RTVSPost2010PropOp44
 70
     1
102
RTVSPost2010Prop45
280
     0
102
RTVSPost2010PropOp45
 70
     1
102
RTVSPost2010Prop46
 90
       50
102
RTVSPost2010PropOp46
 70
     1
102
RTVSPost2010Prop47
 90
       50
102
RTVSPost2010PropOp47
 70
     1
102
RTVSPost2010Prop48
 90
       50
102
RTVSPost2010PropOp48
 70
     1
102
RTVSPost2010Prop49
280
     0
102
RTVSPost2010PropOp49
 70
     1
102
RTVSPost2010Prop50
 90
       50
102
RTVSPost2010PropOp50
 70
     1
102
RTVSPost2010Prop51ColorIndex
 90
      256
102
RTVSPost2010Prop51ColorRGB
 90
-16777216
102
RTVSPost2010PropOp51
 70
     0
102
RTVSPost2010Prop52
140
1.0
102
RTVSPost2010PropOp52
 70
     0
102
RTVSPost2010Prop53
 90
        2
102
RTVSPost2010PropOp53
 70
     1
102
RTVSPost2010Prop54
  1
strokes_ogs.tif
102
RTVSPost2010PropOp54
 70
     1
102
RTVSPost2010Prop55
280
     0
102
RTVSPost2010PropOp55
 70
     1
102
RTVSPost2010Prop56
140
1.0
102
RTVSPost2010PropOp56
 70
     1
102
RTVSPost2010Prop57
140
1.0
102
RTVSPost2010PropOp57
 70
     1
  0
XRECORD
  5
97
102
{ACAD_REACTORS
330
96
102
}
330
96
100
AcDbXrecord
280
     1
102
RTVSPropertyOp0
 70
     1
102
RTVSPropertyOp1
 70
     1
102
RTVSPropertyOp2
 70
     1
102
RTVSPropertyOp3
 70
     1
102
RTVSPropertyOp4
 70
     1
102
RTVSPropertyOp5
 70
     1
102
RTVSPropertyOp6
 70
     1
102
RTVSPropertyOp7
 70
     1
102
RTVSPropertyOp8
 70
     1
102
RTVSPropertyOp9
 70
     1
102
RTVSPropertyOp10
 70
     1
102
RTVSPropertyOp11
 70
     1
102
RTVSPropertyOp12
 70
     1
102
RTVSPropertyOp13
 70
     1
102
RTVSPropertyOp14
 70
     1
102
RTVSPropertyOp15
 70
     1
102
RTVSPropertyOp16
 70
     1
102
RTVSPropertyOp17
 70
     1
102
RTVSPropertyOp18
 70
     1
102
RTVSPropertyOp19
 70
     1
102
RTVSPropertyOp20
 70
     1
102
RTVSPropertyOp21
 70
     1
102
RTVSPropertyOp22
 70
     1
102
RTVSPropertyOp23
 70
     1
102
RTVSPropertyOp24
 70
     1
102
RTVSPropertyOp25
 70
     1
102
RTVSPropertyOp26
 70
     1
102
RTVSPropertyOp27
 70
     1
102
RTVSPropertyOp28
 70
     1
102
RTVSPropertyOp29
 70
     1
102
RTVSPropertyOp30
 70
     1
102
RTVSPropertyOp31
 70
     1
102
RTVSPropertyOp32
 70
     1
102
RTVSPropertyOp33
 70
     1
102
RTVSPropertyOp34
 70
     1
102
RTVSPropertyOp35
 70
     1
102
RTVSPropertyOp36
 70
     1
102
RTVSPropertyOp37
 70
     1
102
RTVSPropertyOp38
 70
     1
102
RTVSPropertyOp39
 70
     1
102
RTVSPropertyOp40
 70
     1
102
RTVSPropertyOp41
 70
     1
102
RTVSPropertyOp42
 70
     1
102
RTVSPropertyOp43
 70
     1
102
RTVSPropertyOp44
 70
     1
102
RTVSPropertyOp45
 70
     1
102
RTVSPropertyOp46
 70
     1
102
RTVSPropertyOp47
 70
     1
102
RTVSPropertyOp48
 70
     1
102
RTVSPropertyOp49
 70
     1
102
RTVSPropertyOp50
 70
     1
102
RTVSPropertyOp51
 70
     0
102
RTVSPropertyOp52
 70
     0
102
RTVSPropertyOp53
 70
     1
102
RTVSPropertyOp54
 70
     1
102
RTVSPropertyOp55
 70
     1
102
RTVSPropertyOp56
 70
     1
102
RTVSPropertyOp57
 70
     1
102
RTVSPost2010Prop28
280
     0
102
RTVSPost2010PropOp28
 70
     1
102
RTVSPost2010Prop29
280
     1
102
RTVSPost2010PropOp29
 70
     1
102
RTVSPost2010Prop30
280
     1
102
RTVSPost2010PropOp30
 70
     1
102
RTVSPost2010Prop31
280
     0
102
RTVSPost2010PropOp31
 70
     1
102
RTVSPost2010Prop32
280
     0
102
RTVSPost2010PropOp32
 70
     1
102
RTVSPost2010Prop33
280
     0
102
RTVSPost2010PropOp33
 70
     1
102
RTVSPost2010Prop34
280
     0
102
RTVSPost2010PropOp34
 70
     1
102
RTVSPost2010Prop35
280
     0
102
RTVSPost2010PropOp35
 70
     1
102
RTVSPost2010Prop36
280
     0
102
RTVSPost2010PropOp36
 70
     1
102
RTVSPost2010Prop37
 90
       50
102
RTVSPost2010PropOp37
 70
     1
102
RTVSPost2010Prop38
140
0.0
102
RTVSPost2010PropOp38
 70
     1
102
RTVSPost2010Prop39
140
1.0
102
RTVSPost2010PropOp39
 70
     1
102
RTVSPost2010Prop40
 90
        0
102
RTVSPost2010PropOp40
 70
     1
102
RTVSPost2010Prop41ColorIndex
 90
       18
102
RTVSPost2010Prop41ColorRGB
 90
        0
102
RTVSPost2010PropOp41
 70
     1
102
RTVSPost2010Prop42
 90
       50
102
RTVSPost2010PropOp42
 70
     1
102
RTVSPost2010Prop43
 90
        3
102
RTVSPost2010PropOp43
 70
     1
102
RTVSPost2010Prop44ColorIndex
 90
        5
102
RTVSPost2010Prop44ColorRGB
 90
      255
102
RTVSPost2010PropOp44
 70
     1
102
RTVSPost2010Prop45
280
     0
102
RTVSPost2010PropOp45
 70
     1
102
RTVSPost2010Prop46
 90
       50
102
RTVSPost2010PropOp46
 70
     1
102
RTVSPost2010Prop47
 90
       50
102
RTVSPost2010PropOp47
 70
     1
102
RTVSPost2010Prop48
 90
       50
102
RTVSPost2010PropOp48
 70
     1
102
RTVSPost2010Prop49
280
     0
102
RTVSPost2010PropOp49
 70
     1
102
RTVSPost2010Prop50
 90
       50
102
RTVSPost2010PropOp50
 70
     1
102
RTVSPost2010Prop51ColorIndex
 90
      256
102
RTVSPost2010Prop51ColorRGB
 90
-16777216
102
RTVSPost2010PropOp51
 70
     0
102
RTVSPost2010Prop52
140
1.0
102
RTVSPost2010PropOp52
 70
     0
102
RTVSPost2010Prop53
 90
        2
102
RTVSPost2010PropOp53
 70
     1
102
RTVSPost2010Prop54
  1
strokes_ogs.tif
102
RTVSPost2010PropOp54
 70
     1
102
RTVSPost2010Prop55
280
     0
102
RTVSPost2010PropOp55
 70
     1
102
RTVSPost2010Prop56
140
1.0
102
RTVSPost2010PropOp56
 70
     1
102
RTVSPost2010Prop57
140
1.0
102
RTVSPost2010PropOp57
 70
     1
  0
ENDSEC
  0
EOF
