  0
SECTION
  2
HEADER
  9
$ACADVER
  1
AC1018
  9
$ACADMAINTVER
 70
     0
  9
$DWGCODEPAGE
  3
ANSI_936
  9
$INSBASE
 10
0.0
 20
0.0
 30
0.0
  9
$EXTMIN
 10
1229.625229917618
 20
-985.999917752064
 30
0.0
  9
$EXTMAX
 10
1675.870904417588
 20
-640.3235565174491
 30
0.0
  9
$LIMMIN
 10
0.0
 20
0.0
  9
$LIMMAX
 10
12.0
 20
9.0
  9
$ORTHOMODE
 70
     0
  9
$REGENMODE
 70
     1
  9
$FILLMODE
 70
     1
  9
$QTEXTMODE
 70
     0
  9
$MIRRTEXT
 70
     1
  9
$LTSCALE
 40
1.0
  9
$ATTMODE
 70
     1
  9
$TEXTSIZE
 40
0.2
  9
$TRACEWID
 40
0.05
  9
$TEXTSTYLE
  7
Standard
  9
$CLAYER
  8
0
  9
$CELTYPE
  6
ByLayer
  9
$CECOLOR
 62
   256
  9
$CELTSCALE
 40
1.0
  9
$DISPSILH
 70
     0
  9
$DIMSCALE
 40
1.0
  9
$DIMASZ
 40
0.18
  9
$DIMEXO
 40
0.0625
  9
$DIMDLI
 40
0.38
  9
$DIMRND
 40
0.0
  9
$DIMDLE
 40
0.0
  9
$DIMEXE
 40
0.18
  9
$DIMTP
 40
0.0
  9
$DIMTM
 40
0.0
  9
$DIMTXT
 40
0.18
  9
$DIMCEN
 40
0.09
  9
$DIMTSZ
 40
0.0
  9
$DIMTOL
 70
     0
  9
$DIMLIM
 70
     0
  9
$DIMTIH
 70
     1
  9
$DIMTOH
 70
     1
  9
$DIMSE1
 70
     0
  9
$DIMSE2
 70
     0
  9
$DIMTAD
 70
     0
  9
$DIMZIN
 70
     0
  9
$DIMBLK
  1

  9
$DIMASO
 70
     1
  9
$DIMSHO
 70
     1
  9
$DIMPOST
  1

  9
$DIMAPOST
  1

  9
$DIMALT
 70
     0
  9
$DIMALTD
 70
     2
  9
$DIMALTF
 40
25.4
  9
$DIMLFAC
 40
1.0
  9
$DIMTOFL
 70
     0
  9
$DIMTVP
 40
0.0
  9
$DIMTIX
 70
     0
  9
$DIMSOXD
 70
     0
  9
$DIMSAH
 70
     0
  9
$DIMBLK1
  1

  9
$DIMBLK2
  1

  9
$DIMSTYLE
  2
Standard
  9
$DIMCLRD
 70
     0
  9
$DIMCLRE
 70
     0
  9
$DIMCLRT
 70
     0
  9
$DIMTFAC
 40
1.0
  9
$DIMGAP
 40
0.09
  9
$DIMJUST
 70
     0
  9
$DIMSD1
 70
     0
  9
$DIMSD2
 70
     0
  9
$DIMTOLJ
 70
     1
  9
$DIMTZIN
 70
     0
  9
$DIMALTZ
 70
     0
  9
$DIMALTTZ
 70
     0
  9
$DIMUPT
 70
     0
  9
$DIMDEC
 70
     4
  9
$DIMTDEC
 70
     4
  9
$DIMALTU
 70
     2
  9
$DIMALTTD
 70
     2
  9
$DIMTXSTY
  7
Standard
  9
$DIMAUNIT
 70
     0
  9
$DIMADEC
 70
     0
  9
$DIMALTRND
 40
0.0
  9
$DIMAZIN
 70
     0
  9
$DIMDSEP
 70
    46
  9
$DIMATFIT
 70
     3
  9
$DIMFRAC
 70
     0
  9
$DIMLDRBLK
  1

  9
$DIMLUNIT
 70
     2
  9
$DIMLWD
 70
    -2
  9
$DIMLWE
 70
    -2
  9
$DIMTMOVE
 70
     2
  9
$LUNITS
 70
     2
  9
$LUPREC
 70
     3
  9
$SKETCHINC
 40
0.1
  9
$FILLETRAD
 40
0.5
  9
$AUNITS
 70
     0
  9
$AUPREC
 70
     0
  9
$MENU
  1
.
  9
$ELEVATION
 40
0.0
  9
$PELEVATION
 40
0.0
  9
$THICKNESS
 40
0.0
  9
$LIMCHECK
 70
     0
  9
$CHAMFERA
 40
0.5
  9
$CHAMFERB
 40
0.5
  9
$CHAMFERC
 40
1.0
  9
$CHAMFERD
 40
0.0
  9
$SKPOLY
 70
     0
  9
$TDCREATE
 40
2458254.411072593
  9
$TDUCREATE
 40
2458254.077739259
  9
$TDUPDATE
 40
2458254.41107265
  9
$TDUUPDATE
 40
2458254.077739317
  9
$TDINDWG
 40
0.0000000116
  9
$TDUSRTIMER
 40
0.0000000116
  9
$USRTIMER
 70
     1
  9
$ANGBASE
 50
0.0
  9
$ANGDIR
 70
     0
  9
$PDMODE
 70
     0
  9
$PDSIZE
 40
0.0
  9
$PLINEWID
 40
0.0
  9
$SPLFRAME
 70
     0
  9
$SPLINETYPE
 70
     6
  9
$SPLINESEGS
 70
     8
  9
$HANDSEED
  5
BB
  9
$SURFTAB1
 70
     6
  9
$SURFTAB2
 70
     6
  9
$SURFTYPE
 70
     6
  9
$SURFU
 70
     6
  9
$SURFV
 70
     6
  9
$UCSBASE
  2

  9
$UCSNAME
  2

  9
$UCSORG
 10
0.0
 20
0.0
 30
0.0
  9
$UCSXDIR
 10
1.0
 20
0.0
 30
0.0
  9
$UCSYDIR
 10
0.0
 20
1.0
 30
0.0
  9
$UCSORTHOREF
  2

  9
$UCSORTHOVIEW
 70
     0
  9
$UCSORGTOP
 10
0.0
 20
0.0
 30
0.0
  9
$UCSORGBOTTOM
 10
0.0
 20
0.0
 30
0.0
  9
$UCSORGLEFT
 10
0.0
 20
0.0
 30
0.0
  9
$UCSORGRIGHT
 10
0.0
 20
0.0
 30
0.0
  9
$UCSORGFRONT
 10
0.0
 20
0.0
 30
0.0
  9
$UCSORGBACK
 10
0.0
 20
0.0
 30
0.0
  9
$PUCSBASE
  2

  9
$PUCSNAME
  2

  9
$PUCSORG
 10
0.0
 20
0.0
 30
0.0
  9
$PUCSXDIR
 10
1.0
 20
0.0
 30
0.0
  9
$PUCSYDIR
 10
0.0
 20
1.0
 30
0.0
  9
$PUCSORTHOREF
  2

  9
$PUCSORTHOVIEW
 70
     0
  9
$PUCSORGTOP
 10
0.0
 20
0.0
 30
0.0
  9
$PUCSORGBOTTOM
 10
0.0
 20
0.0
 30
0.0
  9
$PUCSORGLEFT
 10
0.0
 20
0.0
 30
0.0
  9
$PUCSORGRIGHT
 10
0.0
 20
0.0
 30
0.0
  9
$PUCSORGFRONT
 10
0.0
 20
0.0
 30
0.0
  9
$PUCSORGBACK
 10
0.0
 20
0.0
 30
0.0
  9
$USERI1
 70
     0
  9
$USERI2
 70
     0
  9
$USERI3
 70
     0
  9
$USERI4
 70
     0
  9
$USERI5
 70
     0
  9
$USERR1
 40
0.0
  9
$USERR2
 40
0.0
  9
$USERR3
 40
0.0
  9
$USERR4
 40
0.0
  9
$USERR5
 40
0.0
  9
$WORLDVIEW
 70
     1
  9
$SHADEDGE
 70
     3
  9
$SHADEDIF
 70
    70
  9
$TILEMODE
 70
     1
  9
$MAXACTVP
 70
    64
  9
$PINSBASE
 10
0.0
 20
0.0
 30
0.0
  9
$PLIMCHECK
 70
     0
  9
$PEXTMIN
 10
1.000000000000000E+20
 20
1.000000000000000E+20
 30
1.000000000000000E+20
  9
$PEXTMAX
 10
-1.000000000000000E+20
 20
-1.000000000000000E+20
 30
-1.000000000000000E+20
  9
$PLIMMIN
 10
0.0
 20
0.0
  9
$PLIMMAX
 10
12.0
 20
9.0
  9
$UNITMODE
 70
     0
  9
$VISRETAIN
 70
     1
  9
$PLINEGEN
 70
     0
  9
$PSLTSCALE
 70
     1
  9
$TREEDEPTH
 70
  3020
  9
$CMLSTYLE
  2
Standard
  9
$CMLJUST
 70
     0
  9
$CMLSCALE
 40
1.0
  9
$PROXYGRAPHICS
 70
     1
  9
$MEASUREMENT
 70
     0
  9
$CELWEIGHT
370
    -1
  9
$ENDCAPS
280
     0
  9
$JOINSTYLE
280
     0
  9
$LWDISPLAY
290
     0
  9
$INSUNITS
 70
     4
  9
$HYPERLINKBASE
  1

  9
$STYLESHEET
  1

  9
$XEDIT
290
     1
  9
$CEPSNTYPE
380
     0
  9
$PSTYLEMODE
290
     1
  9
$FINGERPRINTGUID
  2
{86313ACE-98FE-4331-861B-DED2290CB642}
  9
$VERSIONGUID
  2
{FAEB1C32-E019-11D5-929B-00C0DF256EC4}
  9
$EXTNAMES
290
     1
  9
$PSVPSCALE
 40
0.0
  9
$OLESTARTUP
290
     0
  9
$SORTENTS
280
   127
  9
$INDEXCTL
280
     0
  9
$HIDETEXT
280
     1
  9
$XCLIPFRAME
290
     0
  9
$HALOGAP
280
     0
  9
$OBSCOLOR
 70
   257
  9
$OBSLTYPE
280
     0
  9
$INTERSECTIONDISPLAY
280
     0
  9
$INTERSECTIONCOLOR
 70
   257
  9
$DIMASSOC
280
     2
  9
$PROJECTNAME
  1

  0
ENDSEC
  0
SECTION
  2
CLASSES
  0
CLASS
  1
ACDBDICTIONARYWDFLT
  2
AcDbDictionaryWithDefault
  3
ObjectDBX Classes
 90
        0
 91
        4
280
     0
281
     0
  0
CLASS
  1
VISUALSTYLE
  2
AcDbVisualStyle
  3
ObjectDBX Classes
 90
     4095
 91
        4
280
     0
281
     0
  0
CLASS
  1
MATERIAL
  2
AcDbMaterial
  3
ObjectDBX Classes
 90
     1153
 91
        4
280
     0
281
     0
  0
CLASS
  1
SCALE
  2
AcDbScale
  3
ObjectDBX Classes
 90
     1153
 91
        4
280
     0
281
     0
  0
CLASS
  1
SUN
  2
AcDbSun
  3
SCENEOE
 90
     1153
 91
        4
280
     0
281
     0
  0
CLASS
  1
DICTIONARYVAR
  2
AcDbDictionaryVar
  3
ObjectDBX Classes
 90
        0
 91
        4
280
     0
281
     0
  0
ENDSEC
  0
SECTION
  2
TABLES
  0
TABLE
  2
VPORT
  5
8
330
0
100
AcDbSymbolTable
 70
     1
  0
VPORT
  5
29
330
8
100
AcDbSymbolTableRecord
100
AcDbViewportTableRecord
  2
*Active
 70
     0
 10
0.0
 20
0.0
 11
1.0
 21
1.0
 12
1452.748067167603
 22
-813.1617371347565
 13
0.0
 23
0.0
 14
0.5
 24
0.5
 15
0.5
 25
0.5
 16
0.0
 26
0.0
 36
1.0
 17
0.0
 27
0.0
 37
0.0
 40
352.5898884593072
 41
1.290934887494657
 42
50.0
 43
0.0
 44
0.0
 50
0.0
 51
0.0
 71
     0
 72
   100
 73
     1
 74
     3
 75
     0
 76
     0
 77
     0
 78
     0
281
     0
 65
     1
110
0.0
120
0.0
130
0.0
111
1.0
121
0.0
131
0.0
112
0.0
122
1.0
132
0.0
 79
     0
146
0.0
  0
ENDTAB
  0
TABLE
  2
LTYPE
  5
5
330
0
100
AcDbSymbolTable
 70
     1
  0
LTYPE
  5
14
330
5
100
AcDbSymbolTableRecord
100
AcDbLinetypeTableRecord
  2
ByBlock
 70
     0
  3

 72
    65
 73
     0
 40
0.0
  0
LTYPE
  5
15
330
5
100
AcDbSymbolTableRecord
100
AcDbLinetypeTableRecord
  2
ByLayer
 70
     0
  3

 72
    65
 73
     0
 40
0.0
  0
LTYPE
  5
16
330
5
100
AcDbSymbolTableRecord
100
AcDbLinetypeTableRecord
  2
Continuous
 70
     0
  3
Solid line
 72
    65
 73
     0
 40
0.0
  0
ENDTAB
  0
TABLE
  2
LAYER
  5
2
330
0
100
AcDbSymbolTable
 70
     2
  0
LAYER
  5
10
330
2
100
AcDbSymbolTableRecord
100
AcDbLayerTableRecord
  2
0
 70
     0
 62
     7
  6
Continuous
370
    -3
390
F
  0
LAYER
  5
62
330
2
100
AcDbSymbolTableRecord
100
AcDbLayerTableRecord
  2
EGH111 EGH011$2D
 70
     0
 62
     5
420
      255
  6
Continuous
370
    -3
390
F
  0
ENDTAB
  0
TABLE
  2
STYLE
  5
3
330
0
100
AcDbSymbolTable
 70
     1
  0
STYLE
  5
11
330
3
100
AcDbSymbolTableRecord
100
AcDbTextStyleTableRecord
  2
Standard
 70
     0
 40
0.0
 41
1.0
 50
0.0
 71
     0
 42
0.2
  3
txt
  4

  0
ENDTAB
  0
TABLE
  2
VIEW
  5
6
330
0
100
AcDbSymbolTable
 70
     0
  0
ENDTAB
  0
TABLE
  2
UCS
  5
7
330
0
100
AcDbSymbolTable
 70
     0
  0
ENDTAB
  0
TABLE
  2
APPID
  5
9
330
0
100
AcDbSymbolTable
 70
     1
  0
APPID
  5
12
330
9
100
AcDbSymbolTableRecord
100
AcDbRegAppTableRecord
  2
ACAD
 70
     0
  0
ENDTAB
  0
TABLE
  2
DIMSTYLE
  5
A
330
0
100
AcDbSymbolTable
 70
     1
100
AcDbDimStyleTable
  0
DIMSTYLE
105
27
330
A
100
AcDbSymbolTableRecord
100
AcDbDimStyleTableRecord
  2
Standard
 70
     0
178
     0
340
11
  0
ENDTAB
  0
TABLE
  2
BLOCK_RECORD
  5
1
330
0
100
AcDbSymbolTable
 70
     1
  0
BLOCK_RECORD
  5
1F
330
1
100
AcDbSymbolTableRecord
100
AcDbBlockTableRecord
  2
*Model_Space
340
22
  0
BLOCK_RECORD
  5
1B
330
1
100
AcDbSymbolTableRecord
100
AcDbBlockTableRecord
  2
*Paper_Space
340
1E
  0
BLOCK_RECORD
  5
23
330
1
100
AcDbSymbolTableRecord
100
AcDbBlockTableRecord
  2
*Paper_Space0
340
26
  0
ENDTAB
  0
ENDSEC
  0
SECTION
  2
BLOCKS
  0
BLOCK
  5
20
330
1F
100
AcDbEntity
  8
0
100
AcDbBlockBegin
  2
*Model_Space
 70
     0
 10
0.0
 20
0.0
 30
0.0
  3
*Model_Space
  1
*Model_Space
  0
ENDBLK
  5
21
330
1F
100
AcDbEntity
  8
0
100
AcDbBlockEnd
  0
BLOCK
  5
1C
330
1B
100
AcDbEntity
 67
     1
  8
0
100
AcDbBlockBegin
  2
*Paper_Space
 70
     0
 10
0.0
 20
0.0
 30
0.0
  3
*Paper_Space
  1
*Paper_Space
  0
ENDBLK
  5
1D
330
1B
100
AcDbEntity
 67
     1
  8
0
100
AcDbBlockEnd
  0
BLOCK
  5
24
330
23
100
AcDbEntity
  8
0
100
AcDbBlockBegin
  2
*Paper_Space0
 70
     0
 10
0.0
 20
0.0
 30
0.0
  3
*Paper_Space0
  1
*Paper_Space0
  0
ENDBLK
  5
25
330
23
100
AcDbEntity
  8
0
100
AcDbBlockEnd
  0
ENDSEC
  0
SECTION
  2
ENTITIES
  0
LINE
  5
63
330
1F
100
AcDbEntity
  8
EGH111 EGH011$2D
100
AcDbLine
 10
1547.748383651051
 20
-760.3235539346679
 30
0.0
 11
1507.75331085718
 21
-760.3235539346679
 31
0.0
  0
LINE
  5
64
330
1F
100
AcDbEntity
  8
EGH111 EGH011$2D
100
AcDbLine
 10
1545.414981397726
 20
-761.3235539346676
 30
0.0
 11
1510.081785904499
 21
-761.3235539346679
 31
0.0
  0
LINE
  5
65
330
1F
100
AcDbEntity
  8
EGH111 EGH011$2D
100
AcDbLine
 10
1547.748383651051
 20
-752.3235539346679
 30
0.0
 11
1507.75331085718
 21
-752.3235539346679
 31
0.0
  0
LINE
  5
66
330
1F
100
AcDbEntity
  8
EGH111 EGH011$2D
100
AcDbLine
 10
1545.414981397719
 20
-751.3235539346676
 30
0.0
 11
1510.081785904492
 21
-751.3235539346688
 31
0.0
  0
LINE
  5
67
330
1F
100
AcDbEntity
  8
EGH111 EGH011$2D
100
AcDbLine
 10
1547.748383651051
 20
-752.3235539346679
 30
0.0
 11
1547.748383651051
 21
-760.3235539346679
 31
0.0
  0
CIRCLE
  5
68
330
1F
100
AcDbEntity
  8
EGH111 EGH011$2D
100
AcDbCircle
 10
1452.748383651051
 20
-700.3235565368884
 30
0.0
 40
15.00000000000023
  0
SPLINE
  5
69
330
1F
100
AcDbEntity
  8
EGH111 EGH011$2D
100
AcDbSpline
210
0.0
220
0.0
230
1.0
 70
    15
 71
     3
 72
   392
 73
   388
 74
     0
 42
0.000000001
 43
0.0000000001
 12
1.0
 22
0.0
 32
0.0
 13
1.0
 23
0.0
 33
0.0
 40
-0.0598066907036492
 40
-0.0598066907036492
 40
-0.0598066907036492
 40
-0.0598066907036492
 40
3.847925165759706
 40
7.886940100022666
 40
7.886940100022666
 40
7.886940100022666
 40
15.66003856869031
 40
15.66003856869031
 40
15.66003856869031
 40
101.3967111237172
 40
101.3967111237172
 40
101.3967111237172
 40
109.193638393185
 40
109.193638393185
 40
109.193638393185
 40
113.2546719300119
 40
117.6695154376394
 40
117.6695154376394
 40
117.6695154376394
 40
125.5788175182932
 40
125.5788175182932
 40
125.5788175182932
 40
133.44993194088
 40
133.44993194088
 40
133.44993194088
 40
141.3345257145775
 40
141.3345257145775
 40
141.3345257145775
 40
149.1651854796532
 40
149.1651854796532
 40
149.1651854796532
 40
156.9876078707817
 40
156.9876078707817
 40
156.9876078707817
 40
164.81126025191
 40
164.81126025191
 40
164.81126025191
 40
172.6454415072309
 40
172.6454415072309
 40
172.6454415072309
 40
180.5029700094682
 40
180.5029700094682
 40
180.5029700094682
 40
188.3945681199606
 40
188.3945681199606
 40
188.3945681199606
 40
196.3319213048589
 40
196.3319213048589
 40
196.3319213048589
 40
200.6265907361195
 40
204.7356456549244
 40
204.7356456549244
 40
204.7356456549244
 40
212.5505946692035
 40
212.5505946692035
 40
212.5505946692035
 40
490.77356290031
 40
490.77356290031
 40
490.77356290031
 40
498.418669134551
 40
498.418669134551
 40
498.418669134551
 40
506.3124009409172
 40
506.3124009409172
 40
506.3124009409172
 40
515.0258121803299
 40
515.0258121803299
 40
515.0258121803299
 40
522.7637790387345
 40
522.7637790387345
 40
522.7637790387345
 40
530.429527299294
 40
530.429527299294
 40
530.429527299294
 40
538.1414639854868
 40
538.1414639854868
 40
538.1414639854868
 40
545.7967755384756
 40
545.7967755384756
 40
545.7967755384756
 40
553.4483615195036
 40
553.4483615195036
 40
553.4483615195036
 40
561.1052790823101
 40
561.1052790823101
 40
561.1052790823101
 40
568.7754733154119
 40
568.7754733154119
 40
568.7754733154119
 40
576.4644174982158
 40
576.4644174982158
 40
576.4644174982158
 40
584.1808345045292
 40
584.1808345045292
 40
584.1808345045292
 40
591.9297047450776
 40
591.9297047450776
 40
591.9297047450776
 40
596.0237925491228
 40
599.9247649032329
 40
599.9247649032329
 40
599.9247649032329
 40
607.5485881891743
 40
607.5485881891743
 40
607.5485881891743
 40
615.178040643275
 40
615.178040643275
 40
615.178040643275
 40
691.3882509328097
 40
691.3882509328097
 40
691.3882509328097
 40
698.992332138135
 40
698.992332138135
 40
698.992332138135
 40
702.9411824414678
 40
706.7693111447708
 40
706.7693111447708
 40
706.7693111447708
 40
712.1798218727286
 40
712.1798218727286
 40
712.1798218727286
 40
717.5878387895692
 40
717.5878387895692
 40
717.5878387895692
 40
723.0029508623473
 40
723.0029508623473
 40
723.0029508623473
 40
728.4233942994446
 40
728.4233942994446
 40
728.4233942994446
 40
733.8589001413029
 40
733.8589001413029
 40
733.8589001413029
 40
738.3307691218163
 40
738.3307691218163
 40
738.3307691218163
 40
739.4495938877573
 40
739.4495938877573
 40
739.4495938877573
 40
744.8840874641509
 40
744.8840874641509
 40
744.8840874641509
 40
750.3232964982415
 40
750.3232964982415
 40
750.3232964982415
 40
755.7666359974222
 40
755.7666359974222
 40
755.7666359974222
 40
761.2189712931918
 40
761.2189712931918
 40
761.2189712931918
 40
766.6798801465816
 40
766.6798801465816
 40
766.6798801465816
 40
772.1475247637064
 40
772.1475247637064
 40
772.1475247637064
 40
777.621766850321
 40
777.621766850321
 40
777.621766850321
 40
783.096774197293
 40
783.096774197293
 40
783.096774197293
 40
788.5772463223284
 40
788.5772463223284
 40
788.5772463223284
 40
794.6649787138764
 40
794.6649787138764
 40
794.6649787138764
 40
800.0748917416715
 40
800.0748917416715
 40
800.0748917416715
 40
805.50066969726
 40
805.50066969726
 40
805.50066969726
 40
810.9469799583634
 40
810.9469799583634
 40
810.9469799583634
 40
816.3928822117472
 40
816.3928822117472
 40
816.3928822117472
 40
821.8321041326845
 40
821.8321041326845
 40
821.8321041326845
 40
827.2447059667941
 40
827.2447059667941
 40
827.2447059667941
 40
832.646343070571
 40
832.646343070571
 40
832.646343070571
 40
838.0502211117914
 40
838.0502211117914
 40
838.0502211117914
 40
843.4526290625794
 40
843.4526290625794
 40
843.4526290625794
 40
848.8544462863478
 40
848.8544462863478
 40
848.8544462863478
 40
854.2553198010086
 40
854.2553198010086
 40
854.2553198010086
 40
859.6552400097174
 40
859.6552400097174
 40
859.6552400097174
 40
865.0541159955792
 40
865.0541159955792
 40
865.0541159955792
 40
870.4518918316478
 40
870.4518918316478
 40
870.4518918316478
 40
875.8485166822088
 40
875.8485166822088
 40
875.8485166822088
 40
881.2439544851444
 40
881.2439544851444
 40
881.2439544851444
 40
886.6381829655372
 40
886.6381829655372
 40
886.6381829655372
 40
892.0311955376092
 40
892.0311955376092
 40
892.0311955376092
 40
897.4230022575625
 40
897.4230022575625
 40
897.4230022575625
 40
902.8136310386043
 40
902.8136310386043
 40
902.8136310386043
 40
908.2031286396008
 40
908.2031286396008
 40
908.2031286396008
 40
913.5915614854658
 40
913.5915614854658
 40
913.5915614854658
 40
918.9790162630261
 40
918.9790162630261
 40
918.9790162630261
 40
924.3656002519907
 40
924.3656002519907
 40
924.3656002519907
 40
929.7514413462724
 40
929.7514413462724
 40
929.7514413462724
 40
935.1366877273967
 40
935.1366877273967
 40
935.1366877273967
 40
940.5215071583732
 40
940.5215071583732
 40
940.5215071583732
 40
945.9060858761094
 40
945.9060858761094
 40
945.9060858761094
 40
951.2906645942716
 40
951.2906645942716
 40
951.2906645942716
 40
956.675484026507
 40
956.675484026507
 40
956.675484026507
 40
962.0607304096832
 40
962.0607304096832
 40
962.0607304096832
 40
967.446571506774
 40
967.446571506774
 40
967.446571506774
 40
972.8331554992689
 40
972.8331554992689
 40
972.8331554992689
 40
978.2206102810412
 40
978.2206102810412
 40
978.2206102810412
 40
983.609043131763
 40
983.609043131763
 40
983.609043131763
 40
988.9985407382248
 40
988.9985407382248
 40
988.9985407382248
 40
994.3891695253017
 40
994.3891695253017
 40
994.3891695253017
 40
999.7809762518214
 40
999.7809762518214
 40
999.7809762518214
 40
1005.173988830959
 40
1005.173988830959
 40
1005.173988830959
 40
1010.568217318853
 40
1010.568217318853
 40
1010.568217318853
 40
1015.963655129782
 40
1015.963655129782
 40
1015.963655129782
 40
1021.36027998845
 40
1021.36027998845
 40
1021.36027998845
 40
1026.75805583396
 40
1026.75805583396
 40
1026.75805583396
 40
1032.156931825898
 40
1032.156931825898
 40
1032.156931825898
 40
1037.556852054559
 40
1037.556852054559
 40
1037.556852054559
 40
1042.957725538964
 40
1042.957725538964
 40
1042.957725538964
 40
1048.359542919634
 40
1048.359542919634
 40
1048.359542919634
 40
1053.761950334658
 40
1053.761950334658
 40
1053.761950334658
 40
1059.165830409161
 40
1059.165830409161
 40
1059.165830409161
 40
1064.567460043083
 40
1064.567460043083
 40
1064.567460043083
 40
1069.980189314936
 40
1069.980189314936
 40
1069.980189314936
 40
1075.419438925273
 40
1075.419438925273
 40
1075.419438925273
 40
1080.865093344917
 40
1080.865093344917
 40
1080.865093344917
 40
1086.311479908657
 40
1086.311479908657
 40
1086.311479908657
 40
1091.737455529571
 40
1091.737455529571
 40
1091.737455529571
 40
1097.147289872288
 40
1097.147289872288
 40
1097.147289872288
 40
1103.236346012045
 40
1103.236346012045
 40
1103.236346012045
 40
1108.717636652938
 40
1108.717636652938
 40
1108.717636652938
 40
1114.18855144854
 40
1114.18855144854
 40
1114.18855144854
 40
1119.659875318819
 40
1119.659875318819
 40
1119.659875318819
 40
1125.114583962517
 40
1125.114583962517
 40
1125.114583962517
 40
1130.59563463031
 40
1130.59563463031
 40
1130.59563463031
 40
1136.046705251605
 40
1136.046705251605
 40
1136.046705251605
 40
1141.489456034572
 40
1141.489456034572
 40
1141.489456034572
 40
1146.929035236462
 40
1146.929035236462
 40
1146.929035236462
 40
1152.364768110085
 40
1152.364768110085
 40
1152.364768110085
 40
1153.48034966021
 40
1153.48034966021
 40
1153.48034966021
 40
1157.956867550111
 40
1157.956867550111
 40
1157.956867550111
 40
1163.383578801136
 40
1163.383578801136
 40
1163.383578801136
 40
1168.805954351897
 40
1168.805954351897
 40
1168.805954351897
 40
1174.224612893533
 40
1174.224612893533
 40
1174.224612893533
 40
1179.6402193782
 40
1179.6402193782
 40
1179.6402193782
 40
1182.700865551423
 40
1185.790172787029
 40
1185.790172787029
 40
1185.790172787029
 40
1185.790172787029
 10
1245.390201769158
 20
-805.3270733290519
 30
0.0
 41
1.0
 10
1245.370634385552
 20
-806.5434017387488
 30
0.0
 41
0.9999999999999994
 10
1245.362870407426
 20
-809.0953843989863
 30
0.0
 41
0.9999999999999991
 10
1245.377294688649
 20
-811.7349499127887
 30
0.0
 41
1.000000000000001
 10
1245.381127631088
 20
-813.0990754846334
 30
0.0
 41
1.0
 10
1245.385053115758
 20
-815.6901076017951
 30
0.0
 41
0.9999982494429307
 10
1245.383040848776
 20
-818.2811419111728
 30
0.0
 41
0.9999982494429305
 10
1245.375090840706
 20
-820.872164805507
 30
0.0
 41
1.0
 10
1245.348797881629
 20
-849.412643198934
 30
0.0
 41
0.9999989384884961
 10
1245.373436181614
 20
-877.9531230687528
 30
0.0
 41
0.9999989384884961
 10
1245.449005662202
 20
-906.4935135268206
 30
0.0
 41
1.0
 10
1245.462782162519
 20
-909.0924533813471
 30
0.0
 41
0.9999995297202264
 10
1245.4734716652
 20
-911.6914077660833
 30
0.0
 41
0.9999995297202264
 10
1245.481074155159
 20
-914.2903730143225
 30
0.0
 41
1.0
 10
1245.482504580131
 20
-915.6657558846017
 30
0.0
 41
0.9999999999999989
 10
1245.459094302051
 20
-918.3886904660176
 30
0.0
 41
1.000000000000001
 10
1245.495492693822
 20
-920.8851448089027
 30
0.0
 41
1.0
 10
1245.552900746836
 20
-922.1397141033431
 30
0.0
 41
1.0
 10
1245.676649281975
 20
-924.7757610862212
 30
0.0
 41
0.9980946129702086
 10
1245.999200797434
 20
-927.3949246770957
 30
0.0
 41
0.9980946129702084
 10
1246.518711536795
 20
-929.9822333149623
 30
0.0
 41
1.0
 10
1247.031111550697
 20
-932.5578116872182
 30
0.0
 41
0.9982124099710403
 10
1247.73062316179
 20
-935.0889855713725
 30
0.0
 41
0.9982124099710405
 10
1248.613495050129
 20
-937.5621808638352
 30
0.0
 41
1.0
 10
1249.499768031143
 20
-940.0389896306891
 30
0.0
 41
0.9981743408646607
 10
1250.566788634337
 20
-942.4434705511374
 30
0.0
 41
0.9981743408646591
 10
1251.808712811973
 20
-944.7624543375059
 30
0.0
 41
1.0
 10
1253.04221905185
 20
-947.0655905394693
 30
0.0
 41
0.9981361763878138
 10
1254.444375953233
 20
-949.270115438969
 30
0.0
 41
0.9981361763878145
 10
1256.007343396701
 20
-951.3637024993204
 30
0.0
 41
1.0
 10
1257.568506763838
 20
-953.4551801113655
 30
0.0
 41
0.9981524166765209
 10
1259.280945412308
 20
-955.4247139485477
 30
0.0
 41
0.9981524166765203
 10
1261.135167722841
 20
-957.2613873772498
 30
0.0
 41
1.0
 10
1262.990077879897
 20
-959.097985814092
 30
0.0
 41
0.9981328550677817
 10
1264.977152728032
 20
-960.7907111482406
 30
0.0
 41
0.9981328550677815
 10
1267.085261797049
 20
-962.3300816891078
 30
0.0
 41
1.0
 10
1269.196293181328
 20
-963.87139952916
 30
0.0
 41
0.9981362573939675
 10
1271.416593650324
 20
-965.2506674570311
 30
0.0
 41
0.9981362573939676
 10
1273.733748998289
 20
-966.460173671514
 30
0.0
 41
1.0
 10
1276.057924240045
 20
-967.6730576263936
 30
0.0
 41
0.9981389637414522
 10
1278.46617508626
 20
-968.7090141429052
 30
0.0
 41
0.9981389637414501
 10
1280.9450560105
 20
-969.5622593631306
 30
0.0
 41
1.0
 10
1283.43485905824
 20
-970.4186138264016
 30
0.0
 41
0.9981599095311081
 10
1285.981371869418
 20
-971.0877436238321
 30
0.0
 41
0.9981599095311083
 10
1288.570537002175
 20
-971.5659549773336
 30
0.0
 41
1.0
 10
1291.174457746228
 20
-972.0486507120684
 30
0.0
 41
0.998115092015811
 10
1293.807288302931
 20
-972.3343107781259
 30
0.0
 41
0.9981150920158106
 10
1296.454140742269
 20
-972.4213198466878
 30
0.0
 41
1.0
 10
1297.690059252455
 20
-972.4612528990693
 30
0.0
 41
0.9999999999999994
 10
1300.189746618282
 20
-972.4703876800924
 30
0.0
 41
0.9999999999999999
 10
1302.906623605224
 20
-972.4299361344256
 30
0.0
 41
1.0
 10
1304.305544532355
 20
-972.427391474228
 30
0.0
 41
1.0
 10
1306.910527801852
 20
-972.4286351121101
 30
0.0
 41
0.9999995688284663
 10
1309.515507972132
 20
-972.4328414686948
 30
0.0
 41
0.9999995688284635
 10
1312.120481673617
 20
-972.4400105385407
 30
0.0
 41
1.0
 10
1404.847180435399
 20
-972.4597798676987
 30
0.0
 41
0.999999985179817
 10
1497.573881304336
 20
-972.4599971506244
 30
0.0
 41
0.999999985179817
 10
1590.300580157749
 20
-972.4406623872928
 30
0.0
 41
1.0
 10
1592.848942250853
 20
-972.4339136671119
 30
0.0
 41
0.9999995985581187
 10
1595.397308392862
 20
-972.4299615714216
 30
0.0
 41
0.9999995985582136
 10
1597.945677337437
 20
-972.4288061001748
 30
0.0
 41
1.000000000000287
 10
1600.631342060308
 20
-972.4337453091629
 30
0.0
 41
1.000000000000287
 10
1603.178279083572
 20
-972.4817380902986
 30
0.0
 41
1.000000000000287
 10
1605.625596318037
 20
-972.4647835342421
 30
0.0
 41
1.000000000000287
 10
1608.325992053276
 20
-972.4478511860724
 30
0.0
 41
1.000000000000288
 10
1610.899201346067
 20
-972.3551633050612
 30
0.0
 41
1.000000000000286
 10
1613.364001286813
 20
-972.0908840044849
 30
0.0
 41
1.000000000000287
 10
1615.930589522717
 20
-971.8098463838135
 30
0.0
 41
0.9979823989521849
 10
1618.467562120704
 20
-971.3301304741433
 30
0.0
 41
0.9979823989521831
 10
1620.959563285051
 20
-970.6546399014405
 30
0.0
 41
1.000000000000287
 10
1623.430189016929
 20
-969.993853088975
 30
0.0
 41
0.9982679911356072
 10
1625.846795171246
 20
-969.156807442985
 30
0.0
 41
0.9982679911356056
 10
1628.196824998155
 20
-968.1478522749076
 30
0.0
 41
1.000000000000287
 10
1630.559830694249
 20
-967.1299336241676
 30
0.0
 41
0.9982276566886098
 10
1632.842379093764
 20
-965.9425301109621
 30
0.0
 41
0.9982276566886098
 10
1635.03233381853
 20
-964.5919551953157
 30
0.0
 41
1.000000000000287
 10
1637.206196923003
 20
-963.2511852477619
 30
0.0
 41
0.9981897137737309
 10
1639.275416971539
 20
-961.7539634071563
 30
0.0
 41
0.9981897137737301
 10
1641.228756322478
 20
-960.1084208737284
 30
0.0
 41
1.000000000000287
 10
1643.181379794182
 20
-958.464038207356
 30
0.0
 41
0.9982301683391924
 10
1645.00907904272
 20
-956.6818350111394
 30
0.0
 41
0.9982301683391921
 10
1646.702149908102
 20
-954.7712738840073
 30
0.0
 41
1.000000000000287
 10
1648.395863114772
 20
-952.8588963726138
 30
0.0
 41
0.998224880412144
 10
1649.945603579728
 20
-950.8280943970856
 30
0.0
 41
0.9982248804121426
 10
1651.343118379002
 20
-948.6896827065211
 30
0.0
 41
1.000000000000287
 10
1652.743294538784
 20
-946.5477258476353
 30
0.0
 41
0.9982294907524462
 10
1653.983749535247
 20
-944.3094801360347
 30
0.0
 41
0.9982294907524463
 10
1655.057894657264
 20
-941.9868340759131
 30
0.0
 41
1.000000000000287
 10
1656.133290894743
 20
-939.6579707525525
 30
0.0
 41
0.9982971011970792
 10
1657.039590681636
 20
-937.2582411547099
 30
0.0
 41
0.9982971011970787
 10
1657.772164007471
 20
-934.7999047723661
 30
0.0
 41
1.000000000000287
 10
1658.510965826376
 20
-932.333647265005
 30
0.0
 41
0.9981364657248063
 10
1659.063428484765
 20
-929.8190818490106
 30
0.0
 41
0.9981364657248063
 10
1659.426463383341
 20
-927.2702664609042
 30
0.0
 41
1.000000000000287
 10
1659.777826578016
 20
-924.7097320623408
 30
0.0
 41
0.9987835756980441
 10
1659.973939371755
 20
-922.1326538188774
 30
0.0
 41
0.9987835756980433
 10
1660.014086095449
 20
-919.5484361923263
 30
0.0
 41
1.000000000000287
 10
1660.037882345776
 20
-918.3297698973767
 30
0.0
 41
1.000000000000287
 10
1660.036180195728
 20
-915.8810162873307
 30
0.0
 41
1.000000000000286
 10
1660.005924074391
 20
-913.2516647967932
 30
0.0
 41
1.000000000000287
 10
1660.005545473763
 20
-911.9133378314073
 30
0.0
 41
1.000000000000287
 10
1660.011936565871
 20
-909.3720696471652
 30
0.0
 41
0.9999985895818111
 10
1660.023555034321
 20
-906.8308199857798
 30
0.0
 41
0.9999985895818109
 10
1660.040400829948
 20
-904.2895995999279
 30
0.0
 41
1.000000000000287
 10
1660.048980567738
 20
-901.7464629300157
 30
0.0
 41
0.9999997448077942
 10
1660.055335126931
 20
-899.2033197265508
 30
0.0
 41
0.9999997448077942
 10
1660.059464502661
 20
-896.6601719365062
 30
0.0
 41
1.000000000000287
 10
1660.112134900532
 20
-871.2848727711395
 30
0.0
 41
0.9999992910900686
 10
1660.127799655081
 20
-845.9095237781081
 30
0.0
 41
0.9999992910900686
 10
1660.106458732993
 20
-820.5341789239446
 30
0.0
 41
1.000000000000287
 10
1660.098666395088
 20
-817.999494953188
 30
0.0
 41
0.9999982534021877
 10
1660.096676116724
 20
-815.4647997859277
 30
0.0
 41
0.9999982534021867
 10
1660.100487908327
 20
-812.9301067034448
 30
0.0
 41
1.000000000000287
 10
1660.104219646388
 20
-811.5960360057181
 30
0.0
 41
1.000000000000288
 10
1660.118299595008
 20
-809.0130554243277
 30
0.0
 41
1.000000000000286
 10
1660.110674537984
 20
-806.517517981665
 30
0.0
 41
1.000000000000287
 10
1660.091586422164
 20
-805.3270733290483
 30
0.0
 41
1.000000000000287
 10
1660.07538009382
 20
-803.523086479378
 30
0.0
 41
0.999383689057715
 10
1659.981636651997
 20
-801.7214640533471
 30
0.0
 41
0.9993836890577145
 10
1659.810529422022
 20
-799.9255371298023
 30
0.0
 41
1.000000000000287
 10
1659.627028188762
 20
-798.1314348708041
 30
0.0
 41
0.999124419917466
 10
1659.351847304945
 20
-796.3490906000379
 30
0.0
 41
0.9991244199174655
 10
1658.98570959927
 20
-794.5831860729377
 30
0.0
 41
1.000000000000287
 10
1658.620598595944
 20
-792.8146764111468
 30
0.0
 41
0.9991498588921798
 10
1658.166668891364
 20
-791.0668548264601
 30
0.0
 41
0.9991498588921808
 10
1657.625078198434
 20
-789.3441790038141
 30
0.0
 41
1.000000000000287
 10
1657.082995648653
 20
-787.619798501577
 30
0.0
 41
0.9991544516811952
 10
1656.454779551902
 20
-785.924898462326
 30
0.0
 41
0.9991544516811949
 10
1655.742023469371
 20
-784.2637782456986
 30
0.0
 41
1.000000000000287
 10
1655.027114190743
 20
-782.5981220693424
 30
0.0
 41
0.9991604510233909
 10
1654.229538710333
 20
-780.9704307203608
 30
0.0
 41
0.99916045102339
 10
1653.351305839176
 20
-779.3848037785738
 30
0.0
 41
1.000000000000287
 10
1652.628815776294
 20
-778.0804934885265
 30
0.0
 41
0.9994331603081117
 10
1651.853165151177
 20
-776.8070794429608
 30
0.0
 41
0.9994331603081116
 10
1651.025672972512
 20
-775.5667271067541
 30
0.0
 41
1.000000000000287
 10
1650.848541882536
 20
-775.3011926542479
 30
0.0
 41
1.000000000000287
 10
1650.669074148064
 20
-775.0372153294446
 30
0.0
 41
1.000000000000286
 10
1650.487298875025
 20
-774.7748264345646
 30
0.0
 41
1.000000000000287
 10
1649.455221637395
 20
-773.2851822879395
 30
0.0
 41
0.9991784105618505
 10
1648.350483585913
 20
-771.8485971196974
 30
0.0
 41
0.9991784105618504
 10
1647.175807643922
 20
-770.4686117794445
 30
0.0
 41
1.000000000000287
 10
1646.000020930758
 20
-769.0875195763398
 30
0.0
 41
0.9991890044091749
 10
1644.757562466252
 20
-767.7660858730054
 30
0.0
 41
0.9991890044091748
 10
1643.451455135415
 20
-766.5075257001645
 30
0.0
 41
1.000000000000287
 10
1642.144451736038
 20
-765.2479127432023
 30
0.0
 41
0.9991907865783713
 10
1640.776991136936
 20
-764.0542066666382
 30
0.0
 41
0.999190786578371
 10
1639.352393040517
 20
-762.9293053594083
 30
0.0
 41
1.000000000000287
 10
1637.925348460099
 20
-761.8026676442754
 30
0.0
 41
0.9991948112704752
 10
1636.444671709845
 20
-760.747506454261
 30
0.0
 41
0.9991948112704755
 10
1634.913939462447
 20
-759.7663706010608
 30
0.0
 41
1.000000000000287
 10
1633.380786150916
 20
-758.7837265178827
 30
0.0
 41
0.999202291321021
 10
1631.801411192776
 20
-757.8772370185159
 30
0.0
 41
0.9992022913210198
 10
1630.179594231362
 20
-757.049071446585
 30
0.0
 41
1.000000000000287
 10
1628.555719043305
 20
-756.2200259841276
 30
0.0
 41
0.9992164524575844
 10
1626.893569278006
 20
-755.4706628125468
 30
0.0
 41
0.9992164524575843
 10
1625.197052055555
 20
-754.802743416858
 30
0.0
 41
1.000000000000287
 10
1623.498606052772
 20
-754.1337113956604
 30
0.0
 41
0.9992139341636399
 10
1621.769683215398
 20
-753.5479226178853
 30
0.0
 41
0.9992139341636396
 10
1620.014360684963
 20
-753.0467584891703
 30
0.0
 41
1.000000000000287
 10
1618.258521538431
 20
-752.5466287050252
 30
0.0
 41
0.9992599393526134
 10
1616.481072555344
 20
-752.1297641922572
 30
0.0
 41
0.9992599393526127
 10
1614.685959995837
 20
-751.7970904659305
 30
0.0
 41
1.000000000000287
 10
1612.889654055459
 20
-751.460186873746
 30
0.0
 41
0.9991220347186334
 10
1611.078429054025
 20
-751.2158857152522
 30
0.0
 41
0.9991220347186326
 10
1609.257055569538
 20
-751.0648304542556
 30
0.0
 41
1.000000000000287
 10
1607.583328227334
 20
-750.9278260888424
 30
0.0
 41
1.000000000000287
 10
1605.796898365061
 20
-750.8708137250161
 30
0.0
 41
1.000000000000287
 10
1603.823705835777
 20
-750.8305238634057
 30
0.0
 41
1.000000000000287
 10
1602.020753335409
 20
-750.7947520004536
 30
0.0
 41
0.9999966811208496
 10
1600.217696935815
 20
-750.7646693702947
 30
0.0
 41
0.9999966811208492
 10
1598.41455458937
 20
-750.7402762724505
 30
0.0
 41
1.000000000000287
 10
1596.604019072239
 20
-750.713477441557
 30
0.0
 41
1.000000000000287
 10
1594.801313902255
 20
-750.6860437809173
 30
0.0
 41
1.000000000000287
 10
1593.00614725579
 20
-750.662137719888
 30
0.0
 41
1.000000000000287
 10
1591.204186584472
 20
-750.6381366810476
 30
0.0
 41
1.000000000000287
 10
1589.400588556976
 20
-750.6174595102474
 30
0.0
 41
1.000000000000287
 10
1587.595369983937
 20
-750.5993292326748
 30
0.0
 41
1.000000000000287
 10
1585.790286177807
 20
-750.5812000509029
 30
0.0
 41
1.000000000000287
 10
1583.986901366007
 20
-750.5656710058208
 30
0.0
 41
1.000000000000287
 10
1582.185252086256
 20
-750.5537089304798
 30
0.0
 41
1.000000000000287
 10
1580.385813162041
 20
-750.5417583922317
 30
0.0
 41
1.000000000000287
 10
1578.583493545407
 20
-750.5333286938949
 30
0.0
 41
1.000000000000287
 10
1576.778084470505
 20
-750.5269062264379
 30
0.0
 41
1.000000000000287
 10
1574.981512259557
 20
-750.5205079536756
 30
0.0
 41
1.000000000000287
 10
1573.18050317657
 20
-750.5160922441718
 30
0.0
 41
1.000000000000287
 10
1571.374749056045
 20
-750.511250116755
 30
0.0
 41
1.000000000000287
 10
1569.572653608496
 20
-750.5064143405069
 30
0.0
 41
1.000000000000287
 10
1567.771763348589
 20
-750.5011682905115
 30
0.0
 41
1.000000000000287
 10
1565.972132634815
 20
-750.4961631877522
 30
0.0
 41
1.000000000000287
 10
1564.171755407352
 20
-750.4911563881396
 30
0.0
 41
1.000000000000287
 10
1562.371054446572
 20
-750.4863848764728
 30
0.0
 41
1.000000000000287
 10
1560.570013498029
 20
-750.4816740003098
 30
0.0
 41
1.000000000000287
 10
1558.769462510976
 20
-750.4769642730535
 30
0.0
 41
1.000000000000287
 10
1556.969002059642
 20
-750.4723162983939
 30
0.0
 41
1.000000000000287
 10
1555.16863692661
 20
-750.4677799018118
 30
0.0
 41
1.000000000000287
 10
1553.368468653768
 20
-750.4632440429483
 30
0.0
 41
1.000000000000287
 10
1551.568278981595
 20
-750.458819468751
 30
0.0
 41
1.000000000000287
 10
1549.768067113499
 20
-750.4544952401702
 30
0.0
 41
1.000000000000287
 10
1547.968169744302
 20
-750.4501717635139
 30
0.0
 41
1.000000000000287
 10
1546.168281840876
 20
-750.4459486580963
 30
0.0
 41
1.000000000000287
 10
1544.368404043697
 20
-750.4418317110212
 30
0.0
 41
1.000000000000287
 10
1542.568843939848
 20
-750.4377154979721
 30
0.0
 41
1.000000000000287
 10
1540.769285356204
 20
-750.4337053958934
 30
0.0
 41
1.000000000000287
 10
1538.9697284699
 20
-750.4298028283356
 30
0.0
 41
1.000000000000287
 10
1537.170519574747
 20
-750.4259010182865
 30
0.0
 41
1.000000000000287
 10
1535.371314703814
 20
-750.4221067067283
 30
0.0
 41
1.000000000000287
 10
1533.572114067167
 20
-750.4184226356356
 30
0.0
 41
1.000000000000287
 10
1531.773280057645
 20
-750.414739317446
 30
0.0
 41
1.000000000000287
 10
1529.974449650737
 20
-750.4111661977004
 30
0.0
 41
1.000000000000287
 10
1528.175622946434
 20
-750.4077057418563
 30
0.0
 41
1.000000000000287
 10
1526.377179808623
 20
-750.4042460241692
 30
0.0
 41
1.000000000000287
 10
1524.578740543387
 20
-750.4008989262295
 30
0.0
 41
1.000000000000287
 10
1522.7803051671
 20
-750.3976670110078
 30
0.0
 41
1.000000000000287
 10
1520.982265373096
 20
-750.3944358051338
 30
0.0
 41
1.000000000000287
 10
1519.184229420734
 20
-750.3913197355068
 30
0.0
 41
1.000000000000287
 10
1517.386197224474
 20
-750.3883212956443
 30
0.0
 41
1.000000000000287
 10
1515.588568031555
 20
-750.3853235242224
 30
0.0
 41
1.000000000000287
 10
1513.790942606924
 20
-750.3824433343325
 30
0.0
 41
1.000000000000287
 10
1511.993320753583
 20
-750.3796831240961
 30
0.0
 41
1.000000000000287
 10
1510.196104096688
 20
-750.3769235300879
 30
0.0
 41
1.000000000000287
 10
1508.398891008106
 20
-750.3742838658329
 30
0.0
 41
1.000000000000287
 10
1506.601681179123
 20
-750.3717663611314
 30
0.0
 41
1.000000000000287
 10
1504.804873193346
 20
-750.3692494111455
 30
0.0
 41
1.000000000000287
 10
1503.008068467069
 20
-750.3668545713333
 30
0.0
 41
1.000000000000287
 10
1501.211266567996
 20
-750.3645838414232
 30
0.0
 41
1.000000000000287
 10
1499.414857208604
 20
-750.3623135969032
 30
0.0
 41
1.000000000000287
 10
1497.618450675235
 20
-750.3601674135061
 30
0.0
 41
1.000000000000287
 10
1495.822046407131
 20
-750.3581469903202
 30
0.0
 41
1.000000000000287
 10
1494.026019095316
 20
-750.3561269778368
 30
0.0
 41
1.000000000000287
 10
1492.22999404799
 20
-750.3542326783299
 30
0.0
 41
1.000000000000287
 10
1490.433970573475
 20
-750.3524654185585
 30
0.0
 41
1.000000000000287
 10
1488.638301918672
 20
-750.3506984920771
 30
0.0
 41
1.000000000000287
 10
1486.842634835914
 20
-750.3490585606485
 30
0.0
 41
1.000000000000287
 10
1485.046968502884
 20
-750.3475465064148
 30
0.0
 41
1.000000000000287
 10
1483.251628101324
 20
-750.3460347082473
 30
0.0
 41
1.000000000000287
 10
1481.456288448826
 20
-750.3446507461831
 30
0.0
 41
1.000000000000287
 10
1479.660948596087
 20
-750.3433949868722
 30
0.0
 41
1.000000000000287
 10
1477.865898924596
 20
-750.3421394097261
 30
0.0
 41
1.000000000000287
 10
1476.070849052227
 20
-750.3410119988822
 30
0.0
 41
1.000000000000287
 10
1474.275797909973
 20
-750.3400125380103
 30
0.0
 41
1.000000000000287
 10
1472.480994329635
 20
-750.339013191955
 30
0.0
 41
1.000000000000287
 10
1470.686189478743
 20
-750.3381417650546
 30
0.0
 41
1.000000000000287
 10
1468.89138217994
 20
-750.3373973961006
 30
0.0
 41
1.000000000000287
 10
1467.096773063292
 20
-750.3366530843847
 30
0.0
 41
1.000000000000287
 10
1465.302161497934
 20
-750.3360358063347
 30
0.0
 41
1.000000000000287
 10
1463.507546213616
 20
-750.3355440018586
 30
0.0
 41
1.000000000000287
 10
1461.713073206385
 20
-750.3350522098553
 30
0.0
 41
1.000000000000287
 10
1459.918596479126
 20
-750.3346858744299
 30
0.0
 41
1.000000000000287
 10
1458.124114688351
 20
-750.3344426928052
 30
0.0
 41
1.000000000000287
 10
1456.329713113067
 20
-750.3341994944187
 30
0.0
 41
1.000000000000287
 10
1454.535306472775
 20
-750.3340794406811
 30
0.0
 41
1.000000000000287
 10
1452.740893374244
 20
-750.3340794547294
 30
0.0
 41
1.000000000000287
 10
1450.946480275567
 20
-750.3340794406797
 30
0.0
 41
1.000000000000287
 10
1449.152073635138
 20
-750.3341994944165
 30
0.0
 41
1.000000000000287
 10
1447.357672059712
 20
-750.3344426928033
 30
0.0
 41
1.000000000000287
 10
1445.563190268513
 20
-750.3346858744262
 30
0.0
 41
1.000000000000287
 10
1443.768713540837
 20
-750.3350522098519
 30
0.0
 41
1.000000000000287
 10
1441.974240533185
 20
-750.3355440018549
 30
0.0
 41
1.000000000000287
 10
1440.179625248179
 20
-750.3360358063295
 30
0.0
 41
1.000000000000287
 10
1438.385013682139
 20
-750.3366530843814
 30
0.0
 41
1.000000000000287
 10
1436.590404564806
 20
-750.3373973960952
 30
0.0
 41
1.000000000000287
 10
1434.795597265068
 20
-750.3381417650489
 30
0.0
 41
1.000000000000287
 10
1433.000792413237
 20
-750.3390131919459
 30
0.0
 41
1.000000000000287
 10
1431.205988831964
 20
-750.3400125380012
 30
0.0
 41
1.000000000000287
 10
1429.410937688531
 20
-750.3410119988697
 30
0.0
 41
1.000000000000287
 10
1427.615887814979
 20
-750.3421394097113
 30
0.0
 41
1.000000000000287
 10
1425.820838142314
 20
-750.3433949868577
 30
0.0
 41
1.000000000000287
 10
1424.025498288171
 20
-750.3446507461647
 30
0.0
 41
1.000000000000287
 10
1422.230158634265
 20
-750.3460347082275
 30
0.0
 41
1.000000000000287
 10
1420.434818231301
 20
-750.347546506393
 30
0.0
 41
1.000000000000287
 10
1418.639151896651
 20
-750.3490585606254
 30
0.0
 41
1.000000000000287
 10
1416.843484812267
 20
-750.3506984920496
 30
0.0
 41
1.000000000000287
 10
1415.047816155849
 20
-750.3524654185294
 30
0.0
 41
1.000000000000287
 10
1413.251792679507
 20
-750.3542326782991
 30
0.0
 41
1.000000000000287
 10
1411.45576763036
 20
-750.3561269778018
 30
0.0
 41
1.000000000000287
 10
1409.659740316718
 20
-750.358146990282
 30
0.0
 41
1.000000000000287
 10
1407.8633360466
 20
-750.360167413468
 30
0.0
 41
1.000000000000287
 10
1406.066929511217
 20
-750.3623135968589
 30
0.0
 41
1.000000000000287
 10
1404.27052014981
 20
-750.364583841374
 30
0.0
 41
1.000000000000287
 10
1402.473718248547
 20
-750.3668545712809
 30
0.0
 41
1.000000000000287
 10
1400.676913520082
 20
-750.3692494110873
 30
0.0
 41
1.000000000000287
 10
1398.880105532109
 20
-750.3717663610696
 30
0.0
 41
1.000000000000287
 10
1397.082895700766
 20
-750.3742838657635
 30
0.0
 41
1.000000000000287
 10
1395.285682609832
 20
-750.3769235300169
 30
0.0
 41
1.000000000000287
 10
1393.488465950584
 20
-750.3796831240179
 30
0.0
 41
1.000000000000287
 10
1391.690844094741
 20
-750.382443334249
 30
0.0
 41
1.000000000000287
 10
1389.893218667603
 20
-750.3853235241352
 30
0.0
 41
1.000000000000287
 10
1388.095589472163
 20
-750.3883212955461
 30
0.0
 41
1.000000000000287
 10
1386.297557273225
 20
-750.3913197354013
 30
0.0
 41
1.000000000000287
 10
1384.499521318219
 20
-750.3944358050157
 30
0.0
 41
1.000000000000287
 10
1382.701481521595
 20
-750.3976670108896
 30
0.0
 41
1.000000000000287
 10
1380.903046142651
 20
-750.400898926111
 30
0.0
 41
1.000000000000287
 10
1379.10460687464
 20
-750.4042460240655
 30
0.0
 41
1.000000000000287
 10
1377.306163733938
 20
-750.4077057417162
 30
0.0
 41
1.000000000000287
 10
1375.507337026298
 20
-750.411166197526
 30
0.0
 41
1.000000000000287
 10
1373.708506616501
 20
-750.4147393171806
 30
0.0
 41
1.000000000000287
 10
1371.909672604521
 20
-750.4184226354682
 30
0.0
 41
1.000000000000287
 10
1370.110471966537
 20
-750.4221067066555
 30
0.0
 41
1.000000000000287
 10
1368.311267092617
 20
-750.4259010184924
 30
0.0
 41
1.000000000000287
 10
1366.512058192879
 20
-750.4298028281428
 30
0.0
 41
1.000000000000287
 10
1364.712501297367
 20
-750.4337053953111
 30
0.0
 41
1.000000000000287
 10
1362.91294271062
 20
-750.4377154963115
 30
0.0
 41
1.000000000000287
 10
1361.113382609565
 20
-750.4418317107775
 30
0.0
 41
1.000000000000287
 10
1359.31350483191
 20
-750.4459486592424
 30
0.0
 41
1.000000000000287
 10
1357.513616925415
 20
-750.450171768596
 30
0.0
 41
1.000000000000287
 10
1355.713719531395
 20
-750.4544952399792
 30
0.0
 41
1.000000000000287
 10
1353.913507576105
 20
-750.4588194634107
 30
0.0
 41
1.000000000000287
 10
1352.11331790025
 20
-750.4632440229997
 30
0.0
 41
1.000000000000287
 10
1350.313149704081
 20
-750.4677799012134
 30
0.0
 41
1.000000000000287
 10
1348.512784878622
 20
-750.4723163166709
 30
0.0
 41
1.000000000000287
 10
1346.712324425953
 20
-750.4769643452057
 30
0.0
 41
1.000000000000287
 10
1344.911773141263
 20
-750.4816740012448
 30
0.0
 41
1.000000000000287
 10
1343.1107310394
 20
-750.4863848080515
 30
0.0
 41
1.000000000000287
 10
1341.310030062796
 20
-750.4911561207045
 30
0.0
 41
1.000000000000287
 10
1339.509653919871
 20
-750.4961631820152
 30
0.0
 41
1.000000000000287
 10
1337.7100274652
 20
-750.5011685392419
 30
0.0
 41
1.000000000000287
 10
1335.909137211162
 20
-750.5064153238761
 30
0.0
 41
1.000000000000287
 10
1334.107037788795
 20
-750.5112501387248
 30
0.0
 41
1.000000000000287
 10
1332.301234714228
 20
-750.5160914055232
 30
0.0
 41
1.000000000000287
 10
1330.500193212913
 20
-750.5205045334606
 30
0.0
 41
1.000000000000287
 10
1328.70360377205
 20
-750.5269068431971
 30
0.0
 41
1.000000000000287
 10
1326.8982107531
 20
-750.5333332733428
 30
0.0
 41
1.000000000000287
 10
1325.095876662355
 20
-750.5417735802421
 30
0.0
 41
1.000000000000287
 10
1323.296396391026
 20
-750.5537264285031
 30
0.0
 41
1.000000000000287
 10
1321.494796921484
 20
-750.5656902450047
 30
0.0
 41
1.000000000000287
 10
1319.691464095525
 20
-750.5812123387389
 30
0.0
 41
1.000000000000287
 10
1317.886432911786
 20
-750.5993268882976
 30
0.0
 41
1.000000000000287
 10
1316.081159513049
 20
-750.6174434804357
 30
0.0
 41
1.000000000000287
 10
1314.277585446294
 20
-750.6380988897032
 30
0.0
 41
1.000000000000287
 10
1312.475718820002
 20
-750.6621076497468
 30
0.0
 41
1.000000000000287
 10
1310.680605356195
 20
-750.6860218809779
 30
0.0
 41
1.000000000000287
 10
1308.877842784387
 20
-750.7134961807769
 30
0.0
 41
1.000000000000287
 10
1307.067144626933
 20
-750.740313692404
 30
0.0
 41
1.000000000000287
 10
1305.264028744612
 20
-750.7647222577796
 30
0.0
 41
0.999996707740372
 10
1303.460998476324
 20
-750.7947974099978
 30
0.0
 41
0.9999967077403707
 10
1301.658071630201
 20
-750.8305388520148
 30
0.0
 41
1.000000000000287
 10
1299.684364006745
 20
-750.8708006458946
 30
0.0
 41
1.000000000000287
 10
1297.897885579689
 20
-750.9277900034103
 30
0.0
 41
1.000000000000287
 10
1296.223969496059
 20
-751.0648758061598
 30
0.0
 41
1.000000000000287
 10
1294.402334407007
 20
-751.216065077778
 30
0.0
 41
0.9991233128062107
 10
1292.590845884369
 20
-751.4604457764178
 30
0.0
 41
0.999123312806211
 10
1290.794268254514
 20
-751.7973751657919
 30
0.0
 41
1.000000000000287
 10
1289.00047705873
 20
-752.1296980917374
 30
0.0
 41
0.9992582658645804
 10
1287.224353630252
 20
-752.5462445453209
 30
0.0
 41
0.99925826586458
 10
1285.469850203208
 20
-753.0460876263714
 30
0.0
 41
1.000000000000287
 10
1283.715533114426
 20
-753.5472052864345
 30
0.0
 41
0.9992209750874701
 10
1281.987484614341
 20
-754.1325220712376
 30
0.0
 41
0.9992209750874695
 10
1280.28974328145
 20
-754.8006700517108
 30
0.0
 41
1.000000000000287
 10
1278.596931476481
 20
-755.466245520592
 30
0.0
 41
0.9992083458829422
 10
1276.938556101982
 20
-756.2135029254201
 30
0.0
 41
0.9992083458829428
 10
1275.318555737031
 20
-757.0406675579907
 30
0.0
 41
1.000000000000287
 10
1273.690899276181
 20
-757.8721490284112
 30
0.0
 41
0.9992109371885842
 10
1272.105612028378
 20
-758.7818145340505
 30
0.0
 41
0.9992109371885847
 10
1270.566446667261
 20
-759.7675107252435
 30
0.0
 41
1.000000000000287
 10
1269.035710915028
 20
-760.7478767014538
 30
0.0
 41
0.9991845355037816
 10
1267.55532263431
 20
-761.8027321080323
 30
0.0
 41
0.9991845355037813
 10
1266.128903437359
 20
-762.9294963535795
 30
0.0
 41
1.000000000000287
 10
1264.704672270779
 20
-764.0545383432244
 30
0.0
 41
0.9991956765790723
 10
1263.337407052033
 20
-765.2481629558754
 30
0.0
 41
0.9991956765790722
 10
1262.030406951435
 20
-766.5074900108357
 30
0.0
 41
1.000000000000287
 10
1260.724152419547
 20
-767.7660771674903
 30
0.0
 41
0.9991875897784299
 10
1259.481605106099
 20
-769.0875985282013
 30
0.0
 41
0.9991875897784298
 10
1258.305793385505
 20
-770.468833240584
 30
0.0
 41
1.000000000000287
 10
1257.130821145539
 20
-771.8491102787821
 30
0.0
 41
0.9991774069605528
 10
1256.025845209255
 20
-773.2860349974422
 30
0.0
 41
0.9991774069605527
 10
1254.993592413193
 20
-774.776061383749
 30
0.0
 41
1.000000000000287
 10
1254.812404590113
 20
-775.037639024231
 30
0.0
 41
1.000000000000287
 10
1254.633485536066
 20
-775.3008453022375
 30
0.0
 41
1.000000000000287
 10
1254.456869165224
 20
-775.5656335486638
 30
0.0
 41
1.000000000000287
 10
1253.628608475011
 20
-776.807335291749
 30
0.0
 41
0.9994345528276167
 10
1252.852181001849
 20
-778.0820899225122
 30
0.0
 41
0.9994345528276166
 10
1252.128903831897
 20
-779.3877350217481
 30
0.0
 41
1.000000000000287
 10
1251.251941661001
 20
-780.9707152644381
 30
0.0
 41
0.9991584533323796
 10
1250.455599494558
 20
-782.5957470339335
 30
0.0
 41
0.9991584533323796
 10
1249.741887809854
 20
-784.2587277100229
 30
0.0
 41
1.000000000000287
 10
1249.028948655708
 20
-785.9204667592055
 30
0.0
 41
0.9991582402801217
 10
1248.400389292674
 20
-787.6159230494807
 30
0.0
 41
0.9991582402801213
 10
1247.857797008612
 20
-789.3408150804116
 30
0.0
 41
1.000000000000287
 10
1247.315530547673
 20
-791.0645227316785
 30
0.0
 41
0.9991450222395264
 10
1246.861228999546
 20
-792.813474156122
 30
0.0
 41
0.9991450222395267
 10
1246.496057617391
 20
-794.5831834100245
 30
0.0
 41
1.000000000000287
 10
1246.129620884171
 20
-796.3516093296264
 30
0.0
 41
0.9991259230664433
 10
1245.854191967265
 20
-798.136474877589
 30
0.0
 41
0.9991259230664428
 10
1245.670493104863
 20
-799.9330997244961
 30
0.0
 41
1.000000000000287
 10
1245.584252549194
 20
-800.788208477954
 30
0.0
 41
1.000000000000286
 10
1245.457939332043
 20
-802.5214877708804
 30
0.0
 41
1.000000000000286
 10
1245.405790067799
 20
-804.3655437774793
 30
0.0
 41
1.000000000000286
 10
1245.390201769158
 20
-805.3270733290519
 30
0.0
 41
1.000000000000287
  0
SPLINE
  5
6A
330
1F
100
AcDbEntity
  8
EGH111 EGH011$2D
100
AcDbSpline
210
0.0
220
0.0
230
1.0
 70
    12
 71
     3
 72
    81
 73
    77
 74
     0
 42
0.000000001
 43
0.0000000001
 12
1.0
 22
0.0
 32
0.0
 13
1.0
 23
0.0
 33
0.0
 40
-597.4952074280387
 40
-597.4952074280387
 40
-597.4952074280387
 40
-597.4952074280387
 40
-597.4122886196412
 40
-597.4122886196412
 40
-597.4122886196412
 40
-588.5543335936617
 40
-588.5543335936617
 40
-588.5543335936617
 40
-579.7225418900606
 40
-579.7225418900606
 40
-579.7225418900606
 40
-570.9197181600707
 40
-570.9197181600707
 40
-570.9197181600707
 40
-562.1334415128363
 40
-562.1334415128363
 40
-562.1334415128363
 40
-553.337484660039
 40
-553.337484660039
 40
-553.337484660039
 40
-544.4902904471118
 40
-544.4902904471118
 40
-544.4902904471118
 40
-535.6911136172539
 40
-535.6911136172539
 40
-535.6911136172539
 40
-526.7436559777855
 40
-526.7436559777855
 40
-526.7436559777855
 40
-518.0302449084049
 40
-518.0302449084049
 40
-518.0302449084049
 40
-510.1365132560758
 40
-510.1365132560758
 40
-510.1365132560758
 40
-502.5479573546529
 40
-502.5479573546529
 40
-502.5479573546529
 40
-232.1646628441419
 40
-232.1646628441419
 40
-232.1646628441419
 40
-224.3249893449594
 40
-224.3249893449594
 40
-224.3249893449594
 40
-216.5691533025814
 40
-216.5691533025814
 40
-216.5691533025814
 40
-212.4600983013776
 40
-208.165428783996
 40
-208.165428783996
 40
-208.165428783996
 40
-199.0187016237616
 40
-199.0187016237616
 40
-199.0187016237616
 40
-189.9517580664524
 40
-189.9517580664524
 40
-189.9517580664524
 40
-180.930389542188
 40
-180.930389542188
 40
-180.930389542188
 40
-171.9363621513901
 40
-171.9363621513901
 40
-171.9363621513901
 40
-162.9502981256517
 40
-162.9502981256517
 40
-162.9502981256517
 40
-153.9638584024208
 40
-153.9638584024208
 40
-153.9638584024208
 40
-144.9505958187968
 40
-144.9505958187968
 40
-144.9505958187968
 40
-135.8688465860846
 40
-135.8688465860846
 40
-135.8688465860846
 40
-132.1125726079309
 40
-132.1125726079309
 40
-132.1125726079309
 40
-132.1125726079309
 10
1665.890550893229
 20
-937.3422391618496
 30
0.0
 41
1.0
 10
1665.88206704635
 20
-937.3685435598745
 30
0.0
 41
1.0
 10
1665.873566247446
 20
-937.3948424362279
 30
0.0
 41
1.0
 10
1665.865048514257
 20
-937.4211357699696
 30
0.0
 41
1.0
 10
1664.955399546396
 20
-940.2326722297129
 30
0.0
 41
0.9983917904304418
 10
1663.852774697715
 20
-942.9742806905002
 30
0.0
 41
0.9983917904304416
 10
1662.562493723708
 20
-945.6327339094441
 30
0.0
 41
1.0
 10
1661.274797942085
 20
-948.2827960064875
 30
0.0
 41
0.9983574635067776
 10
1659.804363176896
 20
-950.8359922671606
 30
0.0
 41
0.9983574635067768
 10
1658.158435156427
 20
-953.2797415373661
 30
0.0
 41
1.0
 10
1656.51812848317
 20
-955.7156185027122
 30
0.0
 41
0.9983613590889471
 10
1654.711170395873
 20
-958.0305709953966
 30
0.0
 41
0.998361359088947
 10
1652.746443760876
 20
-960.213218887835
 30
0.0
 41
1.0
 10
1650.784963931299
 20
-962.391342688642
 30
0.0
 41
0.9983711579421779
 10
1648.676110647947
 20
-964.427113855246
 30
0.0
 41
0.9983711579421778
 10
1646.430188877584
 20
-966.310584538558
 30
0.0
 41
1.0
 10
1644.181982498721
 20
-968.1964207115933
 30
0.0
 41
0.9983431540757095
 10
1641.806490851293
 20
-969.9191654479018
 30
0.0
 41
0.9983431540757085
 10
1639.315521406257
 20
-971.4702557796991
 30
0.0
 41
1.0
 10
1636.809826389076
 20
-973.029926065078
 30
0.0
 41
0.9983822129060653
 10
1634.201621732934
 20
-974.4113555384506
 30
0.0
 41
0.9983822129060645
 10
1631.503565997325
 20
-975.6078396234971
 30
0.0
 41
1.0
 10
1628.819429021281
 20
-976.7961139943386
 30
0.0
 41
0.9984043299354187
 10
1626.059551158675
 20
-977.7959447150387
 30
0.0
 41
0.998404329935419
 10
1623.237143972965
 20
-978.6025455857452
 30
0.0
 41
1.0
 10
1620.368880597159
 20
-979.4295217730408
 30
0.0
 41
0.9982495124009522
 10
1617.448259397912
 20
-980.0466086533409
 30
0.0
 41
0.998249512400952
 10
1614.490617908792
 20
-980.4505656178499
 30
0.0
 41
1.0
 10
1611.611477922438
 20
-980.839144561378
 30
0.0
 41
0.9999999999999992
 10
1608.706824255128
 20
-981.0053287592563
 30
0.0
 41
1.0
 10
1605.803620579682
 20
-981.0648125311855
 30
0.0
 41
1.0
 10
1603.172761836173
 20
-981.1198446070738
 30
0.0
 41
0.9999999999999998
 10
1600.541255154225
 20
-981.0870590606245
 30
0.0
 41
0.9999999999999998
 10
1597.91014339817
 20
-981.0756221692391
 30
0.0
 41
1.0
 10
1595.380626230241
 20
-981.0701458133707
 30
0.0
 41
0.999996471895271
 10
1592.851104632411
 20
-981.0728988911454
 30
0.0
 41
0.9999964718952713
 10
1590.321605377932
 20
-981.0838813734244
 30
0.0
 41
1.0
 10
1500.193866480273
 20
-981.16423374655
 30
0.0
 41
0.9999997455671946
 10
1410.066091778383
 20
-981.1658442388622
 30
0.0
 41
0.9999997455671946
 10
1319.938350066648
 20
-981.0887128491304
 30
0.0
 41
1.0
 10
1317.325125164996
 20
-981.0885564782276
 30
0.0
 41
0.9999996888108766
 10
1314.711901634241
 20
-981.0858751760798
 30
0.0
 41
0.9999996888108766
 10
1312.098681914005
 20
-981.0806689451897
 30
0.0
 41
1.0
 10
1309.513422824596
 20
-981.0689968987818
 30
0.0
 41
0.9999961629533418
 10
1306.928140863012
 20
-981.0660961954281
 30
0.0
 41
0.9999961629542571
 10
1304.342863939692
 20
-981.0719668601723
 30
0.0
 41
1.000000000002744
 10
1302.973196458726
 20
-981.0781201093505
 30
0.0
 41
1.000000000002744
 10
1300.171960525779
 20
-981.1025264933451
 30
0.0
 41
1.000000000002744
 10
1297.370836391369
 20
-981.0320056539914
 30
0.0
 41
1.000000000002744
 10
1295.941741063583
 20
-980.9459294170883
 30
0.0
 41
1.000000000002744
 10
1292.895793445057
 20
-980.7615417550517
 30
0.0
 41
0.9982875950479977
 10
1289.870877049834
 20
-980.359451582801
 30
0.0
 41
0.9982875950479971
 10
1286.882531523381
 20
-979.7417245239467
 30
0.0
 41
1.000000000002744
 10
1283.920048156835
 20
-979.1305873161139
 30
0.0
 41
0.9983160493825313
 10
1281.008457785955
 20
-978.3105642090956
 30
0.0
 41
0.9983160493825323
 10
1278.162469333969
 20
-977.2857978381508
 30
0.0
 41
1.000000000002744
 10
1275.330920673234
 20
-976.2657669506438
 30
0.0
 41
0.9983065477879367
 10
1272.57922282042
 20
-975.0466321113418
 30
0.0
 41
0.9983065477879368
 10
1269.921355381997
 20
-973.6345869600264
 30
0.0
 41
1.000000000002744
 10
1267.271577780954
 20
-972.226718220235
 30
0.0
 41
0.9982947126625648
 10
1264.729211882673
 20
-970.6330459318646
 30
0.0
 41
0.9982947126625646
 10
1262.307264080293
 20
-968.8617231024473
 30
0.0
 41
1.000000000002744
 10
1259.887635170195
 20
-967.0917038758744
 30
0.0
 41
0.9982844214652458
 10
1257.601133647554
 20
-965.1527652713874
 30
0.0
 41
0.9982844214652449
 10
1255.45952753118
 20
-963.0548864933517
 30
0.0
 41
1.000000000002744
 10
1253.318164865732
 20
-960.9566079971474
 30
0.0
 41
0.9982974038855892
 10
1251.332136668119
 20
-958.7107454210101
 30
0.0
 41
0.9982974038855893
 10
1249.511587150035
 20
-956.3287701556455
 30
0.0
 41
1.000000000002744
 10
1247.685384780372
 20
-953.9398103514357
 30
0.0
 41
0.9982752258488564
 10
1246.035640387925
 20
-951.4257523806089
 30
0.0
 41
0.9982752258488563
 10
1244.570890282157
 20
-948.7996047897941
 30
0.0
 41
1.000000000002744
 10
1243.095354997746
 20
-946.1533429431354
 30
0.0
 41
0.9982939388103753
 10
1241.812792077569
 20
-943.4083587004842
 30
0.0
 41
0.9982939388103758
 10
1240.729765914097
 20
-940.5787013951103
 30
0.0
 41
1.000000000002744
 10
1240.282244482206
 20
-939.4091195378206
 30
0.0
 41
0.9997037959411358
 10
1239.869782779954
 20
-938.2267183803966
 30
0.0
 41
0.9997037959411357
 10
1239.492747325836
 20
-937.032548618914
 30
0.0
 41
1.000000000002744
  0
LINE
  5
6B
330
1F
100
AcDbEntity
  8
EGH111 EGH011$2D
100
AcDbLine
 10
1669.870904417588
 20
-640.3235565174491
 30
0.0
 11
1669.870700485521
 21
-914.3453261866543
 31
0.0
  0
SPLINE
  5
6C
330
1F
100
AcDbEntity
  8
EGH111 EGH011$2D
100
AcDbSpline
210
0.0
220
0.0
230
1.0
 70
    12
 71
     2
 72
     6
 73
     3
 74
     0
 42
0.000000001
 43
0.0000000001
 12
1.0
 22
0.0
 32
0.0
 13
1.0
 23
0.0
 33
0.0
 40
2.019108944305851
 40
2.019108944305851
 40
2.019108944305851
 40
12.92229724355745
 40
12.92229724355745
 40
12.92229724355745
 10
1675.870833714784
 20
-640.3235565667214
 30
0.0
 41
0.8961747227892898
 10
1675.900235795258
 20
-640.3235565964081
 30
0.0
 41
0.6677591129257273
 10
1669.870904417588
 20
-640.3235565174491
 30
0.0
 41
1.0
  0
ARC
  5
6D
330
1F
100
AcDbEntity
  8
EGH111 EGH011$2D
100
AcDbCircle
 10
1560.824944219692
 20
-914.8333490895075
 30
0.0
 40
109.0468483081477
100
AcDbArc
 50
359.2199787317636
 51
0.2564195702437411
  0
SPLINE
  5
6E
330
1F
100
AcDbEntity
  8
EGH111 EGH011$2D
100
AcDbSpline
210
0.0
220
0.0
230
1.0
 70
    12
 71
     2
 72
     6
 73
     3
 74
     0
 42
0.000000001
 43
0.0000000001
 12
1.0
 22
0.0
 32
0.0
 13
1.0
 23
0.0
 33
0.0
 40
-12.92229724355745
 40
-12.92229724355745
 40
-12.92229724355745
 40
-2.01910894430585
 40
-2.01910894430585
 40
-2.01910894430585
 10
1235.62586288451
 20
-640.3235565366595
 30
0.0
 41
1.0
 10
1229.596531506845
 20
-640.3235565370331
 30
0.0
 41
0.6677591129257314
 10
1229.625933587318
 20
-640.3235565369285
 30
0.0
 41
0.8961747227892911
  0
LINE
  5
6F
330
1F
100
AcDbEntity
  8
EGH111 EGH011$2D
100
AcDbLine
 10
1235.626062725634
 20
-914.3460645510077
 30
0.0
 11
1235.62586288451
 21
-640.3235565366595
 31
0.0
  0
ARC
  5
70
330
1F
100
AcDbEntity
  8
EGH111 EGH011$2D
100
AcDbCircle
 10
1344.112094104521
 20
-914.835907024928
 30
0.0
 40
108.4871372559441
100
AcDbArc
 50
179.7412965033773
 51
180.7835099281617
  0
ARC
  5
71
330
1F
100
AcDbEntity
  8
EGH111 EGH011$2D
100
AcDbCircle
 10
1299.787650916923
 20
-915.0873363098209
 30
0.0
 40
64.16438063559573
100
AcDbArc
 50
181.1002459785671
 51
199.9997164877668
  0
ARC
  5
72
330
1F
100
AcDbEntity
  8
EGH111 EGH011$2D
100
AcDbCircle
 10
1605.702342618509
 20
-915.0865137067613
 30
0.0
 40
64.17115965021488
100
AcDbArc
 50
339.7071755651363
 51
358.9005138766278
  0
LINE
  5
73
330
1F
100
AcDbEntity
  8
EGH111 EGH011$2D
100
AcDbLine
 10
1235.62586288451
 20
-640.3235565366595
 30
0.0
 11
1669.870904417588
 21
-640.3235565174491
 31
0.0
  0
CIRCLE
  5
74
330
1F
100
AcDbEntity
  8
EGH111 EGH011$2D
100
AcDbCircle
 10
1452.748383651051
 20
-798.271295508006
 30
0.0
 40
30.0
  0
CIRCLE
  5
75
330
1F
100
AcDbEntity
  8
EGH111 EGH011$2D
100
AcDbCircle
 10
1452.748383651051
 20
-798.2712955080059
 30
0.0
 40
27.0
  0
ARC
  5
76
330
1F
100
AcDbEntity
  8
EGH111 EGH011$2D
100
AcDbCircle
 10
1546.74469134464
 20
-760.3222358599633
 30
0.0
 40
1.003694463975387
100
AcDbArc
 50
283.4767252248531
 51
359.9247578400855
  0
LINE
  5
77
330
1F
100
AcDbEntity
  8
EGH111 EGH011$2D
100
AcDbLine
 10
1546.978067995947
 20
-761.2968179985157
 30
0.0
 11
1546.858908642685
 21
-761.3186789388119
 31
0.0
  0
LINE
  5
78
330
1F
100
AcDbEntity
  8
EGH111 EGH011$2D
100
AcDbLine
 10
1546.85863433481
 20
-761.3169013475938
 30
0.0
 11
1546.748383651051
 21
-761.3235539346679
 31
0.0
  0
LINE
  5
79
330
1F
100
AcDbEntity
  8
EGH111 EGH011$2D
100
AcDbLine
 10
1546.748384878545
 20
-761.3235539346679
 30
0.0
 11
1545.414981397728
 21
-761.3235539346676
 31
0.0
  0
LINE
  5
7A
330
1F
100
AcDbEntity
  8
EGH111 EGH011$2D
100
AcDbLine
 10
1510.081785904498
 20
-761.323553934666
 30
0.0
 11
1508.753559479941
 21
-761.3235539346679
 31
0.0
  0
ARC
  5
7B
330
1F
100
AcDbEntity
  8
EGH111 EGH011$2D
100
AcDbCircle
 10
1508.748383234729
 20
-760.3235530588927
 30
0.0
 40
1.000000875775272
100
AcDbArc
 50
180.0000501782561
 51
270.0000238534528
  0
ARC
  5
7C
330
1F
100
AcDbEntity
  8
EGH111 EGH011$2D
100
AcDbCircle
 10
1546.748384947642
 20
-752.3235544431448
 30
0.0
 40
0.9999999955088197
100
AcDbArc
 50
0.0000291334494754
 51
68.40191881347916
  0
LINE
  5
7D
330
1F
100
AcDbEntity
  8
EGH111 EGH011$2D
100
AcDbLine
 10
1546.74838365106
 20
-751.3235539346679
 30
0.0
 11
1545.414981397724
 21
-751.3235539346676
 31
0.0
  0
LINE
  5
7E
330
1F
100
AcDbEntity
  8
EGH111 EGH011$2D
100
AcDbLine
 10
1510.081785904491
 20
-751.3235539346697
 30
0.0
 11
1508.753559479945
 21
-751.3235539346679
 31
0.0
  0
ARC
  5
7F
330
1F
100
AcDbEntity
  8
EGH111 EGH011$2D
100
AcDbCircle
 10
1508.752252400939
 20
-752.3249430652468
 30
0.0
 40
1.003871003110714
100
AcDbArc
 50
103.4741989183965
 51
179.9207155655282
  0
LINE
  5
80
330
1F
100
AcDbEntity
  8
EGH111 EGH011$2D
100
AcDbLine
 10
1508.518716163197
 20
-751.3502858945608
 30
0.0
 11
1508.63799077315
 21
-751.3283638125383
 31
0.0
  0
LINE
  5
81
330
1F
100
AcDbEntity
  8
EGH111 EGH011$2D
100
AcDbLine
 10
1508.638102554795
 20
-751.330208364757
 30
0.0
 11
1508.748383651051
 21
-751.3235539346679
 31
0.0
  0
LINE
  5
82
330
1F
100
AcDbEntity
  8
EGH111 EGH011$2D
100
AcDbLine
 10
1507.748383651051
 20
-752.3235539346679
 30
0.0
 11
1507.748383651051
 21
-760.3235539346679
 31
0.0
  0
LINE
  5
83
330
1F
100
AcDbEntity
  8
EGH111 EGH011$2D
100
AcDbLine
 10
1675.870904417588
 20
-640.3235565890918
 30
0.0
 11
1675.870879291087
 21
-912.2592801502215
 31
0.0
  0
LINE
  5
84
330
1F
100
AcDbEntity
  8
EGH111 EGH011$2D
100
AcDbLine
 10
1675.870879291087
 20
-912.2592801502215
 30
0.0
 11
1675.870699648207
 21
-914.3484959815432
 31
0.0
  0
LINE
  5
85
330
1F
100
AcDbEntity
  8
EGH111 EGH011$2D
100
AcDbLine
 10
1675.870699648207
 20
-914.348495981545
 30
0.0
 11
1675.860580449745
 21
-916.4331060167199
 31
0.0
  0
LINE
  5
86
330
1F
100
AcDbEntity
  8
EGH111 EGH011$2D
100
AcDbLine
 10
1229.626063526612
 20
-914.3491648292274
 30
0.0
 11
1229.62588747808
 21
-912.2597457472766
 31
0.0
  0
LINE
  5
87
330
1F
100
AcDbEntity
  8
EGH111 EGH011$2D
100
AcDbLine
 10
1229.62588747808
 20
-912.2597457472766
 30
0.0
 11
1229.625862884511
 21
-640.3235565368892
 31
0.0
  0
ARC
  5
88
330
1F
100
AcDbEntity
  8
EGH111 EGH011$2D
100
AcDbCircle
 10
1351.382950097072
 20
-914.7997156416191
 30
0.0
 40
121.7577201794538
100
AcDbArc
 50
179.7879829252403
 51
180.7693753204431
  0
SPLINE
  5
89
330
1F
100
AcDbEntity
  8
EGH111 EGH011$2D
100
AcDbSpline
210
0.0
220
0.0
230
1.0
 70
    12
 71
     2
 72
    32
 73
    29
 74
     0
 42
0.000000001
 43
0.0000000001
 12
1.0
 22
0.0
 32
0.0
 13
1.0
 23
0.0
 33
0.0
 40
0.0
 40
0.0
 40
0.0
 40
8.449816170375161
 40
8.449816170375161
 40
16.94930287778646
 40
16.94930287778646
 40
25.49320893414067
 40
25.49320893414067
 40
34.07679319095232
 40
34.07679319095232
 40
42.69106010383423
 40
42.69106010383423
 40
51.32954202944479
 40
51.32954202944479
 40
59.98485919915131
 40
59.98485919915131
 40
68.65225155478808
 40
68.65225155478808
 40
77.32254877250281
 40
77.32254877250281
 40
85.98815640655062
 40
85.98815640655062
 40
94.6477038773479
 40
94.6477038773479
 40
103.292774334798
 40
103.292774334798
 40
107.6067849324356
 40
107.6067849324356
 40
109.7646146212155
 40
109.7646146212155
 40
109.7646146212155
 10
1675.86058044777
 20
-916.4331061203266
 30
0.0
 41
1.0
 10
1675.78016026452
 20
-920.6623794886838
 30
0.0
 41
0.998181925557926
 10
1675.191428668411
 20
-924.8512475622701
 30
0.0
 41
1.0
 10
1674.59843693707
 20
-929.0646626065685
 30
0.0
 41
0.9981693921840453
 10
1673.501059294886
 20
-933.1756561409093
 30
0.0
 41
1.0
 10
1672.397811334615
 20
-937.3080980705676
 30
0.0
 41
0.9981694055730402
 10
1670.803688740725
 20
-941.2771036789654
 30
0.0
 41
1.0
 10
1669.202073850741
 20
-945.2645096224843
 30
0.0
 41
0.9981681339460137
 10
1667.130583386108
 20
-949.0292810191513
 30
0.0
 41
1.0
 10
1665.051647777377
 20
-952.807490365115
 30
0.0
 41
0.9981672972283563
 10
1662.531501014237
 20
-956.3068759425278
 30
0.0
 41
1.0
 10
1660.00426192542
 20
-959.8160957846075
 30
0.0
 41
0.998166398078451
 10
1657.071496718461
 20
-962.9942162280349
 30
0.0
 41
1.0
 10
1654.132980672485
 20
-966.1784977003996
 30
0.0
 41
0.9981664367378732
 10
1650.831220500659
 20
-968.9843674078966
 30
0.0
 41
1.0
 10
1647.524755340276
 20
-971.7940377859711
 30
0.0
 41
0.998165937657491
 10
1643.902969357645
 20
-974.183520111972
 30
0.0
 41
1.0
 10
1640.279855324943
 20
-976.5736283840118
 30
0.0
 41
0.998166271562587
 10
1636.394467819409
 20
-978.508398855638
 30
0.0
 41
1.0
 10
1632.511105606742
 20
-980.4419627339872
 30
0.0
 41
0.9981673508155868
 10
1628.422598311401
 20
-981.8922314823121
 30
0.0
 41
1.0
 10
1624.336877981916
 20
-983.3412825117477
 30
0.0
 41
0.9981673205919179
 10
1620.106025792233
 20
-984.2861365987519
 30
0.0
 41
1.0
 10
1615.88217805434
 20
-985.2291011167166
 30
0.0
 41
0.9981675003479862
 10
1611.575351483349
 20
-985.6549140832121
 30
0.0
 41
1.0
 10
1609.42813661433
 20
-985.866993161879
 30
0.0
 41
0.9995428942316416
 10
1607.272029375632
 20
-985.9489126625103
 30
0.0
 41
1.0
 10
1606.193804958441
 20
-985.9896979094561
 30
0.0
 41
0.9998878512826024
 10
1605.114842725696
 20
-985.9981731972566
 30
0.0
 41
1.0
  0
LINE
  5
8A
330
1F
100
AcDbEntity
  8
EGH111 EGH011$2D
100
AcDbLine
 10
1605.114842725696
 20
-985.9981731972566
 30
0.0
 11
1604.06272830586
 21
-985.9998174462507
 31
0.0
  0
LINE
  5
8B
330
1F
100
AcDbEntity
  8
EGH111 EGH011$2D
100
AcDbLine
 10
1604.06272830586
 20
-985.9998174462507
 30
0.0
 11
1603.01818070656
 21
-985.999917752064
 31
0.0
  0
LINE
  5
8C
330
1F
100
AcDbEntity
  8
EGH111 EGH011$2D
100
AcDbLine
 10
1603.01818070656
 20
-985.999917752064
 30
0.0
 11
1302.480508826033
 21
-985.9999175661196
 31
0.0
  0
LINE
  5
8D
330
1F
100
AcDbEntity
  8
EGH111 EGH011$2D
100
AcDbLine
 10
1302.480508826033
 20
-985.9999175661196
 30
0.0
 11
1301.435596640953
 21
-985.9998163603195
 31
0.0
  0
LINE
  5
8E
330
1F
100
AcDbEntity
  8
EGH111 EGH011$2D
100
AcDbLine
 10
1301.435596640953
 20
-985.9998163603195
 30
0.0
 11
1300.382538660306
 21
-985.9981734938319
 31
0.0
  0
SPLINE
  5
8F
330
1F
100
AcDbEntity
  8
EGH111 EGH011$2D
100
AcDbSpline
210
0.0
220
0.0
230
1.0
 70
    12
 71
     2
 72
    32
 73
    29
 74
     0
 42
0.000000001
 43
0.0000000001
 12
1.0
 22
0.0
 32
0.0
 13
1.0
 23
0.0
 33
0.0
 40
0.0
 40
0.0
 40
0.0
 40
2.158017128116571
 40
2.158017128116571
 40
6.472265198677945
 40
6.472265198677945
 40
15.11541351010907
 40
15.11541351010907
 40
23.77567002528261
 40
23.77567002528261
 40
32.44242036851846
 40
32.44242036851846
 40
41.11256238317485
 40
41.11256238317485
 40
49.77967513922015
 40
49.77967513922015
 40
58.43537475109683
 40
58.43537475109683
 40
67.07181746135429
 40
67.07181746135429
 40
75.68803184262484
 40
75.68803184262484
 40
84.27082420769014
 40
84.27082420769014
 40
92.8158654050512
 40
92.8158654050512
 40
101.3143560040798
 40
101.3143560040798
 40
109.7636798406796
 40
109.7636798406796
 40
109.7636798406796
 10
1300.382538660306
 20
-985.9981734938319
 30
0.0
 41
1.0
 10
1299.303481999298
 20
-985.9897343248075
 30
0.0
 41
0.9998872736598349
 10
1298.225165257216
 20
-985.9488992787774
 30
0.0
 41
1.0
 10
1296.068931406371
 20
-985.8670990369698
 30
0.0
 41
0.9995406544209992
 10
1293.921614341893
 20
-985.6548135600988
 30
0.0
 41
1.0
 10
1289.61571264472
 20
-985.2293401929478
 30
0.0
 41
0.9981645753920018
 10
1285.392833084068
 20
-984.2864164271541
 30
0.0
 41
1.0
 10
1281.161520675648
 20
-983.341934989405
 30
0.0
 41
0.9981628324860297
 10
1277.075513286549
 20
-981.8925925522526
 30
0.0
 41
1.0
 10
1272.9863647643
 20
-980.442395314663
 30
0.0
 41
0.998164459833154
 10
1269.102542075074
 20
-978.5084540064581
 30
0.0
 41
1.0
 10
1265.217173097554
 20
-976.57381463264
 30
0.0
 41
0.99816534915696
 10
1261.594134446255
 20
-974.1837283309778
 30
0.0
 41
1.0
 10
1257.972447502711
 20
-971.7943512149257
 30
0.0
 41
0.9981661570669856
 10
1254.66604757437
 20
-968.9848212126599
 30
0.0
 41
1.0
 10
1251.364140469523
 20
-966.1788302486707
 30
0.0
 41
0.9981667715063418
 10
1248.425457993726
 20
-962.9944431607892
 30
0.0
 41
1.0
 10
1245.493409037777
 20
-959.817057183796
 30
0.0
 41
0.9981680064601933
 10
1242.966605714068
 20
-956.3087872839496
 30
0.0
 41
1.0
 10
1240.445823578374
 20
-952.8086581920036
 30
0.0
 41
0.9981673935051975
 10
1238.366335048318
 20
-949.0296406359066
 30
0.0
 41
1.0
 10
1236.295094473464
 20
-945.2651894007697
 30
0.0
 41
0.9981697144795032
 10
1234.693480615548
 20
-941.2782151506926
 30
0.0
 41
1.0
 10
1233.099163733919
 20
-937.3086779437052
 30
0.0
 41
0.9981702995829277
 10
1231.995664890412
 20
-933.1757174721934
 30
0.0
 41
1.0
 10
1230.898520085267
 20
-929.0651835591268
 30
0.0
 41
0.9981713120769167
 10
1230.305436452923
 20
-924.8522905413811
 30
0.0
 41
1.0
 10
1229.716757269183
 20
-920.663667092144
 30
0.0
 41
0.9981830125936391
 10
1229.636207117423
 20
-916.4346457805495
 30
0.0
 41
1.0
  0
ENDSEC
  0
SECTION
  2
OBJECTS
  0
DICTIONARY
  5
C
330
0
100
AcDbDictionary
281
     1
  3
ACAD_GROUP
350
D
  3
ACAD_LAYOUT
350
1A
  3
ACAD_MATERIAL
350
3B
  3
ACAD_MLEADERSTYLE
350
BA
  3
ACAD_MLINESTYLE
350
17
  3
ACAD_PLOTSETTINGS
350
19
  3
ACAD_PLOTSTYLENAME
350
E
  3
ACAD_SCALELIST
350
3F
  3
ACAD_TABLESTYLE
350
B9
  3
ACAD_VISUALSTYLE
350
2A
  3
AcDbVariableDictionary
350
90
  0
DICTIONARY
  5
D
102
{ACAD_REACTORS
330
C
102
}
330
C
100
AcDbDictionary
281
     1
  0
DICTIONARY
  5
1A
102
{ACAD_REACTORS
330
C
102
}
330
C
100
AcDbDictionary
281
     1
  3
Layout1
350
1E
  3
Layout2
350
26
  3
Model
350
22
  0
DICTIONARY
  5
3B
102
{ACAD_REACTORS
330
C
102
}
330
C
100
AcDbDictionary
281
     1
  3
ByBlock
350
3D
  3
ByLayer
350
3C
  3
Global
350
3E
  0
DICTIONARY
  5
BA
102
{ACAD_REACTORS
330
C
102
}
330
C
100
AcDbDictionary
281
     1
  0
DICTIONARY
  5
17
102
{ACAD_REACTORS
330
C
102
}
330
C
100
AcDbDictionary
281
     1
  3
Standard
350
18
  0
DICTIONARY
  5
19
102
{ACAD_REACTORS
330
C
102
}
330
C
100
AcDbDictionary
281
     1
  0
ACDBDICTIONARYWDFLT
  5
E
102
{ACAD_REACTORS
330
C
102
}
330
C
100
AcDbDictionary
281
     1
  3
Normal
350
F
100
AcDbDictionaryWithDefault
340
F
  0
DICTIONARY
  5
3F
102
{ACAD_REACTORS
330
C
102
}
330
C
100
AcDbDictionary
281
     1
  3
A0
350
40
  3
A1
350
41
  3
A2
350
42
  3
A3
350
43
  3
A4
350
44
  3
A5
350
45
  3
A6
350
46
  3
A7
350
47
  3
A8
350
48
  3
A9
350
49
  3
B0
350
4A
  3
B1
350
4B
  3
B2
350
4C
  3
B3
350
4D
  3
B4
350
4E
  3
B5
350
4F
  3
B6
350
50
  3
B7
350
51
  3
B8
350
52
  3
B9
350
53
  3
C0
350
54
  3
C1
350
55
  3
C2
350
56
  3
C3
350
57
  3
C4
350
58
  3
C5
350
59
  3
C6
350
5A
  3
C7
350
5B
  3
C8
350
5C
  3
C9
350
5D
  3
D0
350
5E
  3
D1
350
5F
  3
D2
350
60
  0
DICTIONARY
  5
B9
102
{ACAD_REACTORS
330
C
102
}
330
C
100
AcDbDictionary
281
     1
  0
DICTIONARY
  5
2A
102
{ACAD_REACTORS
330
C
102
}
330
C
100
AcDbDictionary
281
     1
  3
2dWireframe
350
2F
  3
3D Hidden
350
31
  3
3dWireframe
350
30
  3
Basic
350
32
  3
Brighten
350
36
  3
ColorChange
350
3A
  3
Conceptual
350
34
  3
Dim
350
35
  3
Facepattern
350
39
  3
Flat
350
2B
  3
FlatWithEdges
350
2C
  3
Gouraud
350
2D
  3
GouraudWithEdges
350
2E
  3
Linepattern
350
38
  3
Realistic
350
33
  3
Thicken
350
37
  0
DICTIONARY
  5
90
102
{ACAD_REACTORS
330
C
102
}
330
C
100
AcDbDictionary
281
     1
  3
CANNOSCALE
350
91
  3
MSLTSCALE
350
92
  0
LAYOUT
  5
1E
102
{ACAD_REACTORS
330
1A
102
}
330
1A
100
AcDbPlotSettings
  1

  2
none_device
  4

  6

 40
0.0
 41
0.0
 42
0.0
 43
0.0
 44
0.0
 45
0.0
 46
0.0
 47
0.0
 48
0.0
 49
0.0
140
0.0
141
0.0
142
1.0
143
1.0
 70
   688
 72
     0
 73
     0
 74
     5
  7

 75
    16
 76
     0
 77
     2
 78
   300
147
1.0
148
0.0
149
0.0
100
AcDbLayout
  1
Layout1
 70
     1
 71
     1
 10
0.0
 20
0.0
 11
12.0
 21
9.0
 12
0.0
 22
0.0
 32
0.0
 14
1.000000000000000E+20
 24
1.000000000000000E+20
 34
1.000000000000000E+20
 15
-1.000000000000000E+20
 25
-1.000000000000000E+20
 35
-1.000000000000000E+20
146
0.0
 13
0.0
 23
0.0
 33
0.0
 16
1.0
 26
0.0
 36
0.0
 17
0.0
 27
1.0
 37
0.0
 76
     0
330
1B
  0
LAYOUT
  5
26
102
{ACAD_REACTORS
330
1A
102
}
330
1A
100
AcDbPlotSettings
  1

  2
none_device
  4

  6

 40
0.0
 41
0.0
 42
0.0
 43
0.0
 44
0.0
 45
0.0
 46
0.0
 47
0.0
 48
0.0
 49
0.0
140
0.0
141
0.0
142
1.0
143
1.0
 70
   688
 72
     0
 73
     0
 74
     5
  7

 75
    16
 76
     0
 77
     2
 78
   300
147
1.0
148
0.0
149
0.0
100
AcDbLayout
  1
Layout2
 70
     1
 71
     2
 10
0.0
 20
0.0
 11
0.0
 21
0.0
 12
0.0
 22
0.0
 32
0.0
 14
0.0
 24
0.0
 34
0.0
 15
0.0
 25
0.0
 35
0.0
146
0.0
 13
0.0
 23
0.0
 33
0.0
 16
1.0
 26
0.0
 36
0.0
 17
0.0
 27
1.0
 37
0.0
 76
     0
330
23
  0
LAYOUT
  5
22
102
{ACAD_REACTORS
330
1A
102
}
330
1A
100
AcDbPlotSettings
  1

  2
none_device
  4
Letter_(8.50_x_11.00_Inches)
  6

 40
6.35
 41
6.35
 42
6.35000508
 43
6.35000508
 44
215.9
 45
279.4
 46
0.0
 47
0.0
 48
0.0
 49
0.0
140
0.0
141
0.0
142
1.0
143
1.0
 70
  1712
 72
     0
 73
     0
 74
     0
  7

 75
     0
 76
     0
 77
     2
 78
   300
147
1.0
148
0.0
149
0.0
100
AcDbLayout
  1
Model
 70
     1
 71
     0
 10
0.0
 20
0.0
 11
12.0
 21
9.0
 12
0.0
 22
0.0
 32
0.0
 14
1229.625229917618
 24
-985.999917752064
 34
0.0
 15
1675.870904417588
 25
-640.3235565174491
 35
0.0
146
0.0
 13
0.0
 23
0.0
 33
0.0
 16
1.0
 26
0.0
 36
0.0
 17
0.0
 27
1.0
 37
0.0
 76
     0
330
1F
331
29
  0
MATERIAL
  5
3D
102
{ACAD_REACTORS
330
3B
102
}
102
{ACAD_XDICTIONARY
360
B5
102
}
330
3B
100
AcDbMaterial
  1
ByBlock
  0
MATERIAL
  5
3C
102
{ACAD_REACTORS
330
3B
102
}
102
{ACAD_XDICTIONARY
360
B3
102
}
330
3B
100
AcDbMaterial
  1
ByLayer
  0
MATERIAL
  5
3E
102
{ACAD_REACTORS
330
3B
102
}
102
{ACAD_XDICTIONARY
360
B7
102
}
330
3B
100
AcDbMaterial
  1
Global
  0
MLINESTYLE
  5
18
102
{ACAD_REACTORS
330
17
102
}
330
17
100
AcDbMlineStyle
  2
Standard
 70
     0
  3

 62
   256
 51
90.0
 52
90.0
 71
     2
 49
0.5
 62
   256
  6
BYLAYER
 49
-0.5
 62
   256
  6
BYLAYER
  0
ACDBPLACEHOLDER
  5
F
102
{ACAD_REACTORS
330
E
102
}
330
E
  0
SCALE
  5
40
102
{ACAD_REACTORS
330
3F
102
}
330
3F
100
AcDbScale
 70
     0
300
1:1
140
1.0
141
1.0
290
     1
  0
SCALE
  5
41
102
{ACAD_REACTORS
330
3F
102
}
330
3F
100
AcDbScale
 70
     0
300
1:2
140
1.0
141
2.0
290
     0
  0
SCALE
  5
42
102
{ACAD_REACTORS
330
3F
102
}
330
3F
100
AcDbScale
 70
     0
300
1:4
140
1.0
141
4.0
290
     0
  0
SCALE
  5
43
102
{ACAD_REACTORS
330
3F
102
}
330
3F
100
AcDbScale
 70
     0
300
1:5
140
1.0
141
5.0
290
     0
  0
SCALE
  5
44
102
{ACAD_REACTORS
330
3F
102
}
330
3F
100
AcDbScale
 70
     0
300
1:8
140
1.0
141
8.0
290
     0
  0
SCALE
  5
45
102
{ACAD_REACTORS
330
3F
102
}
330
3F
100
AcDbScale
 70
     0
300
1:10
140
1.0
141
10.0
290
     0
  0
SCALE
  5
46
102
{ACAD_REACTORS
330
3F
102
}
330
3F
100
AcDbScale
 70
     0
300
1:16
140
1.0
141
16.0
290
     0
  0
SCALE
  5
47
102
{ACAD_REACTORS
330
3F
102
}
330
3F
100
AcDbScale
 70
     0
300
1:20
140
1.0
141
20.0
290
     0
  0
SCALE
  5
48
102
{ACAD_REACTORS
330
3F
102
}
330
3F
100
AcDbScale
 70
     0
300
1:30
140
1.0
141
30.0
290
     0
  0
SCALE
  5
49
102
{ACAD_REACTORS
330
3F
102
}
330
3F
100
AcDbScale
 70
     0
300
1:40
140
1.0
141
40.0
290
     0
  0
SCALE
  5
4A
102
{ACAD_REACTORS
330
3F
102
}
330
3F
100
AcDbScale
 70
     0
300
1:50
140
1.0
141
50.0
290
     0
  0
SCALE
  5
4B
102
{ACAD_REACTORS
330
3F
102
}
330
3F
100
AcDbScale
 70
     0
300
1:100
140
1.0
141
100.0
290
     0
  0
SCALE
  5
4C
102
{ACAD_REACTORS
330
3F
102
}
330
3F
100
AcDbScale
 70
     0
300
2:1
140
2.0
141
1.0
290
     0
  0
SCALE
  5
4D
102
{ACAD_REACTORS
330
3F
102
}
330
3F
100
AcDbScale
 70
     0
300
4:1
140
4.0
141
1.0
290
     0
  0
SCALE
  5
4E
102
{ACAD_REACTORS
330
3F
102
}
330
3F
100
AcDbScale
 70
     0
300
8:1
140
8.0
141
1.0
290
     0
  0
SCALE
  5
4F
102
{ACAD_REACTORS
330
3F
102
}
330
3F
100
AcDbScale
 70
     0
300
10:1
140
10.0
141
1.0
290
     0
  0
SCALE
  5
50
102
{ACAD_REACTORS
330
3F
102
}
330
3F
100
AcDbScale
 70
     0
300
100:1
140
100.0
141
1.0
290
     0
  0
SCALE
  5
51
102
{ACAD_REACTORS
330
3F
102
}
330
3F
100
AcDbScale
 70
     0
300
1/128" = 1'-0"
140
0.0078125
141
12.0
290
     0
  0
SCALE
  5
52
102
{ACAD_REACTORS
330
3F
102
}
330
3F
100
AcDbScale
 70
     0
300
1/64" = 1'-0"
140
0.015625
141
12.0
290
     0
  0
SCALE
  5
53
102
{ACAD_REACTORS
330
3F
102
}
330
3F
100
AcDbScale
 70
     0
300
1/32" = 1'-0"
140
0.03125
141
12.0
290
     0
  0
SCALE
  5
54
102
{ACAD_REACTORS
330
3F
102
}
330
3F
100
AcDbScale
 70
     0
300
1/16" = 1'-0"
140
0.0625
141
12.0
290
     0
  0
SCALE
  5
55
102
{ACAD_REACTORS
330
3F
102
}
330
3F
100
AcDbScale
 70
     0
300
3/32" = 1'-0"
140
0.09375
141
12.0
290
     0
  0
SCALE
  5
56
102
{ACAD_REACTORS
330
3F
102
}
330
3F
100
AcDbScale
 70
     0
300
1/8" = 1'-0"
140
0.125
141
12.0
290
     0
  0
SCALE
  5
57
102
{ACAD_REACTORS
330
3F
102
}
330
3F
100
AcDbScale
 70
     0
300
3/16" = 1'-0"
140
0.1875
141
12.0
290
     0
  0
SCALE
  5
58
102
{ACAD_REACTORS
330
3F
102
}
330
3F
100
AcDbScale
 70
     0
300
1/4" = 1'-0"
140
0.25
141
12.0
290
     0
  0
SCALE
  5
59
102
{ACAD_REACTORS
330
3F
102
}
330
3F
100
AcDbScale
 70
     0
300
3/8" = 1'-0"
140
0.375
141
12.0
290
     0
  0
SCALE
  5
5A
102
{ACAD_REACTORS
330
3F
102
}
330
3F
100
AcDbScale
 70
     0
300
1/2" = 1'-0"
140
0.5
141
12.0
290
     0
  0
SCALE
  5
5B
102
{ACAD_REACTORS
330
3F
102
}
330
3F
100
AcDbScale
 70
     0
300
3/4" = 1'-0"
140
0.75
141
12.0
290
     0
  0
SCALE
  5
5C
102
{ACAD_REACTORS
330
3F
102
}
330
3F
100
AcDbScale
 70
     0
300
1" = 1'-0"
140
1.0
141
12.0
290
     0
  0
SCALE
  5
5D
102
{ACAD_REACTORS
330
3F
102
}
330
3F
100
AcDbScale
 70
     0
300
1-1/2" = 1'-0"
140
1.5
141
12.0
290
     0
  0
SCALE
  5
5E
102
{ACAD_REACTORS
330
3F
102
}
330
3F
100
AcDbScale
 70
     0
300
3" = 1'-0"
140
3.0
141
12.0
290
     0
  0
SCALE
  5
5F
102
{ACAD_REACTORS
330
3F
102
}
330
3F
100
AcDbScale
 70
     0
300
6" = 1'-0"
140
6.0
141
12.0
290
     0
  0
SCALE
  5
60
102
{ACAD_REACTORS
330
3F
102
}
330
3F
100
AcDbScale
 70
     0
300
1'-0" = 1'-0"
140
12.0
141
12.0
290
     0
  0
VISUALSTYLE
  5
2F
102
{ACAD_REACTORS
330
2A
102
}
102
{ACAD_XDICTIONARY
360
9B
102
}
330
2A
100
AcDbVisualStyle
  2
2dWireframe
 70
     4
 71
     0
 72
     2
 73
     0
 90
        0
 40
0.6
 41
30.0
 62
     5
 63
     7
421
 16777215
 74
     1
 91
        4
 64
     7
 65
   257
 75
     1
175
     1
 42
1.0
 92
        0
 66
   257
 43
1.0
 76
     1
 77
     6
 78
     2
 67
     7
 79
     5
170
     0
171
     0
290
     0
174
     0
 93
        1
 44
0.0
173
     0
291
     0
 45
0.0
1001
ACAD
1000
AcDbSavedByObjectVersion
1070
     0
  0
VISUALSTYLE
  5
31
102
{ACAD_REACTORS
330
2A
102
}
102
{ACAD_XDICTIONARY
360
9F
102
}
330
2A
100
AcDbVisualStyle
  2
3D Hidden
 70
     6
 71
     1
 72
     2
 73
     2
 90
        0
 40
0.6
 41
30.0
 62
     5
 63
     7
421
 16777215
 74
     2
 91
        2
 64
     7
 65
   257
 75
     2
175
     1
 42
40.0
 92
        0
 66
   257
 43
1.0
 76
     1
 77
     6
 78
     2
 67
     7
 79
     3
170
     0
171
     0
290
     0
174
     0
 93
        1
 44
0.0
173
     0
291
     0
 45
0.0
1001
ACAD
1000
AcDbSavedByObjectVersion
1070
     0
  0
VISUALSTYLE
  5
30
102
{ACAD_REACTORS
330
2A
102
}
102
{ACAD_XDICTIONARY
360
9D
102
}
330
2A
100
AcDbVisualStyle
  2
3dWireframe
 70
     5
 71
     0
 72
     2
 73
     0
 90
        0
 40
0.6
 41
30.0
 62
     5
 63
     7
421
 16777215
 74
     1
 91
        4
 64
     7
 65
   257
 75
     1
175
     1
 42
1.0
 92
        0
 66
   257
 43
1.0
 76
     1
 77
     6
 78
     2
 67
     7
 79
     5
170
     0
171
     0
290
     0
174
     0
 93
        1
 44
0.0
173
     0
291
     0
 45
0.0
1001
ACAD
1000
AcDbSavedByObjectVersion
1070
     0
  0
VISUALSTYLE
  5
32
102
{ACAD_REACTORS
330
2A
102
}
102
{ACAD_XDICTIONARY
360
A1
102
}
330
2A
100
AcDbVisualStyle
  2
Basic
 70
     7
 71
     1
 72
     0
 73
     1
 90
        0
 40
0.6
 41
30.0
 62
     5
 63
     7
421
 16777215
 74
     0
 91
        4
 64
     7
 65
   257
 75
     1
175
     1
 42
1.0
 92
        8
 66
     7
 43
1.0
 76
     1
 77
     6
 78
     2
 67
     7
 79
     5
170
     0
171
     0
290
     0
174
     0
 93
        1
 44
0.0
173
     0
291
     1
 45
0.0
1001
ACAD
1000
AcDbSavedByObjectVersion
1070
     0
  0
VISUALSTYLE
  5
36
102
{ACAD_REACTORS
330
2A
102
}
102
{ACAD_XDICTIONARY
360
A9
102
}
330
2A
100
AcDbVisualStyle
  2
Brighten
 70
    12
 71
     2
 72
     2
 73
     0
 90
        0
 40
0.6
 41
30.0
 62
     5
 63
     7
421
 16777215
 74
     1
 91
        4
 64
     7
 65
   257
 75
     1
175
     1
 42
1.0
 92
        8
 66
     7
 43
1.0
 76
     1
 77
     6
 78
     2
 67
     7
 79
     5
170
     0
171
     0
290
     0
174
     0
 93
        1
 44
50.0
173
     0
291
     1
 45
0.0
1001
ACAD
1000
AcDbSavedByObjectVersion
1070
     0
  0
VISUALSTYLE
  5
3A
102
{ACAD_REACTORS
330
2A
102
}
102
{ACAD_XDICTIONARY
360
B1
102
}
330
2A
100
AcDbVisualStyle
  2
ColorChange
 70
    16
 71
     2
 72
     2
 73
     3
 90
        0
 40
0.6
 41
30.0
 62
     5
 63
     8
421
  8421504
 74
     1
 91
        4
 64
     7
 65
   257
 75
     1
175
     1
 42
1.0
 92
        8
 66
     8
424
  8421504
 43
1.0
 76
     1
 77
     6
 78
     2
 67
     7
 79
     5
170
     0
171
     0
290
     0
174
     0
 93
        1
 44
0.0
173
     0
291
     1
 45
0.0
1001
ACAD
1000
AcDbSavedByObjectVersion
1070
     0
  0
VISUALSTYLE
  5
34
102
{ACAD_REACTORS
330
2A
102
}
102
{ACAD_XDICTIONARY
360
A5
102
}
330
2A
100
AcDbVisualStyle
  2
Conceptual
 70
     9
 71
     3
 72
     2
 73
     0
 90
        0
 40
0.6
 41
30.0
 62
     5
 63
     7
421
 16777215
 74
     2
 91
        2
 64
     7
 65
   257
 75
     1
175
     1
 42
40.0
 92
        8
 66
     7
 43
1.0
 76
     1
 77
     6
 78
     2
 67
     7
 79
     3
170
     0
171
     0
290
     0
174
     0
 93
        1
 44
0.0
173
     0
291
     0
 45
0.0
1001
ACAD
1000
AcDbSavedByObjectVersion
1070
     0
  0
VISUALSTYLE
  5
35
102
{ACAD_REACTORS
330
2A
102
}
102
{ACAD_XDICTIONARY
360
A7
102
}
330
2A
100
AcDbVisualStyle
  2
Dim
 70
    11
 71
     2
 72
     2
 73
     0
 90
        0
 40
0.6
 41
30.0
 62
     5
 63
     7
421
 16777215
 74
     1
 91
        4
 64
     7
 65
   257
 75
     1
175
     1
 42
1.0
 92
        8
 66
     7
 43
1.0
 76
     1
 77
     6
 78
     2
 67
     7
 79
     5
170
     0
171
     0
290
     0
174
     0
 93
        1
 44
-50.0
173
     0
291
     1
 45
0.0
1001
ACAD
1000
AcDbSavedByObjectVersion
1070
     0
  0
VISUALSTYLE
  5
39
102
{ACAD_REACTORS
330
2A
102
}
102
{ACAD_XDICTIONARY
360
AF
102
}
330
2A
100
AcDbVisualStyle
  2
Facepattern
 70
    15
 71
     2
 72
     2
 73
     0
 90
        0
 40
0.6
 41
30.0
 62
     5
 63
     7
421
 16777215
 74
     1
 91
        4
 64
     7
 65
   257
 75
     1
175
     1
 42
1.0
 92
        8
 66
     7
 43
1.0
 76
     1
 77
     6
 78
     2
 67
     7
 79
     5
170
     0
171
     0
290
     0
174
     0
 93
        1
 44
0.0
173
     0
291
     1
 45
0.0
1001
ACAD
1000
AcDbSavedByObjectVersion
1070
     0
  0
VISUALSTYLE
  5
2B
102
{ACAD_REACTORS
330
2A
102
}
102
{ACAD_XDICTIONARY
360
93
102
}
330
2A
100
AcDbVisualStyle
  2
Flat
 70
     0
 71
     2
 72
     1
 73
     1
 90
        2
 40
0.6
 41
30.0
 62
     5
 63
     7
421
 16777215
 74
     0
 91
        4
 64
     7
 65
   257
 75
     1
175
     1
 42
1.0
 92
        8
 66
     7
 43
1.0
 76
     1
 77
     6
 78
     2
 67
     7
 79
     5
170
     0
171
     0
290
     0
174
     0
 93
       13
 44
0.0
173
     0
291
     1
 45
0.0
1001
ACAD
1000
AcDbSavedByObjectVersion
1070
     0
  0
VISUALSTYLE
  5
2C
102
{ACAD_REACTORS
330
2A
102
}
102
{ACAD_XDICTIONARY
360
95
102
}
330
2A
100
AcDbVisualStyle
  2
FlatWithEdges
 70
     1
 71
     2
 72
     1
 73
     1
 90
        2
 40
0.6
 41
30.0
 62
     5
 63
     7
421
 16777215
 74
     1
 91
        4
 64
     7
 65
   257
 75
     1
175
     1
 42
1.0
 92
        0
 66
   257
 43
1.0
 76
     1
 77
     6
 78
     2
 67
     7
 79
     5
170
     0
171
     0
290
     0
174
     0
 93
       13
 44
0.0
173
     0
291
     1
 45
0.0
1001
ACAD
1000
AcDbSavedByObjectVersion
1070
     0
  0
VISUALSTYLE
  5
2D
102
{ACAD_REACTORS
330
2A
102
}
102
{ACAD_XDICTIONARY
360
97
102
}
330
2A
100
AcDbVisualStyle
  2
Gouraud
 70
     2
 71
     2
 72
     2
 73
     1
 90
        2
 40
0.6
 41
30.0
 62
     5
 63
     7
421
 16777215
 74
     0
 91
        4
 64
     7
 65
   257
 75
     1
175
     1
 42
1.0
 92
        0
 66
     7
 43
1.0
 76
     1
 77
     6
 78
     2
 67
     7
 79
     5
170
     0
171
     0
290
     0
174
     0
 93
       13
 44
0.0
173
     0
291
     1
 45
0.0
1001
ACAD
1000
AcDbSavedByObjectVersion
1070
     0
  0
VISUALSTYLE
  5
2E
102
{ACAD_REACTORS
330
2A
102
}
102
{ACAD_XDICTIONARY
360
99
102
}
330
2A
100
AcDbVisualStyle
  2
GouraudWithEdges
 70
     3
 71
     2
 72
     2
 73
     1
 90
        2
 40
0.6
 41
30.0
 62
     5
 63
     7
421
 16777215
 74
     1
 91
        4
 64
     7
 65
   257
 75
     1
175
     1
 42
1.0
 92
        0
 66
   257
 43
1.0
 76
     1
 77
     6
 78
     2
 67
     7
 79
     5
170
     0
171
     0
290
     0
174
     0
 93
       13
 44
0.0
173
     0
291
     1
 45
0.0
1001
ACAD
1000
AcDbSavedByObjectVersion
1070
     0
  0
VISUALSTYLE
  5
38
102
{ACAD_REACTORS
330
2A
102
}
102
{ACAD_XDICTIONARY
360
AD
102
}
330
2A
100
AcDbVisualStyle
  2
Linepattern
 70
    14
 71
     2
 72
     2
 73
     0
 90
        0
 40
0.6
 41
30.0
 62
     5
 63
     7
421
 16777215
 74
     1
 91
        4
 64
     7
 65
   257
 75
     7
175
     7
 42
1.0
 92
        8
 66
     7
 43
1.0
 76
     1
 77
     6
 78
     2
 67
     7
 79
     5
170
     0
171
     0
290
     0
174
     0
 93
        1
 44
0.0
173
     0
291
     1
 45
0.0
1001
ACAD
1000
AcDbSavedByObjectVersion
1070
     0
  0
VISUALSTYLE
  5
33
102
{ACAD_REACTORS
330
2A
102
}
102
{ACAD_XDICTIONARY
360
A3
102
}
330
2A
100
AcDbVisualStyle
  2
Realistic
 70
     8
 71
     2
 72
     3
 73
     0
 90
        2
 40
0.6
 41
30.0
 62
     5
 63
     7
421
 16777215
 74
     0
 91
        0
 64
     7
 65
   257
 75
     1
175
     1
 42
1.0
 92
        8
 66
   257
 43
1.0
 76
     1
 77
     6
 78
     2
 67
     7
 79
     3
170
     0
171
     0
290
     0
174
     0
 93
       13
 44
0.0
173
     0
291
     0
 45
0.0
1001
ACAD
1000
AcDbSavedByObjectVersion
1070
     0
  0
VISUALSTYLE
  5
37
102
{ACAD_REACTORS
330
2A
102
}
102
{ACAD_XDICTIONARY
360
AB
102
}
330
2A
100
AcDbVisualStyle
  2
Thicken
 70
    13
 71
     2
 72
     2
 73
     0
 90
        0
 40
0.6
 41
30.0
 62
     5
 63
     7
421
 16777215
 74
     1
 91
        4
 64
     7
 65
   257
 75
     1
175
     1
 42
1.0
 92
       12
 66
     7
 43
1.0
 76
     1
 77
     6
 78
     2
 67
     7
 79
     5
170
     0
171
     0
290
     0
174
     0
 93
        1
 44
0.0
173
     0
291
     1
 45
0.0
1001
ACAD
1000
AcDbSavedByObjectVersion
1070
     0
  0
DICTIONARYVAR
  5
91
102
{ACAD_REACTORS
330
90
102
}
330
90
100
DictionaryVariables
280
     0
  1
1:1
  0
DICTIONARYVAR
  5
92
102
{ACAD_REACTORS
330
90
102
}
330
90
100
DictionaryVariables
280
     0
  1
1
  0
DICTIONARY
  5
B5
330
3D
100
AcDbDictionary
280
     1
281
     1
  3
ACAD_XREC_ROUNDTRIP
360
B6
  0
DICTIONARY
  5
B3
330
3C
100
AcDbDictionary
280
     1
281
     1
  3
ACAD_XREC_ROUNDTRIP
360
B4
  0
DICTIONARY
  5
B7
330
3E
100
AcDbDictionary
280
     1
281
     1
  3
ACAD_XREC_ROUNDTRIP
360
B8
  0
DICTIONARY
  5
9B
330
2F
100
AcDbDictionary
280
     1
281
     1
  3
ACAD_XREC_ROUNDTRIP
360
9C
  0
DICTIONARY
  5
9F
330
31
100
AcDbDictionary
280
     1
281
     1
  3
ACAD_XREC_ROUNDTRIP
360
A0
  0
DICTIONARY
  5
9D
330
30
100
AcDbDictionary
280
     1
281
     1
  3
ACAD_XREC_ROUNDTRIP
360
9E
  0
DICTIONARY
  5
A1
330
32
100
AcDbDictionary
280
     1
281
     1
  3
ACAD_XREC_ROUNDTRIP
360
A2
  0
DICTIONARY
  5
A9
330
36
100
AcDbDictionary
280
     1
281
     1
  3
ACAD_XREC_ROUNDTRIP
360
AA
  0
DICTIONARY
  5
B1
330
3A
100
AcDbDictionary
280
     1
281
     1
  3
ACAD_XREC_ROUNDTRIP
360
B2
  0
DICTIONARY
  5
A5
330
34
100
AcDbDictionary
280
     1
281
     1
  3
ACAD_XREC_ROUNDTRIP
360
A6
  0
DICTIONARY
  5
A7
330
35
100
AcDbDictionary
280
     1
281
     1
  3
ACAD_XREC_ROUNDTRIP
360
A8
  0
DICTIONARY
  5
AF
330
39
100
AcDbDictionary
280
     1
281
     1
  3
ACAD_XREC_ROUNDTRIP
360
B0
  0
DICTIONARY
  5
93
330
2B
100
AcDbDictionary
280
     1
281
     1
  3
ACAD_XREC_ROUNDTRIP
360
94
  0
DICTIONARY
  5
95
330
2C
100
AcDbDictionary
280
     1
281
     1
  3
ACAD_XREC_ROUNDTRIP
360
96
  0
DICTIONARY
  5
97
330
2D
100
AcDbDictionary
280
     1
281
     1
  3
ACAD_XREC_ROUNDTRIP
360
98
  0
DICTIONARY
  5
99
330
2E
100
AcDbDictionary
280
     1
281
     1
  3
ACAD_XREC_ROUNDTRIP
360
9A
  0
DICTIONARY
  5
AD
330
38
100
AcDbDictionary
280
     1
281
     1
  3
ACAD_XREC_ROUNDTRIP
360
AE
  0
DICTIONARY
  5
A3
330
33
100
AcDbDictionary
280
     1
281
     1
  3
ACAD_XREC_ROUNDTRIP
360
A4
  0
DICTIONARY
  5
AB
330
37
100
AcDbDictionary
280
     1
281
     1
  3
ACAD_XREC_ROUNDTRIP
360
AC
  0
XRECORD
  5
B6
102
{ACAD_REACTORS
330
B5
102
}
330
B5
100
AcDbXrecord
280
     1
102
MATERIAL
148
0.0
149
0.0
149
0.0
 93
        0
 94
      127
282
     0
 72
     1
 77
     1
171
     1
175
     1
179
     1
273
     0
  0
XRECORD
  5
B4
102
{ACAD_REACTORS
330
B3
102
}
330
B3
100
AcDbXrecord
280
     1
102
MATERIAL
148
0.0
149
0.0
149
0.0
 93
        0
 94
      127
282
     0
 72
     1
 77
     1
171
     1
175
     1
179
     1
273
     0
  0
XRECORD
  5
B8
102
{ACAD_REACTORS
330
B7
102
}
330
B7
100
AcDbXrecord
280
     1
102
MATERIAL
148
0.0
149
0.0
149
0.0
 93
        0
 94
      127
282
     0
 72
     1
 77
     1
171
     1
175
     1
179
     1
273
     0
  0
XRECORD
  5
9C
102
{ACAD_REACTORS
330
9B
102
}
330
9B
100
AcDbXrecord
280
     1
102
RTVSPropertyOp0
 70
     1
102
RTVSPropertyOp1
 70
     1
102
RTVSPropertyOp2
 70
     1
102
RTVSPropertyOp3
 70
     1
102
RTVSPropertyOp4
 70
     1
102
RTVSPropertyOp5
 70
     1
102
RTVSPropertyOp6
 70
     1
102
RTVSPropertyOp7
 70
     1
102
RTVSPropertyOp8
 70
     1
102
RTVSPropertyOp9
 70
     1
102
RTVSPropertyOp10
 70
     1
102
RTVSPropertyOp11
 70
     1
102
RTVSPropertyOp12
 70
     1
102
RTVSPropertyOp13
 70
     1
102
RTVSPropertyOp14
 70
     1
102
RTVSPropertyOp15
 70
     1
102
RTVSPropertyOp16
 70
     1
102
RTVSPropertyOp17
 70
     1
102
RTVSPropertyOp18
 70
     1
102
RTVSPropertyOp19
 70
     1
102
RTVSPropertyOp20
 70
     1
102
RTVSPropertyOp21
 70
     1
102
RTVSPropertyOp22
 70
     1
102
RTVSPropertyOp23
 70
     1
102
RTVSPropertyOp24
 70
     1
102
RTVSPropertyOp25
 70
     1
102
RTVSPropertyOp26
 70
     1
102
RTVSPropertyOp27
 70
     1
102
RTVSPropertyOp28
 70
     1
102
RTVSPropertyOp29
 70
     1
102
RTVSPropertyOp30
 70
     1
102
RTVSPropertyOp31
 70
     1
102
RTVSPropertyOp32
 70
     1
102
RTVSPropertyOp33
 70
     1
102
RTVSPropertyOp34
 70
     1
102
RTVSPropertyOp35
 70
     1
102
RTVSPropertyOp36
 70
     1
102
RTVSPropertyOp37
 70
     1
102
RTVSPropertyOp38
 70
     1
102
RTVSPropertyOp39
 70
     1
102
RTVSPropertyOp40
 70
     1
102
RTVSPropertyOp41
 70
     1
102
RTVSPropertyOp42
 70
     1
102
RTVSPropertyOp43
 70
     1
102
RTVSPropertyOp44
 70
     1
102
RTVSPropertyOp45
 70
     1
102
RTVSPropertyOp46
 70
     1
102
RTVSPropertyOp47
 70
     1
102
RTVSPropertyOp48
 70
     1
102
RTVSPropertyOp49
 70
     1
102
RTVSPropertyOp50
 70
     1
102
RTVSPropertyOp51
 70
     0
102
RTVSPropertyOp52
 70
     0
102
RTVSPropertyOp53
 70
     1
102
RTVSPropertyOp54
 70
     1
102
RTVSPropertyOp55
 70
     1
102
RTVSPropertyOp56
 70
     1
102
RTVSPropertyOp57
 70
     1
102
RTVSPost2010Prop28
280
     1
102
RTVSPost2010PropOp28
 70
     1
102
RTVSPost2010Prop29
280
     1
102
RTVSPost2010PropOp29
 70
     1
102
RTVSPost2010Prop30
280
     0
102
RTVSPost2010PropOp30
 70
     1
102
RTVSPost2010Prop31
280
     0
102
RTVSPost2010PropOp31
 70
     1
102
RTVSPost2010Prop32
280
     0
102
RTVSPost2010PropOp32
 70
     1
102
RTVSPost2010Prop33
280
     0
102
RTVSPost2010PropOp33
 70
     1
102
RTVSPost2010Prop34
280
     0
102
RTVSPost2010PropOp34
 70
     1
102
RTVSPost2010Prop35
280
     0
102
RTVSPost2010PropOp35
 70
     1
102
RTVSPost2010Prop36
280
     0
102
RTVSPost2010PropOp36
 70
     1
102
RTVSPost2010Prop37
 90
       50
102
RTVSPost2010PropOp37
 70
     1
102
RTVSPost2010Prop38
140
0.0
102
RTVSPost2010PropOp38
 70
     1
102
RTVSPost2010Prop39
140
1.0
102
RTVSPost2010PropOp39
 70
     1
102
RTVSPost2010Prop40
 90
        0
102
RTVSPost2010PropOp40
 70
     1
102
RTVSPost2010Prop41ColorIndex
 90
       18
102
RTVSPost2010Prop41ColorRGB
 90
        0
102
RTVSPost2010PropOp41
 70
     1
102
RTVSPost2010Prop42
 90
       50
102
RTVSPost2010PropOp42
 70
     1
102
RTVSPost2010Prop43
 90
        3
102
RTVSPost2010PropOp43
 70
     1
102
RTVSPost2010Prop44ColorIndex
 90
        5
102
RTVSPost2010Prop44ColorRGB
 90
      255
102
RTVSPost2010PropOp44
 70
     1
102
RTVSPost2010Prop45
280
     0
102
RTVSPost2010PropOp45
 70
     1
102
RTVSPost2010Prop46
 90
       50
102
RTVSPost2010PropOp46
 70
     1
102
RTVSPost2010Prop47
 90
       50
102
RTVSPost2010PropOp47
 70
     1
102
RTVSPost2010Prop48
 90
       50
102
RTVSPost2010PropOp48
 70
     1
102
RTVSPost2010Prop49
280
     0
102
RTVSPost2010PropOp49
 70
     1
102
RTVSPost2010Prop50
 90
       50
102
RTVSPost2010PropOp50
 70
     1
102
RTVSPost2010Prop51ColorIndex
 90
      256
102
RTVSPost2010Prop51ColorRGB
 90
-16777216
102
RTVSPost2010PropOp51
 70
     0
102
RTVSPost2010Prop52
140
1.0
102
RTVSPost2010PropOp52
 70
     0
102
RTVSPost2010Prop53
 90
        2
102
RTVSPost2010PropOp53
 70
     1
102
RTVSPost2010Prop54
  1
strokes_ogs.tif
102
RTVSPost2010PropOp54
 70
     1
102
RTVSPost2010Prop55
280
     0
102
RTVSPost2010PropOp55
 70
     1
102
RTVSPost2010Prop56
140
1.0
102
RTVSPost2010PropOp56
 70
     1
102
RTVSPost2010Prop57
140
1.0
102
RTVSPost2010PropOp57
 70
     1
  0
XRECORD
  5
A0
102
{ACAD_REACTORS
330
9F
102
}
330
9F
100
AcDbXrecord
280
     1
102
RTVSPropertyOp0
 70
     1
102
RTVSPropertyOp1
 70
     1
102
RTVSPropertyOp2
 70
     1
102
RTVSPropertyOp3
 70
     1
102
RTVSPropertyOp4
 70
     1
102
RTVSPropertyOp5
 70
     1
102
RTVSPropertyOp6
 70
     1
102
RTVSPropertyOp7
 70
     1
102
RTVSPropertyOp8
 70
     1
102
RTVSPropertyOp9
 70
     1
102
RTVSPropertyOp10
 70
     1
102
RTVSPropertyOp11
 70
     1
102
RTVSPropertyOp12
 70
     1
102
RTVSPropertyOp13
 70
     1
102
RTVSPropertyOp14
 70
     1
102
RTVSPropertyOp15
 70
     1
102
RTVSPropertyOp16
 70
     1
102
RTVSPropertyOp17
 70
     1
102
RTVSPropertyOp18
 70
     1
102
RTVSPropertyOp19
 70
     1
102
RTVSPropertyOp20
 70
     1
102
RTVSPropertyOp21
 70
     1
102
RTVSPropertyOp22
 70
     1
102
RTVSPropertyOp23
 70
     1
102
RTVSPropertyOp24
 70
     1
102
RTVSPropertyOp25
 70
     1
102
RTVSPropertyOp26
 70
     1
102
RTVSPropertyOp27
 70
     1
102
RTVSPropertyOp28
 70
     1
102
RTVSPropertyOp29
 70
     1
102
RTVSPropertyOp30
 70
     1
102
RTVSPropertyOp31
 70
     1
102
RTVSPropertyOp32
 70
     1
102
RTVSPropertyOp33
 70
     1
102
RTVSPropertyOp34
 70
     1
102
RTVSPropertyOp35
 70
     1
102
RTVSPropertyOp36
 70
     1
102
RTVSPropertyOp37
 70
     1
102
RTVSPropertyOp38
 70
     1
102
RTVSPropertyOp39
 70
     1
102
RTVSPropertyOp40
 70
     1
102
RTVSPropertyOp41
 70
     1
102
RTVSPropertyOp42
 70
     1
102
RTVSPropertyOp43
 70
     1
102
RTVSPropertyOp44
 70
     1
102
RTVSPropertyOp45
 70
     1
102
RTVSPropertyOp46
 70
     1
102
RTVSPropertyOp47
 70
     1
102
RTVSPropertyOp48
 70
     1
102
RTVSPropertyOp49
 70
     1
102
RTVSPropertyOp50
 70
     1
102
RTVSPropertyOp51
 70
     0
102
RTVSPropertyOp52
 70
     0
102
RTVSPropertyOp53
 70
     1
102
RTVSPropertyOp54
 70
     1
102
RTVSPropertyOp55
 70
     1
102
RTVSPropertyOp56
 70
     1
102
RTVSPropertyOp57
 70
     1
102
RTVSPost2010Prop28
280
     0
102
RTVSPost2010PropOp28
 70
     1
102
RTVSPost2010Prop29
280
     1
102
RTVSPost2010PropOp29
 70
     1
102
RTVSPost2010Prop30
280
     1
102
RTVSPost2010PropOp30
 70
     1
102
RTVSPost2010Prop31
280
     0
102
RTVSPost2010PropOp31
 70
     1
102
RTVSPost2010Prop32
280
     0
102
RTVSPost2010PropOp32
 70
     1
102
RTVSPost2010Prop33
280
     0
102
RTVSPost2010PropOp33
 70
     1
102
RTVSPost2010Prop34
280
     0
102
RTVSPost2010PropOp34
 70
     1
102
RTVSPost2010Prop35
280
     0
102
RTVSPost2010PropOp35
 70
     1
102
RTVSPost2010Prop36
280
     0
102
RTVSPost2010PropOp36
 70
     1
102
RTVSPost2010Prop37
 90
       50
102
RTVSPost2010PropOp37
 70
     1
102
RTVSPost2010Prop38
140
0.0
102
RTVSPost2010PropOp38
 70
     1
102
RTVSPost2010Prop39
140
1.0
102
RTVSPost2010PropOp39
 70
     1
102
RTVSPost2010Prop40
 90
        0
102
RTVSPost2010PropOp40
 70
     1
102
RTVSPost2010Prop41ColorIndex
 90
       18
102
RTVSPost2010Prop41ColorRGB
 90
        0
102
RTVSPost2010PropOp41
 70
     1
102
RTVSPost2010Prop42
 90
       50
102
RTVSPost2010PropOp42
 70
     1
102
RTVSPost2010Prop43
 90
        3
102
RTVSPost2010PropOp43
 70
     1
102
RTVSPost2010Prop44ColorIndex
 90
        5
102
RTVSPost2010Prop44ColorRGB
 90
      255
102
RTVSPost2010PropOp44
 70
     1
102
RTVSPost2010Prop45
280
     0
102
RTVSPost2010PropOp45
 70
     1
102
RTVSPost2010Prop46
 90
       50
102
RTVSPost2010PropOp46
 70
     1
102
RTVSPost2010Prop47
 90
       50
102
RTVSPost2010PropOp47
 70
     1
102
RTVSPost2010Prop48
 90
       50
102
RTVSPost2010PropOp48
 70
     1
102
RTVSPost2010Prop49
280
     0
102
RTVSPost2010PropOp49
 70
     1
102
RTVSPost2010Prop50
 90
       50
102
RTVSPost2010PropOp50
 70
     1
102
RTVSPost2010Prop51ColorIndex
 90
      256
102
RTVSPost2010Prop51ColorRGB
 90
-16777216
102
RTVSPost2010PropOp51
 70
     0
102
RTVSPost2010Prop52
140
1.0
102
RTVSPost2010PropOp52
 70
     0
102
RTVSPost2010Prop53
 90
        2
102
RTVSPost2010PropOp53
 70
     1
102
RTVSPost2010Prop54
  1
strokes_ogs.tif
102
RTVSPost2010PropOp54
 70
     1
102
RTVSPost2010Prop55
280
     0
102
RTVSPost2010PropOp55
 70
     1
102
RTVSPost2010Prop56
140
1.0
102
RTVSPost2010PropOp56
 70
     1
102
RTVSPost2010Prop57
140
1.0
102
RTVSPost2010PropOp57
 70
     1
  0
XRECORD
  5
9E
102
{ACAD_REACTORS
330
9D
102
}
330
9D
100
AcDbXrecord
280
     1
102
RTVSPropertyOp0
 70
     1
102
RTVSPropertyOp1
 70
     1
102
RTVSPropertyOp2
 70
     1
102
RTVSPropertyOp3
 70
     1
102
RTVSPropertyOp4
 70
     1
102
RTVSPropertyOp5
 70
     1
102
RTVSPropertyOp6
 70
     1
102
RTVSPropertyOp7
 70
     1
102
RTVSPropertyOp8
 70
     1
102
RTVSPropertyOp9
 70
     1
102
RTVSPropertyOp10
 70
     1
102
RTVSPropertyOp11
 70
     1
102
RTVSPropertyOp12
 70
     1
102
RTVSPropertyOp13
 70
     1
102
RTVSPropertyOp14
 70
     1
102
RTVSPropertyOp15
 70
     1
102
RTVSPropertyOp16
 70
     1
102
RTVSPropertyOp17
 70
     1
102
RTVSPropertyOp18
 70
     1
102
RTVSPropertyOp19
 70
     1
102
RTVSPropertyOp20
 70
     1
102
RTVSPropertyOp21
 70
     1
102
RTVSPropertyOp22
 70
     1
102
RTVSPropertyOp23
 70
     1
102
RTVSPropertyOp24
 70
     1
102
RTVSPropertyOp25
 70
     1
102
RTVSPropertyOp26
 70
     1
102
RTVSPropertyOp27
 70
     1
102
RTVSPropertyOp28
 70
     1
102
RTVSPropertyOp29
 70
     1
102
RTVSPropertyOp30
 70
     1
102
RTVSPropertyOp31
 70
     1
102
RTVSPropertyOp32
 70
     1
102
RTVSPropertyOp33
 70
     1
102
RTVSPropertyOp34
 70
     1
102
RTVSPropertyOp35
 70
     1
102
RTVSPropertyOp36
 70
     1
102
RTVSPropertyOp37
 70
     1
102
RTVSPropertyOp38
 70
     1
102
RTVSPropertyOp39
 70
     1
102
RTVSPropertyOp40
 70
     1
102
RTVSPropertyOp41
 70
     1
102
RTVSPropertyOp42
 70
     1
102
RTVSPropertyOp43
 70
     1
102
RTVSPropertyOp44
 70
     1
102
RTVSPropertyOp45
 70
     1
102
RTVSPropertyOp46
 70
     1
102
RTVSPropertyOp47
 70
     1
102
RTVSPropertyOp48
 70
     1
102
RTVSPropertyOp49
 70
     1
102
RTVSPropertyOp50
 70
     1
102
RTVSPropertyOp51
 70
     0
102
RTVSPropertyOp52
 70
     0
102
RTVSPropertyOp53
 70
     1
102
RTVSPropertyOp54
 70
     1
102
RTVSPropertyOp55
 70
     1
102
RTVSPropertyOp56
 70
     1
102
RTVSPropertyOp57
 70
     1
102
RTVSPost2010Prop28
280
     0
102
RTVSPost2010PropOp28
 70
     1
102
RTVSPost2010Prop29
280
     1
102
RTVSPost2010PropOp29
 70
     1
102
RTVSPost2010Prop30
280
     1
102
RTVSPost2010PropOp30
 70
     1
102
RTVSPost2010Prop31
280
     0
102
RTVSPost2010PropOp31
 70
     1
102
RTVSPost2010Prop32
280
     0
102
RTVSPost2010PropOp32
 70
     1
102
RTVSPost2010Prop33
280
     0
102
RTVSPost2010PropOp33
 70
     1
102
RTVSPost2010Prop34
280
     0
102
RTVSPost2010PropOp34
 70
     1
102
RTVSPost2010Prop35
280
     0
102
RTVSPost2010PropOp35
 70
     1
102
RTVSPost2010Prop36
280
     0
102
RTVSPost2010PropOp36
 70
     1
102
RTVSPost2010Prop37
 90
       50
102
RTVSPost2010PropOp37
 70
     1
102
RTVSPost2010Prop38
140
0.0
102
RTVSPost2010PropOp38
 70
     1
102
RTVSPost2010Prop39
140
1.0
102
RTVSPost2010PropOp39
 70
     1
102
RTVSPost2010Prop40
 90
        0
102
RTVSPost2010PropOp40
 70
     1
102
RTVSPost2010Prop41ColorIndex
 90
       18
102
RTVSPost2010Prop41ColorRGB
 90
        0
102
RTVSPost2010PropOp41
 70
     1
102
RTVSPost2010Prop42
 90
       50
102
RTVSPost2010PropOp42
 70
     1
102
RTVSPost2010Prop43
 90
        3
102
RTVSPost2010PropOp43
 70
     1
102
RTVSPost2010Prop44ColorIndex
 90
        5
102
RTVSPost2010Prop44ColorRGB
 90
      255
102
RTVSPost2010PropOp44
 70
     1
102
RTVSPost2010Prop45
280
     0
102
RTVSPost2010PropOp45
 70
     1
102
RTVSPost2010Prop46
 90
       50
102
RTVSPost2010PropOp46
 70
     1
102
RTVSPost2010Prop47
 90
       50
102
RTVSPost2010PropOp47
 70
     1
102
RTVSPost2010Prop48
 90
       50
102
RTVSPost2010PropOp48
 70
     1
102
RTVSPost2010Prop49
280
     0
102
RTVSPost2010PropOp49
 70
     1
102
RTVSPost2010Prop50
 90
       50
102
RTVSPost2010PropOp50
 70
     1
102
RTVSPost2010Prop51ColorIndex
 90
      256
102
RTVSPost2010Prop51ColorRGB
 90
-16777216
102
RTVSPost2010PropOp51
 70
     0
102
RTVSPost2010Prop52
140
1.0
102
RTVSPost2010PropOp52
 70
     0
102
RTVSPost2010Prop53
 90
        2
102
RTVSPost2010PropOp53
 70
     1
102
RTVSPost2010Prop54
  1
strokes_ogs.tif
102
RTVSPost2010PropOp54
 70
     1
102
RTVSPost2010Prop55
280
     0
102
RTVSPost2010PropOp55
 70
     1
102
RTVSPost2010Prop56
140
1.0
102
RTVSPost2010PropOp56
 70
     1
102
RTVSPost2010Prop57
140
1.0
102
RTVSPost2010PropOp57
 70
     1
  0
XRECORD
  5
A2
102
{ACAD_REACTORS
330
A1
102
}
330
A1
100
AcDbXrecord
280
     1
102
RTVSPropertyOp0
 70
     1
102
RTVSPropertyOp1
 70
     1
102
RTVSPropertyOp2
 70
     1
102
RTVSPropertyOp3
 70
     1
102
RTVSPropertyOp4
 70
     1
102
RTVSPropertyOp5
 70
     1
102
RTVSPropertyOp6
 70
     1
102
RTVSPropertyOp7
 70
     1
102
RTVSPropertyOp8
 70
     1
102
RTVSPropertyOp9
 70
     1
102
RTVSPropertyOp10
 70
     1
102
RTVSPropertyOp11
 70
     1
102
RTVSPropertyOp12
 70
     1
102
RTVSPropertyOp13
 70
     1
102
RTVSPropertyOp14
 70
     1
102
RTVSPropertyOp15
 70
     1
102
RTVSPropertyOp16
 70
     1
102
RTVSPropertyOp17
 70
     1
102
RTVSPropertyOp18
 70
     1
102
RTVSPropertyOp19
 70
     1
102
RTVSPropertyOp20
 70
     1
102
RTVSPropertyOp21
 70
     1
102
RTVSPropertyOp22
 70
     1
102
RTVSPropertyOp23
 70
     1
102
RTVSPropertyOp24
 70
     1
102
RTVSPropertyOp25
 70
     1
102
RTVSPropertyOp26
 70
     1
102
RTVSPropertyOp27
 70
     1
102
RTVSPropertyOp28
 70
     1
102
RTVSPropertyOp29
 70
     1
102
RTVSPropertyOp30
 70
     1
102
RTVSPropertyOp31
 70
     1
102
RTVSPropertyOp32
 70
     1
102
RTVSPropertyOp33
 70
     1
102
RTVSPropertyOp34
 70
     1
102
RTVSPropertyOp35
 70
     1
102
RTVSPropertyOp36
 70
     1
102
RTVSPropertyOp37
 70
     1
102
RTVSPropertyOp38
 70
     1
102
RTVSPropertyOp39
 70
     1
102
RTVSPropertyOp40
 70
     1
102
RTVSPropertyOp41
 70
     1
102
RTVSPropertyOp42
 70
     1
102
RTVSPropertyOp43
 70
     1
102
RTVSPropertyOp44
 70
     1
102
RTVSPropertyOp45
 70
     1
102
RTVSPropertyOp46
 70
     1
102
RTVSPropertyOp47
 70
     1
102
RTVSPropertyOp48
 70
     1
102
RTVSPropertyOp49
 70
     1
102
RTVSPropertyOp50
 70
     1
102
RTVSPropertyOp51
 70
     0
102
RTVSPropertyOp52
 70
     0
102
RTVSPropertyOp53
 70
     1
102
RTVSPropertyOp54
 70
     1
102
RTVSPropertyOp55
 70
     1
102
RTVSPropertyOp56
 70
     1
102
RTVSPropertyOp57
 70
     1
102
RTVSPost2010Prop28
280
     0
102
RTVSPost2010PropOp28
 70
     1
102
RTVSPost2010Prop29
280
     1
102
RTVSPost2010PropOp29
 70
     1
102
RTVSPost2010Prop30
280
     1
102
RTVSPost2010PropOp30
 70
     1
102
RTVSPost2010Prop31
280
     0
102
RTVSPost2010PropOp31
 70
     1
102
RTVSPost2010Prop32
280
     0
102
RTVSPost2010PropOp32
 70
     1
102
RTVSPost2010Prop33
280
     0
102
RTVSPost2010PropOp33
 70
     1
102
RTVSPost2010Prop34
280
     0
102
RTVSPost2010PropOp34
 70
     1
102
RTVSPost2010Prop35
280
     0
102
RTVSPost2010PropOp35
 70
     1
102
RTVSPost2010Prop36
280
     0
102
RTVSPost2010PropOp36
 70
     1
102
RTVSPost2010Prop37
 90
       50
102
RTVSPost2010PropOp37
 70
     1
102
RTVSPost2010Prop38
140
0.0
102
RTVSPost2010PropOp38
 70
     1
102
RTVSPost2010Prop39
140
1.0
102
RTVSPost2010PropOp39
 70
     1
102
RTVSPost2010Prop40
 90
        0
102
RTVSPost2010PropOp40
 70
     1
102
RTVSPost2010Prop41ColorIndex
 90
       18
102
RTVSPost2010Prop41ColorRGB
 90
        0
102
RTVSPost2010PropOp41
 70
     1
102
RTVSPost2010Prop42
 90
       50
102
RTVSPost2010PropOp42
 70
     1
102
RTVSPost2010Prop43
 90
        3
102
RTVSPost2010PropOp43
 70
     1
102
RTVSPost2010Prop44ColorIndex
 90
        5
102
RTVSPost2010Prop44ColorRGB
 90
      255
102
RTVSPost2010PropOp44
 70
     1
102
RTVSPost2010Prop45
280
     0
102
RTVSPost2010PropOp45
 70
     1
102
RTVSPost2010Prop46
 90
       50
102
RTVSPost2010PropOp46
 70
     1
102
RTVSPost2010Prop47
 90
       50
102
RTVSPost2010PropOp47
 70
     1
102
RTVSPost2010Prop48
 90
       50
102
RTVSPost2010PropOp48
 70
     1
102
RTVSPost2010Prop49
280
     0
102
RTVSPost2010PropOp49
 70
     1
102
RTVSPost2010Prop50
 90
       50
102
RTVSPost2010PropOp50
 70
     1
102
RTVSPost2010Prop51ColorIndex
 90
      256
102
RTVSPost2010Prop51ColorRGB
 90
-16777216
102
RTVSPost2010PropOp51
 70
     0
102
RTVSPost2010Prop52
140
1.0
102
RTVSPost2010PropOp52
 70
     0
102
RTVSPost2010Prop53
 90
        2
102
RTVSPost2010PropOp53
 70
     1
102
RTVSPost2010Prop54
  1
strokes_ogs.tif
102
RTVSPost2010PropOp54
 70
     1
102
RTVSPost2010Prop55
280
     0
102
RTVSPost2010PropOp55
 70
     1
102
RTVSPost2010Prop56
140
1.0
102
RTVSPost2010PropOp56
 70
     1
102
RTVSPost2010Prop57
140
1.0
102
RTVSPost2010PropOp57
 70
     1
  0
XRECORD
  5
AA
102
{ACAD_REACTORS
330
A9
102
}
330
A9
100
AcDbXrecord
280
     1
102
RTVSPropertyOp0
 70
     1
102
RTVSPropertyOp1
 70
     1
102
RTVSPropertyOp2
 70
     1
102
RTVSPropertyOp3
 70
     1
102
RTVSPropertyOp4
 70
     1
102
RTVSPropertyOp5
 70
     1
102
RTVSPropertyOp6
 70
     1
102
RTVSPropertyOp7
 70
     1
102
RTVSPropertyOp8
 70
     1
102
RTVSPropertyOp9
 70
     1
102
RTVSPropertyOp10
 70
     1
102
RTVSPropertyOp11
 70
     1
102
RTVSPropertyOp12
 70
     1
102
RTVSPropertyOp13
 70
     1
102
RTVSPropertyOp14
 70
     1
102
RTVSPropertyOp15
 70
     1
102
RTVSPropertyOp16
 70
     1
102
RTVSPropertyOp17
 70
     1
102
RTVSPropertyOp18
 70
     1
102
RTVSPropertyOp19
 70
     1
102
RTVSPropertyOp20
 70
     1
102
RTVSPropertyOp21
 70
     1
102
RTVSPropertyOp22
 70
     1
102
RTVSPropertyOp23
 70
     1
102
RTVSPropertyOp24
 70
     1
102
RTVSPropertyOp25
 70
     1
102
RTVSPropertyOp26
 70
     1
102
RTVSPropertyOp27
 70
     1
102
RTVSPropertyOp28
 70
     1
102
RTVSPropertyOp29
 70
     1
102
RTVSPropertyOp30
 70
     1
102
RTVSPropertyOp31
 70
     1
102
RTVSPropertyOp32
 70
     1
102
RTVSPropertyOp33
 70
     1
102
RTVSPropertyOp34
 70
     1
102
RTVSPropertyOp35
 70
     1
102
RTVSPropertyOp36
 70
     1
102
RTVSPropertyOp37
 70
     1
102
RTVSPropertyOp38
 70
     1
102
RTVSPropertyOp39
 70
     1
102
RTVSPropertyOp40
 70
     1
102
RTVSPropertyOp41
 70
     1
102
RTVSPropertyOp42
 70
     1
102
RTVSPropertyOp43
 70
     1
102
RTVSPropertyOp44
 70
     1
102
RTVSPropertyOp45
 70
     1
102
RTVSPropertyOp46
 70
     1
102
RTVSPropertyOp47
 70
     1
102
RTVSPropertyOp48
 70
     1
102
RTVSPropertyOp49
 70
     1
102
RTVSPropertyOp50
 70
     1
102
RTVSPropertyOp51
 70
     0
102
RTVSPropertyOp52
 70
     0
102
RTVSPropertyOp53
 70
     1
102
RTVSPropertyOp54
 70
     1
102
RTVSPropertyOp55
 70
     1
102
RTVSPropertyOp56
 70
     1
102
RTVSPropertyOp57
 70
     1
102
RTVSPost2010Prop28
280
     0
102
RTVSPost2010PropOp28
 70
     1
102
RTVSPost2010Prop29
280
     1
102
RTVSPost2010PropOp29
 70
     1
102
RTVSPost2010Prop30
280
     1
102
RTVSPost2010PropOp30
 70
     1
102
RTVSPost2010Prop31
280
     0
102
RTVSPost2010PropOp31
 70
     1
102
RTVSPost2010Prop32
280
     0
102
RTVSPost2010PropOp32
 70
     1
102
RTVSPost2010Prop33
280
     0
102
RTVSPost2010PropOp33
 70
     1
102
RTVSPost2010Prop34
280
     0
102
RTVSPost2010PropOp34
 70
     1
102
RTVSPost2010Prop35
280
     0
102
RTVSPost2010PropOp35
 70
     1
102
RTVSPost2010Prop36
280
     0
102
RTVSPost2010PropOp36
 70
     1
102
RTVSPost2010Prop37
 90
       50
102
RTVSPost2010PropOp37
 70
     1
102
RTVSPost2010Prop38
140
0.0
102
RTVSPost2010PropOp38
 70
     1
102
RTVSPost2010Prop39
140
1.0
102
RTVSPost2010PropOp39
 70
     1
102
RTVSPost2010Prop40
 90
        0
102
RTVSPost2010PropOp40
 70
     1
102
RTVSPost2010Prop41ColorIndex
 90
       18
102
RTVSPost2010Prop41ColorRGB
 90
        0
102
RTVSPost2010PropOp41
 70
     1
102
RTVSPost2010Prop42
 90
       50
102
RTVSPost2010PropOp42
 70
     1
102
RTVSPost2010Prop43
 90
        3
102
RTVSPost2010PropOp43
 70
     1
102
RTVSPost2010Prop44ColorIndex
 90
        5
102
RTVSPost2010Prop44ColorRGB
 90
      255
102
RTVSPost2010PropOp44
 70
     1
102
RTVSPost2010Prop45
280
     0
102
RTVSPost2010PropOp45
 70
     1
102
RTVSPost2010Prop46
 90
       50
102
RTVSPost2010PropOp46
 70
     1
102
RTVSPost2010Prop47
 90
       50
102
RTVSPost2010PropOp47
 70
     1
102
RTVSPost2010Prop48
 90
       50
102
RTVSPost2010PropOp48
 70
     1
102
RTVSPost2010Prop49
280
     0
102
RTVSPost2010PropOp49
 70
     1
102
RTVSPost2010Prop50
 90
       50
102
RTVSPost2010PropOp50
 70
     1
102
RTVSPost2010Prop51ColorIndex
 90
      256
102
RTVSPost2010Prop51ColorRGB
 90
-16777216
102
RTVSPost2010PropOp51
 70
     0
102
RTVSPost2010Prop52
140
1.0
102
RTVSPost2010PropOp52
 70
     0
102
RTVSPost2010Prop53
 90
        2
102
RTVSPost2010PropOp53
 70
     1
102
RTVSPost2010Prop54
  1
strokes_ogs.tif
102
RTVSPost2010PropOp54
 70
     1
102
RTVSPost2010Prop55
280
     0
102
RTVSPost2010PropOp55
 70
     1
102
RTVSPost2010Prop56
140
1.0
102
RTVSPost2010PropOp56
 70
     1
102
RTVSPost2010Prop57
140
1.0
102
RTVSPost2010PropOp57
 70
     1
  0
XRECORD
  5
B2
102
{ACAD_REACTORS
330
B1
102
}
330
B1
100
AcDbXrecord
280
     1
102
RTVSPropertyOp0
 70
     1
102
RTVSPropertyOp1
 70
     1
102
RTVSPropertyOp2
 70
     1
102
RTVSPropertyOp3
 70
     1
102
RTVSPropertyOp4
 70
     1
102
RTVSPropertyOp5
 70
     1
102
RTVSPropertyOp6
 70
     1
102
RTVSPropertyOp7
 70
     1
102
RTVSPropertyOp8
 70
     1
102
RTVSPropertyOp9
 70
     1
102
RTVSPropertyOp10
 70
     1
102
RTVSPropertyOp11
 70
     1
102
RTVSPropertyOp12
 70
     1
102
RTVSPropertyOp13
 70
     1
102
RTVSPropertyOp14
 70
     1
102
RTVSPropertyOp15
 70
     1
102
RTVSPropertyOp16
 70
     1
102
RTVSPropertyOp17
 70
     1
102
RTVSPropertyOp18
 70
     1
102
RTVSPropertyOp19
 70
     1
102
RTVSPropertyOp20
 70
     1
102
RTVSPropertyOp21
 70
     1
102
RTVSPropertyOp22
 70
     1
102
RTVSPropertyOp23
 70
     1
102
RTVSPropertyOp24
 70
     1
102
RTVSPropertyOp25
 70
     1
102
RTVSPropertyOp26
 70
     1
102
RTVSPropertyOp27
 70
     1
102
RTVSPropertyOp28
 70
     1
102
RTVSPropertyOp29
 70
     1
102
RTVSPropertyOp30
 70
     1
102
RTVSPropertyOp31
 70
     1
102
RTVSPropertyOp32
 70
     1
102
RTVSPropertyOp33
 70
     1
102
RTVSPropertyOp34
 70
     1
102
RTVSPropertyOp35
 70
     1
102
RTVSPropertyOp36
 70
     1
102
RTVSPropertyOp37
 70
     1
102
RTVSPropertyOp38
 70
     1
102
RTVSPropertyOp39
 70
     1
102
RTVSPropertyOp40
 70
     1
102
RTVSPropertyOp41
 70
     1
102
RTVSPropertyOp42
 70
     1
102
RTVSPropertyOp43
 70
     1
102
RTVSPropertyOp44
 70
     1
102
RTVSPropertyOp45
 70
     1
102
RTVSPropertyOp46
 70
     1
102
RTVSPropertyOp47
 70
     1
102
RTVSPropertyOp48
 70
     1
102
RTVSPropertyOp49
 70
     1
102
RTVSPropertyOp50
 70
     1
102
RTVSPropertyOp51
 70
     0
102
RTVSPropertyOp52
 70
     0
102
RTVSPropertyOp53
 70
     1
102
RTVSPropertyOp54
 70
     1
102
RTVSPropertyOp55
 70
     1
102
RTVSPropertyOp56
 70
     1
102
RTVSPropertyOp57
 70
     1
102
RTVSPost2010Prop28
280
     0
102
RTVSPost2010PropOp28
 70
     1
102
RTVSPost2010Prop29
280
     1
102
RTVSPost2010PropOp29
 70
     1
102
RTVSPost2010Prop30
280
     1
102
RTVSPost2010PropOp30
 70
     1
102
RTVSPost2010Prop31
280
     0
102
RTVSPost2010PropOp31
 70
     1
102
RTVSPost2010Prop32
280
     0
102
RTVSPost2010PropOp32
 70
     1
102
RTVSPost2010Prop33
280
     0
102
RTVSPost2010PropOp33
 70
     1
102
RTVSPost2010Prop34
280
     0
102
RTVSPost2010PropOp34
 70
     1
102
RTVSPost2010Prop35
280
     0
102
RTVSPost2010PropOp35
 70
     1
102
RTVSPost2010Prop36
280
     0
102
RTVSPost2010PropOp36
 70
     1
102
RTVSPost2010Prop37
 90
       50
102
RTVSPost2010PropOp37
 70
     1
102
RTVSPost2010Prop38
140
0.0
102
RTVSPost2010PropOp38
 70
     1
102
RTVSPost2010Prop39
140
1.0
102
RTVSPost2010PropOp39
 70
     1
102
RTVSPost2010Prop40
 90
        0
102
RTVSPost2010PropOp40
 70
     1
102
RTVSPost2010Prop41ColorIndex
 90
       18
102
RTVSPost2010Prop41ColorRGB
 90
        0
102
RTVSPost2010PropOp41
 70
     1
102
RTVSPost2010Prop42
 90
       50
102
RTVSPost2010PropOp42
 70
     1
102
RTVSPost2010Prop43
 90
        3
102
RTVSPost2010PropOp43
 70
     1
102
RTVSPost2010Prop44ColorIndex
 90
        5
102
RTVSPost2010Prop44ColorRGB
 90
      255
102
RTVSPost2010PropOp44
 70
     1
102
RTVSPost2010Prop45
280
     0
102
RTVSPost2010PropOp45
 70
     1
102
RTVSPost2010Prop46
 90
       50
102
RTVSPost2010PropOp46
 70
     1
102
RTVSPost2010Prop47
 90
       50
102
RTVSPost2010PropOp47
 70
     1
102
RTVSPost2010Prop48
 90
       50
102
RTVSPost2010PropOp48
 70
     1
102
RTVSPost2010Prop49
280
     0
102
RTVSPost2010PropOp49
 70
     1
102
RTVSPost2010Prop50
 90
       50
102
RTVSPost2010PropOp50
 70
     1
102
RTVSPost2010Prop51ColorIndex
 90
      256
102
RTVSPost2010Prop51ColorRGB
 90
-16777216
102
RTVSPost2010PropOp51
 70
     0
102
RTVSPost2010Prop52
140
1.0
102
RTVSPost2010PropOp52
 70
     0
102
RTVSPost2010Prop53
 90
        2
102
RTVSPost2010PropOp53
 70
     1
102
RTVSPost2010Prop54
  1
strokes_ogs.tif
102
RTVSPost2010PropOp54
 70
     1
102
RTVSPost2010Prop55
280
     0
102
RTVSPost2010PropOp55
 70
     1
102
RTVSPost2010Prop56
140
1.0
102
RTVSPost2010PropOp56
 70
     1
102
RTVSPost2010Prop57
140
1.0
102
RTVSPost2010PropOp57
 70
     1
  0
XRECORD
  5
A6
102
{ACAD_REACTORS
330
A5
102
}
330
A5
100
AcDbXrecord
280
     1
102
RTVSPropertyOp0
 70
     1
102
RTVSPropertyOp1
 70
     1
102
RTVSPropertyOp2
 70
     1
102
RTVSPropertyOp3
 70
     1
102
RTVSPropertyOp4
 70
     1
102
RTVSPropertyOp5
 70
     1
102
RTVSPropertyOp6
 70
     1
102
RTVSPropertyOp7
 70
     1
102
RTVSPropertyOp8
 70
     1
102
RTVSPropertyOp9
 70
     1
102
RTVSPropertyOp10
 70
     1
102
RTVSPropertyOp11
 70
     1
102
RTVSPropertyOp12
 70
     1
102
RTVSPropertyOp13
 70
     1
102
RTVSPropertyOp14
 70
     1
102
RTVSPropertyOp15
 70
     1
102
RTVSPropertyOp16
 70
     1
102
RTVSPropertyOp17
 70
     1
102
RTVSPropertyOp18
 70
     1
102
RTVSPropertyOp19
 70
     1
102
RTVSPropertyOp20
 70
     1
102
RTVSPropertyOp21
 70
     1
102
RTVSPropertyOp22
 70
     1
102
RTVSPropertyOp23
 70
     1
102
RTVSPropertyOp24
 70
     1
102
RTVSPropertyOp25
 70
     1
102
RTVSPropertyOp26
 70
     1
102
RTVSPropertyOp27
 70
     1
102
RTVSPropertyOp28
 70
     1
102
RTVSPropertyOp29
 70
     1
102
RTVSPropertyOp30
 70
     1
102
RTVSPropertyOp31
 70
     1
102
RTVSPropertyOp32
 70
     1
102
RTVSPropertyOp33
 70
     1
102
RTVSPropertyOp34
 70
     1
102
RTVSPropertyOp35
 70
     1
102
RTVSPropertyOp36
 70
     1
102
RTVSPropertyOp37
 70
     1
102
RTVSPropertyOp38
 70
     1
102
RTVSPropertyOp39
 70
     1
102
RTVSPropertyOp40
 70
     1
102
RTVSPropertyOp41
 70
     1
102
RTVSPropertyOp42
 70
     1
102
RTVSPropertyOp43
 70
     1
102
RTVSPropertyOp44
 70
     1
102
RTVSPropertyOp45
 70
     1
102
RTVSPropertyOp46
 70
     1
102
RTVSPropertyOp47
 70
     1
102
RTVSPropertyOp48
 70
     1
102
RTVSPropertyOp49
 70
     1
102
RTVSPropertyOp50
 70
     1
102
RTVSPropertyOp51
 70
     0
102
RTVSPropertyOp52
 70
     0
102
RTVSPropertyOp53
 70
     1
102
RTVSPropertyOp54
 70
     1
102
RTVSPropertyOp55
 70
     1
102
RTVSPropertyOp56
 70
     1
102
RTVSPropertyOp57
 70
     1
102
RTVSPost2010Prop28
280
     0
102
RTVSPost2010PropOp28
 70
     1
102
RTVSPost2010Prop29
280
     1
102
RTVSPost2010PropOp29
 70
     1
102
RTVSPost2010Prop30
280
     1
102
RTVSPost2010PropOp30
 70
     1
102
RTVSPost2010Prop31
280
     0
102
RTVSPost2010PropOp31
 70
     1
102
RTVSPost2010Prop32
280
     0
102
RTVSPost2010PropOp32
 70
     1
102
RTVSPost2010Prop33
280
     0
102
RTVSPost2010PropOp33
 70
     1
102
RTVSPost2010Prop34
280
     0
102
RTVSPost2010PropOp34
 70
     1
102
RTVSPost2010Prop35
280
     0
102
RTVSPost2010PropOp35
 70
     1
102
RTVSPost2010Prop36
280
     0
102
RTVSPost2010PropOp36
 70
     1
102
RTVSPost2010Prop37
 90
       50
102
RTVSPost2010PropOp37
 70
     1
102
RTVSPost2010Prop38
140
0.0
102
RTVSPost2010PropOp38
 70
     1
102
RTVSPost2010Prop39
140
1.0
102
RTVSPost2010PropOp39
 70
     1
102
RTVSPost2010Prop40
 90
        0
102
RTVSPost2010PropOp40
 70
     1
102
RTVSPost2010Prop41ColorIndex
 90
       18
102
RTVSPost2010Prop41ColorRGB
 90
        0
102
RTVSPost2010PropOp41
 70
     1
102
RTVSPost2010Prop42
 90
       50
102
RTVSPost2010PropOp42
 70
     1
102
RTVSPost2010Prop43
 90
        3
102
RTVSPost2010PropOp43
 70
     1
102
RTVSPost2010Prop44ColorIndex
 90
        5
102
RTVSPost2010Prop44ColorRGB
 90
      255
102
RTVSPost2010PropOp44
 70
     1
102
RTVSPost2010Prop45
280
     0
102
RTVSPost2010PropOp45
 70
     1
102
RTVSPost2010Prop46
 90
       50
102
RTVSPost2010PropOp46
 70
     1
102
RTVSPost2010Prop47
 90
       50
102
RTVSPost2010PropOp47
 70
     1
102
RTVSPost2010Prop48
 90
       50
102
RTVSPost2010PropOp48
 70
     1
102
RTVSPost2010Prop49
280
     0
102
RTVSPost2010PropOp49
 70
     1
102
RTVSPost2010Prop50
 90
       50
102
RTVSPost2010PropOp50
 70
     1
102
RTVSPost2010Prop51ColorIndex
 90
      256
102
RTVSPost2010Prop51ColorRGB
 90
-16777216
102
RTVSPost2010PropOp51
 70
     0
102
RTVSPost2010Prop52
140
1.0
102
RTVSPost2010PropOp52
 70
     0
102
RTVSPost2010Prop53
 90
        2
102
RTVSPost2010PropOp53
 70
     1
102
RTVSPost2010Prop54
  1
strokes_ogs.tif
102
RTVSPost2010PropOp54
 70
     1
102
RTVSPost2010Prop55
280
     0
102
RTVSPost2010PropOp55
 70
     1
102
RTVSPost2010Prop56
140
1.0
102
RTVSPost2010PropOp56
 70
     1
102
RTVSPost2010Prop57
140
1.0
102
RTVSPost2010PropOp57
 70
     1
  0
XRECORD
  5
A8
102
{ACAD_REACTORS
330
A7
102
}
330
A7
100
AcDbXrecord
280
     1
102
RTVSPropertyOp0
 70
     1
102
RTVSPropertyOp1
 70
     1
102
RTVSPropertyOp2
 70
     1
102
RTVSPropertyOp3
 70
     1
102
RTVSPropertyOp4
 70
     1
102
RTVSPropertyOp5
 70
     1
102
RTVSPropertyOp6
 70
     1
102
RTVSPropertyOp7
 70
     1
102
RTVSPropertyOp8
 70
     1
102
RTVSPropertyOp9
 70
     1
102
RTVSPropertyOp10
 70
     1
102
RTVSPropertyOp11
 70
     1
102
RTVSPropertyOp12
 70
     1
102
RTVSPropertyOp13
 70
     1
102
RTVSPropertyOp14
 70
     1
102
RTVSPropertyOp15
 70
     1
102
RTVSPropertyOp16
 70
     1
102
RTVSPropertyOp17
 70
     1
102
RTVSPropertyOp18
 70
     1
102
RTVSPropertyOp19
 70
     1
102
RTVSPropertyOp20
 70
     1
102
RTVSPropertyOp21
 70
     1
102
RTVSPropertyOp22
 70
     1
102
RTVSPropertyOp23
 70
     1
102
RTVSPropertyOp24
 70
     1
102
RTVSPropertyOp25
 70
     1
102
RTVSPropertyOp26
 70
     1
102
RTVSPropertyOp27
 70
     1
102
RTVSPropertyOp28
 70
     1
102
RTVSPropertyOp29
 70
     1
102
RTVSPropertyOp30
 70
     1
102
RTVSPropertyOp31
 70
     1
102
RTVSPropertyOp32
 70
     1
102
RTVSPropertyOp33
 70
     1
102
RTVSPropertyOp34
 70
     1
102
RTVSPropertyOp35
 70
     1
102
RTVSPropertyOp36
 70
     1
102
RTVSPropertyOp37
 70
     1
102
RTVSPropertyOp38
 70
     1
102
RTVSPropertyOp39
 70
     1
102
RTVSPropertyOp40
 70
     1
102
RTVSPropertyOp41
 70
     1
102
RTVSPropertyOp42
 70
     1
102
RTVSPropertyOp43
 70
     1
102
RTVSPropertyOp44
 70
     1
102
RTVSPropertyOp45
 70
     1
102
RTVSPropertyOp46
 70
     1
102
RTVSPropertyOp47
 70
     1
102
RTVSPropertyOp48
 70
     1
102
RTVSPropertyOp49
 70
     1
102
RTVSPropertyOp50
 70
     1
102
RTVSPropertyOp51
 70
     0
102
RTVSPropertyOp52
 70
     0
102
RTVSPropertyOp53
 70
     1
102
RTVSPropertyOp54
 70
     1
102
RTVSPropertyOp55
 70
     1
102
RTVSPropertyOp56
 70
     1
102
RTVSPropertyOp57
 70
     1
102
RTVSPost2010Prop28
280
     0
102
RTVSPost2010PropOp28
 70
     1
102
RTVSPost2010Prop29
280
     1
102
RTVSPost2010PropOp29
 70
     1
102
RTVSPost2010Prop30
280
     1
102
RTVSPost2010PropOp30
 70
     1
102
RTVSPost2010Prop31
280
     0
102
RTVSPost2010PropOp31
 70
     1
102
RTVSPost2010Prop32
280
     0
102
RTVSPost2010PropOp32
 70
     1
102
RTVSPost2010Prop33
280
     0
102
RTVSPost2010PropOp33
 70
     1
102
RTVSPost2010Prop34
280
     0
102
RTVSPost2010PropOp34
 70
     1
102
RTVSPost2010Prop35
280
     0
102
RTVSPost2010PropOp35
 70
     1
102
RTVSPost2010Prop36
280
     0
102
RTVSPost2010PropOp36
 70
     1
102
RTVSPost2010Prop37
 90
       50
102
RTVSPost2010PropOp37
 70
     1
102
RTVSPost2010Prop38
140
0.0
102
RTVSPost2010PropOp38
 70
     1
102
RTVSPost2010Prop39
140
1.0
102
RTVSPost2010PropOp39
 70
     1
102
RTVSPost2010Prop40
 90
        0
102
RTVSPost2010PropOp40
 70
     1
102
RTVSPost2010Prop41ColorIndex
 90
       18
102
RTVSPost2010Prop41ColorRGB
 90
        0
102
RTVSPost2010PropOp41
 70
     1
102
RTVSPost2010Prop42
 90
       50
102
RTVSPost2010PropOp42
 70
     1
102
RTVSPost2010Prop43
 90
        3
102
RTVSPost2010PropOp43
 70
     1
102
RTVSPost2010Prop44ColorIndex
 90
        5
102
RTVSPost2010Prop44ColorRGB
 90
      255
102
RTVSPost2010PropOp44
 70
     1
102
RTVSPost2010Prop45
280
     0
102
RTVSPost2010PropOp45
 70
     1
102
RTVSPost2010Prop46
 90
       50
102
RTVSPost2010PropOp46
 70
     1
102
RTVSPost2010Prop47
 90
       50
102
RTVSPost2010PropOp47
 70
     1
102
RTVSPost2010Prop48
 90
       50
102
RTVSPost2010PropOp48
 70
     1
102
RTVSPost2010Prop49
280
     0
102
RTVSPost2010PropOp49
 70
     1
102
RTVSPost2010Prop50
 90
       50
102
RTVSPost2010PropOp50
 70
     1
102
RTVSPost2010Prop51ColorIndex
 90
      256
102
RTVSPost2010Prop51ColorRGB
 90
-16777216
102
RTVSPost2010PropOp51
 70
     0
102
RTVSPost2010Prop52
140
1.0
102
RTVSPost2010PropOp52
 70
     0
102
RTVSPost2010Prop53
 90
        2
102
RTVSPost2010PropOp53
 70
     1
102
RTVSPost2010Prop54
  1
strokes_ogs.tif
102
RTVSPost2010PropOp54
 70
     1
102
RTVSPost2010Prop55
280
     0
102
RTVSPost2010PropOp55
 70
     1
102
RTVSPost2010Prop56
140
1.0
102
RTVSPost2010PropOp56
 70
     1
102
RTVSPost2010Prop57
140
1.0
102
RTVSPost2010PropOp57
 70
     1
  0
XRECORD
  5
B0
102
{ACAD_REACTORS
330
AF
102
}
330
AF
100
AcDbXrecord
280
     1
102
RTVSPropertyOp0
 70
     1
102
RTVSPropertyOp1
 70
     1
102
RTVSPropertyOp2
 70
     1
102
RTVSPropertyOp3
 70
     1
102
RTVSPropertyOp4
 70
     1
102
RTVSPropertyOp5
 70
     1
102
RTVSPropertyOp6
 70
     1
102
RTVSPropertyOp7
 70
     1
102
RTVSPropertyOp8
 70
     1
102
RTVSPropertyOp9
 70
     1
102
RTVSPropertyOp10
 70
     1
102
RTVSPropertyOp11
 70
     1
102
RTVSPropertyOp12
 70
     1
102
RTVSPropertyOp13
 70
     1
102
RTVSPropertyOp14
 70
     1
102
RTVSPropertyOp15
 70
     1
102
RTVSPropertyOp16
 70
     1
102
RTVSPropertyOp17
 70
     1
102
RTVSPropertyOp18
 70
     1
102
RTVSPropertyOp19
 70
     1
102
RTVSPropertyOp20
 70
     1
102
RTVSPropertyOp21
 70
     1
102
RTVSPropertyOp22
 70
     1
102
RTVSPropertyOp23
 70
     1
102
RTVSPropertyOp24
 70
     1
102
RTVSPropertyOp25
 70
     1
102
RTVSPropertyOp26
 70
     1
102
RTVSPropertyOp27
 70
     1
102
RTVSPropertyOp28
 70
     1
102
RTVSPropertyOp29
 70
     1
102
RTVSPropertyOp30
 70
     1
102
RTVSPropertyOp31
 70
     1
102
RTVSPropertyOp32
 70
     1
102
RTVSPropertyOp33
 70
     1
102
RTVSPropertyOp34
 70
     1
102
RTVSPropertyOp35
 70
     1
102
RTVSPropertyOp36
 70
     1
102
RTVSPropertyOp37
 70
     1
102
RTVSPropertyOp38
 70
     1
102
RTVSPropertyOp39
 70
     1
102
RTVSPropertyOp40
 70
     1
102
RTVSPropertyOp41
 70
     1
102
RTVSPropertyOp42
 70
     1
102
RTVSPropertyOp43
 70
     1
102
RTVSPropertyOp44
 70
     1
102
RTVSPropertyOp45
 70
     1
102
RTVSPropertyOp46
 70
     1
102
RTVSPropertyOp47
 70
     1
102
RTVSPropertyOp48
 70
     1
102
RTVSPropertyOp49
 70
     1
102
RTVSPropertyOp50
 70
     1
102
RTVSPropertyOp51
 70
     0
102
RTVSPropertyOp52
 70
     0
102
RTVSPropertyOp53
 70
     1
102
RTVSPropertyOp54
 70
     1
102
RTVSPropertyOp55
 70
     1
102
RTVSPropertyOp56
 70
     1
102
RTVSPropertyOp57
 70
     1
102
RTVSPost2010Prop28
280
     0
102
RTVSPost2010PropOp28
 70
     1
102
RTVSPost2010Prop29
280
     1
102
RTVSPost2010PropOp29
 70
     1
102
RTVSPost2010Prop30
280
     1
102
RTVSPost2010PropOp30
 70
     1
102
RTVSPost2010Prop31
280
     0
102
RTVSPost2010PropOp31
 70
     1
102
RTVSPost2010Prop32
280
     0
102
RTVSPost2010PropOp32
 70
     1
102
RTVSPost2010Prop33
280
     0
102
RTVSPost2010PropOp33
 70
     1
102
RTVSPost2010Prop34
280
     0
102
RTVSPost2010PropOp34
 70
     1
102
RTVSPost2010Prop35
280
     0
102
RTVSPost2010PropOp35
 70
     1
102
RTVSPost2010Prop36
280
     0
102
RTVSPost2010PropOp36
 70
     1
102
RTVSPost2010Prop37
 90
       50
102
RTVSPost2010PropOp37
 70
     1
102
RTVSPost2010Prop38
140
0.0
102
RTVSPost2010PropOp38
 70
     1
102
RTVSPost2010Prop39
140
1.0
102
RTVSPost2010PropOp39
 70
     1
102
RTVSPost2010Prop40
 90
        0
102
RTVSPost2010PropOp40
 70
     1
102
RTVSPost2010Prop41ColorIndex
 90
       18
102
RTVSPost2010Prop41ColorRGB
 90
        0
102
RTVSPost2010PropOp41
 70
     1
102
RTVSPost2010Prop42
 90
       50
102
RTVSPost2010PropOp42
 70
     1
102
RTVSPost2010Prop43
 90
        3
102
RTVSPost2010PropOp43
 70
     1
102
RTVSPost2010Prop44ColorIndex
 90
        5
102
RTVSPost2010Prop44ColorRGB
 90
      255
102
RTVSPost2010PropOp44
 70
     1
102
RTVSPost2010Prop45
280
     0
102
RTVSPost2010PropOp45
 70
     1
102
RTVSPost2010Prop46
 90
       50
102
RTVSPost2010PropOp46
 70
     1
102
RTVSPost2010Prop47
 90
       50
102
RTVSPost2010PropOp47
 70
     1
102
RTVSPost2010Prop48
 90
       50
102
RTVSPost2010PropOp48
 70
     1
102
RTVSPost2010Prop49
280
     0
102
RTVSPost2010PropOp49
 70
     1
102
RTVSPost2010Prop50
 90
       50
102
RTVSPost2010PropOp50
 70
     1
102
RTVSPost2010Prop51ColorIndex
 90
      256
102
RTVSPost2010Prop51ColorRGB
 90
-16777216
102
RTVSPost2010PropOp51
 70
     0
102
RTVSPost2010Prop52
140
1.0
102
RTVSPost2010PropOp52
 70
     0
102
RTVSPost2010Prop53
 90
        2
102
RTVSPost2010PropOp53
 70
     1
102
RTVSPost2010Prop54
  1
strokes_ogs.tif
102
RTVSPost2010PropOp54
 70
     1
102
RTVSPost2010Prop55
280
     0
102
RTVSPost2010PropOp55
 70
     1
102
RTVSPost2010Prop56
140
1.0
102
RTVSPost2010PropOp56
 70
     1
102
RTVSPost2010Prop57
140
1.0
102
RTVSPost2010PropOp57
 70
     1
  0
XRECORD
  5
94
102
{ACAD_REACTORS
330
93
102
}
330
93
100
AcDbXrecord
280
     1
102
RTVSPropertyOp0
 70
     1
102
RTVSPropertyOp1
 70
     1
102
RTVSPropertyOp2
 70
     1
102
RTVSPropertyOp3
 70
     1
102
RTVSPropertyOp4
 70
     1
102
RTVSPropertyOp5
 70
     1
102
RTVSPropertyOp6
 70
     1
102
RTVSPropertyOp7
 70
     1
102
RTVSPropertyOp8
 70
     1
102
RTVSPropertyOp9
 70
     1
102
RTVSPropertyOp10
 70
     1
102
RTVSPropertyOp11
 70
     1
102
RTVSPropertyOp12
 70
     1
102
RTVSPropertyOp13
 70
     1
102
RTVSPropertyOp14
 70
     1
102
RTVSPropertyOp15
 70
     1
102
RTVSPropertyOp16
 70
     1
102
RTVSPropertyOp17
 70
     1
102
RTVSPropertyOp18
 70
     1
102
RTVSPropertyOp19
 70
     1
102
RTVSPropertyOp20
 70
     1
102
RTVSPropertyOp21
 70
     1
102
RTVSPropertyOp22
 70
     1
102
RTVSPropertyOp23
 70
     1
102
RTVSPropertyOp24
 70
     1
102
RTVSPropertyOp25
 70
     1
102
RTVSPropertyOp26
 70
     1
102
RTVSPropertyOp27
 70
     1
102
RTVSPropertyOp28
 70
     1
102
RTVSPropertyOp29
 70
     1
102
RTVSPropertyOp30
 70
     1
102
RTVSPropertyOp31
 70
     1
102
RTVSPropertyOp32
 70
     1
102
RTVSPropertyOp33
 70
     1
102
RTVSPropertyOp34
 70
     1
102
RTVSPropertyOp35
 70
     1
102
RTVSPropertyOp36
 70
     1
102
RTVSPropertyOp37
 70
     1
102
RTVSPropertyOp38
 70
     1
102
RTVSPropertyOp39
 70
     1
102
RTVSPropertyOp40
 70
     1
102
RTVSPropertyOp41
 70
     1
102
RTVSPropertyOp42
 70
     1
102
RTVSPropertyOp43
 70
     1
102
RTVSPropertyOp44
 70
     1
102
RTVSPropertyOp45
 70
     1
102
RTVSPropertyOp46
 70
     1
102
RTVSPropertyOp47
 70
     1
102
RTVSPropertyOp48
 70
     1
102
RTVSPropertyOp49
 70
     1
102
RTVSPropertyOp50
 70
     1
102
RTVSPropertyOp51
 70
     0
102
RTVSPropertyOp52
 70
     0
102
RTVSPropertyOp53
 70
     1
102
RTVSPropertyOp54
 70
     1
102
RTVSPropertyOp55
 70
     1
102
RTVSPropertyOp56
 70
     1
102
RTVSPropertyOp57
 70
     1
102
RTVSPost2010Prop28
280
     0
102
RTVSPost2010PropOp28
 70
     1
102
RTVSPost2010Prop29
280
     1
102
RTVSPost2010PropOp29
 70
     1
102
RTVSPost2010Prop30
280
     1
102
RTVSPost2010PropOp30
 70
     1
102
RTVSPost2010Prop31
280
     0
102
RTVSPost2010PropOp31
 70
     1
102
RTVSPost2010Prop32
280
     0
102
RTVSPost2010PropOp32
 70
     1
102
RTVSPost2010Prop33
280
     0
102
RTVSPost2010PropOp33
 70
     1
102
RTVSPost2010Prop34
280
     0
102
RTVSPost2010PropOp34
 70
     1
102
RTVSPost2010Prop35
280
     0
102
RTVSPost2010PropOp35
 70
     1
102
RTVSPost2010Prop36
280
     0
102
RTVSPost2010PropOp36
 70
     1
102
RTVSPost2010Prop37
 90
       50
102
RTVSPost2010PropOp37
 70
     1
102
RTVSPost2010Prop38
140
0.0
102
RTVSPost2010PropOp38
 70
     1
102
RTVSPost2010Prop39
140
1.0
102
RTVSPost2010PropOp39
 70
     1
102
RTVSPost2010Prop40
 90
        0
102
RTVSPost2010PropOp40
 70
     1
102
RTVSPost2010Prop41ColorIndex
 90
       18
102
RTVSPost2010Prop41ColorRGB
 90
        0
102
RTVSPost2010PropOp41
 70
     1
102
RTVSPost2010Prop42
 90
       50
102
RTVSPost2010PropOp42
 70
     1
102
RTVSPost2010Prop43
 90
        3
102
RTVSPost2010PropOp43
 70
     1
102
RTVSPost2010Prop44ColorIndex
 90
        5
102
RTVSPost2010Prop44ColorRGB
 90
      255
102
RTVSPost2010PropOp44
 70
     1
102
RTVSPost2010Prop45
280
     0
102
RTVSPost2010PropOp45
 70
     1
102
RTVSPost2010Prop46
 90
       50
102
RTVSPost2010PropOp46
 70
     1
102
RTVSPost2010Prop47
 90
       50
102
RTVSPost2010PropOp47
 70
     1
102
RTVSPost2010Prop48
 90
       50
102
RTVSPost2010PropOp48
 70
     1
102
RTVSPost2010Prop49
280
     0
102
RTVSPost2010PropOp49
 70
     1
102
RTVSPost2010Prop50
 90
       50
102
RTVSPost2010PropOp50
 70
     1
102
RTVSPost2010Prop51ColorIndex
 90
      256
102
RTVSPost2010Prop51ColorRGB
 90
-16777216
102
RTVSPost2010PropOp51
 70
     0
102
RTVSPost2010Prop52
140
1.0
102
RTVSPost2010PropOp52
 70
     0
102
RTVSPost2010Prop53
 90
        2
102
RTVSPost2010PropOp53
 70
     1
102
RTVSPost2010Prop54
  1
strokes_ogs.tif
102
RTVSPost2010PropOp54
 70
     1
102
RTVSPost2010Prop55
280
     0
102
RTVSPost2010PropOp55
 70
     1
102
RTVSPost2010Prop56
140
1.0
102
RTVSPost2010PropOp56
 70
     1
102
RTVSPost2010Prop57
140
1.0
102
RTVSPost2010PropOp57
 70
     1
  0
XRECORD
  5
96
102
{ACAD_REACTORS
330
95
102
}
330
95
100
AcDbXrecord
280
     1
102
RTVSPropertyOp0
 70
     1
102
RTVSPropertyOp1
 70
     1
102
RTVSPropertyOp2
 70
     1
102
RTVSPropertyOp3
 70
     1
102
RTVSPropertyOp4
 70
     1
102
RTVSPropertyOp5
 70
     1
102
RTVSPropertyOp6
 70
     1
102
RTVSPropertyOp7
 70
     1
102
RTVSPropertyOp8
 70
     1
102
RTVSPropertyOp9
 70
     1
102
RTVSPropertyOp10
 70
     1
102
RTVSPropertyOp11
 70
     1
102
RTVSPropertyOp12
 70
     1
102
RTVSPropertyOp13
 70
     1
102
RTVSPropertyOp14
 70
     1
102
RTVSPropertyOp15
 70
     1
102
RTVSPropertyOp16
 70
     1
102
RTVSPropertyOp17
 70
     1
102
RTVSPropertyOp18
 70
     1
102
RTVSPropertyOp19
 70
     1
102
RTVSPropertyOp20
 70
     1
102
RTVSPropertyOp21
 70
     1
102
RTVSPropertyOp22
 70
     1
102
RTVSPropertyOp23
 70
     1
102
RTVSPropertyOp24
 70
     1
102
RTVSPropertyOp25
 70
     1
102
RTVSPropertyOp26
 70
     1
102
RTVSPropertyOp27
 70
     1
102
RTVSPropertyOp28
 70
     1
102
RTVSPropertyOp29
 70
     1
102
RTVSPropertyOp30
 70
     1
102
RTVSPropertyOp31
 70
     1
102
RTVSPropertyOp32
 70
     1
102
RTVSPropertyOp33
 70
     1
102
RTVSPropertyOp34
 70
     1
102
RTVSPropertyOp35
 70
     1
102
RTVSPropertyOp36
 70
     1
102
RTVSPropertyOp37
 70
     1
102
RTVSPropertyOp38
 70
     1
102
RTVSPropertyOp39
 70
     1
102
RTVSPropertyOp40
 70
     1
102
RTVSPropertyOp41
 70
     1
102
RTVSPropertyOp42
 70
     1
102
RTVSPropertyOp43
 70
     1
102
RTVSPropertyOp44
 70
     1
102
RTVSPropertyOp45
 70
     1
102
RTVSPropertyOp46
 70
     1
102
RTVSPropertyOp47
 70
     1
102
RTVSPropertyOp48
 70
     1
102
RTVSPropertyOp49
 70
     1
102
RTVSPropertyOp50
 70
     1
102
RTVSPropertyOp51
 70
     0
102
RTVSPropertyOp52
 70
     0
102
RTVSPropertyOp53
 70
     1
102
RTVSPropertyOp54
 70
     1
102
RTVSPropertyOp55
 70
     1
102
RTVSPropertyOp56
 70
     1
102
RTVSPropertyOp57
 70
     1
102
RTVSPost2010Prop28
280
     0
102
RTVSPost2010PropOp28
 70
     1
102
RTVSPost2010Prop29
280
     1
102
RTVSPost2010PropOp29
 70
     1
102
RTVSPost2010Prop30
280
     1
102
RTVSPost2010PropOp30
 70
     1
102
RTVSPost2010Prop31
280
     0
102
RTVSPost2010PropOp31
 70
     1
102
RTVSPost2010Prop32
280
     0
102
RTVSPost2010PropOp32
 70
     1
102
RTVSPost2010Prop33
280
     0
102
RTVSPost2010PropOp33
 70
     1
102
RTVSPost2010Prop34
280
     0
102
RTVSPost2010PropOp34
 70
     1
102
RTVSPost2010Prop35
280
     0
102
RTVSPost2010PropOp35
 70
     1
102
RTVSPost2010Prop36
280
     0
102
RTVSPost2010PropOp36
 70
     1
102
RTVSPost2010Prop37
 90
       50
102
RTVSPost2010PropOp37
 70
     1
102
RTVSPost2010Prop38
140
0.0
102
RTVSPost2010PropOp38
 70
     1
102
RTVSPost2010Prop39
140
1.0
102
RTVSPost2010PropOp39
 70
     1
102
RTVSPost2010Prop40
 90
        0
102
RTVSPost2010PropOp40
 70
     1
102
RTVSPost2010Prop41ColorIndex
 90
       18
102
RTVSPost2010Prop41ColorRGB
 90
        0
102
RTVSPost2010PropOp41
 70
     1
102
RTVSPost2010Prop42
 90
       50
102
RTVSPost2010PropOp42
 70
     1
102
RTVSPost2010Prop43
 90
        3
102
RTVSPost2010PropOp43
 70
     1
102
RTVSPost2010Prop44ColorIndex
 90
        5
102
RTVSPost2010Prop44ColorRGB
 90
      255
102
RTVSPost2010PropOp44
 70
     1
102
RTVSPost2010Prop45
280
     0
102
RTVSPost2010PropOp45
 70
     1
102
RTVSPost2010Prop46
 90
       50
102
RTVSPost2010PropOp46
 70
     1
102
RTVSPost2010Prop47
 90
       50
102
RTVSPost2010PropOp47
 70
     1
102
RTVSPost2010Prop48
 90
       50
102
RTVSPost2010PropOp48
 70
     1
102
RTVSPost2010Prop49
280
     0
102
RTVSPost2010PropOp49
 70
     1
102
RTVSPost2010Prop50
 90
       50
102
RTVSPost2010PropOp50
 70
     1
102
RTVSPost2010Prop51ColorIndex
 90
      256
102
RTVSPost2010Prop51ColorRGB
 90
-16777216
102
RTVSPost2010PropOp51
 70
     0
102
RTVSPost2010Prop52
140
1.0
102
RTVSPost2010PropOp52
 70
     0
102
RTVSPost2010Prop53
 90
        2
102
RTVSPost2010PropOp53
 70
     1
102
RTVSPost2010Prop54
  1
strokes_ogs.tif
102
RTVSPost2010PropOp54
 70
     1
102
RTVSPost2010Prop55
280
     0
102
RTVSPost2010PropOp55
 70
     1
102
RTVSPost2010Prop56
140
1.0
102
RTVSPost2010PropOp56
 70
     1
102
RTVSPost2010Prop57
140
1.0
102
RTVSPost2010PropOp57
 70
     1
  0
XRECORD
  5
98
102
{ACAD_REACTORS
330
97
102
}
330
97
100
AcDbXrecord
280
     1
102
RTVSPropertyOp0
 70
     1
102
RTVSPropertyOp1
 70
     1
102
RTVSPropertyOp2
 70
     1
102
RTVSPropertyOp3
 70
     1
102
RTVSPropertyOp4
 70
     1
102
RTVSPropertyOp5
 70
     1
102
RTVSPropertyOp6
 70
     1
102
RTVSPropertyOp7
 70
     1
102
RTVSPropertyOp8
 70
     1
102
RTVSPropertyOp9
 70
     1
102
RTVSPropertyOp10
 70
     1
102
RTVSPropertyOp11
 70
     1
102
RTVSPropertyOp12
 70
     1
102
RTVSPropertyOp13
 70
     1
102
RTVSPropertyOp14
 70
     1
102
RTVSPropertyOp15
 70
     1
102
RTVSPropertyOp16
 70
     1
102
RTVSPropertyOp17
 70
     1
102
RTVSPropertyOp18
 70
     1
102
RTVSPropertyOp19
 70
     1
102
RTVSPropertyOp20
 70
     1
102
RTVSPropertyOp21
 70
     1
102
RTVSPropertyOp22
 70
     1
102
RTVSPropertyOp23
 70
     1
102
RTVSPropertyOp24
 70
     1
102
RTVSPropertyOp25
 70
     1
102
RTVSPropertyOp26
 70
     1
102
RTVSPropertyOp27
 70
     1
102
RTVSPropertyOp28
 70
     1
102
RTVSPropertyOp29
 70
     1
102
RTVSPropertyOp30
 70
     1
102
RTVSPropertyOp31
 70
     1
102
RTVSPropertyOp32
 70
     1
102
RTVSPropertyOp33
 70
     1
102
RTVSPropertyOp34
 70
     1
102
RTVSPropertyOp35
 70
     1
102
RTVSPropertyOp36
 70
     1
102
RTVSPropertyOp37
 70
     1
102
RTVSPropertyOp38
 70
     1
102
RTVSPropertyOp39
 70
     1
102
RTVSPropertyOp40
 70
     1
102
RTVSPropertyOp41
 70
     1
102
RTVSPropertyOp42
 70
     1
102
RTVSPropertyOp43
 70
     1
102
RTVSPropertyOp44
 70
     1
102
RTVSPropertyOp45
 70
     1
102
RTVSPropertyOp46
 70
     1
102
RTVSPropertyOp47
 70
     1
102
RTVSPropertyOp48
 70
     1
102
RTVSPropertyOp49
 70
     1
102
RTVSPropertyOp50
 70
     1
102
RTVSPropertyOp51
 70
     0
102
RTVSPropertyOp52
 70
     0
102
RTVSPropertyOp53
 70
     1
102
RTVSPropertyOp54
 70
     1
102
RTVSPropertyOp55
 70
     1
102
RTVSPropertyOp56
 70
     1
102
RTVSPropertyOp57
 70
     1
102
RTVSPost2010Prop28
280
     0
102
RTVSPost2010PropOp28
 70
     1
102
RTVSPost2010Prop29
280
     1
102
RTVSPost2010PropOp29
 70
     1
102
RTVSPost2010Prop30
280
     1
102
RTVSPost2010PropOp30
 70
     1
102
RTVSPost2010Prop31
280
     0
102
RTVSPost2010PropOp31
 70
     1
102
RTVSPost2010Prop32
280
     0
102
RTVSPost2010PropOp32
 70
     1
102
RTVSPost2010Prop33
280
     0
102
RTVSPost2010PropOp33
 70
     1
102
RTVSPost2010Prop34
280
     0
102
RTVSPost2010PropOp34
 70
     1
102
RTVSPost2010Prop35
280
     0
102
RTVSPost2010PropOp35
 70
     1
102
RTVSPost2010Prop36
280
     0
102
RTVSPost2010PropOp36
 70
     1
102
RTVSPost2010Prop37
 90
       50
102
RTVSPost2010PropOp37
 70
     1
102
RTVSPost2010Prop38
140
0.0
102
RTVSPost2010PropOp38
 70
     1
102
RTVSPost2010Prop39
140
1.0
102
RTVSPost2010PropOp39
 70
     1
102
RTVSPost2010Prop40
 90
        0
102
RTVSPost2010PropOp40
 70
     1
102
RTVSPost2010Prop41ColorIndex
 90
       18
102
RTVSPost2010Prop41ColorRGB
 90
        0
102
RTVSPost2010PropOp41
 70
     1
102
RTVSPost2010Prop42
 90
       50
102
RTVSPost2010PropOp42
 70
     1
102
RTVSPost2010Prop43
 90
        3
102
RTVSPost2010PropOp43
 70
     1
102
RTVSPost2010Prop44ColorIndex
 90
        5
102
RTVSPost2010Prop44ColorRGB
 90
      255
102
RTVSPost2010PropOp44
 70
     1
102
RTVSPost2010Prop45
280
     0
102
RTVSPost2010PropOp45
 70
     1
102
RTVSPost2010Prop46
 90
       50
102
RTVSPost2010PropOp46
 70
     1
102
RTVSPost2010Prop47
 90
       50
102
RTVSPost2010PropOp47
 70
     1
102
RTVSPost2010Prop48
 90
       50
102
RTVSPost2010PropOp48
 70
     1
102
RTVSPost2010Prop49
280
     0
102
RTVSPost2010PropOp49
 70
     1
102
RTVSPost2010Prop50
 90
       50
102
RTVSPost2010PropOp50
 70
     1
102
RTVSPost2010Prop51ColorIndex
 90
      256
102
RTVSPost2010Prop51ColorRGB
 90
-16777216
102
RTVSPost2010PropOp51
 70
     0
102
RTVSPost2010Prop52
140
1.0
102
RTVSPost2010PropOp52
 70
     0
102
RTVSPost2010Prop53
 90
        2
102
RTVSPost2010PropOp53
 70
     1
102
RTVSPost2010Prop54
  1
strokes_ogs.tif
102
RTVSPost2010PropOp54
 70
     1
102
RTVSPost2010Prop55
280
     0
102
RTVSPost2010PropOp55
 70
     1
102
RTVSPost2010Prop56
140
1.0
102
RTVSPost2010PropOp56
 70
     1
102
RTVSPost2010Prop57
140
1.0
102
RTVSPost2010PropOp57
 70
     1
  0
XRECORD
  5
9A
102
{ACAD_REACTORS
330
99
102
}
330
99
100
AcDbXrecord
280
     1
102
RTVSPropertyOp0
 70
     1
102
RTVSPropertyOp1
 70
     1
102
RTVSPropertyOp2
 70
     1
102
RTVSPropertyOp3
 70
     1
102
RTVSPropertyOp4
 70
     1
102
RTVSPropertyOp5
 70
     1
102
RTVSPropertyOp6
 70
     1
102
RTVSPropertyOp7
 70
     1
102
RTVSPropertyOp8
 70
     1
102
RTVSPropertyOp9
 70
     1
102
RTVSPropertyOp10
 70
     1
102
RTVSPropertyOp11
 70
     1
102
RTVSPropertyOp12
 70
     1
102
RTVSPropertyOp13
 70
     1
102
RTVSPropertyOp14
 70
     1
102
RTVSPropertyOp15
 70
     1
102
RTVSPropertyOp16
 70
     1
102
RTVSPropertyOp17
 70
     1
102
RTVSPropertyOp18
 70
     1
102
RTVSPropertyOp19
 70
     1
102
RTVSPropertyOp20
 70
     1
102
RTVSPropertyOp21
 70
     1
102
RTVSPropertyOp22
 70
     1
102
RTVSPropertyOp23
 70
     1
102
RTVSPropertyOp24
 70
     1
102
RTVSPropertyOp25
 70
     1
102
RTVSPropertyOp26
 70
     1
102
RTVSPropertyOp27
 70
     1
102
RTVSPropertyOp28
 70
     1
102
RTVSPropertyOp29
 70
     1
102
RTVSPropertyOp30
 70
     1
102
RTVSPropertyOp31
 70
     1
102
RTVSPropertyOp32
 70
     1
102
RTVSPropertyOp33
 70
     1
102
RTVSPropertyOp34
 70
     1
102
RTVSPropertyOp35
 70
     1
102
RTVSPropertyOp36
 70
     1
102
RTVSPropertyOp37
 70
     1
102
RTVSPropertyOp38
 70
     1
102
RTVSPropertyOp39
 70
     1
102
RTVSPropertyOp40
 70
     1
102
RTVSPropertyOp41
 70
     1
102
RTVSPropertyOp42
 70
     1
102
RTVSPropertyOp43
 70
     1
102
RTVSPropertyOp44
 70
     1
102
RTVSPropertyOp45
 70
     1
102
RTVSPropertyOp46
 70
     1
102
RTVSPropertyOp47
 70
     1
102
RTVSPropertyOp48
 70
     1
102
RTVSPropertyOp49
 70
     1
102
RTVSPropertyOp50
 70
     1
102
RTVSPropertyOp51
 70
     0
102
RTVSPropertyOp52
 70
     0
102
RTVSPropertyOp53
 70
     1
102
RTVSPropertyOp54
 70
     1
102
RTVSPropertyOp55
 70
     1
102
RTVSPropertyOp56
 70
     1
102
RTVSPropertyOp57
 70
     1
102
RTVSPost2010Prop28
280
     0
102
RTVSPost2010PropOp28
 70
     1
102
RTVSPost2010Prop29
280
     1
102
RTVSPost2010PropOp29
 70
     1
102
RTVSPost2010Prop30
280
     1
102
RTVSPost2010PropOp30
 70
     1
102
RTVSPost2010Prop31
280
     0
102
RTVSPost2010PropOp31
 70
     1
102
RTVSPost2010Prop32
280
     0
102
RTVSPost2010PropOp32
 70
     1
102
RTVSPost2010Prop33
280
     0
102
RTVSPost2010PropOp33
 70
     1
102
RTVSPost2010Prop34
280
     0
102
RTVSPost2010PropOp34
 70
     1
102
RTVSPost2010Prop35
280
     0
102
RTVSPost2010PropOp35
 70
     1
102
RTVSPost2010Prop36
280
     0
102
RTVSPost2010PropOp36
 70
     1
102
RTVSPost2010Prop37
 90
       50
102
RTVSPost2010PropOp37
 70
     1
102
RTVSPost2010Prop38
140
0.0
102
RTVSPost2010PropOp38
 70
     1
102
RTVSPost2010Prop39
140
1.0
102
RTVSPost2010PropOp39
 70
     1
102
RTVSPost2010Prop40
 90
        0
102
RTVSPost2010PropOp40
 70
     1
102
RTVSPost2010Prop41ColorIndex
 90
       18
102
RTVSPost2010Prop41ColorRGB
 90
        0
102
RTVSPost2010PropOp41
 70
     1
102
RTVSPost2010Prop42
 90
       50
102
RTVSPost2010PropOp42
 70
     1
102
RTVSPost2010Prop43
 90
        3
102
RTVSPost2010PropOp43
 70
     1
102
RTVSPost2010Prop44ColorIndex
 90
        5
102
RTVSPost2010Prop44ColorRGB
 90
      255
102
RTVSPost2010PropOp44
 70
     1
102
RTVSPost2010Prop45
280
     0
102
RTVSPost2010PropOp45
 70
     1
102
RTVSPost2010Prop46
 90
       50
102
RTVSPost2010PropOp46
 70
     1
102
RTVSPost2010Prop47
 90
       50
102
RTVSPost2010PropOp47
 70
     1
102
RTVSPost2010Prop48
 90
       50
102
RTVSPost2010PropOp48
 70
     1
102
RTVSPost2010Prop49
280
     0
102
RTVSPost2010PropOp49
 70
     1
102
RTVSPost2010Prop50
 90
       50
102
RTVSPost2010PropOp50
 70
     1
102
RTVSPost2010Prop51ColorIndex
 90
      256
102
RTVSPost2010Prop51ColorRGB
 90
-16777216
102
RTVSPost2010PropOp51
 70
     0
102
RTVSPost2010Prop52
140
1.0
102
RTVSPost2010PropOp52
 70
     0
102
RTVSPost2010Prop53
 90
        2
102
RTVSPost2010PropOp53
 70
     1
102
RTVSPost2010Prop54
  1
strokes_ogs.tif
102
RTVSPost2010PropOp54
 70
     1
102
RTVSPost2010Prop55
280
     0
102
RTVSPost2010PropOp55
 70
     1
102
RTVSPost2010Prop56
140
1.0
102
RTVSPost2010PropOp56
 70
     1
102
RTVSPost2010Prop57
140
1.0
102
RTVSPost2010PropOp57
 70
     1
  0
XRECORD
  5
AE
102
{ACAD_REACTORS
330
AD
102
}
330
AD
100
AcDbXrecord
280
     1
102
RTVSPropertyOp0
 70
     1
102
RTVSPropertyOp1
 70
     1
102
RTVSPropertyOp2
 70
     1
102
RTVSPropertyOp3
 70
     1
102
RTVSPropertyOp4
 70
     1
102
RTVSPropertyOp5
 70
     1
102
RTVSPropertyOp6
 70
     1
102
RTVSPropertyOp7
 70
     1
102
RTVSPropertyOp8
 70
     1
102
RTVSPropertyOp9
 70
     1
102
RTVSPropertyOp10
 70
     1
102
RTVSPropertyOp11
 70
     1
102
RTVSPropertyOp12
 70
     1
102
RTVSPropertyOp13
 70
     1
102
RTVSPropertyOp14
 70
     1
102
RTVSPropertyOp15
 70
     1
102
RTVSPropertyOp16
 70
     1
102
RTVSPropertyOp17
 70
     1
102
RTVSPropertyOp18
 70
     1
102
RTVSPropertyOp19
 70
     1
102
RTVSPropertyOp20
 70
     1
102
RTVSPropertyOp21
 70
     1
102
RTVSPropertyOp22
 70
     1
102
RTVSPropertyOp23
 70
     1
102
RTVSPropertyOp24
 70
     1
102
RTVSPropertyOp25
 70
     1
102
RTVSPropertyOp26
 70
     1
102
RTVSPropertyOp27
 70
     1
102
RTVSPropertyOp28
 70
     1
102
RTVSPropertyOp29
 70
     1
102
RTVSPropertyOp30
 70
     1
102
RTVSPropertyOp31
 70
     1
102
RTVSPropertyOp32
 70
     1
102
RTVSPropertyOp33
 70
     1
102
RTVSPropertyOp34
 70
     1
102
RTVSPropertyOp35
 70
     1
102
RTVSPropertyOp36
 70
     1
102
RTVSPropertyOp37
 70
     1
102
RTVSPropertyOp38
 70
     1
102
RTVSPropertyOp39
 70
     1
102
RTVSPropertyOp40
 70
     1
102
RTVSPropertyOp41
 70
     1
102
RTVSPropertyOp42
 70
     1
102
RTVSPropertyOp43
 70
     1
102
RTVSPropertyOp44
 70
     1
102
RTVSPropertyOp45
 70
     1
102
RTVSPropertyOp46
 70
     1
102
RTVSPropertyOp47
 70
     1
102
RTVSPropertyOp48
 70
     1
102
RTVSPropertyOp49
 70
     1
102
RTVSPropertyOp50
 70
     1
102
RTVSPropertyOp51
 70
     0
102
RTVSPropertyOp52
 70
     0
102
RTVSPropertyOp53
 70
     1
102
RTVSPropertyOp54
 70
     1
102
RTVSPropertyOp55
 70
     1
102
RTVSPropertyOp56
 70
     1
102
RTVSPropertyOp57
 70
     1
102
RTVSPost2010Prop28
280
     0
102
RTVSPost2010PropOp28
 70
     1
102
RTVSPost2010Prop29
280
     1
102
RTVSPost2010PropOp29
 70
     1
102
RTVSPost2010Prop30
280
     1
102
RTVSPost2010PropOp30
 70
     1
102
RTVSPost2010Prop31
280
     0
102
RTVSPost2010PropOp31
 70
     1
102
RTVSPost2010Prop32
280
     0
102
RTVSPost2010PropOp32
 70
     1
102
RTVSPost2010Prop33
280
     0
102
RTVSPost2010PropOp33
 70
     1
102
RTVSPost2010Prop34
280
     0
102
RTVSPost2010PropOp34
 70
     1
102
RTVSPost2010Prop35
280
     0
102
RTVSPost2010PropOp35
 70
     1
102
RTVSPost2010Prop36
280
     0
102
RTVSPost2010PropOp36
 70
     1
102
RTVSPost2010Prop37
 90
       50
102
RTVSPost2010PropOp37
 70
     1
102
RTVSPost2010Prop38
140
0.0
102
RTVSPost2010PropOp38
 70
     1
102
RTVSPost2010Prop39
140
1.0
102
RTVSPost2010PropOp39
 70
     1
102
RTVSPost2010Prop40
 90
        0
102
RTVSPost2010PropOp40
 70
     1
102
RTVSPost2010Prop41ColorIndex
 90
       18
102
RTVSPost2010Prop41ColorRGB
 90
        0
102
RTVSPost2010PropOp41
 70
     1
102
RTVSPost2010Prop42
 90
       50
102
RTVSPost2010PropOp42
 70
     1
102
RTVSPost2010Prop43
 90
        3
102
RTVSPost2010PropOp43
 70
     1
102
RTVSPost2010Prop44ColorIndex
 90
        5
102
RTVSPost2010Prop44ColorRGB
 90
      255
102
RTVSPost2010PropOp44
 70
     1
102
RTVSPost2010Prop45
280
     0
102
RTVSPost2010PropOp45
 70
     1
102
RTVSPost2010Prop46
 90
       50
102
RTVSPost2010PropOp46
 70
     1
102
RTVSPost2010Prop47
 90
       50
102
RTVSPost2010PropOp47
 70
     1
102
RTVSPost2010Prop48
 90
       50
102
RTVSPost2010PropOp48
 70
     1
102
RTVSPost2010Prop49
280
     0
102
RTVSPost2010PropOp49
 70
     1
102
RTVSPost2010Prop50
 90
       50
102
RTVSPost2010PropOp50
 70
     1
102
RTVSPost2010Prop51ColorIndex
 90
      256
102
RTVSPost2010Prop51ColorRGB
 90
-16777216
102
RTVSPost2010PropOp51
 70
     0
102
RTVSPost2010Prop52
140
1.0
102
RTVSPost2010PropOp52
 70
     0
102
RTVSPost2010Prop53
 90
        2
102
RTVSPost2010PropOp53
 70
     1
102
RTVSPost2010Prop54
  1
strokes_ogs.tif
102
RTVSPost2010PropOp54
 70
     1
102
RTVSPost2010Prop55
280
     0
102
RTVSPost2010PropOp55
 70
     1
102
RTVSPost2010Prop56
140
1.0
102
RTVSPost2010PropOp56
 70
     1
102
RTVSPost2010Prop57
140
1.0
102
RTVSPost2010PropOp57
 70
     1
  0
XRECORD
  5
A4
102
{ACAD_REACTORS
330
A3
102
}
330
A3
100
AcDbXrecord
280
     1
102
RTVSPropertyOp0
 70
     1
102
RTVSPropertyOp1
 70
     1
102
RTVSPropertyOp2
 70
     1
102
RTVSPropertyOp3
 70
     1
102
RTVSPropertyOp4
 70
     1
102
RTVSPropertyOp5
 70
     1
102
RTVSPropertyOp6
 70
     1
102
RTVSPropertyOp7
 70
     1
102
RTVSPropertyOp8
 70
     1
102
RTVSPropertyOp9
 70
     1
102
RTVSPropertyOp10
 70
     1
102
RTVSPropertyOp11
 70
     1
102
RTVSPropertyOp12
 70
     1
102
RTVSPropertyOp13
 70
     1
102
RTVSPropertyOp14
 70
     1
102
RTVSPropertyOp15
 70
     1
102
RTVSPropertyOp16
 70
     1
102
RTVSPropertyOp17
 70
     1
102
RTVSPropertyOp18
 70
     1
102
RTVSPropertyOp19
 70
     1
102
RTVSPropertyOp20
 70
     1
102
RTVSPropertyOp21
 70
     1
102
RTVSPropertyOp22
 70
     1
102
RTVSPropertyOp23
 70
     1
102
RTVSPropertyOp24
 70
     1
102
RTVSPropertyOp25
 70
     1
102
RTVSPropertyOp26
 70
     1
102
RTVSPropertyOp27
 70
     1
102
RTVSPropertyOp28
 70
     1
102
RTVSPropertyOp29
 70
     1
102
RTVSPropertyOp30
 70
     1
102
RTVSPropertyOp31
 70
     1
102
RTVSPropertyOp32
 70
     1
102
RTVSPropertyOp33
 70
     1
102
RTVSPropertyOp34
 70
     1
102
RTVSPropertyOp35
 70
     1
102
RTVSPropertyOp36
 70
     1
102
RTVSPropertyOp37
 70
     1
102
RTVSPropertyOp38
 70
     1
102
RTVSPropertyOp39
 70
     1
102
RTVSPropertyOp40
 70
     1
102
RTVSPropertyOp41
 70
     1
102
RTVSPropertyOp42
 70
     1
102
RTVSPropertyOp43
 70
     1
102
RTVSPropertyOp44
 70
     1
102
RTVSPropertyOp45
 70
     1
102
RTVSPropertyOp46
 70
     1
102
RTVSPropertyOp47
 70
     1
102
RTVSPropertyOp48
 70
     1
102
RTVSPropertyOp49
 70
     1
102
RTVSPropertyOp50
 70
     1
102
RTVSPropertyOp51
 70
     0
102
RTVSPropertyOp52
 70
     0
102
RTVSPropertyOp53
 70
     1
102
RTVSPropertyOp54
 70
     1
102
RTVSPropertyOp55
 70
     1
102
RTVSPropertyOp56
 70
     1
102
RTVSPropertyOp57
 70
     1
102
RTVSPost2010Prop28
280
     0
102
RTVSPost2010PropOp28
 70
     1
102
RTVSPost2010Prop29
280
     1
102
RTVSPost2010PropOp29
 70
     1
102
RTVSPost2010Prop30
280
     1
102
RTVSPost2010PropOp30
 70
     1
102
RTVSPost2010Prop31
280
     0
102
RTVSPost2010PropOp31
 70
     1
102
RTVSPost2010Prop32
280
     0
102
RTVSPost2010PropOp32
 70
     1
102
RTVSPost2010Prop33
280
     0
102
RTVSPost2010PropOp33
 70
     1
102
RTVSPost2010Prop34
280
     0
102
RTVSPost2010PropOp34
 70
     1
102
RTVSPost2010Prop35
280
     0
102
RTVSPost2010PropOp35
 70
     1
102
RTVSPost2010Prop36
280
     0
102
RTVSPost2010PropOp36
 70
     1
102
RTVSPost2010Prop37
 90
       50
102
RTVSPost2010PropOp37
 70
     1
102
RTVSPost2010Prop38
140
0.0
102
RTVSPost2010PropOp38
 70
     1
102
RTVSPost2010Prop39
140
1.0
102
RTVSPost2010PropOp39
 70
     1
102
RTVSPost2010Prop40
 90
        0
102
RTVSPost2010PropOp40
 70
     1
102
RTVSPost2010Prop41ColorIndex
 90
       18
102
RTVSPost2010Prop41ColorRGB
 90
        0
102
RTVSPost2010PropOp41
 70
     1
102
RTVSPost2010Prop42
 90
       50
102
RTVSPost2010PropOp42
 70
     1
102
RTVSPost2010Prop43
 90
        3
102
RTVSPost2010PropOp43
 70
     1
102
RTVSPost2010Prop44ColorIndex
 90
        5
102
RTVSPost2010Prop44ColorRGB
 90
      255
102
RTVSPost2010PropOp44
 70
     1
102
RTVSPost2010Prop45
280
     0
102
RTVSPost2010PropOp45
 70
     1
102
RTVSPost2010Prop46
 90
       50
102
RTVSPost2010PropOp46
 70
     1
102
RTVSPost2010Prop47
 90
       50
102
RTVSPost2010PropOp47
 70
     1
102
RTVSPost2010Prop48
 90
       50
102
RTVSPost2010PropOp48
 70
     1
102
RTVSPost2010Prop49
280
     0
102
RTVSPost2010PropOp49
 70
     1
102
RTVSPost2010Prop50
 90
       50
102
RTVSPost2010PropOp50
 70
     1
102
RTVSPost2010Prop51ColorIndex
 90
      256
102
RTVSPost2010Prop51ColorRGB
 90
-16777216
102
RTVSPost2010PropOp51
 70
     0
102
RTVSPost2010Prop52
140
1.0
102
RTVSPost2010PropOp52
 70
     0
102
RTVSPost2010Prop53
 90
        2
102
RTVSPost2010PropOp53
 70
     1
102
RTVSPost2010Prop54
  1
strokes_ogs.tif
102
RTVSPost2010PropOp54
 70
     1
102
RTVSPost2010Prop55
280
     0
102
RTVSPost2010PropOp55
 70
     1
102
RTVSPost2010Prop56
140
1.0
102
RTVSPost2010PropOp56
 70
     1
102
RTVSPost2010Prop57
140
1.0
102
RTVSPost2010PropOp57
 70
     1
  0
XRECORD
  5
AC
102
{ACAD_REACTORS
330
AB
102
}
330
AB
100
AcDbXrecord
280
     1
102
RTVSPropertyOp0
 70
     1
102
RTVSPropertyOp1
 70
     1
102
RTVSPropertyOp2
 70
     1
102
RTVSPropertyOp3
 70
     1
102
RTVSPropertyOp4
 70
     1
102
RTVSPropertyOp5
 70
     1
102
RTVSPropertyOp6
 70
     1
102
RTVSPropertyOp7
 70
     1
102
RTVSPropertyOp8
 70
     1
102
RTVSPropertyOp9
 70
     1
102
RTVSPropertyOp10
 70
     1
102
RTVSPropertyOp11
 70
     1
102
RTVSPropertyOp12
 70
     1
102
RTVSPropertyOp13
 70
     1
102
RTVSPropertyOp14
 70
     1
102
RTVSPropertyOp15
 70
     1
102
RTVSPropertyOp16
 70
     1
102
RTVSPropertyOp17
 70
     1
102
RTVSPropertyOp18
 70
     1
102
RTVSPropertyOp19
 70
     1
102
RTVSPropertyOp20
 70
     1
102
RTVSPropertyOp21
 70
     1
102
RTVSPropertyOp22
 70
     1
102
RTVSPropertyOp23
 70
     1
102
RTVSPropertyOp24
 70
     1
102
RTVSPropertyOp25
 70
     1
102
RTVSPropertyOp26
 70
     1
102
RTVSPropertyOp27
 70
     1
102
RTVSPropertyOp28
 70
     1
102
RTVSPropertyOp29
 70
     1
102
RTVSPropertyOp30
 70
     1
102
RTVSPropertyOp31
 70
     1
102
RTVSPropertyOp32
 70
     1
102
RTVSPropertyOp33
 70
     1
102
RTVSPropertyOp34
 70
     1
102
RTVSPropertyOp35
 70
     1
102
RTVSPropertyOp36
 70
     1
102
RTVSPropertyOp37
 70
     1
102
RTVSPropertyOp38
 70
     1
102
RTVSPropertyOp39
 70
     1
102
RTVSPropertyOp40
 70
     1
102
RTVSPropertyOp41
 70
     1
102
RTVSPropertyOp42
 70
     1
102
RTVSPropertyOp43
 70
     1
102
RTVSPropertyOp44
 70
     1
102
RTVSPropertyOp45
 70
     1
102
RTVSPropertyOp46
 70
     1
102
RTVSPropertyOp47
 70
     1
102
RTVSPropertyOp48
 70
     1
102
RTVSPropertyOp49
 70
     1
102
RTVSPropertyOp50
 70
     1
102
RTVSPropertyOp51
 70
     0
102
RTVSPropertyOp52
 70
     0
102
RTVSPropertyOp53
 70
     1
102
RTVSPropertyOp54
 70
     1
102
RTVSPropertyOp55
 70
     1
102
RTVSPropertyOp56
 70
     1
102
RTVSPropertyOp57
 70
     1
102
RTVSPost2010Prop28
280
     0
102
RTVSPost2010PropOp28
 70
     1
102
RTVSPost2010Prop29
280
     1
102
RTVSPost2010PropOp29
 70
     1
102
RTVSPost2010Prop30
280
     1
102
RTVSPost2010PropOp30
 70
     1
102
RTVSPost2010Prop31
280
     0
102
RTVSPost2010PropOp31
 70
     1
102
RTVSPost2010Prop32
280
     0
102
RTVSPost2010PropOp32
 70
     1
102
RTVSPost2010Prop33
280
     0
102
RTVSPost2010PropOp33
 70
     1
102
RTVSPost2010Prop34
280
     0
102
RTVSPost2010PropOp34
 70
     1
102
RTVSPost2010Prop35
280
     0
102
RTVSPost2010PropOp35
 70
     1
102
RTVSPost2010Prop36
280
     0
102
RTVSPost2010PropOp36
 70
     1
102
RTVSPost2010Prop37
 90
       50
102
RTVSPost2010PropOp37
 70
     1
102
RTVSPost2010Prop38
140
0.0
102
RTVSPost2010PropOp38
 70
     1
102
RTVSPost2010Prop39
140
1.0
102
RTVSPost2010PropOp39
 70
     1
102
RTVSPost2010Prop40
 90
        0
102
RTVSPost2010PropOp40
 70
     1
102
RTVSPost2010Prop41ColorIndex
 90
       18
102
RTVSPost2010Prop41ColorRGB
 90
        0
102
RTVSPost2010PropOp41
 70
     1
102
RTVSPost2010Prop42
 90
       50
102
RTVSPost2010PropOp42
 70
     1
102
RTVSPost2010Prop43
 90
        3
102
RTVSPost2010PropOp43
 70
     1
102
RTVSPost2010Prop44ColorIndex
 90
        5
102
RTVSPost2010Prop44ColorRGB
 90
      255
102
RTVSPost2010PropOp44
 70
     1
102
RTVSPost2010Prop45
280
     0
102
RTVSPost2010PropOp45
 70
     1
102
RTVSPost2010Prop46
 90
       50
102
RTVSPost2010PropOp46
 70
     1
102
RTVSPost2010Prop47
 90
       50
102
RTVSPost2010PropOp47
 70
     1
102
RTVSPost2010Prop48
 90
       50
102
RTVSPost2010PropOp48
 70
     1
102
RTVSPost2010Prop49
280
     0
102
RTVSPost2010PropOp49
 70
     1
102
RTVSPost2010Prop50
 90
       50
102
RTVSPost2010PropOp50
 70
     1
102
RTVSPost2010Prop51ColorIndex
 90
      256
102
RTVSPost2010Prop51ColorRGB
 90
-16777216
102
RTVSPost2010PropOp51
 70
     0
102
RTVSPost2010Prop52
140
1.0
102
RTVSPost2010PropOp52
 70
     0
102
RTVSPost2010Prop53
 90
        2
102
RTVSPost2010PropOp53
 70
     1
102
RTVSPost2010Prop54
  1
strokes_ogs.tif
102
RTVSPost2010PropOp54
 70
     1
102
RTVSPost2010Prop55
280
     0
102
RTVSPost2010PropOp55
 70
     1
102
RTVSPost2010Prop56
140
1.0
102
RTVSPost2010PropOp56
 70
     1
102
RTVSPost2010Prop57
140
1.0
102
RTVSPost2010PropOp57
 70
     1
  0
ENDSEC
  0
EOF
