  0
SECTION
  2
HEADER
  9
$ACADVER
  1
AC1018
  9
$ACADMAINTVER
 70
     0
  9
$DWGCODEPAGE
  3
ANSI_936
  9
$INSBASE
 10
0.0
 20
0.0
 30
0.0
  9
$EXTMIN
 10
2279.192111065948
 20
-834.9957394595833
 30
0.0
  9
$EXTMAX
 10
4644.757667758659
 20
0.0000000000000018
 30
0.0
  9
$LIMMIN
 10
0.0
 20
0.0
  9
$LIMMAX
 10
12.0
 20
9.0
  9
$ORTHOMODE
 70
     0
  9
$REGENMODE
 70
     1
  9
$FILLMODE
 70
     1
  9
$QTEXTMODE
 70
     0
  9
$MIRRTEXT
 70
     1
  9
$LTSCALE
 40
1.0
  9
$ATTMODE
 70
     1
  9
$TEXTSIZE
 40
0.2
  9
$TRACEWID
 40
0.05
  9
$TEXTSTYLE
  7
Standard
  9
$CLAYER
  8
0
  9
$CELTYPE
  6
ByLayer
  9
$CECOLOR
 62
   256
  9
$CELTSCALE
 40
1.0
  9
$DISPSILH
 70
     0
  9
$DIMSCALE
 40
1.0
  9
$DIMASZ
 40
0.18
  9
$DIMEXO
 40
0.0625
  9
$DIMDLI
 40
0.38
  9
$DIMRND
 40
0.0
  9
$DIMDLE
 40
0.0
  9
$DIMEXE
 40
0.18
  9
$DIMTP
 40
0.0
  9
$DIMTM
 40
0.0
  9
$DIMTXT
 40
0.18
  9
$DIMCEN
 40
0.09
  9
$DIMTSZ
 40
0.0
  9
$DIMTOL
 70
     0
  9
$DIMLIM
 70
     0
  9
$DIMTIH
 70
     1
  9
$DIMTOH
 70
     1
  9
$DIMSE1
 70
     0
  9
$DIMSE2
 70
     0
  9
$DIMTAD
 70
     0
  9
$DIMZIN
 70
     0
  9
$DIMBLK
  1

  9
$DIMASO
 70
     1
  9
$DIMSHO
 70
     1
  9
$DIMPOST
  1

  9
$DIMAPOST
  1

  9
$DIMALT
 70
     0
  9
$DIMALTD
 70
     2
  9
$DIMALTF
 40
25.4
  9
$DIMLFAC
 40
1.0
  9
$DIMTOFL
 70
     0
  9
$DIMTVP
 40
0.0
  9
$DIMTIX
 70
     0
  9
$DIMSOXD
 70
     0
  9
$DIMSAH
 70
     0
  9
$DIMBLK1
  1

  9
$DIMBLK2
  1

  9
$DIMSTYLE
  2
Standard
  9
$DIMCLRD
 70
     0
  9
$DIMCLRE
 70
     0
  9
$DIMCLRT
 70
     0
  9
$DIMTFAC
 40
1.0
  9
$DIMGAP
 40
0.09
  9
$DIMJUST
 70
     0
  9
$DIMSD1
 70
     0
  9
$DIMSD2
 70
     0
  9
$DIMTOLJ
 70
     1
  9
$DIMTZIN
 70
     0
  9
$DIMALTZ
 70
     0
  9
$DIMALTTZ
 70
     0
  9
$DIMUPT
 70
     0
  9
$DIMDEC
 70
     4
  9
$DIMTDEC
 70
     4
  9
$DIMALTU
 70
     2
  9
$DIMALTTD
 70
     2
  9
$DIMTXSTY
  7
Standard
  9
$DIMAUNIT
 70
     0
  9
$DIMADEC
 70
     0
  9
$DIMALTRND
 40
0.0
  9
$DIMAZIN
 70
     0
  9
$DIMDSEP
 70
    46
  9
$DIMATFIT
 70
     3
  9
$DIMFRAC
 70
     0
  9
$DIMLDRBLK
  1

  9
$DIMLUNIT
 70
     2
  9
$DIMLWD
 70
    -2
  9
$DIMLWE
 70
    -2
  9
$DIMTMOVE
 70
     2
  9
$LUNITS
 70
     2
  9
$LUPREC
 70
     3
  9
$SKETCHINC
 40
0.1
  9
$FILLETRAD
 40
0.5
  9
$AUNITS
 70
     0
  9
$AUPREC
 70
     0
  9
$MENU
  1
.
  9
$ELEVATION
 40
0.0
  9
$PELEVATION
 40
0.0
  9
$THICKNESS
 40
0.0
  9
$LIMCHECK
 70
     0
  9
$CHAMFERA
 40
0.5
  9
$CHAMFERB
 40
0.5
  9
$CHAMFERC
 40
1.0
  9
$CHAMFERD
 40
0.0
  9
$SKPOLY
 70
     0
  9
$TDCREATE
 40
2458254.404713322
  9
$TDUCREATE
 40
2458254.071379988
  9
$TDUPDATE
 40
2458254.40471338
  9
$TDUUPDATE
 40
2458254.071380046
  9
$TDINDWG
 40
0.0000000116
  9
$TDUSRTIMER
 40
0.0000000116
  9
$USRTIMER
 70
     1
  9
$ANGBASE
 50
0.0
  9
$ANGDIR
 70
     0
  9
$PDMODE
 70
     0
  9
$PDSIZE
 40
0.0
  9
$PLINEWID
 40
0.0
  9
$SPLFRAME
 70
     0
  9
$SPLINETYPE
 70
     6
  9
$SPLINESEGS
 70
     8
  9
$HANDSEED
  5
E3
  9
$SURFTAB1
 70
     6
  9
$SURFTAB2
 70
     6
  9
$SURFTYPE
 70
     6
  9
$SURFU
 70
     6
  9
$SURFV
 70
     6
  9
$UCSBASE
  2

  9
$UCSNAME
  2

  9
$UCSORG
 10
0.0
 20
0.0
 30
0.0
  9
$UCSXDIR
 10
1.0
 20
0.0
 30
0.0
  9
$UCSYDIR
 10
0.0
 20
1.0
 30
0.0
  9
$UCSORTHOREF
  2

  9
$UCSORTHOVIEW
 70
     0
  9
$UCSORGTOP
 10
0.0
 20
0.0
 30
0.0
  9
$UCSORGBOTTOM
 10
0.0
 20
0.0
 30
0.0
  9
$UCSORGLEFT
 10
0.0
 20
0.0
 30
0.0
  9
$UCSORGRIGHT
 10
0.0
 20
0.0
 30
0.0
  9
$UCSORGFRONT
 10
0.0
 20
0.0
 30
0.0
  9
$UCSORGBACK
 10
0.0
 20
0.0
 30
0.0
  9
$PUCSBASE
  2

  9
$PUCSNAME
  2

  9
$PUCSORG
 10
0.0
 20
0.0
 30
0.0
  9
$PUCSXDIR
 10
1.0
 20
0.0
 30
0.0
  9
$PUCSYDIR
 10
0.0
 20
1.0
 30
0.0
  9
$PUCSORTHOREF
  2

  9
$PUCSORTHOVIEW
 70
     0
  9
$PUCSORGTOP
 10
0.0
 20
0.0
 30
0.0
  9
$PUCSORGBOTTOM
 10
0.0
 20
0.0
 30
0.0
  9
$PUCSORGLEFT
 10
0.0
 20
0.0
 30
0.0
  9
$PUCSORGRIGHT
 10
0.0
 20
0.0
 30
0.0
  9
$PUCSORGFRONT
 10
0.0
 20
0.0
 30
0.0
  9
$PUCSORGBACK
 10
0.0
 20
0.0
 30
0.0
  9
$USERI1
 70
     0
  9
$USERI2
 70
     0
  9
$USERI3
 70
     0
  9
$USERI4
 70
     0
  9
$USERI5
 70
     0
  9
$USERR1
 40
0.0
  9
$USERR2
 40
0.0
  9
$USERR3
 40
0.0
  9
$USERR4
 40
0.0
  9
$USERR5
 40
0.0
  9
$WORLDVIEW
 70
     1
  9
$SHADEDGE
 70
     3
  9
$SHADEDIF
 70
    70
  9
$TILEMODE
 70
     1
  9
$MAXACTVP
 70
    64
  9
$PINSBASE
 10
0.0
 20
0.0
 30
0.0
  9
$PLIMCHECK
 70
     0
  9
$PEXTMIN
 10
1.000000000000000E+20
 20
1.000000000000000E+20
 30
1.000000000000000E+20
  9
$PEXTMAX
 10
-1.000000000000000E+20
 20
-1.000000000000000E+20
 30
-1.000000000000000E+20
  9
$PLIMMIN
 10
0.0
 20
0.0
  9
$PLIMMAX
 10
12.0
 20
9.0
  9
$UNITMODE
 70
     0
  9
$VISRETAIN
 70
     1
  9
$PLINEGEN
 70
     0
  9
$PSLTSCALE
 70
     1
  9
$TREEDEPTH
 70
  3020
  9
$CMLSTYLE
  2
Standard
  9
$CMLJUST
 70
     0
  9
$CMLSCALE
 40
1.0
  9
$PROXYGRAPHICS
 70
     1
  9
$MEASUREMENT
 70
     0
  9
$CELWEIGHT
370
    -1
  9
$ENDCAPS
280
     0
  9
$JOINSTYLE
280
     0
  9
$LWDISPLAY
290
     0
  9
$INSUNITS
 70
     4
  9
$HYPERLINKBASE
  1

  9
$STYLESHEET
  1

  9
$XEDIT
290
     1
  9
$CEPSNTYPE
380
     0
  9
$PSTYLEMODE
290
     1
  9
$FINGERPRINTGUID
  2
{C454C475-5AD2-4F79-A86B-0690714223BF}
  9
$VERSIONGUID
  2
{FAEB1C32-E019-11D5-929B-00C0DF256EC4}
  9
$EXTNAMES
290
     1
  9
$PSVPSCALE
 40
0.0
  9
$OLESTARTUP
290
     0
  9
$SORTENTS
280
   127
  9
$INDEXCTL
280
     0
  9
$HIDETEXT
280
     1
  9
$XCLIPFRAME
290
     0
  9
$HALOGAP
280
     0
  9
$OBSCOLOR
 70
   257
  9
$OBSLTYPE
280
     0
  9
$INTERSECTIONDISPLAY
280
     0
  9
$INTERSECTIONCOLOR
 70
   257
  9
$DIMASSOC
280
     2
  9
$PROJECTNAME
  1

  0
ENDSEC
  0
SECTION
  2
CLASSES
  0
CLASS
  1
ACDBDICTIONARYWDFLT
  2
AcDbDictionaryWithDefault
  3
ObjectDBX Classes
 90
        0
 91
        4
280
     0
281
     0
  0
CLASS
  1
VISUALSTYLE
  2
AcDbVisualStyle
  3
ObjectDBX Classes
 90
     4095
 91
        4
280
     0
281
     0
  0
CLASS
  1
MATERIAL
  2
AcDbMaterial
  3
ObjectDBX Classes
 90
     1153
 91
        4
280
     0
281
     0
  0
CLASS
  1
SCALE
  2
AcDbScale
  3
ObjectDBX Classes
 90
     1153
 91
        4
280
     0
281
     0
  0
CLASS
  1
SUN
  2
AcDbSun
  3
SCENEOE
 90
     1153
 91
        4
280
     0
281
     0
  0
CLASS
  1
DICTIONARYVAR
  2
AcDbDictionaryVar
  3
ObjectDBX Classes
 90
        0
 91
        4
280
     0
281
     0
  0
ENDSEC
  0
SECTION
  2
TABLES
  0
TABLE
  2
VPORT
  5
8
330
0
100
AcDbSymbolTable
 70
     1
  0
VPORT
  5
29
330
8
100
AcDbSymbolTableRecord
100
AcDbViewportTableRecord
  2
*Active
 70
     0
 10
0.0
 20
0.0
 11
1.0
 21
1.0
 12
3461.974889412304
 22
-417.4978697297917
 13
0.0
 23
0.0
 14
0.5
 24
0.5
 15
0.5
 25
0.5
 16
0.0
 26
0.0
 36
1.0
 17
0.0
 27
0.0
 37
0.0
 40
851.695654248775
 41
2.833027098106784
 42
50.0
 43
0.0
 44
0.0
 50
0.0
 51
0.0
 71
     0
 72
   100
 73
     1
 74
     3
 75
     0
 76
     0
 77
     0
 78
     0
281
     0
 65
     1
110
0.0
120
0.0
130
0.0
111
1.0
121
0.0
131
0.0
112
0.0
122
1.0
132
0.0
 79
     0
146
0.0
  0
ENDTAB
  0
TABLE
  2
LTYPE
  5
5
330
0
100
AcDbSymbolTable
 70
     1
  0
LTYPE
  5
14
330
5
100
AcDbSymbolTableRecord
100
AcDbLinetypeTableRecord
  2
ByBlock
 70
     0
  3

 72
    65
 73
     0
 40
0.0
  0
LTYPE
  5
15
330
5
100
AcDbSymbolTableRecord
100
AcDbLinetypeTableRecord
  2
ByLayer
 70
     0
  3

 72
    65
 73
     0
 40
0.0
  0
LTYPE
  5
16
330
5
100
AcDbSymbolTableRecord
100
AcDbLinetypeTableRecord
  2
Continuous
 70
     0
  3
Solid line
 72
    65
 73
     0
 40
0.0
  0
ENDTAB
  0
TABLE
  2
LAYER
  5
2
330
0
100
AcDbSymbolTable
 70
     2
  0
LAYER
  5
10
330
2
100
AcDbSymbolTableRecord
100
AcDbLayerTableRecord
  2
0
 70
     0
 62
     7
  6
Continuous
370
    -3
390
F
  0
LAYER
  5
62
330
2
100
AcDbSymbolTableRecord
100
AcDbLayerTableRecord
  2
EGD111 EGD011$2D
 70
     0
 62
    30
420
 16744192
  6
Continuous
370
    -3
390
F
  0
ENDTAB
  0
TABLE
  2
STYLE
  5
3
330
0
100
AcDbSymbolTable
 70
     1
  0
STYLE
  5
11
330
3
100
AcDbSymbolTableRecord
100
AcDbTextStyleTableRecord
  2
Standard
 70
     0
 40
0.0
 41
1.0
 50
0.0
 71
     0
 42
0.2
  3
txt
  4

  0
ENDTAB
  0
TABLE
  2
VIEW
  5
6
330
0
100
AcDbSymbolTable
 70
     0
  0
ENDTAB
  0
TABLE
  2
UCS
  5
7
330
0
100
AcDbSymbolTable
 70
     0
  0
ENDTAB
  0
TABLE
  2
APPID
  5
9
330
0
100
AcDbSymbolTable
 70
     1
  0
APPID
  5
12
330
9
100
AcDbSymbolTableRecord
100
AcDbRegAppTableRecord
  2
ACAD
 70
     0
  0
ENDTAB
  0
TABLE
  2
DIMSTYLE
  5
A
330
0
100
AcDbSymbolTable
 70
     1
100
AcDbDimStyleTable
  0
DIMSTYLE
105
27
330
A
100
AcDbSymbolTableRecord
100
AcDbDimStyleTableRecord
  2
Standard
 70
     0
178
     0
340
11
  0
ENDTAB
  0
TABLE
  2
BLOCK_RECORD
  5
1
330
0
100
AcDbSymbolTable
 70
     1
  0
BLOCK_RECORD
  5
1F
330
1
100
AcDbSymbolTableRecord
100
AcDbBlockTableRecord
  2
*Model_Space
340
22
  0
BLOCK_RECORD
  5
1B
330
1
100
AcDbSymbolTableRecord
100
AcDbBlockTableRecord
  2
*Paper_Space
340
1E
  0
BLOCK_RECORD
  5
23
330
1
100
AcDbSymbolTableRecord
100
AcDbBlockTableRecord
  2
*Paper_Space0
340
26
  0
ENDTAB
  0
ENDSEC
  0
SECTION
  2
BLOCKS
  0
BLOCK
  5
20
330
1F
100
AcDbEntity
  8
0
100
AcDbBlockBegin
  2
*Model_Space
 70
     0
 10
0.0
 20
0.0
 30
0.0
  3
*Model_Space
  1
*Model_Space
  0
ENDBLK
  5
21
330
1F
100
AcDbEntity
  8
0
100
AcDbBlockEnd
  0
BLOCK
  5
1C
330
1B
100
AcDbEntity
 67
     1
  8
0
100
AcDbBlockBegin
  2
*Paper_Space
 70
     0
 10
0.0
 20
0.0
 30
0.0
  3
*Paper_Space
  1
*Paper_Space
  0
ENDBLK
  5
1D
330
1B
100
AcDbEntity
 67
     1
  8
0
100
AcDbBlockEnd
  0
BLOCK
  5
24
330
23
100
AcDbEntity
  8
0
100
AcDbBlockBegin
  2
*Paper_Space0
 70
     0
 10
0.0
 20
0.0
 30
0.0
  3
*Paper_Space0
  1
*Paper_Space0
  0
ENDBLK
  5
25
330
23
100
AcDbEntity
  8
0
100
AcDbBlockEnd
  0
ENDSEC
  0
SECTION
  2
ENTITIES
  0
SPLINE
  5
63
330
1F
100
AcDbEntity
  8
EGD111 EGD011$2D
100
AcDbSpline
210
0.0
220
0.0
230
1.0
 70
    15
 71
     3
 72
   195
 73
   191
 74
     0
 42
0.000000001
 43
0.0000000001
 12
1.0
 22
0.0
 32
0.0
 13
1.0
 23
0.0
 33
0.0
 40
-278.2291845998429
 40
-278.2291845998429
 40
-278.2291845998429
 40
-278.2291845998429
 40
-57.21110855868662
 40
-57.21110855868662
 40
-57.21110855868662
 40
-56.04132963822028
 40
-56.04132963822028
 40
-56.04132963822028
 40
-54.78762134770201
 40
-54.78762134770201
 40
-54.78762134770201
 40
-11.0177689909078
 40
-11.0177689909078
 40
-11.0177689909078
 40
-10.82299838052674
 40
-10.82299838052674
 40
-10.82299838052674
 40
-10.81258899273504
 40
-10.81258899273504
 40
-10.81258899273504
 40
-5.406294496367522
 40
-5.406294496367522
 40
-5.406294496367522
 40
0.0
 40
0.0
 40
0.0
 40
24.30465800640423
 40
30.75804617930756
 40
42.26309976060177
 40
51.10892888179259
 40
59.10796416090201
 40
59.10796416090201
 40
59.10796416090201
 40
61.16460034610592
 40
63.26131438681617
 40
67.3766401174722
 40
75.34268675460332
 40
75.34268675460332
 40
75.34268675460332
 40
85.85691607560827
 40
85.85691607560827
 40
85.85691607560827
 40
97.3715216813545
 40
97.3715216813545
 40
97.3715216813545
 40
98.87951346674625
 40
98.87951346674625
 40
98.87951346674625
 40
100.387429407682
 40
100.387429407682
 40
100.387429407682
 40
100.4934592481718
 40
106.2605055268778
 40
111.6396659557007
 40
124.8873190421527
 40
124.8873190421527
 40
124.8873190421527
 40
129.4426165820179
 40
129.4426165820179
 40
129.4426165820179
 40
133.9982090172562
 40
133.9982090172562
 40
133.9982090172562
 40
137.3899179682356
 40
137.3899179682356
 40
137.3899179682356
 40
163.6584256967249
 40
163.6584256967249
 40
163.6584256967249
 40
177.402649963933
 40
177.402649963933
 40
177.402649963933
 40
177.4395641536711
 40
177.4395641536711
 40
177.4395641536711
 40
177.4764783434094
 40
177.4764783434094
 40
177.4764783434094
 40
177.4796855764528
 40
181.8441232471625
 40
186.6978473310806
 40
191.7962407670354
 40
198.395076407862
 40
198.395076407862
 40
198.395076407862
 40
198.8200843884563
 40
198.8200843884563
 40
198.8200843884563
 40
206.5054759044057
 40
206.5054759044057
 40
206.5054759044057
 40
224.9527441040974
 40
224.9527441040974
 40
224.9527441040974
 40
225.6009511995009
 40
225.6009511995009
 40
225.6009511995009
 40
226.1878651328108
 40
226.1878651328108
 40
226.1878651328108
 40
226.8261924016362
 40
226.8261924016362
 40
226.8261924016362
 40
253.2432478112452
 40
253.2432478112452
 40
253.2432478112452
 40
254.8235494022948
 40
254.8235494022948
 40
254.8235494022948
 40
258.3616825135842
 40
258.3616825135842
 40
258.3616825135842
 40
374.9752921238784
 40
374.9752921238784
 40
374.9752921238784
 40
543.4451083433511
 40
543.4451083433511
 40
543.4451083433511
 40
551.1304998593005
 40
551.1304998593005
 40
551.1304998593005
 40
551.5555078398947
 40
551.5555078398947
 40
551.5555078398947
 40
558.1543434807214
 40
563.2527369166761
 40
568.1064610005943
 40
572.470898671304
 40
572.4741059043474
 40
572.4741059043474
 40
572.4741059043474
 40
572.5110200940856
 40
572.5110200940856
 40
572.5110200940856
 40
572.5479342838238
 40
572.5479342838238
 40
572.5479342838238
 40
586.2921585510319
 40
586.2921585510319
 40
586.2921585510319
 40
612.5606662795212
 40
612.5606662795212
 40
612.5606662795212
 40
615.9523752305006
 40
615.9523752305006
 40
615.9523752305006
 40
620.5079676657388
 40
620.5079676657388
 40
620.5079676657388
 40
625.063265205604
 40
625.063265205604
 40
625.063265205604
 40
638.310918292056
 40
643.690078720879
 40
649.457124999585
 40
649.5631548400747
 40
649.5631548400747
 40
649.5631548400747
 40
651.0710707810106
 40
651.0710707810106
 40
651.0710707810106
 40
652.5790625664023
 40
652.5790625664023
 40
652.5790625664023
 40
664.0936681721485
 40
664.0936681721485
 40
664.0936681721485
 40
674.6078952933526
 40
674.6078952933526
 40
674.6078952933526
 40
682.5739421630705
 40
686.6892680138828
 40
688.7859821158114
 40
690.8426183610634
 40
690.8426183610634
 40
690.8426183610634
 40
698.8416538737229
 40
707.6874832531878
 40
719.1925371703982
 40
725.6459255317228
 40
749.9505842477568
 40
749.9505842477568
 40
749.9505842477568
 40
755.3568787441243
 40
755.3568787441243
 40
755.3568787441243
 40
760.7631732404918
 40
760.7631732404918
 40
760.7631732404918
 40
1028.1797688476
 40
1028.1797688476
 40
1028.1797688476
 40
1028.1797688476
 10
4346.474889412302
 20
0.0
 30
0.0
 41
1.0
 10
4264.468864065248
 20
-0.0000067473300192
 30
0.0
 41
1.0
 10
4182.462838718193
 20
-0.0000134946600383
 30
0.0
 41
1.0
 10
4100.456813371138
 20
-0.0000202419900575
 30
0.0
 41
1.0
 10
4100.066887064316
 20
-0.0000202419900575
 30
0.0
 41
1.0
 10
4099.676960757494
 20
-0.0000202419900575
 30
0.0
 41
1.0
 10
4099.287034450672
 20
-0.0000202419900575
 30
0.0
 41
1.0
 10
4098.869131687165
 20
-0.0000202419900575
 30
0.0
 41
1.0
 10
4098.45122892366
 20
-0.0000202419900575
 30
0.0
 41
1.0
 10
4098.033326160154
 20
-0.0000202419900575
 30
0.0
 41
1.0
 10
4083.443375374556
 20
-0.0000202419900575
 30
0.0
 41
1.0
 10
4068.853424588957
 20
-0.0000202419900575
 30
0.0
 41
1.0
 10
4054.263473803359
 20
-0.0000202419900575
 30
0.0
 41
1.0
 10
4054.198550266522
 20
-0.0000202419900575
 30
0.0
 41
1.0
 10
4054.133626729685
 20
-0.0000202419900575
 30
0.0
 41
1.0
 10
4054.068703192848
 20
-0.0000202419900575
 30
0.0
 41
1.0
 10
4054.065233396873
 20
-0.0000202419900575
 30
0.0
 41
1.0
 10
4054.0617636009
 20
-0.0000202419900575
 30
0.0
 41
1.0
 10
4054.058293804925
 20
-0.0000202419900575
 30
0.0
 41
1.0
 10
4052.192361257602
 20
-0.0000356513591289
 30
0.0
 41
0.9334771047981997
 10
4050.512626273149
 20
-0.8125592838808197
 30
0.0
 41
0.9334771047981997
 10
4049.354311354582
 20
-2.27543686618945
 30
0.0
 41
1.0
 10
4048.195996436013
 20
-3.738314448498081
 30
0.0
 41
0.9334771047981997
 10
4047.790264969145
 20
-5.559601424290689
 30
0.0
 41
0.9334771047981997
 10
4048.218088249527
 20
-7.375825945698105
 30
0.0
 41
1.0
 10
4050.07881748298
 20
-15.26115358489227
 30
0.0
 41
1.0
 10
4052.392851127888
 20
-25.24928760687129
 30
0.0
 41
1.0
 10
4055.612940845396
 20
-38.9640660564782
 30
0.0
 41
1.0
 10
4057.709574587405
 20
-47.64947087114655
 30
0.0
 41
1.0
 10
4060.168063971686
 20
-56.7759174996026
 30
0.0
 41
1.0
 10
4061.939495974485
 20
-62.10774358150724
 30
0.0
 41
1.0
 10
4062.880174157545
 20
-64.60266562167311
 30
0.0
 41
1.0
 10
4063.121912255659
 20
-65.24419478622934
 30
0.0
 41
1.0
 10
4063.622846381104
 20
-66.5348610900491
 30
0.0
 41
1.0
 10
4064.671385016816
 20
-69.0840874834011
 30
0.0
 41
1.0
 10
4066.604774535568
 20
-73.39754079362541
 30
0.0
 41
1.0
 10
4068.484098780771
 20
-76.96370203755117
 30
0.0
 41
1.0
 10
4069.834231247159
 20
-79.25034566526796
 30
0.0
 41
1.0
 10
4071.609924492169
 20
-82.27540924868073
 30
0.0
 41
0.9983040908785891
 10
4073.596736011548
 20
-85.16620086526767
 30
0.0
 41
0.9983040908785887
 10
4075.784557449962
 20
-87.90801295541627
 30
0.0
 41
1.0
 10
4078.179519266675
 20
-90.91548985470159
 30
0.0
 41
0.9966527515178552
 10
4080.863452534596
 20
-93.66817247654298
 30
0.0
 41
0.9966527515178552
 10
4083.809405879056
 20
-96.13841908275701
 30
0.0
 41
1.0
 10
4084.195822384519
 20
-96.45991345121456
 30
0.0
 41
0.9999789467874112
 10
4084.584781680265
 20
-96.77832672181944
 30
0.0
 41
0.9999789467874112
 10
4084.976259199765
 20
-97.0936387837047
 30
0.0
 41
1.0
 10
4085.367726874188
 20
-97.40894291595936
 30
0.0
 41
0.9999286549312751
 10
4085.763765412461
 20
-97.71848630893474
 30
0.0
 41
0.9999286549312751
 10
4086.1642900484
 20
-98.02220270944707
 30
0.0
 41
1.0
 10
4086.192453446079
 20
-98.04355891329027
 30
0.0
 41
1.0
 10
4087.753458426839
 20
-99.2251433902303
 30
0.0
 41
1.0
 10
4090.849845995557
 20
-101.346847039977
 30
0.0
 41
1.0
 10
4097.834862915824
 20
-105.5134663998537
 30
0.0
 41
1.0
 10
4103.333702747036
 20
-108.4029811859581
 30
0.0
 41
1.0
 10
4107.138431694794
 20
-110.6453596802143
 30
0.0
 41
1.0
 10
4108.446695459965
 20
-111.4164060733004
 30
0.0
 41
0.9998138344508586
 10
4109.736373386981
 20
-112.2181525819504
 30
0.0
 41
0.9998138344508586
 10
4111.006745195036
 20
-113.0501514334272
 30
0.0
 41
1.0
 10
4112.27715812612
 20
-113.8821772174243
 30
0.0
 41
0.9998785502357185
 10
4113.53145868876
 20
-114.7382998834386
 30
0.0
 41
0.9998785502357185
 10
4114.769189879436
 20
-115.6182075037825
 30
0.0
 41
1.0
 10
4115.690720707301
 20
-116.2733271322843
 30
0.0
 41
0.9999649896283402
 10
4116.601329776664
 20
-116.9434926936604
 30
0.0
 41
1.000020110766957
 10
4117.500772954218
 20
-117.6285207069181
 30
0.0
 41
1.000165363415852
 10
4123.670847625202
 20
-122.330708151095
 30
0.0
 41
1.000165363415852
 10
4129.332976744889
 20
-127.7760752882959
 30
0.0
 41
1.000165363415852
 10
4133.730280302715
 20
-133.9510353158798
 30
0.0
 41
1.000165363415852
 10
4136.392571533376
 20
-137.6895859333028
 30
0.0
 41
0.9965940857424046
 10
4138.654185321632
 20
-141.6832882743208
 30
0.0
 41
0.9965940857424046
 10
4140.490895121183
 20
-145.8893615532959
 30
0.0
 41
1.000165363415852
 10
4140.496401242272
 20
-145.9019705940887
 30
0.0
 41
0.8056752599019498
 10
4140.491400597857
 20
-145.9147885047848
 30
0.0
 41
0.8056752599019498
 10
4140.478810433084
 20
-145.9203376515769
 30
0.0
 41
1.000165363415852
 10
4140.466220268309
 20
-145.9258867983691
 30
0.0
 41
0.8056752599019498
 10
4140.453385355969
 20
-145.9209299541742
 30
0.0
 41
0.8056752599019498
 10
4140.447793248184
 20
-145.9083588122336
 30
0.0
 41
1.000165363415852
 10
4140.445715830467
 20
-145.9036887461347
 30
0.0
 41
1.000165363415852
 10
4141.02605163651
 20
-147.2384375925812
 30
0.0
 41
1.000165363415852
 10
4142.183137961282
 20
-150.0872733909827
 30
0.0
 41
1.000165363415852
 10
4143.800574999186
 20
-154.5775917665341
 30
0.0
 41
1.000165363415852
 10
4145.510554231526
 20
-159.8235239523746
 30
0.0
 41
1.000165363415852
 10
4146.618578580638
 20
-163.5621035427561
 30
0.0
 41
1.000165363415852
 10
4147.238472078154
 20
-165.6738978276214
 30
0.0
 41
1.000165363415852
 10
4147.244284262112
 20
-165.6874876738352
 30
0.0
 41
1.000165363415852
 10
4147.250096446071
 20
-165.7010775200491
 30
0.0
 41
1.000165363415852
 10
4147.25590863003
 20
-165.714667366263
 30
0.0
 41
1.000165363415852
 10
4148.042781339174
 20
-168.353984795496
 30
0.0
 41
0.868004553530005
 10
4150.250955340404
 20
-169.999929124124
 30
0.0
 41
0.868004553530005
 10
4153.0050731927
 20
-170.000020241991
 30
0.0
 41
1.000165363415852
 10
4159.154162592639
 20
-170.0000202419908
 30
0.0
 41
1.000165363415852
 10
4165.303251992576
 20
-170.0000202419905
 30
0.0
 41
1.000165363415852
 10
4171.452341392514
 20
-170.0000202419903
 30
0.0
 41
1.000165363415852
 10
4171.668410424314
 20
-170.0000202419903
 30
0.0
 41
1.000165363415852
 10
4171.884479456116
 20
-170.0000202419903
 30
0.0
 41
1.000165363415852
 10
4172.100548487917
 20
-170.0000202419903
 30
0.0
 41
1.000165363415852
 10
4172.296186465687
 20
-170.0000202419903
 30
0.0
 41
1.000165363415852
 10
4172.491824443458
 20
-170.0000202419903
 30
0.0
 41
1.000165363415852
 10
4172.687462421228
 20
-170.0000202419903
 30
0.0
 41
1.000165363415852
 10
4172.900238177503
 20
-170.0000202419903
 30
0.0
 41
1.000165363415852
 10
4173.113013933777
 20
-170.0000202419903
 30
0.0
 41
1.000165363415852
 10
4173.325789690052
 20
-170.0000202419903
 30
0.0
 41
1.000165363415852
 10
4182.131474826588
 20
-170.0000202419903
 30
0.0
 41
1.000165363415852
 10
4190.937159963121
 20
-170.0000202419903
 30
0.0
 41
1.000165363415852
 10
4199.742845099658
 20
-170.0000202419903
 30
0.0
 41
1.000165363415852
 10
4200.269612296676
 20
-170.0000202419903
 30
0.0
 41
1.000165363415852
 10
4200.796379493693
 20
-170.0000202419903
 30
0.0
 41
1.000165363415852
 10
4201.323146690711
 20
-170.0000202419903
 30
0.0
 41
1.000165363415852
 10
4202.502524394474
 20
-170.0000202419903
 30
0.0
 41
1.000165363415852
 10
4203.681902098238
 20
-170.0000202419903
 30
0.0
 41
1.000165363415852
 10
4204.861279802
 20
-170.0000202419903
 30
0.0
 41
1.000165363415852
 10
4252.065816338768
 20
-170.0000134946603
 30
0.0
 41
1.000165363415852
 10
4299.270352875535
 20
-170.0000067473303
 30
0.0
 41
1.000165363415852
 10
4346.474889412302
 20
-170.0000000000002
 30
0.0
 41
1.000165363415852
 10
4410.964828152166
 20
-170.0000000000002
 30
0.0
 41
1.000165363415852
 10
4475.454766892029
 20
-170.0000000000002
 30
0.0
 41
1.000165363415852
 10
4539.944705631893
 20
-170.0000000000002
 30
0.0
 41
1.000165363415852
 10
4542.698823484193
 20
-169.9999088821336
 30
0.0
 41
0.8680045535300375
 10
4544.906997485423
 20
-168.3539645535061
 30
0.0
 41
0.8680045535300375
 10
4545.693870194567
 20
-165.7146471242729
 30
0.0
 41
1.000165363415852
 10
4545.699682378526
 20
-165.701057278059
 30
0.0
 41
1.000165363415852
 10
4545.705494562485
 20
-165.6874674318452
 30
0.0
 41
1.000165363415852
 10
4545.711306746444
 20
-165.6738775856313
 30
0.0
 41
1.000165363415852
 10
4546.331200243959
 20
-163.5620833007661
 30
0.0
 41
1.000165363415852
 10
4547.43922459307
 20
-159.8235037103846
 30
0.0
 41
1.000165363415852
 10
4549.149203825413
 20
-154.5775715245441
 30
0.0
 41
1.000165363415852
 10
4550.766640863316
 20
-150.0872531489927
 30
0.0
 41
1.000165363415852
 10
4551.923727188089
 20
-147.2384173505911
 30
0.0
 41
1.000165363415852
 10
4552.504062994131
 20
-145.9036685041447
 30
0.0
 41
1.000165363415852
 10
4552.501985576415
 20
-145.9083385702436
 30
0.0
 41
1.000165363415852
 10
4552.496393468628
 20
-145.9209097121841
 30
0.0
 41
0.8056752599019498
 10
4552.483558556288
 20
-145.925866556379
 30
0.0
 41
0.8056752599019498
 10
4552.470968391513
 20
-145.9203174095869
 30
0.0
 41
1.000165363415852
 10
4552.458378226739
 20
-145.9147682627948
 30
0.0
 41
0.8056752599019498
 10
4552.453377582324
 20
-145.9019503520986
 30
0.0
 41
0.8056752599019498
 10
4552.458883703413
 20
-145.8893413113059
 30
0.0
 41
1.000165363415852
 10
4554.295593502969
 20
-141.6832680323307
 30
0.0
 41
0.9965940857424046
 10
4556.557207291224
 20
-137.6895656913128
 30
0.0
 41
0.9965940857424046
 10
4559.219498521882
 20
-133.9510150738897
 30
0.0
 41
1.000165363415852
 10
4563.616802079708
 20
-127.7760550463059
 30
0.0
 41
1.000165363415852
 10
4569.278931199395
 20
-122.3306879091049
 30
0.0
 41
1.000165363415852
 10
4575.449005870379
 20
-117.628500464928
 30
0.0
 41
1.000165363415852
 10
4576.348449047935
 20
-116.9434724516703
 30
0.0
 41
1.000020110766957
 10
4577.259058117298
 20
-116.2733068902942
 30
0.0
 41
0.9999649896283402
 10
4578.180588945161
 20
-115.6181872617924
 30
0.0
 41
1.0
 10
4579.418320135834
 20
-114.7382796414486
 30
0.0
 41
0.9998785502357185
 10
4580.672620698472
 20
-113.8821569754343
 30
0.0
 41
0.9998785502357185
 10
4581.943033629561
 20
-113.0501311914374
 30
0.0
 41
1.0
 10
4583.213405437614
 20
-112.2181323399604
 30
0.0
 41
0.9998138344508586
 10
4584.503083364623
 20
-111.4163858313104
 30
0.0
 41
0.9998138344508586
 10
4585.811347129803
 20
-110.6453394382243
 30
0.0
 41
1.0
 10
4589.616076077562
 20
-108.4029609439681
 30
0.0
 41
1.0
 10
4595.114915908774
 20
-105.5134461578637
 30
0.0
 41
1.0
 10
4602.09993282904
 20
-101.346826797987
 30
0.0
 41
1.0
 10
4605.196320397759
 20
-99.22512314824024
 30
0.0
 41
1.0
 10
4606.757325378518
 20
-98.04353867130021
 30
0.0
 41
1.0
 10
4606.785488776197
 20
-98.02218246745701
 30
0.0
 41
1.0
 10
4607.186013412138
 20
-97.71846606694469
 30
0.0
 41
0.9999286549312751
 10
4607.582051950411
 20
-97.4089226739693
 30
0.0
 41
0.9999286549312751
 10
4607.973519624832
 20
-97.09361854171476
 30
0.0
 41
1.0
 10
4608.364997144332
 20
-96.77830647982987
 30
0.0
 41
0.999978946787406
 10
4608.753956440077
 20
-96.45989320922497
 30
0.0
 41
0.999978946787406
 10
4609.140372945541
 20
-96.13839884076695
 30
0.0
 41
1.0
 10
4612.08632629
 20
-93.66815223455211
 30
0.0
 41
0.9966527515178769
 10
4614.770259557921
 20
-90.91546961271074
 30
0.0
 41
0.9966527515178769
 10
4617.165221374635
 20
-87.90799271342618
 30
0.0
 41
1.0
 10
4619.35304376043
 20
-85.1661792448407
 30
0.0
 41
0.9983040920895401
 10
4621.339854756506
 20
-82.27538828423407
 30
0.0
 41
0.9983040924938765
 10
4623.115547577438
 20
-79.2503254232779
 30
0.0
 41
1.000000001213008
 10
4624.465680043826
 20
-76.96368179556111
 30
0.0
 41
1.000000001213008
 10
4626.345004289029
 20
-73.39752055163535
 30
0.0
 41
1.000000001213008
 10
4628.278393807781
 20
-69.08406724141105
 30
0.0
 41
1.000000001213008
 10
4629.326932443493
 20
-66.53484084805905
 30
0.0
 41
1.000000001213008
 10
4629.827866568939
 20
-65.24417454423929
 30
0.0
 41
1.000000001213008
 10
4630.069604667052
 20
-64.60264537968305
 30
0.0
 41
1.000000001213008
 10
4631.010282850113
 20
-62.10772333951718
 30
0.0
 41
1.000000001213008
 10
4632.781714852911
 20
-56.77589725761254
 30
0.0
 41
1.000000001213008
 10
4635.240204237192
 20
-47.64945062915649
 30
0.0
 41
1.000000001213008
 10
4637.336837979201
 20
-38.96404581448814
 30
0.0
 41
1.000000001213008
 10
4640.556927696709
 20
-25.24926736488123
 30
0.0
 41
1.000000001213008
 10
4642.870961341617
 20
-15.26113334290221
 30
0.0
 41
1.000000001213008
 10
4644.731690575069
 20
-7.375805703708011
 30
0.0
 41
1.000000001213008
 10
4645.159513855452
 20
-5.559581182300582
 30
0.0
 41
0.9334771059304107
 10
4644.753782388585
 20
-3.738294206507511
 30
0.0
 41
0.9334771059304107
 10
4643.595467470017
 20
-2.275416624198656
 30
0.0
 41
1.000000001213008
 10
4642.437152551448
 20
-0.8125390418898001
 30
0.0
 41
0.9334771059304107
 10
4640.757417566996
 20
-0.0000154093686056
 30
0.0
 41
0.9334771059304107
 10
4638.891485019672
 20
-0.0000000000009077
 30
0.0
 41
1.000000001213008
 10
4541.419286483881
 20
-0.0000000000006051
 30
0.0
 41
1.000000001213008
 10
4443.947087948092
 20
-0.0000000000003026
 30
0.0
 41
1.000000001213008
 10
4346.474889412302
 20
0.0
 30
0.0
 41
1.000000001213008
  0
SPLINE
  5
64
330
1F
100
AcDbEntity
  8
EGD111 EGD011$2D
100
AcDbSpline
210
0.0
220
0.0
230
1.0
 70
    15
 71
     3
 72
   156
 73
   152
 74
     0
 42
0.000000001
 43
0.0000000001
 12
1.0
 22
0.0
 32
0.0
 13
1.0
 23
0.0
 33
0.0
 40
-278.2291845998429
 40
-278.2291845998429
 40
-278.2291845998429
 40
-278.2291845998429
 40
-10.81258899273504
 40
-10.81258899273504
 40
-10.81258899273504
 40
-5.406294496367522
 40
-5.406294496367522
 40
-5.406294496367522
 40
0.0
 40
0.0
 40
0.0
 40
24.30465800640423
 40
30.75804617930756
 40
42.26309976060177
 40
51.10892888179259
 40
59.10796416090201
 40
59.10796416090201
 40
59.10796416090201
 40
61.16460034610592
 40
63.26131438681617
 40
67.3766401174722
 40
75.34268675460332
 40
75.34268675460332
 40
75.34268675460332
 40
85.85691607560827
 40
85.85691607560827
 40
85.85691607560827
 40
97.3715216813545
 40
97.3715216813545
 40
97.3715216813545
 40
98.87951346674625
 40
98.87951346674625
 40
98.87951346674625
 40
100.387429407682
 40
100.387429407682
 40
100.387429407682
 40
100.4934592481718
 40
106.2605055268778
 40
111.6396659557007
 40
124.8873190421527
 40
124.8873190421527
 40
124.8873190421527
 40
129.4426165820179
 40
129.4426165820179
 40
129.4426165820179
 40
133.9982090172562
 40
133.9982090172562
 40
133.9982090172562
 40
137.3899179682356
 40
137.3899179682356
 40
137.3899179682356
 40
163.6584256967249
 40
163.6584256967249
 40
163.6584256967249
 40
177.402649963933
 40
177.402649963933
 40
177.402649963933
 40
177.4395641536711
 40
177.4395641536711
 40
177.4395641536711
 40
177.4764783434094
 40
177.4764783434094
 40
177.4764783434094
 40
177.4796855764528
 40
181.8441232471625
 40
186.6978473310806
 40
191.7962407670354
 40
198.395076407862
 40
198.395076407862
 40
198.395076407862
 40
198.8200843884563
 40
198.8200843884563
 40
198.8200843884563
 40
206.5054759044057
 40
206.5054759044057
 40
206.5054759044057
 40
543.4451083433511
 40
543.4451083433511
 40
543.4451083433511
 40
551.1304998593005
 40
551.1304998593005
 40
551.1304998593005
 40
551.5555078398947
 40
551.5555078398947
 40
551.5555078398947
 40
558.1543434807214
 40
563.2527369166761
 40
568.1064610005943
 40
572.470898671304
 40
572.4741059043474
 40
572.4741059043474
 40
572.4741059043474
 40
572.5110200940856
 40
572.5110200940856
 40
572.5110200940856
 40
572.5479342838238
 40
572.5479342838238
 40
572.5479342838238
 40
586.2921585510319
 40
586.2921585510319
 40
586.2921585510319
 40
612.5606662795212
 40
612.5606662795212
 40
612.5606662795212
 40
615.9523752305006
 40
615.9523752305006
 40
615.9523752305006
 40
620.5079676657388
 40
620.5079676657388
 40
620.5079676657388
 40
625.063265205604
 40
625.063265205604
 40
625.063265205604
 40
638.310918292056
 40
643.690078720879
 40
649.457124999585
 40
649.5631548400747
 40
649.5631548400747
 40
649.5631548400747
 40
651.0710707810106
 40
651.0710707810106
 40
651.0710707810106
 40
652.5790625664023
 40
652.5790625664023
 40
652.5790625664023
 40
664.0936681721485
 40
664.0936681721485
 40
664.0936681721485
 40
674.6078974931535
 40
674.6078974931535
 40
674.6078974931535
 40
682.5739441302845
 40
686.6892698609406
 40
688.7859839016509
 40
690.8426200868547
 40
690.8426200868547
 40
690.8426200868547
 40
698.8416553659641
 40
707.687484487155
 40
719.1925380684492
 40
725.6459262413525
 40
749.9505842477568
 40
749.9505842477568
 40
749.9505842477568
 40
755.3568787441243
 40
755.3568787441243
 40
755.3568787441243
 40
760.7631732404918
 40
760.7631732404918
 40
760.7631732404918
 40
1028.1797688476
 40
1028.1797688476
 40
1028.1797688476
 40
1028.1797688476
 10
3442.474889412303
 20
0.0
 30
0.0
 41
1.0
 10
3345.002690876513
 20
0.0
 30
0.0
 41
1.0
 10
3247.530492340723
 20
0.0
 30
0.0
 41
1.0
 10
3150.058293804934
 20
0.0
 30
0.0
 41
1.0
 10
3148.192361257609
 20
-0.0000154093697444
 30
0.0
 41
0.9334771047982491
 10
3146.512626273157
 20
-0.8125390418916342
 30
0.0
 41
0.9334771047982491
 10
3145.354311354591
 20
-2.27541662420007
 30
0.0
 41
1.0
 10
3144.195996436022
 20
-3.738294206508507
 30
0.0
 41
0.9334771047982491
 10
3143.790264969154
 20
-5.559581182300763
 30
0.0
 41
0.9334771047982491
 10
3144.218088249536
 20
-7.375805703708012
 30
0.0
 41
1.0
 10
3146.078817482989
 20
-15.26113334290221
 30
0.0
 41
1.0
 10
3148.392851127896
 20
-25.24926736488123
 30
0.0
 41
1.0
 10
3151.612940845404
 20
-38.96404581448814
 30
0.0
 41
1.0
 10
3153.709574587413
 20
-47.64945062915649
 30
0.0
 41
1.0
 10
3156.168063971694
 20
-56.77589725761254
 30
0.0
 41
1.0
 10
3157.939495974493
 20
-62.10772333951718
 30
0.0
 41
1.0
 10
3158.880174157553
 20
-64.60264537968305
 30
0.0
 41
1.0
 10
3159.121912255667
 20
-65.24417454423929
 30
0.0
 41
1.0
 10
3159.622846381112
 20
-66.53484084805905
 30
0.0
 41
1.0
 10
3160.671385016824
 20
-69.08406724141105
 30
0.0
 41
1.0
 10
3162.604774535576
 20
-73.39752055163535
 30
0.0
 41
1.0
 10
3164.484098780779
 20
-76.96368179556111
 30
0.0
 41
1.0
 10
3165.834231247167
 20
-79.2503254232779
 30
0.0
 41
1.0
 10
3167.609924492177
 20
-82.27538900669065
 30
0.0
 41
0.9983040908785891
 10
3169.596736011557
 20
-85.16618062327758
 30
0.0
 41
0.9983040908785887
 10
3171.784557449971
 20
-87.90799271342621
 30
0.0
 41
1.0
 10
3174.179519266685
 20
-90.91546961271041
 30
0.0
 41
0.9966527515178877
 10
3176.863452534606
 20
-93.6681522345517
 30
0.0
 41
0.9966527515178877
 10
3179.809405879064
 20
-96.13839884076702
 30
0.0
 41
1.0
 10
3180.195822384527
 20
-96.45989320922465
 30
0.0
 41
0.9999789467874113
 10
3180.584781680273
 20
-96.77830647982945
 30
0.0
 41
0.9999789467874113
 10
3180.976259199773
 20
-97.09361854171463
 30
0.0
 41
1.0
 10
3181.367726874195
 20
-97.4089226739693
 30
0.0
 41
0.9999286549312751
 10
3181.76376541247
 20
-97.71846606694469
 30
0.0
 41
0.9999286549312751
 10
3182.164290048408
 20
-98.02218246745701
 30
0.0
 41
1.0
 10
3182.192453446087
 20
-98.04353867130021
 30
0.0
 41
1.0
 10
3183.753458426846
 20
-99.22512314824024
 30
0.0
 41
1.0
 10
3186.849845995565
 20
-101.346826797987
 30
0.0
 41
1.0
 10
3193.834862915832
 20
-105.5134461578637
 30
0.0
 41
1.0
 10
3199.333702747044
 20
-108.4029609439681
 30
0.0
 41
1.0
 10
3203.138431694802
 20
-110.6453394382243
 30
0.0
 41
1.0
 10
3204.446695459975
 20
-111.4163858313104
 30
0.0
 41
0.9998138344508586
 10
3205.736373386989
 20
-112.2181323399604
 30
0.0
 41
0.9998138344508586
 10
3207.006745195045
 20
-113.0501311914372
 30
0.0
 41
1.0
 10
3208.277158126128
 20
-113.8821569754343
 30
0.0
 41
0.9998785502357185
 10
3209.531458688769
 20
-114.7382796414486
 30
0.0
 41
0.9998785502357185
 10
3210.769189879444
 20
-115.6181872617924
 30
0.0
 41
1.0
 10
3211.690720707309
 20
-116.2733068902942
 30
0.0
 41
0.9999649896283402
 10
3212.60132977667
 20
-116.9434724516703
 30
0.0
 41
1.000020110766957
 10
3213.500772954227
 20
-117.628500464928
 30
0.0
 41
1.000165363415852
 10
3219.67084762521
 20
-122.3306879091049
 30
0.0
 41
1.000165363415852
 10
3225.332976744897
 20
-127.7760550463059
 30
0.0
 41
1.000165363415852
 10
3229.730280302723
 20
-133.9510150738897
 30
0.0
 41
1.000165363415852
 10
3232.392571533383
 20
-137.6895656913128
 30
0.0
 41
0.9965940857424046
 10
3234.654185321639
 20
-141.6832680323307
 30
0.0
 41
0.9965940857424046
 10
3236.490895121191
 20
-145.8893413113059
 30
0.0
 41
1.000165363415852
 10
3236.496401242281
 20
-145.9019503520986
 30
0.0
 41
0.8056752599019498
 10
3236.491400597865
 20
-145.9147682627948
 30
0.0
 41
0.8056752599019498
 10
3236.478810433091
 20
-145.9203174095869
 30
0.0
 41
1.000165363415852
 10
3236.466220268317
 20
-145.925866556379
 30
0.0
 41
0.8056752599019498
 10
3236.453385355975
 20
-145.9209097121841
 30
0.0
 41
0.8056752599019498
 10
3236.447793248191
 20
-145.9083385702436
 30
0.0
 41
1.000165363415852
 10
3236.445715830474
 20
-145.9036685041447
 30
0.0
 41
1.000165363415852
 10
3237.026051636517
 20
-147.2384173505911
 30
0.0
 41
1.000165363415852
 10
3238.18313796129
 20
-150.0872531489927
 30
0.0
 41
1.000165363415852
 10
3239.800574999193
 20
-154.5775715245441
 30
0.0
 41
1.000165363415852
 10
3241.510554231535
 20
-159.8235037103846
 30
0.0
 41
1.000165363415852
 10
3242.618578580646
 20
-163.5620833007661
 30
0.0
 41
1.000165363415852
 10
3243.238472078161
 20
-165.6738775856313
 30
0.0
 41
1.000165363415852
 10
3243.24428426212
 20
-165.6874674318452
 30
0.0
 41
1.000165363415852
 10
3243.250096446079
 20
-165.701057278059
 30
0.0
 41
1.000165363415852
 10
3243.255908630038
 20
-165.7146471242729
 30
0.0
 41
1.000165363415852
 10
3244.042781339183
 20
-168.3539645535067
 30
0.0
 41
0.8680045535299571
 10
3246.250955340413
 20
-169.9999088821345
 30
0.0
 41
0.8680045535299571
 10
3249.005073192712
 20
-170.0000000000003
 30
0.0
 41
1.000165363415852
 10
3377.984950672439
 20
-170.0000000000003
 30
0.0
 41
1.000165363415852
 10
3506.964828152166
 20
-170.0000000000002
 30
0.0
 41
1.000165363415852
 10
3635.944705631893
 20
-170.0000000000002
 30
0.0
 41
1.000165363415852
 10
3638.698823484192
 20
-169.9999088821348
 30
0.0
 41
0.8680045535298769
 10
3640.906997485423
 20
-168.353964553507
 30
0.0
 41
0.8680045535298769
 10
3641.693870194567
 20
-165.7146471242729
 30
0.0
 41
1.000165363415852
 10
3641.699682378527
 20
-165.701057278059
 30
0.0
 41
1.000165363415852
 10
3641.705494562485
 20
-165.6874674318452
 30
0.0
 41
1.000165363415852
 10
3641.711306746445
 20
-165.6738775856313
 30
0.0
 41
1.000165363415852
 10
3642.331200243959
 20
-163.5620833007661
 30
0.0
 41
1.000165363415852
 10
3643.439224593071
 20
-159.8235037103846
 30
0.0
 41
1.000165363415852
 10
3645.149203825412
 20
-154.5775715245441
 30
0.0
 41
1.000165363415852
 10
3646.766640863315
 20
-150.0872531489927
 30
0.0
 41
1.000165363415852
 10
3647.923727188087
 20
-147.2384173505911
 30
0.0
 41
1.000165363415852
 10
3648.504062994131
 20
-145.9036685041447
 30
0.0
 41
1.000165363415852
 10
3648.501985576414
 20
-145.9083385702436
 30
0.0
 41
1.000165363415852
 10
3648.496393468628
 20
-145.9209097121841
 30
0.0
 41
0.8056752599019498
 10
3648.483558556287
 20
-145.925866556379
 30
0.0
 41
0.8056752599019498
 10
3648.470968391514
 20
-145.9203174095869
 30
0.0
 41
1.000165363415852
 10
3648.458378226737
 20
-145.9147682627948
 30
0.0
 41
0.8056752599019498
 10
3648.453377582323
 20
-145.9019503520986
 30
0.0
 41
0.8056752599019498
 10
3648.458883703415
 20
-145.8893413113059
 30
0.0
 41
1.000165363415852
 10
3650.295593502967
 20
-141.6832680323307
 30
0.0
 41
0.9965940857424046
 10
3652.557207291223
 20
-137.6895656913128
 30
0.0
 41
0.9965940857424046
 10
3655.219498521882
 20
-133.9510150738897
 30
0.0
 41
1.000165363415852
 10
3659.616802079709
 20
-127.7760550463059
 30
0.0
 41
1.000165363415852
 10
3665.278931199395
 20
-122.3306879091049
 30
0.0
 41
1.000165363415852
 10
3671.449005870378
 20
-117.628500464928
 30
0.0
 41
1.000165363415852
 10
3672.348449047935
 20
-116.9434724516703
 30
0.0
 41
1.000020110766957
 10
3673.259058117298
 20
-116.2733068902942
 30
0.0
 41
0.9999649896283402
 10
3674.180588945161
 20
-115.6181872617924
 30
0.0
 41
1.0
 10
3675.418320135833
 20
-114.7382796414486
 30
0.0
 41
0.9998785502357185
 10
3676.672620698474
 20
-113.8821569754343
 30
0.0
 41
0.9998785502357185
 10
3677.94303362956
 20
-113.0501311914374
 30
0.0
 41
1.0
 10
3679.213405437614
 20
-112.2181323399604
 30
0.0
 41
0.9998138344508586
 10
3680.503083364626
 20
-111.4163858313104
 30
0.0
 41
0.9998138344508586
 10
3681.811347129803
 20
-110.6453394382243
 30
0.0
 41
1.0
 10
3685.616076077562
 20
-108.4029609439681
 30
0.0
 41
1.0
 10
3691.114915908774
 20
-105.5134461578637
 30
0.0
 41
1.0
 10
3698.09993282904
 20
-101.346826797987
 30
0.0
 41
1.0
 10
3701.196320397759
 20
-99.22512314824024
 30
0.0
 41
1.0
 10
3702.757325378518
 20
-98.04353867130021
 30
0.0
 41
1.0
 10
3702.785488776197
 20
-98.02218246745701
 30
0.0
 41
1.0
 10
3703.186013412135
 20
-97.71846606694469
 30
0.0
 41
0.9999286549312751
 10
3703.582051950411
 20
-97.4089226739693
 30
0.0
 41
0.9999286549312751
 10
3703.973519624833
 20
-97.09361854171476
 30
0.0
 41
1.0
 10
3704.364997144333
 20
-96.77830647982928
 30
0.0
 41
0.999978946787414
 10
3704.753956440079
 20
-96.45989320922442
 30
0.0
 41
0.999978946787414
 10
3705.140372945541
 20
-96.13839884076697
 30
0.0
 41
1.0
 10
3708.08632629
 20
-93.66815223455224
 30
0.0
 41
0.9966527515178732
 10
3710.770259557922
 20
-90.91546961271091
 30
0.0
 41
0.9966527515178732
 10
3713.165221374635
 20
-87.90799271342621
 30
0.0
 41
1.0
 10
3715.353042813046
 20
-85.16618062327758
 30
0.0
 41
0.9983040908785887
 10
3717.339854332429
 20
-82.27538900669065
 30
0.0
 41
0.9983040908785891
 10
3719.115547577438
 20
-79.2503254232779
 30
0.0
 41
1.0
 10
3720.465680043826
 20
-76.96368179556111
 30
0.0
 41
1.0
 10
3722.345004289029
 20
-73.39752055163535
 30
0.0
 41
1.0
 10
3724.278393807781
 20
-69.08406724141105
 30
0.0
 41
1.0
 10
3725.326932443493
 20
-66.53484084805905
 30
0.0
 41
1.0
 10
3725.827866568939
 20
-65.24417454423929
 30
0.0
 41
1.0
 10
3726.069604667052
 20
-64.60264537968305
 30
0.0
 41
1.0
 10
3727.010282850113
 20
-62.10772333951718
 30
0.0
 41
1.0
 10
3728.781714852911
 20
-56.77589725761254
 30
0.0
 41
1.0
 10
3731.240204237192
 20
-47.64945062915649
 30
0.0
 41
1.0
 10
3733.336837979201
 20
-38.96404581448814
 30
0.0
 41
1.0
 10
3736.556927696709
 20
-25.24926736488123
 30
0.0
 41
1.0
 10
3738.870961341617
 20
-15.26113334290221
 30
0.0
 41
1.0
 10
3740.731690575069
 20
-7.375805703708011
 30
0.0
 41
1.0
 10
3741.159513855454
 20
-5.5595811823006
 30
0.0
 41
0.933477104798154
 10
3740.753782388585
 20
-3.73829420650772
 30
0.0
 41
0.933477104798154
 10
3739.595467470017
 20
-2.275416624198912
 30
0.0
 41
1.0
 10
3738.437152551448
 20
-0.812539041890104
 30
0.0
 41
0.933477104798154
 10
3736.757417566996
 20
-0.0000154093685446
 30
0.0
 41
0.933477104798154
 10
3734.891485019672
 20
0.0000000000000018
 30
0.0
 41
1.0
 10
3637.419286483882
 20
0.0000000000000012
 30
0.0
 41
1.0
 10
3539.947087948092
 20
0.0000000000000006
 30
0.0
 41
1.0
 10
3442.474889412303
 20
0.0
 30
0.0
 41
1.0
  0
SPLINE
  5
65
330
1F
100
AcDbEntity
  8
EGD111 EGD011$2D
100
AcDbSpline
210
0.0
220
0.0
230
1.0
 70
    15
 71
     3
 72
   156
 73
   152
 74
     0
 42
0.000000001
 43
0.0000000001
 12
1.0
 22
0.0
 32
0.0
 13
1.0
 23
0.0
 33
0.0
 40
-278.2291845998429
 40
-278.2291845998429
 40
-278.2291845998429
 40
-278.2291845998429
 40
-10.81258899273504
 40
-10.81258899273504
 40
-10.81258899273504
 40
-5.406294496367522
 40
-5.406294496367522
 40
-5.406294496367522
 40
0.0
 40
0.0
 40
0.0
 40
24.30465385209956
 40
30.75804246055702
 40
42.26309681835399
 40
51.10892653657034
 40
59.10796235555321
 40
59.10796235555321
 40
59.10796235555321
 40
61.16459867956426
 40
63.26131286178661
 40
67.37663887019552
 40
75.34268604497359
 40
75.34268604497359
 40
75.34268604497359
 40
85.85691607560827
 40
85.85691607560827
 40
85.85691607560827
 40
97.3715216813545
 40
97.3715216813545
 40
97.3715216813545
 40
98.87951346674625
 40
98.87951346674625
 40
98.87951346674625
 40
100.387429407682
 40
100.387429407682
 40
100.387429407682
 40
100.4934592481718
 40
106.2605055268778
 40
111.6396659557007
 40
124.8873190421527
 40
124.8873190421527
 40
124.8873190421527
 40
129.4426165820179
 40
129.4426165820179
 40
129.4426165820179
 40
133.9982090172562
 40
133.9982090172562
 40
133.9982090172562
 40
137.3899179682356
 40
137.3899179682356
 40
137.3899179682356
 40
163.6584256967249
 40
163.6584256967249
 40
163.6584256967249
 40
177.402649963933
 40
177.402649963933
 40
177.402649963933
 40
177.4395641536711
 40
177.4395641536711
 40
177.4395641536711
 40
177.4764783434094
 40
177.4764783434094
 40
177.4764783434094
 40
177.4796855764528
 40
181.8441232471625
 40
186.6978473310806
 40
191.7962407670354
 40
198.395076407862
 40
198.395076407862
 40
198.395076407862
 40
198.8200843884563
 40
198.8200843884563
 40
198.8200843884563
 40
206.5054759044057
 40
206.5054759044057
 40
206.5054759044057
 40
543.4451083433511
 40
543.4451083433511
 40
543.4451083433511
 40
551.1304998593005
 40
551.1304998593005
 40
551.1304998593005
 40
551.5555078398947
 40
551.5555078398947
 40
551.5555078398947
 40
558.1543434807214
 40
563.2527369166761
 40
568.1064610005943
 40
572.470898671304
 40
572.4741059043474
 40
572.4741059043474
 40
572.4741059043474
 40
572.5110200940856
 40
572.5110200940856
 40
572.5110200940856
 40
572.5479342838238
 40
572.5479342838238
 40
572.5479342838238
 40
586.2921585510319
 40
586.2921585510319
 40
586.2921585510319
 40
612.5606662795212
 40
612.5606662795212
 40
612.5606662795212
 40
615.9523752305006
 40
615.9523752305006
 40
615.9523752305006
 40
620.5079676657388
 40
620.5079676657388
 40
620.5079676657388
 40
625.063265205604
 40
625.063265205604
 40
625.063265205604
 40
638.310918292056
 40
643.690078720879
 40
649.457124999585
 40
649.5631548400747
 40
649.5631548400747
 40
649.5631548400747
 40
651.0710707810106
 40
651.0710707810106
 40
651.0710707810106
 40
652.5790625664023
 40
652.5790625664023
 40
652.5790625664023
 40
664.0936681721485
 40
664.0936681721485
 40
664.0936681721485
 40
674.6078974931535
 40
674.6078974931535
 40
674.6078974931535
 40
682.5739441302845
 40
686.6892698609406
 40
688.7859839016509
 40
690.8426200868547
 40
690.8426200868547
 40
690.8426200868547
 40
698.8416553659641
 40
707.687484487155
 40
719.1925380684492
 40
725.6459262413525
 40
749.9505842477568
 40
749.9505842477568
 40
749.9505842477568
 40
755.3568787441243
 40
755.3568787441243
 40
755.3568787441243
 40
760.7631732404918
 40
760.7631732404918
 40
760.7631732404918
 40
1028.1797688476
 40
1028.1797688476
 40
1028.1797688476
 40
1028.1797688476
 10
2577.474889412303
 20
0.0
 30
0.0
 41
1.0
 10
2480.002690876513
 20
0.0
 30
0.0
 41
1.0
 10
2382.530492340723
 20
0.0
 30
0.0
 41
1.0
 10
2285.058293804934
 20
0.0
 30
0.0
 41
1.0
 10
2283.192361257611
 20
-0.0000154093698134
 30
0.0
 41
0.9334771047982361
 10
2281.512626273159
 20
-0.8125390418917471
 30
0.0
 41
0.9334771047982361
 10
2280.354311354591
 20
-2.275416624200162
 30
0.0
 41
1.0
 10
2279.195996436023
 20
-3.738294206508576
 30
0.0
 41
0.9334771047982361
 10
2278.790264969154
 20
-5.55958118230081
 30
0.0
 41
0.9334771047982361
 10
2279.218088249536
 20
-7.375805703707967
 30
0.0
 41
1.0
 10
2281.078818354897
 20
-15.26113710634417
 30
0.0
 41
1.0
 10
2283.392851569402
 20
-25.24926924531075
 30
0.0
 41
1.0
 10
2286.612940845404
 20
-38.96404581448814
 30
0.0
 41
1.0
 10
2288.709574587413
 20
-47.64945062915649
 30
0.0
 41
1.0
 10
2291.168063971694
 20
-56.77589725761254
 30
0.0
 41
1.0
 10
2292.939495974493
 20
-62.10772333951718
 30
0.0
 41
1.0
 10
2293.880174157553
 20
-64.60264537968305
 30
0.0
 41
1.0
 10
2294.121912255667
 20
-65.24417454423929
 30
0.0
 41
1.0
 10
2294.622846381112
 20
-66.53484084805905
 30
0.0
 41
1.0
 10
2295.671385016824
 20
-69.08406724141105
 30
0.0
 41
1.0
 10
2297.604774535576
 20
-73.39752055163535
 30
0.0
 41
1.0
 10
2299.484098780779
 20
-76.96368179556111
 30
0.0
 41
1.0
 10
2300.834231247167
 20
-79.2503254232779
 30
0.0
 41
1.0
 10
2302.609924492177
 20
-82.27538900669065
 30
0.0
 41
0.9983040908785891
 10
2304.596736011558
 20
-85.16618062327758
 30
0.0
 41
0.9983040908785887
 10
2306.784557449971
 20
-87.90799271342621
 30
0.0
 41
1.0
 10
2309.179519266683
 20
-90.91546961271135
 30
0.0
 41
0.9966527515178615
 10
2311.863452534605
 20
-93.66815223455268
 30
0.0
 41
0.9966527515178615
 10
2314.809405879064
 20
-96.13839884076695
 30
0.0
 41
1.0
 10
2315.195822384527
 20
-96.45989320922443
 30
0.0
 41
0.9999789467874146
 10
2315.584781680272
 20
-96.77830647982923
 30
0.0
 41
0.9999789467874146
 10
2315.976259199773
 20
-97.09361854171463
 30
0.0
 41
1.0
 10
2316.367726874194
 20
-97.4089226739693
 30
0.0
 41
0.9999286549312751
 10
2316.76376541247
 20
-97.71846606694469
 30
0.0
 41
0.9999286549312751
 10
2317.164290048408
 20
-98.02218246745701
 30
0.0
 41
1.0
 10
2317.192453446087
 20
-98.04353867130021
 30
0.0
 41
1.0
 10
2318.753458426846
 20
-99.22512314824024
 30
0.0
 41
1.0
 10
2321.849845995565
 20
-101.346826797987
 30
0.0
 41
1.0
 10
2328.834862915832
 20
-105.5134461578637
 30
0.0
 41
1.0
 10
2334.333702747044
 20
-108.4029609439681
 30
0.0
 41
1.0
 10
2338.138431694802
 20
-110.6453394382243
 30
0.0
 41
1.0
 10
2339.446695459975
 20
-111.4163858313104
 30
0.0
 41
0.9998138344508586
 10
2340.736373386988
 20
-112.2181323399604
 30
0.0
 41
0.9998138344508586
 10
2342.006745195045
 20
-113.0501311914372
 30
0.0
 41
1.0
 10
2343.27715812613
 20
-113.8821569754343
 30
0.0
 41
0.9998785502357185
 10
2344.531458688771
 20
-114.7382796414486
 30
0.0
 41
0.9998785502357185
 10
2345.769189879444
 20
-115.6181872617924
 30
0.0
 41
1.0
 10
2346.690720707308
 20
-116.2733068902942
 30
0.0
 41
0.9999649896283402
 10
2347.60132977667
 20
-116.9434724516703
 30
0.0
 41
1.000020110766957
 10
2348.500772954226
 20
-117.628500464928
 30
0.0
 41
1.000165363415852
 10
2354.67084762521
 20
-122.3306879091049
 30
0.0
 41
1.000165363415852
 10
2360.332976744897
 20
-127.7760550463059
 30
0.0
 41
1.000165363415852
 10
2364.730280302723
 20
-133.9510150738897
 30
0.0
 41
1.000165363415852
 10
2367.392571533383
 20
-137.6895656913128
 30
0.0
 41
0.9965940857424046
 10
2369.654185321639
 20
-141.6832680323307
 30
0.0
 41
0.9965940857424046
 10
2371.490895121191
 20
-145.8893413113059
 30
0.0
 41
1.000165363415852
 10
2371.496401242281
 20
-145.9019503520986
 30
0.0
 41
0.8056752599019498
 10
2371.491400597866
 20
-145.9147682627948
 30
0.0
 41
0.8056752599019498
 10
2371.478810433091
 20
-145.9203174095869
 30
0.0
 41
1.000165363415852
 10
2371.466220268317
 20
-145.925866556379
 30
0.0
 41
0.8056752599019498
 10
2371.453385355976
 20
-145.9209097121841
 30
0.0
 41
0.8056752599019498
 10
2371.447793248191
 20
-145.9083385702436
 30
0.0
 41
1.000165363415852
 10
2371.445715830474
 20
-145.9036685041447
 30
0.0
 41
1.000165363415852
 10
2372.026051636517
 20
-147.2384173505911
 30
0.0
 41
1.000165363415852
 10
2373.18313796129
 20
-150.0872531489927
 30
0.0
 41
1.000165363415852
 10
2374.800574999193
 20
-154.5775715245441
 30
0.0
 41
1.000165363415852
 10
2376.510554231535
 20
-159.8235037103846
 30
0.0
 41
1.000165363415852
 10
2377.618578580646
 20
-163.5620833007661
 30
0.0
 41
1.000165363415852
 10
2378.238472078161
 20
-165.6738775856313
 30
0.0
 41
1.000165363415852
 10
2378.24428426212
 20
-165.6874674318452
 30
0.0
 41
1.000165363415852
 10
2378.250096446079
 20
-165.701057278059
 30
0.0
 41
1.000165363415852
 10
2378.255908630038
 20
-165.7146471242729
 30
0.0
 41
1.000165363415852
 10
2379.042781339183
 20
-168.3539645535067
 30
0.0
 41
0.868004553529958
 10
2381.250955340413
 20
-169.9999088821344
 30
0.0
 41
0.868004553529958
 10
2384.005073192712
 20
-170.0000000000003
 30
0.0
 41
1.000165363415852
 10
2512.984950672439
 20
-170.0000000000002
 30
0.0
 41
1.000165363415852
 10
2641.964828152166
 20
-170.0000000000002
 30
0.0
 41
1.000165363415852
 10
2770.944705631893
 20
-170.0000000000002
 30
0.0
 41
1.000165363415852
 10
2773.698823484192
 20
-169.9999088821345
 30
0.0
 41
0.8680045535299286
 10
2775.906997485424
 20
-168.3539645535068
 30
0.0
 41
0.8680045535299286
 10
2776.693870194567
 20
-165.7146471242729
 30
0.0
 41
1.000165363415852
 10
2776.699682378526
 20
-165.701057278059
 30
0.0
 41
1.000165363415852
 10
2776.705494562485
 20
-165.6874674318452
 30
0.0
 41
1.000165363415852
 10
2776.711306746444
 20
-165.6738775856313
 30
0.0
 41
1.000165363415852
 10
2777.331200243959
 20
-163.5620833007661
 30
0.0
 41
1.000165363415852
 10
2778.439224593071
 20
-159.8235037103846
 30
0.0
 41
1.000165363415852
 10
2780.149203825412
 20
-154.5775715245441
 30
0.0
 41
1.000165363415852
 10
2781.766640863315
 20
-150.0872531489927
 30
0.0
 41
1.000165363415852
 10
2782.923727188088
 20
-147.2384173505911
 30
0.0
 41
1.000165363415852
 10
2783.504062994131
 20
-145.9036685041447
 30
0.0
 41
1.000165363415852
 10
2783.501985576414
 20
-145.9083385702436
 30
0.0
 41
1.000165363415852
 10
2783.496393468629
 20
-145.9209097121841
 30
0.0
 41
0.8056752599019498
 10
2783.483558556287
 20
-145.925866556379
 30
0.0
 41
0.8056752599019498
 10
2783.470968391514
 20
-145.9203174095869
 30
0.0
 41
1.000165363415852
 10
2783.458378226739
 20
-145.9147682627948
 30
0.0
 41
0.8056752599019498
 10
2783.453377582325
 20
-145.9019503520986
 30
0.0
 41
0.8056752599019498
 10
2783.458883703415
 20
-145.8893413113059
 30
0.0
 41
1.000165363415852
 10
2785.295593502967
 20
-141.6832680323307
 30
0.0
 41
0.9965940857424046
 10
2787.557207291223
 20
-137.6895656913128
 30
0.0
 41
0.9965940857424046
 10
2790.219498521882
 20
-133.9510150738897
 30
0.0
 41
1.000165363415852
 10
2794.616802079709
 20
-127.7760550463059
 30
0.0
 41
1.000165363415852
 10
2800.278931199395
 20
-122.3306879091049
 30
0.0
 41
1.000165363415852
 10
2806.449005870378
 20
-117.628500464928
 30
0.0
 41
1.000165363415852
 10
2807.348449047935
 20
-116.9434724516703
 30
0.0
 41
1.000020110766957
 10
2808.259058117297
 20
-116.2733068902942
 30
0.0
 41
0.9999649896283402
 10
2809.180588945161
 20
-115.6181872617924
 30
0.0
 41
1.0
 10
2810.418320135832
 20
-114.7382796414486
 30
0.0
 41
0.9998785502357185
 10
2811.672620698473
 20
-113.8821569754343
 30
0.0
 41
0.9998785502357185
 10
2812.94303362956
 20
-113.0501311914374
 30
0.0
 41
1.0
 10
2814.213405437613
 20
-112.2181323399604
 30
0.0
 41
0.9998138344508586
 10
2815.503083364626
 20
-111.4163858313104
 30
0.0
 41
0.9998138344508586
 10
2816.811347129803
 20
-110.6453394382243
 30
0.0
 41
1.0
 10
2820.616076077562
 20
-108.4029609439681
 30
0.0
 41
1.0
 10
2826.114915908774
 20
-105.5134461578637
 30
0.0
 41
1.0
 10
2833.09993282904
 20
-101.346826797987
 30
0.0
 41
1.0
 10
2836.196320397759
 20
-99.22512314824024
 30
0.0
 41
1.0
 10
2837.757325378518
 20
-98.04353867130021
 30
0.0
 41
1.0
 10
2837.785488776197
 20
-98.02218246745701
 30
0.0
 41
1.0
 10
2838.186013412136
 20
-97.71846606694469
 30
0.0
 41
0.9999286549312751
 10
2838.58205195041
 20
-97.4089226739693
 30
0.0
 41
0.9999286549312751
 10
2838.973519624833
 20
-97.09361854171476
 30
0.0
 41
1.0
 10
2839.364997144332
 20
-96.77830647982887
 30
0.0
 41
0.999978946787421
 10
2839.753956440078
 20
-96.45989320922396
 30
0.0
 41
0.999978946787421
 10
2840.140372945541
 20
-96.13839884076697
 30
0.0
 41
1.0
 10
2843.08632629
 20
-93.66815223455205
 30
0.0
 41
0.9966527515178777
 10
2845.770259557922
 20
-90.91546961271075
 30
0.0
 41
0.9966527515178777
 10
2848.165221374635
 20
-87.90799271342624
 30
0.0
 41
1.0
 10
2850.353042813046
 20
-85.16618062327758
 30
0.0
 41
0.9983040908785887
 10
2852.339854332429
 20
-82.27538900669065
 30
0.0
 41
0.9983040908785891
 10
2854.115547577438
 20
-79.2503254232779
 30
0.0
 41
1.0
 10
2855.465680043826
 20
-76.96368179556111
 30
0.0
 41
1.0
 10
2857.345004289029
 20
-73.39752055163535
 30
0.0
 41
1.0
 10
2859.278393807781
 20
-69.08406724141105
 30
0.0
 41
1.0
 10
2860.326932443493
 20
-66.53484084805905
 30
0.0
 41
1.0
 10
2860.827866568939
 20
-65.24417454423929
 30
0.0
 41
1.0
 10
2861.069604667052
 20
-64.60264537968305
 30
0.0
 41
1.0
 10
2862.010282850113
 20
-62.10772333951718
 30
0.0
 41
1.0
 10
2863.781714852911
 20
-56.77589725761254
 30
0.0
 41
1.0
 10
2866.240204237192
 20
-47.64945062915649
 30
0.0
 41
1.0
 10
2868.336837979201
 20
-38.96404581448814
 30
0.0
 41
1.0
 10
2871.556927696709
 20
-25.24926736488123
 30
0.0
 41
1.0
 10
2873.870961341617
 20
-15.26113334290221
 30
0.0
 41
1.0
 10
2875.731690575069
 20
-7.375805703708011
 30
0.0
 41
1.0
 10
2876.159513855454
 20
-5.5595811823006
 30
0.0
 41
0.933477104798154
 10
2875.753782388585
 20
-3.73829420650772
 30
0.0
 41
0.933477104798154
 10
2874.595467470017
 20
-2.275416624198912
 30
0.0
 41
1.0
 10
2873.437152551448
 20
-0.812539041890104
 30
0.0
 41
0.933477104798154
 10
2871.757417566996
 20
-0.0000154093685446
 30
0.0
 41
0.933477104798154
 10
2869.891485019672
 20
0.0000000000000018
 30
0.0
 41
1.0
 10
2772.419286483882
 20
0.0000000000000012
 30
0.0
 41
1.0
 10
2674.947087948092
 20
0.0000000000000006
 30
0.0
 41
1.0
 10
2577.474889412303
 20
0.0
 30
0.0
 41
1.0
  0
ARC
  5
66
330
1F
100
AcDbEntity
  8
EGD111 EGD011$2D
100
AcDbCircle
 10
2601.475666524645
 20
-242.0000036083655
 30
0.0
 40
1.000001928939211
100
AcDbArc
 50
0.0002067437309533
 51
75.8741179310105
  0
ARC
  5
67
330
1F
100
AcDbEntity
  8
EGD111 EGD011$2D
100
AcDbCircle
 10
2553.475652676429
 20
-242.000000097404
 30
0.0
 40
1.000000052070395
100
AcDbArc
 50
104.1258676654177
 51
179.9999944191729
  0
ARC
  5
68
330
1F
100
AcDbEntity
  8
EGD111 EGD011$2D
100
AcDbCircle
 10
2553.475660090343
 20
-242.0000000000007
 30
0.0
 40
1.000000000000201
100
AcDbArc
 50
93.44037905793489
 51
104.1262809670103
  0
ARC
  5
69
330
1F
100
AcDbEntity
  8
EGD111 EGD011$2D
100
AcDbCircle
 10
2601.475660090422
 20
-241.9999999990108
 30
0.0
 40
0.9999999990073749
100
AcDbArc
 50
84.84476693151724
 51
86.55874263826006
  0
LINE
  5
6A
330
1F
100
AcDbEntity
  8
EGD111 EGD011$2D
100
AcDbLine
 10
2552.475660090342
 20
-375.0
 30
0.0
 11
2552.475660090342
 21
-242.0000000000002
 31
0.0
  0
LINE
  5
6B
330
1F
100
AcDbEntity
  8
EGD111 EGD011$2D
100
AcDbLine
 10
2601.574965106763
 20
-375.9950578449889
 30
0.0
 11
2601.475660090342
 21
-376.0
 31
0.0
  0
ARC
  5
6C
330
1F
100
AcDbEntity
  8
EGD111 EGD011$2D
100
AcDbCircle
 10
2601.939625194493
 20
-377.7876917310548
 30
0.0
 40
1.826884320283238
100
AcDbArc
 50
100.3150776133579
 51
101.4967293216872
  0
ARC
  5
6D
330
1F
100
AcDbEntity
  8
EGD111 EGD011$2D
100
AcDbCircle
 10
2601.4756772702
 20
-375.0000076426594
 30
0.0
 40
0.9999911834071205
100
AcDbArc
 50
277.8662477182614
 51
0.0004378959885042
  0
LINE
  5
6E
330
1F
100
AcDbEntity
  8
EGD111 EGD011$2D
100
AcDbLine
 10
2599.790887079985
 20
-375.9999999999998
 30
0.0
 11
2601.475668119053
 21
-375.9999999999998
 31
0.0
  0
LINE
  5
6F
330
1F
100
AcDbEntity
  8
EGD111 EGD011$2D
100
AcDbLine
 10
2553.481978504973
 20
-376.0
 30
0.0
 11
2555.160471311263
 21
-375.9999999999998
 31
0.0
  0
ARC
  5
70
330
1F
100
AcDbEntity
  8
EGD111 EGD011$2D
100
AcDbCircle
 10
2553.475654346449
 20
-374.9999967787099
 30
0.0
 40
1.000001722095576
100
AcDbArc
 50
180.0001845660071
 51
255.8745338617453
  0
ARC
  5
71
330
1F
100
AcDbEntity
  8
EGD111 EGD011$2D
100
AcDbCircle
 10
2553.475660090336
 20
-375.0000000000499
 30
0.0
 40
0.9999999999501483
100
AcDbArc
 50
255.8741696687048
 51
270.0000000003648
  0
LINE
  5
72
330
1F
100
AcDbEntity
  8
EGD111 EGD011$2D
100
AcDbLine
 10
2553.372670969463
 20
-226.0053166826478
 30
0.0
 11
2553.475660090342
 21
-226.0
 31
0.0
  0
SPLINE
  5
73
330
1F
100
AcDbEntity
  8
EGD111 EGD011$2D
100
AcDbSpline
210
0.0
220
0.0
230
1.0
 70
     8
 71
     3
 72
    11
 73
     7
 74
     0
 42
0.000000001
 43
0.0000000001
 12
1.0
 22
0.0
 32
0.0
 13
1.0
 23
0.0
 33
0.0
 40
1.713041351310027
 40
1.713041351310027
 40
1.713041351310027
 40
1.713041351310027
 40
1.73293854237078
 40
1.73293854237078
 40
1.73293854237078
 40
1.814324594829131
 40
1.814324594829131
 40
1.814324594829131
 40
1.814324594829131
 10
2553.338816912382
 20
-226.0096666670174
 30
0.0
 10
2553.332758882115
 20
-226.0104728952751
 30
0.0
 10
2553.329427889856
 20
-226.0108766516796
 30
0.0
 10
2553.334474071628
 20
-226.0100335387856
 30
0.0
 10
2553.347073087318
 20
-226.0078139262108
 30
0.0
 10
2553.359672103009
 20
-226.005594313636
 30
0.0
 10
2553.372271118699
 20
-226.0033747010611
 30
0.0
  0
ARC
  5
74
330
1F
100
AcDbEntity
  8
EGD111 EGD011$2D
100
AcDbCircle
 10
2553.475642910384
 20
-226.9999923572636
 30
0.0
 40
0.9999911833093504
100
AcDbArc
 50
97.8663052173561
 51
180.0004379003984
  0
LINE
  5
75
330
1F
100
AcDbEntity
  8
EGD111 EGD011$2D
100
AcDbLine
 10
2555.160471311258
 20
-226.0000000000002
 30
0.0
 11
2553.481978505477
 21
-226.0000000000002
 31
0.0
  0
LINE
  5
76
330
1F
100
AcDbEntity
  8
EGD111 EGD011$2D
100
AcDbLine
 10
2601.475660090341
 20
-226.0
 30
0.0
 11
2599.790887079744
 21
-225.9999999999998
 31
0.0
  0
LINE
  5
77
330
1F
100
AcDbEntity
  8
EGD111 EGD011$2D
100
AcDbLine
 10
2601.578647126928
 20
-240.9946835331402
 30
0.0
 11
2601.475660090342
 21
-241.0000000000002
 31
0.0
  0
ARC
  5
78
330
1F
100
AcDbEntity
  8
EGD111 EGD011$2D
100
AcDbCircle
 10
2601.298528169741
 20
-239.4129713505613
 30
0.0
 40
1.60830680147222
100
AcDbArc
 50
280.0453134737404
 51
281.2575543840447
  0
ARC
  5
79
330
1F
100
AcDbEntity
  8
EGD111 EGD011$2D
100
AcDbCircle
 10
2601.475677270202
 20
-240.0000076426616
 30
0.0
 40
0.9999911834048467
100
AcDbArc
 50
277.8662490369725
 51
0.0004378960992404
  0
LINE
  5
7A
330
1F
100
AcDbEntity
  8
EGD111 EGD011$2D
100
AcDbLine
 10
2599.790887079985
 20
-241.0000000000002
 30
0.0
 11
2601.475668119053
 21
-241.0000000000002
 31
0.0
  0
LINE
  5
7B
330
1F
100
AcDbEntity
  8
EGD111 EGD011$2D
100
AcDbLine
 10
2553.481978504972
 20
-241.0000000000005
 30
0.0
 11
2555.160471311262
 21
-241.0000000000002
 31
0.0
  0
ARC
  5
7C
330
1F
100
AcDbEntity
  8
EGD111 EGD011$2D
100
AcDbCircle
 10
2553.475660090338
 20
-240.0000000000036
 30
0.0
 40
0.9999999999962038
100
AcDbArc
 50
179.9999999998046
 51
255.87416956695
  0
ARC
  5
7D
330
1F
100
AcDbEntity
  8
EGD111 EGD011$2D
100
AcDbCircle
 10
2553.475660090342
 20
-239.9999999999874
 30
0.0
 40
1.000000000012875
100
AcDbArc
 50
255.8741696691527
 51
269.999999999974
  0
LINE
  5
7E
330
1F
100
AcDbEntity
  8
EGD111 EGD011$2D
100
AcDbLine
 10
2552.475660090342
 20
-240.0000000000002
 30
0.0
 11
2552.475660090342
 21
-227.0
 31
0.0
  0
LINE
  5
7F
330
1F
100
AcDbEntity
  8
EGD111 EGD011$2D
100
AcDbLine
 10
2548.98920491057
 20
-175.0000000000002
 30
0.0
 11
2548.475660090341
 21
-175.0000000000002
 31
0.0
  0
ARC
  5
80
330
1F
100
AcDbEntity
  8
EGD111 EGD011$2D
100
AcDbCircle
 10
2548.475660090341
 20
-174.0000000000006
 30
0.0
 40
0.9999999999990905
100
AcDbArc
 50
179.9999999999804
 51
270.0000000000521
  0
ARC
  5
81
330
1F
100
AcDbEntity
  8
EGD111 EGD011$2D
100
AcDbCircle
 10
2606.47566009034
 20
-173.9999999999984
 30
0.0
 40
1.000000000001819
100
AcDbArc
 50
270.0000000001043
 51
359.9999999998957
  0
ARC
  5
82
330
1F
100
AcDbEntity
  8
EGD111 EGD011$2D
100
AcDbCircle
 10
2548.475660090343
 20
-171.0000000000008
 30
0.0
 40
1.000000000000909
100
AcDbArc
 50
95.14484134249504
 51
179.9999999999674
  0
ARC
  5
83
330
1F
100
AcDbEntity
  8
EGD111 EGD011$2D
100
AcDbCircle
 10
2606.475660090342
 20
-171.0000000000011
 30
0.0
 40
1.000000000000455
100
AcDbArc
 50
0.0000000000521102
 51
84.8551586575812
  0
LINE
  5
84
330
1F
100
AcDbEntity
  8
EGD111 EGD011$2D
100
AcDbLine
 10
2547.475660090342
 20
-171.0000000000002
 30
0.0
 11
2547.475660090342
 21
-174.0000000000002
 31
0.0
  0
LINE
  5
85
330
1F
100
AcDbEntity
  8
EGD111 EGD011$2D
100
AcDbLine
 10
2607.475660090342
 20
-171.0000000000002
 30
0.0
 11
2607.475660090342
 21
-174.0000000000002
 31
0.0
  0
ARC
  5
86
330
1F
100
AcDbEntity
  8
EGD111 EGD011$2D
100
AcDbCircle
 10
2598.475698042219
 20
-185.0000147434343
 30
0.0
 40
0.9999694078783281
100
AcDbArc
 50
276.567911031565
 51
0.0008447623937989
  0
ARC
  5
87
330
1F
100
AcDbEntity
  8
EGD111 EGD011$2D
100
AcDbCircle
 10
2556.475655035712
 20
-184.9999971652646
 30
0.0
 40
1.000001515440956
100
AcDbArc
 50
180.0001624181005
 51
255.8744901589547
  0
ARC
  5
88
330
1F
100
AcDbEntity
  8
EGD111 EGD011$2D
100
AcDbCircle
 10
2556.475660090351
 20
-184.9999999999805
 30
0.0
 40
1.000000000021197
100
AcDbArc
 50
255.8741696688426
 51
263.1120687399057
  0
LINE
  5
89
330
1F
100
AcDbEntity
  8
EGD111 EGD011$2D
100
AcDbLine
 10
2599.475660090342
 20
-185.0000000000002
 30
0.0
 11
2599.475660090342
 21
-175.0000000000005
 31
0.0
  0
LINE
  5
8A
330
1F
100
AcDbEntity
  8
EGD111 EGD011$2D
100
AcDbLine
 10
2555.475660090342
 20
-185.0000000000002
 30
0.0
 11
2555.475660090342
 21
-174.9999999999995
 31
0.0
  0
LINE
  5
8B
330
1F
100
AcDbEntity
  8
EGD111 EGD011$2D
100
AcDbLine
 10
2553.372670969449
 20
-186.0053166826492
 30
0.0
 11
2553.475660090342
 21
-186.0
 31
0.0
  0
SPLINE
  5
8C
330
1F
100
AcDbEntity
  8
EGD111 EGD011$2D
100
AcDbSpline
210
0.0
220
0.0
230
1.0
 70
     8
 71
     3
 72
    11
 73
     7
 74
     0
 42
0.000000001
 43
0.0000000001
 12
1.0
 22
0.0
 32
0.0
 13
1.0
 23
0.0
 33
0.0
 40
1.71304134954491
 40
1.71304134954491
 40
1.71304134954491
 40
1.71304134954491
 40
1.73293854068396
 40
1.73293854068396
 40
1.73293854068396
 40
1.814324594178522
 40
1.814324594178522
 40
1.814324594178522
 40
1.814324594178522
 10
2553.338816912254
 20
-186.0096666670379
 30
0.0
 10
2553.332758881956
 20
-186.0104728953006
 30
0.0
 10
2553.329427889678
 20
-186.0108766517073
 30
0.0
 10
2553.33447407147
 20
-186.0100335388087
 30
0.0
 10
2553.347073087205
 20
-186.0078139262189
 30
0.0
 10
2553.359672102941
 20
-186.0055943136291
 30
0.0
 10
2553.372271118676
 20
-186.0033747010393
 30
0.0
  0
ARC
  5
8D
330
1F
100
AcDbEntity
  8
EGD111 EGD011$2D
100
AcDbCircle
 10
2553.475642910385
 20
-186.9999923572637
 30
0.0
 40
0.9999911833098052
100
AcDbArc
 50
97.86630522474361
 51
180.0004379003919
  0
LINE
  5
8E
330
1F
100
AcDbEntity
  8
EGD111 EGD011$2D
100
AcDbLine
 10
2555.160471311258
 20
-186.0000000000002
 30
0.0
 11
2553.481978505477
 21
-186.0
 31
0.0
  0
LINE
  5
8F
330
1F
100
AcDbEntity
  8
EGD111 EGD011$2D
100
AcDbLine
 10
2601.475660090342
 20
-186.0
 30
0.0
 11
2599.790887079744
 21
-186.0
 31
0.0
  0
LINE
  5
90
330
1F
100
AcDbEntity
  8
EGD111 EGD011$2D
100
AcDbLine
 10
2601.578647126895
 20
-200.9946835331434
 30
0.0
 11
2601.475660090342
 21
-201.0000000000002
 31
0.0
  0
ARC
  5
91
330
1F
100
AcDbEntity
  8
EGD111 EGD011$2D
100
AcDbCircle
 10
2601.298528195867
 20
-199.4129714808359
 30
0.0
 40
1.608306668594429
100
AcDbArc
 50
280.0453133652488
 51
281.2575543691526
  0
ARC
  5
92
330
1F
100
AcDbEntity
  8
EGD111 EGD011$2D
100
AcDbCircle
 10
2601.475677270203
 20
-200.000007642663
 30
0.0
 40
0.9999911834039372
100
AcDbArc
 50
277.866249023986
 51
0.0004378961839206
  0
LINE
  5
93
330
1F
100
AcDbEntity
  8
EGD111 EGD011$2D
100
AcDbLine
 10
2599.790887079985
 20
-201.0000000000002
 30
0.0
 11
2601.475668119053
 21
-201.0000000000002
 31
0.0
  0
LINE
  5
94
330
1F
100
AcDbEntity
  8
EGD111 EGD011$2D
100
AcDbLine
 10
2553.481978504971
 20
-201.0000000000002
 30
0.0
 11
2555.160471311262
 21
-201.0000000000002
 31
0.0
  0
ARC
  5
95
330
1F
100
AcDbEntity
  8
EGD111 EGD011$2D
100
AcDbCircle
 10
2553.475660090339
 20
-200.0000000000019
 30
0.0
 40
0.9999999999978589
100
AcDbArc
 50
179.9999999999023
 51
255.8741695669201
  0
ARC
  5
96
330
1F
100
AcDbEntity
  8
EGD111 EGD011$2D
100
AcDbCircle
 10
2553.47566009034
 20
-200.0000000000028
 30
0.0
 40
0.9999999999973852
100
AcDbArc
 50
255.8741696690637
 51
270.0000000001043
  0
LINE
  5
97
330
1F
100
AcDbEntity
  8
EGD111 EGD011$2D
100
AcDbLine
 10
2552.475660090342
 20
-200.0000000000002
 30
0.0
 11
2552.475660090342
 21
-187.0
 31
0.0
  0
LINE
  5
98
330
1F
100
AcDbEntity
  8
EGD111 EGD011$2D
100
AcDbLine
 10
2562.475660090342
 20
-226.0000000000002
 30
0.0
 11
2562.475660090342
 21
-201.0000000000002
 31
0.0
  0
LINE
  5
99
330
1F
100
AcDbEntity
  8
EGD111 EGD011$2D
100
AcDbLine
 10
2554.6348747159
 20
-170.0000000000011
 30
0.0
 11
2554.58423924957
 21
-170.0000000000005
 31
0.0
  0
LINE
  5
9A
330
1F
100
AcDbEntity
  8
EGD111 EGD011$2D
100
AcDbLine
 10
2556.361189794727
 20
-170.0000000000002
 30
0.0
 11
2556.313319248369
 21
-170.0000000000002
 31
0.0
  0
LINE
  5
9B
330
1F
100
AcDbEntity
  8
EGD111 EGD011$2D
100
AcDbLine
 10
2595.85845247231
 20
-170.0
 30
0.0
 11
2595.847287748974
 21
-170.0
 31
0.0
  0
ARC
  5
9C
330
1F
100
AcDbEntity
  8
EGD111 EGD011$2D
100
AcDbCircle
 10
2601.475660090334
 20
-242.000000000072
 30
0.0
 40
1.000000000071736
100
AcDbArc
 50
75.87370988735675
 51
89.99999999955706
  0
LINE
  5
9D
330
1F
100
AcDbEntity
  8
EGD111 EGD011$2D
100
AcDbLine
 10
2552.481819098002
 20
-242.0000000000003
 30
0.0
 11
2602.475660090342
 21
-242.0000000000002
 31
0.0
  0
LINE
  5
9E
330
1F
100
AcDbEntity
  8
EGD111 EGD011$2D
100
AcDbLine
 10
2602.475660090342
 20
-375.0
 30
0.0
 11
2602.475660090342
 21
-242.0000000000002
 31
0.0
  0
LINE
  5
9F
330
1F
100
AcDbEntity
  8
EGD111 EGD011$2D
100
AcDbLine
 10
2552.481819098004
 20
-374.9999999999998
 30
0.0
 11
2602.475660090342
 21
-375.0
 31
0.0
  0
LINE
  5
A0
330
1F
100
AcDbEntity
  8
EGD111 EGD011$2D
100
AcDbLine
 10
2555.160471311262
 20
-376.0
 30
0.0
 11
2599.790887079987
 21
-375.9999999999998
 31
0.0
  0
ARC
  5
A1
330
1F
100
AcDbEntity
  8
EGD111 EGD011$2D
100
AcDbCircle
 10
2601.475660090342
 20
-227.0000000000007
 30
0.0
 40
1.000000000000682
100
AcDbArc
 50
0.0000000000390827
 51
90.00000000002606
  0
LINE
  5
A2
330
1F
100
AcDbEntity
  8
EGD111 EGD011$2D
100
AcDbLine
 10
2599.790887079744
 20
-226.0
 30
0.0
 11
2555.160471311257
 21
-226.0000000000005
 31
0.0
  0
LINE
  5
A3
330
1F
100
AcDbEntity
  8
EGD111 EGD011$2D
100
AcDbLine
 10
2555.160471311261
 20
-241.0
 30
0.0
 11
2599.790887079987
 21
-241.0
 31
0.0
  0
LINE
  5
A4
330
1F
100
AcDbEntity
  8
EGD111 EGD011$2D
100
AcDbLine
 10
2552.481819098004
 20
-239.9999999999999
 30
0.0
 11
2602.475660090342
 21
-240.0000000000002
 31
0.0
  0
LINE
  5
A5
330
1F
100
AcDbEntity
  8
EGD111 EGD011$2D
100
AcDbLine
 10
2602.475660090342
 20
-240.0000000000002
 30
0.0
 11
2602.475660090342
 21
-227.0
 31
0.0
  0
LINE
  5
A6
330
1F
100
AcDbEntity
  8
EGD111 EGD011$2D
100
AcDbLine
 10
2602.475660090342
 20
-226.9999999999998
 30
0.0
 11
2552.481819098003
 21
-226.9999999999998
 31
0.0
  0
LINE
  5
A7
330
1F
100
AcDbEntity
  8
EGD111 EGD011$2D
100
AcDbLine
 10
2606.475660090342
 20
-175.0000000000002
 30
0.0
 11
2548.98920491057
 21
-175.0
 31
0.0
  0
LINE
  5
A8
330
1F
100
AcDbEntity
  8
EGD111 EGD011$2D
100
AcDbLine
 10
2607.468269281149
 20
-174.0000000000005
 30
0.0
 11
2547.483050899535
 21
-174.0
 31
0.0
  0
LINE
  5
A9
330
1F
100
AcDbEntity
  8
EGD111 EGD011$2D
100
AcDbLine
 10
2607.468269281149
 20
-171.0000000000004
 30
0.0
 11
2547.483050899535
 21
-171.0000000000001
 31
0.0
  0
LINE
  5
AA
330
1F
100
AcDbEntity
  8
EGD111 EGD011$2D
100
AcDbLine
 10
2555.481080017084
 20
-185.0000000000002
 30
0.0
 11
2599.470240163601
 21
-185.0000000000001
 31
0.0
  0
ARC
  5
AB
330
1F
100
AcDbEntity
  8
EGD111 EGD011$2D
100
AcDbCircle
 10
2601.475660090342
 20
-187.0000000000013
 30
0.0
 40
1.000000000001307
100
AcDbArc
 50
0.0000000000749084
 51
89.99999999997394
  0
LINE
  5
AC
330
1F
100
AcDbEntity
  8
EGD111 EGD011$2D
100
AcDbLine
 10
2599.790887079744
 20
-186.0
 30
0.0
 11
2555.160471311257
 21
-186.0000000000005
 31
0.0
  0
LINE
  5
AD
330
1F
100
AcDbEntity
  8
EGD111 EGD011$2D
100
AcDbLine
 10
2555.160471311261
 20
-201.0
 30
0.0
 11
2599.790887079987
 21
-201.0000000000002
 31
0.0
  0
LINE
  5
AE
330
1F
100
AcDbEntity
  8
EGD111 EGD011$2D
100
AcDbLine
 10
2552.481819098004
 20
-199.9999999999998
 30
0.0
 11
2602.475660090342
 21
-200.0000000000002
 31
0.0
  0
LINE
  5
AF
330
1F
100
AcDbEntity
  8
EGD111 EGD011$2D
100
AcDbLine
 10
2602.475660090342
 20
-200.0000000000002
 30
0.0
 11
2602.475660090342
 21
-187.0
 31
0.0
  0
LINE
  5
B0
330
1F
100
AcDbEntity
  8
EGD111 EGD011$2D
100
AcDbLine
 10
2602.475660090342
 20
-186.9999999999998
 30
0.0
 11
2552.481819098003
 21
-186.9999999999995
 31
0.0
  0
LINE
  5
B1
330
1F
100
AcDbEntity
  8
EGD111 EGD011$2D
100
AcDbLine
 10
2592.475660090342
 20
-226.0000000000002
 30
0.0
 11
2592.475660090342
 21
-201.0000000000002
 31
0.0
  0
ARC
  5
B2
330
1F
100
AcDbEntity
  8
EGD111 EGD011$2D
100
AcDbCircle
 10
2577.476608766819
 20
-300.9996052795154
 30
0.0
 40
33.99905132581429
100
AcDbArc
 50
359.999334810326
 51
42.66854990369394
  0
ARC
  5
B3
330
1F
100
AcDbEntity
  8
EGD111 EGD011$2D
100
AcDbCircle
 10
2577.475720308104
 20
-301.0000006803485
 30
0.0
 40
34.00006021778641
100
AcDbArc
 50
137.3321141393974
 51
222.6678858606058
  0
ARC
  5
B4
330
1F
100
AcDbEntity
  8
EGD111 EGD011$2D
100
AcDbCircle
 10
2577.476527914958
 20
-301.0003617817953
 30
0.0
 40
33.99913217730899
100
AcDbArc
 50
317.3315033135932
 51
0.0006096793839711
  0
ARC
  5
B5
330
1F
100
AcDbEntity
  8
EGD111 EGD011$2D
100
AcDbCircle
 10
2577.475660090338
 20
-301.0
 30
0.0
 40
34.99999999999725
100
AcDbArc
 50
135.5846914028022
 51
224.415308597198
  0
SPLINE
  5
B6
330
1F
100
AcDbEntity
  8
EGD111 EGD011$2D
100
AcDbSpline
210
0.0
220
0.0
230
1.0
 70
    12
 71
     3
 72
    26
 73
    22
 74
     0
 42
0.000000001
 43
0.0000000001
 12
1.0
 22
0.0
 32
0.0
 13
1.0
 23
0.0
 33
0.0
 40
-483.009009704107
 40
-483.009009704107
 40
-483.009009704107
 40
-483.009009704107
 40
-362.2567572780803
 40
-241.5045048520534
 40
-120.7522524260267
 40
-5.132828948219128
 40
-5.132828948219128
 40
-5.132828948219128
 40
25.86971491424083
 40
25.86971491424083
 40
25.86971491424083
 40
159.8413972195714
 40
159.8413972195714
 40
159.8413972195714
 40
190.8439410820314
 40
190.8439410820314
 40
190.8439410820314
 40
306.463364559839
 40
427.2156169858657
 40
547.9678694118925
 40
668.7201218379192
 40
668.7201218379192
 40
668.7201218379192
 40
668.7201218379192
 10
3558.456520375384
 20
-170.0000000000002
 30
0.0
 41
1.0
 10
3558.456520375388
 20
-178.0000000000005
 30
0.0
 41
1.0
 10
3556.456520376564
 20
-186.0000000000005
 30
0.0
 41
1.0
 10
3545.456520383015
 20
-192.0000000000002
 30
0.0
 41
1.0
 10
3527.729670837413
 20
-205.4581068978173
 30
0.0
 41
1.0
 10
3520.757095660694
 20
-219.3924586411367
 30
0.0
 41
1.0
 10
3517.841900738589
 20
-360.4133532376954
 30
0.0
 41
1.0
 10
3517.603713749945
 20
-371.9355133128893
 30
0.0
 41
0.8095843554965995
 10
3509.370794439576
 20
-379.9999999964253
 30
0.0
 41
0.8095843554965995
 10
3497.84617271737
 20
-379.9999999999995
 30
0.0
 41
1.0
 10
3460.931983847325
 20
-379.9999999999995
 30
0.0
 41
1.0
 10
3424.01779497728
 20
-379.9999999999995
 30
0.0
 41
1.0
 10
3387.103606107235
 20
-379.9999999999995
 30
0.0
 41
1.0
 10
3375.578984385028
 20
-379.9999999964264
 30
0.0
 41
0.8095843554965576
 10
3367.346065074659
 20
-371.93551331289
 30
0.0
 41
0.8095843554965576
 10
3367.107878086017
 20
-360.4133532376954
 30
0.0
 41
1.0
 10
3364.192683163912
 20
-219.3924586411367
 30
0.0
 41
1.0
 10
3357.220107987192
 20
-205.4581068978173
 30
0.0
 41
1.0
 10
3339.493258441591
 20
-192.0000000000002
 30
0.0
 41
1.0
 10
3328.493258448042
 20
-186.0000000000005
 30
0.0
 41
1.0
 10
3326.493258449218
 20
-178.0000000000005
 30
0.0
 41
1.0
 10
3326.493258449221
 20
-170.0000000000002
 30
0.0
 41
1.0
  0
SPLINE
  5
B7
330
1F
100
AcDbEntity
  8
EGD111 EGD011$2D
100
AcDbSpline
210
0.0
220
0.0
230
1.0
 70
    12
 71
     3
 72
    64
 73
    60
 74
     0
 42
0.000000001
 43
0.0000000001
 12
1.0
 22
0.0
 32
0.0
 13
1.0
 23
0.0
 33
0.0
 40
0.0
 40
0.0
 40
0.0
 40
0.0
 40
5.74642319667538
 40
5.74642319667538
 40
5.74642319667538
 40
7.629974018704417
 40
7.629974018704417
 40
7.629974018704417
 40
662.6267421442379
 40
662.6267421442379
 40
662.6267421442379
 40
668.5961431292491
 40
668.5961431292491
 40
668.5961431292491
 40
670.480151080345
 40
670.480151080345
 40
670.480151080345
 40
675.4794706066207
 40
675.4794706066207
 40
675.4794706066207
 40
682.5899802126229
 40
682.5899802126229
 40
682.5899802126229
 40
683.391758512195
 40
683.391758512195
 40
683.391758512195
 40
757.2216992283871
 40
757.2216992283871
 40
757.2216992283871
 40
831.0464975257113
 40
831.0464975257113
 40
831.0464975257113
 40
836.2355630959985
 40
836.2355630959985
 40
843.3466486811243
 40
843.3466486811243
 40
843.3466486811243
 40
848.3463602861896
 40
848.3463602861896
 40
848.3463602861896
 40
850.2296900920115
 40
850.2296900920115
 40
850.2296900920115
 40
856.1989977592091
 40
856.1989977592091
 40
856.1989977592091
 40
1511.195746064559
 40
1511.195746064559
 40
1511.195746064559
 40
1513.079025623813
 40
1513.079025623813
 40
1513.079025623813
 40
1517.164307949697
 40
1517.164307949697
 40
1517.164307949697
 40
1517.470166986309
 40
1517.470166986309
 40
1517.470166986309
 40
1518.708597489913
 40
1518.708597489913
 40
1518.708597489913
 40
1518.708597489913
 10
4266.252341207737
 20
-170.0016000380972
 30
0.0
 41
1.0
 10
4264.225315770427
 20
-170.0922494597482
 30
0.0
 41
0.8929171546436819
 10
4262.57315245168
 20
-171.2701313762956
 30
0.0
 41
0.8929171546436819
 10
4261.826606298989
 20
-173.1568529463867
 30
0.0
 41
1.0
 10
4261.594158026059
 20
-173.7445737179457
 30
0.0
 41
0.9882421186969917
 10
4261.475703107159
 20
-174.3653928035884
 30
0.0
 41
0.9882421186969917
 10
4261.475419878916
 20
-174.9974116519559
 30
0.0
 41
1.0
 10
4261.475243099308
 20
-393.3302031780647
 30
0.0
 41
1.0
 10
4261.475066319701
 20
-611.6629947041736
 30
0.0
 41
1.0
 10
4261.474889540093
 20
-829.9957862302823
 30
0.0
 41
1.0
 10
4261.475397255974
 20
-832.1136536850718
 30
0.0
 41
0.8847280211947707
 10
4262.666199570179
 20
-833.8650396112218
 30
0.0
 41
0.8847280211947707
 10
4264.635498065334
 20
-834.6442868446562
 30
0.0
 41
1.0
 10
4265.223062276948
 20
-834.8767096903559
 30
0.0
 41
0.9882598036005078
 10
4265.843705991018
 20
-834.9952569895897
 30
0.0
 41
0.9882598036005078
 10
4266.475569770254
 20
-834.9957534366308
 30
0.0
 41
1.0
 10
4268.14200964666
 20
-834.996029614273
 30
0.0
 41
1.0
 10
4269.808449523066
 20
-834.996305791915
 30
0.0
 41
1.0
 10
4271.474889399473
 20
-834.9965819695572
 30
0.0
 41
1.0
 10
4271.474805939242
 20
-834.9716736783755
 30
0.0
 41
1.0
 10
4271.609921359988
 20
-834.9469140101794
 30
0.0
 41
1.0
 10
4271.878434157057
 20
-834.9222868116226
 30
0.0
 41
1.0
 10
4272.144740382545
 20
-834.899552774825
 30
0.0
 41
0.9998846882356618
 10
4272.411423365381
 20
-834.8817755750131
 30
0.0
 41
0.9998846882356616
 10
4272.678390850495
 20
-834.8689613619467
 30
0.0
 41
1.0
 10
4297.26222620417
 20
-833.688958096482
 30
0.0
 41
0.9998246191246855
 10
4321.866659153624
 20
-833.0731272439771
 30
0.0
 41
0.9998246191246855
 10
4346.478744257895
 20
-833.0217928192935
 30
0.0
 41
1.0
 10
4371.089972096006
 20
-832.9704601826661
 30
0.0
 41
0.9997549923008667
 10
4395.693546590782
 20
-833.5863277163576
 30
0.0
 41
0.9997549923008667
 10
4420.271383546688
 20
-834.8689427435061
 30
0.0
 41
1.0
 10
4420.608144942251
 20
-834.8865169192682
 30
0.0
 41
1.0
 10
4420.875451351383
 20
-834.9042934354113
 30
0.0
 41
1.0
 10
4421.339857486208
 20
-834.9468974672682
 30
0.0
 41
1.0
 10
4421.47500337547
 20
-834.9716578323537
 30
0.0
 41
1.0
 10
4421.474889416833
 20
-834.9965651771488
 30
0.0
 41
1.0
 10
4423.141505089236
 20
-834.9962896497609
 30
0.0
 41
1.0
 10
4424.808120761641
 20
-834.9960141223729
 30
0.0
 41
1.0
 10
4426.474736434044
 20
-834.9957385949851
 30
0.0
 41
1.0
 10
4427.106455029245
 20
-834.995156066905
 30
0.0
 41
0.9882685822522678
 10
4427.726948391132
 20
-834.8765950669288
 30
0.0
 41
0.9882685822522678
 10
4428.314378719193
 20
-834.6442282609144
 30
0.0
 41
1.0
 10
4430.2836468822
 20
-833.864986123201
 30
0.0
 41
0.8847255818503493
 10
4431.474415571819
 20
-832.1136137085388
 30
0.0
 41
0.8847255818503493
 10
4431.474889284511
 20
-829.9957763251182
 30
0.0
 41
1.0
 10
4431.47471250596
 20
-611.6629881007307
 30
0.0
 41
1.0
 10
4431.47453572741
 20
-393.3301998763432
 30
0.0
 41
1.0
 10
4431.474358948859
 20
-174.9974116519556
 30
0.0
 41
1.0
 10
4431.474095608949
 20
-174.3655891639057
 30
0.0
 41
0.9882455089743307
 10
4431.355713824291
 20
-173.744956036515
 30
0.0
 41
0.9882455089743307
 10
4431.123388147762
 20
-173.1573979493619
 30
0.0
 41
1.0
 10
4430.608038260872
 20
-171.854558408151
 30
0.0
 41
0.9451376761141281
 10
4429.617533512445
 20
-170.8636614814205
 30
0.0
 41
0.9451376761141281
 10
4428.314898079438
 20
-170.3477958935658
 30
0.0
 41
1.0
 10
4428.219019052182
 20
-170.3130185452402
 30
0.0
 41
1.0
 10
4428.123140024927
 20
-170.2782411969146
 30
0.0
 41
1.0
 10
4428.027260997671
 20
-170.243463848589
 30
0.0
 41
1.0
 10
4427.633722623964
 20
-170.1158357477888
 30
0.0
 41
0.9955752669288055
 10
4427.22811611561
 20
-170.0343204481505
 30
0.0
 41
0.9955752669288055
 10
4426.815825574204
 20
-170.0000000000002
 30
0.0
 41
1.0
  0
ENDSEC
  0
SECTION
  2
OBJECTS
  0
DICTIONARY
  5
C
330
0
100
AcDbDictionary
281
     1
  3
ACAD_GROUP
350
D
  3
ACAD_LAYOUT
350
1A
  3
ACAD_MATERIAL
350
3B
  3
ACAD_MLEADERSTYLE
350
E2
  3
ACAD_MLINESTYLE
350
17
  3
ACAD_PLOTSETTINGS
350
19
  3
ACAD_PLOTSTYLENAME
350
E
  3
ACAD_SCALELIST
350
3F
  3
ACAD_TABLESTYLE
350
E1
  3
ACAD_VISUALSTYLE
350
2A
  3
AcDbVariableDictionary
350
B8
  0
DICTIONARY
  5
D
102
{ACAD_REACTORS
330
C
102
}
330
C
100
AcDbDictionary
281
     1
  0
DICTIONARY
  5
1A
102
{ACAD_REACTORS
330
C
102
}
330
C
100
AcDbDictionary
281
     1
  3
Layout1
350
1E
  3
Layout2
350
26
  3
Model
350
22
  0
DICTIONARY
  5
3B
102
{ACAD_REACTORS
330
C
102
}
330
C
100
AcDbDictionary
281
     1
  3
ByBlock
350
3D
  3
ByLayer
350
3C
  3
Global
350
3E
  0
DICTIONARY
  5
E2
102
{ACAD_REACTORS
330
C
102
}
330
C
100
AcDbDictionary
281
     1
  0
DICTIONARY
  5
17
102
{ACAD_REACTORS
330
C
102
}
330
C
100
AcDbDictionary
281
     1
  3
Standard
350
18
  0
DICTIONARY
  5
19
102
{ACAD_REACTORS
330
C
102
}
330
C
100
AcDbDictionary
281
     1
  0
ACDBDICTIONARYWDFLT
  5
E
102
{ACAD_REACTORS
330
C
102
}
330
C
100
AcDbDictionary
281
     1
  3
Normal
350
F
100
AcDbDictionaryWithDefault
340
F
  0
DICTIONARY
  5
3F
102
{ACAD_REACTORS
330
C
102
}
330
C
100
AcDbDictionary
281
     1
  3
A0
350
40
  3
A1
350
41
  3
A2
350
42
  3
A3
350
43
  3
A4
350
44
  3
A5
350
45
  3
A6
350
46
  3
A7
350
47
  3
A8
350
48
  3
A9
350
49
  3
B0
350
4A
  3
B1
350
4B
  3
B2
350
4C
  3
B3
350
4D
  3
B4
350
4E
  3
B5
350
4F
  3
B6
350
50
  3
B7
350
51
  3
B8
350
52
  3
B9
350
53
  3
C0
350
54
  3
C1
350
55
  3
C2
350
56
  3
C3
350
57
  3
C4
350
58
  3
C5
350
59
  3
C6
350
5A
  3
C7
350
5B
  3
C8
350
5C
  3
C9
350
5D
  3
D0
350
5E
  3
D1
350
5F
  3
D2
350
60
  0
DICTIONARY
  5
E1
102
{ACAD_REACTORS
330
C
102
}
330
C
100
AcDbDictionary
281
     1
  0
DICTIONARY
  5
2A
102
{ACAD_REACTORS
330
C
102
}
330
C
100
AcDbDictionary
281
     1
  3
2dWireframe
350
2F
  3
3D Hidden
350
31
  3
3dWireframe
350
30
  3
Basic
350
32
  3
Brighten
350
36
  3
ColorChange
350
3A
  3
Conceptual
350
34
  3
Dim
350
35
  3
Facepattern
350
39
  3
Flat
350
2B
  3
FlatWithEdges
350
2C
  3
Gouraud
350
2D
  3
GouraudWithEdges
350
2E
  3
Linepattern
350
38
  3
Realistic
350
33
  3
Thicken
350
37
  0
DICTIONARY
  5
B8
102
{ACAD_REACTORS
330
C
102
}
330
C
100
AcDbDictionary
281
     1
  3
CANNOSCALE
350
B9
  3
MSLTSCALE
350
BA
  0
LAYOUT
  5
1E
102
{ACAD_REACTORS
330
1A
102
}
330
1A
100
AcDbPlotSettings
  1

  2
none_device
  4

  6

 40
0.0
 41
0.0
 42
0.0
 43
0.0
 44
0.0
 45
0.0
 46
0.0
 47
0.0
 48
0.0
 49
0.0
140
0.0
141
0.0
142
1.0
143
1.0
 70
   688
 72
     0
 73
     0
 74
     5
  7

 75
    16
 76
     0
 77
     2
 78
   300
147
1.0
148
0.0
149
0.0
100
AcDbLayout
  1
Layout1
 70
     1
 71
     1
 10
0.0
 20
0.0
 11
12.0
 21
9.0
 12
0.0
 22
0.0
 32
0.0
 14
1.000000000000000E+20
 24
1.000000000000000E+20
 34
1.000000000000000E+20
 15
-1.000000000000000E+20
 25
-1.000000000000000E+20
 35
-1.000000000000000E+20
146
0.0
 13
0.0
 23
0.0
 33
0.0
 16
1.0
 26
0.0
 36
0.0
 17
0.0
 27
1.0
 37
0.0
 76
     0
330
1B
  0
LAYOUT
  5
26
102
{ACAD_REACTORS
330
1A
102
}
330
1A
100
AcDbPlotSettings
  1

  2
none_device
  4

  6

 40
0.0
 41
0.0
 42
0.0
 43
0.0
 44
0.0
 45
0.0
 46
0.0
 47
0.0
 48
0.0
 49
0.0
140
0.0
141
0.0
142
1.0
143
1.0
 70
   688
 72
     0
 73
     0
 74
     5
  7

 75
    16
 76
     0
 77
     2
 78
   300
147
1.0
148
0.0
149
0.0
100
AcDbLayout
  1
Layout2
 70
     1
 71
     2
 10
0.0
 20
0.0
 11
0.0
 21
0.0
 12
0.0
 22
0.0
 32
0.0
 14
0.0
 24
0.0
 34
0.0
 15
0.0
 25
0.0
 35
0.0
146
0.0
 13
0.0
 23
0.0
 33
0.0
 16
1.0
 26
0.0
 36
0.0
 17
0.0
 27
1.0
 37
0.0
 76
     0
330
23
  0
LAYOUT
  5
22
102
{ACAD_REACTORS
330
1A
102
}
330
1A
100
AcDbPlotSettings
  1

  2
none_device
  4
Letter_(8.50_x_11.00_Inches)
  6

 40
6.35
 41
6.35
 42
6.35000508
 43
6.35000508
 44
215.9
 45
279.4
 46
0.0
 47
0.0
 48
0.0
 49
0.0
140
0.0
141
0.0
142
1.0
143
1.0
 70
  1712
 72
     0
 73
     0
 74
     0
  7

 75
     0
 76
     0
 77
     2
 78
   300
147
1.0
148
0.0
149
0.0
100
AcDbLayout
  1
Model
 70
     1
 71
     0
 10
0.0
 20
0.0
 11
12.0
 21
9.0
 12
0.0
 22
0.0
 32
0.0
 14
2279.192111065948
 24
-834.9957394595833
 34
0.0
 15
4644.757667758659
 25
0.0000000000000018
 35
0.0
146
0.0
 13
0.0
 23
0.0
 33
0.0
 16
1.0
 26
0.0
 36
0.0
 17
0.0
 27
1.0
 37
0.0
 76
     0
330
1F
331
29
  0
MATERIAL
  5
3D
102
{ACAD_REACTORS
330
3B
102
}
102
{ACAD_XDICTIONARY
360
DD
102
}
330
3B
100
AcDbMaterial
  1
ByBlock
  0
MATERIAL
  5
3C
102
{ACAD_REACTORS
330
3B
102
}
102
{ACAD_XDICTIONARY
360
DB
102
}
330
3B
100
AcDbMaterial
  1
ByLayer
  0
MATERIAL
  5
3E
102
{ACAD_REACTORS
330
3B
102
}
102
{ACAD_XDICTIONARY
360
DF
102
}
330
3B
100
AcDbMaterial
  1
Global
  0
MLINESTYLE
  5
18
102
{ACAD_REACTORS
330
17
102
}
330
17
100
AcDbMlineStyle
  2
Standard
 70
     0
  3

 62
   256
 51
90.0
 52
90.0
 71
     2
 49
0.5
 62
   256
  6
BYLAYER
 49
-0.5
 62
   256
  6
BYLAYER
  0
ACDBPLACEHOLDER
  5
F
102
{ACAD_REACTORS
330
E
102
}
330
E
  0
SCALE
  5
40
102
{ACAD_REACTORS
330
3F
102
}
330
3F
100
AcDbScale
 70
     0
300
1:1
140
1.0
141
1.0
290
     1
  0
SCALE
  5
41
102
{ACAD_REACTORS
330
3F
102
}
330
3F
100
AcDbScale
 70
     0
300
1:2
140
1.0
141
2.0
290
     0
  0
SCALE
  5
42
102
{ACAD_REACTORS
330
3F
102
}
330
3F
100
AcDbScale
 70
     0
300
1:4
140
1.0
141
4.0
290
     0
  0
SCALE
  5
43
102
{ACAD_REACTORS
330
3F
102
}
330
3F
100
AcDbScale
 70
     0
300
1:5
140
1.0
141
5.0
290
     0
  0
SCALE
  5
44
102
{ACAD_REACTORS
330
3F
102
}
330
3F
100
AcDbScale
 70
     0
300
1:8
140
1.0
141
8.0
290
     0
  0
SCALE
  5
45
102
{ACAD_REACTORS
330
3F
102
}
330
3F
100
AcDbScale
 70
     0
300
1:10
140
1.0
141
10.0
290
     0
  0
SCALE
  5
46
102
{ACAD_REACTORS
330
3F
102
}
330
3F
100
AcDbScale
 70
     0
300
1:16
140
1.0
141
16.0
290
     0
  0
SCALE
  5
47
102
{ACAD_REACTORS
330
3F
102
}
330
3F
100
AcDbScale
 70
     0
300
1:20
140
1.0
141
20.0
290
     0
  0
SCALE
  5
48
102
{ACAD_REACTORS
330
3F
102
}
330
3F
100
AcDbScale
 70
     0
300
1:30
140
1.0
141
30.0
290
     0
  0
SCALE
  5
49
102
{ACAD_REACTORS
330
3F
102
}
330
3F
100
AcDbScale
 70
     0
300
1:40
140
1.0
141
40.0
290
     0
  0
SCALE
  5
4A
102
{ACAD_REACTORS
330
3F
102
}
330
3F
100
AcDbScale
 70
     0
300
1:50
140
1.0
141
50.0
290
     0
  0
SCALE
  5
4B
102
{ACAD_REACTORS
330
3F
102
}
330
3F
100
AcDbScale
 70
     0
300
1:100
140
1.0
141
100.0
290
     0
  0
SCALE
  5
4C
102
{ACAD_REACTORS
330
3F
102
}
330
3F
100
AcDbScale
 70
     0
300
2:1
140
2.0
141
1.0
290
     0
  0
SCALE
  5
4D
102
{ACAD_REACTORS
330
3F
102
}
330
3F
100
AcDbScale
 70
     0
300
4:1
140
4.0
141
1.0
290
     0
  0
SCALE
  5
4E
102
{ACAD_REACTORS
330
3F
102
}
330
3F
100
AcDbScale
 70
     0
300
8:1
140
8.0
141
1.0
290
     0
  0
SCALE
  5
4F
102
{ACAD_REACTORS
330
3F
102
}
330
3F
100
AcDbScale
 70
     0
300
10:1
140
10.0
141
1.0
290
     0
  0
SCALE
  5
50
102
{ACAD_REACTORS
330
3F
102
}
330
3F
100
AcDbScale
 70
     0
300
100:1
140
100.0
141
1.0
290
     0
  0
SCALE
  5
51
102
{ACAD_REACTORS
330
3F
102
}
330
3F
100
AcDbScale
 70
     0
300
1/128" = 1'-0"
140
0.0078125
141
12.0
290
     0
  0
SCALE
  5
52
102
{ACAD_REACTORS
330
3F
102
}
330
3F
100
AcDbScale
 70
     0
300
1/64" = 1'-0"
140
0.015625
141
12.0
290
     0
  0
SCALE
  5
53
102
{ACAD_REACTORS
330
3F
102
}
330
3F
100
AcDbScale
 70
     0
300
1/32" = 1'-0"
140
0.03125
141
12.0
290
     0
  0
SCALE
  5
54
102
{ACAD_REACTORS
330
3F
102
}
330
3F
100
AcDbScale
 70
     0
300
1/16" = 1'-0"
140
0.0625
141
12.0
290
     0
  0
SCALE
  5
55
102
{ACAD_REACTORS
330
3F
102
}
330
3F
100
AcDbScale
 70
     0
300
3/32" = 1'-0"
140
0.09375
141
12.0
290
     0
  0
SCALE
  5
56
102
{ACAD_REACTORS
330
3F
102
}
330
3F
100
AcDbScale
 70
     0
300
1/8" = 1'-0"
140
0.125
141
12.0
290
     0
  0
SCALE
  5
57
102
{ACAD_REACTORS
330
3F
102
}
330
3F
100
AcDbScale
 70
     0
300
3/16" = 1'-0"
140
0.1875
141
12.0
290
     0
  0
SCALE
  5
58
102
{ACAD_REACTORS
330
3F
102
}
330
3F
100
AcDbScale
 70
     0
300
1/4" = 1'-0"
140
0.25
141
12.0
290
     0
  0
SCALE
  5
59
102
{ACAD_REACTORS
330
3F
102
}
330
3F
100
AcDbScale
 70
     0
300
3/8" = 1'-0"
140
0.375
141
12.0
290
     0
  0
SCALE
  5
5A
102
{ACAD_REACTORS
330
3F
102
}
330
3F
100
AcDbScale
 70
     0
300
1/2" = 1'-0"
140
0.5
141
12.0
290
     0
  0
SCALE
  5
5B
102
{ACAD_REACTORS
330
3F
102
}
330
3F
100
AcDbScale
 70
     0
300
3/4" = 1'-0"
140
0.75
141
12.0
290
     0
  0
SCALE
  5
5C
102
{ACAD_REACTORS
330
3F
102
}
330
3F
100
AcDbScale
 70
     0
300
1" = 1'-0"
140
1.0
141
12.0
290
     0
  0
SCALE
  5
5D
102
{ACAD_REACTORS
330
3F
102
}
330
3F
100
AcDbScale
 70
     0
300
1-1/2" = 1'-0"
140
1.5
141
12.0
290
     0
  0
SCALE
  5
5E
102
{ACAD_REACTORS
330
3F
102
}
330
3F
100
AcDbScale
 70
     0
300
3" = 1'-0"
140
3.0
141
12.0
290
     0
  0
SCALE
  5
5F
102
{ACAD_REACTORS
330
3F
102
}
330
3F
100
AcDbScale
 70
     0
300
6" = 1'-0"
140
6.0
141
12.0
290
     0
  0
SCALE
  5
60
102
{ACAD_REACTORS
330
3F
102
}
330
3F
100
AcDbScale
 70
     0
300
1'-0" = 1'-0"
140
12.0
141
12.0
290
     0
  0
VISUALSTYLE
  5
2F
102
{ACAD_REACTORS
330
2A
102
}
102
{ACAD_XDICTIONARY
360
C3
102
}
330
2A
100
AcDbVisualStyle
  2
2dWireframe
 70
     4
 71
     0
 72
     2
 73
     0
 90
        0
 40
0.6
 41
30.0
 62
     5
 63
     7
421
 16777215
 74
     1
 91
        4
 64
     7
 65
   257
 75
     1
175
     1
 42
1.0
 92
        0
 66
   257
 43
1.0
 76
     1
 77
     6
 78
     2
 67
     7
 79
     5
170
     0
171
     0
290
     0
174
     0
 93
        1
 44
0.0
173
     0
291
     0
 45
0.0
1001
ACAD
1000
AcDbSavedByObjectVersion
1070
     0
  0
VISUALSTYLE
  5
31
102
{ACAD_REACTORS
330
2A
102
}
102
{ACAD_XDICTIONARY
360
C7
102
}
330
2A
100
AcDbVisualStyle
  2
3D Hidden
 70
     6
 71
     1
 72
     2
 73
     2
 90
        0
 40
0.6
 41
30.0
 62
     5
 63
     7
421
 16777215
 74
     2
 91
        2
 64
     7
 65
   257
 75
     2
175
     1
 42
40.0
 92
        0
 66
   257
 43
1.0
 76
     1
 77
     6
 78
     2
 67
     7
 79
     3
170
     0
171
     0
290
     0
174
     0
 93
        1
 44
0.0
173
     0
291
     0
 45
0.0
1001
ACAD
1000
AcDbSavedByObjectVersion
1070
     0
  0
VISUALSTYLE
  5
30
102
{ACAD_REACTORS
330
2A
102
}
102
{ACAD_XDICTIONARY
360
C5
102
}
330
2A
100
AcDbVisualStyle
  2
3dWireframe
 70
     5
 71
     0
 72
     2
 73
     0
 90
        0
 40
0.6
 41
30.0
 62
     5
 63
     7
421
 16777215
 74
     1
 91
        4
 64
     7
 65
   257
 75
     1
175
     1
 42
1.0
 92
        0
 66
   257
 43
1.0
 76
     1
 77
     6
 78
     2
 67
     7
 79
     5
170
     0
171
     0
290
     0
174
     0
 93
        1
 44
0.0
173
     0
291
     0
 45
0.0
1001
ACAD
1000
AcDbSavedByObjectVersion
1070
     0
  0
VISUALSTYLE
  5
32
102
{ACAD_REACTORS
330
2A
102
}
102
{ACAD_XDICTIONARY
360
C9
102
}
330
2A
100
AcDbVisualStyle
  2
Basic
 70
     7
 71
     1
 72
     0
 73
     1
 90
        0
 40
0.6
 41
30.0
 62
     5
 63
     7
421
 16777215
 74
     0
 91
        4
 64
     7
 65
   257
 75
     1
175
     1
 42
1.0
 92
        8
 66
     7
 43
1.0
 76
     1
 77
     6
 78
     2
 67
     7
 79
     5
170
     0
171
     0
290
     0
174
     0
 93
        1
 44
0.0
173
     0
291
     1
 45
0.0
1001
ACAD
1000
AcDbSavedByObjectVersion
1070
     0
  0
VISUALSTYLE
  5
36
102
{ACAD_REACTORS
330
2A
102
}
102
{ACAD_XDICTIONARY
360
D1
102
}
330
2A
100
AcDbVisualStyle
  2
Brighten
 70
    12
 71
     2
 72
     2
 73
     0
 90
        0
 40
0.6
 41
30.0
 62
     5
 63
     7
421
 16777215
 74
     1
 91
        4
 64
     7
 65
   257
 75
     1
175
     1
 42
1.0
 92
        8
 66
     7
 43
1.0
 76
     1
 77
     6
 78
     2
 67
     7
 79
     5
170
     0
171
     0
290
     0
174
     0
 93
        1
 44
50.0
173
     0
291
     1
 45
0.0
1001
ACAD
1000
AcDbSavedByObjectVersion
1070
     0
  0
VISUALSTYLE
  5
3A
102
{ACAD_REACTORS
330
2A
102
}
102
{ACAD_XDICTIONARY
360
D9
102
}
330
2A
100
AcDbVisualStyle
  2
ColorChange
 70
    16
 71
     2
 72
     2
 73
     3
 90
        0
 40
0.6
 41
30.0
 62
     5
 63
     8
421
  8421504
 74
     1
 91
        4
 64
     7
 65
   257
 75
     1
175
     1
 42
1.0
 92
        8
 66
     8
424
  8421504
 43
1.0
 76
     1
 77
     6
 78
     2
 67
     7
 79
     5
170
     0
171
     0
290
     0
174
     0
 93
        1
 44
0.0
173
     0
291
     1
 45
0.0
1001
ACAD
1000
AcDbSavedByObjectVersion
1070
     0
  0
VISUALSTYLE
  5
34
102
{ACAD_REACTORS
330
2A
102
}
102
{ACAD_XDICTIONARY
360
CD
102
}
330
2A
100
AcDbVisualStyle
  2
Conceptual
 70
     9
 71
     3
 72
     2
 73
     0
 90
        0
 40
0.6
 41
30.0
 62
     5
 63
     7
421
 16777215
 74
     2
 91
        2
 64
     7
 65
   257
 75
     1
175
     1
 42
40.0
 92
        8
 66
     7
 43
1.0
 76
     1
 77
     6
 78
     2
 67
     7
 79
     3
170
     0
171
     0
290
     0
174
     0
 93
        1
 44
0.0
173
     0
291
     0
 45
0.0
1001
ACAD
1000
AcDbSavedByObjectVersion
1070
     0
  0
VISUALSTYLE
  5
35
102
{ACAD_REACTORS
330
2A
102
}
102
{ACAD_XDICTIONARY
360
CF
102
}
330
2A
100
AcDbVisualStyle
  2
Dim
 70
    11
 71
     2
 72
     2
 73
     0
 90
        0
 40
0.6
 41
30.0
 62
     5
 63
     7
421
 16777215
 74
     1
 91
        4
 64
     7
 65
   257
 75
     1
175
     1
 42
1.0
 92
        8
 66
     7
 43
1.0
 76
     1
 77
     6
 78
     2
 67
     7
 79
     5
170
     0
171
     0
290
     0
174
     0
 93
        1
 44
-50.0
173
     0
291
     1
 45
0.0
1001
ACAD
1000
AcDbSavedByObjectVersion
1070
     0
  0
VISUALSTYLE
  5
39
102
{ACAD_REACTORS
330
2A
102
}
102
{ACAD_XDICTIONARY
360
D7
102
}
330
2A
100
AcDbVisualStyle
  2
Facepattern
 70
    15
 71
     2
 72
     2
 73
     0
 90
        0
 40
0.6
 41
30.0
 62
     5
 63
     7
421
 16777215
 74
     1
 91
        4
 64
     7
 65
   257
 75
     1
175
     1
 42
1.0
 92
        8
 66
     7
 43
1.0
 76
     1
 77
     6
 78
     2
 67
     7
 79
     5
170
     0
171
     0
290
     0
174
     0
 93
        1
 44
0.0
173
     0
291
     1
 45
0.0
1001
ACAD
1000
AcDbSavedByObjectVersion
1070
     0
  0
VISUALSTYLE
  5
2B
102
{ACAD_REACTORS
330
2A
102
}
102
{ACAD_XDICTIONARY
360
BB
102
}
330
2A
100
AcDbVisualStyle
  2
Flat
 70
     0
 71
     2
 72
     1
 73
     1
 90
        2
 40
0.6
 41
30.0
 62
     5
 63
     7
421
 16777215
 74
     0
 91
        4
 64
     7
 65
   257
 75
     1
175
     1
 42
1.0
 92
        8
 66
     7
 43
1.0
 76
     1
 77
     6
 78
     2
 67
     7
 79
     5
170
     0
171
     0
290
     0
174
     0
 93
       13
 44
0.0
173
     0
291
     1
 45
0.0
1001
ACAD
1000
AcDbSavedByObjectVersion
1070
     0
  0
VISUALSTYLE
  5
2C
102
{ACAD_REACTORS
330
2A
102
}
102
{ACAD_XDICTIONARY
360
BD
102
}
330
2A
100
AcDbVisualStyle
  2
FlatWithEdges
 70
     1
 71
     2
 72
     1
 73
     1
 90
        2
 40
0.6
 41
30.0
 62
     5
 63
     7
421
 16777215
 74
     1
 91
        4
 64
     7
 65
   257
 75
     1
175
     1
 42
1.0
 92
        0
 66
   257
 43
1.0
 76
     1
 77
     6
 78
     2
 67
     7
 79
     5
170
     0
171
     0
290
     0
174
     0
 93
       13
 44
0.0
173
     0
291
     1
 45
0.0
1001
ACAD
1000
AcDbSavedByObjectVersion
1070
     0
  0
VISUALSTYLE
  5
2D
102
{ACAD_REACTORS
330
2A
102
}
102
{ACAD_XDICTIONARY
360
BF
102
}
330
2A
100
AcDbVisualStyle
  2
Gouraud
 70
     2
 71
     2
 72
     2
 73
     1
 90
        2
 40
0.6
 41
30.0
 62
     5
 63
     7
421
 16777215
 74
     0
 91
        4
 64
     7
 65
   257
 75
     1
175
     1
 42
1.0
 92
        0
 66
     7
 43
1.0
 76
     1
 77
     6
 78
     2
 67
     7
 79
     5
170
     0
171
     0
290
     0
174
     0
 93
       13
 44
0.0
173
     0
291
     1
 45
0.0
1001
ACAD
1000
AcDbSavedByObjectVersion
1070
     0
  0
VISUALSTYLE
  5
2E
102
{ACAD_REACTORS
330
2A
102
}
102
{ACAD_XDICTIONARY
360
C1
102
}
330
2A
100
AcDbVisualStyle
  2
GouraudWithEdges
 70
     3
 71
     2
 72
     2
 73
     1
 90
        2
 40
0.6
 41
30.0
 62
     5
 63
     7
421
 16777215
 74
     1
 91
        4
 64
     7
 65
   257
 75
     1
175
     1
 42
1.0
 92
        0
 66
   257
 43
1.0
 76
     1
 77
     6
 78
     2
 67
     7
 79
     5
170
     0
171
     0
290
     0
174
     0
 93
       13
 44
0.0
173
     0
291
     1
 45
0.0
1001
ACAD
1000
AcDbSavedByObjectVersion
1070
     0
  0
VISUALSTYLE
  5
38
102
{ACAD_REACTORS
330
2A
102
}
102
{ACAD_XDICTIONARY
360
D5
102
}
330
2A
100
AcDbVisualStyle
  2
Linepattern
 70
    14
 71
     2
 72
     2
 73
     0
 90
        0
 40
0.6
 41
30.0
 62
     5
 63
     7
421
 16777215
 74
     1
 91
        4
 64
     7
 65
   257
 75
     7
175
     7
 42
1.0
 92
        8
 66
     7
 43
1.0
 76
     1
 77
     6
 78
     2
 67
     7
 79
     5
170
     0
171
     0
290
     0
174
     0
 93
        1
 44
0.0
173
     0
291
     1
 45
0.0
1001
ACAD
1000
AcDbSavedByObjectVersion
1070
     0
  0
VISUALSTYLE
  5
33
102
{ACAD_REACTORS
330
2A
102
}
102
{ACAD_XDICTIONARY
360
CB
102
}
330
2A
100
AcDbVisualStyle
  2
Realistic
 70
     8
 71
     2
 72
     3
 73
     0
 90
        2
 40
0.6
 41
30.0
 62
     5
 63
     7
421
 16777215
 74
     0
 91
        0
 64
     7
 65
   257
 75
     1
175
     1
 42
1.0
 92
        8
 66
   257
 43
1.0
 76
     1
 77
     6
 78
     2
 67
     7
 79
     3
170
     0
171
     0
290
     0
174
     0
 93
       13
 44
0.0
173
     0
291
     0
 45
0.0
1001
ACAD
1000
AcDbSavedByObjectVersion
1070
     0
  0
VISUALSTYLE
  5
37
102
{ACAD_REACTORS
330
2A
102
}
102
{ACAD_XDICTIONARY
360
D3
102
}
330
2A
100
AcDbVisualStyle
  2
Thicken
 70
    13
 71
     2
 72
     2
 73
     0
 90
        0
 40
0.6
 41
30.0
 62
     5
 63
     7
421
 16777215
 74
     1
 91
        4
 64
     7
 65
   257
 75
     1
175
     1
 42
1.0
 92
       12
 66
     7
 43
1.0
 76
     1
 77
     6
 78
     2
 67
     7
 79
     5
170
     0
171
     0
290
     0
174
     0
 93
        1
 44
0.0
173
     0
291
     1
 45
0.0
1001
ACAD
1000
AcDbSavedByObjectVersion
1070
     0
  0
DICTIONARYVAR
  5
B9
102
{ACAD_REACTORS
330
B8
102
}
330
B8
100
DictionaryVariables
280
     0
  1
1:1
  0
DICTIONARYVAR
  5
BA
102
{ACAD_REACTORS
330
B8
102
}
330
B8
100
DictionaryVariables
280
     0
  1
1
  0
DICTIONARY
  5
DD
330
3D
100
AcDbDictionary
280
     1
281
     1
  3
ACAD_XREC_ROUNDTRIP
360
DE
  0
DICTIONARY
  5
DB
330
3C
100
AcDbDictionary
280
     1
281
     1
  3
ACAD_XREC_ROUNDTRIP
360
DC
  0
DICTIONARY
  5
DF
330
3E
100
AcDbDictionary
280
     1
281
     1
  3
ACAD_XREC_ROUNDTRIP
360
E0
  0
DICTIONARY
  5
C3
330
2F
100
AcDbDictionary
280
     1
281
     1
  3
ACAD_XREC_ROUNDTRIP
360
C4
  0
DICTIONARY
  5
C7
330
31
100
AcDbDictionary
280
     1
281
     1
  3
ACAD_XREC_ROUNDTRIP
360
C8
  0
DICTIONARY
  5
C5
330
30
100
AcDbDictionary
280
     1
281
     1
  3
ACAD_XREC_ROUNDTRIP
360
C6
  0
DICTIONARY
  5
C9
330
32
100
AcDbDictionary
280
     1
281
     1
  3
ACAD_XREC_ROUNDTRIP
360
CA
  0
DICTIONARY
  5
D1
330
36
100
AcDbDictionary
280
     1
281
     1
  3
ACAD_XREC_ROUNDTRIP
360
D2
  0
DICTIONARY
  5
D9
330
3A
100
AcDbDictionary
280
     1
281
     1
  3
ACAD_XREC_ROUNDTRIP
360
DA
  0
DICTIONARY
  5
CD
330
34
100
AcDbDictionary
280
     1
281
     1
  3
ACAD_XREC_ROUNDTRIP
360
CE
  0
DICTIONARY
  5
CF
330
35
100
AcDbDictionary
280
     1
281
     1
  3
ACAD_XREC_ROUNDTRIP
360
D0
  0
DICTIONARY
  5
D7
330
39
100
AcDbDictionary
280
     1
281
     1
  3
ACAD_XREC_ROUNDTRIP
360
D8
  0
DICTIONARY
  5
BB
330
2B
100
AcDbDictionary
280
     1
281
     1
  3
ACAD_XREC_ROUNDTRIP
360
BC
  0
DICTIONARY
  5
BD
330
2C
100
AcDbDictionary
280
     1
281
     1
  3
ACAD_XREC_ROUNDTRIP
360
BE
  0
DICTIONARY
  5
BF
330
2D
100
AcDbDictionary
280
     1
281
     1
  3
ACAD_XREC_ROUNDTRIP
360
C0
  0
DICTIONARY
  5
C1
330
2E
100
AcDbDictionary
280
     1
281
     1
  3
ACAD_XREC_ROUNDTRIP
360
C2
  0
DICTIONARY
  5
D5
330
38
100
AcDbDictionary
280
     1
281
     1
  3
ACAD_XREC_ROUNDTRIP
360
D6
  0
DICTIONARY
  5
CB
330
33
100
AcDbDictionary
280
     1
281
     1
  3
ACAD_XREC_ROUNDTRIP
360
CC
  0
DICTIONARY
  5
D3
330
37
100
AcDbDictionary
280
     1
281
     1
  3
ACAD_XREC_ROUNDTRIP
360
D4
  0
XRECORD
  5
DE
102
{ACAD_REACTORS
330
DD
102
}
330
DD
100
AcDbXrecord
280
     1
102
MATERIAL
148
0.0
149
0.0
149
0.0
 93
        0
 94
      127
282
     0
 72
     1
 77
     1
171
     1
175
     1
179
     1
273
     0
  0
XRECORD
  5
DC
102
{ACAD_REACTORS
330
DB
102
}
330
DB
100
AcDbXrecord
280
     1
102
MATERIAL
148
0.0
149
0.0
149
0.0
 93
        0
 94
      127
282
     0
 72
     1
 77
     1
171
     1
175
     1
179
     1
273
     0
  0
XRECORD
  5
E0
102
{ACAD_REACTORS
330
DF
102
}
330
DF
100
AcDbXrecord
280
     1
102
MATERIAL
148
0.0
149
0.0
149
0.0
 93
        0
 94
      127
282
     0
 72
     1
 77
     1
171
     1
175
     1
179
     1
273
     0
  0
XRECORD
  5
C4
102
{ACAD_REACTORS
330
C3
102
}
330
C3
100
AcDbXrecord
280
     1
102
RTVSPropertyOp0
 70
     1
102
RTVSPropertyOp1
 70
     1
102
RTVSPropertyOp2
 70
     1
102
RTVSPropertyOp3
 70
     1
102
RTVSPropertyOp4
 70
     1
102
RTVSPropertyOp5
 70
     1
102
RTVSPropertyOp6
 70
     1
102
RTVSPropertyOp7
 70
     1
102
RTVSPropertyOp8
 70
     1
102
RTVSPropertyOp9
 70
     1
102
RTVSPropertyOp10
 70
     1
102
RTVSPropertyOp11
 70
     1
102
RTVSPropertyOp12
 70
     1
102
RTVSPropertyOp13
 70
     1
102
RTVSPropertyOp14
 70
     1
102
RTVSPropertyOp15
 70
     1
102
RTVSPropertyOp16
 70
     1
102
RTVSPropertyOp17
 70
     1
102
RTVSPropertyOp18
 70
     1
102
RTVSPropertyOp19
 70
     1
102
RTVSPropertyOp20
 70
     1
102
RTVSPropertyOp21
 70
     1
102
RTVSPropertyOp22
 70
     1
102
RTVSPropertyOp23
 70
     1
102
RTVSPropertyOp24
 70
     1
102
RTVSPropertyOp25
 70
     1
102
RTVSPropertyOp26
 70
     1
102
RTVSPropertyOp27
 70
     1
102
RTVSPropertyOp28
 70
     1
102
RTVSPropertyOp29
 70
     1
102
RTVSPropertyOp30
 70
     1
102
RTVSPropertyOp31
 70
     1
102
RTVSPropertyOp32
 70
     1
102
RTVSPropertyOp33
 70
     1
102
RTVSPropertyOp34
 70
     1
102
RTVSPropertyOp35
 70
     1
102
RTVSPropertyOp36
 70
     1
102
RTVSPropertyOp37
 70
     1
102
RTVSPropertyOp38
 70
     1
102
RTVSPropertyOp39
 70
     1
102
RTVSPropertyOp40
 70
     1
102
RTVSPropertyOp41
 70
     1
102
RTVSPropertyOp42
 70
     1
102
RTVSPropertyOp43
 70
     1
102
RTVSPropertyOp44
 70
     1
102
RTVSPropertyOp45
 70
     1
102
RTVSPropertyOp46
 70
     1
102
RTVSPropertyOp47
 70
     1
102
RTVSPropertyOp48
 70
     1
102
RTVSPropertyOp49
 70
     1
102
RTVSPropertyOp50
 70
     1
102
RTVSPropertyOp51
 70
     0
102
RTVSPropertyOp52
 70
     0
102
RTVSPropertyOp53
 70
     1
102
RTVSPropertyOp54
 70
     1
102
RTVSPropertyOp55
 70
     1
102
RTVSPropertyOp56
 70
     1
102
RTVSPropertyOp57
 70
     1
102
RTVSPost2010Prop28
280
     1
102
RTVSPost2010PropOp28
 70
     1
102
RTVSPost2010Prop29
280
     1
102
RTVSPost2010PropOp29
 70
     1
102
RTVSPost2010Prop30
280
     0
102
RTVSPost2010PropOp30
 70
     1
102
RTVSPost2010Prop31
280
     0
102
RTVSPost2010PropOp31
 70
     1
102
RTVSPost2010Prop32
280
     0
102
RTVSPost2010PropOp32
 70
     1
102
RTVSPost2010Prop33
280
     0
102
RTVSPost2010PropOp33
 70
     1
102
RTVSPost2010Prop34
280
     0
102
RTVSPost2010PropOp34
 70
     1
102
RTVSPost2010Prop35
280
     0
102
RTVSPost2010PropOp35
 70
     1
102
RTVSPost2010Prop36
280
     0
102
RTVSPost2010PropOp36
 70
     1
102
RTVSPost2010Prop37
 90
       50
102
RTVSPost2010PropOp37
 70
     1
102
RTVSPost2010Prop38
140
0.0
102
RTVSPost2010PropOp38
 70
     1
102
RTVSPost2010Prop39
140
1.0
102
RTVSPost2010PropOp39
 70
     1
102
RTVSPost2010Prop40
 90
        0
102
RTVSPost2010PropOp40
 70
     1
102
RTVSPost2010Prop41ColorIndex
 90
       18
102
RTVSPost2010Prop41ColorRGB
 90
        0
102
RTVSPost2010PropOp41
 70
     1
102
RTVSPost2010Prop42
 90
       50
102
RTVSPost2010PropOp42
 70
     1
102
RTVSPost2010Prop43
 90
        3
102
RTVSPost2010PropOp43
 70
     1
102
RTVSPost2010Prop44ColorIndex
 90
        5
102
RTVSPost2010Prop44ColorRGB
 90
      255
102
RTVSPost2010PropOp44
 70
     1
102
RTVSPost2010Prop45
280
     0
102
RTVSPost2010PropOp45
 70
     1
102
RTVSPost2010Prop46
 90
       50
102
RTVSPost2010PropOp46
 70
     1
102
RTVSPost2010Prop47
 90
       50
102
RTVSPost2010PropOp47
 70
     1
102
RTVSPost2010Prop48
 90
       50
102
RTVSPost2010PropOp48
 70
     1
102
RTVSPost2010Prop49
280
     0
102
RTVSPost2010PropOp49
 70
     1
102
RTVSPost2010Prop50
 90
       50
102
RTVSPost2010PropOp50
 70
     1
102
RTVSPost2010Prop51ColorIndex
 90
      256
102
RTVSPost2010Prop51ColorRGB
 90
-16777216
102
RTVSPost2010PropOp51
 70
     0
102
RTVSPost2010Prop52
140
1.0
102
RTVSPost2010PropOp52
 70
     0
102
RTVSPost2010Prop53
 90
        2
102
RTVSPost2010PropOp53
 70
     1
102
RTVSPost2010Prop54
  1
strokes_ogs.tif
102
RTVSPost2010PropOp54
 70
     1
102
RTVSPost2010Prop55
280
     0
102
RTVSPost2010PropOp55
 70
     1
102
RTVSPost2010Prop56
140
1.0
102
RTVSPost2010PropOp56
 70
     1
102
RTVSPost2010Prop57
140
1.0
102
RTVSPost2010PropOp57
 70
     1
  0
XRECORD
  5
C8
102
{ACAD_REACTORS
330
C7
102
}
330
C7
100
AcDbXrecord
280
     1
102
RTVSPropertyOp0
 70
     1
102
RTVSPropertyOp1
 70
     1
102
RTVSPropertyOp2
 70
     1
102
RTVSPropertyOp3
 70
     1
102
RTVSPropertyOp4
 70
     1
102
RTVSPropertyOp5
 70
     1
102
RTVSPropertyOp6
 70
     1
102
RTVSPropertyOp7
 70
     1
102
RTVSPropertyOp8
 70
     1
102
RTVSPropertyOp9
 70
     1
102
RTVSPropertyOp10
 70
     1
102
RTVSPropertyOp11
 70
     1
102
RTVSPropertyOp12
 70
     1
102
RTVSPropertyOp13
 70
     1
102
RTVSPropertyOp14
 70
     1
102
RTVSPropertyOp15
 70
     1
102
RTVSPropertyOp16
 70
     1
102
RTVSPropertyOp17
 70
     1
102
RTVSPropertyOp18
 70
     1
102
RTVSPropertyOp19
 70
     1
102
RTVSPropertyOp20
 70
     1
102
RTVSPropertyOp21
 70
     1
102
RTVSPropertyOp22
 70
     1
102
RTVSPropertyOp23
 70
     1
102
RTVSPropertyOp24
 70
     1
102
RTVSPropertyOp25
 70
     1
102
RTVSPropertyOp26
 70
     1
102
RTVSPropertyOp27
 70
     1
102
RTVSPropertyOp28
 70
     1
102
RTVSPropertyOp29
 70
     1
102
RTVSPropertyOp30
 70
     1
102
RTVSPropertyOp31
 70
     1
102
RTVSPropertyOp32
 70
     1
102
RTVSPropertyOp33
 70
     1
102
RTVSPropertyOp34
 70
     1
102
RTVSPropertyOp35
 70
     1
102
RTVSPropertyOp36
 70
     1
102
RTVSPropertyOp37
 70
     1
102
RTVSPropertyOp38
 70
     1
102
RTVSPropertyOp39
 70
     1
102
RTVSPropertyOp40
 70
     1
102
RTVSPropertyOp41
 70
     1
102
RTVSPropertyOp42
 70
     1
102
RTVSPropertyOp43
 70
     1
102
RTVSPropertyOp44
 70
     1
102
RTVSPropertyOp45
 70
     1
102
RTVSPropertyOp46
 70
     1
102
RTVSPropertyOp47
 70
     1
102
RTVSPropertyOp48
 70
     1
102
RTVSPropertyOp49
 70
     1
102
RTVSPropertyOp50
 70
     1
102
RTVSPropertyOp51
 70
     0
102
RTVSPropertyOp52
 70
     0
102
RTVSPropertyOp53
 70
     1
102
RTVSPropertyOp54
 70
     1
102
RTVSPropertyOp55
 70
     1
102
RTVSPropertyOp56
 70
     1
102
RTVSPropertyOp57
 70
     1
102
RTVSPost2010Prop28
280
     0
102
RTVSPost2010PropOp28
 70
     1
102
RTVSPost2010Prop29
280
     1
102
RTVSPost2010PropOp29
 70
     1
102
RTVSPost2010Prop30
280
     1
102
RTVSPost2010PropOp30
 70
     1
102
RTVSPost2010Prop31
280
     0
102
RTVSPost2010PropOp31
 70
     1
102
RTVSPost2010Prop32
280
     0
102
RTVSPost2010PropOp32
 70
     1
102
RTVSPost2010Prop33
280
     0
102
RTVSPost2010PropOp33
 70
     1
102
RTVSPost2010Prop34
280
     0
102
RTVSPost2010PropOp34
 70
     1
102
RTVSPost2010Prop35
280
     0
102
RTVSPost2010PropOp35
 70
     1
102
RTVSPost2010Prop36
280
     0
102
RTVSPost2010PropOp36
 70
     1
102
RTVSPost2010Prop37
 90
       50
102
RTVSPost2010PropOp37
 70
     1
102
RTVSPost2010Prop38
140
0.0
102
RTVSPost2010PropOp38
 70
     1
102
RTVSPost2010Prop39
140
1.0
102
RTVSPost2010PropOp39
 70
     1
102
RTVSPost2010Prop40
 90
        0
102
RTVSPost2010PropOp40
 70
     1
102
RTVSPost2010Prop41ColorIndex
 90
       18
102
RTVSPost2010Prop41ColorRGB
 90
        0
102
RTVSPost2010PropOp41
 70
     1
102
RTVSPost2010Prop42
 90
       50
102
RTVSPost2010PropOp42
 70
     1
102
RTVSPost2010Prop43
 90
        3
102
RTVSPost2010PropOp43
 70
     1
102
RTVSPost2010Prop44ColorIndex
 90
        5
102
RTVSPost2010Prop44ColorRGB
 90
      255
102
RTVSPost2010PropOp44
 70
     1
102
RTVSPost2010Prop45
280
     0
102
RTVSPost2010PropOp45
 70
     1
102
RTVSPost2010Prop46
 90
       50
102
RTVSPost2010PropOp46
 70
     1
102
RTVSPost2010Prop47
 90
       50
102
RTVSPost2010PropOp47
 70
     1
102
RTVSPost2010Prop48
 90
       50
102
RTVSPost2010PropOp48
 70
     1
102
RTVSPost2010Prop49
280
     0
102
RTVSPost2010PropOp49
 70
     1
102
RTVSPost2010Prop50
 90
       50
102
RTVSPost2010PropOp50
 70
     1
102
RTVSPost2010Prop51ColorIndex
 90
      256
102
RTVSPost2010Prop51ColorRGB
 90
-16777216
102
RTVSPost2010PropOp51
 70
     0
102
RTVSPost2010Prop52
140
1.0
102
RTVSPost2010PropOp52
 70
     0
102
RTVSPost2010Prop53
 90
        2
102
RTVSPost2010PropOp53
 70
     1
102
RTVSPost2010Prop54
  1
strokes_ogs.tif
102
RTVSPost2010PropOp54
 70
     1
102
RTVSPost2010Prop55
280
     0
102
RTVSPost2010PropOp55
 70
     1
102
RTVSPost2010Prop56
140
1.0
102
RTVSPost2010PropOp56
 70
     1
102
RTVSPost2010Prop57
140
1.0
102
RTVSPost2010PropOp57
 70
     1
  0
XRECORD
  5
C6
102
{ACAD_REACTORS
330
C5
102
}
330
C5
100
AcDbXrecord
280
     1
102
RTVSPropertyOp0
 70
     1
102
RTVSPropertyOp1
 70
     1
102
RTVSPropertyOp2
 70
     1
102
RTVSPropertyOp3
 70
     1
102
RTVSPropertyOp4
 70
     1
102
RTVSPropertyOp5
 70
     1
102
RTVSPropertyOp6
 70
     1
102
RTVSPropertyOp7
 70
     1
102
RTVSPropertyOp8
 70
     1
102
RTVSPropertyOp9
 70
     1
102
RTVSPropertyOp10
 70
     1
102
RTVSPropertyOp11
 70
     1
102
RTVSPropertyOp12
 70
     1
102
RTVSPropertyOp13
 70
     1
102
RTVSPropertyOp14
 70
     1
102
RTVSPropertyOp15
 70
     1
102
RTVSPropertyOp16
 70
     1
102
RTVSPropertyOp17
 70
     1
102
RTVSPropertyOp18
 70
     1
102
RTVSPropertyOp19
 70
     1
102
RTVSPropertyOp20
 70
     1
102
RTVSPropertyOp21
 70
     1
102
RTVSPropertyOp22
 70
     1
102
RTVSPropertyOp23
 70
     1
102
RTVSPropertyOp24
 70
     1
102
RTVSPropertyOp25
 70
     1
102
RTVSPropertyOp26
 70
     1
102
RTVSPropertyOp27
 70
     1
102
RTVSPropertyOp28
 70
     1
102
RTVSPropertyOp29
 70
     1
102
RTVSPropertyOp30
 70
     1
102
RTVSPropertyOp31
 70
     1
102
RTVSPropertyOp32
 70
     1
102
RTVSPropertyOp33
 70
     1
102
RTVSPropertyOp34
 70
     1
102
RTVSPropertyOp35
 70
     1
102
RTVSPropertyOp36
 70
     1
102
RTVSPropertyOp37
 70
     1
102
RTVSPropertyOp38
 70
     1
102
RTVSPropertyOp39
 70
     1
102
RTVSPropertyOp40
 70
     1
102
RTVSPropertyOp41
 70
     1
102
RTVSPropertyOp42
 70
     1
102
RTVSPropertyOp43
 70
     1
102
RTVSPropertyOp44
 70
     1
102
RTVSPropertyOp45
 70
     1
102
RTVSPropertyOp46
 70
     1
102
RTVSPropertyOp47
 70
     1
102
RTVSPropertyOp48
 70
     1
102
RTVSPropertyOp49
 70
     1
102
RTVSPropertyOp50
 70
     1
102
RTVSPropertyOp51
 70
     0
102
RTVSPropertyOp52
 70
     0
102
RTVSPropertyOp53
 70
     1
102
RTVSPropertyOp54
 70
     1
102
RTVSPropertyOp55
 70
     1
102
RTVSPropertyOp56
 70
     1
102
RTVSPropertyOp57
 70
     1
102
RTVSPost2010Prop28
280
     0
102
RTVSPost2010PropOp28
 70
     1
102
RTVSPost2010Prop29
280
     1
102
RTVSPost2010PropOp29
 70
     1
102
RTVSPost2010Prop30
280
     1
102
RTVSPost2010PropOp30
 70
     1
102
RTVSPost2010Prop31
280
     0
102
RTVSPost2010PropOp31
 70
     1
102
RTVSPost2010Prop32
280
     0
102
RTVSPost2010PropOp32
 70
     1
102
RTVSPost2010Prop33
280
     0
102
RTVSPost2010PropOp33
 70
     1
102
RTVSPost2010Prop34
280
     0
102
RTVSPost2010PropOp34
 70
     1
102
RTVSPost2010Prop35
280
     0
102
RTVSPost2010PropOp35
 70
     1
102
RTVSPost2010Prop36
280
     0
102
RTVSPost2010PropOp36
 70
     1
102
RTVSPost2010Prop37
 90
       50
102
RTVSPost2010PropOp37
 70
     1
102
RTVSPost2010Prop38
140
0.0
102
RTVSPost2010PropOp38
 70
     1
102
RTVSPost2010Prop39
140
1.0
102
RTVSPost2010PropOp39
 70
     1
102
RTVSPost2010Prop40
 90
        0
102
RTVSPost2010PropOp40
 70
     1
102
RTVSPost2010Prop41ColorIndex
 90
       18
102
RTVSPost2010Prop41ColorRGB
 90
        0
102
RTVSPost2010PropOp41
 70
     1
102
RTVSPost2010Prop42
 90
       50
102
RTVSPost2010PropOp42
 70
     1
102
RTVSPost2010Prop43
 90
        3
102
RTVSPost2010PropOp43
 70
     1
102
RTVSPost2010Prop44ColorIndex
 90
        5
102
RTVSPost2010Prop44ColorRGB
 90
      255
102
RTVSPost2010PropOp44
 70
     1
102
RTVSPost2010Prop45
280
     0
102
RTVSPost2010PropOp45
 70
     1
102
RTVSPost2010Prop46
 90
       50
102
RTVSPost2010PropOp46
 70
     1
102
RTVSPost2010Prop47
 90
       50
102
RTVSPost2010PropOp47
 70
     1
102
RTVSPost2010Prop48
 90
       50
102
RTVSPost2010PropOp48
 70
     1
102
RTVSPost2010Prop49
280
     0
102
RTVSPost2010PropOp49
 70
     1
102
RTVSPost2010Prop50
 90
       50
102
RTVSPost2010PropOp50
 70
     1
102
RTVSPost2010Prop51ColorIndex
 90
      256
102
RTVSPost2010Prop51ColorRGB
 90
-16777216
102
RTVSPost2010PropOp51
 70
     0
102
RTVSPost2010Prop52
140
1.0
102
RTVSPost2010PropOp52
 70
     0
102
RTVSPost2010Prop53
 90
        2
102
RTVSPost2010PropOp53
 70
     1
102
RTVSPost2010Prop54
  1
strokes_ogs.tif
102
RTVSPost2010PropOp54
 70
     1
102
RTVSPost2010Prop55
280
     0
102
RTVSPost2010PropOp55
 70
     1
102
RTVSPost2010Prop56
140
1.0
102
RTVSPost2010PropOp56
 70
     1
102
RTVSPost2010Prop57
140
1.0
102
RTVSPost2010PropOp57
 70
     1
  0
XRECORD
  5
CA
102
{ACAD_REACTORS
330
C9
102
}
330
C9
100
AcDbXrecord
280
     1
102
RTVSPropertyOp0
 70
     1
102
RTVSPropertyOp1
 70
     1
102
RTVSPropertyOp2
 70
     1
102
RTVSPropertyOp3
 70
     1
102
RTVSPropertyOp4
 70
     1
102
RTVSPropertyOp5
 70
     1
102
RTVSPropertyOp6
 70
     1
102
RTVSPropertyOp7
 70
     1
102
RTVSPropertyOp8
 70
     1
102
RTVSPropertyOp9
 70
     1
102
RTVSPropertyOp10
 70
     1
102
RTVSPropertyOp11
 70
     1
102
RTVSPropertyOp12
 70
     1
102
RTVSPropertyOp13
 70
     1
102
RTVSPropertyOp14
 70
     1
102
RTVSPropertyOp15
 70
     1
102
RTVSPropertyOp16
 70
     1
102
RTVSPropertyOp17
 70
     1
102
RTVSPropertyOp18
 70
     1
102
RTVSPropertyOp19
 70
     1
102
RTVSPropertyOp20
 70
     1
102
RTVSPropertyOp21
 70
     1
102
RTVSPropertyOp22
 70
     1
102
RTVSPropertyOp23
 70
     1
102
RTVSPropertyOp24
 70
     1
102
RTVSPropertyOp25
 70
     1
102
RTVSPropertyOp26
 70
     1
102
RTVSPropertyOp27
 70
     1
102
RTVSPropertyOp28
 70
     1
102
RTVSPropertyOp29
 70
     1
102
RTVSPropertyOp30
 70
     1
102
RTVSPropertyOp31
 70
     1
102
RTVSPropertyOp32
 70
     1
102
RTVSPropertyOp33
 70
     1
102
RTVSPropertyOp34
 70
     1
102
RTVSPropertyOp35
 70
     1
102
RTVSPropertyOp36
 70
     1
102
RTVSPropertyOp37
 70
     1
102
RTVSPropertyOp38
 70
     1
102
RTVSPropertyOp39
 70
     1
102
RTVSPropertyOp40
 70
     1
102
RTVSPropertyOp41
 70
     1
102
RTVSPropertyOp42
 70
     1
102
RTVSPropertyOp43
 70
     1
102
RTVSPropertyOp44
 70
     1
102
RTVSPropertyOp45
 70
     1
102
RTVSPropertyOp46
 70
     1
102
RTVSPropertyOp47
 70
     1
102
RTVSPropertyOp48
 70
     1
102
RTVSPropertyOp49
 70
     1
102
RTVSPropertyOp50
 70
     1
102
RTVSPropertyOp51
 70
     0
102
RTVSPropertyOp52
 70
     0
102
RTVSPropertyOp53
 70
     1
102
RTVSPropertyOp54
 70
     1
102
RTVSPropertyOp55
 70
     1
102
RTVSPropertyOp56
 70
     1
102
RTVSPropertyOp57
 70
     1
102
RTVSPost2010Prop28
280
     0
102
RTVSPost2010PropOp28
 70
     1
102
RTVSPost2010Prop29
280
     1
102
RTVSPost2010PropOp29
 70
     1
102
RTVSPost2010Prop30
280
     1
102
RTVSPost2010PropOp30
 70
     1
102
RTVSPost2010Prop31
280
     0
102
RTVSPost2010PropOp31
 70
     1
102
RTVSPost2010Prop32
280
     0
102
RTVSPost2010PropOp32
 70
     1
102
RTVSPost2010Prop33
280
     0
102
RTVSPost2010PropOp33
 70
     1
102
RTVSPost2010Prop34
280
     0
102
RTVSPost2010PropOp34
 70
     1
102
RTVSPost2010Prop35
280
     0
102
RTVSPost2010PropOp35
 70
     1
102
RTVSPost2010Prop36
280
     0
102
RTVSPost2010PropOp36
 70
     1
102
RTVSPost2010Prop37
 90
       50
102
RTVSPost2010PropOp37
 70
     1
102
RTVSPost2010Prop38
140
0.0
102
RTVSPost2010PropOp38
 70
     1
102
RTVSPost2010Prop39
140
1.0
102
RTVSPost2010PropOp39
 70
     1
102
RTVSPost2010Prop40
 90
        0
102
RTVSPost2010PropOp40
 70
     1
102
RTVSPost2010Prop41ColorIndex
 90
       18
102
RTVSPost2010Prop41ColorRGB
 90
        0
102
RTVSPost2010PropOp41
 70
     1
102
RTVSPost2010Prop42
 90
       50
102
RTVSPost2010PropOp42
 70
     1
102
RTVSPost2010Prop43
 90
        3
102
RTVSPost2010PropOp43
 70
     1
102
RTVSPost2010Prop44ColorIndex
 90
        5
102
RTVSPost2010Prop44ColorRGB
 90
      255
102
RTVSPost2010PropOp44
 70
     1
102
RTVSPost2010Prop45
280
     0
102
RTVSPost2010PropOp45
 70
     1
102
RTVSPost2010Prop46
 90
       50
102
RTVSPost2010PropOp46
 70
     1
102
RTVSPost2010Prop47
 90
       50
102
RTVSPost2010PropOp47
 70
     1
102
RTVSPost2010Prop48
 90
       50
102
RTVSPost2010PropOp48
 70
     1
102
RTVSPost2010Prop49
280
     0
102
RTVSPost2010PropOp49
 70
     1
102
RTVSPost2010Prop50
 90
       50
102
RTVSPost2010PropOp50
 70
     1
102
RTVSPost2010Prop51ColorIndex
 90
      256
102
RTVSPost2010Prop51ColorRGB
 90
-16777216
102
RTVSPost2010PropOp51
 70
     0
102
RTVSPost2010Prop52
140
1.0
102
RTVSPost2010PropOp52
 70
     0
102
RTVSPost2010Prop53
 90
        2
102
RTVSPost2010PropOp53
 70
     1
102
RTVSPost2010Prop54
  1
strokes_ogs.tif
102
RTVSPost2010PropOp54
 70
     1
102
RTVSPost2010Prop55
280
     0
102
RTVSPost2010PropOp55
 70
     1
102
RTVSPost2010Prop56
140
1.0
102
RTVSPost2010PropOp56
 70
     1
102
RTVSPost2010Prop57
140
1.0
102
RTVSPost2010PropOp57
 70
     1
  0
XRECORD
  5
D2
102
{ACAD_REACTORS
330
D1
102
}
330
D1
100
AcDbXrecord
280
     1
102
RTVSPropertyOp0
 70
     1
102
RTVSPropertyOp1
 70
     1
102
RTVSPropertyOp2
 70
     1
102
RTVSPropertyOp3
 70
     1
102
RTVSPropertyOp4
 70
     1
102
RTVSPropertyOp5
 70
     1
102
RTVSPropertyOp6
 70
     1
102
RTVSPropertyOp7
 70
     1
102
RTVSPropertyOp8
 70
     1
102
RTVSPropertyOp9
 70
     1
102
RTVSPropertyOp10
 70
     1
102
RTVSPropertyOp11
 70
     1
102
RTVSPropertyOp12
 70
     1
102
RTVSPropertyOp13
 70
     1
102
RTVSPropertyOp14
 70
     1
102
RTVSPropertyOp15
 70
     1
102
RTVSPropertyOp16
 70
     1
102
RTVSPropertyOp17
 70
     1
102
RTVSPropertyOp18
 70
     1
102
RTVSPropertyOp19
 70
     1
102
RTVSPropertyOp20
 70
     1
102
RTVSPropertyOp21
 70
     1
102
RTVSPropertyOp22
 70
     1
102
RTVSPropertyOp23
 70
     1
102
RTVSPropertyOp24
 70
     1
102
RTVSPropertyOp25
 70
     1
102
RTVSPropertyOp26
 70
     1
102
RTVSPropertyOp27
 70
     1
102
RTVSPropertyOp28
 70
     1
102
RTVSPropertyOp29
 70
     1
102
RTVSPropertyOp30
 70
     1
102
RTVSPropertyOp31
 70
     1
102
RTVSPropertyOp32
 70
     1
102
RTVSPropertyOp33
 70
     1
102
RTVSPropertyOp34
 70
     1
102
RTVSPropertyOp35
 70
     1
102
RTVSPropertyOp36
 70
     1
102
RTVSPropertyOp37
 70
     1
102
RTVSPropertyOp38
 70
     1
102
RTVSPropertyOp39
 70
     1
102
RTVSPropertyOp40
 70
     1
102
RTVSPropertyOp41
 70
     1
102
RTVSPropertyOp42
 70
     1
102
RTVSPropertyOp43
 70
     1
102
RTVSPropertyOp44
 70
     1
102
RTVSPropertyOp45
 70
     1
102
RTVSPropertyOp46
 70
     1
102
RTVSPropertyOp47
 70
     1
102
RTVSPropertyOp48
 70
     1
102
RTVSPropertyOp49
 70
     1
102
RTVSPropertyOp50
 70
     1
102
RTVSPropertyOp51
 70
     0
102
RTVSPropertyOp52
 70
     0
102
RTVSPropertyOp53
 70
     1
102
RTVSPropertyOp54
 70
     1
102
RTVSPropertyOp55
 70
     1
102
RTVSPropertyOp56
 70
     1
102
RTVSPropertyOp57
 70
     1
102
RTVSPost2010Prop28
280
     0
102
RTVSPost2010PropOp28
 70
     1
102
RTVSPost2010Prop29
280
     1
102
RTVSPost2010PropOp29
 70
     1
102
RTVSPost2010Prop30
280
     1
102
RTVSPost2010PropOp30
 70
     1
102
RTVSPost2010Prop31
280
     0
102
RTVSPost2010PropOp31
 70
     1
102
RTVSPost2010Prop32
280
     0
102
RTVSPost2010PropOp32
 70
     1
102
RTVSPost2010Prop33
280
     0
102
RTVSPost2010PropOp33
 70
     1
102
RTVSPost2010Prop34
280
     0
102
RTVSPost2010PropOp34
 70
     1
102
RTVSPost2010Prop35
280
     0
102
RTVSPost2010PropOp35
 70
     1
102
RTVSPost2010Prop36
280
     0
102
RTVSPost2010PropOp36
 70
     1
102
RTVSPost2010Prop37
 90
       50
102
RTVSPost2010PropOp37
 70
     1
102
RTVSPost2010Prop38
140
0.0
102
RTVSPost2010PropOp38
 70
     1
102
RTVSPost2010Prop39
140
1.0
102
RTVSPost2010PropOp39
 70
     1
102
RTVSPost2010Prop40
 90
        0
102
RTVSPost2010PropOp40
 70
     1
102
RTVSPost2010Prop41ColorIndex
 90
       18
102
RTVSPost2010Prop41ColorRGB
 90
        0
102
RTVSPost2010PropOp41
 70
     1
102
RTVSPost2010Prop42
 90
       50
102
RTVSPost2010PropOp42
 70
     1
102
RTVSPost2010Prop43
 90
        3
102
RTVSPost2010PropOp43
 70
     1
102
RTVSPost2010Prop44ColorIndex
 90
        5
102
RTVSPost2010Prop44ColorRGB
 90
      255
102
RTVSPost2010PropOp44
 70
     1
102
RTVSPost2010Prop45
280
     0
102
RTVSPost2010PropOp45
 70
     1
102
RTVSPost2010Prop46
 90
       50
102
RTVSPost2010PropOp46
 70
     1
102
RTVSPost2010Prop47
 90
       50
102
RTVSPost2010PropOp47
 70
     1
102
RTVSPost2010Prop48
 90
       50
102
RTVSPost2010PropOp48
 70
     1
102
RTVSPost2010Prop49
280
     0
102
RTVSPost2010PropOp49
 70
     1
102
RTVSPost2010Prop50
 90
       50
102
RTVSPost2010PropOp50
 70
     1
102
RTVSPost2010Prop51ColorIndex
 90
      256
102
RTVSPost2010Prop51ColorRGB
 90
-16777216
102
RTVSPost2010PropOp51
 70
     0
102
RTVSPost2010Prop52
140
1.0
102
RTVSPost2010PropOp52
 70
     0
102
RTVSPost2010Prop53
 90
        2
102
RTVSPost2010PropOp53
 70
     1
102
RTVSPost2010Prop54
  1
strokes_ogs.tif
102
RTVSPost2010PropOp54
 70
     1
102
RTVSPost2010Prop55
280
     0
102
RTVSPost2010PropOp55
 70
     1
102
RTVSPost2010Prop56
140
1.0
102
RTVSPost2010PropOp56
 70
     1
102
RTVSPost2010Prop57
140
1.0
102
RTVSPost2010PropOp57
 70
     1
  0
XRECORD
  5
DA
102
{ACAD_REACTORS
330
D9
102
}
330
D9
100
AcDbXrecord
280
     1
102
RTVSPropertyOp0
 70
     1
102
RTVSPropertyOp1
 70
     1
102
RTVSPropertyOp2
 70
     1
102
RTVSPropertyOp3
 70
     1
102
RTVSPropertyOp4
 70
     1
102
RTVSPropertyOp5
 70
     1
102
RTVSPropertyOp6
 70
     1
102
RTVSPropertyOp7
 70
     1
102
RTVSPropertyOp8
 70
     1
102
RTVSPropertyOp9
 70
     1
102
RTVSPropertyOp10
 70
     1
102
RTVSPropertyOp11
 70
     1
102
RTVSPropertyOp12
 70
     1
102
RTVSPropertyOp13
 70
     1
102
RTVSPropertyOp14
 70
     1
102
RTVSPropertyOp15
 70
     1
102
RTVSPropertyOp16
 70
     1
102
RTVSPropertyOp17
 70
     1
102
RTVSPropertyOp18
 70
     1
102
RTVSPropertyOp19
 70
     1
102
RTVSPropertyOp20
 70
     1
102
RTVSPropertyOp21
 70
     1
102
RTVSPropertyOp22
 70
     1
102
RTVSPropertyOp23
 70
     1
102
RTVSPropertyOp24
 70
     1
102
RTVSPropertyOp25
 70
     1
102
RTVSPropertyOp26
 70
     1
102
RTVSPropertyOp27
 70
     1
102
RTVSPropertyOp28
 70
     1
102
RTVSPropertyOp29
 70
     1
102
RTVSPropertyOp30
 70
     1
102
RTVSPropertyOp31
 70
     1
102
RTVSPropertyOp32
 70
     1
102
RTVSPropertyOp33
 70
     1
102
RTVSPropertyOp34
 70
     1
102
RTVSPropertyOp35
 70
     1
102
RTVSPropertyOp36
 70
     1
102
RTVSPropertyOp37
 70
     1
102
RTVSPropertyOp38
 70
     1
102
RTVSPropertyOp39
 70
     1
102
RTVSPropertyOp40
 70
     1
102
RTVSPropertyOp41
 70
     1
102
RTVSPropertyOp42
 70
     1
102
RTVSPropertyOp43
 70
     1
102
RTVSPropertyOp44
 70
     1
102
RTVSPropertyOp45
 70
     1
102
RTVSPropertyOp46
 70
     1
102
RTVSPropertyOp47
 70
     1
102
RTVSPropertyOp48
 70
     1
102
RTVSPropertyOp49
 70
     1
102
RTVSPropertyOp50
 70
     1
102
RTVSPropertyOp51
 70
     0
102
RTVSPropertyOp52
 70
     0
102
RTVSPropertyOp53
 70
     1
102
RTVSPropertyOp54
 70
     1
102
RTVSPropertyOp55
 70
     1
102
RTVSPropertyOp56
 70
     1
102
RTVSPropertyOp57
 70
     1
102
RTVSPost2010Prop28
280
     0
102
RTVSPost2010PropOp28
 70
     1
102
RTVSPost2010Prop29
280
     1
102
RTVSPost2010PropOp29
 70
     1
102
RTVSPost2010Prop30
280
     1
102
RTVSPost2010PropOp30
 70
     1
102
RTVSPost2010Prop31
280
     0
102
RTVSPost2010PropOp31
 70
     1
102
RTVSPost2010Prop32
280
     0
102
RTVSPost2010PropOp32
 70
     1
102
RTVSPost2010Prop33
280
     0
102
RTVSPost2010PropOp33
 70
     1
102
RTVSPost2010Prop34
280
     0
102
RTVSPost2010PropOp34
 70
     1
102
RTVSPost2010Prop35
280
     0
102
RTVSPost2010PropOp35
 70
     1
102
RTVSPost2010Prop36
280
     0
102
RTVSPost2010PropOp36
 70
     1
102
RTVSPost2010Prop37
 90
       50
102
RTVSPost2010PropOp37
 70
     1
102
RTVSPost2010Prop38
140
0.0
102
RTVSPost2010PropOp38
 70
     1
102
RTVSPost2010Prop39
140
1.0
102
RTVSPost2010PropOp39
 70
     1
102
RTVSPost2010Prop40
 90
        0
102
RTVSPost2010PropOp40
 70
     1
102
RTVSPost2010Prop41ColorIndex
 90
       18
102
RTVSPost2010Prop41ColorRGB
 90
        0
102
RTVSPost2010PropOp41
 70
     1
102
RTVSPost2010Prop42
 90
       50
102
RTVSPost2010PropOp42
 70
     1
102
RTVSPost2010Prop43
 90
        3
102
RTVSPost2010PropOp43
 70
     1
102
RTVSPost2010Prop44ColorIndex
 90
        5
102
RTVSPost2010Prop44ColorRGB
 90
      255
102
RTVSPost2010PropOp44
 70
     1
102
RTVSPost2010Prop45
280
     0
102
RTVSPost2010PropOp45
 70
     1
102
RTVSPost2010Prop46
 90
       50
102
RTVSPost2010PropOp46
 70
     1
102
RTVSPost2010Prop47
 90
       50
102
RTVSPost2010PropOp47
 70
     1
102
RTVSPost2010Prop48
 90
       50
102
RTVSPost2010PropOp48
 70
     1
102
RTVSPost2010Prop49
280
     0
102
RTVSPost2010PropOp49
 70
     1
102
RTVSPost2010Prop50
 90
       50
102
RTVSPost2010PropOp50
 70
     1
102
RTVSPost2010Prop51ColorIndex
 90
      256
102
RTVSPost2010Prop51ColorRGB
 90
-16777216
102
RTVSPost2010PropOp51
 70
     0
102
RTVSPost2010Prop52
140
1.0
102
RTVSPost2010PropOp52
 70
     0
102
RTVSPost2010Prop53
 90
        2
102
RTVSPost2010PropOp53
 70
     1
102
RTVSPost2010Prop54
  1
strokes_ogs.tif
102
RTVSPost2010PropOp54
 70
     1
102
RTVSPost2010Prop55
280
     0
102
RTVSPost2010PropOp55
 70
     1
102
RTVSPost2010Prop56
140
1.0
102
RTVSPost2010PropOp56
 70
     1
102
RTVSPost2010Prop57
140
1.0
102
RTVSPost2010PropOp57
 70
     1
  0
XRECORD
  5
CE
102
{ACAD_REACTORS
330
CD
102
}
330
CD
100
AcDbXrecord
280
     1
102
RTVSPropertyOp0
 70
     1
102
RTVSPropertyOp1
 70
     1
102
RTVSPropertyOp2
 70
     1
102
RTVSPropertyOp3
 70
     1
102
RTVSPropertyOp4
 70
     1
102
RTVSPropertyOp5
 70
     1
102
RTVSPropertyOp6
 70
     1
102
RTVSPropertyOp7
 70
     1
102
RTVSPropertyOp8
 70
     1
102
RTVSPropertyOp9
 70
     1
102
RTVSPropertyOp10
 70
     1
102
RTVSPropertyOp11
 70
     1
102
RTVSPropertyOp12
 70
     1
102
RTVSPropertyOp13
 70
     1
102
RTVSPropertyOp14
 70
     1
102
RTVSPropertyOp15
 70
     1
102
RTVSPropertyOp16
 70
     1
102
RTVSPropertyOp17
 70
     1
102
RTVSPropertyOp18
 70
     1
102
RTVSPropertyOp19
 70
     1
102
RTVSPropertyOp20
 70
     1
102
RTVSPropertyOp21
 70
     1
102
RTVSPropertyOp22
 70
     1
102
RTVSPropertyOp23
 70
     1
102
RTVSPropertyOp24
 70
     1
102
RTVSPropertyOp25
 70
     1
102
RTVSPropertyOp26
 70
     1
102
RTVSPropertyOp27
 70
     1
102
RTVSPropertyOp28
 70
     1
102
RTVSPropertyOp29
 70
     1
102
RTVSPropertyOp30
 70
     1
102
RTVSPropertyOp31
 70
     1
102
RTVSPropertyOp32
 70
     1
102
RTVSPropertyOp33
 70
     1
102
RTVSPropertyOp34
 70
     1
102
RTVSPropertyOp35
 70
     1
102
RTVSPropertyOp36
 70
     1
102
RTVSPropertyOp37
 70
     1
102
RTVSPropertyOp38
 70
     1
102
RTVSPropertyOp39
 70
     1
102
RTVSPropertyOp40
 70
     1
102
RTVSPropertyOp41
 70
     1
102
RTVSPropertyOp42
 70
     1
102
RTVSPropertyOp43
 70
     1
102
RTVSPropertyOp44
 70
     1
102
RTVSPropertyOp45
 70
     1
102
RTVSPropertyOp46
 70
     1
102
RTVSPropertyOp47
 70
     1
102
RTVSPropertyOp48
 70
     1
102
RTVSPropertyOp49
 70
     1
102
RTVSPropertyOp50
 70
     1
102
RTVSPropertyOp51
 70
     0
102
RTVSPropertyOp52
 70
     0
102
RTVSPropertyOp53
 70
     1
102
RTVSPropertyOp54
 70
     1
102
RTVSPropertyOp55
 70
     1
102
RTVSPropertyOp56
 70
     1
102
RTVSPropertyOp57
 70
     1
102
RTVSPost2010Prop28
280
     0
102
RTVSPost2010PropOp28
 70
     1
102
RTVSPost2010Prop29
280
     1
102
RTVSPost2010PropOp29
 70
     1
102
RTVSPost2010Prop30
280
     1
102
RTVSPost2010PropOp30
 70
     1
102
RTVSPost2010Prop31
280
     0
102
RTVSPost2010PropOp31
 70
     1
102
RTVSPost2010Prop32
280
     0
102
RTVSPost2010PropOp32
 70
     1
102
RTVSPost2010Prop33
280
     0
102
RTVSPost2010PropOp33
 70
     1
102
RTVSPost2010Prop34
280
     0
102
RTVSPost2010PropOp34
 70
     1
102
RTVSPost2010Prop35
280
     0
102
RTVSPost2010PropOp35
 70
     1
102
RTVSPost2010Prop36
280
     0
102
RTVSPost2010PropOp36
 70
     1
102
RTVSPost2010Prop37
 90
       50
102
RTVSPost2010PropOp37
 70
     1
102
RTVSPost2010Prop38
140
0.0
102
RTVSPost2010PropOp38
 70
     1
102
RTVSPost2010Prop39
140
1.0
102
RTVSPost2010PropOp39
 70
     1
102
RTVSPost2010Prop40
 90
        0
102
RTVSPost2010PropOp40
 70
     1
102
RTVSPost2010Prop41ColorIndex
 90
       18
102
RTVSPost2010Prop41ColorRGB
 90
        0
102
RTVSPost2010PropOp41
 70
     1
102
RTVSPost2010Prop42
 90
       50
102
RTVSPost2010PropOp42
 70
     1
102
RTVSPost2010Prop43
 90
        3
102
RTVSPost2010PropOp43
 70
     1
102
RTVSPost2010Prop44ColorIndex
 90
        5
102
RTVSPost2010Prop44ColorRGB
 90
      255
102
RTVSPost2010PropOp44
 70
     1
102
RTVSPost2010Prop45
280
     0
102
RTVSPost2010PropOp45
 70
     1
102
RTVSPost2010Prop46
 90
       50
102
RTVSPost2010PropOp46
 70
     1
102
RTVSPost2010Prop47
 90
       50
102
RTVSPost2010PropOp47
 70
     1
102
RTVSPost2010Prop48
 90
       50
102
RTVSPost2010PropOp48
 70
     1
102
RTVSPost2010Prop49
280
     0
102
RTVSPost2010PropOp49
 70
     1
102
RTVSPost2010Prop50
 90
       50
102
RTVSPost2010PropOp50
 70
     1
102
RTVSPost2010Prop51ColorIndex
 90
      256
102
RTVSPost2010Prop51ColorRGB
 90
-16777216
102
RTVSPost2010PropOp51
 70
     0
102
RTVSPost2010Prop52
140
1.0
102
RTVSPost2010PropOp52
 70
     0
102
RTVSPost2010Prop53
 90
        2
102
RTVSPost2010PropOp53
 70
     1
102
RTVSPost2010Prop54
  1
strokes_ogs.tif
102
RTVSPost2010PropOp54
 70
     1
102
RTVSPost2010Prop55
280
     0
102
RTVSPost2010PropOp55
 70
     1
102
RTVSPost2010Prop56
140
1.0
102
RTVSPost2010PropOp56
 70
     1
102
RTVSPost2010Prop57
140
1.0
102
RTVSPost2010PropOp57
 70
     1
  0
XRECORD
  5
D0
102
{ACAD_REACTORS
330
CF
102
}
330
CF
100
AcDbXrecord
280
     1
102
RTVSPropertyOp0
 70
     1
102
RTVSPropertyOp1
 70
     1
102
RTVSPropertyOp2
 70
     1
102
RTVSPropertyOp3
 70
     1
102
RTVSPropertyOp4
 70
     1
102
RTVSPropertyOp5
 70
     1
102
RTVSPropertyOp6
 70
     1
102
RTVSPropertyOp7
 70
     1
102
RTVSPropertyOp8
 70
     1
102
RTVSPropertyOp9
 70
     1
102
RTVSPropertyOp10
 70
     1
102
RTVSPropertyOp11
 70
     1
102
RTVSPropertyOp12
 70
     1
102
RTVSPropertyOp13
 70
     1
102
RTVSPropertyOp14
 70
     1
102
RTVSPropertyOp15
 70
     1
102
RTVSPropertyOp16
 70
     1
102
RTVSPropertyOp17
 70
     1
102
RTVSPropertyOp18
 70
     1
102
RTVSPropertyOp19
 70
     1
102
RTVSPropertyOp20
 70
     1
102
RTVSPropertyOp21
 70
     1
102
RTVSPropertyOp22
 70
     1
102
RTVSPropertyOp23
 70
     1
102
RTVSPropertyOp24
 70
     1
102
RTVSPropertyOp25
 70
     1
102
RTVSPropertyOp26
 70
     1
102
RTVSPropertyOp27
 70
     1
102
RTVSPropertyOp28
 70
     1
102
RTVSPropertyOp29
 70
     1
102
RTVSPropertyOp30
 70
     1
102
RTVSPropertyOp31
 70
     1
102
RTVSPropertyOp32
 70
     1
102
RTVSPropertyOp33
 70
     1
102
RTVSPropertyOp34
 70
     1
102
RTVSPropertyOp35
 70
     1
102
RTVSPropertyOp36
 70
     1
102
RTVSPropertyOp37
 70
     1
102
RTVSPropertyOp38
 70
     1
102
RTVSPropertyOp39
 70
     1
102
RTVSPropertyOp40
 70
     1
102
RTVSPropertyOp41
 70
     1
102
RTVSPropertyOp42
 70
     1
102
RTVSPropertyOp43
 70
     1
102
RTVSPropertyOp44
 70
     1
102
RTVSPropertyOp45
 70
     1
102
RTVSPropertyOp46
 70
     1
102
RTVSPropertyOp47
 70
     1
102
RTVSPropertyOp48
 70
     1
102
RTVSPropertyOp49
 70
     1
102
RTVSPropertyOp50
 70
     1
102
RTVSPropertyOp51
 70
     0
102
RTVSPropertyOp52
 70
     0
102
RTVSPropertyOp53
 70
     1
102
RTVSPropertyOp54
 70
     1
102
RTVSPropertyOp55
 70
     1
102
RTVSPropertyOp56
 70
     1
102
RTVSPropertyOp57
 70
     1
102
RTVSPost2010Prop28
280
     0
102
RTVSPost2010PropOp28
 70
     1
102
RTVSPost2010Prop29
280
     1
102
RTVSPost2010PropOp29
 70
     1
102
RTVSPost2010Prop30
280
     1
102
RTVSPost2010PropOp30
 70
     1
102
RTVSPost2010Prop31
280
     0
102
RTVSPost2010PropOp31
 70
     1
102
RTVSPost2010Prop32
280
     0
102
RTVSPost2010PropOp32
 70
     1
102
RTVSPost2010Prop33
280
     0
102
RTVSPost2010PropOp33
 70
     1
102
RTVSPost2010Prop34
280
     0
102
RTVSPost2010PropOp34
 70
     1
102
RTVSPost2010Prop35
280
     0
102
RTVSPost2010PropOp35
 70
     1
102
RTVSPost2010Prop36
280
     0
102
RTVSPost2010PropOp36
 70
     1
102
RTVSPost2010Prop37
 90
       50
102
RTVSPost2010PropOp37
 70
     1
102
RTVSPost2010Prop38
140
0.0
102
RTVSPost2010PropOp38
 70
     1
102
RTVSPost2010Prop39
140
1.0
102
RTVSPost2010PropOp39
 70
     1
102
RTVSPost2010Prop40
 90
        0
102
RTVSPost2010PropOp40
 70
     1
102
RTVSPost2010Prop41ColorIndex
 90
       18
102
RTVSPost2010Prop41ColorRGB
 90
        0
102
RTVSPost2010PropOp41
 70
     1
102
RTVSPost2010Prop42
 90
       50
102
RTVSPost2010PropOp42
 70
     1
102
RTVSPost2010Prop43
 90
        3
102
RTVSPost2010PropOp43
 70
     1
102
RTVSPost2010Prop44ColorIndex
 90
        5
102
RTVSPost2010Prop44ColorRGB
 90
      255
102
RTVSPost2010PropOp44
 70
     1
102
RTVSPost2010Prop45
280
     0
102
RTVSPost2010PropOp45
 70
     1
102
RTVSPost2010Prop46
 90
       50
102
RTVSPost2010PropOp46
 70
     1
102
RTVSPost2010Prop47
 90
       50
102
RTVSPost2010PropOp47
 70
     1
102
RTVSPost2010Prop48
 90
       50
102
RTVSPost2010PropOp48
 70
     1
102
RTVSPost2010Prop49
280
     0
102
RTVSPost2010PropOp49
 70
     1
102
RTVSPost2010Prop50
 90
       50
102
RTVSPost2010PropOp50
 70
     1
102
RTVSPost2010Prop51ColorIndex
 90
      256
102
RTVSPost2010Prop51ColorRGB
 90
-16777216
102
RTVSPost2010PropOp51
 70
     0
102
RTVSPost2010Prop52
140
1.0
102
RTVSPost2010PropOp52
 70
     0
102
RTVSPost2010Prop53
 90
        2
102
RTVSPost2010PropOp53
 70
     1
102
RTVSPost2010Prop54
  1
strokes_ogs.tif
102
RTVSPost2010PropOp54
 70
     1
102
RTVSPost2010Prop55
280
     0
102
RTVSPost2010PropOp55
 70
     1
102
RTVSPost2010Prop56
140
1.0
102
RTVSPost2010PropOp56
 70
     1
102
RTVSPost2010Prop57
140
1.0
102
RTVSPost2010PropOp57
 70
     1
  0
XRECORD
  5
D8
102
{ACAD_REACTORS
330
D7
102
}
330
D7
100
AcDbXrecord
280
     1
102
RTVSPropertyOp0
 70
     1
102
RTVSPropertyOp1
 70
     1
102
RTVSPropertyOp2
 70
     1
102
RTVSPropertyOp3
 70
     1
102
RTVSPropertyOp4
 70
     1
102
RTVSPropertyOp5
 70
     1
102
RTVSPropertyOp6
 70
     1
102
RTVSPropertyOp7
 70
     1
102
RTVSPropertyOp8
 70
     1
102
RTVSPropertyOp9
 70
     1
102
RTVSPropertyOp10
 70
     1
102
RTVSPropertyOp11
 70
     1
102
RTVSPropertyOp12
 70
     1
102
RTVSPropertyOp13
 70
     1
102
RTVSPropertyOp14
 70
     1
102
RTVSPropertyOp15
 70
     1
102
RTVSPropertyOp16
 70
     1
102
RTVSPropertyOp17
 70
     1
102
RTVSPropertyOp18
 70
     1
102
RTVSPropertyOp19
 70
     1
102
RTVSPropertyOp20
 70
     1
102
RTVSPropertyOp21
 70
     1
102
RTVSPropertyOp22
 70
     1
102
RTVSPropertyOp23
 70
     1
102
RTVSPropertyOp24
 70
     1
102
RTVSPropertyOp25
 70
     1
102
RTVSPropertyOp26
 70
     1
102
RTVSPropertyOp27
 70
     1
102
RTVSPropertyOp28
 70
     1
102
RTVSPropertyOp29
 70
     1
102
RTVSPropertyOp30
 70
     1
102
RTVSPropertyOp31
 70
     1
102
RTVSPropertyOp32
 70
     1
102
RTVSPropertyOp33
 70
     1
102
RTVSPropertyOp34
 70
     1
102
RTVSPropertyOp35
 70
     1
102
RTVSPropertyOp36
 70
     1
102
RTVSPropertyOp37
 70
     1
102
RTVSPropertyOp38
 70
     1
102
RTVSPropertyOp39
 70
     1
102
RTVSPropertyOp40
 70
     1
102
RTVSPropertyOp41
 70
     1
102
RTVSPropertyOp42
 70
     1
102
RTVSPropertyOp43
 70
     1
102
RTVSPropertyOp44
 70
     1
102
RTVSPropertyOp45
 70
     1
102
RTVSPropertyOp46
 70
     1
102
RTVSPropertyOp47
 70
     1
102
RTVSPropertyOp48
 70
     1
102
RTVSPropertyOp49
 70
     1
102
RTVSPropertyOp50
 70
     1
102
RTVSPropertyOp51
 70
     0
102
RTVSPropertyOp52
 70
     0
102
RTVSPropertyOp53
 70
     1
102
RTVSPropertyOp54
 70
     1
102
RTVSPropertyOp55
 70
     1
102
RTVSPropertyOp56
 70
     1
102
RTVSPropertyOp57
 70
     1
102
RTVSPost2010Prop28
280
     0
102
RTVSPost2010PropOp28
 70
     1
102
RTVSPost2010Prop29
280
     1
102
RTVSPost2010PropOp29
 70
     1
102
RTVSPost2010Prop30
280
     1
102
RTVSPost2010PropOp30
 70
     1
102
RTVSPost2010Prop31
280
     0
102
RTVSPost2010PropOp31
 70
     1
102
RTVSPost2010Prop32
280
     0
102
RTVSPost2010PropOp32
 70
     1
102
RTVSPost2010Prop33
280
     0
102
RTVSPost2010PropOp33
 70
     1
102
RTVSPost2010Prop34
280
     0
102
RTVSPost2010PropOp34
 70
     1
102
RTVSPost2010Prop35
280
     0
102
RTVSPost2010PropOp35
 70
     1
102
RTVSPost2010Prop36
280
     0
102
RTVSPost2010PropOp36
 70
     1
102
RTVSPost2010Prop37
 90
       50
102
RTVSPost2010PropOp37
 70
     1
102
RTVSPost2010Prop38
140
0.0
102
RTVSPost2010PropOp38
 70
     1
102
RTVSPost2010Prop39
140
1.0
102
RTVSPost2010PropOp39
 70
     1
102
RTVSPost2010Prop40
 90
        0
102
RTVSPost2010PropOp40
 70
     1
102
RTVSPost2010Prop41ColorIndex
 90
       18
102
RTVSPost2010Prop41ColorRGB
 90
        0
102
RTVSPost2010PropOp41
 70
     1
102
RTVSPost2010Prop42
 90
       50
102
RTVSPost2010PropOp42
 70
     1
102
RTVSPost2010Prop43
 90
        3
102
RTVSPost2010PropOp43
 70
     1
102
RTVSPost2010Prop44ColorIndex
 90
        5
102
RTVSPost2010Prop44ColorRGB
 90
      255
102
RTVSPost2010PropOp44
 70
     1
102
RTVSPost2010Prop45
280
     0
102
RTVSPost2010PropOp45
 70
     1
102
RTVSPost2010Prop46
 90
       50
102
RTVSPost2010PropOp46
 70
     1
102
RTVSPost2010Prop47
 90
       50
102
RTVSPost2010PropOp47
 70
     1
102
RTVSPost2010Prop48
 90
       50
102
RTVSPost2010PropOp48
 70
     1
102
RTVSPost2010Prop49
280
     0
102
RTVSPost2010PropOp49
 70
     1
102
RTVSPost2010Prop50
 90
       50
102
RTVSPost2010PropOp50
 70
     1
102
RTVSPost2010Prop51ColorIndex
 90
      256
102
RTVSPost2010Prop51ColorRGB
 90
-16777216
102
RTVSPost2010PropOp51
 70
     0
102
RTVSPost2010Prop52
140
1.0
102
RTVSPost2010PropOp52
 70
     0
102
RTVSPost2010Prop53
 90
        2
102
RTVSPost2010PropOp53
 70
     1
102
RTVSPost2010Prop54
  1
strokes_ogs.tif
102
RTVSPost2010PropOp54
 70
     1
102
RTVSPost2010Prop55
280
     0
102
RTVSPost2010PropOp55
 70
     1
102
RTVSPost2010Prop56
140
1.0
102
RTVSPost2010PropOp56
 70
     1
102
RTVSPost2010Prop57
140
1.0
102
RTVSPost2010PropOp57
 70
     1
  0
XRECORD
  5
BC
102
{ACAD_REACTORS
330
BB
102
}
330
BB
100
AcDbXrecord
280
     1
102
RTVSPropertyOp0
 70
     1
102
RTVSPropertyOp1
 70
     1
102
RTVSPropertyOp2
 70
     1
102
RTVSPropertyOp3
 70
     1
102
RTVSPropertyOp4
 70
     1
102
RTVSPropertyOp5
 70
     1
102
RTVSPropertyOp6
 70
     1
102
RTVSPropertyOp7
 70
     1
102
RTVSPropertyOp8
 70
     1
102
RTVSPropertyOp9
 70
     1
102
RTVSPropertyOp10
 70
     1
102
RTVSPropertyOp11
 70
     1
102
RTVSPropertyOp12
 70
     1
102
RTVSPropertyOp13
 70
     1
102
RTVSPropertyOp14
 70
     1
102
RTVSPropertyOp15
 70
     1
102
RTVSPropertyOp16
 70
     1
102
RTVSPropertyOp17
 70
     1
102
RTVSPropertyOp18
 70
     1
102
RTVSPropertyOp19
 70
     1
102
RTVSPropertyOp20
 70
     1
102
RTVSPropertyOp21
 70
     1
102
RTVSPropertyOp22
 70
     1
102
RTVSPropertyOp23
 70
     1
102
RTVSPropertyOp24
 70
     1
102
RTVSPropertyOp25
 70
     1
102
RTVSPropertyOp26
 70
     1
102
RTVSPropertyOp27
 70
     1
102
RTVSPropertyOp28
 70
     1
102
RTVSPropertyOp29
 70
     1
102
RTVSPropertyOp30
 70
     1
102
RTVSPropertyOp31
 70
     1
102
RTVSPropertyOp32
 70
     1
102
RTVSPropertyOp33
 70
     1
102
RTVSPropertyOp34
 70
     1
102
RTVSPropertyOp35
 70
     1
102
RTVSPropertyOp36
 70
     1
102
RTVSPropertyOp37
 70
     1
102
RTVSPropertyOp38
 70
     1
102
RTVSPropertyOp39
 70
     1
102
RTVSPropertyOp40
 70
     1
102
RTVSPropertyOp41
 70
     1
102
RTVSPropertyOp42
 70
     1
102
RTVSPropertyOp43
 70
     1
102
RTVSPropertyOp44
 70
     1
102
RTVSPropertyOp45
 70
     1
102
RTVSPropertyOp46
 70
     1
102
RTVSPropertyOp47
 70
     1
102
RTVSPropertyOp48
 70
     1
102
RTVSPropertyOp49
 70
     1
102
RTVSPropertyOp50
 70
     1
102
RTVSPropertyOp51
 70
     0
102
RTVSPropertyOp52
 70
     0
102
RTVSPropertyOp53
 70
     1
102
RTVSPropertyOp54
 70
     1
102
RTVSPropertyOp55
 70
     1
102
RTVSPropertyOp56
 70
     1
102
RTVSPropertyOp57
 70
     1
102
RTVSPost2010Prop28
280
     0
102
RTVSPost2010PropOp28
 70
     1
102
RTVSPost2010Prop29
280
     1
102
RTVSPost2010PropOp29
 70
     1
102
RTVSPost2010Prop30
280
     1
102
RTVSPost2010PropOp30
 70
     1
102
RTVSPost2010Prop31
280
     0
102
RTVSPost2010PropOp31
 70
     1
102
RTVSPost2010Prop32
280
     0
102
RTVSPost2010PropOp32
 70
     1
102
RTVSPost2010Prop33
280
     0
102
RTVSPost2010PropOp33
 70
     1
102
RTVSPost2010Prop34
280
     0
102
RTVSPost2010PropOp34
 70
     1
102
RTVSPost2010Prop35
280
     0
102
RTVSPost2010PropOp35
 70
     1
102
RTVSPost2010Prop36
280
     0
102
RTVSPost2010PropOp36
 70
     1
102
RTVSPost2010Prop37
 90
       50
102
RTVSPost2010PropOp37
 70
     1
102
RTVSPost2010Prop38
140
0.0
102
RTVSPost2010PropOp38
 70
     1
102
RTVSPost2010Prop39
140
1.0
102
RTVSPost2010PropOp39
 70
     1
102
RTVSPost2010Prop40
 90
        0
102
RTVSPost2010PropOp40
 70
     1
102
RTVSPost2010Prop41ColorIndex
 90
       18
102
RTVSPost2010Prop41ColorRGB
 90
        0
102
RTVSPost2010PropOp41
 70
     1
102
RTVSPost2010Prop42
 90
       50
102
RTVSPost2010PropOp42
 70
     1
102
RTVSPost2010Prop43
 90
        3
102
RTVSPost2010PropOp43
 70
     1
102
RTVSPost2010Prop44ColorIndex
 90
        5
102
RTVSPost2010Prop44ColorRGB
 90
      255
102
RTVSPost2010PropOp44
 70
     1
102
RTVSPost2010Prop45
280
     0
102
RTVSPost2010PropOp45
 70
     1
102
RTVSPost2010Prop46
 90
       50
102
RTVSPost2010PropOp46
 70
     1
102
RTVSPost2010Prop47
 90
       50
102
RTVSPost2010PropOp47
 70
     1
102
RTVSPost2010Prop48
 90
       50
102
RTVSPost2010PropOp48
 70
     1
102
RTVSPost2010Prop49
280
     0
102
RTVSPost2010PropOp49
 70
     1
102
RTVSPost2010Prop50
 90
       50
102
RTVSPost2010PropOp50
 70
     1
102
RTVSPost2010Prop51ColorIndex
 90
      256
102
RTVSPost2010Prop51ColorRGB
 90
-16777216
102
RTVSPost2010PropOp51
 70
     0
102
RTVSPost2010Prop52
140
1.0
102
RTVSPost2010PropOp52
 70
     0
102
RTVSPost2010Prop53
 90
        2
102
RTVSPost2010PropOp53
 70
     1
102
RTVSPost2010Prop54
  1
strokes_ogs.tif
102
RTVSPost2010PropOp54
 70
     1
102
RTVSPost2010Prop55
280
     0
102
RTVSPost2010PropOp55
 70
     1
102
RTVSPost2010Prop56
140
1.0
102
RTVSPost2010PropOp56
 70
     1
102
RTVSPost2010Prop57
140
1.0
102
RTVSPost2010PropOp57
 70
     1
  0
XRECORD
  5
BE
102
{ACAD_REACTORS
330
BD
102
}
330
BD
100
AcDbXrecord
280
     1
102
RTVSPropertyOp0
 70
     1
102
RTVSPropertyOp1
 70
     1
102
RTVSPropertyOp2
 70
     1
102
RTVSPropertyOp3
 70
     1
102
RTVSPropertyOp4
 70
     1
102
RTVSPropertyOp5
 70
     1
102
RTVSPropertyOp6
 70
     1
102
RTVSPropertyOp7
 70
     1
102
RTVSPropertyOp8
 70
     1
102
RTVSPropertyOp9
 70
     1
102
RTVSPropertyOp10
 70
     1
102
RTVSPropertyOp11
 70
     1
102
RTVSPropertyOp12
 70
     1
102
RTVSPropertyOp13
 70
     1
102
RTVSPropertyOp14
 70
     1
102
RTVSPropertyOp15
 70
     1
102
RTVSPropertyOp16
 70
     1
102
RTVSPropertyOp17
 70
     1
102
RTVSPropertyOp18
 70
     1
102
RTVSPropertyOp19
 70
     1
102
RTVSPropertyOp20
 70
     1
102
RTVSPropertyOp21
 70
     1
102
RTVSPropertyOp22
 70
     1
102
RTVSPropertyOp23
 70
     1
102
RTVSPropertyOp24
 70
     1
102
RTVSPropertyOp25
 70
     1
102
RTVSPropertyOp26
 70
     1
102
RTVSPropertyOp27
 70
     1
102
RTVSPropertyOp28
 70
     1
102
RTVSPropertyOp29
 70
     1
102
RTVSPropertyOp30
 70
     1
102
RTVSPropertyOp31
 70
     1
102
RTVSPropertyOp32
 70
     1
102
RTVSPropertyOp33
 70
     1
102
RTVSPropertyOp34
 70
     1
102
RTVSPropertyOp35
 70
     1
102
RTVSPropertyOp36
 70
     1
102
RTVSPropertyOp37
 70
     1
102
RTVSPropertyOp38
 70
     1
102
RTVSPropertyOp39
 70
     1
102
RTVSPropertyOp40
 70
     1
102
RTVSPropertyOp41
 70
     1
102
RTVSPropertyOp42
 70
     1
102
RTVSPropertyOp43
 70
     1
102
RTVSPropertyOp44
 70
     1
102
RTVSPropertyOp45
 70
     1
102
RTVSPropertyOp46
 70
     1
102
RTVSPropertyOp47
 70
     1
102
RTVSPropertyOp48
 70
     1
102
RTVSPropertyOp49
 70
     1
102
RTVSPropertyOp50
 70
     1
102
RTVSPropertyOp51
 70
     0
102
RTVSPropertyOp52
 70
     0
102
RTVSPropertyOp53
 70
     1
102
RTVSPropertyOp54
 70
     1
102
RTVSPropertyOp55
 70
     1
102
RTVSPropertyOp56
 70
     1
102
RTVSPropertyOp57
 70
     1
102
RTVSPost2010Prop28
280
     0
102
RTVSPost2010PropOp28
 70
     1
102
RTVSPost2010Prop29
280
     1
102
RTVSPost2010PropOp29
 70
     1
102
RTVSPost2010Prop30
280
     1
102
RTVSPost2010PropOp30
 70
     1
102
RTVSPost2010Prop31
280
     0
102
RTVSPost2010PropOp31
 70
     1
102
RTVSPost2010Prop32
280
     0
102
RTVSPost2010PropOp32
 70
     1
102
RTVSPost2010Prop33
280
     0
102
RTVSPost2010PropOp33
 70
     1
102
RTVSPost2010Prop34
280
     0
102
RTVSPost2010PropOp34
 70
     1
102
RTVSPost2010Prop35
280
     0
102
RTVSPost2010PropOp35
 70
     1
102
RTVSPost2010Prop36
280
     0
102
RTVSPost2010PropOp36
 70
     1
102
RTVSPost2010Prop37
 90
       50
102
RTVSPost2010PropOp37
 70
     1
102
RTVSPost2010Prop38
140
0.0
102
RTVSPost2010PropOp38
 70
     1
102
RTVSPost2010Prop39
140
1.0
102
RTVSPost2010PropOp39
 70
     1
102
RTVSPost2010Prop40
 90
        0
102
RTVSPost2010PropOp40
 70
     1
102
RTVSPost2010Prop41ColorIndex
 90
       18
102
RTVSPost2010Prop41ColorRGB
 90
        0
102
RTVSPost2010PropOp41
 70
     1
102
RTVSPost2010Prop42
 90
       50
102
RTVSPost2010PropOp42
 70
     1
102
RTVSPost2010Prop43
 90
        3
102
RTVSPost2010PropOp43
 70
     1
102
RTVSPost2010Prop44ColorIndex
 90
        5
102
RTVSPost2010Prop44ColorRGB
 90
      255
102
RTVSPost2010PropOp44
 70
     1
102
RTVSPost2010Prop45
280
     0
102
RTVSPost2010PropOp45
 70
     1
102
RTVSPost2010Prop46
 90
       50
102
RTVSPost2010PropOp46
 70
     1
102
RTVSPost2010Prop47
 90
       50
102
RTVSPost2010PropOp47
 70
     1
102
RTVSPost2010Prop48
 90
       50
102
RTVSPost2010PropOp48
 70
     1
102
RTVSPost2010Prop49
280
     0
102
RTVSPost2010PropOp49
 70
     1
102
RTVSPost2010Prop50
 90
       50
102
RTVSPost2010PropOp50
 70
     1
102
RTVSPost2010Prop51ColorIndex
 90
      256
102
RTVSPost2010Prop51ColorRGB
 90
-16777216
102
RTVSPost2010PropOp51
 70
     0
102
RTVSPost2010Prop52
140
1.0
102
RTVSPost2010PropOp52
 70
     0
102
RTVSPost2010Prop53
 90
        2
102
RTVSPost2010PropOp53
 70
     1
102
RTVSPost2010Prop54
  1
strokes_ogs.tif
102
RTVSPost2010PropOp54
 70
     1
102
RTVSPost2010Prop55
280
     0
102
RTVSPost2010PropOp55
 70
     1
102
RTVSPost2010Prop56
140
1.0
102
RTVSPost2010PropOp56
 70
     1
102
RTVSPost2010Prop57
140
1.0
102
RTVSPost2010PropOp57
 70
     1
  0
XRECORD
  5
C0
102
{ACAD_REACTORS
330
BF
102
}
330
BF
100
AcDbXrecord
280
     1
102
RTVSPropertyOp0
 70
     1
102
RTVSPropertyOp1
 70
     1
102
RTVSPropertyOp2
 70
     1
102
RTVSPropertyOp3
 70
     1
102
RTVSPropertyOp4
 70
     1
102
RTVSPropertyOp5
 70
     1
102
RTVSPropertyOp6
 70
     1
102
RTVSPropertyOp7
 70
     1
102
RTVSPropertyOp8
 70
     1
102
RTVSPropertyOp9
 70
     1
102
RTVSPropertyOp10
 70
     1
102
RTVSPropertyOp11
 70
     1
102
RTVSPropertyOp12
 70
     1
102
RTVSPropertyOp13
 70
     1
102
RTVSPropertyOp14
 70
     1
102
RTVSPropertyOp15
 70
     1
102
RTVSPropertyOp16
 70
     1
102
RTVSPropertyOp17
 70
     1
102
RTVSPropertyOp18
 70
     1
102
RTVSPropertyOp19
 70
     1
102
RTVSPropertyOp20
 70
     1
102
RTVSPropertyOp21
 70
     1
102
RTVSPropertyOp22
 70
     1
102
RTVSPropertyOp23
 70
     1
102
RTVSPropertyOp24
 70
     1
102
RTVSPropertyOp25
 70
     1
102
RTVSPropertyOp26
 70
     1
102
RTVSPropertyOp27
 70
     1
102
RTVSPropertyOp28
 70
     1
102
RTVSPropertyOp29
 70
     1
102
RTVSPropertyOp30
 70
     1
102
RTVSPropertyOp31
 70
     1
102
RTVSPropertyOp32
 70
     1
102
RTVSPropertyOp33
 70
     1
102
RTVSPropertyOp34
 70
     1
102
RTVSPropertyOp35
 70
     1
102
RTVSPropertyOp36
 70
     1
102
RTVSPropertyOp37
 70
     1
102
RTVSPropertyOp38
 70
     1
102
RTVSPropertyOp39
 70
     1
102
RTVSPropertyOp40
 70
     1
102
RTVSPropertyOp41
 70
     1
102
RTVSPropertyOp42
 70
     1
102
RTVSPropertyOp43
 70
     1
102
RTVSPropertyOp44
 70
     1
102
RTVSPropertyOp45
 70
     1
102
RTVSPropertyOp46
 70
     1
102
RTVSPropertyOp47
 70
     1
102
RTVSPropertyOp48
 70
     1
102
RTVSPropertyOp49
 70
     1
102
RTVSPropertyOp50
 70
     1
102
RTVSPropertyOp51
 70
     0
102
RTVSPropertyOp52
 70
     0
102
RTVSPropertyOp53
 70
     1
102
RTVSPropertyOp54
 70
     1
102
RTVSPropertyOp55
 70
     1
102
RTVSPropertyOp56
 70
     1
102
RTVSPropertyOp57
 70
     1
102
RTVSPost2010Prop28
280
     0
102
RTVSPost2010PropOp28
 70
     1
102
RTVSPost2010Prop29
280
     1
102
RTVSPost2010PropOp29
 70
     1
102
RTVSPost2010Prop30
280
     1
102
RTVSPost2010PropOp30
 70
     1
102
RTVSPost2010Prop31
280
     0
102
RTVSPost2010PropOp31
 70
     1
102
RTVSPost2010Prop32
280
     0
102
RTVSPost2010PropOp32
 70
     1
102
RTVSPost2010Prop33
280
     0
102
RTVSPost2010PropOp33
 70
     1
102
RTVSPost2010Prop34
280
     0
102
RTVSPost2010PropOp34
 70
     1
102
RTVSPost2010Prop35
280
     0
102
RTVSPost2010PropOp35
 70
     1
102
RTVSPost2010Prop36
280
     0
102
RTVSPost2010PropOp36
 70
     1
102
RTVSPost2010Prop37
 90
       50
102
RTVSPost2010PropOp37
 70
     1
102
RTVSPost2010Prop38
140
0.0
102
RTVSPost2010PropOp38
 70
     1
102
RTVSPost2010Prop39
140
1.0
102
RTVSPost2010PropOp39
 70
     1
102
RTVSPost2010Prop40
 90
        0
102
RTVSPost2010PropOp40
 70
     1
102
RTVSPost2010Prop41ColorIndex
 90
       18
102
RTVSPost2010Prop41ColorRGB
 90
        0
102
RTVSPost2010PropOp41
 70
     1
102
RTVSPost2010Prop42
 90
       50
102
RTVSPost2010PropOp42
 70
     1
102
RTVSPost2010Prop43
 90
        3
102
RTVSPost2010PropOp43
 70
     1
102
RTVSPost2010Prop44ColorIndex
 90
        5
102
RTVSPost2010Prop44ColorRGB
 90
      255
102
RTVSPost2010PropOp44
 70
     1
102
RTVSPost2010Prop45
280
     0
102
RTVSPost2010PropOp45
 70
     1
102
RTVSPost2010Prop46
 90
       50
102
RTVSPost2010PropOp46
 70
     1
102
RTVSPost2010Prop47
 90
       50
102
RTVSPost2010PropOp47
 70
     1
102
RTVSPost2010Prop48
 90
       50
102
RTVSPost2010PropOp48
 70
     1
102
RTVSPost2010Prop49
280
     0
102
RTVSPost2010PropOp49
 70
     1
102
RTVSPost2010Prop50
 90
       50
102
RTVSPost2010PropOp50
 70
     1
102
RTVSPost2010Prop51ColorIndex
 90
      256
102
RTVSPost2010Prop51ColorRGB
 90
-16777216
102
RTVSPost2010PropOp51
 70
     0
102
RTVSPost2010Prop52
140
1.0
102
RTVSPost2010PropOp52
 70
     0
102
RTVSPost2010Prop53
 90
        2
102
RTVSPost2010PropOp53
 70
     1
102
RTVSPost2010Prop54
  1
strokes_ogs.tif
102
RTVSPost2010PropOp54
 70
     1
102
RTVSPost2010Prop55
280
     0
102
RTVSPost2010PropOp55
 70
     1
102
RTVSPost2010Prop56
140
1.0
102
RTVSPost2010PropOp56
 70
     1
102
RTVSPost2010Prop57
140
1.0
102
RTVSPost2010PropOp57
 70
     1
  0
XRECORD
  5
C2
102
{ACAD_REACTORS
330
C1
102
}
330
C1
100
AcDbXrecord
280
     1
102
RTVSPropertyOp0
 70
     1
102
RTVSPropertyOp1
 70
     1
102
RTVSPropertyOp2
 70
     1
102
RTVSPropertyOp3
 70
     1
102
RTVSPropertyOp4
 70
     1
102
RTVSPropertyOp5
 70
     1
102
RTVSPropertyOp6
 70
     1
102
RTVSPropertyOp7
 70
     1
102
RTVSPropertyOp8
 70
     1
102
RTVSPropertyOp9
 70
     1
102
RTVSPropertyOp10
 70
     1
102
RTVSPropertyOp11
 70
     1
102
RTVSPropertyOp12
 70
     1
102
RTVSPropertyOp13
 70
     1
102
RTVSPropertyOp14
 70
     1
102
RTVSPropertyOp15
 70
     1
102
RTVSPropertyOp16
 70
     1
102
RTVSPropertyOp17
 70
     1
102
RTVSPropertyOp18
 70
     1
102
RTVSPropertyOp19
 70
     1
102
RTVSPropertyOp20
 70
     1
102
RTVSPropertyOp21
 70
     1
102
RTVSPropertyOp22
 70
     1
102
RTVSPropertyOp23
 70
     1
102
RTVSPropertyOp24
 70
     1
102
RTVSPropertyOp25
 70
     1
102
RTVSPropertyOp26
 70
     1
102
RTVSPropertyOp27
 70
     1
102
RTVSPropertyOp28
 70
     1
102
RTVSPropertyOp29
 70
     1
102
RTVSPropertyOp30
 70
     1
102
RTVSPropertyOp31
 70
     1
102
RTVSPropertyOp32
 70
     1
102
RTVSPropertyOp33
 70
     1
102
RTVSPropertyOp34
 70
     1
102
RTVSPropertyOp35
 70
     1
102
RTVSPropertyOp36
 70
     1
102
RTVSPropertyOp37
 70
     1
102
RTVSPropertyOp38
 70
     1
102
RTVSPropertyOp39
 70
     1
102
RTVSPropertyOp40
 70
     1
102
RTVSPropertyOp41
 70
     1
102
RTVSPropertyOp42
 70
     1
102
RTVSPropertyOp43
 70
     1
102
RTVSPropertyOp44
 70
     1
102
RTVSPropertyOp45
 70
     1
102
RTVSPropertyOp46
 70
     1
102
RTVSPropertyOp47
 70
     1
102
RTVSPropertyOp48
 70
     1
102
RTVSPropertyOp49
 70
     1
102
RTVSPropertyOp50
 70
     1
102
RTVSPropertyOp51
 70
     0
102
RTVSPropertyOp52
 70
     0
102
RTVSPropertyOp53
 70
     1
102
RTVSPropertyOp54
 70
     1
102
RTVSPropertyOp55
 70
     1
102
RTVSPropertyOp56
 70
     1
102
RTVSPropertyOp57
 70
     1
102
RTVSPost2010Prop28
280
     0
102
RTVSPost2010PropOp28
 70
     1
102
RTVSPost2010Prop29
280
     1
102
RTVSPost2010PropOp29
 70
     1
102
RTVSPost2010Prop30
280
     1
102
RTVSPost2010PropOp30
 70
     1
102
RTVSPost2010Prop31
280
     0
102
RTVSPost2010PropOp31
 70
     1
102
RTVSPost2010Prop32
280
     0
102
RTVSPost2010PropOp32
 70
     1
102
RTVSPost2010Prop33
280
     0
102
RTVSPost2010PropOp33
 70
     1
102
RTVSPost2010Prop34
280
     0
102
RTVSPost2010PropOp34
 70
     1
102
RTVSPost2010Prop35
280
     0
102
RTVSPost2010PropOp35
 70
     1
102
RTVSPost2010Prop36
280
     0
102
RTVSPost2010PropOp36
 70
     1
102
RTVSPost2010Prop37
 90
       50
102
RTVSPost2010PropOp37
 70
     1
102
RTVSPost2010Prop38
140
0.0
102
RTVSPost2010PropOp38
 70
     1
102
RTVSPost2010Prop39
140
1.0
102
RTVSPost2010PropOp39
 70
     1
102
RTVSPost2010Prop40
 90
        0
102
RTVSPost2010PropOp40
 70
     1
102
RTVSPost2010Prop41ColorIndex
 90
       18
102
RTVSPost2010Prop41ColorRGB
 90
        0
102
RTVSPost2010PropOp41
 70
     1
102
RTVSPost2010Prop42
 90
       50
102
RTVSPost2010PropOp42
 70
     1
102
RTVSPost2010Prop43
 90
        3
102
RTVSPost2010PropOp43
 70
     1
102
RTVSPost2010Prop44ColorIndex
 90
        5
102
RTVSPost2010Prop44ColorRGB
 90
      255
102
RTVSPost2010PropOp44
 70
     1
102
RTVSPost2010Prop45
280
     0
102
RTVSPost2010PropOp45
 70
     1
102
RTVSPost2010Prop46
 90
       50
102
RTVSPost2010PropOp46
 70
     1
102
RTVSPost2010Prop47
 90
       50
102
RTVSPost2010PropOp47
 70
     1
102
RTVSPost2010Prop48
 90
       50
102
RTVSPost2010PropOp48
 70
     1
102
RTVSPost2010Prop49
280
     0
102
RTVSPost2010PropOp49
 70
     1
102
RTVSPost2010Prop50
 90
       50
102
RTVSPost2010PropOp50
 70
     1
102
RTVSPost2010Prop51ColorIndex
 90
      256
102
RTVSPost2010Prop51ColorRGB
 90
-16777216
102
RTVSPost2010PropOp51
 70
     0
102
RTVSPost2010Prop52
140
1.0
102
RTVSPost2010PropOp52
 70
     0
102
RTVSPost2010Prop53
 90
        2
102
RTVSPost2010PropOp53
 70
     1
102
RTVSPost2010Prop54
  1
strokes_ogs.tif
102
RTVSPost2010PropOp54
 70
     1
102
RTVSPost2010Prop55
280
     0
102
RTVSPost2010PropOp55
 70
     1
102
RTVSPost2010Prop56
140
1.0
102
RTVSPost2010PropOp56
 70
     1
102
RTVSPost2010Prop57
140
1.0
102
RTVSPost2010PropOp57
 70
     1
  0
XRECORD
  5
D6
102
{ACAD_REACTORS
330
D5
102
}
330
D5
100
AcDbXrecord
280
     1
102
RTVSPropertyOp0
 70
     1
102
RTVSPropertyOp1
 70
     1
102
RTVSPropertyOp2
 70
     1
102
RTVSPropertyOp3
 70
     1
102
RTVSPropertyOp4
 70
     1
102
RTVSPropertyOp5
 70
     1
102
RTVSPropertyOp6
 70
     1
102
RTVSPropertyOp7
 70
     1
102
RTVSPropertyOp8
 70
     1
102
RTVSPropertyOp9
 70
     1
102
RTVSPropertyOp10
 70
     1
102
RTVSPropertyOp11
 70
     1
102
RTVSPropertyOp12
 70
     1
102
RTVSPropertyOp13
 70
     1
102
RTVSPropertyOp14
 70
     1
102
RTVSPropertyOp15
 70
     1
102
RTVSPropertyOp16
 70
     1
102
RTVSPropertyOp17
 70
     1
102
RTVSPropertyOp18
 70
     1
102
RTVSPropertyOp19
 70
     1
102
RTVSPropertyOp20
 70
     1
102
RTVSPropertyOp21
 70
     1
102
RTVSPropertyOp22
 70
     1
102
RTVSPropertyOp23
 70
     1
102
RTVSPropertyOp24
 70
     1
102
RTVSPropertyOp25
 70
     1
102
RTVSPropertyOp26
 70
     1
102
RTVSPropertyOp27
 70
     1
102
RTVSPropertyOp28
 70
     1
102
RTVSPropertyOp29
 70
     1
102
RTVSPropertyOp30
 70
     1
102
RTVSPropertyOp31
 70
     1
102
RTVSPropertyOp32
 70
     1
102
RTVSPropertyOp33
 70
     1
102
RTVSPropertyOp34
 70
     1
102
RTVSPropertyOp35
 70
     1
102
RTVSPropertyOp36
 70
     1
102
RTVSPropertyOp37
 70
     1
102
RTVSPropertyOp38
 70
     1
102
RTVSPropertyOp39
 70
     1
102
RTVSPropertyOp40
 70
     1
102
RTVSPropertyOp41
 70
     1
102
RTVSPropertyOp42
 70
     1
102
RTVSPropertyOp43
 70
     1
102
RTVSPropertyOp44
 70
     1
102
RTVSPropertyOp45
 70
     1
102
RTVSPropertyOp46
 70
     1
102
RTVSPropertyOp47
 70
     1
102
RTVSPropertyOp48
 70
     1
102
RTVSPropertyOp49
 70
     1
102
RTVSPropertyOp50
 70
     1
102
RTVSPropertyOp51
 70
     0
102
RTVSPropertyOp52
 70
     0
102
RTVSPropertyOp53
 70
     1
102
RTVSPropertyOp54
 70
     1
102
RTVSPropertyOp55
 70
     1
102
RTVSPropertyOp56
 70
     1
102
RTVSPropertyOp57
 70
     1
102
RTVSPost2010Prop28
280
     0
102
RTVSPost2010PropOp28
 70
     1
102
RTVSPost2010Prop29
280
     1
102
RTVSPost2010PropOp29
 70
     1
102
RTVSPost2010Prop30
280
     1
102
RTVSPost2010PropOp30
 70
     1
102
RTVSPost2010Prop31
280
     0
102
RTVSPost2010PropOp31
 70
     1
102
RTVSPost2010Prop32
280
     0
102
RTVSPost2010PropOp32
 70
     1
102
RTVSPost2010Prop33
280
     0
102
RTVSPost2010PropOp33
 70
     1
102
RTVSPost2010Prop34
280
     0
102
RTVSPost2010PropOp34
 70
     1
102
RTVSPost2010Prop35
280
     0
102
RTVSPost2010PropOp35
 70
     1
102
RTVSPost2010Prop36
280
     0
102
RTVSPost2010PropOp36
 70
     1
102
RTVSPost2010Prop37
 90
       50
102
RTVSPost2010PropOp37
 70
     1
102
RTVSPost2010Prop38
140
0.0
102
RTVSPost2010PropOp38
 70
     1
102
RTVSPost2010Prop39
140
1.0
102
RTVSPost2010PropOp39
 70
     1
102
RTVSPost2010Prop40
 90
        0
102
RTVSPost2010PropOp40
 70
     1
102
RTVSPost2010Prop41ColorIndex
 90
       18
102
RTVSPost2010Prop41ColorRGB
 90
        0
102
RTVSPost2010PropOp41
 70
     1
102
RTVSPost2010Prop42
 90
       50
102
RTVSPost2010PropOp42
 70
     1
102
RTVSPost2010Prop43
 90
        3
102
RTVSPost2010PropOp43
 70
     1
102
RTVSPost2010Prop44ColorIndex
 90
        5
102
RTVSPost2010Prop44ColorRGB
 90
      255
102
RTVSPost2010PropOp44
 70
     1
102
RTVSPost2010Prop45
280
     0
102
RTVSPost2010PropOp45
 70
     1
102
RTVSPost2010Prop46
 90
       50
102
RTVSPost2010PropOp46
 70
     1
102
RTVSPost2010Prop47
 90
       50
102
RTVSPost2010PropOp47
 70
     1
102
RTVSPost2010Prop48
 90
       50
102
RTVSPost2010PropOp48
 70
     1
102
RTVSPost2010Prop49
280
     0
102
RTVSPost2010PropOp49
 70
     1
102
RTVSPost2010Prop50
 90
       50
102
RTVSPost2010PropOp50
 70
     1
102
RTVSPost2010Prop51ColorIndex
 90
      256
102
RTVSPost2010Prop51ColorRGB
 90
-16777216
102
RTVSPost2010PropOp51
 70
     0
102
RTVSPost2010Prop52
140
1.0
102
RTVSPost2010PropOp52
 70
     0
102
RTVSPost2010Prop53
 90
        2
102
RTVSPost2010PropOp53
 70
     1
102
RTVSPost2010Prop54
  1
strokes_ogs.tif
102
RTVSPost2010PropOp54
 70
     1
102
RTVSPost2010Prop55
280
     0
102
RTVSPost2010PropOp55
 70
     1
102
RTVSPost2010Prop56
140
1.0
102
RTVSPost2010PropOp56
 70
     1
102
RTVSPost2010Prop57
140
1.0
102
RTVSPost2010PropOp57
 70
     1
  0
XRECORD
  5
CC
102
{ACAD_REACTORS
330
CB
102
}
330
CB
100
AcDbXrecord
280
     1
102
RTVSPropertyOp0
 70
     1
102
RTVSPropertyOp1
 70
     1
102
RTVSPropertyOp2
 70
     1
102
RTVSPropertyOp3
 70
     1
102
RTVSPropertyOp4
 70
     1
102
RTVSPropertyOp5
 70
     1
102
RTVSPropertyOp6
 70
     1
102
RTVSPropertyOp7
 70
     1
102
RTVSPropertyOp8
 70
     1
102
RTVSPropertyOp9
 70
     1
102
RTVSPropertyOp10
 70
     1
102
RTVSPropertyOp11
 70
     1
102
RTVSPropertyOp12
 70
     1
102
RTVSPropertyOp13
 70
     1
102
RTVSPropertyOp14
 70
     1
102
RTVSPropertyOp15
 70
     1
102
RTVSPropertyOp16
 70
     1
102
RTVSPropertyOp17
 70
     1
102
RTVSPropertyOp18
 70
     1
102
RTVSPropertyOp19
 70
     1
102
RTVSPropertyOp20
 70
     1
102
RTVSPropertyOp21
 70
     1
102
RTVSPropertyOp22
 70
     1
102
RTVSPropertyOp23
 70
     1
102
RTVSPropertyOp24
 70
     1
102
RTVSPropertyOp25
 70
     1
102
RTVSPropertyOp26
 70
     1
102
RTVSPropertyOp27
 70
     1
102
RTVSPropertyOp28
 70
     1
102
RTVSPropertyOp29
 70
     1
102
RTVSPropertyOp30
 70
     1
102
RTVSPropertyOp31
 70
     1
102
RTVSPropertyOp32
 70
     1
102
RTVSPropertyOp33
 70
     1
102
RTVSPropertyOp34
 70
     1
102
RTVSPropertyOp35
 70
     1
102
RTVSPropertyOp36
 70
     1
102
RTVSPropertyOp37
 70
     1
102
RTVSPropertyOp38
 70
     1
102
RTVSPropertyOp39
 70
     1
102
RTVSPropertyOp40
 70
     1
102
RTVSPropertyOp41
 70
     1
102
RTVSPropertyOp42
 70
     1
102
RTVSPropertyOp43
 70
     1
102
RTVSPropertyOp44
 70
     1
102
RTVSPropertyOp45
 70
     1
102
RTVSPropertyOp46
 70
     1
102
RTVSPropertyOp47
 70
     1
102
RTVSPropertyOp48
 70
     1
102
RTVSPropertyOp49
 70
     1
102
RTVSPropertyOp50
 70
     1
102
RTVSPropertyOp51
 70
     0
102
RTVSPropertyOp52
 70
     0
102
RTVSPropertyOp53
 70
     1
102
RTVSPropertyOp54
 70
     1
102
RTVSPropertyOp55
 70
     1
102
RTVSPropertyOp56
 70
     1
102
RTVSPropertyOp57
 70
     1
102
RTVSPost2010Prop28
280
     0
102
RTVSPost2010PropOp28
 70
     1
102
RTVSPost2010Prop29
280
     1
102
RTVSPost2010PropOp29
 70
     1
102
RTVSPost2010Prop30
280
     1
102
RTVSPost2010PropOp30
 70
     1
102
RTVSPost2010Prop31
280
     0
102
RTVSPost2010PropOp31
 70
     1
102
RTVSPost2010Prop32
280
     0
102
RTVSPost2010PropOp32
 70
     1
102
RTVSPost2010Prop33
280
     0
102
RTVSPost2010PropOp33
 70
     1
102
RTVSPost2010Prop34
280
     0
102
RTVSPost2010PropOp34
 70
     1
102
RTVSPost2010Prop35
280
     0
102
RTVSPost2010PropOp35
 70
     1
102
RTVSPost2010Prop36
280
     0
102
RTVSPost2010PropOp36
 70
     1
102
RTVSPost2010Prop37
 90
       50
102
RTVSPost2010PropOp37
 70
     1
102
RTVSPost2010Prop38
140
0.0
102
RTVSPost2010PropOp38
 70
     1
102
RTVSPost2010Prop39
140
1.0
102
RTVSPost2010PropOp39
 70
     1
102
RTVSPost2010Prop40
 90
        0
102
RTVSPost2010PropOp40
 70
     1
102
RTVSPost2010Prop41ColorIndex
 90
       18
102
RTVSPost2010Prop41ColorRGB
 90
        0
102
RTVSPost2010PropOp41
 70
     1
102
RTVSPost2010Prop42
 90
       50
102
RTVSPost2010PropOp42
 70
     1
102
RTVSPost2010Prop43
 90
        3
102
RTVSPost2010PropOp43
 70
     1
102
RTVSPost2010Prop44ColorIndex
 90
        5
102
RTVSPost2010Prop44ColorRGB
 90
      255
102
RTVSPost2010PropOp44
 70
     1
102
RTVSPost2010Prop45
280
     0
102
RTVSPost2010PropOp45
 70
     1
102
RTVSPost2010Prop46
 90
       50
102
RTVSPost2010PropOp46
 70
     1
102
RTVSPost2010Prop47
 90
       50
102
RTVSPost2010PropOp47
 70
     1
102
RTVSPost2010Prop48
 90
       50
102
RTVSPost2010PropOp48
 70
     1
102
RTVSPost2010Prop49
280
     0
102
RTVSPost2010PropOp49
 70
     1
102
RTVSPost2010Prop50
 90
       50
102
RTVSPost2010PropOp50
 70
     1
102
RTVSPost2010Prop51ColorIndex
 90
      256
102
RTVSPost2010Prop51ColorRGB
 90
-16777216
102
RTVSPost2010PropOp51
 70
     0
102
RTVSPost2010Prop52
140
1.0
102
RTVSPost2010PropOp52
 70
     0
102
RTVSPost2010Prop53
 90
        2
102
RTVSPost2010PropOp53
 70
     1
102
RTVSPost2010Prop54
  1
strokes_ogs.tif
102
RTVSPost2010PropOp54
 70
     1
102
RTVSPost2010Prop55
280
     0
102
RTVSPost2010PropOp55
 70
     1
102
RTVSPost2010Prop56
140
1.0
102
RTVSPost2010PropOp56
 70
     1
102
RTVSPost2010Prop57
140
1.0
102
RTVSPost2010PropOp57
 70
     1
  0
XRECORD
  5
D4
102
{ACAD_REACTORS
330
D3
102
}
330
D3
100
AcDbXrecord
280
     1
102
RTVSPropertyOp0
 70
     1
102
RTVSPropertyOp1
 70
     1
102
RTVSPropertyOp2
 70
     1
102
RTVSPropertyOp3
 70
     1
102
RTVSPropertyOp4
 70
     1
102
RTVSPropertyOp5
 70
     1
102
RTVSPropertyOp6
 70
     1
102
RTVSPropertyOp7
 70
     1
102
RTVSPropertyOp8
 70
     1
102
RTVSPropertyOp9
 70
     1
102
RTVSPropertyOp10
 70
     1
102
RTVSPropertyOp11
 70
     1
102
RTVSPropertyOp12
 70
     1
102
RTVSPropertyOp13
 70
     1
102
RTVSPropertyOp14
 70
     1
102
RTVSPropertyOp15
 70
     1
102
RTVSPropertyOp16
 70
     1
102
RTVSPropertyOp17
 70
     1
102
RTVSPropertyOp18
 70
     1
102
RTVSPropertyOp19
 70
     1
102
RTVSPropertyOp20
 70
     1
102
RTVSPropertyOp21
 70
     1
102
RTVSPropertyOp22
 70
     1
102
RTVSPropertyOp23
 70
     1
102
RTVSPropertyOp24
 70
     1
102
RTVSPropertyOp25
 70
     1
102
RTVSPropertyOp26
 70
     1
102
RTVSPropertyOp27
 70
     1
102
RTVSPropertyOp28
 70
     1
102
RTVSPropertyOp29
 70
     1
102
RTVSPropertyOp30
 70
     1
102
RTVSPropertyOp31
 70
     1
102
RTVSPropertyOp32
 70
     1
102
RTVSPropertyOp33
 70
     1
102
RTVSPropertyOp34
 70
     1
102
RTVSPropertyOp35
 70
     1
102
RTVSPropertyOp36
 70
     1
102
RTVSPropertyOp37
 70
     1
102
RTVSPropertyOp38
 70
     1
102
RTVSPropertyOp39
 70
     1
102
RTVSPropertyOp40
 70
     1
102
RTVSPropertyOp41
 70
     1
102
RTVSPropertyOp42
 70
     1
102
RTVSPropertyOp43
 70
     1
102
RTVSPropertyOp44
 70
     1
102
RTVSPropertyOp45
 70
     1
102
RTVSPropertyOp46
 70
     1
102
RTVSPropertyOp47
 70
     1
102
RTVSPropertyOp48
 70
     1
102
RTVSPropertyOp49
 70
     1
102
RTVSPropertyOp50
 70
     1
102
RTVSPropertyOp51
 70
     0
102
RTVSPropertyOp52
 70
     0
102
RTVSPropertyOp53
 70
     1
102
RTVSPropertyOp54
 70
     1
102
RTVSPropertyOp55
 70
     1
102
RTVSPropertyOp56
 70
     1
102
RTVSPropertyOp57
 70
     1
102
RTVSPost2010Prop28
280
     0
102
RTVSPost2010PropOp28
 70
     1
102
RTVSPost2010Prop29
280
     1
102
RTVSPost2010PropOp29
 70
     1
102
RTVSPost2010Prop30
280
     1
102
RTVSPost2010PropOp30
 70
     1
102
RTVSPost2010Prop31
280
     0
102
RTVSPost2010PropOp31
 70
     1
102
RTVSPost2010Prop32
280
     0
102
RTVSPost2010PropOp32
 70
     1
102
RTVSPost2010Prop33
280
     0
102
RTVSPost2010PropOp33
 70
     1
102
RTVSPost2010Prop34
280
     0
102
RTVSPost2010PropOp34
 70
     1
102
RTVSPost2010Prop35
280
     0
102
RTVSPost2010PropOp35
 70
     1
102
RTVSPost2010Prop36
280
     0
102
RTVSPost2010PropOp36
 70
     1
102
RTVSPost2010Prop37
 90
       50
102
RTVSPost2010PropOp37
 70
     1
102
RTVSPost2010Prop38
140
0.0
102
RTVSPost2010PropOp38
 70
     1
102
RTVSPost2010Prop39
140
1.0
102
RTVSPost2010PropOp39
 70
     1
102
RTVSPost2010Prop40
 90
        0
102
RTVSPost2010PropOp40
 70
     1
102
RTVSPost2010Prop41ColorIndex
 90
       18
102
RTVSPost2010Prop41ColorRGB
 90
        0
102
RTVSPost2010PropOp41
 70
     1
102
RTVSPost2010Prop42
 90
       50
102
RTVSPost2010PropOp42
 70
     1
102
RTVSPost2010Prop43
 90
        3
102
RTVSPost2010PropOp43
 70
     1
102
RTVSPost2010Prop44ColorIndex
 90
        5
102
RTVSPost2010Prop44ColorRGB
 90
      255
102
RTVSPost2010PropOp44
 70
     1
102
RTVSPost2010Prop45
280
     0
102
RTVSPost2010PropOp45
 70
     1
102
RTVSPost2010Prop46
 90
       50
102
RTVSPost2010PropOp46
 70
     1
102
RTVSPost2010Prop47
 90
       50
102
RTVSPost2010PropOp47
 70
     1
102
RTVSPost2010Prop48
 90
       50
102
RTVSPost2010PropOp48
 70
     1
102
RTVSPost2010Prop49
280
     0
102
RTVSPost2010PropOp49
 70
     1
102
RTVSPost2010Prop50
 90
       50
102
RTVSPost2010PropOp50
 70
     1
102
RTVSPost2010Prop51ColorIndex
 90
      256
102
RTVSPost2010Prop51ColorRGB
 90
-16777216
102
RTVSPost2010PropOp51
 70
     0
102
RTVSPost2010Prop52
140
1.0
102
RTVSPost2010PropOp52
 70
     0
102
RTVSPost2010Prop53
 90
        2
102
RTVSPost2010PropOp53
 70
     1
102
RTVSPost2010Prop54
  1
strokes_ogs.tif
102
RTVSPost2010PropOp54
 70
     1
102
RTVSPost2010Prop55
280
     0
102
RTVSPost2010PropOp55
 70
     1
102
RTVSPost2010Prop56
140
1.0
102
RTVSPost2010PropOp56
 70
     1
102
RTVSPost2010Prop57
140
1.0
102
RTVSPost2010PropOp57
 70
     1
  0
ENDSEC
  0
EOF
