  0
SECTION
  2
HEADER
  9
$ACADVER
  1
AC1018
  9
$ACADMAINTVER
 70
     0
  9
$DWGCODEPAGE
  3
ANSI_936
  9
$INSBASE
 10
0.0
 20
0.0
 30
0.0
  9
$EXTMIN
 10
1467.566922895628
 20
-478.1983909496573
 30
0.0
  9
$EXTMAX
 10
2064.427674545378
 20
-0.000000000005457
 30
0.0
  9
$LIMMIN
 10
0.0
 20
0.0
  9
$LIMMAX
 10
12.0
 20
9.0
  9
$ORTHOMODE
 70
     0
  9
$REGENMODE
 70
     1
  9
$FILLMODE
 70
     1
  9
$QTEXTMODE
 70
     0
  9
$MIRRTEXT
 70
     1
  9
$LTSCALE
 40
1.0
  9
$ATTMODE
 70
     1
  9
$TEXTSIZE
 40
0.2
  9
$TRACEWID
 40
0.05
  9
$TEXTSTYLE
  7
Standard
  9
$CLAYER
  8
0
  9
$CELTYPE
  6
ByLayer
  9
$CECOLOR
 62
   256
  9
$CELTSCALE
 40
1.0
  9
$DISPSILH
 70
     0
  9
$DIMSCALE
 40
1.0
  9
$DIMASZ
 40
0.18
  9
$DIMEXO
 40
0.0625
  9
$DIMDLI
 40
0.38
  9
$DIMRND
 40
0.0
  9
$DIMDLE
 40
0.0
  9
$DIMEXE
 40
0.18
  9
$DIMTP
 40
0.0
  9
$DIMTM
 40
0.0
  9
$DIMTXT
 40
0.18
  9
$DIMCEN
 40
0.09
  9
$DIMTSZ
 40
0.0
  9
$DIMTOL
 70
     0
  9
$DIMLIM
 70
     0
  9
$DIMTIH
 70
     1
  9
$DIMTOH
 70
     1
  9
$DIMSE1
 70
     0
  9
$DIMSE2
 70
     0
  9
$DIMTAD
 70
     0
  9
$DIMZIN
 70
     0
  9
$DIMBLK
  1

  9
$DIMASO
 70
     1
  9
$DIMSHO
 70
     1
  9
$DIMPOST
  1

  9
$DIMAPOST
  1

  9
$DIMALT
 70
     0
  9
$DIMALTD
 70
     2
  9
$DIMALTF
 40
25.4
  9
$DIMLFAC
 40
1.0
  9
$DIMTOFL
 70
     0
  9
$DIMTVP
 40
0.0
  9
$DIMTIX
 70
     0
  9
$DIMSOXD
 70
     0
  9
$DIMSAH
 70
     0
  9
$DIMBLK1
  1

  9
$DIMBLK2
  1

  9
$DIMSTYLE
  2
Standard
  9
$DIMCLRD
 70
     0
  9
$DIMCLRE
 70
     0
  9
$DIMCLRT
 70
     0
  9
$DIMTFAC
 40
1.0
  9
$DIMGAP
 40
0.09
  9
$DIMJUST
 70
     0
  9
$DIMSD1
 70
     0
  9
$DIMSD2
 70
     0
  9
$DIMTOLJ
 70
     1
  9
$DIMTZIN
 70
     0
  9
$DIMALTZ
 70
     0
  9
$DIMALTTZ
 70
     0
  9
$DIMUPT
 70
     0
  9
$DIMDEC
 70
     4
  9
$DIMTDEC
 70
     4
  9
$DIMALTU
 70
     2
  9
$DIMALTTD
 70
     2
  9
$DIMTXSTY
  7
Standard
  9
$DIMAUNIT
 70
     0
  9
$DIMADEC
 70
     0
  9
$DIMALTRND
 40
0.0
  9
$DIMAZIN
 70
     0
  9
$DIMDSEP
 70
    46
  9
$DIMATFIT
 70
     3
  9
$DIMFRAC
 70
     0
  9
$DIMLDRBLK
  1

  9
$DIMLUNIT
 70
     2
  9
$DIMLWD
 70
    -2
  9
$DIMLWE
 70
    -2
  9
$DIMTMOVE
 70
     2
  9
$LUNITS
 70
     2
  9
$LUPREC
 70
     3
  9
$SKETCHINC
 40
0.1
  9
$FILLETRAD
 40
0.5
  9
$AUNITS
 70
     0
  9
$AUPREC
 70
     0
  9
$MENU
  1
.
  9
$ELEVATION
 40
0.0
  9
$PELEVATION
 40
0.0
  9
$THICKNESS
 40
0.0
  9
$LIMCHECK
 70
     0
  9
$CHAMFERA
 40
0.5
  9
$CHAMFERB
 40
0.5
  9
$CHAMFERC
 40
1.0
  9
$CHAMFERD
 40
0.0
  9
$SKPOLY
 70
     0
  9
$TDCREATE
 40
2458254.40464728
  9
$TDUCREATE
 40
2458254.071313947
  9
$TDUPDATE
 40
2458254.404647361
  9
$TDUUPDATE
 40
2458254.071314028
  9
$TDINDWG
 40
0.0000000116
  9
$TDUSRTIMER
 40
0.0000000116
  9
$USRTIMER
 70
     1
  9
$ANGBASE
 50
0.0
  9
$ANGDIR
 70
     0
  9
$PDMODE
 70
     0
  9
$PDSIZE
 40
0.0
  9
$PLINEWID
 40
0.0
  9
$SPLFRAME
 70
     0
  9
$SPLINETYPE
 70
     6
  9
$SPLINESEGS
 70
     8
  9
$HANDSEED
  5
98
  9
$SURFTAB1
 70
     6
  9
$SURFTAB2
 70
     6
  9
$SURFTYPE
 70
     6
  9
$SURFU
 70
     6
  9
$SURFV
 70
     6
  9
$UCSBASE
  2

  9
$UCSNAME
  2

  9
$UCSORG
 10
0.0
 20
0.0
 30
0.0
  9
$UCSXDIR
 10
1.0
 20
0.0
 30
0.0
  9
$UCSYDIR
 10
0.0
 20
1.0
 30
0.0
  9
$UCSORTHOREF
  2

  9
$UCSORTHOVIEW
 70
     0
  9
$UCSORGTOP
 10
0.0
 20
0.0
 30
0.0
  9
$UCSORGBOTTOM
 10
0.0
 20
0.0
 30
0.0
  9
$UCSORGLEFT
 10
0.0
 20
0.0
 30
0.0
  9
$UCSORGRIGHT
 10
0.0
 20
0.0
 30
0.0
  9
$UCSORGFRONT
 10
0.0
 20
0.0
 30
0.0
  9
$UCSORGBACK
 10
0.0
 20
0.0
 30
0.0
  9
$PUCSBASE
  2

  9
$PUCSNAME
  2

  9
$PUCSORG
 10
0.0
 20
0.0
 30
0.0
  9
$PUCSXDIR
 10
1.0
 20
0.0
 30
0.0
  9
$PUCSYDIR
 10
0.0
 20
1.0
 30
0.0
  9
$PUCSORTHOREF
  2

  9
$PUCSORTHOVIEW
 70
     0
  9
$PUCSORGTOP
 10
0.0
 20
0.0
 30
0.0
  9
$PUCSORGBOTTOM
 10
0.0
 20
0.0
 30
0.0
  9
$PUCSORGLEFT
 10
0.0
 20
0.0
 30
0.0
  9
$PUCSORGRIGHT
 10
0.0
 20
0.0
 30
0.0
  9
$PUCSORGFRONT
 10
0.0
 20
0.0
 30
0.0
  9
$PUCSORGBACK
 10
0.0
 20
0.0
 30
0.0
  9
$USERI1
 70
     0
  9
$USERI2
 70
     0
  9
$USERI3
 70
     0
  9
$USERI4
 70
     0
  9
$USERI5
 70
     0
  9
$USERR1
 40
0.0
  9
$USERR2
 40
0.0
  9
$USERR3
 40
0.0
  9
$USERR4
 40
0.0
  9
$USERR5
 40
0.0
  9
$WORLDVIEW
 70
     1
  9
$SHADEDGE
 70
     3
  9
$SHADEDIF
 70
    70
  9
$TILEMODE
 70
     1
  9
$MAXACTVP
 70
    64
  9
$PINSBASE
 10
0.0
 20
0.0
 30
0.0
  9
$PLIMCHECK
 70
     0
  9
$PEXTMIN
 10
1.000000000000000E+20
 20
1.000000000000000E+20
 30
1.000000000000000E+20
  9
$PEXTMAX
 10
-1.000000000000000E+20
 20
-1.000000000000000E+20
 30
-1.000000000000000E+20
  9
$PLIMMIN
 10
0.0
 20
0.0
  9
$PLIMMAX
 10
12.0
 20
9.0
  9
$UNITMODE
 70
     0
  9
$VISRETAIN
 70
     1
  9
$PLINEGEN
 70
     0
  9
$PSLTSCALE
 70
     1
  9
$TREEDEPTH
 70
  3020
  9
$CMLSTYLE
  2
Standard
  9
$CMLJUST
 70
     0
  9
$CMLSCALE
 40
1.0
  9
$PROXYGRAPHICS
 70
     1
  9
$MEASUREMENT
 70
     0
  9
$CELWEIGHT
370
    -1
  9
$ENDCAPS
280
     0
  9
$JOINSTYLE
280
     0
  9
$LWDISPLAY
290
     0
  9
$INSUNITS
 70
     4
  9
$HYPERLINKBASE
  1

  9
$STYLESHEET
  1

  9
$XEDIT
290
     1
  9
$CEPSNTYPE
380
     0
  9
$PSTYLEMODE
290
     1
  9
$FINGERPRINTGUID
  2
{37007DAE-0A9B-490A-B0BE-515298E3C188}
  9
$VERSIONGUID
  2
{FAEB1C32-E019-11D5-929B-00C0DF256EC4}
  9
$EXTNAMES
290
     1
  9
$PSVPSCALE
 40
0.0
  9
$OLESTARTUP
290
     0
  9
$SORTENTS
280
   127
  9
$INDEXCTL
280
     0
  9
$HIDETEXT
280
     1
  9
$XCLIPFRAME
290
     0
  9
$HALOGAP
280
     0
  9
$OBSCOLOR
 70
   257
  9
$OBSLTYPE
280
     0
  9
$INTERSECTIONDISPLAY
280
     0
  9
$INTERSECTIONCOLOR
 70
   257
  9
$DIMASSOC
280
     2
  9
$PROJECTNAME
  1

  0
ENDSEC
  0
SECTION
  2
CLASSES
  0
CLASS
  1
ACDBDICTIONARYWDFLT
  2
AcDbDictionaryWithDefault
  3
ObjectDBX Classes
 90
        0
 91
        4
280
     0
281
     0
  0
CLASS
  1
VISUALSTYLE
  2
AcDbVisualStyle
  3
ObjectDBX Classes
 90
     4095
 91
        4
280
     0
281
     0
  0
CLASS
  1
MATERIAL
  2
AcDbMaterial
  3
ObjectDBX Classes
 90
     1153
 91
        4
280
     0
281
     0
  0
CLASS
  1
SCALE
  2
AcDbScale
  3
ObjectDBX Classes
 90
     1153
 91
        4
280
     0
281
     0
  0
CLASS
  1
SUN
  2
AcDbSun
  3
SCENEOE
 90
     1153
 91
        4
280
     0
281
     0
  0
CLASS
  1
DICTIONARYVAR
  2
AcDbDictionaryVar
  3
ObjectDBX Classes
 90
        0
 91
        4
280
     0
281
     0
  0
ENDSEC
  0
SECTION
  2
TABLES
  0
TABLE
  2
VPORT
  5
8
330
0
100
AcDbSymbolTable
 70
     1
  0
VPORT
  5
29
330
8
100
AcDbSymbolTableRecord
100
AcDbViewportTableRecord
  2
*Active
 70
     0
 10
0.0
 20
0.0
 11
1.0
 21
1.0
 12
1765.997298720503
 22
-239.0991954748314
 13
0.0
 23
0.0
 14
0.5
 24
0.5
 15
0.5
 25
0.5
 16
0.0
 26
0.0
 36
1.0
 17
0.0
 27
0.0
 37
0.0
 40
487.7623587686449
 41
1.24814462563215
 42
50.0
 43
0.0
 44
0.0
 50
0.0
 51
0.0
 71
     0
 72
   100
 73
     1
 74
     3
 75
     0
 76
     0
 77
     0
 78
     0
281
     0
 65
     1
110
0.0
120
0.0
130
0.0
111
1.0
121
0.0
131
0.0
112
0.0
122
1.0
132
0.0
 79
     0
146
0.0
  0
ENDTAB
  0
TABLE
  2
LTYPE
  5
5
330
0
100
AcDbSymbolTable
 70
     1
  0
LTYPE
  5
14
330
5
100
AcDbSymbolTableRecord
100
AcDbLinetypeTableRecord
  2
ByBlock
 70
     0
  3

 72
    65
 73
     0
 40
0.0
  0
LTYPE
  5
15
330
5
100
AcDbSymbolTableRecord
100
AcDbLinetypeTableRecord
  2
ByLayer
 70
     0
  3

 72
    65
 73
     0
 40
0.0
  0
LTYPE
  5
16
330
5
100
AcDbSymbolTableRecord
100
AcDbLinetypeTableRecord
  2
Continuous
 70
     0
  3
Solid line
 72
    65
 73
     0
 40
0.0
  0
ENDTAB
  0
TABLE
  2
LAYER
  5
2
330
0
100
AcDbSymbolTable
 70
     2
  0
LAYER
  5
10
330
2
100
AcDbSymbolTableRecord
100
AcDbLayerTableRecord
  2
0
 70
     0
 62
     7
  6
Continuous
370
    -3
390
F
  0
LAYER
  5
62
330
2
100
AcDbSymbolTableRecord
100
AcDbLayerTableRecord
  2
EGD111 EGD011$2D
 70
     0
 62
    30
420
 16744192
  6
Continuous
370
    -3
390
F
  0
ENDTAB
  0
TABLE
  2
STYLE
  5
3
330
0
100
AcDbSymbolTable
 70
     1
  0
STYLE
  5
11
330
3
100
AcDbSymbolTableRecord
100
AcDbTextStyleTableRecord
  2
Standard
 70
     0
 40
0.0
 41
1.0
 50
0.0
 71
     0
 42
0.2
  3
txt
  4

  0
ENDTAB
  0
TABLE
  2
VIEW
  5
6
330
0
100
AcDbSymbolTable
 70
     0
  0
ENDTAB
  0
TABLE
  2
UCS
  5
7
330
0
100
AcDbSymbolTable
 70
     0
  0
ENDTAB
  0
TABLE
  2
APPID
  5
9
330
0
100
AcDbSymbolTable
 70
     1
  0
APPID
  5
12
330
9
100
AcDbSymbolTableRecord
100
AcDbRegAppTableRecord
  2
ACAD
 70
     0
  0
ENDTAB
  0
TABLE
  2
DIMSTYLE
  5
A
330
0
100
AcDbSymbolTable
 70
     1
100
AcDbDimStyleTable
  0
DIMSTYLE
105
27
330
A
100
AcDbSymbolTableRecord
100
AcDbDimStyleTableRecord
  2
Standard
 70
     0
178
     0
340
11
  0
ENDTAB
  0
TABLE
  2
BLOCK_RECORD
  5
1
330
0
100
AcDbSymbolTable
 70
     1
  0
BLOCK_RECORD
  5
1F
330
1
100
AcDbSymbolTableRecord
100
AcDbBlockTableRecord
  2
*Model_Space
340
22
  0
BLOCK_RECORD
  5
1B
330
1
100
AcDbSymbolTableRecord
100
AcDbBlockTableRecord
  2
*Paper_Space
340
1E
  0
BLOCK_RECORD
  5
23
330
1
100
AcDbSymbolTableRecord
100
AcDbBlockTableRecord
  2
*Paper_Space0
340
26
  0
ENDTAB
  0
ENDSEC
  0
SECTION
  2
BLOCKS
  0
BLOCK
  5
20
330
1F
100
AcDbEntity
  8
0
100
AcDbBlockBegin
  2
*Model_Space
 70
     0
 10
0.0
 20
0.0
 30
0.0
  3
*Model_Space
  1
*Model_Space
  0
ENDBLK
  5
21
330
1F
100
AcDbEntity
  8
0
100
AcDbBlockEnd
  0
BLOCK
  5
1C
330
1B
100
AcDbEntity
 67
     1
  8
0
100
AcDbBlockBegin
  2
*Paper_Space
 70
     0
 10
0.0
 20
0.0
 30
0.0
  3
*Paper_Space
  1
*Paper_Space
  0
ENDBLK
  5
1D
330
1B
100
AcDbEntity
 67
     1
  8
0
100
AcDbBlockEnd
  0
BLOCK
  5
24
330
23
100
AcDbEntity
  8
0
100
AcDbBlockBegin
  2
*Paper_Space0
 70
     0
 10
0.0
 20
0.0
 30
0.0
  3
*Paper_Space0
  1
*Paper_Space0
  0
ENDBLK
  5
25
330
23
100
AcDbEntity
  8
0
100
AcDbBlockEnd
  0
ENDSEC
  0
SECTION
  2
ENTITIES
  0
SPLINE
  5
63
330
1F
100
AcDbEntity
  8
EGD111 EGD011$2D
100
AcDbSpline
210
0.0
220
0.0
230
1.0
 70
    12
 71
     2
 72
    18
 73
    15
 74
     0
 42
0.000000001
 43
0.0000000001
 12
1.0
 22
0.0
 32
0.0
 13
1.0
 23
0.0
 33
0.0
 40
0.0
 40
0.0
 40
0.0
 40
1.339408268493061
 40
1.339408268493061
 40
1.53678066970664
 40
1.53678066970664
 40
1.537641020193186
 40
1.537641020193186
 40
39.53246519131182
 40
39.53246519131182
 40
40.31786379415134
 40
40.31786379415134
 40
41.10326239699084
 40
41.10326239699084
 40
47.06266128692489
 40
47.06266128692489
 40
47.06266128692489
 10
1785.990029926048
 20
-171.0000177317406
 30
0.0
 41
1.0
 10
1785.989046664828
 20
-171.7907312201413
 30
0.0
 41
0.7852015546564121
 10
1785.219882732236
 20
-171.9740768836867
 30
0.0
 41
1.0
 10
1785.160124178553
 20
-171.9841812305088
 30
0.0
 41
1.0
 10
1785.100365624869
 20
-171.9942855773309
 30
0.0
 41
1.0
 10
1785.045197129411
 20
-171.9971516545357
 30
0.0
 41
1.0
 10
1784.990028633952
 20
-172.0000177317406
 30
0.0
 41
1.0
 10
1765.991322591172
 20
-172.0000177317406
 30
0.0
 41
1.0
 10
1746.992616548393
 20
-172.0000177317406
 30
0.0
 41
1.0
 10
1746.577645996429
 20
-172.0010895401747
 30
0.0
 41
0.9236324631732394
 10
1746.283837482786
 20
-171.708039604019
 30
0.0
 41
1.0
 10
1745.990028969142
 20
-171.4149896678634
 30
0.0
 41
0.9236324631732394
 10
1745.990027987898
 20
-171.0000177317408
 30
0.0
 41
1.0
 10
1745.990028310923
 20
-168.0203182867737
 30
0.0
 41
1.0
 10
1745.990028633948
 20
-165.0406188418066
 30
0.0
 41
1.0
  0
SPLINE
  5
64
330
1F
100
AcDbEntity
  8
EGD111 EGD011$2D
100
AcDbSpline
210
0.0
220
0.0
230
1.0
 70
     8
 71
     2
 72
     8
 73
     5
 74
     0
 42
0.000000001
 43
0.0000000001
 12
1.0
 22
0.0
 32
0.0
 13
1.0
 23
0.0
 33
0.0
 40
0.0
 40
0.0
 40
0.0
 40
5.959397167116776
 40
5.959397167116776
 40
45.95446996098804
 40
45.95446996098804
 40
45.95446996098804
 10
1785.990028633948
 20
-165.0406205646239
 30
0.0
 10
1785.990028633948
 20
-168.0203191481822
 30
0.0
 10
1785.990028633948
 20
-171.0000177317406
 30
0.0
 10
1765.992492237012
 20
-171.0000177317406
 30
0.0
 10
1745.994955840076
 20
-171.0000177317406
 30
0.0
  0
SPLINE
  5
65
330
1F
100
AcDbEntity
  8
EGD111 EGD011$2D
100
AcDbSpline
210
0.0
220
0.0
230
1.0
 70
    12
 71
     2
 72
   142
 73
   139
 74
     0
 42
0.000000001
 43
0.0000000001
 12
1.0
 22
0.0
 32
0.0
 13
1.0
 23
0.0
 33
0.0
 40
-5.99992865669573
 40
-5.99992865669573
 40
-5.99992865669573
 40
0.0
 40
0.0
 40
422.5174989480229
 40
422.5174989480229
 40
423.9856637457331
 40
423.9856637457331
 40
425.4558546041275
 40
425.4558546041275
 40
426.9056704109004
 40
426.9056704109004
 40
434.2211493656562
 40
434.2211493656562
 40
440.1257216868794
 40
440.1257216868794
 40
443.0710740776136
 40
443.0710740776136
 40
446.2055704962402
 40
446.2055704962402
 40
449.2266614678397
 40
449.2266614678397
 40
452.2686680019704
 40
452.2686680019704
 40
500.9297619561534
 40
500.9297619561534
 40
503.928731531916
 40
503.928731531916
 40
505.4373495987281
 40
505.4373495987281
 40
506.9298456650617
 40
506.9298456650617
 40
509.8830752993883
 40
509.8830752993883
 40
551.4006883880795
 40
551.4006883880795
 40
552.8888409005843
 40
552.8888409005843
 40
554.3595288877765
 40
554.3595288877765
 40
953.2414389872825
 40
953.2414389872825
 40
954.7124916155136
 40
954.7124916155136
 40
956.200402453204
 40
956.200402453204
 40
994.7668837059479
 40
994.7668837059479
 40
1000.672193470314
 40
1000.672193470314
 40
1002.163387867359
 40
1002.163387867359
 40
1003.67236153926
 40
1003.67236153926
 40
1006.672508481685
 40
1006.672508481685
 40
1037.014457408344
 40
1037.014457408344
 40
1049.228948920662
 40
1049.228948920662
 40
1061.382087433738
 40
1061.382087433738
 40
1064.529961304141
 40
1064.529961304141
 40
1067.475667879953
 40
1067.475667879953
 40
1079.239906546431
 40
1079.239906546431
 40
1080.696427629898
 40
1080.696427629898
 40
1082.145211492428
 40
1082.145211492428
 40
1083.615987940071
 40
1083.615987940071
 40
1507.60202118564
 40
1507.60202118564
 40
1513.601949845171
 40
1513.601949845171
 40
2097.846991378291
 40
2097.846991378291
 40
2523.321175752892
 40
2523.321175752892
 40
2541.663463227351
 40
2541.663463227351
 40
2544.352447204506
 40
2544.352447204506
 40
2547.046712091952
 40
2547.046712091952
 40
2552.445694521997
 40
2552.445694521997
 40
2563.257346853998
 40
2563.257346853998
 40
2574.047780981622
 40
2574.047780981622
 40
2579.419733994579
 40
2579.419733994579
 40
2584.768295159169
 40
2584.768295159169
 40
2590.085607390865
 40
2590.085607390865
 40
2592.740372950562
 40
2592.740372950562
 40
2594.192854075541
 40
2594.192854075541
 40
2595.48919862536
 40
2595.48919862536
 40
2598.423816821712
 40
2598.423816821712
 40
2641.316171504164
 40
2641.316171504164
 40
2642.777323791371
 40
2642.777323791371
 40
3041.667898495448
 40
3041.667898495448
 40
3043.12947239348
 40
3043.12947239348
 40
3088.962611446948
 40
3088.962611446948
 40
3090.252876149751
 40
3090.252876149751
 40
3091.705183540683
 40
3091.705183540683
 40
3094.360753224544
 40
3094.360753224544
 40
3099.677560853456
 40
3099.677560853456
 40
3105.026489612974
 40
3105.026489612974
 40
3110.39765923744
 40
3110.39765923744
 40
3121.188371922707
 40
3121.188371922707
 40
3131.999883415886
 40
3131.999883415886
 40
3142.754667367548
 40
3142.754667367548
 40
3161.124110674618
 40
3161.124110674618
 40
3586.599229846512
 40
3586.599229846512
 40
3586.599229846512
 10
2058.122570237088
 20
-0.000000000005457
 30
0.0
 41
1.0
 10
2061.122552401193
 20
-0.0000112356385671
 30
0.0
 41
1.0
 10
2064.122534565297
 20
-0.0000224712716772
 30
0.0
 41
1.0
 10
2064.136816637343
 20
-211.2588038230586
 30
0.0
 41
0.9999997689765858
 10
2064.43830081349
 20
-422.5173705357748
 30
0.0
 41
1.0
 10
2064.439304380286
 20
-423.251452244638
 30
0.0
 41
1.0
 10
2064.440307947081
 20
-423.9855339535013
 30
0.0
 41
1.0
 10
2064.441504184833
 20
-424.7206279582471
 30
0.0
 41
1.0
 10
2064.442700422584
 20
-425.4557219629928
 30
0.0
 41
1.0
 10
2064.43583997939
 20
-426.1805707209256
 30
0.0
 41
1.0
 10
2064.428979536196
 20
-426.9054194788584
 30
0.0
 41
1.0
 10
2064.342664035673
 20
-430.568331616858
 30
0.0
 41
0.9974674828933682
 10
2063.737499575793
 20
-434.1819380803281
 30
0.0
 41
1.0
 10
2063.249292976722
 20
-437.0968122283198
 30
0.0
 41
0.9983819593448718
 10
2062.433279774177
 20
-439.9374036166191
 30
0.0
 41
1.0
 10
2062.026684788538
 20
-441.3532558163593
 30
0.0
 41
0.9995898769838398
 10
2061.539698417492
 20
-442.7435080266691
 30
0.0
 41
1.0
 10
2061.023247587856
 20
-444.2236223240495
 30
0.0
 41
0.9996180141614718
 10
2060.425803950921
 20
-445.6729397128317
 30
0.0
 41
1.0
 10
2059.84123202091
 20
-447.0661925425996
 30
0.0
 41
0.9996274149936659
 10
2059.181501082589
 20
-448.4254691436029
 30
0.0
 41
1.0
 10
2058.515109123004
 20
-449.7931921415335
 30
0.0
 41
0.9995808859572313
 10
2057.770678499382
 20
-451.1200559210843
 30
0.0
 41
1.0
 10
2044.925832800143
 20
-474.0432044499082
 30
0.0
 41
0.8924970549526088
 10
2018.851475699062
 20
-477.2972329189191
 30
0.0
 41
1.0
 10
2017.362697108007
 20
-477.4795254962448
 30
0.0
 41
0.9995873954244665
 10
2015.865907280101
 20
-477.5760267294445
 30
0.0
 41
1.0
 10
2015.112648576039
 20
-477.6155284351005
 30
0.0
 41
1.0
 10
2014.359389871978
 20
-477.6550301407565
 30
0.0
 41
1.0
 10
2013.613461550432
 20
-477.6750759697364
 30
0.0
 41
1.0
 10
2012.867533228885
 20
-477.6951217987164
 30
0.0
 41
1.0
 10
2011.391229258523
 20
-477.7253071787306
 30
0.0
 41
1.0
 10
2009.914925288161
 20
-477.7554925587448
 30
0.0
 41
1.0
 10
1989.15964594481
 20
-478.1689714476215
 30
0.0
 41
0.9999572214645917
 10
1968.400269339569
 20
-478.1984396317753
 30
0.0
 41
1.0
 10
1967.656193419534
 20
-478.1991248860986
 30
0.0
 41
1.0
 10
1966.912117499498
 20
-478.199810140422
 30
0.0
 41
1.0
 10
1966.176773940143
 20
-478.1994776386404
 30
0.0
 41
1.0
 10
1965.441430380788
 20
-478.1991451368589
 30
0.0
 41
1.0
 10
1766.00049472557
 20
-478.0459304631789
 30
0.0
 41
0.9999997049132413
 10
1566.559559072464
 20
-478.199147886713
 30
0.0
 41
1.0
 10
1565.824033183353
 20
-478.1994776574971
 30
0.0
 41
1.0
 10
1565.088507294242
 20
-478.1998074282812
 30
0.0
 41
1.0
 10
1564.34455221091
 20
-478.1991228428292
 30
0.0
 41
1.0
 10
1563.600597127578
 20
-478.1984382573771
 30
0.0
 41
1.0
 10
1544.316893633095
 20
-478.1719590547601
 30
0.0
 41
0.9999624879569138
 10
1525.036542254181
 20
-477.8114423188345
 30
0.0
 41
1.0
 10
1522.08446435295
 20
-477.7531479319676
 30
0.0
 41
1.0
 10
1519.132386451719
 20
-477.6948535451008
 30
0.0
 41
1.0
 10
1518.387114079818
 20
-477.6749471376864
 30
0.0
 41
1.0
 10
1517.641841707917
 20
-477.655040730272
 30
0.0
 41
1.0
 10
1516.888399969347
 20
-477.6155512284945
 30
0.0
 41
1.0
 10
1516.134958230776
 20
-477.5760617267169
 30
0.0
 41
1.0
 10
1514.637578539897
 20
-477.4795578514417
 30
0.0
 41
0.9995874409716703
 10
1513.148210632654
 20
-477.2972334880837
 30
0.0
 41
1.0
 10
1497.647018521733
 20
-475.3765919711312
 30
0.0
 41
0.9574535803372236
 10
1485.789167793903
 20
-465.209626012066
 30
0.0
 41
1.0
 10
1481.129848353841
 20
-461.2182720811376
 30
0.0
 41
0.9931896136643116
 10
1477.520748529939
 20
-456.25696556898
 30
0.0
 41
1.0
 10
1473.935328674037
 20
-451.3172081530141
 30
0.0
 41
0.9933108688169805
 10
1471.578686408354
 20
-445.6866952009577
 30
0.0
 41
1.0
 10
1470.980015533978
 20
-444.2306646726341
 30
0.0
 41
0.9996365715160554
 10
1470.460689130015
 20
-442.7444844004656
 30
0.0
 41
1.0
 10
1469.97367672603
 20
-441.3540539031575
 30
0.0
 41
0.9995903015910352
 10
1469.567023954844
 20
-439.9380342800002
 30
0.0
 41
1.0
 10
1467.934251285041
 20
-434.2604560583783
 30
0.0
 41
0.9935196800981145
 10
1467.625930906472
 20
-428.360813730402
 30
0.0
 41
1.0
 10
1467.588238976615
 20
-427.6334806743232
 30
0.0
 41
0.9999001200342034
 10
1467.571119272812
 20
-426.9053728720144
 30
0.0
 41
1.0
 10
1467.56425596112
 20
-426.1810345746234
 30
0.0
 41
1.0
 10
1467.557392649428
 20
-425.4566962772324
 30
0.0
 41
1.0
 10
1467.558592695347
 20
-424.7213094264649
 30
0.0
 41
1.0
 10
1467.559792741267
 20
-423.9859225756975
 30
0.0
 41
1.0
 10
1467.863561315205
 20
-211.9930882007179
 30
0.0
 41
0.9999997664604442
 10
1467.877564374299
 20
-0.0000366504410749
 30
0.0
 41
1.0
 10
1470.877546539134
 20
-0.000022707624737
 30
0.0
 41
1.0
 10
1473.877528703969
 20
-0.0000087648083991
 30
0.0
 41
1.0
 10
1766.000049470528
 20
-0.0000043824043132
 30
0.0
 41
1.0
 10
2058.122570237088
 20
-0.0000000000002274
 30
0.0
 41
1.0
 10
2058.134929387055
 20
-212.7371261601185
 30
0.0
 41
0.9999997589197976
 10
2058.442728273279
 20
-425.4740300095924
 30
0.0
 41
1.0
 10
2058.476450748541
 20
-434.7690361294787
 30
0.0
 41
0.9801514598403129
 10
2054.895201250274
 20
-443.3465024223433
 30
0.0
 41
1.0
 10
2054.375003793546
 20
-444.5866424208239
 30
0.0
 41
0.9996292974061138
 10
2053.788073899805
 20
-445.7966283338212
 30
0.0
 41
1.0
 10
2053.1978797589
 20
-447.0080122155147
 30
0.0
 41
0.9995810783736242
 10
2052.538582833356
 20
-448.1832175578918
 30
0.0
 41
1.0
 10
2051.215610403787
 20
-450.5398290862469
 30
0.0
 41
0.9982931583656443
 10
2049.626871810983
 20
-452.7261007136331
 30
0.0
 41
1.0
 10
2046.433736571123
 20
-457.1187736267722
 30
0.0
 41
0.9931643339788093
 10
2042.309156505702
 20
-460.6514110644091
 30
0.0
 41
1.0
 10
2038.1921429139
 20
-464.1765437803074
 30
0.0
 41
0.9931563177659553
 10
2033.369661679166
 20
-466.6504144964972
 30
0.0
 41
1.0
 10
2030.976808649457
 20
-467.8772941484762
 30
0.0
 41
0.9982875291033506
 10
2028.457038288106
 20
-468.8163024702058
 30
0.0
 41
1.0
 10
2025.948151510695
 20
-469.7509944496087
 30
0.0
 41
0.998285515929724
 10
2023.347224047693
 20
-470.3860836484098
 30
0.0
 41
1.0
 10
2020.761463207214
 20
-471.0173460379508
 30
0.0
 41
0.9982850338336358
 10
2018.1196430338
 20
-471.3420574482116
 30
0.0
 41
1.0
 10
2016.801728439845
 20
-471.5033535610214
 30
0.0
 41
0.9995872112714143
 10
2015.476725261791
 20
-471.588687558431
 30
0.0
 41
1.0
 10
2014.751476114965
 20
-471.6265001191459
 30
0.0
 41
1.0
 10
2014.026226968139
 20
-471.6643126798608
 30
0.0
 41
1.0
 10
2013.378277708907
 20
-471.680514510998
 30
0.0
 41
1.0
 10
2012.730328449674
 20
-471.6967163421352
 30
0.0
 41
1.0
 10
2011.263326500704
 20
-471.7267033516134
 30
0.0
 41
1.0
 10
2009.796324551734
 20
-471.7566903610916
 30
0.0
 41
1.0
 10
1988.353748412777
 20
-472.184228367714
 30
0.0
 41
0.9999538804036112
 10
1966.906916092022
 20
-472.1998369397816
 30
0.0
 41
1.0
 10
1966.176340120257
 20
-472.1995040768473
 30
0.0
 41
1.0
 10
1965.445764148493
 20
-472.1991712139131
 30
0.0
 41
1.0
 10
1766.000496193671
 20
-472.0459489228881
 30
0.0
 41
0.9999997049140117
 10
1566.555228234064
 20
-472.1991649855045
 30
0.0
 41
1.0
 10
1565.824441454173
 20
-472.1994950623297
 30
0.0
 41
1.0
 10
1565.093654674282
 20
-472.1998251391549
 30
0.0
 41
1.0
 10
1542.176292549325
 20
-472.1825348365774
 30
0.0
 41
0.9999476565637763
 10
1519.264082386574
 20
-471.696313509467
 30
0.0
 41
1.0
 10
1518.619171275474
 20
-471.6802921310126
 30
0.0
 41
1.0
 10
1517.974260164375
 20
-471.6642707525582
 30
0.0
 41
1.0
 10
1517.249096600488
 20
-471.6264843074853
 30
0.0
 41
1.0
 10
1516.523933036602
 20
-471.5886978624123
 30
0.0
 41
1.0
 10
1515.198527153995
 20
-471.5033628372478
 30
0.0
 41
0.9995874759722038
 10
1513.88020760643
 20
-471.3420668649555
 30
0.0
 41
1.0
 10
1511.238653929754
 20
-471.0172859040103
 30
0.0
 41
0.9982869623484562
 10
1508.653124288301
 20
-470.3861559867055
 30
0.0
 41
1.0
 10
1506.052012451628
 20
-469.7510422457488
 30
0.0
 41
0.9982849987389882
 10
1503.542961949793
 20
-468.8162600090357
 30
0.0
 41
1.0
 10
1501.02357276149
 20
-467.8773565592562
 30
0.0
 41
0.9982884512732378
 10
1498.631047366764
 20
-466.6507010225523
 30
0.0
 41
1.0
 10
1493.808436523815
 20
-464.1767939260284
 30
0.0
 41
0.9931585107482793
 10
1489.691172908479
 20
-460.6517503821012
 30
0.0
 41
1.0
 10
1485.567282927373
 20
-457.1185872172374
 30
0.0
 41
0.9931948188018149
 10
1482.372644096448
 20
-452.7272328400816
 30
0.0
 41
1.0
 10
1479.200404079085
 20
-448.3554001270491
 30
0.0
 41
0.9933230542023332
 10
1477.114591089337
 20
-443.3728894978283
 30
0.0
 41
1.0
 10
1473.52444796368
 20
-434.7839746804416
 30
0.0
 41
0.9801201447957725
 10
1473.557364852279
 20
-425.4749735588673
 30
0.0
 41
1.0
 10
1473.865172955415
 20
-212.7376023236832
 30
0.0
 41
0.9999997589002633
 10
1473.877528703946
 20
-0.0000087648099338
 30
0.0
 41
1.0
  0
CIRCLE
  5
66
330
1F
100
AcDbEntity
  8
EGD111 EGD011$2D
100
AcDbCircle
 10
1766.000022088227
 20
-90.00001773174063
 30
0.0
 40
16.49999999999977
  0
CIRCLE
  5
67
330
1F
100
AcDbEntity
  8
EGD111 EGD011$2D
100
AcDbCircle
 10
1766.000022088227
 20
-90.0000177317404
 30
0.0
 40
17.50000000000023
  0
CIRCLE
  5
68
330
1F
100
AcDbEntity
  8
EGD111 EGD011$2D
100
AcDbCircle
 10
1766.000022088769
 20
-90.00001773228306
 30
0.0
 40
18.50000000082741
  0
SPLINE
  5
69
330
1F
100
AcDbEntity
  8
EGD111 EGD011$2D
100
AcDbSpline
210
0.0
220
0.0
230
1.0
 70
    15
 71
     3
 72
   438
 73
   434
 74
     0
 42
0.000000001
 43
0.0000000001
 12
1.0
 22
0.0
 32
0.0
 13
1.0
 23
0.0
 33
0.0
 40
-0.0048687766917834
 40
-0.0048687766917834
 40
-0.0048687766917834
 40
-0.0048687766917834
 40
137.0006135548255
 40
137.0006135548255
 40
137.0006135548255
 40
146.1474632999113
 40
146.1474632999113
 40
146.1474632999113
 40
155.2825797911523
 40
155.2825797911523
 40
155.2825797911523
 40
159.9764151587924
 40
164.8205361853142
 40
164.8205361853142
 40
164.8205361853142
 40
169.9692846437846
 40
175.2201918852905
 40
175.2201918852905
 40
175.2201918852905
 40
184.4146143116409
 40
184.4146143116409
 40
184.4146143116409
 40
193.5707339269914
 40
193.5707339269914
 40
193.5707339269914
 40
202.7550836524768
 40
202.7550836524768
 40
202.7550836524768
 40
208.0693806025368
 40
213.3692182116467
 40
213.3692182116467
 40
213.3692182116467
 40
218.6060251724439
 40
223.6296063881621
 40
223.6296063881621
 40
223.6296063881621
 40
228.3219630102948
 40
232.9438643317951
 40
232.9438643317951
 40
232.9438643317951
 40
242.0853109755045
 40
242.0853109755045
 40
242.0853109755045
 40
287.8336106173453
 40
287.8336106173453
 40
287.8336106173453
 40
653.4791417580411
 40
653.4791417580411
 40
653.4791417580411
 40
699.2274258145338
 40
699.2274258145338
 40
699.2274258145338
 40
708.3688800957599
 40
708.3688800957599
 40
708.3688800957599
 40
712.9904992781682
 40
717.6831877390622
 40
717.6831877390622
 40
717.6831877390622
 40
722.708761704116
 40
727.9520746562679
 40
727.9520746562679
 40
727.9520746562679
 40
733.2553047883981
 40
738.5713752185768
 40
738.5713752185768
 40
738.5713752185768
 40
747.749842549692
 40
747.749842549692
 40
747.749842549692
 40
756.909190513837
 40
756.909190513837
 40
756.909190513837
 40
766.1084101912074
 40
766.1084101912074
 40
766.1084101912074
 40
771.3773847971864
 40
776.5302400219977
 40
776.5302400219977
 40
776.5302400219977
 40
781.3494644071736
 40
786.0261208576707
 40
786.0261208576707
 40
786.0261208576707
 40
795.1611884613311
 40
795.1611884613311
 40
795.1611884613311
 40
804.3080479960137
 40
804.3080479960137
 40
804.3080479960137
 40
988.8128374632329
 40
988.8128374632329
 40
988.8128374632329
 40
994.7496028123836
 40
994.7496028123836
 40
994.7496028123836
 40
1000.686072078661
 40
1000.686072078661
 40
1000.686072078661
 40
1003.714680651031
 40
1006.820046114633
 40
1006.820046114633
 40
1006.820046114633
 40
1013.523873530229
 40
1013.523873530229
 40
1013.523873530229
 40
1019.462754121283
 40
1019.462754121283
 40
1019.462754121283
 40
1025.444796264818
 40
1025.444796264818
 40
1025.444796264818
 40
1031.401768370616
 40
1031.401768370616
 40
1031.401768370616
 40
1037.381998397892
 40
1037.381998397892
 40
1037.381998397892
 40
1043.394747058402
 40
1043.394747058402
 40
1043.394747058402
 40
1049.443320706408
 40
1049.443320706408
 40
1049.443320706408
 40
1055.533019338547
 40
1055.533019338547
 40
1055.533019338547
 40
1061.619983828193
 40
1061.619983828193
 40
1061.619983828193
 40
1067.858387433778
 40
1067.858387433778
 40
1067.858387433778
 40
1073.791143208062
 40
1073.791143208062
 40
1073.791143208062
 40
1079.737180856393
 40
1079.737180856393
 40
1079.737180856393
 40
1085.679174052919
 40
1085.679174052919
 40
1085.679174052919
 40
1091.627379275546
 40
1091.627379275546
 40
1091.627379275546
 40
1097.572943840909
 40
1097.572943840909
 40
1097.572943840909
 40
1103.517801845964
 40
1103.517801845964
 40
1103.517801845964
 40
1109.461022793253
 40
1109.461022793253
 40
1109.461022793253
 40
1115.402227252661
 40
1115.402227252661
 40
1115.402227252661
 40
1121.341784054342
 40
1121.341784054342
 40
1121.341784054342
 40
1127.273131583057
 40
1127.273131583057
 40
1127.273131583057
 40
1133.200027214624
 40
1133.200027214624
 40
1133.200027214624
 40
1139.126656004809
 40
1139.126656004809
 40
1139.126656004809
 40
1145.052590461977
 40
1145.052590461977
 40
1145.052590461977
 40
1150.977903835726
 40
1150.977903835726
 40
1150.977903835726
 40
1156.902536847701
 40
1156.902536847701
 40
1156.902536847701
 40
1162.826468464664
 40
1162.826468464664
 40
1162.826468464664
 40
1168.74967022264
 40
1168.74967022264
 40
1168.74967022264
 40
1174.672118786076
 40
1174.672118786076
 40
1174.672118786076
 40
1180.593792915133
 40
1180.593792915133
 40
1180.593792915133
 40
1186.514674595255
 40
1186.514674595255
 40
1186.514674595255
 40
1192.434749065639
 40
1192.434749065639
 40
1192.434749065639
 40
1198.354005151905
 40
1198.354005151905
 40
1198.354005151905
 40
1204.272435510535
 40
1204.272435510535
 40
1204.272435510535
 40
1210.1900369016
 40
1210.1900369016
 40
1210.1900369016
 40
1216.106810532618
 40
1216.106810532618
 40
1216.106810532618
 40
1222.022762231006
 40
1222.022762231006
 40
1222.022762231006
 40
1227.93790267717
 40
1227.93790267717
 40
1227.93790267717
 40
1233.852247631425
 40
1233.852247631425
 40
1233.852247631425
 40
1239.765818157832
 40
1239.765818157832
 40
1239.765818157832
 40
1245.678640784961
 40
1245.678640784961
 40
1245.678640784961
 40
1251.590747690288
 40
1251.590747690288
 40
1251.590747690288
 40
1257.502176819768
 40
1257.502176819768
 40
1257.502176819768
 40
1263.412971966804
 40
1263.412971966804
 40
1263.412971966804
 40
1269.323182831793
 40
1269.323182831793
 40
1269.323182831793
 40
1275.232865016485
 40
1275.232865016485
 40
1275.232865016485
 40
1281.142079974068
 40
1281.142079974068
 40
1281.142079974068
 40
1287.050894907789
 40
1287.050894907789
 40
1287.050894907789
 40
1292.959382599638
 40
1292.959382599638
 40
1292.959382599638
 40
1298.867621215426
 40
1298.867621215426
 40
1298.867621215426
 40
1304.775693953901
 40
1304.775693953901
 40
1304.775693953901
 40
1310.683688832059
 40
1310.683688832059
 40
1310.683688832059
 40
1316.8920552908
 40
1316.8920552908
 40
1316.8920552908
 40
1323.100515661307
 40
1323.100515661307
 40
1323.100515661307
 40
1329.309171523061
 40
1329.309171523061
 40
1329.309171523061
 40
1335.518118714801
 40
1335.518118714801
 40
1335.518118714801
 40
1341.727446758754
 40
1341.727446758754
 40
1341.727446758754
 40
1347.937238587862
 40
1347.937238587862
 40
1347.937238587862
 40
1354.14757025093
 40
1354.14757025093
 40
1354.14757025093
 40
1360.358510737553
 40
1360.358510737553
 40
1360.358510737553
 40
1366.570121865255
 40
1366.570121865255
 40
1366.570121865255
 40
1372.782458244714
 40
1372.782458244714
 40
1372.782458244714
 40
1378.99556729658
 40
1378.99556729658
 40
1378.99556729658
 40
1385.209489360852
 40
1385.209489360852
 40
1385.209489360852
 40
1391.424257816636
 40
1391.424257816636
 40
1391.424257816636
 40
1397.639899280981
 40
1397.639899280981
 40
1397.639899280981
 40
1403.856433834955
 40
1403.856433834955
 40
1403.856433834955
 40
1410.073875285462
 40
1410.073875285462
 40
1410.073875285462
 40
1416.292231453933
 40
1416.292231453933
 40
1416.292231453933
 40
1422.511504481597
 40
1422.511504481597
 40
1422.511504481597
 40
1428.731691047884
 40
1428.731691047884
 40
1428.731691047884
 40
1434.952782810709
 40
1434.952782810709
 40
1434.952782810709
 40
1441.174766708469
 40
1441.174766708469
 40
1441.174766708469
 40
1447.397625440776
 40
1447.397625440776
 40
1447.397625440776
 40
1453.62133730924
 40
1453.62133730924
 40
1453.62133730924
 40
1459.845878408561
 40
1459.845878408561
 40
1459.845878408561
 40
1466.071216029576
 40
1466.071216029576
 40
1466.071216029576
 40
1472.297334836677
 40
1472.297334836677
 40
1472.297334836677
 40
1478.524140972879
 40
1478.524140972879
 40
1478.524140972879
 40
1484.751819664348
 40
1484.751819664348
 40
1484.751819664348
 40
1490.979508604213
 40
1490.979508604213
 40
1490.979508604213
 40
1497.210160025845
 40
1497.210160025845
 40
1497.210160025845
 40
1503.448343724475
 40
1503.448343724475
 40
1503.448343724475
 40
1509.69130537492
 40
1509.69130537492
 40
1509.69130537492
 40
1515.935757197615
 40
1515.935757197615
 40
1515.935757197615
 40
1522.182492802134
 40
1522.182492802134
 40
1522.182492802134
 40
1528.429790671203
 40
1528.429790671203
 40
1528.429790671203
 40
1534.680299763329
 40
1534.680299763329
 40
1534.680299763329
 40
1540.925514359709
 40
1540.925514359709
 40
1540.925514359709
 40
1547.173795144469
 40
1547.173795144469
 40
1547.173795144469
 40
1553.407886750571
 40
1553.407886750571
 40
1553.407886750571
 40
1556.591172891
 40
1560.009911327784
 40
1560.009911327784
 40
1560.009911327784
 40
1566.421721106857
 40
1566.421721106857
 40
1566.421721106857
 40
1572.813300873184
 40
1572.813300873184
 40
1572.813300873184
 40
1579.164781767213
 40
1579.164781767213
 40
1579.164781767213
 40
1585.473177618489
 40
1585.473177618489
 40
1585.473177618489
 40
1591.751046562309
 40
1591.751046562309
 40
1591.751046562309
 40
1598.008611798682
 40
1598.008611798682
 40
1598.008611798682
 40
1604.255025923651
 40
1604.255025923651
 40
1604.255025923651
 40
1610.499994004258
 40
1610.499994004258
 40
1610.499994004258
 40
1613.973069125502
 40
1617.259868254202
 40
1617.259868254202
 40
1617.259868254202
 40
1623.490387934819
 40
1623.490387934819
 40
1623.490387934819
 40
1629.73721191186
 40
1629.73721191186
 40
1629.73721191186
 40
1635.979764673755
 40
1635.979764673755
 40
1635.979764673755
 40
1642.221368188435
 40
1642.221368188435
 40
1642.221368188435
 40
1648.460410969425
 40
1648.460410969425
 40
1648.460410969425
 40
1654.699199574748
 40
1654.699199574748
 40
1654.699199574748
 40
1660.938087201988
 40
1660.938087201988
 40
1660.938087201988
 40
1667.177040351285
 40
1667.177040351285
 40
1667.177040351285
 40
1673.415938173189
 40
1673.415938173189
 40
1673.415938173189
 40
1679.65527789922
 40
1679.65527789922
 40
1679.65527789922
 40
1679.65527789922
 10
2049.41142053868
 20
-265.4353714668553
 30
0.0
 41
1.0
 10
2049.44492890878
 20
-311.091541166633
 30
0.0
 41
0.9999991619131338
 10
2049.406042918598
 20
-356.7477066029192
 30
0.0
 41
0.9999991619131338
 10
2049.294762665902
 20
-402.403752984216
 30
0.0
 41
1.0
 10
2049.29487519709
 20
-405.4527040111997
 30
0.0
 41
0.9999992692362234
 10
2049.290473334126
 20
-408.501651862707
 30
0.0
 41
0.9999992692362234
 10
2049.28155708666
 20
-411.5505898545559
 30
0.0
 41
1.0
 10
2049.254383760629
 20
-414.5955245989749
 30
0.0
 41
0.9999901141161017
 10
2049.243793146792
 20
-417.6405599948627
 30
0.0
 41
0.9999901141184598
 10
2049.249785539806
 20
-420.6856079114832
 30
0.0
 41
1.000000000007071
 10
2049.261108740504
 20
-422.2917480506962
 30
0.0
 41
1.000000000007072
 10
2049.33853280341
 20
-425.4397497303323
 30
0.0
 41
1.000000000007069
 10
2049.340059169326
 20
-428.4044324913642
 30
0.0
 41
1.00000000000707
 10
2049.283939228945
 20
-429.8722090745043
 30
0.0
 41
1.000000000007071
 10
2049.224488129372
 20
-431.431966686444
 30
0.0
 41
1.000000000007071
 10
2048.964527024569
 20
-434.5466396883048
 30
0.0
 41
1.000000000007071
 10
2048.362664438389
 20
-437.5461955549167
 30
0.0
 41
1.00000000000707
 10
2047.956750052099
 20
-439.0161674229062
 30
0.0
 41
1.000000000007071
 10
2047.130319740272
 20
-441.9781630001062
 30
0.0
 41
0.9933064591364665
 10
2045.893509052304
 20
-444.7936033176732
 30
0.0
 41
0.9933064591364655
 10
2044.271153916858
 20
-447.4059525811044
 30
0.0
 41
1.000000000007071
 10
2042.663852087853
 20
-450.011754175527
 30
0.0
 41
0.9937463716151544
 10
2040.715547820188
 20
-452.3734763436944
 30
0.0
 41
0.9937463716151543
 10
2038.462793026515
 20
-454.4468110871931
 30
0.0
 41
1.000000000007071
 10
2036.196984908197
 20
-456.5195916761222
 30
0.0
 41
0.9938732047570428
 10
2033.671630655492
 20
-458.2668442901448
 30
0.0
 41
0.9938732047570427
 10
2030.933147253716
 20
-459.6564537522127
 30
0.0
 41
1.000000000007071
 10
2029.533554196652
 20
-460.3692575506156
 30
0.0
 41
1.000000000007071
 10
2026.653408059632
 20
-461.5959272493284
 30
0.0
 41
1.000000000007072
 10
2023.668802481262
 20
-462.3718590052191
 30
0.0
 41
1.000000000007071
 10
2022.171118509793
 20
-462.6340736106283
 30
0.0
 41
1.000000000007071
 10
2020.691092912727
 20
-462.8934852548621
 30
0.0
 41
1.000000000007069
 10
2017.689782238607
 20
-463.2025987912849
 30
0.0
 41
1.000000000007071
 10
2014.49966517931
 20
-463.2697259476472
 30
0.0
 41
1.000000000007071
 10
2012.886612598186
 20
-463.2861606353463
 30
0.0
 41
1.000000000007071
 10
2011.379609664777
 20
-463.3019150942209
 30
0.0
 41
1.00000000000707
 10
2008.355415746493
 20
-463.2916579902227
 30
0.0
 41
1.000000000007073
 10
2005.258974530393
 20
-463.2600362412793
 30
0.0
 41
1.000000000007071
 10
2003.702718714338
 20
-463.2558746239761
 30
0.0
 41
1.000000000007071
 10
2000.655569132285
 20
-463.2536468145073
 30
0.0
 41
0.9999989600960812
 10
1997.608420368451
 20
-463.2568011153668
 30
0.0
 41
0.9999989600960819
 10
1994.561281929129
 20
-463.265337516714
 30
0.0
 41
1.000000000007071
 10
1979.314544155894
 20
-463.2665910405555
 30
0.0
 41
1.000000000007071
 10
1964.067806382658
 20
-463.267844564397
 30
0.0
 41
1.000000000007071
 10
1948.821068609423
 20
-463.2690980882385
 30
0.0
 41
1.000000000007071
 10
1826.940589226195
 20
-463.2690973687581
 30
0.0
 41
1.000000000007071
 10
1705.060109842967
 20
-463.2690966492776
 30
0.0
 41
1.000000000007071
 10
1583.179630459738
 20
-463.2690959297972
 30
0.0
 41
1.000000000007071
 10
1567.932899108368
 20
-463.2678427001972
 30
0.0
 41
1.000000000007071
 10
1552.686167756998
 20
-463.2665894705972
 30
0.0
 41
1.000000000007071
 10
1537.439436405627
 20
-463.2653362409972
 30
0.0
 41
1.000000000007071
 10
1534.392295361817
 20
-463.256795574018
 30
0.0
 41
0.9999989591681702
 10
1531.345143983478
 20
-463.2536394128247
 30
0.0
 41
0.99999895916817
 10
1528.297991785392
 20
-463.2558677672731
 30
0.0
 41
1.000000000007071
 10
1526.741815490301
 20
-463.2600306464058
 30
0.0
 41
1.000000000007071
 10
1523.645375469198
 20
-463.291680830605
 30
0.0
 41
1.00000000000707
 10
1520.621222121182
 20
-463.3019352639812
 30
0.0
 41
1.000000000007071
 10
1519.114084600301
 20
-463.2861642317525
 30
0.0
 41
1.000000000007071
 10
1517.500367847207
 20
-463.2697129675269
 30
0.0
 41
1.000000000007071
 10
1514.307702437956
 20
-463.2025249195034
 30
0.0
 41
1.000000000007072
 10
1511.304122056599
 20
-462.8928516181322
 30
0.0
 41
1.000000000007071
 10
1509.822491079194
 20
-462.6327831626556
 30
0.0
 41
1.000000000007071
 10
1508.324083532535
 20
-462.3700595120016
 30
0.0
 41
1.000000000007072
 10
1505.338049065606
 20
-461.5925070529761
 30
0.0
 41
1.000000000007071
 10
1502.456241878106
 20
-460.3640659106625
 30
0.0
 41
1.000000000007071
 10
1501.05612377919
 20
-459.6506067936728
 30
0.0
 41
1.000000000007071
 10
1498.319483463026
 20
-458.2616517583321
 30
0.0
 41
0.9938557132253011
 10
1495.796205391541
 20
-456.5148077228708
 30
0.0
 41
0.9938557132253018
 10
1493.532800797042
 20
-454.4422740194395
 30
0.0
 41
1.000000000007071
 10
1491.280619132974
 20
-452.3668042615542
 30
0.0
 41
0.9937818832585132
 10
1489.332251784864
 20
-450.0038058187525
 30
0.0
 41
0.9937818832585124
 10
1487.724044279631
 20
-447.3973588916165
 30
0.0
 41
1.000000000007071
 10
1486.099647700179
 20
-444.7842394602217
 30
0.0
 41
0.9932246113400909
 10
1484.863364303835
 20
-441.9666765462847
 30
0.0
 41
0.9932246113400914
 10
1484.040322992137
 20
-439.0019404013121
 30
0.0
 41
1.000000000007071
 10
1483.635138585274
 20
-437.5271030925912
 30
0.0
 41
1.000000000007072
 10
1483.035236625355
 20
-434.5174799095432
 30
0.0
 41
1.000000000007072
 10
1482.774934795444
 20
-431.39229331852
 30
0.0
 41
1.000000000007071
 10
1482.715539660956
 20
-429.8305949946384
 30
0.0
 41
1.000000000007071
 10
1482.659774273242
 20
-428.3697128354174
 30
0.0
 41
1.000000000007071
 10
1482.661667337301
 20
-425.4203139936437
 30
0.0
 41
1.000000000007072
 10
1482.739602054729
 20
-422.2863115665427
 30
0.0
 41
1.000000000007072
 10
1482.7508949685
 20
-420.6854112279893
 30
0.0
 41
1.000000000007071
 10
1482.75688408784
 20
-417.640379497701
 30
0.0
 41
0.9999900917434345
 10
1482.746271530886
 20
-414.5953603710537
 30
0.0
 41
0.9999900917434341
 10
1482.719057613094
 20
-411.5504443606042
 30
0.0
 41
1.000000000007071
 10
1482.710122090469
 20
-408.5015031514548
 30
0.0
 41
0.9999992623458841
 10
1482.705722211959
 20
-405.4525520233647
 30
0.0
 41
0.9999992623458841
 10
1482.705857987301
 20
-402.4035977236124
 30
0.0
 41
1.000000000007071
 10
1482.570347658431
 20
-340.9178643304264
 30
0.0
 41
0.999998978309337
 10
1482.542483075486
 20
-279.4319879236272
 30
0.0
 41
0.999998978309337
 10
1482.622264323873
 20
-217.9461569631565
 30
0.0
 41
1.000000000007071
 10
1482.622360530063
 20
-215.9672346452022
 30
0.0
 41
0.9999994570423552
 10
1482.624982397358
 20
-213.9883140617615
 30
0.0
 41
0.9999994570423552
 10
1482.630129921485
 20
-212.0093984362866
 30
0.0
 41
1.000000000007071
 10
1482.642126743587
 20
-210.0306050311738
 30
0.0
 41
0.9999946298989474
 10
1482.646181065819
 20
-208.0517808285706
 30
0.0
 41
0.9999946299002278
 10
1482.642292831444
 20
-206.0729562926488
 30
0.0
 41
1.000000000010912
 10
1482.637284808881
 20
-205.0396895554904
 30
0.0
 41
1.000000000010912
 10
1482.612028851978
 20
-203.0101228845325
 30
0.0
 41
1.000000000010911
 10
1482.620227566555
 20
-201.0877018464972
 30
0.0
 41
1.000000000010912
 10
1482.645950456926
 20
-200.1378625700634
 30
0.0
 41
1.000000000010912
 10
1482.700889039775
 20
-198.087944641916
 30
0.0
 41
1.000000000010911
 10
1482.859039861171
 20
-196.112248174128
 30
0.0
 41
1.000000000010913
 10
1483.184556693481
 20
-194.2281060375199
 30
0.0
 41
1.000000000010912
 10
1483.525671127432
 20
-192.275266481007
 30
0.0
 41
0.9971973063359352
 10
1484.044229975661
 20
-190.3618825384962
 30
0.0
 41
0.9971973063359351
 10
1484.735873153355
 20
-188.5040420972091
 30
0.0
 41
1.000000000010912
 10
1485.427795300877
 20
-186.6312740246335
 30
0.0
 41
0.9975110566652255
 10
1486.278810530319
 20
-184.8252315026679
 30
0.0
 41
0.9975110566652258
 10
1487.282564455604
 20
-183.0993999438633
 30
0.0
 41
1.000000000010912
 10
1488.284156745977
 20
-181.3818865057003
 30
0.0
 41
0.997419561534739
 10
1489.432840898642
 20
-179.7590605002943
 30
0.0
 41
0.9974195615347389
 10
1490.719724587246
 20
-178.2434847356399
 30
0.0
 41
1.000000000010912
 10
1492.010983908808
 20
-176.7215612817347
 30
0.0
 41
0.9975111333088008
 10
1493.42880840499
 20
-175.3167924989481
 30
0.0
 41
0.9975111333088007
 10
1494.962611747259
 20
-174.0396672340228
 30
0.0
 41
1.000000000010912
 10
1496.505135373891
 20
-172.7560763465633
 30
0.0
 41
0.99752546372042
 10
1498.152425442548
 20
-171.610030913435
 30
0.0
 41
0.9975254637204206
 10
1499.892253116062
 20
-170.6100387276829
 30
0.0
 41
1.000000000010912
 10
1501.642841342811
 20
-169.6050370665275
 30
0.0
 41
0.9976544165439442
 10
1503.47150106349
 20
-168.7502908442367
 30
0.0
 41
0.9976544165439443
 10
1505.365364456078
 20
-168.0518146966324
 30
0.0
 41
1.000000000010912
 10
1507.271234628922
 20
-167.3458771989476
 30
0.0
 41
0.9975323424787543
 10
1509.230733252645
 20
-166.8063829821074
 30
0.0
 41
0.9975323424787531
 10
1511.229354212632
 20
-166.4373259070153
 30
0.0
 41
1.000000000010912
 10
1513.228316451735
 20
-166.0796755504816
 30
0.0
 41
0.998310020220974
 10
1515.247661197752
 20
-165.8651747168549
 30
0.0
 41
0.9983100202209737
 10
1517.277150495252
 20
-165.7949109123556
 30
0.0
 41
1.000000000010912
 10
1519.133858739383
 20
-165.7202101456661
 30
0.0
 41
1.000000000010911
 10
1521.095968724651
 20
-165.7459316315871
 30
0.0
 41
1.000000000010913
 10
1523.237516079999
 20
-165.7414631641752
 30
0.0
 41
1.000000000010912
 10
1525.215066043319
 20
-165.7287595107153
 30
0.0
 41
0.9999944290733704
 10
1527.192547547339
 20
-165.7079714975848
 30
0.0
 41
0.9999944290733701
 10
1529.169927542785
 20
-165.6790994722101
 30
0.0
 41
1.000000000010912
 10
1531.151826811141
 20
-165.6578478702432
 30
0.0
 41
0.9999993395995858
 10
1533.133754029158
 20
-165.6393859369856
 30
0.0
 41
0.9999993395995858
 10
1535.115705270175
 20
-165.6237137090143
 30
0.0
 41
1.000000000010912
 10
1537.098962923075
 20
-165.6064122877238
 30
0.0
 41
1.000000000010912
 10
1539.079435958514
 20
-165.5876823421197
 30
0.0
 41
1.000000000010912
 10
1541.057176785894
 20
-165.5702672024916
 30
0.0
 41
1.000000000010912
 10
1543.036984708118
 20
-165.5528328864401
 30
0.0
 41
1.000000000010912
 10
1545.017431133474
 20
-165.5365390367475
 30
0.0
 41
1.000000000010912
 10
1546.998513312747
 20
-165.520793153308
 30
0.0
 41
1.000000000010912
 10
1548.978716005499
 20
-165.5050541537054
 30
0.0
 41
1.000000000010912
 10
1550.958650440803
 20
-165.4899030707894
 30
0.0
 41
1.000000000010912
 10
1552.938318211384
 20
-165.4756351635237
 30
0.0
 41
1.000000000010912
 10
1554.91775072263
 20
-165.4613688530354
 30
0.0
 41
1.000000000010912
 10
1556.897168898209
 20
-165.4479756454831
 30
0.0
 41
1.000000000010912
 10
1558.876573730021
 20
-165.4355005690591
 30
0.0
 41
1.000000000010912
 10
1560.855433497744
 20
-165.4230287903823
 30
0.0
 41
1.000000000010912
 10
1562.834203822202
 20
-165.4114772644221
 30
0.0
 41
1.000000000010912
 10
1564.812885273799
 20
-165.4009611537708
 30
0.0
 41
1.000000000010912
 10
1566.790895377445
 20
-165.3904483388023
 30
0.0
 41
1.000000000010912
 10
1568.768900882097
 20
-165.3809683828891
 30
0.0
 41
1.000000000010912
 10
1570.746907519486
 20
-165.3725509348569
 30
0.0
 41
1.000000000010912
 10
1572.724365602919
 20
-165.3641357321622
 30
0.0
 41
1.000000000010912
 10
1574.701600082681
 20
-165.3567867545981
 30
0.0
 41
1.000000000010912
 10
1576.678601845638
 20
-165.3507368830628
 30
0.0
 41
1.000000000010912
 10
1578.652870608861
 20
-165.3446936124352
 30
0.0
 41
1.000000000010912
 10
1580.628600455435
 20
-165.3399167244519
 30
0.0
 41
1.000000000010912
 10
1582.605864058673
 20
-165.3350373367548
 30
0.0
 41
1.000000000010912
 10
1584.581643100456
 20
-165.3301599747307
 30
0.0
 41
1.000000000010912
 10
1586.557294505175
 20
-165.3252059452572
 30
0.0
 41
1.000000000010912
 10
1588.532813480981
 20
-165.3202954317412
 30
0.0
 41
1.000000000010912
 10
1590.508243499459
 20
-165.315385225094
 30
0.0
 41
1.000000000010912
 10
1592.483704746415
 20
-165.3105159949863
 30
0.0
 41
1.000000000010912
 10
1594.459198360799
 20
-165.3056587109124
 30
0.0
 41
1.000000000010912
 10
1596.434460535799
 20
-165.3008019809378
 30
0.0
 41
1.000000000010912
 10
1598.409710743374
 20
-165.2959578148389
 30
0.0
 41
1.000000000010912
 10
1600.384948437617
 20
-165.2911379578177
 30
0.0
 41
1.000000000010912
 10
1602.359979111666
 20
-165.2863186195857
 30
0.0
 41
1.000000000010912
 10
1604.335009269176
 20
-165.2815234321507
 30
0.0
 41
1.000000000010912
 10
1606.310038811642
 20
-165.2767533415122
 30
0.0
 41
1.000000000010912
 10
1608.284841575494
 20
-165.2719838046809
 30
0.0
 41
1.000000000010912
 10
1610.259640478256
 20
-165.2672393963057
 30
0.0
 41
1.000000000010912
 10
1612.234435301923
 20
-165.2625242664126
 30
0.0
 41
1.000000000010912
 10
1614.208996339766
 20
-165.2578097027312
 30
0.0
 41
1.000000000010912
 10
1616.183554167269
 20
-165.2531244020037
 30
0.0
 41
1.000000000010912
 10
1618.158108628798
 20
-165.2484719155202
 30
0.0
 41
1.000000000010912
 10
1620.132419796802
 20
-165.2438200104369
 30
0.0
 41
1.000000000010912
 10
1622.106727361888
 20
-165.2392009139571
 30
0.0
 41
1.000000000010912
 10
1624.0810311086
 20
-165.234618610988
 30
0.0
 41
1.000000000010912
 10
1626.055083805644
 20
-165.2300368980765
 30
0.0
 41
1.000000000010912
 10
1628.02913275972
 20
-165.225491968779
 30
0.0
 41
1.000000000010912
 10
1630.003177791211
 20
-165.2209879542088
 30
0.0
 41
1.000000000010912
 10
1631.976964691441
 20
-165.2164845358398
 30
0.0
 41
1.000000000010912
 10
1633.95074765259
 20
-165.2120220221656
 30
0.0
 41
1.000000000010912
 10
1635.924526500386
 20
-165.2076047614196
 30
0.0
 41
1.000000000010912
 10
1637.898041213968
 20
-165.2031880987319
 30
0.0
 41
1.000000000010912
 10
1639.871551820078
 20
-165.1988166775286
 30
0.0
 41
1.000000000010912
 10
1641.845058154104
 20
-165.1944950340944
 30
0.0
 41
1.000000000010912
 10
1643.818295435084
 20
-165.1901739863983
 30
0.0
 41
1.000000000010912
 10
1645.791528443721
 20
-165.1859027037986
 30
0.0
 41
1.000000000010912
 10
1647.764757026207
 20
-165.1816859055957
 30
0.0
 41
1.000000000010912
 10
1649.737712832356
 20
-165.1774696964102
 30
0.0
 41
1.000000000010912
 10
1651.710664213759
 20
-165.1733079576428
 30
0.0
 41
1.000000000010912
 10
1653.683611029494
 20
-165.1692055769831
 30
0.0
 41
1.000000000010912
 10
1655.656282622522
 20
-165.1651037740586
 30
0.0
 41
1.000000000010912
 10
1657.628949651074
 20
-165.1610613145716
 30
0.0
 41
1.000000000010912
 10
1659.601611988423
 20
-165.1570832364894
 30
0.0
 41
1.000000000010912
 10
1661.573998024619
 20
-165.1531057206888
 30
0.0
 41
1.000000000010912
 10
1663.546379371123
 20
-165.1491925710863
 30
0.0
 41
1.000000000010912
 10
1665.518755919629
 20
-165.1453489644186
 30
0.0
 41
1.000000000010912
 10
1667.490856570807
 20
-165.141505899499
 30
0.0
 41
1.000000000010912
 10
1669.46295242515
 20
-165.1377323597621
 30
0.0
 41
1.000000000010912
 10
1671.435043393726
 20
-165.1340336347189
 30
0.0
 41
1.000000000010912
 10
1673.406860408715
 20
-165.1303354267394
 30
0.0
 41
1.000000000010912
 10
1675.37867253912
 20
-165.1267120145854
 30
0.0
 41
1.000000000010912
 10
1677.350479717636
 20
-165.1231687767449
 30
0.0
 41
1.000000000010912
 10
1679.32201650383
 20
-165.1196260270907
 30
0.0
 41
1.000000000010912
 10
1681.293548339322
 20
-165.1161634318929
 30
0.0
 41
1.000000000010912
 10
1683.265075180705
 20
-165.1127864320381
 30
0.0
 41
1.000000000010912
 10
1685.236336885006
 20
-165.1094098874661
 30
0.0
 41
1.000000000010912
 10
1687.207593592956
 20
-165.1061189180554
 30
0.0
 41
1.000000000010912
 10
1689.178845296266
 20
-165.1029189964411
 30
0.0
 41
1.000000000010912
 10
1691.149838877728
 20
-165.0997194948087
 30
0.0
 41
1.000000000010912
 10
1693.120827455701
 20
-165.0966110196752
 30
0.0
 41
1.000000000010912
 10
1695.091811032255
 20
-165.0935990473158
 30
0.0
 41
1.000000000010912
 10
1697.062545337121
 20
-165.0905874546313
 30
0.0
 41
1.000000000010912
 10
1699.033274645098
 20
-165.0876723425532
 30
0.0
 41
1.000000000010912
 10
1701.003998997627
 20
-165.0848591524548
 30
0.0
 41
1.000000000010912
 10
1702.974484803965
 20
-165.082046300363
 30
0.0
 41
1.000000000010912
 10
1704.944965654391
 20
-165.079335348749
 30
0.0
 41
1.000000000010912
 10
1706.915441626641
 20
-165.0767316677143
 30
0.0
 41
1.000000000010912
 10
1708.885691698114
 20
-165.074128281757
 30
0.0
 41
1.000000000010912
 10
1710.855936892406
 20
-165.0716321448591
 30
0.0
 41
1.000000000010912
 10
1712.826177313321
 20
-165.0692485186553
 30
0.0
 41
1.000000000010912
 10
1714.79620643371
 20
-165.0668651426934
 30
0.0
 41
1.000000000010912
 10
1716.76623078315
 20
-165.0645942562474
 30
0.0
 41
1.000000000010912
 10
1718.73625050497
 20
-165.0624409694165
 30
0.0
 41
1.000000000010912
 10
1720.706075491673
 20
-165.060287888579
 30
0.0
 41
1.000000000010912
 10
1722.675895851613
 20
-165.0582523874171
 30
0.0
 41
1.000000000010912
 10
1724.645711764858
 20
-165.0563393825178
 30
0.0
 41
1.000000000010912
 10
1726.615351475437
 20
-165.0544265403127
 30
0.0
 41
1.000000000010912
 10
1728.584986739973
 20
-165.0526361758421
 30
0.0
 41
1.000000000010912
 10
1730.554617776202
 20
-165.0509729685318
 30
0.0
 41
1.000000000010912
 10
1732.524093092217
 20
-165.0493098826993
 30
0.0
 41
1.000000000010912
 10
1734.493564180849
 20
-165.047773937317
 30
0.0
 41
1.000000000010912
 10
1736.463031297777
 20
-165.0463695299647
 30
0.0
 41
1.000000000010912
 10
1738.432365093144
 20
-165.0449652060595
 30
0.0
 41
1.000000000010912
 10
1740.401694916478
 20
-165.0436924058458
 30
0.0
 41
1.000000000010912
 10
1742.371021062341
 20
-165.0425552014067
 30
0.0
 41
1.000000000010912
 10
1744.340238144373
 20
-165.0414180467768
 30
0.0
 41
1.000000000010912
 10
1746.309451552041
 20
-165.0404164759948
 30
0.0
 41
1.000000000010912
 10
1748.278661615167
 20
-165.0395541890382
 30
0.0
 41
1.000000000010912
 10
1750.247788666316
 20
-165.0386919235912
 30
0.0
 41
1.000000000010912
 10
1752.216912365775
 20
-165.0379689344375
 30
0.0
 41
1.000000000010912
 10
1754.186033090151
 20
-165.0373885127947
 30
0.0
 41
1.000000000010912
 10
1756.155098531545
 20
-165.0368080916003
 30
0.0
 41
1.000000000010912
 10
1758.124161017055
 20
-165.0363702293108
 30
0.0
 41
1.000000000010912
 10
1760.093220921541
 20
-165.0360777546603
 30
0.0
 41
1.000000000010912
 10
1762.062254877765
 20
-165.0357852648104
 30
0.0
 41
1.000000000010912
 10
1764.031286217419
 20
-165.0356381756211
 30
0.0
 41
1.000000000010912
 10
1766.000315490699
 20
-165.0356388168336
 30
0.0
 41
1.000000000010912
 10
1768.069453252169
 20
-165.0356394700075
 30
0.0
 41
1.000000000010912
 10
1770.138593443734
 20
-165.0358032378307
 30
0.0
 41
1.000000000010912
 10
1772.20773644885
 20
-165.0361273768012
 30
0.0
 41
1.000000000010912
 10
1774.276910751749
 20
-165.0364515009436
 30
0.0
 41
1.000000000010912
 10
1776.34608790817
 20
-165.0369360135875
 30
0.0
 41
1.000000000010912
 10
1778.415268416687
 20
-165.0375775779376
 30
0.0
 41
1.000000000010912
 10
1780.484514077731
 20
-165.0382191424579
 30
0.0
 41
1.000000000010912
 10
1782.553763070322
 20
-165.0390177603304
 30
0.0
 41
1.000000000010912
 10
1784.62301580827
 20
-165.0399695548031
 30
0.0
 41
1.000000000010912
 10
1786.692365640561
 20
-165.0409213763696
 30
0.0
 41
1.000000000010912
 10
1788.761719226956
 20
-165.0420263858576
 30
0.0
 41
1.000000000010912
 10
1790.831076946797
 20
-165.0432802054665
 30
0.0
 41
1.000000000010912
 10
1792.900561597849
 20
-165.0445340862592
 30
0.0
 41
1.000000000010912
 10
1794.970050379976
 20
-165.045936790827
 30
0.0
 41
1.000000000010912
 10
1797.039543623428
 20
-165.0474835031844
 30
0.0
 41
1.000000000010912
 10
1799.109191439146
 20
-165.0490303174143
 30
0.0
 41
1.000000000010912
 10
1801.178843717827
 20
-165.0507211566538
 30
0.0
 41
1.000000000010912
 10
1803.248500743857
 20
-165.0525508204878
 30
0.0
 41
1.000000000010912
 10
1805.318337689101
 20
-165.0543806317618
 30
0.0
 41
1.000000000010912
 10
1807.388179382171
 20
-165.0563492873816
 30
0.0
 41
1.000000000010912
 10
1809.458026060923
 20
-165.0584512605919
 30
0.0
 41
1.000000000010912
 10
1811.528075653363
 20
-165.060553430285
 30
0.0
 41
1.000000000010912
 10
1813.598130232476
 20
-165.0627889394083
 30
0.0
 41
1.000000000010912
 10
1815.668189990636
 20
-165.0651519911917
 30
0.0
 41
1.000000000010912
 10
1817.738473266843
 20
-165.0675152905398
 30
0.0
 41
1.000000000010912
 10
1819.808761723072
 20
-165.0700061558974
 30
0.0
 41
1.000000000010912
 10
1821.879055507444
 20
-165.0726185761273
 30
0.0
 41
1.000000000010912
 10
1823.949591011829
 20
-165.075231295607
 30
0.0
 41
1.000000000010912
 10
1826.020131848071
 20
-165.0779655947322
 30
0.0
 41
1.000000000010912
 10
1828.090678114936
 20
-165.080815300641
 30
0.0
 41
1.000000000010912
 10
1830.161481913466
 20
-165.0836653579114
 30
0.0
 41
1.000000000010912
 10
1832.232291143796
 20
-165.0866308468359
 30
0.0
 41
1.000000000010912
 10
1834.303105877924
 20
-165.0897054876707
 30
0.0
 41
1.000000000010912
 10
1836.374191585177
 20
-165.0927805286575
 30
0.0
 41
1.000000000010912
 10
1838.44528279487
 20
-165.0959647460876
 30
0.0
 41
1.000000000010912
 10
1840.516379534067
 20
-165.0992517987461
 30
0.0
 41
1.000000000010912
 10
1842.58775837381
 20
-165.1025392986918
 30
0.0
 41
1.000000000010912
 10
1844.659142744358
 20
-165.1059296585232
 30
0.0
 41
1.000000000010912
 10
1846.730532637261
 20
-165.1094165223049
 30
0.0
 41
1.000000000010912
 10
1848.802213503809
 20
-165.1129038769704
 30
0.0
 41
1.000000000010912
 10
1850.873899894046
 20
-165.1164877596129
 30
0.0
 41
1.000000000010912
 10
1852.945591766754
 20
-165.1201618418299
 30
0.0
 41
1.000000000010912
 10
1855.017581307835
 20
-165.1238364544108
 30
0.0
 41
1.000000000010912
 10
1857.089576332747
 20
-165.1276012896807
 30
0.0
 41
1.000000000010912
 10
1859.161576770346
 20
-165.1314500854405
 30
0.0
 41
1.000000000010912
 10
1861.233879479895
 20
-165.1352994463847
 30
0.0
 41
1.000000000010912
 10
1863.306187603477
 20
-165.1392327897967
 30
0.0
 41
1.000000000010912
 10
1865.37850104293
 20
-165.1432439546663
 30
0.0
 41
1.000000000010912
 10
1867.451119362936
 20
-165.1472557144827
 30
0.0
 41
1.000000000010912
 10
1869.523743000209
 20
-165.1513453164252
 30
0.0
 41
1.000000000010912
 10
1871.596371832473
 20
-165.1555067318341
 30
0.0
 41
1.000000000010912
 10
1873.669306259729
 20
-165.1596687668388
 30
0.0
 41
1.000000000010912
 10
1875.742245886754
 20
-165.1639026334307
 30
0.0
 41
1.000000000010912
 10
1877.815190560216
 20
-165.168202466725
 30
0.0
 41
1.000000000010912
 10
1879.888439730128
 20
-165.1725029389953
 30
0.0
 41
1.000000000010912
 10
1881.961693948484
 20
-165.1768693956798
 30
0.0
 41
1.000000000010912
 10
1884.034953061309
 20
-165.1812961556211
 30
0.0
 41
1.000000000010912
 10
1886.10851388508
 20
-165.1857235670907
 30
0.0
 41
1.000000000010912
 10
1888.182079598575
 20
-165.190211297618
 30
0.0
 41
1.000000000010912
 10
1890.255650023507
 20
-165.1947538729196
 30
0.0
 41
1.000000000010912
 10
1892.329517808095
 20
-165.1992971076585
 30
0.0
 41
1.000000000010912
 10
1894.403390315182
 20
-165.203895201813
 30
0.0
 41
1.000000000010912
 10
1896.477267352956
 20
-165.2085428933042
 30
0.0
 41
1.000000000010912
 10
1898.551435985332
 20
-165.2131912467424
 30
0.0
 41
1.000000000010912
 10
1900.625609112873
 20
-165.2178892103495
 30
0.0
 41
1.000000000010912
 10
1902.699786534377
 20
-165.2226317934139
 30
0.0
 41
1.000000000010912
 10
1904.774248316616
 20
-165.2273750354573
 30
0.0
 41
1.000000000010912
 10
1906.848714540233
 20
-165.232162910012
 30
0.0
 41
1.000000000010912
 10
1908.923184961589
 20
-165.2369905385217
 30
0.0
 41
1.000000000010912
 10
1910.997931799039
 20
-165.2418188200552
 30
0.0
 41
1.000000000010912
 10
1913.072682335015
 20
-165.2466868616884
 30
0.0
 41
1.000000000010912
 10
1915.147436396358
 20
-165.2515905286978
 30
0.0
 41
1.000000000010912
 10
1917.222455949626
 20
-165.2564948333307
 30
0.0
 41
1.000000000010912
 10
1919.297480868095
 20
-165.2614347884482
 30
0.0
 41
1.000000000010912
 10
1921.372510870206
 20
-165.2664047204921
 30
0.0
 41
1.000000000010912
 10
1923.447801260656
 20
-165.2713752819429
 30
0.0
 41
1.000000000010912
 10
1925.523089907628
 20
-165.2763757579492
 30
0.0
 41
1.000000000010912
 10
1927.598376798511
 20
-165.2814073494555
 30
0.0
 41
1.000000000010912
 10
1929.673892788176
 20
-165.2864395195118
 30
0.0
 41
1.000000000010912
 10
1931.749432246137
 20
-165.2915031009467
 30
0.0
 41
1.000000000010912
 10
1933.824994170945
 20
-165.2965752052019
 30
0.0
 41
1.000000000010912
 10
1935.900846949029
 20
-165.3016479773891
 30
0.0
 41
1.000000000010912
 10
1937.976629020447
 20
-165.3067280908357
 30
0.0
 41
1.000000000010912
 10
1940.052343052233
 20
-165.3118825599618
 30
0.0
 41
1.000000000010912
 10
1942.128060508857
 20
-165.3170372260565
 30
0.0
 41
1.000000000010912
 10
1944.204053857956
 20
-165.3222711563213
 30
0.0
 41
1.000000000010912
 10
1946.280312593848
 20
-165.3273215673789
 30
0.0
 41
1.000000000010912
 10
1948.35755908381
 20
-165.3323735258258
 30
0.0
 41
1.000000000010912
 10
1950.433784147264
 20
-165.3372224860004
 30
0.0
 41
1.000000000010912
 10
1952.509031682003
 20
-165.342832961067
 30
0.0
 41
1.000000000010912
 10
1954.586788246942
 20
-165.3484480553843
 30
0.0
 41
1.000000000010912
 10
1956.663873625184
 20
-165.3548327158451
 30
0.0
 41
1.000000000010912
 10
1958.740324715341
 20
-165.3625957605007
 30
0.0
 41
1.000000000010912
 10
1960.818366327659
 20
-165.3703637928967
 30
0.0
 41
1.000000000010912
 10
1962.896665747113
 20
-165.3795284535954
 30
0.0
 41
1.000000000010912
 10
1964.975214515289
 20
-165.3898151197386
 30
0.0
 41
1.000000000010912
 10
1967.054259397812
 20
-165.400104165924
 30
0.0
 41
1.000000000010912
 10
1969.133329295775
 20
-165.4115111582466
 30
0.0
 41
1.000000000010912
 10
1971.212429750637
 20
-165.4239719935392
 30
0.0
 41
1.000000000010912
 10
1973.292290592209
 20
-165.436437037977
 30
0.0
 41
1.000000000010912
 10
1975.372149268174
 20
-165.4499551378678
 30
0.0
 41
1.000000000010912
 10
1977.452008262778
 20
-165.4644895464094
 30
0.0
 41
1.000000000010912
 10
1979.532054461412
 20
-165.4790253576387
 30
0.0
 41
1.000000000010912
 10
1981.612516055536
 20
-165.4945917171981
 30
0.0
 41
1.000000000010912
 10
1983.693385991759
 20
-165.5107401967107
 30
0.0
 41
1.000000000010912
 10
1985.775325709496
 20
-165.5268962679932
 30
0.0
 41
1.000000000010912
 10
1987.856249555975
 20
-165.5435791494579
 30
0.0
 41
1.000000000010912
 10
1989.936183506828
 20
-165.561746042898
 30
0.0
 41
1.000000000010912
 10
1992.014356613952
 20
-165.579896300842
 30
0.0
 41
1.000000000010912
 10
1994.095879655401
 20
-165.5997415350253
 30
0.0
 41
1.000000000010912
 10
1996.180784225241
 20
-165.6178158837026
 30
0.0
 41
1.000000000010912
 10
1998.26348236049
 20
-165.6340038884171
 30
0.0
 41
0.9999992469221064
 10
2000.346153811103
 20
-165.6533223476039
 30
0.0
 41
0.9999992469221064
 10
2002.428793871771
 20
-165.6757712176168
 30
0.0
 41
1.000000000010912
 10
2004.506597919472
 20
-165.7069170585983
 30
0.0
 41
0.999993326433486
 10
2006.584520527856
 20
-165.7287655739007
 30
0.0
 41
0.9999933264334859
 10
2008.662520095391
 20
-165.7413163261006
 30
0.0
 41
1.000000000010912
 10
2009.756332329226
 20
-165.7438566775648
 30
0.0
 41
1.000000000010911
 10
2011.926486378043
 20
-165.7278190654417
 30
0.0
 41
1.000000000010912
 10
2013.941260370336
 20
-165.7576757235063
 30
0.0
 41
1.000000000010911
 10
2014.952553566489
 20
-165.8018656932175
 30
0.0
 41
1.000000000010912
 10
2017.090246650449
 20
-165.8863887016828
 30
0.0
 41
0.9980444092718959
 10
2019.215199776861
 20
-166.1342799494684
 30
0.0
 41
0.9980444092718955
 10
2021.314946329758
 20
-166.5440851150897
 30
0.0
 41
1.000000000010912
 10
2023.406818394117
 20
-166.9631179037156
 30
0.0
 41
0.9972825274570177
 10
2025.452367345965
 20
-167.5691267297099
 30
0.0
 41
0.9972825274570176
 10
2027.434917015899
 20
-168.3571711560169
 30
0.0
 41
1.000000000010912
 10
2029.405868906778
 20
-169.1378266377376
 30
0.0
 41
0.9973961182731084
 10
2031.300192941489
 20
-170.08946248659
 30
0.0
 41
0.9973961182731086
 10
2033.103091332752
 20
-171.2046448609492
 30
0.0
 41
1.000000000010912
 10
2034.893239408128
 20
-172.3133848181915
 30
0.0
 41
0.9972558478268501
 10
2036.575523225151
 20
-173.5798190184331
 30
0.0
 41
0.9972558478268502
 10
2038.136093455389
 20
-174.9935215971434
 30
0.0
 41
1.000000000010912
 10
2039.689002090223
 20
-176.4005469120051
 30
0.0
 41
0.9972286990144367
 10
2041.107295334446
 20
-177.9431712143529
 30
0.0
 41
0.9972286990144363
 10
2042.379181635614
 20
-179.6085692753891
 30
0.0
 41
1.000000000010912
 10
2043.646882733685
 20
-181.2687053629966
 30
0.0
 41
0.9971760394018261
 10
2044.756572210225
 20
-183.0383683730315
 30
0.0
 41
0.9971760394018249
 10
2045.69884890712
 20
-184.9025659295994
 30
0.0
 41
1.000000000010912
 10
2046.637565503663
 20
-186.7643145785891
 30
0.0
 41
0.9972412530768087
 10
2047.40320245107
 20
-188.7036693541276
 30
0.0
 41
0.9972412530768082
 10
2047.989423153598
 20
-190.704579689092
 30
0.0
 41
1.000000000010912
 10
2048.581941777115
 20
-192.7034963667294
 30
0.0
 41
0.9969061579218768
 10
2048.979357229559
 20
-194.7501539251671
 30
0.0
 41
0.9969061579218765
 10
2049.177980888968
 20
-196.8255562585166
 30
0.0
 41
1.000000000010912
 10
2049.269384368486
 20
-197.8081451793156
 30
0.0
 41
1.000000000010913
 10
2049.359258737071
 20
-199.7949304358204
 30
0.0
 41
1.00000000001091
 10
2049.354041615206
 20
-201.9531860109904
 30
0.0
 41
1.000000000010911
 10
2049.353999837627
 20
-203.0540029421522
 30
0.0
 41
1.000000000010912
 10
2049.354598369608
 20
-205.1411198859922
 30
0.0
 41
1.000000000010911
 10
2049.361405549754
 20
-207.2206873917352
 30
0.0
 41
1.000000000010912
 10
2049.36578084616
 20
-209.2928540497137
 30
0.0
 41
1.000000000010912
 10
2049.370174564288
 20
-211.370442268439
 30
0.0
 41
1.000000000010913
 10
2049.372557212652
 20
-213.4500246563582
 30
0.0
 41
1.000000000010912
 10
2049.375199040833
 20
-215.5316290052215
 30
0.0
 41
1.000000000010912
 10
2049.377839769936
 20
-217.61181000412
 30
0.0
 41
1.000000000010911
 10
2049.380642530495
 20
-219.6912854804476
 30
0.0
 41
1.000000000010911
 10
2049.382895148577
 20
-221.7700568560947
 30
0.0
 41
1.000000000010912
 10
2049.385147982799
 20
-223.8485119104942
 30
0.0
 41
1.000000000010911
 10
2049.386895618849
 20
-225.927747359133
 30
0.0
 41
1.000000000010912
 10
2049.388578921546
 20
-228.0077749265549
 30
0.0
 41
1.000000000010912
 10
2049.39026204084
 20
-230.086948896876
 30
0.0
 41
1.000000000010913
 10
2049.391864899093
 20
-232.1662456655994
 30
0.0
 41
1.000000000010912
 10
2049.393413250707
 20
-234.245666005279
 30
0.0
 41
1.000000000010912
 10
2049.39496160426
 20
-236.3250016368981
 30
0.0
 41
1.000000000010913
 10
2049.396452316482
 20
-238.4042978936445
 30
0.0
 41
1.000000000010912
 10
2049.39787242678
 20
-240.4835552807986
 30
0.0
 41
1.000000000010912
 10
2049.399292540856
 20
-242.5628456838559
 30
0.0
 41
1.000000000010911
 10
2049.400642945241
 20
-244.6421473036507
 30
0.0
 41
1.000000000010911
 10
2049.401924315746
 20
-246.7214579097192
 30
0.0
 41
1.000000000010912
 10
2049.403205769851
 20
-248.8007904076921
 30
0.0
 41
1.000000000010912
 10
2049.40441722204
 20
-250.8800968174857
 30
0.0
 41
1.000000000010913
 10
2049.405547116678
 20
-252.9593868257782
 30
0.0
 41
1.000000000010912
 10
2049.406676859488
 20
-255.038658828132
 30
0.0
 41
1.000000000010911
 10
2049.407727549437
 20
-257.1179902887794
 30
0.0
 41
1.000000000010912
 10
2049.408719810159
 20
-259.1973542005867
 30
0.0
 41
1.000000000010912
 10
2049.409713667468
 20
-261.2768699435129
 30
0.0
 41
1.000000000010911
 10
2049.410637687185
 20
-263.3561379628158
 30
0.0
 41
1.000000000010912
 10
2049.41142053868
 20
-265.4353714668553
 30
0.0
 41
1.000000000010912
  0
SPLINE
  5
6A
330
1F
100
AcDbEntity
  8
EGD111 EGD011$2D
100
AcDbSpline
210
0.0
220
0.0
230
1.0
 70
    15
 71
     3
 72
   546
 73
   542
 74
     0
 42
0.000000001
 43
0.0000000001
 12
1.0
 22
0.0
 32
0.0
 13
1.0
 23
0.0
 33
0.0
 40
-0.0048687766917834
 40
-0.0048687766917834
 40
-0.0048687766917834
 40
-0.0048687766917834
 40
9.122141835469531
 40
9.122141835469531
 40
9.122141835469531
 40
18.24892692239108
 40
18.24892692239108
 40
18.24892692239108
 40
27.37594551197464
 40
27.37594551197464
 40
27.37594551197464
 40
36.50315520215259
 40
36.50315520215259
 40
36.50315520215259
 40
45.63064117239234
 40
45.63064117239234
 40
45.63064117239234
 40
54.7604395944563
 40
54.7604395944563
 40
54.7604395944563
 40
63.89374184935481
 40
63.89374184935481
 40
63.89374184935481
 40
73.02772759310781
 40
73.02772759310781
 40
73.02772759310781
 40
82.16317914078537
 40
82.16317914078537
 40
82.16317914078537
 40
91.29997143636284
 40
91.29997143636284
 40
91.29997143636284
 40
100.4381733810317
 40
100.4381733810317
 40
100.4381733810317
 40
109.5781447950274
 40
109.5781447950274
 40
109.5781447950274
 40
118.7187123122193
 40
118.7187123122193
 40
118.7187123122193
 40
127.8632529881627
 40
127.8632529881627
 40
127.8632529881627
 40
137.0006135548255
 40
137.0006135548255
 40
137.0006135548255
 40
146.1727271631372
 40
146.1727271631372
 40
146.1727271631372
 40
155.2225391297529
 40
155.2225391297529
 40
155.2225391297529
 40
159.9163743908335
 40
164.7604953073841
 40
164.7604953073841
 40
164.7604953073841
 40
169.9092436489676
 40
175.1601507712673
 40
175.1601507712673
 40
175.1601507712673
 40
185.6203582147946
 40
185.6203582147946
 40
185.6203582147946
 40
195.9773397846352
 40
195.9773397846352
 40
195.9773397846352
 40
206.3584374831771
 40
206.3584374831771
 40
206.3584374831771
 40
211.6727343125919
 40
216.9725718013848
 40
216.9725718013848
 40
216.9725718013848
 40
222.209378643296
 40
227.2329597449688
 40
227.2329597449688
 40
227.2329597449688
 40
231.9253162605755
 40
236.5472174771494
 40
236.5472174771494
 40
236.5472174771494
 40
245.6553213698566
 40
245.6553213698566
 40
245.6553213698566
 40
254.8152570575141
 40
254.8152570575141
 40
254.8152570575141
 40
693.6374974600316
 40
693.6374974600316
 40
693.6374974600316
 40
702.7974357494102
 40
702.7974357494102
 40
702.7974357494102
 40
711.9055247339633
 40
711.9055247339633
 40
711.9055247339633
 40
716.5271440087379
 40
721.2198325634185
 40
721.2198325634185
 40
721.2198325634185
 40
726.2454066289121
 40
731.4887196858552
 40
731.4887196858552
 40
731.4887196858552
 40
736.7919499239744
 40
742.1080204603984
 40
742.1080204603984
 40
742.1080204603984
 40
752.4844616143547
 40
752.4844616143547
 40
752.4844616143547
 40
762.8417816600057
 40
762.8417816600057
 40
762.8417816600057
 40
773.3127240738514
 40
773.3127240738514
 40
773.3127240738514
 40
778.5816987851347
 40
783.7345541129293
 40
783.7345541129293
 40
783.7345541129293
 40
788.5537785944209
 40
793.2304351383842
 40
793.2304351383842
 40
793.2304351383842
 40
802.2798400230342
 40
802.2798400230342
 40
802.2798400230342
 40
811.4519840390066
 40
811.4519840390066
 40
811.4519840390066
 40
820.589346486371
 40
820.589346486371
 40
820.589346486371
 40
829.7338993968012
 40
829.7338993968012
 40
829.7338993968012
 40
838.8745403022028
 40
838.8745403022028
 40
838.8745403022028
 40
848.0143200938985
 40
848.0143200938985
 40
848.0143200938985
 40
857.1525037673651
 40
857.1525037673651
 40
857.1525037673651
 40
866.2893434900107
 40
866.2893434900107
 40
866.2893434900107
 40
875.4248413338477
 40
875.4248413338477
 40
875.4248413338477
 40
884.5589449214722
 40
884.5589449214722
 40
884.5589449214722
 40
893.6920120393506
 40
893.6920120393506
 40
893.6920120393506
 40
902.8217680720768
 40
902.8217680720768
 40
902.8217680720768
 40
911.9492599408601
 40
911.9492599408601
 40
911.9492599408601
 40
921.076470465255
 40
921.076470465255
 40
921.076470465255
 40
930.203490539548
 40
930.203490539548
 40
930.203490539548
 40
939.3302749178108
 40
939.3302749178108
 40
939.3302749178108
 40
948.4572907746987
 40
948.4572907746987
 40
948.4572907746987
 40
954.3947487023521
 40
954.3947487023521
 40
954.3947487023521
 40
960.3317785855367
 40
960.3317785855367
 40
960.3317785855367
 40
966.268878772165
 40
966.268878772165
 40
966.268878772165
 40
972.2058598558366
 40
972.2058598558366
 40
972.2058598558366
 40
978.1429571994818
 40
978.1429571994818
 40
978.1429571994818
 40
984.079504393065
 40
984.079504393065
 40
984.079504393065
 40
990.0190536535581
 40
990.0190536535581
 40
990.0190536535581
 40
995.9567735062258
 40
995.9567735062258
 40
995.9567735062258
 40
1001.911810931493
 40
1001.911810931493
 40
1001.911810931493
 40
1007.801136821552
 40
1007.801136821552
 40
1007.801136821552
 40
1010.829745323399
 40
1013.935110714692
 40
1013.935110714692
 40
1013.935110714692
 40
1020.638937974187
 40
1020.638937974187
 40
1020.638937974187
 40
1027.520540321556
 40
1027.520540321556
 40
1027.520540321556
 40
1034.39452520191
 40
1034.39452520191
 40
1034.39452520191
 40
1041.265117543232
 40
1041.265117543232
 40
1041.265117543232
 40
1048.158195485537
 40
1048.158195485537
 40
1048.158195485537
 40
1055.104142771995
 40
1055.104142771995
 40
1055.104142771995
 40
1062.09328080064
 40
1062.09328080064
 40
1062.09328080064
 40
1069.17296824685
 40
1069.17296824685
 40
1069.17296824685
 40
1076.14234491146
 40
1076.14234491146
 40
1076.14234491146
 40
1082.380748517046
 40
1082.380748517046
 40
1082.380748517046
 40
1088.252995199429
 40
1088.252995199429
 40
1088.252995199429
 40
1094.220610110269
 40
1094.220610110269
 40
1094.220610110269
 40
1100.162604705224
 40
1100.162604705224
 40
1100.162604705224
 40
1106.11080990958
 40
1106.11080990958
 40
1106.11080990958
 40
1112.056374456679
 40
1112.056374456679
 40
1112.056374456679
 40
1118.001232443473
 40
1118.001232443473
 40
1118.001232443473
 40
1123.944453372505
 40
1123.944453372505
 40
1123.944453372505
 40
1129.885657813662
 40
1129.885657813662
 40
1129.885657813662
 40
1135.825214597098
 40
1135.825214597098
 40
1135.825214597098
 40
1141.756562107593
 40
1141.756562107593
 40
1141.756562107593
 40
1147.683457720954
 40
1147.683457720954
 40
1147.683457720954
 40
1153.610086492934
 40
1153.610086492934
 40
1153.610086492934
 40
1159.536020931899
 40
1159.536020931899
 40
1159.536020931899
 40
1165.461334287447
 40
1165.461334287447
 40
1165.461334287447
 40
1171.385967281222
 40
1171.385967281222
 40
1171.385967281222
 40
1177.309898879987
 40
1177.309898879987
 40
1177.309898879987
 40
1183.233100619769
 40
1183.233100619769
 40
1183.233100619769
 40
1189.155549165012
 40
1189.155549165012
 40
1189.155549165012
 40
1195.077223275878
 40
1195.077223275878
 40
1195.077223275878
 40
1200.998104937813
 40
1200.998104937813
 40
1200.998104937813
 40
1206.918179390012
 40
1206.918179390012
 40
1206.918179390012
 40
1212.837435458095
 40
1212.837435458095
 40
1212.837435458095
 40
1218.755865798545
 40
1218.755865798545
 40
1218.755865798545
 40
1224.673467171432
 40
1224.673467171432
 40
1224.673467171432
 40
1230.590240784275
 40
1230.590240784275
 40
1230.590240784275
 40
1236.50619246449
 40
1236.50619246449
 40
1236.50619246449
 40
1242.421332892484
 40
1242.421332892484
 40
1242.421332892484
 40
1248.335677828571
 40
1248.335677828571
 40
1248.335677828571
 40
1254.249248336812
 40
1254.249248336812
 40
1254.249248336812
 40
1260.162070945779
 40
1260.162070945779
 40
1260.162070945779
 40
1266.074177832945
 40
1266.074177832945
 40
1266.074177832945
 40
1271.985606944266
 40
1271.985606944266
 40
1271.985606944266
 40
1277.896402073145
 40
1277.896402073145
 40
1277.896402073145
 40
1283.80661291998
 40
1283.80661291998
 40
1283.80661291998
 40
1289.716295086518
 40
1289.716295086518
 40
1289.716295086518
 40
1295.625510025949
 40
1295.625510025949
 40
1295.625510025949
 40
1301.534324941519
 40
1301.534324941519
 40
1301.534324941519
 40
1307.442812615218
 40
1307.442812615218
 40
1307.442812615218
 40
1313.351051212857
 40
1313.351051212857
 40
1313.351051212857
 40
1319.259123933184
 40
1319.259123933184
 40
1319.259123933184
 40
1325.167118793193
 40
1325.167118793193
 40
1325.167118793193
 40
1331.375485232864
 40
1331.375485232864
 40
1331.375485232864
 40
1337.583945584299
 40
1337.583945584299
 40
1337.583945584299
 40
1343.792601426982
 40
1343.792601426982
 40
1343.792601426982
 40
1350.001548599649
 40
1350.001548599649
 40
1350.001548599649
 40
1356.210876624529
 40
1356.210876624529
 40
1356.210876624529
 40
1362.420668434561
 40
1362.420668434561
 40
1362.420668434561
 40
1368.631000078552
 40
1368.631000078552
 40
1368.631000078552
 40
1374.841940546096
 40
1374.841940546096
 40
1374.841940546096
 40
1381.053551654717
 40
1381.053551654717
 40
1381.053551654717
 40
1387.265888015094
 40
1387.265888015094
 40
1387.265888015094
 40
1393.478997047873
 40
1393.478997047873
 40
1393.478997047873
 40
1399.692919093058
 40
1399.692919093058
 40
1399.692919093058
 40
1405.907687529751
 40
1405.907687529751
 40
1405.907687529751
 40
1412.123328975003
 40
1412.123328975003
 40
1412.123328975003
 40
1418.339863509881
 40
1418.339863509881
 40
1418.339863509881
 40
1424.557304941289
 40
1424.557304941289
 40
1424.557304941289
 40
1430.775661090659
 40
1430.775661090659
 40
1430.775661090659
 40
1436.994934099218
 40
1436.994934099218
 40
1436.994934099218
 40
1443.215120646398
 40
1443.215120646398
 40
1443.215120646398
 40
1449.436212390113
 40
1449.436212390113
 40
1449.436212390113
 40
1455.65819626876
 40
1455.65819626876
 40
1455.65819626876
 40
1461.881054981952
 40
1461.881054981952
 40
1461.881054981952
 40
1468.104766831297
 40
1468.104766831297
 40
1468.104766831297
 40
1474.329307911499
 40
1474.329307911499
 40
1474.329307911499
 40
1480.55464551339
 40
1480.55464551339
 40
1480.55464551339
 40
1486.780764301365
 40
1486.780764301365
 40
1486.780764301365
 40
1493.007570418441
 40
1493.007570418441
 40
1493.007570418441
 40
1499.235249090779
 40
1499.235249090779
 40
1499.235249090779
 40
1505.462938011514
 40
1505.462938011514
 40
1505.462938011514
 40
1511.693589414006
 40
1511.693589414006
 40
1511.693589414006
 40
1517.931773093474
 40
1517.931773093474
 40
1517.931773093474
 40
1524.174734724742
 40
1524.174734724742
 40
1524.174734724742
 40
1530.419186528255
 40
1530.419186528255
 40
1530.419186528255
 40
1536.665922113585
 40
1536.665922113585
 40
1536.665922113585
 40
1542.913219963463
 40
1542.913219963463
 40
1542.913219963463
 40
1549.163729036389
 40
1549.163729036389
 40
1549.163729036389
 40
1555.408943613585
 40
1555.408943613585
 40
1555.408943613585
 40
1561.680094000028
 40
1561.680094000028
 40
1561.680094000028
 40
1567.848904823431
 40
1567.848904823431
 40
1567.848904823431
 40
1571.032190997255
 40
1574.450929469904
 40
1574.450929469904
 40
1574.450929469904
 40
1581.804880016165
 40
1581.804880016165
 40
1581.804880016165
 40
1589.231871707403
 40
1589.231871707403
 40
1589.231871707403
 40
1596.568893031836
 40
1596.568893031836
 40
1596.568893031836
 40
1603.853655712451
 40
1603.853655712451
 40
1603.853655712451
 40
1611.089990315829
 40
1611.089990315829
 40
1611.089990315829
 40
1618.300998058513
 40
1618.300998058513
 40
1618.300998058513
 40
1625.48381665399
 40
1625.48381665399
 40
1625.48381665399
 40
1632.722128362863
 40
1632.722128362863
 40
1632.722128362863
 40
1636.195203520543
 40
1639.482002683723
 40
1639.482002683723
 40
1639.482002683723
 40
1645.712522429702
 40
1645.712522429702
 40
1645.712522429702
 40
1651.959346472276
 40
1651.959346472276
 40
1651.959346472276
 40
1658.20189929966
 40
1658.20189929966
 40
1658.20189929966
 40
1664.443502879818
 40
1664.443502879818
 40
1664.443502879818
 40
1670.68254572626
 40
1670.68254572626
 40
1670.68254572626
 40
1676.921334397032
 40
1676.921334397032
 40
1676.921334397032
 40
1683.160222089721
 40
1683.160222089721
 40
1683.160222089721
 40
1689.399175304469
 40
1689.399175304469
 40
1689.399175304469
 40
1695.638073191823
 40
1695.638073191823
 40
1695.638073191823
 40
1701.877412983309
 40
1701.877412983309
 40
1701.877412983309
 40
1701.877412983309
 10
2054.89649968751
 20
-265.4305027127107
 30
0.0
 41
1.0
 10
2054.899189384351
 20
-268.4728383968039
 30
0.0
 41
1.0
 10
2054.901284840004
 20
-271.5151745823895
 30
0.0
 41
1.0
 10
2054.903131084688
 20
-274.5575108861512
 30
0.0
 41
1.0
 10
2054.904970542198
 20
-277.5997720252291
 30
0.0
 41
1.0
 10
2054.906512309793
 20
-280.6420333472802
 30
0.0
 41
1.0
 10
2054.907704095951
 20
-283.6842948101805
 30
0.0
 41
1.0
 10
2054.908896863391
 20
-286.7266341064434
 30
0.0
 41
1.0
 10
2054.909749789752
 20
-289.7689735346452
 30
0.0
 41
1.0
 10
2054.910283434269
 20
-292.8113130174479
 30
0.0
 41
1.0
 10
2054.910816791933
 20
-295.853716200921
 30
0.0
 41
1.0
 10
2054.911028088224
 20
-298.8961194399463
 30
0.0
 41
1.0
 10
2054.910931439438
 20
-301.9385226683196
 30
0.0
 41
1.0
 10
2054.910834852249
 20
-304.9810179900767
 30
0.0
 41
1.0
 10
2054.910431006302
 20
-308.0235133027796
 30
0.0
 41
1.0
 10
2054.909708713929
 20
-311.0660085405791
 30
0.0
 41
1.0
 10
2054.908986468198
 20
-314.1092745630281
 30
0.0
 41
1.0
 10
2054.907944069579
 20
-317.152540681902
 30
0.0
 41
1.0
 10
2054.905432765448
 20
-320.1958058262821
 30
0.0
 41
1.0
 10
2054.902920878536
 20
-323.2402388872908
 30
0.0
 41
1.0
 10
2054.898940669523
 20
-326.2846706667606
 30
0.0
 41
1.0
 10
2054.893748125377
 20
-329.3291003116881
 30
0.0
 41
1.0
 10
2054.888555393968
 20
-332.3737577971559
 30
0.0
 41
1.0
 10
2054.882149390277
 20
-335.4184132189828
 30
0.0
 41
1.0
 10
2054.874506758894
 20
-338.4630655424371
 30
0.0
 41
1.0
 10
2054.866863172999
 20
-341.5082064684346
 30
0.0
 41
1.0
 10
2054.857982939556
 20
-344.5533442726264
 30
0.0
 41
1.0
 10
2054.847939330928
 20
-347.5984782223582
 30
0.0
 41
1.0
 10
2054.837894436243
 20
-350.6440590921198
 30
0.0
 41
1.0
 10
2054.826685889565
 20
-353.6896361080148
 30
0.0
 41
1.0
 10
2054.814383784031
 20
-356.7352086910337
 30
0.0
 41
1.0
 10
2054.802079997085
 20
-359.7812511593755
 30
0.0
 41
1.0
 10
2054.788682044555
 20
-362.8272891939827
 30
0.0
 41
1.0
 10
2054.774255871164
 20
-365.8733223450856
 30
0.0
 41
1.0
 10
2054.759827001756
 20
-368.9199453169367
 30
0.0
 41
1.0
 10
2054.744370445454
 20
-371.96656341392
 30
0.0
 41
1.0
 10
2054.727924509635
 20
-375.0131761624484
 30
0.0
 41
1.0
 10
2054.711477553725
 20
-378.059987624677
 30
0.0
 41
1.0
 10
2054.694040310415
 20
-381.1067936602376
 30
0.0
 41
1.0
 10
2054.676121507449
 20
-384.1535967954394
 30
0.0
 41
1.0
 10
2054.658195051241
 20
-387.2017242429915
 30
0.0
 41
1.0
 10
2054.639786890672
 20
-390.2498491987273
 30
0.0
 41
1.0
 10
2054.619309955012
 20
-393.2979607218163
 30
0.0
 41
1.0
 10
2054.598850107223
 20
-396.3436787095348
 30
0.0
 41
1.0
 10
2054.576319520719
 20
-399.3893832477029
 30
0.0
 41
1.0
 10
2054.558169701079
 20
-402.4351164014597
 30
0.0
 41
1.0
 10
2054.543896296379
 20
-405.4924573096463
 30
0.0
 41
0.9999980222152175
 10
2054.52217572252
 20
-408.5497543798742
 30
0.0
 41
0.999998022215217
 10
2054.493008108378
 20
-411.6069894721165
 30
0.0
 41
1.0
 10
2054.460548911212
 20
-414.6233624124235
 30
0.0
 41
0.9999999999999997
 10
2054.408404413356
 20
-417.6397697041525
 30
0.0
 41
1.0
 10
2054.4252170871
 20
-420.6564251599543
 30
0.0
 41
1.0
 10
2054.434317399748
 20
-422.2210462612892
 30
0.0
 41
1.000000000000001
 10
2054.488293025683
 20
-425.3999400268285
 30
0.0
 41
0.9999999999999983
 10
2054.427171866023
 20
-428.5798357985926
 30
0.0
 41
0.9999999999999991
 10
2054.324856550073
 20
-430.1915644720893
 30
0.0
 41
1.0
 10
2054.21629943048
 20
-431.9042404719025
 30
0.0
 41
1.0
 10
2053.837363369453
 20
-435.3548919765844
 30
0.0
 41
0.9999999999999998
 10
2053.062720379914
 20
-438.7407705566056
 30
0.0
 41
0.9999999999999994
 10
2052.552819394395
 20
-440.4154089077724
 30
0.0
 41
1.0
 10
2051.527618693284
 20
-443.7590387571283
 30
0.0
 41
0.9939902929238393
 10
2050.063714907663
 20
-446.935181504787
 30
0.0
 41
0.993990292923839
 10
2048.187500936348
 20
-449.8865740881117
 30
0.0
 41
1.0
 10
2046.336840139764
 20
-452.8125562606589
 30
0.0
 41
0.994352172578756
 10
2044.121798461638
 20
-455.4733658033062
 30
0.0
 41
0.994352172578755
 10
2041.579906421358
 20
-457.8239193367608
 30
0.0
 41
1.0
 10
2039.026717320963
 20
-460.1738897688017
 30
0.0
 41
0.9944400931304485
 10
2036.191956242066
 20
-462.1752056457712
 30
0.0
 41
0.9944400931304482
 10
2033.122906207454
 20
-463.794485577992
 30
0.0
 41
1.0
 10
2031.557222362665
 20
-464.6229246195453
 30
0.0
 41
0.9999999999999998
 10
2028.323155929833
 20
-466.0772482714603
 30
0.0
 41
1.000000000000001
 10
2024.918718538036
 20
-467.0727897444417
 30
0.0
 41
1.0
 10
2023.190397315818
 20
-467.4393359370999
 30
0.0
 41
1.0
 10
2021.482324079838
 20
-467.8019080553641
 30
0.0
 41
0.9999999999999986
 10
2018.087114740755
 20
-468.2592489334381
 30
0.0
 41
1.0
 10
2014.667439694861
 20
-468.3930056297017
 30
0.0
 41
1.0
 10
2012.993444480485
 20
-468.427611255383
 30
0.0
 41
1.0
 10
2011.429625263429
 20
-468.4601418510883
 30
0.0
 41
0.9999999999999994
 10
2008.324744284654
 20
-468.4726021985185
 30
0.0
 41
1.000000000000002
 10
2005.220115620029
 20
-468.4449915862342
 30
0.0
 41
1.0
 10
2003.679491050314
 20
-468.4380448815816
 30
0.0
 41
1.0
 10
2000.643461412748
 20
-468.4301735148385
 30
0.0
 41
0.999996567571356
 10
1997.607422147915
 20
-468.4320446083005
 30
0.0
 41
0.9999965675713556
 10
1994.571404518781
 20
-468.4436581427007
 30
0.0
 41
1.0
 10
1991.518095447369
 20
-468.4480976176026
 30
0.0
 41
0.9999997360271914
 10
1988.464783634264
 20
-468.4498199574218
 30
0.0
 41
0.9999997360271914
 10
1985.411471497439
 20
-468.4488251607945
 30
0.0
 41
1.0
 10
1839.13739997519
 20
-468.5063287254199
 30
0.0
 41
0.9999999484792923
 10
1692.863317149982
 20
-468.5063255283776
 30
0.0
 41
0.9999999484792923
 10
1546.589245630246
 20
-468.4488155696308
 30
0.0
 41
1.0
 10
1543.535932626212
 20
-468.4498118067122
 30
0.0
 41
0.9999997357394506
 10
1540.48261994545
 20
-468.448089426084
 30
0.0
 41
0.9999997357394506
 10
1537.429310008571
 20
-468.4436484291118
 30
0.0
 41
1.0
 10
1534.39329525299
 20
-468.43202948995
 30
0.0
 41
0.9999965638303542
 10
1531.357261012611
 20
-468.4301582927417
 30
0.0
 41
0.9999965638311725
 10
1528.32123641291
 20
-468.4380348484668
 30
0.0
 41
1.000000000002458
 10
1526.780705892454
 20
-468.4449858764199
 30
0.0
 41
1.000000000002458
 10
1523.676060681028
 20
-468.4726191776327
 30
0.0
 41
1.000000000002457
 10
1520.571163011456
 20
-468.4601402324637
 30
0.0
 41
1.000000000002458
 10
1519.007233353075
 20
-468.4275991719651
 30
0.0
 41
1.000000000002458
 10
1517.332573903399
 20
-468.3929764448611
 30
0.0
 41
1.000000000002458
 10
1513.910066257719
 20
-468.2590776812119
 30
0.0
 41
1.000000000002459
 10
1510.512080614027
 20
-467.8009414232715
 30
0.0
 41
1.000000000002458
 10
1508.801980688675
 20
-467.4374579083458
 30
0.0
 41
1.000000000002458
 10
1507.072649584237
 20
-467.0702040636714
 30
0.0
 41
1.000000000002458
 10
1503.666920991883
 20
-466.0729328413763
 30
0.0
 41
1.000000000002458
 10
1500.431686992128
 20
-464.6170449575386
 30
0.0
 41
1.000000000002458
 10
1498.865640426593
 20
-463.7880256822268
 30
0.0
 41
1.000000000002458
 10
1495.798115538631
 20
-462.1691320408654
 30
0.0
 41
0.9944243854487486
 10
1492.965182660383
 20
-460.1678782169717
 30
0.0
 41
0.9944243854487483
 10
1490.414227817206
 20
-457.8177388703837
 30
0.0
 41
1.000000000002458
 10
1487.873703901766
 20
-455.4656178114976
 30
0.0
 41
0.9943823830344749
 10
1485.659292492615
 20
-452.8042051505979
 30
0.0
 41
0.9943823830344746
 10
1483.808312735071
 20
-449.8783532784523
 30
0.0
 41
1.000000000002458
 10
1481.928994035762
 20
-446.9245462374088
 30
0.0
 41
0.9939254500372359
 10
1480.464639169436
 20
-443.7445337162451
 30
0.0
 41
0.9939254500372354
 10
1479.4419340265
 20
-440.3962671498111
 30
0.0
 41
1.000000000002458
 10
1478.932222870919
 20
-438.7152564468572
 30
0.0
 41
1.000000000002459
 10
1478.160824273155
 20
-435.3211013397724
 30
0.0
 41
1.000000000002459
 10
1477.782643672435
 20
-431.8630378480235
 30
0.0
 41
1.000000000002458
 10
1477.674308921754
 20
-430.1489626785262
 30
0.0
 41
1.000000000002458
 10
1477.572763251358
 20
-428.5455053128508
 30
0.0
 41
1.000000000002458
 10
1477.511744108057
 20
-425.379640226631
 30
0.0
 41
1.000000000002459
 10
1477.566226350191
 20
-422.2147710926164
 30
0.0
 41
1.000000000002458
 10
1477.575369046056
 20
-420.6558785924567
 30
0.0
 41
1.000000000002458
 10
1477.592294729186
 20
-417.6393591539154
 30
0.0
 41
1.000000000002458
 10
1477.540003383281
 20
-414.6230878545769
 30
0.0
 41
1.000000000002457
 10
1477.507591109641
 20
-411.6068506260667
 30
0.0
 41
1.000000000002458
 10
1477.478415942953
 20
-408.5496055217668
 30
0.0
 41
0.999998016415403
 10
1477.456698756881
 20
-405.4922983435551
 30
0.0
 41
0.9999980164154026
 10
1477.442439680658
 20
-402.4349472847362
 30
0.0
 41
1.000000000002458
 10
1477.424297515756
 20
-399.3892134566638
 30
0.0
 41
1.000000000002458
 10
1477.401763690838
 20
-396.3435083103868
 30
0.0
 41
1.000000000002458
 10
1477.381305413911
 20
-393.2977896860075
 30
0.0
 41
1.000000000002458
 10
1477.360829758155
 20
-390.2496740754568
 30
0.0
 41
1.000000000002458
 10
1477.342427229375
 20
-387.2015450077379
 30
0.0
 41
1.000000000002458
 10
1477.324496828523
 20
-384.1534135055031
 30
0.0
 41
1.000000000002458
 10
1477.306573974551
 20
-381.1065859322273
 30
0.0
 41
1.000000000002458
 10
1477.289122518229
 20
-378.0597555110655
 30
0.0
 41
1.000000000002458
 10
1477.272695555302
 20
-375.0129194763808
 30
0.0
 41
1.000000000002458
 10
1477.256270053448
 20
-371.9663704900927
 30
0.0
 41
1.000000000002458
 10
1477.240868960717
 20
-368.9198159874311
 30
0.0
 41
1.000000000002458
 10
1477.226458942635
 20
-365.8732568037026
 30
0.0
 41
1.000000000002458
 10
1477.212051311119
 20
-362.8272296571373
 30
0.0
 41
1.000000000002458
 10
1477.198634497135
 20
-359.7811978003165
 30
0.0
 41
1.000000000002458
 10
1477.186322257004
 20
-356.7351614549107
 30
0.0
 41
1.000000000002458
 10
1477.1740116527
 20
-353.6895730965587
 30
0.0
 41
1.000000000002458
 10
1477.162805418301
 20
-350.6439802615369
 30
0.0
 41
1.000000000002458
 10
1477.152760241601
 20
-347.5983835841243
 30
0.0
 41
1.000000000002458
 10
1477.142716338028
 20
-344.5532342032539
 30
0.0
 41
1.000000000002458
 10
1477.133833149074
 20
-341.5080809764601
 30
0.0
 41
1.000000000002458
 10
1477.126184708313
 20
-338.4629246305253
 30
0.0
 41
1.000000000002458
 10
1477.118537176121
 20
-335.4182330385181
 30
0.0
 41
1.000000000002458
 10
1477.112124302007
 20
-332.3735383479848
 30
0.0
 41
1.000000000002458
 10
1477.106935600492
 20
-329.3288415737497
 30
0.0
 41
1.000000000002458
 10
1477.101747280361
 20
-326.2844902997081
 30
0.0
 41
1.000000000002458
 10
1477.097782286664
 20
-323.2401368797595
 30
0.0
 41
1.000000000002458
 10
1477.095274201346
 20
-320.1957821957358
 30
0.0
 41
1.000000000002458
 10
1477.092766637012
 20
-317.1525311787657
 30
0.0
 41
1.000000000002458
 10
1477.091716455449
 20
-314.1092791942916
 30
0.0
 41
1.000000000002458
 10
1477.090988814383
 20
-311.0660273023757
 30
0.0
 41
1.000000000002458
 10
1477.090261132829
 20
-308.0235300996405
 30
0.0
 41
1.000000000002458
 10
1477.089854332488
 20
-304.9810328210716
 30
0.0
 41
1.000000000002458
 10
1477.089753865092
 20
-301.9385355332963
 30
0.0
 41
1.000000000002458
 10
1477.089653334151
 20
-298.896132026986
 30
0.0
 41
1.000000000002458
 10
1477.089859831824
 20
-295.8537285096058
 30
0.0
 41
1.000000000002458
 10
1477.090388348482
 20
-292.8113250472084
 30
0.0
 41
1.000000000002458
 10
1477.090917158402
 20
-289.7689850686577
 30
0.0
 41
1.000000000002458
 10
1477.091765148637
 20
-286.7266451441882
 30
0.0
 41
1.000000000002458
 10
1477.092952827632
 20
-283.6843053510306
 30
0.0
 41
1.000000000002458
 10
1477.094139506846
 20
-280.6420441223386
 30
0.0
 41
1.000000000002458
 10
1477.095676223992
 20
-277.5997830340099
 30
0.0
 41
1.000000000002458
 10
1477.097509604285
 20
-274.5575221274894
 30
0.0
 41
1.000000000002458
 10
1477.099349966523
 20
-271.5151840721365
 30
0.0
 41
1.000000000002458
 10
1477.101437322207
 20
-268.472846132196
 30
0.0
 41
1.000000000002458
 10
1477.104123360984
 20
-265.4305086966915
 30
0.0
 41
1.000000000002458
 10
1477.105873847479
 20
-263.4513568252051
 30
0.0
 41
1.000000000002458
 10
1477.10793123975
 20
-261.4722052394579
 30
0.0
 41
1.000000000002458
 10
1477.110145902752
 20
-259.4930538371304
 30
0.0
 41
1.000000000002458
 10
1477.112357302974
 20
-257.5140451120315
 30
0.0
 41
1.000000000002458
 10
1477.114704527937
 20
-255.5350365364399
 30
0.0
 41
1.000000000002458
 10
1477.11723387263
 20
-253.5560281913563
 30
0.0
 41
1.000000000002458
 10
1477.119763585945
 20
-251.5769964124798
 30
0.0
 41
1.000000000002458
 10
1477.122479440136
 20
-249.597964872345
 30
0.0
 41
1.000000000002458
 10
1477.125367284867
 20
-247.6189335839324
 30
0.0
 41
1.000000000002458
 10
1477.128254944359
 20
-245.6399419959977
 30
0.0
 41
1.000000000002458
 10
1477.131313376801
 20
-243.6609506581061
 30
0.0
 41
1.000000000002458
 10
1477.134525483087
 20
-241.6819595704872
 30
0.0
 41
1.000000000002458
 10
1477.137737687894
 20
-239.7029297300506
 30
0.0
 41
1.000000000002458
 10
1477.141103849002
 20
-237.7239001363106
 30
0.0
 41
1.000000000002458
 10
1477.144688475677
 20
-235.7448709338914
 30
0.0
 41
1.000000000002458
 10
1477.148272722982
 20
-233.7660251141675
 30
0.0
 41
1.000000000002458
 10
1477.152075283103
 20
-231.787179698942
 30
0.0
 41
1.000000000002458
 10
1477.155834582771
 20
-229.8083342063001
 30
0.0
 41
1.000000000002458
 10
1477.159595599079
 20
-227.8284880695018
 30
0.0
 41
1.000000000002458
 10
1477.163314357958
 20
-225.8486416301121
 30
0.0
 41
1.000000000002458
 10
1477.168436056978
 20
-223.8687984392416
 30
0.0
 41
1.000000000002458
 10
1477.173555619861
 20
-221.8895650604728
 30
0.0
 41
1.000000000002458
 10
1477.180077615442
 20
-219.9103356710657
 30
0.0
 41
1.000000000002458
 10
1477.185558261165
 20
-217.9311033070462
 30
0.0
 41
1.000000000002458
 10
1477.189591873697
 20
-215.9460939884817
 30
0.0
 41
0.9999990511969135
 10
1477.19697445336
 20
-213.9610943002361
 30
0.0
 41
0.9999990511969135
 10
1477.207705979142
 20
-211.9761098924455
 30
0.0
 41
1.000000000002458
 10
1477.225146264884
 20
-210.0130726097804
 30
0.0
 41
0.9999937611476982
 10
1477.234093788831
 20
-208.0499782466598
 30
0.0
 41
0.9999937611476968
 10
1477.234548383516
 20
-206.0868635454658
 30
0.0
 41
1.000000000002458
 10
1477.231877568169
 20
-205.0773233174495
 30
0.0
 41
1.000000000002458
 10
1477.213745978083
 20
-203.0327422786382
 30
0.0
 41
1.000000000002457
 10
1477.234903116313
 20
-200.9879783552666
 30
0.0
 41
1.000000000002458
 10
1477.270463730643
 20
-199.9534162874393
 30
0.0
 41
1.000000000002458
 10
1477.346814906565
 20
-197.7207507063884
 30
0.0
 41
1.000000000002456
 10
1477.538989057792
 20
-195.4885016181487
 30
0.0
 41
1.000000000002459
 10
1477.933029053207
 20
-193.2881750307024
 30
0.0
 41
1.000000000002458
 10
1478.341343323362
 20
-191.0278864320493
 30
0.0
 41
0.9973857489144414
 10
1478.948029730718
 20
-188.8125858439697
 30
0.0
 41
0.9973857489144409
 10
1479.748330183474
 20
-186.6596473223831
 30
0.0
 41
1.000000000002458
 10
1480.543457793337
 20
-184.5078542399488
 30
0.0
 41
0.9976718490978634
 10
1481.515483451068
 20
-182.429968895111
 30
0.0
 41
0.9976718490978606
 10
1482.657618089425
 20
-180.4405041798061
 30
0.0
 41
1.000000000002458
 10
1483.800905026523
 20
-178.4528777601188
 30
0.0
 41
0.9975740987717967
 10
1485.10944072101
 20
-176.5699284402921
 30
0.0
 41
0.9975740987717958
 10
1486.573702037829
 20
-174.8053597675435
 30
0.0
 41
1.000000000002458
 10
1488.042237203903
 20
-173.0346878932592
 30
0.0
 41
0.9976419501733191
 10
1489.654373906023
 20
-171.3936852503435
 30
0.0
 41
0.9976419501733192
 10
1491.398707648164
 20
-169.8939605368014
 30
0.0
 41
1.000000000002458
 10
1493.156749397438
 20
-168.3830688106706
 30
0.0
 41
0.9976155341973953
 10
1495.036176682441
 20
-167.0261393059903
 30
0.0
 41
0.9976155341973947
 10
1497.02354521289
 20
-165.8328786787729
 30
0.0
 41
1.000000000002458
 10
1499.023686647131
 20
-164.6330198016311
 30
0.0
 41
0.9976726142317522
 10
1501.117017261612
 20
-163.6043342226008
 30
0.0
 41
0.9976726142317521
 10
1503.288921092675
 20
-162.7540043862209
 30
0.0
 41
1.000000000002458
 10
1505.488046481427
 20
-161.8898548976514
 30
0.0
 41
0.9975293441374727
 10
1507.753350022562
 20
-161.2180612682031
 30
0.0
 41
0.997529344137471
 10
1510.068041359642
 20
-160.7436028104885
 30
0.0
 41
1.000000000002458
 10
1512.348358426769
 20
-160.2883019293861
 30
0.0
 41
0.9981081380020753
 10
1514.656480850914
 20
-160.0059622507592
 30
0.0
 41
0.9981081380020747
 10
1516.979308684756
 20
-159.8981862177357
 30
0.0
 41
1.000000000002458
 10
1519.056556988209
 20
-159.7919083634029
 30
0.0
 41
1.000000000002457
 10
1521.137143586166
 20
-159.8105527433349
 30
0.0
 41
1.000000000002459
 10
1523.216317493243
 20
-159.8045732359362
 30
0.0
 41
1.000000000002458
 10
1525.173695917209
 20
-159.7912403278083
 30
0.0
 41
0.9999915481429871
 10
1527.130982389202
 20
-159.7680513734187
 30
0.0
 41
0.999991548142987
 10
1529.088127281088
 20
-159.7350069607364
 30
0.0
 41
1.000000000002458
 10
1531.077166796082
 20
-159.7092662612026
 30
0.0
 41
0.999998897627275
 10
1533.066249832815
 20
-159.6871427713379
 30
0.0
 41
0.999998897627275
 10
1535.055369813139
 20
-159.6686365643079
 30
0.0
 41
1.000000000002458
 10
1537.035933043766
 20
-159.6485693164063
 30
0.0
 41
1.000000000002458
 10
1539.016482593071
 20
-159.6271760072384
 30
0.0
 41
1.000000000002458
 10
1540.997046811585
 20
-159.6072050707494
 30
0.0
 41
1.000000000002458
 10
1542.979681122519
 20
-159.5872126796338
 30
0.0
 41
1.000000000002458
 10
1544.962329548227
 20
-159.5686427139495
 30
0.0
 41
1.000000000002458
 10
1546.944984883985
 20
-159.5508655612102
 30
0.0
 41
1.000000000002458
 10
1548.926760058602
 20
-159.5330962794798
 30
0.0
 41
1.000000000002458
 10
1550.908542408881
 20
-159.5161190150819
 30
0.0
 41
1.000000000002458
 10
1552.89033337337
 20
-159.5002045301105
 30
0.0
 41
1.000000000002458
 10
1554.871888810178
 20
-159.4842919115755
 30
0.0
 41
1.000000000002458
 10
1556.853452786488
 20
-159.4694419250855
 30
0.0
 41
1.000000000002458
 10
1558.835024283695
 20
-159.4556734572893
 30
0.0
 41
1.000000000002458
 10
1560.816050101137
 20
-159.441908744553
 30
0.0
 41
1.000000000002458
 10
1562.797083460646
 20
-159.4292248876837
 30
0.0
 41
1.000000000002458
 10
1564.778123675737
 20
-159.4177154093845
 30
0.0
 41
1.000000000002458
 10
1566.758491732683
 20
-159.4062097061341
 30
0.0
 41
1.000000000002458
 10
1568.738866613455
 20
-159.3958781545317
 30
0.0
 41
1.000000000002458
 10
1570.719246950654
 20
-159.3867269076813
 30
0.0
 41
1.000000000002458
 10
1572.699078058302
 20
-159.3775782360577
 30
0.0
 41
1.000000000002458
 10
1574.678914699395
 20
-159.3696076865413
 30
0.0
 41
1.000000000002458
 10
1576.658756101732
 20
-159.3630455035252
 30
0.0
 41
1.000000000002458
 10
1578.635861137954
 20
-159.3564911487693
 30
0.0
 41
1.000000000002458
 10
1580.612970469283
 20
-159.3513501406081
 30
0.0
 41
1.000000000002458
 10
1582.590079398101
 20
-159.3461404446089
 30
0.0
 41
1.000000000002458
 10
1584.565704407299
 20
-159.3409334928368
 30
0.0
 41
1.000000000002458
 10
1586.541329214899
 20
-159.3356502052785
 30
0.0
 41
1.000000000002458
 10
1588.516954160878
 20
-159.3304192844705
 30
0.0
 41
1.000000000002458
 10
1590.492490160395
 20
-159.3251886612703
 30
0.0
 41
1.000000000002458
 10
1592.468026299764
 20
-159.3200110085193
 30
0.0
 41
1.000000000002458
 10
1594.443562495104
 20
-159.314854923804
 30
0.0
 41
1.000000000002458
 10
1596.418867246907
 20
-159.3096994320614
 30
0.0
 41
1.000000000002458
 10
1598.394172054624
 20
-159.3045653265259
 30
0.0
 41
1.000000000002458
 10
1600.369476949034
 20
-159.2994647533494
 30
0.0
 41
1.000000000002458
 10
1602.344574816341
 20
-159.294364726625
 30
0.0
 41
1.000000000002458
 10
1604.319672770343
 20
-159.2892982724212
 30
0.0
 41
1.000000000002458
 10
1606.294770811451
 20
-159.2842660034826
 30
0.0
 41
1.000000000002458
 10
1608.269642066043
 20
-159.2792343181403
 30
0.0
 41
1.000000000002458
 10
1610.244513407727
 20
-159.274236797567
 30
0.0
 41
1.000000000002458
 10
1612.219384845254
 20
-159.2692774255017
 30
0.0
 41
1.000000000002458
 10
1614.194022482565
 20
-159.2643186499084
 30
0.0
 41
1.000000000002458
 10
1616.168660226187
 20
-159.2593980094124
 30
0.0
 41
1.000000000002458
 10
1618.143298055261
 20
-159.2545188451356
 30
0.0
 41
1.000000000002458
 10
1620.117692617106
 20
-159.2496402748737
 30
0.0
 41
1.000000000002458
 10
1622.092087264385
 20
-159.2448031699828
 30
0.0
 41
1.000000000002458
 10
1624.066482031893
 20
-159.2400112542216
 30
0.0
 41
1.000000000002458
 10
1626.040625732615
 20
-159.2352199566086
 30
0.0
 41
1.000000000002458
 10
1628.014769543282
 20
-159.2304738450432
 30
0.0
 41
1.000000000002458
 10
1629.988913470365
 20
-159.2257767893343
 30
0.0
 41
1.000000000002458
 10
1631.962799253766
 20
-159.221080353993
 30
0.0
 41
1.000000000002458
 10
1633.936685153561
 20
-159.2164329621515
 30
0.0
 41
1.000000000002458
 10
1635.910571177257
 20
-159.2118386807333
 30
0.0
 41
1.000000000002458
 10
1637.88419305196
 20
-159.2072450204168
 30
0.0
 41
1.000000000002458
 10
1639.857815050319
 20
-159.2027044572055
 30
0.0
 41
1.000000000002458
 10
1641.831437178987
 20
-159.1982212269713
 30
0.0
 41
1.000000000002458
 10
1643.804790238423
 20
-159.1937386138263
 30
0.0
 41
1.000000000002458
 10
1645.778143428141
 20
-159.1893133188564
 30
0.0
 41
1.000000000002458
 10
1647.751496754417
 20
-159.1849497421263
 30
0.0
 41
1.000000000002458
 10
1649.724577286636
 20
-159.1805867740608
 30
0.0
 41
1.000000000002458
 10
1651.697657955382
 20
-159.1762855081719
 30
0.0
 41
1.000000000002458
 10
1653.670738766422
 20
-159.172050494999
 30
0.0
 41
1.000000000002458
 10
1655.643544335529
 20
-159.1678160775596
 30
0.0
 41
1.000000000002458
 10
1657.616350046903
 20
-159.1636478954482
 30
0.0
 41
1.000000000002458
 10
1659.589155905673
 20
-159.1595506360291
 30
0.0
 41
1.000000000002458
 10
1661.561685442491
 20
-159.1554539548482
 30
0.0
 41
1.000000000002458
 10
1663.534215126675
 20
-159.1514281779252
 30
0.0
 41
1.000000000002458
 10
1665.506744962583
 20
-159.1474781123757
 30
0.0
 41
1.000000000002458
 10
1667.478998878997
 20
-159.1435286030292
 30
0.0
 41
1.000000000002458
 10
1669.451252947102
 20
-159.1396547853954
 30
0.0
 41
1.000000000002458
 10
1671.423507170344
 20
-159.135861567268
 30
0.0
 41
1.000000000002458
 10
1673.395487416512
 20
-159.1320688789857
 30
0.0
 41
1.000000000002458
 10
1675.367467817783
 20
-159.1283567695201
 30
0.0
 41
1.000000000002458
 10
1677.339448376541
 20
-159.1247302261597
 30
0.0
 41
1.000000000002458
 10
1679.311158518307
 20
-159.1211041821738
 30
0.0
 41
1.000000000002458
 10
1681.282868817529
 20
-159.1175636827119
 30
0.0
 41
1.000000000002458
 10
1683.254579275389
 20
-159.1141137710238
 30
0.0
 41
1.000000000002458
 10
1685.226024568776
 20
-159.1106643263812
 30
0.0
 41
1.000000000002458
 10
1687.197470024222
 20
-159.1073054394273
 30
0.0
 41
1.000000000002458
 10
1689.168915632512
 20
-159.1040422039159
 30
0.0
 41
1.000000000002458
 10
1691.14010310453
 20
-159.1007793821974
 30
0.0
 41
1.000000000002458
 10
1693.111290729359
 20
-159.0976121891153
 30
0.0
 41
1.000000000002458
 10
1695.082478514434
 20
-159.094545679412
 30
0.0
 41
1.000000000002458
 10
1697.053416999134
 20
-159.091479558527
 30
0.0
 41
1.000000000002458
 10
1699.024355640599
 20
-159.0885141057421
 30
0.0
 41
1.000000000002458
 10
1700.995294435613
 20
-159.0856543677019
 30
0.0
 41
1.000000000002458
 10
1702.965994656501
 20
-159.0827949749088
 30
0.0
 41
1.000000000002458
 10
1704.936695032442
 20
-159.0800412690052
 30
0.0
 41
1.000000000002458
 10
1706.90739555449
 20
-159.0773982482817
 30
0.0
 41
1.000000000002458
 10
1708.877870154085
 20
-159.0747555187653
 30
0.0
 41
1.000000000002458
 10
1710.848344899758
 20
-159.0722234517505
 30
0.0
 41
1.000000000002458
 10
1712.81881978884
 20
-159.069806924814
 30
0.0
 41
1.000000000002458
 10
1714.789083350149
 20
-159.0673906536077
 30
0.0
 41
1.000000000002458
 10
1716.759347053304
 20
-159.0650899053354
 30
0.0
 41
1.000000000002458
 10
1718.729610889748
 20
-159.0629094388312
 30
0.0
 41
1.000000000002458
 10
1720.699679965562
 20
-159.0607291818857
 30
0.0
 41
1.000000000002458
 10
1722.669749174639
 20
-159.0586691858373
 30
0.0
 41
1.000000000002458
 10
1724.639818506529
 20
-159.0567340406865
 30
0.0
 41
1.000000000002458
 10
1726.609711611671
 20
-159.0547990612771
 30
0.0
 41
1.000000000002458
 10
1728.579604839601
 20
-159.0529889134105
 30
0.0
 41
1.000000000002458
 10
1730.549498177965
 20
-159.0513079798957
 30
0.0
 41
1.000000000002458
 10
1732.519235773948
 20
-159.0496271705169
 30
0.0
 41
1.000000000002458
 10
1734.488973480345
 20
-159.048075558054
 30
0.0
 41
1.000000000002458
 10
1736.458711282914
 20
-159.0466572787257
 30
0.0
 41
1.000000000002458
 10
1738.428315744166
 20
-159.0452390852258
 30
0.0
 41
1.000000000002458
 10
1740.39792030157
 20
-159.0439542098889
 30
0.0
 41
1.000000000002458
 10
1742.367524939067
 20
-159.042806503887
 30
0.0
 41
1.000000000002458
 10
1744.337020495897
 20
-159.0416588498957
 30
0.0
 41
1.000000000002458
 10
1746.3065161328
 20
-159.0406483527686
 30
0.0
 41
1.000000000002458
 10
1748.276011831986
 20
-159.0397785369701
 30
0.0
 41
1.000000000002458
 10
1750.24542450577
 20
-159.0389087447844
 30
0.0
 41
1.000000000002458
 10
1752.214837241819
 20
-159.0381796259392
 30
0.0
 41
1.000000000002458
 10
1754.184250020757
 20
-159.0375943462577
 30
0.0
 41
1.000000000002458
 10
1756.153607507208
 20
-159.0370090691024
 30
0.0
 41
1.000000000002458
 10
1758.122965036526
 20
-159.0365676221068
 30
0.0
 41
1.000000000002458
 10
1760.092322587917
 20
-159.0362727628337
 30
0.0
 41
1.000000000002458
 10
1762.061654185829
 20
-159.0359778904554
 30
0.0
 41
1.000000000002458
 10
1764.030985805785
 20
-159.0358296186183
 30
0.0
 41
1.000000000002458
 10
1766.000317425817
 20
-159.0358302639052
 30
0.0
 41
1.000000000002458
 10
1768.069772905724
 20
-159.0358309237504
 30
0.0
 41
1.000000000002458
 10
1770.13922838546
 20
-159.0359960078064
 30
0.0
 41
1.000000000002458
 10
1772.208683839525
 20
-159.0363227897374
 30
0.0
 41
1.000000000002458
 10
1774.278170597567
 20
-159.0366495594125
 30
0.0
 41
1.000000000002458
 10
1776.347657329919
 20
-159.0371380448324
 30
0.0
 41
1.000000000002458
 10
1778.417144012582
 20
-159.037784996897
 30
0.0
 41
1.000000000002458
 10
1780.486695859052
 20
-159.0384319516416
 30
0.0
 41
1.000000000002458
 10
1782.556247655812
 20
-159.0392373751341
 30
0.0
 41
1.000000000002458
 10
1784.625799380608
 20
-159.0401975440859
 30
0.0
 41
1.000000000002458
 10
1786.69544821546
 20
-159.0411577426734
 30
0.0
 41
1.000000000002458
 10
1788.765096978323
 20
-159.042272698637
 30
0.0
 41
1.000000000002458
 10
1790.834745648918
 20
-159.0435382477767
 30
0.0
 41
1.000000000002458
 10
1792.904521270302
 20
-159.0448038607507
 30
0.0
 41
1.000000000002458
 10
1794.974296799396
 20
-159.046220081253
 30
0.0
 41
1.000000000002458
 10
1797.044072218045
 20
-159.0477823610579
 30
0.0
 41
1.000000000002458
 10
1799.114002231781
 20
-159.0493447455984
 30
0.0
 41
1.000000000002458
 10
1801.183932135052
 20
-159.0510532074719
 30
0.0
 41
1.000000000002458
 10
1803.25386191195
 20
-159.0529028617034
 30
0.0
 41
1.000000000002458
 10
1805.323971633512
 20
-159.0547526665736
 30
0.0
 41
1.000000000002458
 10
1807.394081228678
 20
-159.0567436844828
 30
0.0
 41
1.000000000002458
 10
1809.46419068385
 20
-159.0588707451184
 30
0.0
 41
1.000000000002458
 10
1811.534503080181
 20
-159.0609980059131
 30
0.0
 41
1.000000000002458
 10
1813.604815336492
 20
-159.0632613323284
 30
0.0
 41
1.000000000002458
 10
1815.675127441506
 20
-159.0656553182446
 30
0.0
 41
1.000000000002458
 10
1817.745663093478
 20
-159.0680495560416
 30
0.0
 41
1.000000000002458
 10
1819.816198594124
 20
-159.0705744778753
 30
0.0
 41
1.000000000002458
 10
1821.886733934461
 20
-159.0732244907167
 30
0.0
 41
1.000000000002458
 10
1823.957511025923
 20
-159.0758748099807
 30
0.0
 41
1.000000000002458
 10
1826.028287954413
 20
-159.0786502381732
 30
0.0
 41
1.000000000002458
 10
1828.099064720088
 20
-159.0815450628647
 30
0.0
 41
1.000000000002458
 10
1830.170099038445
 20
-159.0844402307276
 30
0.0
 41
1.000000000002458
 10
1832.241133193952
 20
-159.0874548214205
 30
0.0
 41
1.000000000002458
 10
1834.312167175069
 20
-159.090582987229
 30
0.0
 41
1.000000000002458
 10
1836.383472160742
 20
-159.0937115625351
 30
0.0
 41
1.000000000002458
 10
1838.454776974623
 20
-159.0969537472651
 30
0.0
 41
1.000000000002458
 10
1840.526081614083
 20
-159.1003036622274
 30
0.0
 41
1.000000000002458
 10
1842.597668383742
 20
-159.1036540331389
 30
0.0
 41
1.000000000002458
 10
1844.669254978945
 20
-159.1071121606798
 30
0.0
 41
1.000000000002458
 10
1846.740841398914
 20
-159.1106721539015
 30
0.0
 41
1.000000000002458
 10
1848.812718821365
 20
-159.1142326481971
 30
0.0
 41
1.000000000002458
 10
1850.884596068546
 20
-159.1178950340754
 30
0.0
 41
1.000000000002458
 10
1852.956473141366
 20
-159.12165344599
 30
0.0
 41
1.000000000002458
 10
1855.028647910292
 20
-159.1254124001393
 30
0.0
 41
1.000000000002458
 10
1857.100822504821
 20
-159.1292674054422
 30
0.0
 41
1.000000000002458
 10
1859.172996927373
 20
-159.1332126558525
 30
0.0
 41
1.000000000002458
 10
1861.245473648266
 20
-159.1371584851287
 30
0.0
 41
1.000000000002458
 10
1863.317950197149
 20
-159.1411945836097
 30
0.0
 41
1.000000000002458
 10
1865.39042657777
 20
-159.1453152357067
 30
0.0
 41
1.000000000002458
 10
1867.463207863816
 20
-159.149436498345
 30
0.0
 41
1.000000000002458
 10
1869.535988981565
 20
-159.1536423374904
 30
0.0
 41
1.000000000002458
 10
1871.608769935917
 20
-159.1579271557016
 30
0.0
 41
1.000000000002458
 10
1873.681856510206
 20
-159.1622126119455
 30
0.0
 41
1.000000000002458
 10
1875.754942917761
 20
-159.1665770644705
 30
0.0
 41
1.000000000002458
 10
1877.828029173116
 20
-159.1710150702054
 30
0.0
 41
1.000000000002458
 10
1879.901419934896
 20
-159.1754537263509
 30
0.0
 41
1.000000000002458
 10
1881.974810544439
 20
-159.1799659558916
 30
0.0
 41
1.000000000002458
 10
1884.04820099974
 20
-159.1845464578307
 30
0.0
 41
1.000000000002458
 10
1886.12189318733
 20
-159.1891276340386
 30
0.0
 41
1.000000000002458
 10
1888.195585223941
 20
-159.1937771055076
 30
0.0
 41
1.000000000002458
 10
1890.269277116847
 20
-159.1984897685288
 30
0.0
 41
1.000000000002458
 10
1892.343266387312
 20
-159.2032031145503
 30
0.0
 41
1.000000000002458
 10
1894.417255514041
 20
-159.2079796691443
 30
0.0
 41
1.000000000002458
 10
1896.491244504791
 20
-159.2128145173601
 30
0.0
 41
1.000000000002458
 10
1898.565525106275
 20
-159.217650052988
 30
0.0
 41
1.000000000002458
 10
1900.63980557175
 20
-159.2225438979171
 30
0.0
 41
1.000000000002458
 10
1902.714085909204
 20
-159.2274913864835
 30
0.0
 41
1.000000000002458
 10
1904.788650627342
 20
-159.2324395636258
 30
0.0
 41
1.000000000002458
 10
1906.863215206348
 20
-159.2374413889179
 30
0.0
 41
1.000000000002458
 10
1908.937779683813
 20
-159.2424923032543
 30
0.0
 41
1.000000000002458
 10
1911.012620551353
 20
-159.2475438828895
 30
0.0
 41
1.000000000002458
 10
1913.087461317326
 20
-159.2526445662242
 30
0.0
 41
1.000000000002458
 10
1915.162301959945
 20
-159.2577904900932
 30
0.0
 41
1.000000000002458
 10
1917.237408112233
 20
-159.2629370842554
 30
0.0
 41
1.000000000002458
 10
1919.312514150264
 20
-159.2681289302081
 30
0.0
 41
1.000000000002458
 10
1921.387620091184
 20
-159.2733605294684
 30
0.0
 41
1.000000000002458
 10
1923.462986423212
 20
-159.278592788683
 30
0.0
 41
1.000000000002458
 10
1925.538352658118
 20
-159.2838648399513
 30
0.0
 41
1.000000000002458
 10
1927.613718784745
 20
-159.2891784278418
 30
0.0
 41
1.000000000002458
 10
1929.68931402177
 20
-159.294492622558
 30
0.0
 41
1.000000000002458
 10
1931.764909148558
 20
-159.2998482550885
 30
0.0
 41
1.000000000002458
 10
1933.840504236155
 20
-159.3052214147519
 30
0.0
 41
1.000000000002458
 10
1935.916390167617
 20
-159.310595292313
 30
0.0
 41
1.000000000002458
 10
1937.992276059967
 20
-159.3159871056472
 30
0.0
 41
1.000000000002458
 10
1940.068161712188
 20
-159.3214688704036
 30
0.0
 41
1.000000000002458
 10
1942.144050780441
 20
-159.326950798852
 30
0.0
 41
1.000000000002458
 10
1944.219939616447
 20
-159.3325212139404
 30
0.0
 41
1.000000000002458
 10
1946.295828958965
 20
-159.3378988662655
 30
0.0
 41
1.000000000002458
 10
1948.372705779213
 20
-159.343278434468
 30
0.0
 41
1.000000000002458
 10
1950.449583145768
 20
-159.348470991031
 30
0.0
 41
1.000000000002458
 10
1952.52645817227
 20
-159.3545157286635
 30
0.0
 41
1.000000000002458
 10
1954.60584388992
 20
-159.3605661908514
 30
0.0
 41
1.000000000002458
 10
1956.68522734317
 20
-159.3674699951857
 30
0.0
 41
1.000000000002458
 10
1958.764604842256
 20
-159.3759040405239
 30
0.0
 41
1.000000000002458
 10
1960.845574957291
 20
-159.3843439441417
 30
0.0
 41
1.000000000002458
 10
1962.926538765235
 20
-159.3943113124426
 30
0.0
 41
1.000000000002458
 10
1965.00749568101
 20
-159.4055365229274
 30
0.0
 41
1.000000000002458
 10
1967.088949334732
 20
-159.4167644535433
 30
0.0
 41
1.000000000002458
 10
1969.170396179154
 20
-159.4292523686472
 30
0.0
 41
1.000000000002458
 10
1971.251834936901
 20
-159.4429658079148
 30
0.0
 41
1.000000000002458
 10
1973.334034941489
 20
-159.4566840965002
 30
0.0
 41
1.000000000002458
 10
1975.416226869766
 20
-159.4716284634808
 30
0.0
 41
1.000000000002458
 10
1977.498409310837
 20
-159.4877938984459
 30
0.0
 41
1.000000000002458
 10
1979.580779196504
 20
-159.5039608712421
 30
0.0
 41
1.000000000002458
 10
1981.663139470826
 20
-159.5213478478468
 30
0.0
 41
1.000000000002458
 10
1983.745492785387
 20
-159.5395189538879
 30
0.0
 41
1.000000000002458
 10
1985.82891642545
 20
-159.5576989952526
 30
0.0
 41
1.000000000002458
 10
1987.912333538157
 20
-159.5766682234694
 30
0.0
 41
1.000000000002458
 10
1989.995732790172
 20
-159.5974701767504
 30
0.0
 41
1.000000000002458
 10
1992.077367292059
 20
-159.6182537763139
 30
0.0
 41
1.000000000002458
 10
1994.158983043351
 20
-159.6408639403067
 30
0.0
 41
1.000000000002458
 10
1996.240616240966
 20
-159.6617754508184
 30
0.0
 41
1.000000000002458
 10
1998.330913821689
 20
-159.6808660612863
 30
0.0
 41
0.9999987622621227
 10
2000.42117073449
 20
-159.7039845793054
 30
0.0
 41
0.9999987622621227
 10
2002.511379217782
 20
-159.7311309190313
 30
0.0
 41
1.000000000002458
 10
2004.567354504618
 20
-159.7666377009349
 30
0.0
 41
0.9999901354826056
 10
2006.62349105505
 20
-159.7909594821791
 30
0.0
 41
0.9999901354849581
 10
2008.679729491199
 20
-159.8040955683914
 30
0.0
 41
1.000000000009514
 10
2009.740833524383
 20
-159.8070032460408
 30
0.0
 41
1.000000000009513
 10
2011.941494577267
 20
-159.7965354660114
 30
0.0
 41
1.000000000009514
 10
2014.142073483658
 20
-159.8462577991257
 30
0.0
 41
1.000000000009513
 10
2015.279992043012
 20
-159.9096392079691
 30
0.0
 41
1.000000000009514
 10
2017.730660143621
 20
-160.0368637391755
 30
0.0
 41
0.997840928602807
 10
2020.163160611057
 20
-160.36074905315
 30
0.0
 41
0.9978409286028064
 10
2022.561737618701
 20
-160.8791972753311
 30
0.0
 41
1.000000000009514
 10
2024.982387026763
 20
-161.4140582204931
 30
0.0
 41
0.9972823937541281
 10
2027.344923940334
 20
-162.1650835991682
 30
0.0
 41
0.9972823937541274
 10
2029.630087024134
 20
-163.1261504375561
 30
0.0
 41
1.000000000009514
 10
2031.88848708163
 20
-164.0729214476252
 30
0.0
 41
0.9974285840622642
 10
2034.055100787672
 20
-165.2142063436983
 30
0.0
 41
0.9974285840622639
 10
2036.113214347151
 20
-166.5412009712293
 30
0.0
 41
1.000000000009514
 10
2038.156095632749
 20
-167.8597672165122
 30
0.0
 41
0.9973686853328657
 10
2040.073877576351
 20
-169.3544555810339
 30
0.0
 41
0.997368685332864
 10
2041.851421314633
 20
-171.0134670785046
 30
0.0
 41
1.000000000009514
 10
2043.617078384353
 20
-172.6615045049627
 30
0.0
 41
0.9973799405926306
 10
2045.229828773175
 20
-174.4594501187711
 30
0.0
 41
0.9973799405926307
 10
2046.676995975569
 20
-176.3931717469206
 30
0.0
 41
1.000000000009514
 10
2048.119063905826
 20
-178.3201950610916
 30
0.0
 41
0.9973507691340339
 10
2049.383778229572
 20
-180.3679930120987
 30
0.0
 41
0.9973507691340338
 10
2050.4610873861
 20
-182.5202903312661
 30
0.0
 41
1.000000000009514
 10
2051.532472971958
 20
-184.6649360712471
 30
0.0
 41
0.9974206901801478
 10
2052.41124112935
 20
-186.8954380212921
 30
0.0
 41
0.9974206901801475
 10
2053.090592012239
 20
-189.1945367145893
 30
0.0
 41
1.000000000009514
 10
2053.781106345891
 20
-191.5100257267948
 30
0.0
 41
0.997117237372087
 10
2054.253536090076
 20
-193.8796479640788
 30
0.0
 41
0.9971172373720866
 10
2054.503795536347
 20
-196.2829102510912
 30
0.0
 41
1.000000000009514
 10
2054.621331702292
 20
-197.4348087247328
 30
0.0
 41
1.000000000009514
 10
2054.740840938423
 20
-199.6862214664824
 30
0.0
 41
1.000000000009512
 10
2054.74684871847
 20
-201.9397400557567
 30
0.0
 41
1.000000000009513
 10
2054.750454808343
 20
-203.0353140090288
 30
0.0
 41
1.000000000009514
 10
2054.757651291792
 20
-205.1121424397619
 30
0.0
 41
1.000000000009513
 10
2054.770751167285
 20
-207.1889437190133
 30
0.0
 41
1.000000000009514
 10
2054.7811391696
 20
-209.2657572206758
 30
0.0
 41
1.000000000009514
 10
2054.791558511075
 20
-211.3480060177203
 30
0.0
 41
1.000000000009514
 10
2054.79927037649
 20
-213.430267122066
 30
0.0
 41
1.000000000009514
 10
2054.806592570141
 20
-215.5125287439398
 30
0.0
 41
1.000000000009514
 10
2054.813910193476
 20
-217.5933667675696
 30
0.0
 41
1.000000000009513
 10
2054.820840406011
 20
-219.6742063161215
 30
0.0
 41
1.000000000009513
 10
2054.826576941829
 20
-221.7550493648946
 30
0.0
 41
1.000000000009514
 10
2054.832312863481
 20
-223.8355760008015
 30
0.0
 41
1.000000000009512
 10
2054.836854687887
 20
-225.9161057036886
 30
0.0
 41
1.000000000009514
 10
2054.84110489565
 20
-227.9966358360805
 30
0.0
 41
1.000000000009514
 10
2054.845353520549
 20
-230.0763124249519
 30
0.0
 41
1.000000000009514
 10
2054.849311557852
 20
-232.1559895976783
 30
0.0
 41
1.000000000009513
 10
2054.853120297061
 20
-234.2356670354791
 30
0.0
 41
1.000000000009514
 10
2054.856928898354
 20
-236.3152597493037
 30
0.0
 41
1.000000000009515
 10
2054.860588184261
 20
-238.3948527387383
 30
0.0
 41
1.000000000009514
 10
2054.864053751408
 20
-240.4744460532957
 30
0.0
 41
1.000000000009514
 10
2054.86751933919
 20
-242.554072374881
 30
0.0
 41
1.000000000009513
 10
2054.870791546483
 20
-244.6336990180779
 30
0.0
 41
1.000000000009513
 10
2054.873882165235
 20
-246.7133259304969
 30
0.0
 41
1.000000000009514
 10
2054.876972963491
 20
-248.792974683243
 30
0.0
 41
1.000000000009513
 10
2054.87988082918
 20
-250.8726237091884
 30
0.0
 41
1.000000000009515
 10
2054.882581770358
 20
-252.9522730052859
 30
0.0
 41
1.000000000009514
 10
2054.885282304383
 20
-255.0319038596365
 30
0.0
 41
1.000000000009513
 10
2054.887780503853
 20
-257.1115349740349
 30
0.0
 41
1.000000000009514
 10
2054.890128711956
 20
-259.1911662551008
 30
0.0
 41
1.000000000009514
 10
2054.892480586302
 20
-261.2709448326965
 30
0.0
 41
1.000000000009513
 10
2054.894658233844
 20
-263.3507236158507
 30
0.0
 41
1.000000000009513
 10
2054.89649968751
 20
-265.4305027127107
 30
0.0
 41
1.000000000009514
  0
CIRCLE
  5
6B
330
1F
100
AcDbEntity
  8
EGD111 EGD011$2D
100
AcDbCircle
 10
1765.999995424564
 20
-235.0000116045025
 30
0.0
 40
30.0
  0
CIRCLE
  5
6C
330
1F
100
AcDbEntity
  8
EGD111 EGD011$2D
100
AcDbCircle
 10
1765.999995424564
 20
-235.0000116045023
 30
0.0
 40
27.0
  0
ENDSEC
  0
SECTION
  2
OBJECTS
  0
DICTIONARY
  5
C
330
0
100
AcDbDictionary
281
     1
  3
ACAD_GROUP
350
D
  3
ACAD_LAYOUT
350
1A
  3
ACAD_MATERIAL
350
3B
  3
ACAD_MLEADERSTYLE
350
97
  3
ACAD_MLINESTYLE
350
17
  3
ACAD_PLOTSETTINGS
350
19
  3
ACAD_PLOTSTYLENAME
350
E
  3
ACAD_SCALELIST
350
3F
  3
ACAD_TABLESTYLE
350
96
  3
ACAD_VISUALSTYLE
350
2A
  3
AcDbVariableDictionary
350
6D
  0
DICTIONARY
  5
D
102
{ACAD_REACTORS
330
C
102
}
330
C
100
AcDbDictionary
281
     1
  0
DICTIONARY
  5
1A
102
{ACAD_REACTORS
330
C
102
}
330
C
100
AcDbDictionary
281
     1
  3
Layout1
350
1E
  3
Layout2
350
26
  3
Model
350
22
  0
DICTIONARY
  5
3B
102
{ACAD_REACTORS
330
C
102
}
330
C
100
AcDbDictionary
281
     1
  3
ByBlock
350
3D
  3
ByLayer
350
3C
  3
Global
350
3E
  0
DICTIONARY
  5
97
102
{ACAD_REACTORS
330
C
102
}
330
C
100
AcDbDictionary
281
     1
  0
DICTIONARY
  5
17
102
{ACAD_REACTORS
330
C
102
}
330
C
100
AcDbDictionary
281
     1
  3
Standard
350
18
  0
DICTIONARY
  5
19
102
{ACAD_REACTORS
330
C
102
}
330
C
100
AcDbDictionary
281
     1
  0
ACDBDICTIONARYWDFLT
  5
E
102
{ACAD_REACTORS
330
C
102
}
330
C
100
AcDbDictionary
281
     1
  3
Normal
350
F
100
AcDbDictionaryWithDefault
340
F
  0
DICTIONARY
  5
3F
102
{ACAD_REACTORS
330
C
102
}
330
C
100
AcDbDictionary
281
     1
  3
A0
350
40
  3
A1
350
41
  3
A2
350
42
  3
A3
350
43
  3
A4
350
44
  3
A5
350
45
  3
A6
350
46
  3
A7
350
47
  3
A8
350
48
  3
A9
350
49
  3
B0
350
4A
  3
B1
350
4B
  3
B2
350
4C
  3
B3
350
4D
  3
B4
350
4E
  3
B5
350
4F
  3
B6
350
50
  3
B7
350
51
  3
B8
350
52
  3
B9
350
53
  3
C0
350
54
  3
C1
350
55
  3
C2
350
56
  3
C3
350
57
  3
C4
350
58
  3
C5
350
59
  3
C6
350
5A
  3
C7
350
5B
  3
C8
350
5C
  3
C9
350
5D
  3
D0
350
5E
  3
D1
350
5F
  3
D2
350
60
  0
DICTIONARY
  5
96
102
{ACAD_REACTORS
330
C
102
}
330
C
100
AcDbDictionary
281
     1
  0
DICTIONARY
  5
2A
102
{ACAD_REACTORS
330
C
102
}
330
C
100
AcDbDictionary
281
     1
  3
2dWireframe
350
2F
  3
3D Hidden
350
31
  3
3dWireframe
350
30
  3
Basic
350
32
  3
Brighten
350
36
  3
ColorChange
350
3A
  3
Conceptual
350
34
  3
Dim
350
35
  3
Facepattern
350
39
  3
Flat
350
2B
  3
FlatWithEdges
350
2C
  3
Gouraud
350
2D
  3
GouraudWithEdges
350
2E
  3
Linepattern
350
38
  3
Realistic
350
33
  3
Thicken
350
37
  0
DICTIONARY
  5
6D
102
{ACAD_REACTORS
330
C
102
}
330
C
100
AcDbDictionary
281
     1
  3
CANNOSCALE
350
6E
  3
MSLTSCALE
350
6F
  0
LAYOUT
  5
1E
102
{ACAD_REACTORS
330
1A
102
}
330
1A
100
AcDbPlotSettings
  1

  2
none_device
  4

  6

 40
0.0
 41
0.0
 42
0.0
 43
0.0
 44
0.0
 45
0.0
 46
0.0
 47
0.0
 48
0.0
 49
0.0
140
0.0
141
0.0
142
1.0
143
1.0
 70
   688
 72
     0
 73
     0
 74
     5
  7

 75
    16
 76
     0
 77
     2
 78
   300
147
1.0
148
0.0
149
0.0
100
AcDbLayout
  1
Layout1
 70
     1
 71
     1
 10
0.0
 20
0.0
 11
12.0
 21
9.0
 12
0.0
 22
0.0
 32
0.0
 14
1.000000000000000E+20
 24
1.000000000000000E+20
 34
1.000000000000000E+20
 15
-1.000000000000000E+20
 25
-1.000000000000000E+20
 35
-1.000000000000000E+20
146
0.0
 13
0.0
 23
0.0
 33
0.0
 16
1.0
 26
0.0
 36
0.0
 17
0.0
 27
1.0
 37
0.0
 76
     0
330
1B
  0
LAYOUT
  5
26
102
{ACAD_REACTORS
330
1A
102
}
330
1A
100
AcDbPlotSettings
  1

  2
none_device
  4

  6

 40
0.0
 41
0.0
 42
0.0
 43
0.0
 44
0.0
 45
0.0
 46
0.0
 47
0.0
 48
0.0
 49
0.0
140
0.0
141
0.0
142
1.0
143
1.0
 70
   688
 72
     0
 73
     0
 74
     5
  7

 75
    16
 76
     0
 77
     2
 78
   300
147
1.0
148
0.0
149
0.0
100
AcDbLayout
  1
Layout2
 70
     1
 71
     2
 10
0.0
 20
0.0
 11
0.0
 21
0.0
 12
0.0
 22
0.0
 32
0.0
 14
0.0
 24
0.0
 34
0.0
 15
0.0
 25
0.0
 35
0.0
146
0.0
 13
0.0
 23
0.0
 33
0.0
 16
1.0
 26
0.0
 36
0.0
 17
0.0
 27
1.0
 37
0.0
 76
     0
330
23
  0
LAYOUT
  5
22
102
{ACAD_REACTORS
330
1A
102
}
330
1A
100
AcDbPlotSettings
  1

  2
none_device
  4
Letter_(8.50_x_11.00_Inches)
  6

 40
6.35
 41
6.35
 42
6.35000508
 43
6.35000508
 44
215.9
 45
279.4
 46
0.0
 47
0.0
 48
0.0
 49
0.0
140
0.0
141
0.0
142
1.0
143
1.0
 70
  1712
 72
     0
 73
     0
 74
     0
  7

 75
     0
 76
     0
 77
     2
 78
   300
147
1.0
148
0.0
149
0.0
100
AcDbLayout
  1
Model
 70
     1
 71
     0
 10
0.0
 20
0.0
 11
12.0
 21
9.0
 12
0.0
 22
0.0
 32
0.0
 14
1467.566922895628
 24
-478.1983909496573
 34
0.0
 15
2064.427674545378
 25
-0.000000000005457
 35
0.0
146
0.0
 13
0.0
 23
0.0
 33
0.0
 16
1.0
 26
0.0
 36
0.0
 17
0.0
 27
1.0
 37
0.0
 76
     0
330
1F
331
29
  0
MATERIAL
  5
3D
102
{ACAD_REACTORS
330
3B
102
}
102
{ACAD_XDICTIONARY
360
92
102
}
330
3B
100
AcDbMaterial
  1
ByBlock
  0
MATERIAL
  5
3C
102
{ACAD_REACTORS
330
3B
102
}
102
{ACAD_XDICTIONARY
360
90
102
}
330
3B
100
AcDbMaterial
  1
ByLayer
  0
MATERIAL
  5
3E
102
{ACAD_REACTORS
330
3B
102
}
102
{ACAD_XDICTIONARY
360
94
102
}
330
3B
100
AcDbMaterial
  1
Global
  0
MLINESTYLE
  5
18
102
{ACAD_REACTORS
330
17
102
}
330
17
100
AcDbMlineStyle
  2
Standard
 70
     0
  3

 62
   256
 51
90.0
 52
90.0
 71
     2
 49
0.5
 62
   256
  6
BYLAYER
 49
-0.5
 62
   256
  6
BYLAYER
  0
ACDBPLACEHOLDER
  5
F
102
{ACAD_REACTORS
330
E
102
}
330
E
  0
SCALE
  5
40
102
{ACAD_REACTORS
330
3F
102
}
330
3F
100
AcDbScale
 70
     0
300
1:1
140
1.0
141
1.0
290
     1
  0
SCALE
  5
41
102
{ACAD_REACTORS
330
3F
102
}
330
3F
100
AcDbScale
 70
     0
300
1:2
140
1.0
141
2.0
290
     0
  0
SCALE
  5
42
102
{ACAD_REACTORS
330
3F
102
}
330
3F
100
AcDbScale
 70
     0
300
1:4
140
1.0
141
4.0
290
     0
  0
SCALE
  5
43
102
{ACAD_REACTORS
330
3F
102
}
330
3F
100
AcDbScale
 70
     0
300
1:5
140
1.0
141
5.0
290
     0
  0
SCALE
  5
44
102
{ACAD_REACTORS
330
3F
102
}
330
3F
100
AcDbScale
 70
     0
300
1:8
140
1.0
141
8.0
290
     0
  0
SCALE
  5
45
102
{ACAD_REACTORS
330
3F
102
}
330
3F
100
AcDbScale
 70
     0
300
1:10
140
1.0
141
10.0
290
     0
  0
SCALE
  5
46
102
{ACAD_REACTORS
330
3F
102
}
330
3F
100
AcDbScale
 70
     0
300
1:16
140
1.0
141
16.0
290
     0
  0
SCALE
  5
47
102
{ACAD_REACTORS
330
3F
102
}
330
3F
100
AcDbScale
 70
     0
300
1:20
140
1.0
141
20.0
290
     0
  0
SCALE
  5
48
102
{ACAD_REACTORS
330
3F
102
}
330
3F
100
AcDbScale
 70
     0
300
1:30
140
1.0
141
30.0
290
     0
  0
SCALE
  5
49
102
{ACAD_REACTORS
330
3F
102
}
330
3F
100
AcDbScale
 70
     0
300
1:40
140
1.0
141
40.0
290
     0
  0
SCALE
  5
4A
102
{ACAD_REACTORS
330
3F
102
}
330
3F
100
AcDbScale
 70
     0
300
1:50
140
1.0
141
50.0
290
     0
  0
SCALE
  5
4B
102
{ACAD_REACTORS
330
3F
102
}
330
3F
100
AcDbScale
 70
     0
300
1:100
140
1.0
141
100.0
290
     0
  0
SCALE
  5
4C
102
{ACAD_REACTORS
330
3F
102
}
330
3F
100
AcDbScale
 70
     0
300
2:1
140
2.0
141
1.0
290
     0
  0
SCALE
  5
4D
102
{ACAD_REACTORS
330
3F
102
}
330
3F
100
AcDbScale
 70
     0
300
4:1
140
4.0
141
1.0
290
     0
  0
SCALE
  5
4E
102
{ACAD_REACTORS
330
3F
102
}
330
3F
100
AcDbScale
 70
     0
300
8:1
140
8.0
141
1.0
290
     0
  0
SCALE
  5
4F
102
{ACAD_REACTORS
330
3F
102
}
330
3F
100
AcDbScale
 70
     0
300
10:1
140
10.0
141
1.0
290
     0
  0
SCALE
  5
50
102
{ACAD_REACTORS
330
3F
102
}
330
3F
100
AcDbScale
 70
     0
300
100:1
140
100.0
141
1.0
290
     0
  0
SCALE
  5
51
102
{ACAD_REACTORS
330
3F
102
}
330
3F
100
AcDbScale
 70
     0
300
1/128" = 1'-0"
140
0.0078125
141
12.0
290
     0
  0
SCALE
  5
52
102
{ACAD_REACTORS
330
3F
102
}
330
3F
100
AcDbScale
 70
     0
300
1/64" = 1'-0"
140
0.015625
141
12.0
290
     0
  0
SCALE
  5
53
102
{ACAD_REACTORS
330
3F
102
}
330
3F
100
AcDbScale
 70
     0
300
1/32" = 1'-0"
140
0.03125
141
12.0
290
     0
  0
SCALE
  5
54
102
{ACAD_REACTORS
330
3F
102
}
330
3F
100
AcDbScale
 70
     0
300
1/16" = 1'-0"
140
0.0625
141
12.0
290
     0
  0
SCALE
  5
55
102
{ACAD_REACTORS
330
3F
102
}
330
3F
100
AcDbScale
 70
     0
300
3/32" = 1'-0"
140
0.09375
141
12.0
290
     0
  0
SCALE
  5
56
102
{ACAD_REACTORS
330
3F
102
}
330
3F
100
AcDbScale
 70
     0
300
1/8" = 1'-0"
140
0.125
141
12.0
290
     0
  0
SCALE
  5
57
102
{ACAD_REACTORS
330
3F
102
}
330
3F
100
AcDbScale
 70
     0
300
3/16" = 1'-0"
140
0.1875
141
12.0
290
     0
  0
SCALE
  5
58
102
{ACAD_REACTORS
330
3F
102
}
330
3F
100
AcDbScale
 70
     0
300
1/4" = 1'-0"
140
0.25
141
12.0
290
     0
  0
SCALE
  5
59
102
{ACAD_REACTORS
330
3F
102
}
330
3F
100
AcDbScale
 70
     0
300
3/8" = 1'-0"
140
0.375
141
12.0
290
     0
  0
SCALE
  5
5A
102
{ACAD_REACTORS
330
3F
102
}
330
3F
100
AcDbScale
 70
     0
300
1/2" = 1'-0"
140
0.5
141
12.0
290
     0
  0
SCALE
  5
5B
102
{ACAD_REACTORS
330
3F
102
}
330
3F
100
AcDbScale
 70
     0
300
3/4" = 1'-0"
140
0.75
141
12.0
290
     0
  0
SCALE
  5
5C
102
{ACAD_REACTORS
330
3F
102
}
330
3F
100
AcDbScale
 70
     0
300
1" = 1'-0"
140
1.0
141
12.0
290
     0
  0
SCALE
  5
5D
102
{ACAD_REACTORS
330
3F
102
}
330
3F
100
AcDbScale
 70
     0
300
1-1/2" = 1'-0"
140
1.5
141
12.0
290
     0
  0
SCALE
  5
5E
102
{ACAD_REACTORS
330
3F
102
}
330
3F
100
AcDbScale
 70
     0
300
3" = 1'-0"
140
3.0
141
12.0
290
     0
  0
SCALE
  5
5F
102
{ACAD_REACTORS
330
3F
102
}
330
3F
100
AcDbScale
 70
     0
300
6" = 1'-0"
140
6.0
141
12.0
290
     0
  0
SCALE
  5
60
102
{ACAD_REACTORS
330
3F
102
}
330
3F
100
AcDbScale
 70
     0
300
1'-0" = 1'-0"
140
12.0
141
12.0
290
     0
  0
VISUALSTYLE
  5
2F
102
{ACAD_REACTORS
330
2A
102
}
102
{ACAD_XDICTIONARY
360
78
102
}
330
2A
100
AcDbVisualStyle
  2
2dWireframe
 70
     4
 71
     0
 72
     2
 73
     0
 90
        0
 40
0.6
 41
30.0
 62
     5
 63
     7
421
 16777215
 74
     1
 91
        4
 64
     7
 65
   257
 75
     1
175
     1
 42
1.0
 92
        0
 66
   257
 43
1.0
 76
     1
 77
     6
 78
     2
 67
     7
 79
     5
170
     0
171
     0
290
     0
174
     0
 93
        1
 44
0.0
173
     0
291
     0
 45
0.0
1001
ACAD
1000
AcDbSavedByObjectVersion
1070
     0
  0
VISUALSTYLE
  5
31
102
{ACAD_REACTORS
330
2A
102
}
102
{ACAD_XDICTIONARY
360
7C
102
}
330
2A
100
AcDbVisualStyle
  2
3D Hidden
 70
     6
 71
     1
 72
     2
 73
     2
 90
        0
 40
0.6
 41
30.0
 62
     5
 63
     7
421
 16777215
 74
     2
 91
        2
 64
     7
 65
   257
 75
     2
175
     1
 42
40.0
 92
        0
 66
   257
 43
1.0
 76
     1
 77
     6
 78
     2
 67
     7
 79
     3
170
     0
171
     0
290
     0
174
     0
 93
        1
 44
0.0
173
     0
291
     0
 45
0.0
1001
ACAD
1000
AcDbSavedByObjectVersion
1070
     0
  0
VISUALSTYLE
  5
30
102
{ACAD_REACTORS
330
2A
102
}
102
{ACAD_XDICTIONARY
360
7A
102
}
330
2A
100
AcDbVisualStyle
  2
3dWireframe
 70
     5
 71
     0
 72
     2
 73
     0
 90
        0
 40
0.6
 41
30.0
 62
     5
 63
     7
421
 16777215
 74
     1
 91
        4
 64
     7
 65
   257
 75
     1
175
     1
 42
1.0
 92
        0
 66
   257
 43
1.0
 76
     1
 77
     6
 78
     2
 67
     7
 79
     5
170
     0
171
     0
290
     0
174
     0
 93
        1
 44
0.0
173
     0
291
     0
 45
0.0
1001
ACAD
1000
AcDbSavedByObjectVersion
1070
     0
  0
VISUALSTYLE
  5
32
102
{ACAD_REACTORS
330
2A
102
}
102
{ACAD_XDICTIONARY
360
7E
102
}
330
2A
100
AcDbVisualStyle
  2
Basic
 70
     7
 71
     1
 72
     0
 73
     1
 90
        0
 40
0.6
 41
30.0
 62
     5
 63
     7
421
 16777215
 74
     0
 91
        4
 64
     7
 65
   257
 75
     1
175
     1
 42
1.0
 92
        8
 66
     7
 43
1.0
 76
     1
 77
     6
 78
     2
 67
     7
 79
     5
170
     0
171
     0
290
     0
174
     0
 93
        1
 44
0.0
173
     0
291
     1
 45
0.0
1001
ACAD
1000
AcDbSavedByObjectVersion
1070
     0
  0
VISUALSTYLE
  5
36
102
{ACAD_REACTORS
330
2A
102
}
102
{ACAD_XDICTIONARY
360
86
102
}
330
2A
100
AcDbVisualStyle
  2
Brighten
 70
    12
 71
     2
 72
     2
 73
     0
 90
        0
 40
0.6
 41
30.0
 62
     5
 63
     7
421
 16777215
 74
     1
 91
        4
 64
     7
 65
   257
 75
     1
175
     1
 42
1.0
 92
        8
 66
     7
 43
1.0
 76
     1
 77
     6
 78
     2
 67
     7
 79
     5
170
     0
171
     0
290
     0
174
     0
 93
        1
 44
50.0
173
     0
291
     1
 45
0.0
1001
ACAD
1000
AcDbSavedByObjectVersion
1070
     0
  0
VISUALSTYLE
  5
3A
102
{ACAD_REACTORS
330
2A
102
}
102
{ACAD_XDICTIONARY
360
8E
102
}
330
2A
100
AcDbVisualStyle
  2
ColorChange
 70
    16
 71
     2
 72
     2
 73
     3
 90
        0
 40
0.6
 41
30.0
 62
     5
 63
     8
421
  8421504
 74
     1
 91
        4
 64
     7
 65
   257
 75
     1
175
     1
 42
1.0
 92
        8
 66
     8
424
  8421504
 43
1.0
 76
     1
 77
     6
 78
     2
 67
     7
 79
     5
170
     0
171
     0
290
     0
174
     0
 93
        1
 44
0.0
173
     0
291
     1
 45
0.0
1001
ACAD
1000
AcDbSavedByObjectVersion
1070
     0
  0
VISUALSTYLE
  5
34
102
{ACAD_REACTORS
330
2A
102
}
102
{ACAD_XDICTIONARY
360
82
102
}
330
2A
100
AcDbVisualStyle
  2
Conceptual
 70
     9
 71
     3
 72
     2
 73
     0
 90
        0
 40
0.6
 41
30.0
 62
     5
 63
     7
421
 16777215
 74
     2
 91
        2
 64
     7
 65
   257
 75
     1
175
     1
 42
40.0
 92
        8
 66
     7
 43
1.0
 76
     1
 77
     6
 78
     2
 67
     7
 79
     3
170
     0
171
     0
290
     0
174
     0
 93
        1
 44
0.0
173
     0
291
     0
 45
0.0
1001
ACAD
1000
AcDbSavedByObjectVersion
1070
     0
  0
VISUALSTYLE
  5
35
102
{ACAD_REACTORS
330
2A
102
}
102
{ACAD_XDICTIONARY
360
84
102
}
330
2A
100
AcDbVisualStyle
  2
Dim
 70
    11
 71
     2
 72
     2
 73
     0
 90
        0
 40
0.6
 41
30.0
 62
     5
 63
     7
421
 16777215
 74
     1
 91
        4
 64
     7
 65
   257
 75
     1
175
     1
 42
1.0
 92
        8
 66
     7
 43
1.0
 76
     1
 77
     6
 78
     2
 67
     7
 79
     5
170
     0
171
     0
290
     0
174
     0
 93
        1
 44
-50.0
173
     0
291
     1
 45
0.0
1001
ACAD
1000
AcDbSavedByObjectVersion
1070
     0
  0
VISUALSTYLE
  5
39
102
{ACAD_REACTORS
330
2A
102
}
102
{ACAD_XDICTIONARY
360
8C
102
}
330
2A
100
AcDbVisualStyle
  2
Facepattern
 70
    15
 71
     2
 72
     2
 73
     0
 90
        0
 40
0.6
 41
30.0
 62
     5
 63
     7
421
 16777215
 74
     1
 91
        4
 64
     7
 65
   257
 75
     1
175
     1
 42
1.0
 92
        8
 66
     7
 43
1.0
 76
     1
 77
     6
 78
     2
 67
     7
 79
     5
170
     0
171
     0
290
     0
174
     0
 93
        1
 44
0.0
173
     0
291
     1
 45
0.0
1001
ACAD
1000
AcDbSavedByObjectVersion
1070
     0
  0
VISUALSTYLE
  5
2B
102
{ACAD_REACTORS
330
2A
102
}
102
{ACAD_XDICTIONARY
360
70
102
}
330
2A
100
AcDbVisualStyle
  2
Flat
 70
     0
 71
     2
 72
     1
 73
     1
 90
        2
 40
0.6
 41
30.0
 62
     5
 63
     7
421
 16777215
 74
     0
 91
        4
 64
     7
 65
   257
 75
     1
175
     1
 42
1.0
 92
        8
 66
     7
 43
1.0
 76
     1
 77
     6
 78
     2
 67
     7
 79
     5
170
     0
171
     0
290
     0
174
     0
 93
       13
 44
0.0
173
     0
291
     1
 45
0.0
1001
ACAD
1000
AcDbSavedByObjectVersion
1070
     0
  0
VISUALSTYLE
  5
2C
102
{ACAD_REACTORS
330
2A
102
}
102
{ACAD_XDICTIONARY
360
72
102
}
330
2A
100
AcDbVisualStyle
  2
FlatWithEdges
 70
     1
 71
     2
 72
     1
 73
     1
 90
        2
 40
0.6
 41
30.0
 62
     5
 63
     7
421
 16777215
 74
     1
 91
        4
 64
     7
 65
   257
 75
     1
175
     1
 42
1.0
 92
        0
 66
   257
 43
1.0
 76
     1
 77
     6
 78
     2
 67
     7
 79
     5
170
     0
171
     0
290
     0
174
     0
 93
       13
 44
0.0
173
     0
291
     1
 45
0.0
1001
ACAD
1000
AcDbSavedByObjectVersion
1070
     0
  0
VISUALSTYLE
  5
2D
102
{ACAD_REACTORS
330
2A
102
}
102
{ACAD_XDICTIONARY
360
74
102
}
330
2A
100
AcDbVisualStyle
  2
Gouraud
 70
     2
 71
     2
 72
     2
 73
     1
 90
        2
 40
0.6
 41
30.0
 62
     5
 63
     7
421
 16777215
 74
     0
 91
        4
 64
     7
 65
   257
 75
     1
175
     1
 42
1.0
 92
        0
 66
     7
 43
1.0
 76
     1
 77
     6
 78
     2
 67
     7
 79
     5
170
     0
171
     0
290
     0
174
     0
 93
       13
 44
0.0
173
     0
291
     1
 45
0.0
1001
ACAD
1000
AcDbSavedByObjectVersion
1070
     0
  0
VISUALSTYLE
  5
2E
102
{ACAD_REACTORS
330
2A
102
}
102
{ACAD_XDICTIONARY
360
76
102
}
330
2A
100
AcDbVisualStyle
  2
GouraudWithEdges
 70
     3
 71
     2
 72
     2
 73
     1
 90
        2
 40
0.6
 41
30.0
 62
     5
 63
     7
421
 16777215
 74
     1
 91
        4
 64
     7
 65
   257
 75
     1
175
     1
 42
1.0
 92
        0
 66
   257
 43
1.0
 76
     1
 77
     6
 78
     2
 67
     7
 79
     5
170
     0
171
     0
290
     0
174
     0
 93
       13
 44
0.0
173
     0
291
     1
 45
0.0
1001
ACAD
1000
AcDbSavedByObjectVersion
1070
     0
  0
VISUALSTYLE
  5
38
102
{ACAD_REACTORS
330
2A
102
}
102
{ACAD_XDICTIONARY
360
8A
102
}
330
2A
100
AcDbVisualStyle
  2
Linepattern
 70
    14
 71
     2
 72
     2
 73
     0
 90
        0
 40
0.6
 41
30.0
 62
     5
 63
     7
421
 16777215
 74
     1
 91
        4
 64
     7
 65
   257
 75
     7
175
     7
 42
1.0
 92
        8
 66
     7
 43
1.0
 76
     1
 77
     6
 78
     2
 67
     7
 79
     5
170
     0
171
     0
290
     0
174
     0
 93
        1
 44
0.0
173
     0
291
     1
 45
0.0
1001
ACAD
1000
AcDbSavedByObjectVersion
1070
     0
  0
VISUALSTYLE
  5
33
102
{ACAD_REACTORS
330
2A
102
}
102
{ACAD_XDICTIONARY
360
80
102
}
330
2A
100
AcDbVisualStyle
  2
Realistic
 70
     8
 71
     2
 72
     3
 73
     0
 90
        2
 40
0.6
 41
30.0
 62
     5
 63
     7
421
 16777215
 74
     0
 91
        0
 64
     7
 65
   257
 75
     1
175
     1
 42
1.0
 92
        8
 66
   257
 43
1.0
 76
     1
 77
     6
 78
     2
 67
     7
 79
     3
170
     0
171
     0
290
     0
174
     0
 93
       13
 44
0.0
173
     0
291
     0
 45
0.0
1001
ACAD
1000
AcDbSavedByObjectVersion
1070
     0
  0
VISUALSTYLE
  5
37
102
{ACAD_REACTORS
330
2A
102
}
102
{ACAD_XDICTIONARY
360
88
102
}
330
2A
100
AcDbVisualStyle
  2
Thicken
 70
    13
 71
     2
 72
     2
 73
     0
 90
        0
 40
0.6
 41
30.0
 62
     5
 63
     7
421
 16777215
 74
     1
 91
        4
 64
     7
 65
   257
 75
     1
175
     1
 42
1.0
 92
       12
 66
     7
 43
1.0
 76
     1
 77
     6
 78
     2
 67
     7
 79
     5
170
     0
171
     0
290
     0
174
     0
 93
        1
 44
0.0
173
     0
291
     1
 45
0.0
1001
ACAD
1000
AcDbSavedByObjectVersion
1070
     0
  0
DICTIONARYVAR
  5
6E
102
{ACAD_REACTORS
330
6D
102
}
330
6D
100
DictionaryVariables
280
     0
  1
1:1
  0
DICTIONARYVAR
  5
6F
102
{ACAD_REACTORS
330
6D
102
}
330
6D
100
DictionaryVariables
280
     0
  1
1
  0
DICTIONARY
  5
92
330
3D
100
AcDbDictionary
280
     1
281
     1
  3
ACAD_XREC_ROUNDTRIP
360
93
  0
DICTIONARY
  5
90
330
3C
100
AcDbDictionary
280
     1
281
     1
  3
ACAD_XREC_ROUNDTRIP
360
91
  0
DICTIONARY
  5
94
330
3E
100
AcDbDictionary
280
     1
281
     1
  3
ACAD_XREC_ROUNDTRIP
360
95
  0
DICTIONARY
  5
78
330
2F
100
AcDbDictionary
280
     1
281
     1
  3
ACAD_XREC_ROUNDTRIP
360
79
  0
DICTIONARY
  5
7C
330
31
100
AcDbDictionary
280
     1
281
     1
  3
ACAD_XREC_ROUNDTRIP
360
7D
  0
DICTIONARY
  5
7A
330
30
100
AcDbDictionary
280
     1
281
     1
  3
ACAD_XREC_ROUNDTRIP
360
7B
  0
DICTIONARY
  5
7E
330
32
100
AcDbDictionary
280
     1
281
     1
  3
ACAD_XREC_ROUNDTRIP
360
7F
  0
DICTIONARY
  5
86
330
36
100
AcDbDictionary
280
     1
281
     1
  3
ACAD_XREC_ROUNDTRIP
360
87
  0
DICTIONARY
  5
8E
330
3A
100
AcDbDictionary
280
     1
281
     1
  3
ACAD_XREC_ROUNDTRIP
360
8F
  0
DICTIONARY
  5
82
330
34
100
AcDbDictionary
280
     1
281
     1
  3
ACAD_XREC_ROUNDTRIP
360
83
  0
DICTIONARY
  5
84
330
35
100
AcDbDictionary
280
     1
281
     1
  3
ACAD_XREC_ROUNDTRIP
360
85
  0
DICTIONARY
  5
8C
330
39
100
AcDbDictionary
280
     1
281
     1
  3
ACAD_XREC_ROUNDTRIP
360
8D
  0
DICTIONARY
  5
70
330
2B
100
AcDbDictionary
280
     1
281
     1
  3
ACAD_XREC_ROUNDTRIP
360
71
  0
DICTIONARY
  5
72
330
2C
100
AcDbDictionary
280
     1
281
     1
  3
ACAD_XREC_ROUNDTRIP
360
73
  0
DICTIONARY
  5
74
330
2D
100
AcDbDictionary
280
     1
281
     1
  3
ACAD_XREC_ROUNDTRIP
360
75
  0
DICTIONARY
  5
76
330
2E
100
AcDbDictionary
280
     1
281
     1
  3
ACAD_XREC_ROUNDTRIP
360
77
  0
DICTIONARY
  5
8A
330
38
100
AcDbDictionary
280
     1
281
     1
  3
ACAD_XREC_ROUNDTRIP
360
8B
  0
DICTIONARY
  5
80
330
33
100
AcDbDictionary
280
     1
281
     1
  3
ACAD_XREC_ROUNDTRIP
360
81
  0
DICTIONARY
  5
88
330
37
100
AcDbDictionary
280
     1
281
     1
  3
ACAD_XREC_ROUNDTRIP
360
89
  0
XRECORD
  5
93
102
{ACAD_REACTORS
330
92
102
}
330
92
100
AcDbXrecord
280
     1
102
MATERIAL
148
0.0
149
0.0
149
0.0
 93
        0
 94
      127
282
     0
 72
     1
 77
     1
171
     1
175
     1
179
     1
273
     0
  0
XRECORD
  5
91
102
{ACAD_REACTORS
330
90
102
}
330
90
100
AcDbXrecord
280
     1
102
MATERIAL
148
0.0
149
0.0
149
0.0
 93
        0
 94
      127
282
     0
 72
     1
 77
     1
171
     1
175
     1
179
     1
273
     0
  0
XRECORD
  5
95
102
{ACAD_REACTORS
330
94
102
}
330
94
100
AcDbXrecord
280
     1
102
MATERIAL
148
0.0
149
0.0
149
0.0
 93
        0
 94
      127
282
     0
 72
     1
 77
     1
171
     1
175
     1
179
     1
273
     0
  0
XRECORD
  5
79
102
{ACAD_REACTORS
330
78
102
}
330
78
100
AcDbXrecord
280
     1
102
RTVSPropertyOp0
 70
     1
102
RTVSPropertyOp1
 70
     1
102
RTVSPropertyOp2
 70
     1
102
RTVSPropertyOp3
 70
     1
102
RTVSPropertyOp4
 70
     1
102
RTVSPropertyOp5
 70
     1
102
RTVSPropertyOp6
 70
     1
102
RTVSPropertyOp7
 70
     1
102
RTVSPropertyOp8
 70
     1
102
RTVSPropertyOp9
 70
     1
102
RTVSPropertyOp10
 70
     1
102
RTVSPropertyOp11
 70
     1
102
RTVSPropertyOp12
 70
     1
102
RTVSPropertyOp13
 70
     1
102
RTVSPropertyOp14
 70
     1
102
RTVSPropertyOp15
 70
     1
102
RTVSPropertyOp16
 70
     1
102
RTVSPropertyOp17
 70
     1
102
RTVSPropertyOp18
 70
     1
102
RTVSPropertyOp19
 70
     1
102
RTVSPropertyOp20
 70
     1
102
RTVSPropertyOp21
 70
     1
102
RTVSPropertyOp22
 70
     1
102
RTVSPropertyOp23
 70
     1
102
RTVSPropertyOp24
 70
     1
102
RTVSPropertyOp25
 70
     1
102
RTVSPropertyOp26
 70
     1
102
RTVSPropertyOp27
 70
     1
102
RTVSPropertyOp28
 70
     1
102
RTVSPropertyOp29
 70
     1
102
RTVSPropertyOp30
 70
     1
102
RTVSPropertyOp31
 70
     1
102
RTVSPropertyOp32
 70
     1
102
RTVSPropertyOp33
 70
     1
102
RTVSPropertyOp34
 70
     1
102
RTVSPropertyOp35
 70
     1
102
RTVSPropertyOp36
 70
     1
102
RTVSPropertyOp37
 70
     1
102
RTVSPropertyOp38
 70
     1
102
RTVSPropertyOp39
 70
     1
102
RTVSPropertyOp40
 70
     1
102
RTVSPropertyOp41
 70
     1
102
RTVSPropertyOp42
 70
     1
102
RTVSPropertyOp43
 70
     1
102
RTVSPropertyOp44
 70
     1
102
RTVSPropertyOp45
 70
     1
102
RTVSPropertyOp46
 70
     1
102
RTVSPropertyOp47
 70
     1
102
RTVSPropertyOp48
 70
     1
102
RTVSPropertyOp49
 70
     1
102
RTVSPropertyOp50
 70
     1
102
RTVSPropertyOp51
 70
     0
102
RTVSPropertyOp52
 70
     0
102
RTVSPropertyOp53
 70
     1
102
RTVSPropertyOp54
 70
     1
102
RTVSPropertyOp55
 70
     1
102
RTVSPropertyOp56
 70
     1
102
RTVSPropertyOp57
 70
     1
102
RTVSPost2010Prop28
280
     1
102
RTVSPost2010PropOp28
 70
     1
102
RTVSPost2010Prop29
280
     1
102
RTVSPost2010PropOp29
 70
     1
102
RTVSPost2010Prop30
280
     0
102
RTVSPost2010PropOp30
 70
     1
102
RTVSPost2010Prop31
280
     0
102
RTVSPost2010PropOp31
 70
     1
102
RTVSPost2010Prop32
280
     0
102
RTVSPost2010PropOp32
 70
     1
102
RTVSPost2010Prop33
280
     0
102
RTVSPost2010PropOp33
 70
     1
102
RTVSPost2010Prop34
280
     0
102
RTVSPost2010PropOp34
 70
     1
102
RTVSPost2010Prop35
280
     0
102
RTVSPost2010PropOp35
 70
     1
102
RTVSPost2010Prop36
280
     0
102
RTVSPost2010PropOp36
 70
     1
102
RTVSPost2010Prop37
 90
       50
102
RTVSPost2010PropOp37
 70
     1
102
RTVSPost2010Prop38
140
0.0
102
RTVSPost2010PropOp38
 70
     1
102
RTVSPost2010Prop39
140
1.0
102
RTVSPost2010PropOp39
 70
     1
102
RTVSPost2010Prop40
 90
        0
102
RTVSPost2010PropOp40
 70
     1
102
RTVSPost2010Prop41ColorIndex
 90
       18
102
RTVSPost2010Prop41ColorRGB
 90
        0
102
RTVSPost2010PropOp41
 70
     1
102
RTVSPost2010Prop42
 90
       50
102
RTVSPost2010PropOp42
 70
     1
102
RTVSPost2010Prop43
 90
        3
102
RTVSPost2010PropOp43
 70
     1
102
RTVSPost2010Prop44ColorIndex
 90
        5
102
RTVSPost2010Prop44ColorRGB
 90
      255
102
RTVSPost2010PropOp44
 70
     1
102
RTVSPost2010Prop45
280
     0
102
RTVSPost2010PropOp45
 70
     1
102
RTVSPost2010Prop46
 90
       50
102
RTVSPost2010PropOp46
 70
     1
102
RTVSPost2010Prop47
 90
       50
102
RTVSPost2010PropOp47
 70
     1
102
RTVSPost2010Prop48
 90
       50
102
RTVSPost2010PropOp48
 70
     1
102
RTVSPost2010Prop49
280
     0
102
RTVSPost2010PropOp49
 70
     1
102
RTVSPost2010Prop50
 90
       50
102
RTVSPost2010PropOp50
 70
     1
102
RTVSPost2010Prop51ColorIndex
 90
      256
102
RTVSPost2010Prop51ColorRGB
 90
-16777216
102
RTVSPost2010PropOp51
 70
     0
102
RTVSPost2010Prop52
140
1.0
102
RTVSPost2010PropOp52
 70
     0
102
RTVSPost2010Prop53
 90
        2
102
RTVSPost2010PropOp53
 70
     1
102
RTVSPost2010Prop54
  1
strokes_ogs.tif
102
RTVSPost2010PropOp54
 70
     1
102
RTVSPost2010Prop55
280
     0
102
RTVSPost2010PropOp55
 70
     1
102
RTVSPost2010Prop56
140
1.0
102
RTVSPost2010PropOp56
 70
     1
102
RTVSPost2010Prop57
140
1.0
102
RTVSPost2010PropOp57
 70
     1
  0
XRECORD
  5
7D
102
{ACAD_REACTORS
330
7C
102
}
330
7C
100
AcDbXrecord
280
     1
102
RTVSPropertyOp0
 70
     1
102
RTVSPropertyOp1
 70
     1
102
RTVSPropertyOp2
 70
     1
102
RTVSPropertyOp3
 70
     1
102
RTVSPropertyOp4
 70
     1
102
RTVSPropertyOp5
 70
     1
102
RTVSPropertyOp6
 70
     1
102
RTVSPropertyOp7
 70
     1
102
RTVSPropertyOp8
 70
     1
102
RTVSPropertyOp9
 70
     1
102
RTVSPropertyOp10
 70
     1
102
RTVSPropertyOp11
 70
     1
102
RTVSPropertyOp12
 70
     1
102
RTVSPropertyOp13
 70
     1
102
RTVSPropertyOp14
 70
     1
102
RTVSPropertyOp15
 70
     1
102
RTVSPropertyOp16
 70
     1
102
RTVSPropertyOp17
 70
     1
102
RTVSPropertyOp18
 70
     1
102
RTVSPropertyOp19
 70
     1
102
RTVSPropertyOp20
 70
     1
102
RTVSPropertyOp21
 70
     1
102
RTVSPropertyOp22
 70
     1
102
RTVSPropertyOp23
 70
     1
102
RTVSPropertyOp24
 70
     1
102
RTVSPropertyOp25
 70
     1
102
RTVSPropertyOp26
 70
     1
102
RTVSPropertyOp27
 70
     1
102
RTVSPropertyOp28
 70
     1
102
RTVSPropertyOp29
 70
     1
102
RTVSPropertyOp30
 70
     1
102
RTVSPropertyOp31
 70
     1
102
RTVSPropertyOp32
 70
     1
102
RTVSPropertyOp33
 70
     1
102
RTVSPropertyOp34
 70
     1
102
RTVSPropertyOp35
 70
     1
102
RTVSPropertyOp36
 70
     1
102
RTVSPropertyOp37
 70
     1
102
RTVSPropertyOp38
 70
     1
102
RTVSPropertyOp39
 70
     1
102
RTVSPropertyOp40
 70
     1
102
RTVSPropertyOp41
 70
     1
102
RTVSPropertyOp42
 70
     1
102
RTVSPropertyOp43
 70
     1
102
RTVSPropertyOp44
 70
     1
102
RTVSPropertyOp45
 70
     1
102
RTVSPropertyOp46
 70
     1
102
RTVSPropertyOp47
 70
     1
102
RTVSPropertyOp48
 70
     1
102
RTVSPropertyOp49
 70
     1
102
RTVSPropertyOp50
 70
     1
102
RTVSPropertyOp51
 70
     0
102
RTVSPropertyOp52
 70
     0
102
RTVSPropertyOp53
 70
     1
102
RTVSPropertyOp54
 70
     1
102
RTVSPropertyOp55
 70
     1
102
RTVSPropertyOp56
 70
     1
102
RTVSPropertyOp57
 70
     1
102
RTVSPost2010Prop28
280
     0
102
RTVSPost2010PropOp28
 70
     1
102
RTVSPost2010Prop29
280
     1
102
RTVSPost2010PropOp29
 70
     1
102
RTVSPost2010Prop30
280
     1
102
RTVSPost2010PropOp30
 70
     1
102
RTVSPost2010Prop31
280
     0
102
RTVSPost2010PropOp31
 70
     1
102
RTVSPost2010Prop32
280
     0
102
RTVSPost2010PropOp32
 70
     1
102
RTVSPost2010Prop33
280
     0
102
RTVSPost2010PropOp33
 70
     1
102
RTVSPost2010Prop34
280
     0
102
RTVSPost2010PropOp34
 70
     1
102
RTVSPost2010Prop35
280
     0
102
RTVSPost2010PropOp35
 70
     1
102
RTVSPost2010Prop36
280
     0
102
RTVSPost2010PropOp36
 70
     1
102
RTVSPost2010Prop37
 90
       50
102
RTVSPost2010PropOp37
 70
     1
102
RTVSPost2010Prop38
140
0.0
102
RTVSPost2010PropOp38
 70
     1
102
RTVSPost2010Prop39
140
1.0
102
RTVSPost2010PropOp39
 70
     1
102
RTVSPost2010Prop40
 90
        0
102
RTVSPost2010PropOp40
 70
     1
102
RTVSPost2010Prop41ColorIndex
 90
       18
102
RTVSPost2010Prop41ColorRGB
 90
        0
102
RTVSPost2010PropOp41
 70
     1
102
RTVSPost2010Prop42
 90
       50
102
RTVSPost2010PropOp42
 70
     1
102
RTVSPost2010Prop43
 90
        3
102
RTVSPost2010PropOp43
 70
     1
102
RTVSPost2010Prop44ColorIndex
 90
        5
102
RTVSPost2010Prop44ColorRGB
 90
      255
102
RTVSPost2010PropOp44
 70
     1
102
RTVSPost2010Prop45
280
     0
102
RTVSPost2010PropOp45
 70
     1
102
RTVSPost2010Prop46
 90
       50
102
RTVSPost2010PropOp46
 70
     1
102
RTVSPost2010Prop47
 90
       50
102
RTVSPost2010PropOp47
 70
     1
102
RTVSPost2010Prop48
 90
       50
102
RTVSPost2010PropOp48
 70
     1
102
RTVSPost2010Prop49
280
     0
102
RTVSPost2010PropOp49
 70
     1
102
RTVSPost2010Prop50
 90
       50
102
RTVSPost2010PropOp50
 70
     1
102
RTVSPost2010Prop51ColorIndex
 90
      256
102
RTVSPost2010Prop51ColorRGB
 90
-16777216
102
RTVSPost2010PropOp51
 70
     0
102
RTVSPost2010Prop52
140
1.0
102
RTVSPost2010PropOp52
 70
     0
102
RTVSPost2010Prop53
 90
        2
102
RTVSPost2010PropOp53
 70
     1
102
RTVSPost2010Prop54
  1
strokes_ogs.tif
102
RTVSPost2010PropOp54
 70
     1
102
RTVSPost2010Prop55
280
     0
102
RTVSPost2010PropOp55
 70
     1
102
RTVSPost2010Prop56
140
1.0
102
RTVSPost2010PropOp56
 70
     1
102
RTVSPost2010Prop57
140
1.0
102
RTVSPost2010PropOp57
 70
     1
  0
XRECORD
  5
7B
102
{ACAD_REACTORS
330
7A
102
}
330
7A
100
AcDbXrecord
280
     1
102
RTVSPropertyOp0
 70
     1
102
RTVSPropertyOp1
 70
     1
102
RTVSPropertyOp2
 70
     1
102
RTVSPropertyOp3
 70
     1
102
RTVSPropertyOp4
 70
     1
102
RTVSPropertyOp5
 70
     1
102
RTVSPropertyOp6
 70
     1
102
RTVSPropertyOp7
 70
     1
102
RTVSPropertyOp8
 70
     1
102
RTVSPropertyOp9
 70
     1
102
RTVSPropertyOp10
 70
     1
102
RTVSPropertyOp11
 70
     1
102
RTVSPropertyOp12
 70
     1
102
RTVSPropertyOp13
 70
     1
102
RTVSPropertyOp14
 70
     1
102
RTVSPropertyOp15
 70
     1
102
RTVSPropertyOp16
 70
     1
102
RTVSPropertyOp17
 70
     1
102
RTVSPropertyOp18
 70
     1
102
RTVSPropertyOp19
 70
     1
102
RTVSPropertyOp20
 70
     1
102
RTVSPropertyOp21
 70
     1
102
RTVSPropertyOp22
 70
     1
102
RTVSPropertyOp23
 70
     1
102
RTVSPropertyOp24
 70
     1
102
RTVSPropertyOp25
 70
     1
102
RTVSPropertyOp26
 70
     1
102
RTVSPropertyOp27
 70
     1
102
RTVSPropertyOp28
 70
     1
102
RTVSPropertyOp29
 70
     1
102
RTVSPropertyOp30
 70
     1
102
RTVSPropertyOp31
 70
     1
102
RTVSPropertyOp32
 70
     1
102
RTVSPropertyOp33
 70
     1
102
RTVSPropertyOp34
 70
     1
102
RTVSPropertyOp35
 70
     1
102
RTVSPropertyOp36
 70
     1
102
RTVSPropertyOp37
 70
     1
102
RTVSPropertyOp38
 70
     1
102
RTVSPropertyOp39
 70
     1
102
RTVSPropertyOp40
 70
     1
102
RTVSPropertyOp41
 70
     1
102
RTVSPropertyOp42
 70
     1
102
RTVSPropertyOp43
 70
     1
102
RTVSPropertyOp44
 70
     1
102
RTVSPropertyOp45
 70
     1
102
RTVSPropertyOp46
 70
     1
102
RTVSPropertyOp47
 70
     1
102
RTVSPropertyOp48
 70
     1
102
RTVSPropertyOp49
 70
     1
102
RTVSPropertyOp50
 70
     1
102
RTVSPropertyOp51
 70
     0
102
RTVSPropertyOp52
 70
     0
102
RTVSPropertyOp53
 70
     1
102
RTVSPropertyOp54
 70
     1
102
RTVSPropertyOp55
 70
     1
102
RTVSPropertyOp56
 70
     1
102
RTVSPropertyOp57
 70
     1
102
RTVSPost2010Prop28
280
     0
102
RTVSPost2010PropOp28
 70
     1
102
RTVSPost2010Prop29
280
     1
102
RTVSPost2010PropOp29
 70
     1
102
RTVSPost2010Prop30
280
     1
102
RTVSPost2010PropOp30
 70
     1
102
RTVSPost2010Prop31
280
     0
102
RTVSPost2010PropOp31
 70
     1
102
RTVSPost2010Prop32
280
     0
102
RTVSPost2010PropOp32
 70
     1
102
RTVSPost2010Prop33
280
     0
102
RTVSPost2010PropOp33
 70
     1
102
RTVSPost2010Prop34
280
     0
102
RTVSPost2010PropOp34
 70
     1
102
RTVSPost2010Prop35
280
     0
102
RTVSPost2010PropOp35
 70
     1
102
RTVSPost2010Prop36
280
     0
102
RTVSPost2010PropOp36
 70
     1
102
RTVSPost2010Prop37
 90
       50
102
RTVSPost2010PropOp37
 70
     1
102
RTVSPost2010Prop38
140
0.0
102
RTVSPost2010PropOp38
 70
     1
102
RTVSPost2010Prop39
140
1.0
102
RTVSPost2010PropOp39
 70
     1
102
RTVSPost2010Prop40
 90
        0
102
RTVSPost2010PropOp40
 70
     1
102
RTVSPost2010Prop41ColorIndex
 90
       18
102
RTVSPost2010Prop41ColorRGB
 90
        0
102
RTVSPost2010PropOp41
 70
     1
102
RTVSPost2010Prop42
 90
       50
102
RTVSPost2010PropOp42
 70
     1
102
RTVSPost2010Prop43
 90
        3
102
RTVSPost2010PropOp43
 70
     1
102
RTVSPost2010Prop44ColorIndex
 90
        5
102
RTVSPost2010Prop44ColorRGB
 90
      255
102
RTVSPost2010PropOp44
 70
     1
102
RTVSPost2010Prop45
280
     0
102
RTVSPost2010PropOp45
 70
     1
102
RTVSPost2010Prop46
 90
       50
102
RTVSPost2010PropOp46
 70
     1
102
RTVSPost2010Prop47
 90
       50
102
RTVSPost2010PropOp47
 70
     1
102
RTVSPost2010Prop48
 90
       50
102
RTVSPost2010PropOp48
 70
     1
102
RTVSPost2010Prop49
280
     0
102
RTVSPost2010PropOp49
 70
     1
102
RTVSPost2010Prop50
 90
       50
102
RTVSPost2010PropOp50
 70
     1
102
RTVSPost2010Prop51ColorIndex
 90
      256
102
RTVSPost2010Prop51ColorRGB
 90
-16777216
102
RTVSPost2010PropOp51
 70
     0
102
RTVSPost2010Prop52
140
1.0
102
RTVSPost2010PropOp52
 70
     0
102
RTVSPost2010Prop53
 90
        2
102
RTVSPost2010PropOp53
 70
     1
102
RTVSPost2010Prop54
  1
strokes_ogs.tif
102
RTVSPost2010PropOp54
 70
     1
102
RTVSPost2010Prop55
280
     0
102
RTVSPost2010PropOp55
 70
     1
102
RTVSPost2010Prop56
140
1.0
102
RTVSPost2010PropOp56
 70
     1
102
RTVSPost2010Prop57
140
1.0
102
RTVSPost2010PropOp57
 70
     1
  0
XRECORD
  5
7F
102
{ACAD_REACTORS
330
7E
102
}
330
7E
100
AcDbXrecord
280
     1
102
RTVSPropertyOp0
 70
     1
102
RTVSPropertyOp1
 70
     1
102
RTVSPropertyOp2
 70
     1
102
RTVSPropertyOp3
 70
     1
102
RTVSPropertyOp4
 70
     1
102
RTVSPropertyOp5
 70
     1
102
RTVSPropertyOp6
 70
     1
102
RTVSPropertyOp7
 70
     1
102
RTVSPropertyOp8
 70
     1
102
RTVSPropertyOp9
 70
     1
102
RTVSPropertyOp10
 70
     1
102
RTVSPropertyOp11
 70
     1
102
RTVSPropertyOp12
 70
     1
102
RTVSPropertyOp13
 70
     1
102
RTVSPropertyOp14
 70
     1
102
RTVSPropertyOp15
 70
     1
102
RTVSPropertyOp16
 70
     1
102
RTVSPropertyOp17
 70
     1
102
RTVSPropertyOp18
 70
     1
102
RTVSPropertyOp19
 70
     1
102
RTVSPropertyOp20
 70
     1
102
RTVSPropertyOp21
 70
     1
102
RTVSPropertyOp22
 70
     1
102
RTVSPropertyOp23
 70
     1
102
RTVSPropertyOp24
 70
     1
102
RTVSPropertyOp25
 70
     1
102
RTVSPropertyOp26
 70
     1
102
RTVSPropertyOp27
 70
     1
102
RTVSPropertyOp28
 70
     1
102
RTVSPropertyOp29
 70
     1
102
RTVSPropertyOp30
 70
     1
102
RTVSPropertyOp31
 70
     1
102
RTVSPropertyOp32
 70
     1
102
RTVSPropertyOp33
 70
     1
102
RTVSPropertyOp34
 70
     1
102
RTVSPropertyOp35
 70
     1
102
RTVSPropertyOp36
 70
     1
102
RTVSPropertyOp37
 70
     1
102
RTVSPropertyOp38
 70
     1
102
RTVSPropertyOp39
 70
     1
102
RTVSPropertyOp40
 70
     1
102
RTVSPropertyOp41
 70
     1
102
RTVSPropertyOp42
 70
     1
102
RTVSPropertyOp43
 70
     1
102
RTVSPropertyOp44
 70
     1
102
RTVSPropertyOp45
 70
     1
102
RTVSPropertyOp46
 70
     1
102
RTVSPropertyOp47
 70
     1
102
RTVSPropertyOp48
 70
     1
102
RTVSPropertyOp49
 70
     1
102
RTVSPropertyOp50
 70
     1
102
RTVSPropertyOp51
 70
     0
102
RTVSPropertyOp52
 70
     0
102
RTVSPropertyOp53
 70
     1
102
RTVSPropertyOp54
 70
     1
102
RTVSPropertyOp55
 70
     1
102
RTVSPropertyOp56
 70
     1
102
RTVSPropertyOp57
 70
     1
102
RTVSPost2010Prop28
280
     0
102
RTVSPost2010PropOp28
 70
     1
102
RTVSPost2010Prop29
280
     1
102
RTVSPost2010PropOp29
 70
     1
102
RTVSPost2010Prop30
280
     1
102
RTVSPost2010PropOp30
 70
     1
102
RTVSPost2010Prop31
280
     0
102
RTVSPost2010PropOp31
 70
     1
102
RTVSPost2010Prop32
280
     0
102
RTVSPost2010PropOp32
 70
     1
102
RTVSPost2010Prop33
280
     0
102
RTVSPost2010PropOp33
 70
     1
102
RTVSPost2010Prop34
280
     0
102
RTVSPost2010PropOp34
 70
     1
102
RTVSPost2010Prop35
280
     0
102
RTVSPost2010PropOp35
 70
     1
102
RTVSPost2010Prop36
280
     0
102
RTVSPost2010PropOp36
 70
     1
102
RTVSPost2010Prop37
 90
       50
102
RTVSPost2010PropOp37
 70
     1
102
RTVSPost2010Prop38
140
0.0
102
RTVSPost2010PropOp38
 70
     1
102
RTVSPost2010Prop39
140
1.0
102
RTVSPost2010PropOp39
 70
     1
102
RTVSPost2010Prop40
 90
        0
102
RTVSPost2010PropOp40
 70
     1
102
RTVSPost2010Prop41ColorIndex
 90
       18
102
RTVSPost2010Prop41ColorRGB
 90
        0
102
RTVSPost2010PropOp41
 70
     1
102
RTVSPost2010Prop42
 90
       50
102
RTVSPost2010PropOp42
 70
     1
102
RTVSPost2010Prop43
 90
        3
102
RTVSPost2010PropOp43
 70
     1
102
RTVSPost2010Prop44ColorIndex
 90
        5
102
RTVSPost2010Prop44ColorRGB
 90
      255
102
RTVSPost2010PropOp44
 70
     1
102
RTVSPost2010Prop45
280
     0
102
RTVSPost2010PropOp45
 70
     1
102
RTVSPost2010Prop46
 90
       50
102
RTVSPost2010PropOp46
 70
     1
102
RTVSPost2010Prop47
 90
       50
102
RTVSPost2010PropOp47
 70
     1
102
RTVSPost2010Prop48
 90
       50
102
RTVSPost2010PropOp48
 70
     1
102
RTVSPost2010Prop49
280
     0
102
RTVSPost2010PropOp49
 70
     1
102
RTVSPost2010Prop50
 90
       50
102
RTVSPost2010PropOp50
 70
     1
102
RTVSPost2010Prop51ColorIndex
 90
      256
102
RTVSPost2010Prop51ColorRGB
 90
-16777216
102
RTVSPost2010PropOp51
 70
     0
102
RTVSPost2010Prop52
140
1.0
102
RTVSPost2010PropOp52
 70
     0
102
RTVSPost2010Prop53
 90
        2
102
RTVSPost2010PropOp53
 70
     1
102
RTVSPost2010Prop54
  1
strokes_ogs.tif
102
RTVSPost2010PropOp54
 70
     1
102
RTVSPost2010Prop55
280
     0
102
RTVSPost2010PropOp55
 70
     1
102
RTVSPost2010Prop56
140
1.0
102
RTVSPost2010PropOp56
 70
     1
102
RTVSPost2010Prop57
140
1.0
102
RTVSPost2010PropOp57
 70
     1
  0
XRECORD
  5
87
102
{ACAD_REACTORS
330
86
102
}
330
86
100
AcDbXrecord
280
     1
102
RTVSPropertyOp0
 70
     1
102
RTVSPropertyOp1
 70
     1
102
RTVSPropertyOp2
 70
     1
102
RTVSPropertyOp3
 70
     1
102
RTVSPropertyOp4
 70
     1
102
RTVSPropertyOp5
 70
     1
102
RTVSPropertyOp6
 70
     1
102
RTVSPropertyOp7
 70
     1
102
RTVSPropertyOp8
 70
     1
102
RTVSPropertyOp9
 70
     1
102
RTVSPropertyOp10
 70
     1
102
RTVSPropertyOp11
 70
     1
102
RTVSPropertyOp12
 70
     1
102
RTVSPropertyOp13
 70
     1
102
RTVSPropertyOp14
 70
     1
102
RTVSPropertyOp15
 70
     1
102
RTVSPropertyOp16
 70
     1
102
RTVSPropertyOp17
 70
     1
102
RTVSPropertyOp18
 70
     1
102
RTVSPropertyOp19
 70
     1
102
RTVSPropertyOp20
 70
     1
102
RTVSPropertyOp21
 70
     1
102
RTVSPropertyOp22
 70
     1
102
RTVSPropertyOp23
 70
     1
102
RTVSPropertyOp24
 70
     1
102
RTVSPropertyOp25
 70
     1
102
RTVSPropertyOp26
 70
     1
102
RTVSPropertyOp27
 70
     1
102
RTVSPropertyOp28
 70
     1
102
RTVSPropertyOp29
 70
     1
102
RTVSPropertyOp30
 70
     1
102
RTVSPropertyOp31
 70
     1
102
RTVSPropertyOp32
 70
     1
102
RTVSPropertyOp33
 70
     1
102
RTVSPropertyOp34
 70
     1
102
RTVSPropertyOp35
 70
     1
102
RTVSPropertyOp36
 70
     1
102
RTVSPropertyOp37
 70
     1
102
RTVSPropertyOp38
 70
     1
102
RTVSPropertyOp39
 70
     1
102
RTVSPropertyOp40
 70
     1
102
RTVSPropertyOp41
 70
     1
102
RTVSPropertyOp42
 70
     1
102
RTVSPropertyOp43
 70
     1
102
RTVSPropertyOp44
 70
     1
102
RTVSPropertyOp45
 70
     1
102
RTVSPropertyOp46
 70
     1
102
RTVSPropertyOp47
 70
     1
102
RTVSPropertyOp48
 70
     1
102
RTVSPropertyOp49
 70
     1
102
RTVSPropertyOp50
 70
     1
102
RTVSPropertyOp51
 70
     0
102
RTVSPropertyOp52
 70
     0
102
RTVSPropertyOp53
 70
     1
102
RTVSPropertyOp54
 70
     1
102
RTVSPropertyOp55
 70
     1
102
RTVSPropertyOp56
 70
     1
102
RTVSPropertyOp57
 70
     1
102
RTVSPost2010Prop28
280
     0
102
RTVSPost2010PropOp28
 70
     1
102
RTVSPost2010Prop29
280
     1
102
RTVSPost2010PropOp29
 70
     1
102
RTVSPost2010Prop30
280
     1
102
RTVSPost2010PropOp30
 70
     1
102
RTVSPost2010Prop31
280
     0
102
RTVSPost2010PropOp31
 70
     1
102
RTVSPost2010Prop32
280
     0
102
RTVSPost2010PropOp32
 70
     1
102
RTVSPost2010Prop33
280
     0
102
RTVSPost2010PropOp33
 70
     1
102
RTVSPost2010Prop34
280
     0
102
RTVSPost2010PropOp34
 70
     1
102
RTVSPost2010Prop35
280
     0
102
RTVSPost2010PropOp35
 70
     1
102
RTVSPost2010Prop36
280
     0
102
RTVSPost2010PropOp36
 70
     1
102
RTVSPost2010Prop37
 90
       50
102
RTVSPost2010PropOp37
 70
     1
102
RTVSPost2010Prop38
140
0.0
102
RTVSPost2010PropOp38
 70
     1
102
RTVSPost2010Prop39
140
1.0
102
RTVSPost2010PropOp39
 70
     1
102
RTVSPost2010Prop40
 90
        0
102
RTVSPost2010PropOp40
 70
     1
102
RTVSPost2010Prop41ColorIndex
 90
       18
102
RTVSPost2010Prop41ColorRGB
 90
        0
102
RTVSPost2010PropOp41
 70
     1
102
RTVSPost2010Prop42
 90
       50
102
RTVSPost2010PropOp42
 70
     1
102
RTVSPost2010Prop43
 90
        3
102
RTVSPost2010PropOp43
 70
     1
102
RTVSPost2010Prop44ColorIndex
 90
        5
102
RTVSPost2010Prop44ColorRGB
 90
      255
102
RTVSPost2010PropOp44
 70
     1
102
RTVSPost2010Prop45
280
     0
102
RTVSPost2010PropOp45
 70
     1
102
RTVSPost2010Prop46
 90
       50
102
RTVSPost2010PropOp46
 70
     1
102
RTVSPost2010Prop47
 90
       50
102
RTVSPost2010PropOp47
 70
     1
102
RTVSPost2010Prop48
 90
       50
102
RTVSPost2010PropOp48
 70
     1
102
RTVSPost2010Prop49
280
     0
102
RTVSPost2010PropOp49
 70
     1
102
RTVSPost2010Prop50
 90
       50
102
RTVSPost2010PropOp50
 70
     1
102
RTVSPost2010Prop51ColorIndex
 90
      256
102
RTVSPost2010Prop51ColorRGB
 90
-16777216
102
RTVSPost2010PropOp51
 70
     0
102
RTVSPost2010Prop52
140
1.0
102
RTVSPost2010PropOp52
 70
     0
102
RTVSPost2010Prop53
 90
        2
102
RTVSPost2010PropOp53
 70
     1
102
RTVSPost2010Prop54
  1
strokes_ogs.tif
102
RTVSPost2010PropOp54
 70
     1
102
RTVSPost2010Prop55
280
     0
102
RTVSPost2010PropOp55
 70
     1
102
RTVSPost2010Prop56
140
1.0
102
RTVSPost2010PropOp56
 70
     1
102
RTVSPost2010Prop57
140
1.0
102
RTVSPost2010PropOp57
 70
     1
  0
XRECORD
  5
8F
102
{ACAD_REACTORS
330
8E
102
}
330
8E
100
AcDbXrecord
280
     1
102
RTVSPropertyOp0
 70
     1
102
RTVSPropertyOp1
 70
     1
102
RTVSPropertyOp2
 70
     1
102
RTVSPropertyOp3
 70
     1
102
RTVSPropertyOp4
 70
     1
102
RTVSPropertyOp5
 70
     1
102
RTVSPropertyOp6
 70
     1
102
RTVSPropertyOp7
 70
     1
102
RTVSPropertyOp8
 70
     1
102
RTVSPropertyOp9
 70
     1
102
RTVSPropertyOp10
 70
     1
102
RTVSPropertyOp11
 70
     1
102
RTVSPropertyOp12
 70
     1
102
RTVSPropertyOp13
 70
     1
102
RTVSPropertyOp14
 70
     1
102
RTVSPropertyOp15
 70
     1
102
RTVSPropertyOp16
 70
     1
102
RTVSPropertyOp17
 70
     1
102
RTVSPropertyOp18
 70
     1
102
RTVSPropertyOp19
 70
     1
102
RTVSPropertyOp20
 70
     1
102
RTVSPropertyOp21
 70
     1
102
RTVSPropertyOp22
 70
     1
102
RTVSPropertyOp23
 70
     1
102
RTVSPropertyOp24
 70
     1
102
RTVSPropertyOp25
 70
     1
102
RTVSPropertyOp26
 70
     1
102
RTVSPropertyOp27
 70
     1
102
RTVSPropertyOp28
 70
     1
102
RTVSPropertyOp29
 70
     1
102
RTVSPropertyOp30
 70
     1
102
RTVSPropertyOp31
 70
     1
102
RTVSPropertyOp32
 70
     1
102
RTVSPropertyOp33
 70
     1
102
RTVSPropertyOp34
 70
     1
102
RTVSPropertyOp35
 70
     1
102
RTVSPropertyOp36
 70
     1
102
RTVSPropertyOp37
 70
     1
102
RTVSPropertyOp38
 70
     1
102
RTVSPropertyOp39
 70
     1
102
RTVSPropertyOp40
 70
     1
102
RTVSPropertyOp41
 70
     1
102
RTVSPropertyOp42
 70
     1
102
RTVSPropertyOp43
 70
     1
102
RTVSPropertyOp44
 70
     1
102
RTVSPropertyOp45
 70
     1
102
RTVSPropertyOp46
 70
     1
102
RTVSPropertyOp47
 70
     1
102
RTVSPropertyOp48
 70
     1
102
RTVSPropertyOp49
 70
     1
102
RTVSPropertyOp50
 70
     1
102
RTVSPropertyOp51
 70
     0
102
RTVSPropertyOp52
 70
     0
102
RTVSPropertyOp53
 70
     1
102
RTVSPropertyOp54
 70
     1
102
RTVSPropertyOp55
 70
     1
102
RTVSPropertyOp56
 70
     1
102
RTVSPropertyOp57
 70
     1
102
RTVSPost2010Prop28
280
     0
102
RTVSPost2010PropOp28
 70
     1
102
RTVSPost2010Prop29
280
     1
102
RTVSPost2010PropOp29
 70
     1
102
RTVSPost2010Prop30
280
     1
102
RTVSPost2010PropOp30
 70
     1
102
RTVSPost2010Prop31
280
     0
102
RTVSPost2010PropOp31
 70
     1
102
RTVSPost2010Prop32
280
     0
102
RTVSPost2010PropOp32
 70
     1
102
RTVSPost2010Prop33
280
     0
102
RTVSPost2010PropOp33
 70
     1
102
RTVSPost2010Prop34
280
     0
102
RTVSPost2010PropOp34
 70
     1
102
RTVSPost2010Prop35
280
     0
102
RTVSPost2010PropOp35
 70
     1
102
RTVSPost2010Prop36
280
     0
102
RTVSPost2010PropOp36
 70
     1
102
RTVSPost2010Prop37
 90
       50
102
RTVSPost2010PropOp37
 70
     1
102
RTVSPost2010Prop38
140
0.0
102
RTVSPost2010PropOp38
 70
     1
102
RTVSPost2010Prop39
140
1.0
102
RTVSPost2010PropOp39
 70
     1
102
RTVSPost2010Prop40
 90
        0
102
RTVSPost2010PropOp40
 70
     1
102
RTVSPost2010Prop41ColorIndex
 90
       18
102
RTVSPost2010Prop41ColorRGB
 90
        0
102
RTVSPost2010PropOp41
 70
     1
102
RTVSPost2010Prop42
 90
       50
102
RTVSPost2010PropOp42
 70
     1
102
RTVSPost2010Prop43
 90
        3
102
RTVSPost2010PropOp43
 70
     1
102
RTVSPost2010Prop44ColorIndex
 90
        5
102
RTVSPost2010Prop44ColorRGB
 90
      255
102
RTVSPost2010PropOp44
 70
     1
102
RTVSPost2010Prop45
280
     0
102
RTVSPost2010PropOp45
 70
     1
102
RTVSPost2010Prop46
 90
       50
102
RTVSPost2010PropOp46
 70
     1
102
RTVSPost2010Prop47
 90
       50
102
RTVSPost2010PropOp47
 70
     1
102
RTVSPost2010Prop48
 90
       50
102
RTVSPost2010PropOp48
 70
     1
102
RTVSPost2010Prop49
280
     0
102
RTVSPost2010PropOp49
 70
     1
102
RTVSPost2010Prop50
 90
       50
102
RTVSPost2010PropOp50
 70
     1
102
RTVSPost2010Prop51ColorIndex
 90
      256
102
RTVSPost2010Prop51ColorRGB
 90
-16777216
102
RTVSPost2010PropOp51
 70
     0
102
RTVSPost2010Prop52
140
1.0
102
RTVSPost2010PropOp52
 70
     0
102
RTVSPost2010Prop53
 90
        2
102
RTVSPost2010PropOp53
 70
     1
102
RTVSPost2010Prop54
  1
strokes_ogs.tif
102
RTVSPost2010PropOp54
 70
     1
102
RTVSPost2010Prop55
280
     0
102
RTVSPost2010PropOp55
 70
     1
102
RTVSPost2010Prop56
140
1.0
102
RTVSPost2010PropOp56
 70
     1
102
RTVSPost2010Prop57
140
1.0
102
RTVSPost2010PropOp57
 70
     1
  0
XRECORD
  5
83
102
{ACAD_REACTORS
330
82
102
}
330
82
100
AcDbXrecord
280
     1
102
RTVSPropertyOp0
 70
     1
102
RTVSPropertyOp1
 70
     1
102
RTVSPropertyOp2
 70
     1
102
RTVSPropertyOp3
 70
     1
102
RTVSPropertyOp4
 70
     1
102
RTVSPropertyOp5
 70
     1
102
RTVSPropertyOp6
 70
     1
102
RTVSPropertyOp7
 70
     1
102
RTVSPropertyOp8
 70
     1
102
RTVSPropertyOp9
 70
     1
102
RTVSPropertyOp10
 70
     1
102
RTVSPropertyOp11
 70
     1
102
RTVSPropertyOp12
 70
     1
102
RTVSPropertyOp13
 70
     1
102
RTVSPropertyOp14
 70
     1
102
RTVSPropertyOp15
 70
     1
102
RTVSPropertyOp16
 70
     1
102
RTVSPropertyOp17
 70
     1
102
RTVSPropertyOp18
 70
     1
102
RTVSPropertyOp19
 70
     1
102
RTVSPropertyOp20
 70
     1
102
RTVSPropertyOp21
 70
     1
102
RTVSPropertyOp22
 70
     1
102
RTVSPropertyOp23
 70
     1
102
RTVSPropertyOp24
 70
     1
102
RTVSPropertyOp25
 70
     1
102
RTVSPropertyOp26
 70
     1
102
RTVSPropertyOp27
 70
     1
102
RTVSPropertyOp28
 70
     1
102
RTVSPropertyOp29
 70
     1
102
RTVSPropertyOp30
 70
     1
102
RTVSPropertyOp31
 70
     1
102
RTVSPropertyOp32
 70
     1
102
RTVSPropertyOp33
 70
     1
102
RTVSPropertyOp34
 70
     1
102
RTVSPropertyOp35
 70
     1
102
RTVSPropertyOp36
 70
     1
102
RTVSPropertyOp37
 70
     1
102
RTVSPropertyOp38
 70
     1
102
RTVSPropertyOp39
 70
     1
102
RTVSPropertyOp40
 70
     1
102
RTVSPropertyOp41
 70
     1
102
RTVSPropertyOp42
 70
     1
102
RTVSPropertyOp43
 70
     1
102
RTVSPropertyOp44
 70
     1
102
RTVSPropertyOp45
 70
     1
102
RTVSPropertyOp46
 70
     1
102
RTVSPropertyOp47
 70
     1
102
RTVSPropertyOp48
 70
     1
102
RTVSPropertyOp49
 70
     1
102
RTVSPropertyOp50
 70
     1
102
RTVSPropertyOp51
 70
     0
102
RTVSPropertyOp52
 70
     0
102
RTVSPropertyOp53
 70
     1
102
RTVSPropertyOp54
 70
     1
102
RTVSPropertyOp55
 70
     1
102
RTVSPropertyOp56
 70
     1
102
RTVSPropertyOp57
 70
     1
102
RTVSPost2010Prop28
280
     0
102
RTVSPost2010PropOp28
 70
     1
102
RTVSPost2010Prop29
280
     1
102
RTVSPost2010PropOp29
 70
     1
102
RTVSPost2010Prop30
280
     1
102
RTVSPost2010PropOp30
 70
     1
102
RTVSPost2010Prop31
280
     0
102
RTVSPost2010PropOp31
 70
     1
102
RTVSPost2010Prop32
280
     0
102
RTVSPost2010PropOp32
 70
     1
102
RTVSPost2010Prop33
280
     0
102
RTVSPost2010PropOp33
 70
     1
102
RTVSPost2010Prop34
280
     0
102
RTVSPost2010PropOp34
 70
     1
102
RTVSPost2010Prop35
280
     0
102
RTVSPost2010PropOp35
 70
     1
102
RTVSPost2010Prop36
280
     0
102
RTVSPost2010PropOp36
 70
     1
102
RTVSPost2010Prop37
 90
       50
102
RTVSPost2010PropOp37
 70
     1
102
RTVSPost2010Prop38
140
0.0
102
RTVSPost2010PropOp38
 70
     1
102
RTVSPost2010Prop39
140
1.0
102
RTVSPost2010PropOp39
 70
     1
102
RTVSPost2010Prop40
 90
        0
102
RTVSPost2010PropOp40
 70
     1
102
RTVSPost2010Prop41ColorIndex
 90
       18
102
RTVSPost2010Prop41ColorRGB
 90
        0
102
RTVSPost2010PropOp41
 70
     1
102
RTVSPost2010Prop42
 90
       50
102
RTVSPost2010PropOp42
 70
     1
102
RTVSPost2010Prop43
 90
        3
102
RTVSPost2010PropOp43
 70
     1
102
RTVSPost2010Prop44ColorIndex
 90
        5
102
RTVSPost2010Prop44ColorRGB
 90
      255
102
RTVSPost2010PropOp44
 70
     1
102
RTVSPost2010Prop45
280
     0
102
RTVSPost2010PropOp45
 70
     1
102
RTVSPost2010Prop46
 90
       50
102
RTVSPost2010PropOp46
 70
     1
102
RTVSPost2010Prop47
 90
       50
102
RTVSPost2010PropOp47
 70
     1
102
RTVSPost2010Prop48
 90
       50
102
RTVSPost2010PropOp48
 70
     1
102
RTVSPost2010Prop49
280
     0
102
RTVSPost2010PropOp49
 70
     1
102
RTVSPost2010Prop50
 90
       50
102
RTVSPost2010PropOp50
 70
     1
102
RTVSPost2010Prop51ColorIndex
 90
      256
102
RTVSPost2010Prop51ColorRGB
 90
-16777216
102
RTVSPost2010PropOp51
 70
     0
102
RTVSPost2010Prop52
140
1.0
102
RTVSPost2010PropOp52
 70
     0
102
RTVSPost2010Prop53
 90
        2
102
RTVSPost2010PropOp53
 70
     1
102
RTVSPost2010Prop54
  1
strokes_ogs.tif
102
RTVSPost2010PropOp54
 70
     1
102
RTVSPost2010Prop55
280
     0
102
RTVSPost2010PropOp55
 70
     1
102
RTVSPost2010Prop56
140
1.0
102
RTVSPost2010PropOp56
 70
     1
102
RTVSPost2010Prop57
140
1.0
102
RTVSPost2010PropOp57
 70
     1
  0
XRECORD
  5
85
102
{ACAD_REACTORS
330
84
102
}
330
84
100
AcDbXrecord
280
     1
102
RTVSPropertyOp0
 70
     1
102
RTVSPropertyOp1
 70
     1
102
RTVSPropertyOp2
 70
     1
102
RTVSPropertyOp3
 70
     1
102
RTVSPropertyOp4
 70
     1
102
RTVSPropertyOp5
 70
     1
102
RTVSPropertyOp6
 70
     1
102
RTVSPropertyOp7
 70
     1
102
RTVSPropertyOp8
 70
     1
102
RTVSPropertyOp9
 70
     1
102
RTVSPropertyOp10
 70
     1
102
RTVSPropertyOp11
 70
     1
102
RTVSPropertyOp12
 70
     1
102
RTVSPropertyOp13
 70
     1
102
RTVSPropertyOp14
 70
     1
102
RTVSPropertyOp15
 70
     1
102
RTVSPropertyOp16
 70
     1
102
RTVSPropertyOp17
 70
     1
102
RTVSPropertyOp18
 70
     1
102
RTVSPropertyOp19
 70
     1
102
RTVSPropertyOp20
 70
     1
102
RTVSPropertyOp21
 70
     1
102
RTVSPropertyOp22
 70
     1
102
RTVSPropertyOp23
 70
     1
102
RTVSPropertyOp24
 70
     1
102
RTVSPropertyOp25
 70
     1
102
RTVSPropertyOp26
 70
     1
102
RTVSPropertyOp27
 70
     1
102
RTVSPropertyOp28
 70
     1
102
RTVSPropertyOp29
 70
     1
102
RTVSPropertyOp30
 70
     1
102
RTVSPropertyOp31
 70
     1
102
RTVSPropertyOp32
 70
     1
102
RTVSPropertyOp33
 70
     1
102
RTVSPropertyOp34
 70
     1
102
RTVSPropertyOp35
 70
     1
102
RTVSPropertyOp36
 70
     1
102
RTVSPropertyOp37
 70
     1
102
RTVSPropertyOp38
 70
     1
102
RTVSPropertyOp39
 70
     1
102
RTVSPropertyOp40
 70
     1
102
RTVSPropertyOp41
 70
     1
102
RTVSPropertyOp42
 70
     1
102
RTVSPropertyOp43
 70
     1
102
RTVSPropertyOp44
 70
     1
102
RTVSPropertyOp45
 70
     1
102
RTVSPropertyOp46
 70
     1
102
RTVSPropertyOp47
 70
     1
102
RTVSPropertyOp48
 70
     1
102
RTVSPropertyOp49
 70
     1
102
RTVSPropertyOp50
 70
     1
102
RTVSPropertyOp51
 70
     0
102
RTVSPropertyOp52
 70
     0
102
RTVSPropertyOp53
 70
     1
102
RTVSPropertyOp54
 70
     1
102
RTVSPropertyOp55
 70
     1
102
RTVSPropertyOp56
 70
     1
102
RTVSPropertyOp57
 70
     1
102
RTVSPost2010Prop28
280
     0
102
RTVSPost2010PropOp28
 70
     1
102
RTVSPost2010Prop29
280
     1
102
RTVSPost2010PropOp29
 70
     1
102
RTVSPost2010Prop30
280
     1
102
RTVSPost2010PropOp30
 70
     1
102
RTVSPost2010Prop31
280
     0
102
RTVSPost2010PropOp31
 70
     1
102
RTVSPost2010Prop32
280
     0
102
RTVSPost2010PropOp32
 70
     1
102
RTVSPost2010Prop33
280
     0
102
RTVSPost2010PropOp33
 70
     1
102
RTVSPost2010Prop34
280
     0
102
RTVSPost2010PropOp34
 70
     1
102
RTVSPost2010Prop35
280
     0
102
RTVSPost2010PropOp35
 70
     1
102
RTVSPost2010Prop36
280
     0
102
RTVSPost2010PropOp36
 70
     1
102
RTVSPost2010Prop37
 90
       50
102
RTVSPost2010PropOp37
 70
     1
102
RTVSPost2010Prop38
140
0.0
102
RTVSPost2010PropOp38
 70
     1
102
RTVSPost2010Prop39
140
1.0
102
RTVSPost2010PropOp39
 70
     1
102
RTVSPost2010Prop40
 90
        0
102
RTVSPost2010PropOp40
 70
     1
102
RTVSPost2010Prop41ColorIndex
 90
       18
102
RTVSPost2010Prop41ColorRGB
 90
        0
102
RTVSPost2010PropOp41
 70
     1
102
RTVSPost2010Prop42
 90
       50
102
RTVSPost2010PropOp42
 70
     1
102
RTVSPost2010Prop43
 90
        3
102
RTVSPost2010PropOp43
 70
     1
102
RTVSPost2010Prop44ColorIndex
 90
        5
102
RTVSPost2010Prop44ColorRGB
 90
      255
102
RTVSPost2010PropOp44
 70
     1
102
RTVSPost2010Prop45
280
     0
102
RTVSPost2010PropOp45
 70
     1
102
RTVSPost2010Prop46
 90
       50
102
RTVSPost2010PropOp46
 70
     1
102
RTVSPost2010Prop47
 90
       50
102
RTVSPost2010PropOp47
 70
     1
102
RTVSPost2010Prop48
 90
       50
102
RTVSPost2010PropOp48
 70
     1
102
RTVSPost2010Prop49
280
     0
102
RTVSPost2010PropOp49
 70
     1
102
RTVSPost2010Prop50
 90
       50
102
RTVSPost2010PropOp50
 70
     1
102
RTVSPost2010Prop51ColorIndex
 90
      256
102
RTVSPost2010Prop51ColorRGB
 90
-16777216
102
RTVSPost2010PropOp51
 70
     0
102
RTVSPost2010Prop52
140
1.0
102
RTVSPost2010PropOp52
 70
     0
102
RTVSPost2010Prop53
 90
        2
102
RTVSPost2010PropOp53
 70
     1
102
RTVSPost2010Prop54
  1
strokes_ogs.tif
102
RTVSPost2010PropOp54
 70
     1
102
RTVSPost2010Prop55
280
     0
102
RTVSPost2010PropOp55
 70
     1
102
RTVSPost2010Prop56
140
1.0
102
RTVSPost2010PropOp56
 70
     1
102
RTVSPost2010Prop57
140
1.0
102
RTVSPost2010PropOp57
 70
     1
  0
XRECORD
  5
8D
102
{ACAD_REACTORS
330
8C
102
}
330
8C
100
AcDbXrecord
280
     1
102
RTVSPropertyOp0
 70
     1
102
RTVSPropertyOp1
 70
     1
102
RTVSPropertyOp2
 70
     1
102
RTVSPropertyOp3
 70
     1
102
RTVSPropertyOp4
 70
     1
102
RTVSPropertyOp5
 70
     1
102
RTVSPropertyOp6
 70
     1
102
RTVSPropertyOp7
 70
     1
102
RTVSPropertyOp8
 70
     1
102
RTVSPropertyOp9
 70
     1
102
RTVSPropertyOp10
 70
     1
102
RTVSPropertyOp11
 70
     1
102
RTVSPropertyOp12
 70
     1
102
RTVSPropertyOp13
 70
     1
102
RTVSPropertyOp14
 70
     1
102
RTVSPropertyOp15
 70
     1
102
RTVSPropertyOp16
 70
     1
102
RTVSPropertyOp17
 70
     1
102
RTVSPropertyOp18
 70
     1
102
RTVSPropertyOp19
 70
     1
102
RTVSPropertyOp20
 70
     1
102
RTVSPropertyOp21
 70
     1
102
RTVSPropertyOp22
 70
     1
102
RTVSPropertyOp23
 70
     1
102
RTVSPropertyOp24
 70
     1
102
RTVSPropertyOp25
 70
     1
102
RTVSPropertyOp26
 70
     1
102
RTVSPropertyOp27
 70
     1
102
RTVSPropertyOp28
 70
     1
102
RTVSPropertyOp29
 70
     1
102
RTVSPropertyOp30
 70
     1
102
RTVSPropertyOp31
 70
     1
102
RTVSPropertyOp32
 70
     1
102
RTVSPropertyOp33
 70
     1
102
RTVSPropertyOp34
 70
     1
102
RTVSPropertyOp35
 70
     1
102
RTVSPropertyOp36
 70
     1
102
RTVSPropertyOp37
 70
     1
102
RTVSPropertyOp38
 70
     1
102
RTVSPropertyOp39
 70
     1
102
RTVSPropertyOp40
 70
     1
102
RTVSPropertyOp41
 70
     1
102
RTVSPropertyOp42
 70
     1
102
RTVSPropertyOp43
 70
     1
102
RTVSPropertyOp44
 70
     1
102
RTVSPropertyOp45
 70
     1
102
RTVSPropertyOp46
 70
     1
102
RTVSPropertyOp47
 70
     1
102
RTVSPropertyOp48
 70
     1
102
RTVSPropertyOp49
 70
     1
102
RTVSPropertyOp50
 70
     1
102
RTVSPropertyOp51
 70
     0
102
RTVSPropertyOp52
 70
     0
102
RTVSPropertyOp53
 70
     1
102
RTVSPropertyOp54
 70
     1
102
RTVSPropertyOp55
 70
     1
102
RTVSPropertyOp56
 70
     1
102
RTVSPropertyOp57
 70
     1
102
RTVSPost2010Prop28
280
     0
102
RTVSPost2010PropOp28
 70
     1
102
RTVSPost2010Prop29
280
     1
102
RTVSPost2010PropOp29
 70
     1
102
RTVSPost2010Prop30
280
     1
102
RTVSPost2010PropOp30
 70
     1
102
RTVSPost2010Prop31
280
     0
102
RTVSPost2010PropOp31
 70
     1
102
RTVSPost2010Prop32
280
     0
102
RTVSPost2010PropOp32
 70
     1
102
RTVSPost2010Prop33
280
     0
102
RTVSPost2010PropOp33
 70
     1
102
RTVSPost2010Prop34
280
     0
102
RTVSPost2010PropOp34
 70
     1
102
RTVSPost2010Prop35
280
     0
102
RTVSPost2010PropOp35
 70
     1
102
RTVSPost2010Prop36
280
     0
102
RTVSPost2010PropOp36
 70
     1
102
RTVSPost2010Prop37
 90
       50
102
RTVSPost2010PropOp37
 70
     1
102
RTVSPost2010Prop38
140
0.0
102
RTVSPost2010PropOp38
 70
     1
102
RTVSPost2010Prop39
140
1.0
102
RTVSPost2010PropOp39
 70
     1
102
RTVSPost2010Prop40
 90
        0
102
RTVSPost2010PropOp40
 70
     1
102
RTVSPost2010Prop41ColorIndex
 90
       18
102
RTVSPost2010Prop41ColorRGB
 90
        0
102
RTVSPost2010PropOp41
 70
     1
102
RTVSPost2010Prop42
 90
       50
102
RTVSPost2010PropOp42
 70
     1
102
RTVSPost2010Prop43
 90
        3
102
RTVSPost2010PropOp43
 70
     1
102
RTVSPost2010Prop44ColorIndex
 90
        5
102
RTVSPost2010Prop44ColorRGB
 90
      255
102
RTVSPost2010PropOp44
 70
     1
102
RTVSPost2010Prop45
280
     0
102
RTVSPost2010PropOp45
 70
     1
102
RTVSPost2010Prop46
 90
       50
102
RTVSPost2010PropOp46
 70
     1
102
RTVSPost2010Prop47
 90
       50
102
RTVSPost2010PropOp47
 70
     1
102
RTVSPost2010Prop48
 90
       50
102
RTVSPost2010PropOp48
 70
     1
102
RTVSPost2010Prop49
280
     0
102
RTVSPost2010PropOp49
 70
     1
102
RTVSPost2010Prop50
 90
       50
102
RTVSPost2010PropOp50
 70
     1
102
RTVSPost2010Prop51ColorIndex
 90
      256
102
RTVSPost2010Prop51ColorRGB
 90
-16777216
102
RTVSPost2010PropOp51
 70
     0
102
RTVSPost2010Prop52
140
1.0
102
RTVSPost2010PropOp52
 70
     0
102
RTVSPost2010Prop53
 90
        2
102
RTVSPost2010PropOp53
 70
     1
102
RTVSPost2010Prop54
  1
strokes_ogs.tif
102
RTVSPost2010PropOp54
 70
     1
102
RTVSPost2010Prop55
280
     0
102
RTVSPost2010PropOp55
 70
     1
102
RTVSPost2010Prop56
140
1.0
102
RTVSPost2010PropOp56
 70
     1
102
RTVSPost2010Prop57
140
1.0
102
RTVSPost2010PropOp57
 70
     1
  0
XRECORD
  5
71
102
{ACAD_REACTORS
330
70
102
}
330
70
100
AcDbXrecord
280
     1
102
RTVSPropertyOp0
 70
     1
102
RTVSPropertyOp1
 70
     1
102
RTVSPropertyOp2
 70
     1
102
RTVSPropertyOp3
 70
     1
102
RTVSPropertyOp4
 70
     1
102
RTVSPropertyOp5
 70
     1
102
RTVSPropertyOp6
 70
     1
102
RTVSPropertyOp7
 70
     1
102
RTVSPropertyOp8
 70
     1
102
RTVSPropertyOp9
 70
     1
102
RTVSPropertyOp10
 70
     1
102
RTVSPropertyOp11
 70
     1
102
RTVSPropertyOp12
 70
     1
102
RTVSPropertyOp13
 70
     1
102
RTVSPropertyOp14
 70
     1
102
RTVSPropertyOp15
 70
     1
102
RTVSPropertyOp16
 70
     1
102
RTVSPropertyOp17
 70
     1
102
RTVSPropertyOp18
 70
     1
102
RTVSPropertyOp19
 70
     1
102
RTVSPropertyOp20
 70
     1
102
RTVSPropertyOp21
 70
     1
102
RTVSPropertyOp22
 70
     1
102
RTVSPropertyOp23
 70
     1
102
RTVSPropertyOp24
 70
     1
102
RTVSPropertyOp25
 70
     1
102
RTVSPropertyOp26
 70
     1
102
RTVSPropertyOp27
 70
     1
102
RTVSPropertyOp28
 70
     1
102
RTVSPropertyOp29
 70
     1
102
RTVSPropertyOp30
 70
     1
102
RTVSPropertyOp31
 70
     1
102
RTVSPropertyOp32
 70
     1
102
RTVSPropertyOp33
 70
     1
102
RTVSPropertyOp34
 70
     1
102
RTVSPropertyOp35
 70
     1
102
RTVSPropertyOp36
 70
     1
102
RTVSPropertyOp37
 70
     1
102
RTVSPropertyOp38
 70
     1
102
RTVSPropertyOp39
 70
     1
102
RTVSPropertyOp40
 70
     1
102
RTVSPropertyOp41
 70
     1
102
RTVSPropertyOp42
 70
     1
102
RTVSPropertyOp43
 70
     1
102
RTVSPropertyOp44
 70
     1
102
RTVSPropertyOp45
 70
     1
102
RTVSPropertyOp46
 70
     1
102
RTVSPropertyOp47
 70
     1
102
RTVSPropertyOp48
 70
     1
102
RTVSPropertyOp49
 70
     1
102
RTVSPropertyOp50
 70
     1
102
RTVSPropertyOp51
 70
     0
102
RTVSPropertyOp52
 70
     0
102
RTVSPropertyOp53
 70
     1
102
RTVSPropertyOp54
 70
     1
102
RTVSPropertyOp55
 70
     1
102
RTVSPropertyOp56
 70
     1
102
RTVSPropertyOp57
 70
     1
102
RTVSPost2010Prop28
280
     0
102
RTVSPost2010PropOp28
 70
     1
102
RTVSPost2010Prop29
280
     1
102
RTVSPost2010PropOp29
 70
     1
102
RTVSPost2010Prop30
280
     1
102
RTVSPost2010PropOp30
 70
     1
102
RTVSPost2010Prop31
280
     0
102
RTVSPost2010PropOp31
 70
     1
102
RTVSPost2010Prop32
280
     0
102
RTVSPost2010PropOp32
 70
     1
102
RTVSPost2010Prop33
280
     0
102
RTVSPost2010PropOp33
 70
     1
102
RTVSPost2010Prop34
280
     0
102
RTVSPost2010PropOp34
 70
     1
102
RTVSPost2010Prop35
280
     0
102
RTVSPost2010PropOp35
 70
     1
102
RTVSPost2010Prop36
280
     0
102
RTVSPost2010PropOp36
 70
     1
102
RTVSPost2010Prop37
 90
       50
102
RTVSPost2010PropOp37
 70
     1
102
RTVSPost2010Prop38
140
0.0
102
RTVSPost2010PropOp38
 70
     1
102
RTVSPost2010Prop39
140
1.0
102
RTVSPost2010PropOp39
 70
     1
102
RTVSPost2010Prop40
 90
        0
102
RTVSPost2010PropOp40
 70
     1
102
RTVSPost2010Prop41ColorIndex
 90
       18
102
RTVSPost2010Prop41ColorRGB
 90
        0
102
RTVSPost2010PropOp41
 70
     1
102
RTVSPost2010Prop42
 90
       50
102
RTVSPost2010PropOp42
 70
     1
102
RTVSPost2010Prop43
 90
        3
102
RTVSPost2010PropOp43
 70
     1
102
RTVSPost2010Prop44ColorIndex
 90
        5
102
RTVSPost2010Prop44ColorRGB
 90
      255
102
RTVSPost2010PropOp44
 70
     1
102
RTVSPost2010Prop45
280
     0
102
RTVSPost2010PropOp45
 70
     1
102
RTVSPost2010Prop46
 90
       50
102
RTVSPost2010PropOp46
 70
     1
102
RTVSPost2010Prop47
 90
       50
102
RTVSPost2010PropOp47
 70
     1
102
RTVSPost2010Prop48
 90
       50
102
RTVSPost2010PropOp48
 70
     1
102
RTVSPost2010Prop49
280
     0
102
RTVSPost2010PropOp49
 70
     1
102
RTVSPost2010Prop50
 90
       50
102
RTVSPost2010PropOp50
 70
     1
102
RTVSPost2010Prop51ColorIndex
 90
      256
102
RTVSPost2010Prop51ColorRGB
 90
-16777216
102
RTVSPost2010PropOp51
 70
     0
102
RTVSPost2010Prop52
140
1.0
102
RTVSPost2010PropOp52
 70
     0
102
RTVSPost2010Prop53
 90
        2
102
RTVSPost2010PropOp53
 70
     1
102
RTVSPost2010Prop54
  1
strokes_ogs.tif
102
RTVSPost2010PropOp54
 70
     1
102
RTVSPost2010Prop55
280
     0
102
RTVSPost2010PropOp55
 70
     1
102
RTVSPost2010Prop56
140
1.0
102
RTVSPost2010PropOp56
 70
     1
102
RTVSPost2010Prop57
140
1.0
102
RTVSPost2010PropOp57
 70
     1
  0
XRECORD
  5
73
102
{ACAD_REACTORS
330
72
102
}
330
72
100
AcDbXrecord
280
     1
102
RTVSPropertyOp0
 70
     1
102
RTVSPropertyOp1
 70
     1
102
RTVSPropertyOp2
 70
     1
102
RTVSPropertyOp3
 70
     1
102
RTVSPropertyOp4
 70
     1
102
RTVSPropertyOp5
 70
     1
102
RTVSPropertyOp6
 70
     1
102
RTVSPropertyOp7
 70
     1
102
RTVSPropertyOp8
 70
     1
102
RTVSPropertyOp9
 70
     1
102
RTVSPropertyOp10
 70
     1
102
RTVSPropertyOp11
 70
     1
102
RTVSPropertyOp12
 70
     1
102
RTVSPropertyOp13
 70
     1
102
RTVSPropertyOp14
 70
     1
102
RTVSPropertyOp15
 70
     1
102
RTVSPropertyOp16
 70
     1
102
RTVSPropertyOp17
 70
     1
102
RTVSPropertyOp18
 70
     1
102
RTVSPropertyOp19
 70
     1
102
RTVSPropertyOp20
 70
     1
102
RTVSPropertyOp21
 70
     1
102
RTVSPropertyOp22
 70
     1
102
RTVSPropertyOp23
 70
     1
102
RTVSPropertyOp24
 70
     1
102
RTVSPropertyOp25
 70
     1
102
RTVSPropertyOp26
 70
     1
102
RTVSPropertyOp27
 70
     1
102
RTVSPropertyOp28
 70
     1
102
RTVSPropertyOp29
 70
     1
102
RTVSPropertyOp30
 70
     1
102
RTVSPropertyOp31
 70
     1
102
RTVSPropertyOp32
 70
     1
102
RTVSPropertyOp33
 70
     1
102
RTVSPropertyOp34
 70
     1
102
RTVSPropertyOp35
 70
     1
102
RTVSPropertyOp36
 70
     1
102
RTVSPropertyOp37
 70
     1
102
RTVSPropertyOp38
 70
     1
102
RTVSPropertyOp39
 70
     1
102
RTVSPropertyOp40
 70
     1
102
RTVSPropertyOp41
 70
     1
102
RTVSPropertyOp42
 70
     1
102
RTVSPropertyOp43
 70
     1
102
RTVSPropertyOp44
 70
     1
102
RTVSPropertyOp45
 70
     1
102
RTVSPropertyOp46
 70
     1
102
RTVSPropertyOp47
 70
     1
102
RTVSPropertyOp48
 70
     1
102
RTVSPropertyOp49
 70
     1
102
RTVSPropertyOp50
 70
     1
102
RTVSPropertyOp51
 70
     0
102
RTVSPropertyOp52
 70
     0
102
RTVSPropertyOp53
 70
     1
102
RTVSPropertyOp54
 70
     1
102
RTVSPropertyOp55
 70
     1
102
RTVSPropertyOp56
 70
     1
102
RTVSPropertyOp57
 70
     1
102
RTVSPost2010Prop28
280
     0
102
RTVSPost2010PropOp28
 70
     1
102
RTVSPost2010Prop29
280
     1
102
RTVSPost2010PropOp29
 70
     1
102
RTVSPost2010Prop30
280
     1
102
RTVSPost2010PropOp30
 70
     1
102
RTVSPost2010Prop31
280
     0
102
RTVSPost2010PropOp31
 70
     1
102
RTVSPost2010Prop32
280
     0
102
RTVSPost2010PropOp32
 70
     1
102
RTVSPost2010Prop33
280
     0
102
RTVSPost2010PropOp33
 70
     1
102
RTVSPost2010Prop34
280
     0
102
RTVSPost2010PropOp34
 70
     1
102
RTVSPost2010Prop35
280
     0
102
RTVSPost2010PropOp35
 70
     1
102
RTVSPost2010Prop36
280
     0
102
RTVSPost2010PropOp36
 70
     1
102
RTVSPost2010Prop37
 90
       50
102
RTVSPost2010PropOp37
 70
     1
102
RTVSPost2010Prop38
140
0.0
102
RTVSPost2010PropOp38
 70
     1
102
RTVSPost2010Prop39
140
1.0
102
RTVSPost2010PropOp39
 70
     1
102
RTVSPost2010Prop40
 90
        0
102
RTVSPost2010PropOp40
 70
     1
102
RTVSPost2010Prop41ColorIndex
 90
       18
102
RTVSPost2010Prop41ColorRGB
 90
        0
102
RTVSPost2010PropOp41
 70
     1
102
RTVSPost2010Prop42
 90
       50
102
RTVSPost2010PropOp42
 70
     1
102
RTVSPost2010Prop43
 90
        3
102
RTVSPost2010PropOp43
 70
     1
102
RTVSPost2010Prop44ColorIndex
 90
        5
102
RTVSPost2010Prop44ColorRGB
 90
      255
102
RTVSPost2010PropOp44
 70
     1
102
RTVSPost2010Prop45
280
     0
102
RTVSPost2010PropOp45
 70
     1
102
RTVSPost2010Prop46
 90
       50
102
RTVSPost2010PropOp46
 70
     1
102
RTVSPost2010Prop47
 90
       50
102
RTVSPost2010PropOp47
 70
     1
102
RTVSPost2010Prop48
 90
       50
102
RTVSPost2010PropOp48
 70
     1
102
RTVSPost2010Prop49
280
     0
102
RTVSPost2010PropOp49
 70
     1
102
RTVSPost2010Prop50
 90
       50
102
RTVSPost2010PropOp50
 70
     1
102
RTVSPost2010Prop51ColorIndex
 90
      256
102
RTVSPost2010Prop51ColorRGB
 90
-16777216
102
RTVSPost2010PropOp51
 70
     0
102
RTVSPost2010Prop52
140
1.0
102
RTVSPost2010PropOp52
 70
     0
102
RTVSPost2010Prop53
 90
        2
102
RTVSPost2010PropOp53
 70
     1
102
RTVSPost2010Prop54
  1
strokes_ogs.tif
102
RTVSPost2010PropOp54
 70
     1
102
RTVSPost2010Prop55
280
     0
102
RTVSPost2010PropOp55
 70
     1
102
RTVSPost2010Prop56
140
1.0
102
RTVSPost2010PropOp56
 70
     1
102
RTVSPost2010Prop57
140
1.0
102
RTVSPost2010PropOp57
 70
     1
  0
XRECORD
  5
75
102
{ACAD_REACTORS
330
74
102
}
330
74
100
AcDbXrecord
280
     1
102
RTVSPropertyOp0
 70
     1
102
RTVSPropertyOp1
 70
     1
102
RTVSPropertyOp2
 70
     1
102
RTVSPropertyOp3
 70
     1
102
RTVSPropertyOp4
 70
     1
102
RTVSPropertyOp5
 70
     1
102
RTVSPropertyOp6
 70
     1
102
RTVSPropertyOp7
 70
     1
102
RTVSPropertyOp8
 70
     1
102
RTVSPropertyOp9
 70
     1
102
RTVSPropertyOp10
 70
     1
102
RTVSPropertyOp11
 70
     1
102
RTVSPropertyOp12
 70
     1
102
RTVSPropertyOp13
 70
     1
102
RTVSPropertyOp14
 70
     1
102
RTVSPropertyOp15
 70
     1
102
RTVSPropertyOp16
 70
     1
102
RTVSPropertyOp17
 70
     1
102
RTVSPropertyOp18
 70
     1
102
RTVSPropertyOp19
 70
     1
102
RTVSPropertyOp20
 70
     1
102
RTVSPropertyOp21
 70
     1
102
RTVSPropertyOp22
 70
     1
102
RTVSPropertyOp23
 70
     1
102
RTVSPropertyOp24
 70
     1
102
RTVSPropertyOp25
 70
     1
102
RTVSPropertyOp26
 70
     1
102
RTVSPropertyOp27
 70
     1
102
RTVSPropertyOp28
 70
     1
102
RTVSPropertyOp29
 70
     1
102
RTVSPropertyOp30
 70
     1
102
RTVSPropertyOp31
 70
     1
102
RTVSPropertyOp32
 70
     1
102
RTVSPropertyOp33
 70
     1
102
RTVSPropertyOp34
 70
     1
102
RTVSPropertyOp35
 70
     1
102
RTVSPropertyOp36
 70
     1
102
RTVSPropertyOp37
 70
     1
102
RTVSPropertyOp38
 70
     1
102
RTVSPropertyOp39
 70
     1
102
RTVSPropertyOp40
 70
     1
102
RTVSPropertyOp41
 70
     1
102
RTVSPropertyOp42
 70
     1
102
RTVSPropertyOp43
 70
     1
102
RTVSPropertyOp44
 70
     1
102
RTVSPropertyOp45
 70
     1
102
RTVSPropertyOp46
 70
     1
102
RTVSPropertyOp47
 70
     1
102
RTVSPropertyOp48
 70
     1
102
RTVSPropertyOp49
 70
     1
102
RTVSPropertyOp50
 70
     1
102
RTVSPropertyOp51
 70
     0
102
RTVSPropertyOp52
 70
     0
102
RTVSPropertyOp53
 70
     1
102
RTVSPropertyOp54
 70
     1
102
RTVSPropertyOp55
 70
     1
102
RTVSPropertyOp56
 70
     1
102
RTVSPropertyOp57
 70
     1
102
RTVSPost2010Prop28
280
     0
102
RTVSPost2010PropOp28
 70
     1
102
RTVSPost2010Prop29
280
     1
102
RTVSPost2010PropOp29
 70
     1
102
RTVSPost2010Prop30
280
     1
102
RTVSPost2010PropOp30
 70
     1
102
RTVSPost2010Prop31
280
     0
102
RTVSPost2010PropOp31
 70
     1
102
RTVSPost2010Prop32
280
     0
102
RTVSPost2010PropOp32
 70
     1
102
RTVSPost2010Prop33
280
     0
102
RTVSPost2010PropOp33
 70
     1
102
RTVSPost2010Prop34
280
     0
102
RTVSPost2010PropOp34
 70
     1
102
RTVSPost2010Prop35
280
     0
102
RTVSPost2010PropOp35
 70
     1
102
RTVSPost2010Prop36
280
     0
102
RTVSPost2010PropOp36
 70
     1
102
RTVSPost2010Prop37
 90
       50
102
RTVSPost2010PropOp37
 70
     1
102
RTVSPost2010Prop38
140
0.0
102
RTVSPost2010PropOp38
 70
     1
102
RTVSPost2010Prop39
140
1.0
102
RTVSPost2010PropOp39
 70
     1
102
RTVSPost2010Prop40
 90
        0
102
RTVSPost2010PropOp40
 70
     1
102
RTVSPost2010Prop41ColorIndex
 90
       18
102
RTVSPost2010Prop41ColorRGB
 90
        0
102
RTVSPost2010PropOp41
 70
     1
102
RTVSPost2010Prop42
 90
       50
102
RTVSPost2010PropOp42
 70
     1
102
RTVSPost2010Prop43
 90
        3
102
RTVSPost2010PropOp43
 70
     1
102
RTVSPost2010Prop44ColorIndex
 90
        5
102
RTVSPost2010Prop44ColorRGB
 90
      255
102
RTVSPost2010PropOp44
 70
     1
102
RTVSPost2010Prop45
280
     0
102
RTVSPost2010PropOp45
 70
     1
102
RTVSPost2010Prop46
 90
       50
102
RTVSPost2010PropOp46
 70
     1
102
RTVSPost2010Prop47
 90
       50
102
RTVSPost2010PropOp47
 70
     1
102
RTVSPost2010Prop48
 90
       50
102
RTVSPost2010PropOp48
 70
     1
102
RTVSPost2010Prop49
280
     0
102
RTVSPost2010PropOp49
 70
     1
102
RTVSPost2010Prop50
 90
       50
102
RTVSPost2010PropOp50
 70
     1
102
RTVSPost2010Prop51ColorIndex
 90
      256
102
RTVSPost2010Prop51ColorRGB
 90
-16777216
102
RTVSPost2010PropOp51
 70
     0
102
RTVSPost2010Prop52
140
1.0
102
RTVSPost2010PropOp52
 70
     0
102
RTVSPost2010Prop53
 90
        2
102
RTVSPost2010PropOp53
 70
     1
102
RTVSPost2010Prop54
  1
strokes_ogs.tif
102
RTVSPost2010PropOp54
 70
     1
102
RTVSPost2010Prop55
280
     0
102
RTVSPost2010PropOp55
 70
     1
102
RTVSPost2010Prop56
140
1.0
102
RTVSPost2010PropOp56
 70
     1
102
RTVSPost2010Prop57
140
1.0
102
RTVSPost2010PropOp57
 70
     1
  0
XRECORD
  5
77
102
{ACAD_REACTORS
330
76
102
}
330
76
100
AcDbXrecord
280
     1
102
RTVSPropertyOp0
 70
     1
102
RTVSPropertyOp1
 70
     1
102
RTVSPropertyOp2
 70
     1
102
RTVSPropertyOp3
 70
     1
102
RTVSPropertyOp4
 70
     1
102
RTVSPropertyOp5
 70
     1
102
RTVSPropertyOp6
 70
     1
102
RTVSPropertyOp7
 70
     1
102
RTVSPropertyOp8
 70
     1
102
RTVSPropertyOp9
 70
     1
102
RTVSPropertyOp10
 70
     1
102
RTVSPropertyOp11
 70
     1
102
RTVSPropertyOp12
 70
     1
102
RTVSPropertyOp13
 70
     1
102
RTVSPropertyOp14
 70
     1
102
RTVSPropertyOp15
 70
     1
102
RTVSPropertyOp16
 70
     1
102
RTVSPropertyOp17
 70
     1
102
RTVSPropertyOp18
 70
     1
102
RTVSPropertyOp19
 70
     1
102
RTVSPropertyOp20
 70
     1
102
RTVSPropertyOp21
 70
     1
102
RTVSPropertyOp22
 70
     1
102
RTVSPropertyOp23
 70
     1
102
RTVSPropertyOp24
 70
     1
102
RTVSPropertyOp25
 70
     1
102
RTVSPropertyOp26
 70
     1
102
RTVSPropertyOp27
 70
     1
102
RTVSPropertyOp28
 70
     1
102
RTVSPropertyOp29
 70
     1
102
RTVSPropertyOp30
 70
     1
102
RTVSPropertyOp31
 70
     1
102
RTVSPropertyOp32
 70
     1
102
RTVSPropertyOp33
 70
     1
102
RTVSPropertyOp34
 70
     1
102
RTVSPropertyOp35
 70
     1
102
RTVSPropertyOp36
 70
     1
102
RTVSPropertyOp37
 70
     1
102
RTVSPropertyOp38
 70
     1
102
RTVSPropertyOp39
 70
     1
102
RTVSPropertyOp40
 70
     1
102
RTVSPropertyOp41
 70
     1
102
RTVSPropertyOp42
 70
     1
102
RTVSPropertyOp43
 70
     1
102
RTVSPropertyOp44
 70
     1
102
RTVSPropertyOp45
 70
     1
102
RTVSPropertyOp46
 70
     1
102
RTVSPropertyOp47
 70
     1
102
RTVSPropertyOp48
 70
     1
102
RTVSPropertyOp49
 70
     1
102
RTVSPropertyOp50
 70
     1
102
RTVSPropertyOp51
 70
     0
102
RTVSPropertyOp52
 70
     0
102
RTVSPropertyOp53
 70
     1
102
RTVSPropertyOp54
 70
     1
102
RTVSPropertyOp55
 70
     1
102
RTVSPropertyOp56
 70
     1
102
RTVSPropertyOp57
 70
     1
102
RTVSPost2010Prop28
280
     0
102
RTVSPost2010PropOp28
 70
     1
102
RTVSPost2010Prop29
280
     1
102
RTVSPost2010PropOp29
 70
     1
102
RTVSPost2010Prop30
280
     1
102
RTVSPost2010PropOp30
 70
     1
102
RTVSPost2010Prop31
280
     0
102
RTVSPost2010PropOp31
 70
     1
102
RTVSPost2010Prop32
280
     0
102
RTVSPost2010PropOp32
 70
     1
102
RTVSPost2010Prop33
280
     0
102
RTVSPost2010PropOp33
 70
     1
102
RTVSPost2010Prop34
280
     0
102
RTVSPost2010PropOp34
 70
     1
102
RTVSPost2010Prop35
280
     0
102
RTVSPost2010PropOp35
 70
     1
102
RTVSPost2010Prop36
280
     0
102
RTVSPost2010PropOp36
 70
     1
102
RTVSPost2010Prop37
 90
       50
102
RTVSPost2010PropOp37
 70
     1
102
RTVSPost2010Prop38
140
0.0
102
RTVSPost2010PropOp38
 70
     1
102
RTVSPost2010Prop39
140
1.0
102
RTVSPost2010PropOp39
 70
     1
102
RTVSPost2010Prop40
 90
        0
102
RTVSPost2010PropOp40
 70
     1
102
RTVSPost2010Prop41ColorIndex
 90
       18
102
RTVSPost2010Prop41ColorRGB
 90
        0
102
RTVSPost2010PropOp41
 70
     1
102
RTVSPost2010Prop42
 90
       50
102
RTVSPost2010PropOp42
 70
     1
102
RTVSPost2010Prop43
 90
        3
102
RTVSPost2010PropOp43
 70
     1
102
RTVSPost2010Prop44ColorIndex
 90
        5
102
RTVSPost2010Prop44ColorRGB
 90
      255
102
RTVSPost2010PropOp44
 70
     1
102
RTVSPost2010Prop45
280
     0
102
RTVSPost2010PropOp45
 70
     1
102
RTVSPost2010Prop46
 90
       50
102
RTVSPost2010PropOp46
 70
     1
102
RTVSPost2010Prop47
 90
       50
102
RTVSPost2010PropOp47
 70
     1
102
RTVSPost2010Prop48
 90
       50
102
RTVSPost2010PropOp48
 70
     1
102
RTVSPost2010Prop49
280
     0
102
RTVSPost2010PropOp49
 70
     1
102
RTVSPost2010Prop50
 90
       50
102
RTVSPost2010PropOp50
 70
     1
102
RTVSPost2010Prop51ColorIndex
 90
      256
102
RTVSPost2010Prop51ColorRGB
 90
-16777216
102
RTVSPost2010PropOp51
 70
     0
102
RTVSPost2010Prop52
140
1.0
102
RTVSPost2010PropOp52
 70
     0
102
RTVSPost2010Prop53
 90
        2
102
RTVSPost2010PropOp53
 70
     1
102
RTVSPost2010Prop54
  1
strokes_ogs.tif
102
RTVSPost2010PropOp54
 70
     1
102
RTVSPost2010Prop55
280
     0
102
RTVSPost2010PropOp55
 70
     1
102
RTVSPost2010Prop56
140
1.0
102
RTVSPost2010PropOp56
 70
     1
102
RTVSPost2010Prop57
140
1.0
102
RTVSPost2010PropOp57
 70
     1
  0
XRECORD
  5
8B
102
{ACAD_REACTORS
330
8A
102
}
330
8A
100
AcDbXrecord
280
     1
102
RTVSPropertyOp0
 70
     1
102
RTVSPropertyOp1
 70
     1
102
RTVSPropertyOp2
 70
     1
102
RTVSPropertyOp3
 70
     1
102
RTVSPropertyOp4
 70
     1
102
RTVSPropertyOp5
 70
     1
102
RTVSPropertyOp6
 70
     1
102
RTVSPropertyOp7
 70
     1
102
RTVSPropertyOp8
 70
     1
102
RTVSPropertyOp9
 70
     1
102
RTVSPropertyOp10
 70
     1
102
RTVSPropertyOp11
 70
     1
102
RTVSPropertyOp12
 70
     1
102
RTVSPropertyOp13
 70
     1
102
RTVSPropertyOp14
 70
     1
102
RTVSPropertyOp15
 70
     1
102
RTVSPropertyOp16
 70
     1
102
RTVSPropertyOp17
 70
     1
102
RTVSPropertyOp18
 70
     1
102
RTVSPropertyOp19
 70
     1
102
RTVSPropertyOp20
 70
     1
102
RTVSPropertyOp21
 70
     1
102
RTVSPropertyOp22
 70
     1
102
RTVSPropertyOp23
 70
     1
102
RTVSPropertyOp24
 70
     1
102
RTVSPropertyOp25
 70
     1
102
RTVSPropertyOp26
 70
     1
102
RTVSPropertyOp27
 70
     1
102
RTVSPropertyOp28
 70
     1
102
RTVSPropertyOp29
 70
     1
102
RTVSPropertyOp30
 70
     1
102
RTVSPropertyOp31
 70
     1
102
RTVSPropertyOp32
 70
     1
102
RTVSPropertyOp33
 70
     1
102
RTVSPropertyOp34
 70
     1
102
RTVSPropertyOp35
 70
     1
102
RTVSPropertyOp36
 70
     1
102
RTVSPropertyOp37
 70
     1
102
RTVSPropertyOp38
 70
     1
102
RTVSPropertyOp39
 70
     1
102
RTVSPropertyOp40
 70
     1
102
RTVSPropertyOp41
 70
     1
102
RTVSPropertyOp42
 70
     1
102
RTVSPropertyOp43
 70
     1
102
RTVSPropertyOp44
 70
     1
102
RTVSPropertyOp45
 70
     1
102
RTVSPropertyOp46
 70
     1
102
RTVSPropertyOp47
 70
     1
102
RTVSPropertyOp48
 70
     1
102
RTVSPropertyOp49
 70
     1
102
RTVSPropertyOp50
 70
     1
102
RTVSPropertyOp51
 70
     0
102
RTVSPropertyOp52
 70
     0
102
RTVSPropertyOp53
 70
     1
102
RTVSPropertyOp54
 70
     1
102
RTVSPropertyOp55
 70
     1
102
RTVSPropertyOp56
 70
     1
102
RTVSPropertyOp57
 70
     1
102
RTVSPost2010Prop28
280
     0
102
RTVSPost2010PropOp28
 70
     1
102
RTVSPost2010Prop29
280
     1
102
RTVSPost2010PropOp29
 70
     1
102
RTVSPost2010Prop30
280
     1
102
RTVSPost2010PropOp30
 70
     1
102
RTVSPost2010Prop31
280
     0
102
RTVSPost2010PropOp31
 70
     1
102
RTVSPost2010Prop32
280
     0
102
RTVSPost2010PropOp32
 70
     1
102
RTVSPost2010Prop33
280
     0
102
RTVSPost2010PropOp33
 70
     1
102
RTVSPost2010Prop34
280
     0
102
RTVSPost2010PropOp34
 70
     1
102
RTVSPost2010Prop35
280
     0
102
RTVSPost2010PropOp35
 70
     1
102
RTVSPost2010Prop36
280
     0
102
RTVSPost2010PropOp36
 70
     1
102
RTVSPost2010Prop37
 90
       50
102
RTVSPost2010PropOp37
 70
     1
102
RTVSPost2010Prop38
140
0.0
102
RTVSPost2010PropOp38
 70
     1
102
RTVSPost2010Prop39
140
1.0
102
RTVSPost2010PropOp39
 70
     1
102
RTVSPost2010Prop40
 90
        0
102
RTVSPost2010PropOp40
 70
     1
102
RTVSPost2010Prop41ColorIndex
 90
       18
102
RTVSPost2010Prop41ColorRGB
 90
        0
102
RTVSPost2010PropOp41
 70
     1
102
RTVSPost2010Prop42
 90
       50
102
RTVSPost2010PropOp42
 70
     1
102
RTVSPost2010Prop43
 90
        3
102
RTVSPost2010PropOp43
 70
     1
102
RTVSPost2010Prop44ColorIndex
 90
        5
102
RTVSPost2010Prop44ColorRGB
 90
      255
102
RTVSPost2010PropOp44
 70
     1
102
RTVSPost2010Prop45
280
     0
102
RTVSPost2010PropOp45
 70
     1
102
RTVSPost2010Prop46
 90
       50
102
RTVSPost2010PropOp46
 70
     1
102
RTVSPost2010Prop47
 90
       50
102
RTVSPost2010PropOp47
 70
     1
102
RTVSPost2010Prop48
 90
       50
102
RTVSPost2010PropOp48
 70
     1
102
RTVSPost2010Prop49
280
     0
102
RTVSPost2010PropOp49
 70
     1
102
RTVSPost2010Prop50
 90
       50
102
RTVSPost2010PropOp50
 70
     1
102
RTVSPost2010Prop51ColorIndex
 90
      256
102
RTVSPost2010Prop51ColorRGB
 90
-16777216
102
RTVSPost2010PropOp51
 70
     0
102
RTVSPost2010Prop52
140
1.0
102
RTVSPost2010PropOp52
 70
     0
102
RTVSPost2010Prop53
 90
        2
102
RTVSPost2010PropOp53
 70
     1
102
RTVSPost2010Prop54
  1
strokes_ogs.tif
102
RTVSPost2010PropOp54
 70
     1
102
RTVSPost2010Prop55
280
     0
102
RTVSPost2010PropOp55
 70
     1
102
RTVSPost2010Prop56
140
1.0
102
RTVSPost2010PropOp56
 70
     1
102
RTVSPost2010Prop57
140
1.0
102
RTVSPost2010PropOp57
 70
     1
  0
XRECORD
  5
81
102
{ACAD_REACTORS
330
80
102
}
330
80
100
AcDbXrecord
280
     1
102
RTVSPropertyOp0
 70
     1
102
RTVSPropertyOp1
 70
     1
102
RTVSPropertyOp2
 70
     1
102
RTVSPropertyOp3
 70
     1
102
RTVSPropertyOp4
 70
     1
102
RTVSPropertyOp5
 70
     1
102
RTVSPropertyOp6
 70
     1
102
RTVSPropertyOp7
 70
     1
102
RTVSPropertyOp8
 70
     1
102
RTVSPropertyOp9
 70
     1
102
RTVSPropertyOp10
 70
     1
102
RTVSPropertyOp11
 70
     1
102
RTVSPropertyOp12
 70
     1
102
RTVSPropertyOp13
 70
     1
102
RTVSPropertyOp14
 70
     1
102
RTVSPropertyOp15
 70
     1
102
RTVSPropertyOp16
 70
     1
102
RTVSPropertyOp17
 70
     1
102
RTVSPropertyOp18
 70
     1
102
RTVSPropertyOp19
 70
     1
102
RTVSPropertyOp20
 70
     1
102
RTVSPropertyOp21
 70
     1
102
RTVSPropertyOp22
 70
     1
102
RTVSPropertyOp23
 70
     1
102
RTVSPropertyOp24
 70
     1
102
RTVSPropertyOp25
 70
     1
102
RTVSPropertyOp26
 70
     1
102
RTVSPropertyOp27
 70
     1
102
RTVSPropertyOp28
 70
     1
102
RTVSPropertyOp29
 70
     1
102
RTVSPropertyOp30
 70
     1
102
RTVSPropertyOp31
 70
     1
102
RTVSPropertyOp32
 70
     1
102
RTVSPropertyOp33
 70
     1
102
RTVSPropertyOp34
 70
     1
102
RTVSPropertyOp35
 70
     1
102
RTVSPropertyOp36
 70
     1
102
RTVSPropertyOp37
 70
     1
102
RTVSPropertyOp38
 70
     1
102
RTVSPropertyOp39
 70
     1
102
RTVSPropertyOp40
 70
     1
102
RTVSPropertyOp41
 70
     1
102
RTVSPropertyOp42
 70
     1
102
RTVSPropertyOp43
 70
     1
102
RTVSPropertyOp44
 70
     1
102
RTVSPropertyOp45
 70
     1
102
RTVSPropertyOp46
 70
     1
102
RTVSPropertyOp47
 70
     1
102
RTVSPropertyOp48
 70
     1
102
RTVSPropertyOp49
 70
     1
102
RTVSPropertyOp50
 70
     1
102
RTVSPropertyOp51
 70
     0
102
RTVSPropertyOp52
 70
     0
102
RTVSPropertyOp53
 70
     1
102
RTVSPropertyOp54
 70
     1
102
RTVSPropertyOp55
 70
     1
102
RTVSPropertyOp56
 70
     1
102
RTVSPropertyOp57
 70
     1
102
RTVSPost2010Prop28
280
     0
102
RTVSPost2010PropOp28
 70
     1
102
RTVSPost2010Prop29
280
     1
102
RTVSPost2010PropOp29
 70
     1
102
RTVSPost2010Prop30
280
     1
102
RTVSPost2010PropOp30
 70
     1
102
RTVSPost2010Prop31
280
     0
102
RTVSPost2010PropOp31
 70
     1
102
RTVSPost2010Prop32
280
     0
102
RTVSPost2010PropOp32
 70
     1
102
RTVSPost2010Prop33
280
     0
102
RTVSPost2010PropOp33
 70
     1
102
RTVSPost2010Prop34
280
     0
102
RTVSPost2010PropOp34
 70
     1
102
RTVSPost2010Prop35
280
     0
102
RTVSPost2010PropOp35
 70
     1
102
RTVSPost2010Prop36
280
     0
102
RTVSPost2010PropOp36
 70
     1
102
RTVSPost2010Prop37
 90
       50
102
RTVSPost2010PropOp37
 70
     1
102
RTVSPost2010Prop38
140
0.0
102
RTVSPost2010PropOp38
 70
     1
102
RTVSPost2010Prop39
140
1.0
102
RTVSPost2010PropOp39
 70
     1
102
RTVSPost2010Prop40
 90
        0
102
RTVSPost2010PropOp40
 70
     1
102
RTVSPost2010Prop41ColorIndex
 90
       18
102
RTVSPost2010Prop41ColorRGB
 90
        0
102
RTVSPost2010PropOp41
 70
     1
102
RTVSPost2010Prop42
 90
       50
102
RTVSPost2010PropOp42
 70
     1
102
RTVSPost2010Prop43
 90
        3
102
RTVSPost2010PropOp43
 70
     1
102
RTVSPost2010Prop44ColorIndex
 90
        5
102
RTVSPost2010Prop44ColorRGB
 90
      255
102
RTVSPost2010PropOp44
 70
     1
102
RTVSPost2010Prop45
280
     0
102
RTVSPost2010PropOp45
 70
     1
102
RTVSPost2010Prop46
 90
       50
102
RTVSPost2010PropOp46
 70
     1
102
RTVSPost2010Prop47
 90
       50
102
RTVSPost2010PropOp47
 70
     1
102
RTVSPost2010Prop48
 90
       50
102
RTVSPost2010PropOp48
 70
     1
102
RTVSPost2010Prop49
280
     0
102
RTVSPost2010PropOp49
 70
     1
102
RTVSPost2010Prop50
 90
       50
102
RTVSPost2010PropOp50
 70
     1
102
RTVSPost2010Prop51ColorIndex
 90
      256
102
RTVSPost2010Prop51ColorRGB
 90
-16777216
102
RTVSPost2010PropOp51
 70
     0
102
RTVSPost2010Prop52
140
1.0
102
RTVSPost2010PropOp52
 70
     0
102
RTVSPost2010Prop53
 90
        2
102
RTVSPost2010PropOp53
 70
     1
102
RTVSPost2010Prop54
  1
strokes_ogs.tif
102
RTVSPost2010PropOp54
 70
     1
102
RTVSPost2010Prop55
280
     0
102
RTVSPost2010PropOp55
 70
     1
102
RTVSPost2010Prop56
140
1.0
102
RTVSPost2010PropOp56
 70
     1
102
RTVSPost2010Prop57
140
1.0
102
RTVSPost2010PropOp57
 70
     1
  0
XRECORD
  5
89
102
{ACAD_REACTORS
330
88
102
}
330
88
100
AcDbXrecord
280
     1
102
RTVSPropertyOp0
 70
     1
102
RTVSPropertyOp1
 70
     1
102
RTVSPropertyOp2
 70
     1
102
RTVSPropertyOp3
 70
     1
102
RTVSPropertyOp4
 70
     1
102
RTVSPropertyOp5
 70
     1
102
RTVSPropertyOp6
 70
     1
102
RTVSPropertyOp7
 70
     1
102
RTVSPropertyOp8
 70
     1
102
RTVSPropertyOp9
 70
     1
102
RTVSPropertyOp10
 70
     1
102
RTVSPropertyOp11
 70
     1
102
RTVSPropertyOp12
 70
     1
102
RTVSPropertyOp13
 70
     1
102
RTVSPropertyOp14
 70
     1
102
RTVSPropertyOp15
 70
     1
102
RTVSPropertyOp16
 70
     1
102
RTVSPropertyOp17
 70
     1
102
RTVSPropertyOp18
 70
     1
102
RTVSPropertyOp19
 70
     1
102
RTVSPropertyOp20
 70
     1
102
RTVSPropertyOp21
 70
     1
102
RTVSPropertyOp22
 70
     1
102
RTVSPropertyOp23
 70
     1
102
RTVSPropertyOp24
 70
     1
102
RTVSPropertyOp25
 70
     1
102
RTVSPropertyOp26
 70
     1
102
RTVSPropertyOp27
 70
     1
102
RTVSPropertyOp28
 70
     1
102
RTVSPropertyOp29
 70
     1
102
RTVSPropertyOp30
 70
     1
102
RTVSPropertyOp31
 70
     1
102
RTVSPropertyOp32
 70
     1
102
RTVSPropertyOp33
 70
     1
102
RTVSPropertyOp34
 70
     1
102
RTVSPropertyOp35
 70
     1
102
RTVSPropertyOp36
 70
     1
102
RTVSPropertyOp37
 70
     1
102
RTVSPropertyOp38
 70
     1
102
RTVSPropertyOp39
 70
     1
102
RTVSPropertyOp40
 70
     1
102
RTVSPropertyOp41
 70
     1
102
RTVSPropertyOp42
 70
     1
102
RTVSPropertyOp43
 70
     1
102
RTVSPropertyOp44
 70
     1
102
RTVSPropertyOp45
 70
     1
102
RTVSPropertyOp46
 70
     1
102
RTVSPropertyOp47
 70
     1
102
RTVSPropertyOp48
 70
     1
102
RTVSPropertyOp49
 70
     1
102
RTVSPropertyOp50
 70
     1
102
RTVSPropertyOp51
 70
     0
102
RTVSPropertyOp52
 70
     0
102
RTVSPropertyOp53
 70
     1
102
RTVSPropertyOp54
 70
     1
102
RTVSPropertyOp55
 70
     1
102
RTVSPropertyOp56
 70
     1
102
RTVSPropertyOp57
 70
     1
102
RTVSPost2010Prop28
280
     0
102
RTVSPost2010PropOp28
 70
     1
102
RTVSPost2010Prop29
280
     1
102
RTVSPost2010PropOp29
 70
     1
102
RTVSPost2010Prop30
280
     1
102
RTVSPost2010PropOp30
 70
     1
102
RTVSPost2010Prop31
280
     0
102
RTVSPost2010PropOp31
 70
     1
102
RTVSPost2010Prop32
280
     0
102
RTVSPost2010PropOp32
 70
     1
102
RTVSPost2010Prop33
280
     0
102
RTVSPost2010PropOp33
 70
     1
102
RTVSPost2010Prop34
280
     0
102
RTVSPost2010PropOp34
 70
     1
102
RTVSPost2010Prop35
280
     0
102
RTVSPost2010PropOp35
 70
     1
102
RTVSPost2010Prop36
280
     0
102
RTVSPost2010PropOp36
 70
     1
102
RTVSPost2010Prop37
 90
       50
102
RTVSPost2010PropOp37
 70
     1
102
RTVSPost2010Prop38
140
0.0
102
RTVSPost2010PropOp38
 70
     1
102
RTVSPost2010Prop39
140
1.0
102
RTVSPost2010PropOp39
 70
     1
102
RTVSPost2010Prop40
 90
        0
102
RTVSPost2010PropOp40
 70
     1
102
RTVSPost2010Prop41ColorIndex
 90
       18
102
RTVSPost2010Prop41ColorRGB
 90
        0
102
RTVSPost2010PropOp41
 70
     1
102
RTVSPost2010Prop42
 90
       50
102
RTVSPost2010PropOp42
 70
     1
102
RTVSPost2010Prop43
 90
        3
102
RTVSPost2010PropOp43
 70
     1
102
RTVSPost2010Prop44ColorIndex
 90
        5
102
RTVSPost2010Prop44ColorRGB
 90
      255
102
RTVSPost2010PropOp44
 70
     1
102
RTVSPost2010Prop45
280
     0
102
RTVSPost2010PropOp45
 70
     1
102
RTVSPost2010Prop46
 90
       50
102
RTVSPost2010PropOp46
 70
     1
102
RTVSPost2010Prop47
 90
       50
102
RTVSPost2010PropOp47
 70
     1
102
RTVSPost2010Prop48
 90
       50
102
RTVSPost2010PropOp48
 70
     1
102
RTVSPost2010Prop49
280
     0
102
RTVSPost2010PropOp49
 70
     1
102
RTVSPost2010Prop50
 90
       50
102
RTVSPost2010PropOp50
 70
     1
102
RTVSPost2010Prop51ColorIndex
 90
      256
102
RTVSPost2010Prop51ColorRGB
 90
-16777216
102
RTVSPost2010PropOp51
 70
     0
102
RTVSPost2010Prop52
140
1.0
102
RTVSPost2010PropOp52
 70
     0
102
RTVSPost2010Prop53
 90
        2
102
RTVSPost2010PropOp53
 70
     1
102
RTVSPost2010Prop54
  1
strokes_ogs.tif
102
RTVSPost2010PropOp54
 70
     1
102
RTVSPost2010Prop55
280
     0
102
RTVSPost2010PropOp55
 70
     1
102
RTVSPost2010Prop56
140
1.0
102
RTVSPost2010PropOp56
 70
     1
102
RTVSPost2010Prop57
140
1.0
102
RTVSPost2010PropOp57
 70
     1
  0
ENDSEC
  0
EOF
