  0
SECTION
  2
HEADER
  9
$ACADVER
  1
AC1018
  9
$ACADMAINTVER
 70
     0
  9
$DWGCODEPAGE
  3
ANSI_936
  9
$INSBASE
 10
0.0
 20
0.0
 30
0.0
  9
$EXTMIN
 10
2378.392576861542
 20
-1991.999998232084
 30
0.0
  9
$EXTMAX
 10
4545.573337667715
 20
-1157.000013955705
 30
0.0
  9
$LIMMIN
 10
0.0
 20
0.0
  9
$LIMMAX
 10
12.0
 20
9.0
  9
$ORTHOMODE
 70
     0
  9
$REGENMODE
 70
     1
  9
$FILLMODE
 70
     1
  9
$QTEXTMODE
 70
     0
  9
$MIRRTEXT
 70
     1
  9
$LTSCALE
 40
1.0
  9
$ATTMODE
 70
     1
  9
$TEXTSIZE
 40
0.2
  9
$TRACEWID
 40
0.05
  9
$TEXTSTYLE
  7
Standard
  9
$CLAYER
  8
0
  9
$CELTYPE
  6
ByLayer
  9
$CECOLOR
 62
   256
  9
$CELTSCALE
 40
1.0
  9
$DISPSILH
 70
     0
  9
$DIMSCALE
 40
1.0
  9
$DIMASZ
 40
0.18
  9
$DIMEXO
 40
0.0625
  9
$DIMDLI
 40
0.38
  9
$DIMRND
 40
0.0
  9
$DIMDLE
 40
0.0
  9
$DIMEXE
 40
0.18
  9
$DIMTP
 40
0.0
  9
$DIMTM
 40
0.0
  9
$DIMTXT
 40
0.18
  9
$DIMCEN
 40
0.09
  9
$DIMTSZ
 40
0.0
  9
$DIMTOL
 70
     0
  9
$DIMLIM
 70
     0
  9
$DIMTIH
 70
     1
  9
$DIMTOH
 70
     1
  9
$DIMSE1
 70
     0
  9
$DIMSE2
 70
     0
  9
$DIMTAD
 70
     0
  9
$DIMZIN
 70
     0
  9
$DIMBLK
  1

  9
$DIMASO
 70
     1
  9
$DIMSHO
 70
     1
  9
$DIMPOST
  1

  9
$DIMAPOST
  1

  9
$DIMALT
 70
     0
  9
$DIMALTD
 70
     2
  9
$DIMALTF
 40
25.4
  9
$DIMLFAC
 40
1.0
  9
$DIMTOFL
 70
     0
  9
$DIMTVP
 40
0.0
  9
$DIMTIX
 70
     0
  9
$DIMSOXD
 70
     0
  9
$DIMSAH
 70
     0
  9
$DIMBLK1
  1

  9
$DIMBLK2
  1

  9
$DIMSTYLE
  2
Standard
  9
$DIMCLRD
 70
     0
  9
$DIMCLRE
 70
     0
  9
$DIMCLRT
 70
     0
  9
$DIMTFAC
 40
1.0
  9
$DIMGAP
 40
0.09
  9
$DIMJUST
 70
     0
  9
$DIMSD1
 70
     0
  9
$DIMSD2
 70
     0
  9
$DIMTOLJ
 70
     1
  9
$DIMTZIN
 70
     0
  9
$DIMALTZ
 70
     0
  9
$DIMALTTZ
 70
     0
  9
$DIMUPT
 70
     0
  9
$DIMDEC
 70
     4
  9
$DIMTDEC
 70
     4
  9
$DIMALTU
 70
     2
  9
$DIMALTTD
 70
     2
  9
$DIMTXSTY
  7
Standard
  9
$DIMAUNIT
 70
     0
  9
$DIMADEC
 70
     0
  9
$DIMALTRND
 40
0.0
  9
$DIMAZIN
 70
     0
  9
$DIMDSEP
 70
    46
  9
$DIMATFIT
 70
     3
  9
$DIMFRAC
 70
     0
  9
$DIMLDRBLK
  1

  9
$DIMLUNIT
 70
     2
  9
$DIMLWD
 70
    -2
  9
$DIMLWE
 70
    -2
  9
$DIMTMOVE
 70
     2
  9
$LUNITS
 70
     2
  9
$LUPREC
 70
     3
  9
$SKETCHINC
 40
0.1
  9
$FILLETRAD
 40
0.5
  9
$AUNITS
 70
     0
  9
$AUPREC
 70
     0
  9
$MENU
  1
.
  9
$ELEVATION
 40
0.0
  9
$PELEVATION
 40
0.0
  9
$THICKNESS
 40
0.0
  9
$LIMCHECK
 70
     0
  9
$CHAMFERA
 40
0.5
  9
$CHAMFERB
 40
0.5
  9
$CHAMFERC
 40
1.0
  9
$CHAMFERD
 40
0.0
  9
$SKPOLY
 70
     0
  9
$TDCREATE
 40
2458254.398196308
  9
$TDUCREATE
 40
2458254.064862974
  9
$TDUPDATE
 40
2458254.398196401
  9
$TDUUPDATE
 40
2458254.064863067
  9
$TDINDWG
 40
0.0000000116
  9
$TDUSRTIMER
 40
0.0000000116
  9
$USRTIMER
 70
     1
  9
$ANGBASE
 50
0.0
  9
$ANGDIR
 70
     0
  9
$PDMODE
 70
     0
  9
$PDSIZE
 40
0.0
  9
$PLINEWID
 40
0.0
  9
$SPLFRAME
 70
     0
  9
$SPLINETYPE
 70
     6
  9
$SPLINESEGS
 70
     8
  9
$HANDSEED
  5
C8
  9
$SURFTAB1
 70
     6
  9
$SURFTAB2
 70
     6
  9
$SURFTYPE
 70
     6
  9
$SURFU
 70
     6
  9
$SURFV
 70
     6
  9
$UCSBASE
  2

  9
$UCSNAME
  2

  9
$UCSORG
 10
0.0
 20
0.0
 30
0.0
  9
$UCSXDIR
 10
1.0
 20
0.0
 30
0.0
  9
$UCSYDIR
 10
0.0
 20
1.0
 30
0.0
  9
$UCSORTHOREF
  2

  9
$UCSORTHOVIEW
 70
     0
  9
$UCSORGTOP
 10
0.0
 20
0.0
 30
0.0
  9
$UCSORGBOTTOM
 10
0.0
 20
0.0
 30
0.0
  9
$UCSORGLEFT
 10
0.0
 20
0.0
 30
0.0
  9
$UCSORGRIGHT
 10
0.0
 20
0.0
 30
0.0
  9
$UCSORGFRONT
 10
0.0
 20
0.0
 30
0.0
  9
$UCSORGBACK
 10
0.0
 20
0.0
 30
0.0
  9
$PUCSBASE
  2

  9
$PUCSNAME
  2

  9
$PUCSORG
 10
0.0
 20
0.0
 30
0.0
  9
$PUCSXDIR
 10
1.0
 20
0.0
 30
0.0
  9
$PUCSYDIR
 10
0.0
 20
1.0
 30
0.0
  9
$PUCSORTHOREF
  2

  9
$PUCSORTHOVIEW
 70
     0
  9
$PUCSORGTOP
 10
0.0
 20
0.0
 30
0.0
  9
$PUCSORGBOTTOM
 10
0.0
 20
0.0
 30
0.0
  9
$PUCSORGLEFT
 10
0.0
 20
0.0
 30
0.0
  9
$PUCSORGRIGHT
 10
0.0
 20
0.0
 30
0.0
  9
$PUCSORGFRONT
 10
0.0
 20
0.0
 30
0.0
  9
$PUCSORGBACK
 10
0.0
 20
0.0
 30
0.0
  9
$USERI1
 70
     0
  9
$USERI2
 70
     0
  9
$USERI3
 70
     0
  9
$USERI4
 70
     0
  9
$USERI5
 70
     0
  9
$USERR1
 40
0.0
  9
$USERR2
 40
0.0
  9
$USERR3
 40
0.0
  9
$USERR4
 40
0.0
  9
$USERR5
 40
0.0
  9
$WORLDVIEW
 70
     1
  9
$SHADEDGE
 70
     3
  9
$SHADEDIF
 70
    70
  9
$TILEMODE
 70
     1
  9
$MAXACTVP
 70
    64
  9
$PINSBASE
 10
0.0
 20
0.0
 30
0.0
  9
$PLIMCHECK
 70
     0
  9
$PEXTMIN
 10
1.000000000000000E+20
 20
1.000000000000000E+20
 30
1.000000000000000E+20
  9
$PEXTMAX
 10
-1.000000000000000E+20
 20
-1.000000000000000E+20
 30
-1.000000000000000E+20
  9
$PLIMMIN
 10
0.0
 20
0.0
  9
$PLIMMAX
 10
12.0
 20
9.0
  9
$UNITMODE
 70
     0
  9
$VISRETAIN
 70
     1
  9
$PLINEGEN
 70
     0
  9
$PSLTSCALE
 70
     1
  9
$TREEDEPTH
 70
  3020
  9
$CMLSTYLE
  2
Standard
  9
$CMLJUST
 70
     0
  9
$CMLSCALE
 40
1.0
  9
$PROXYGRAPHICS
 70
     1
  9
$MEASUREMENT
 70
     0
  9
$CELWEIGHT
370
    -1
  9
$ENDCAPS
280
     0
  9
$JOINSTYLE
280
     0
  9
$LWDISPLAY
290
     0
  9
$INSUNITS
 70
     4
  9
$HYPERLINKBASE
  1

  9
$STYLESHEET
  1

  9
$XEDIT
290
     1
  9
$CEPSNTYPE
380
     0
  9
$PSTYLEMODE
290
     1
  9
$FINGERPRINTGUID
  2
{455742EF-DCB0-40A2-A991-48549D0BA98F}
  9
$VERSIONGUID
  2
{FAEB1C32-E019-11D5-929B-00C0DF256EC4}
  9
$EXTNAMES
290
     1
  9
$PSVPSCALE
 40
0.0
  9
$OLESTARTUP
290
     0
  9
$SORTENTS
280
   127
  9
$INDEXCTL
280
     0
  9
$HIDETEXT
280
     1
  9
$XCLIPFRAME
290
     0
  9
$HALOGAP
280
     0
  9
$OBSCOLOR
 70
   257
  9
$OBSLTYPE
280
     0
  9
$INTERSECTIONDISPLAY
280
     0
  9
$INTERSECTIONCOLOR
 70
   257
  9
$DIMASSOC
280
     2
  9
$PROJECTNAME
  1

  0
ENDSEC
  0
SECTION
  2
CLASSES
  0
CLASS
  1
ACDBDICTIONARYWDFLT
  2
AcDbDictionaryWithDefault
  3
ObjectDBX Classes
 90
        0
 91
        4
280
     0
281
     0
  0
CLASS
  1
VISUALSTYLE
  2
AcDbVisualStyle
  3
ObjectDBX Classes
 90
     4095
 91
        4
280
     0
281
     0
  0
CLASS
  1
MATERIAL
  2
AcDbMaterial
  3
ObjectDBX Classes
 90
     1153
 91
        4
280
     0
281
     0
  0
CLASS
  1
SCALE
  2
AcDbScale
  3
ObjectDBX Classes
 90
     1153
 91
        4
280
     0
281
     0
  0
CLASS
  1
SUN
  2
AcDbSun
  3
SCENEOE
 90
     1153
 91
        4
280
     0
281
     0
  0
CLASS
  1
DICTIONARYVAR
  2
AcDbDictionaryVar
  3
ObjectDBX Classes
 90
        0
 91
        4
280
     0
281
     0
  0
ENDSEC
  0
SECTION
  2
TABLES
  0
TABLE
  2
VPORT
  5
8
330
0
100
AcDbSymbolTable
 70
     1
  0
VPORT
  5
29
330
8
100
AcDbSymbolTableRecord
100
AcDbViewportTableRecord
  2
*Active
 70
     0
 10
0.0
 20
0.0
 11
1.0
 21
1.0
 12
3461.982957264629
 22
-1574.500006093894
 13
0.0
 23
0.0
 14
0.5
 24
0.5
 15
0.5
 25
0.5
 16
0.0
 26
0.0
 36
1.0
 17
0.0
 27
0.0
 37
0.0
 40
851.6999839619067
 41
2.595426109719365
 42
50.0
 43
0.0
 44
0.0
 50
0.0
 51
0.0
 71
     0
 72
   100
 73
     1
 74
     3
 75
     0
 76
     0
 77
     0
 78
     0
281
     0
 65
     1
110
0.0
120
0.0
130
0.0
111
1.0
121
0.0
131
0.0
112
0.0
122
1.0
132
0.0
 79
     0
146
0.0
  0
ENDTAB
  0
TABLE
  2
LTYPE
  5
5
330
0
100
AcDbSymbolTable
 70
     1
  0
LTYPE
  5
14
330
5
100
AcDbSymbolTableRecord
100
AcDbLinetypeTableRecord
  2
ByBlock
 70
     0
  3

 72
    65
 73
     0
 40
0.0
  0
LTYPE
  5
15
330
5
100
AcDbSymbolTableRecord
100
AcDbLinetypeTableRecord
  2
ByLayer
 70
     0
  3

 72
    65
 73
     0
 40
0.0
  0
LTYPE
  5
16
330
5
100
AcDbSymbolTableRecord
100
AcDbLinetypeTableRecord
  2
Continuous
 70
     0
  3
Solid line
 72
    65
 73
     0
 40
0.0
  0
ENDTAB
  0
TABLE
  2
LAYER
  5
2
330
0
100
AcDbSymbolTable
 70
     2
  0
LAYER
  5
10
330
2
100
AcDbSymbolTableRecord
100
AcDbLayerTableRecord
  2
0
 70
     0
 62
     7
  6
Continuous
370
    -3
390
F
  0
LAYER
  5
62
330
2
100
AcDbSymbolTableRecord
100
AcDbLayerTableRecord
  2
EGC111 EFC011$2D
 70
     0
 62
     1
420
 16711680
  6
Continuous
370
    -3
390
F
  0
ENDTAB
  0
TABLE
  2
STYLE
  5
3
330
0
100
AcDbSymbolTable
 70
     1
  0
STYLE
  5
11
330
3
100
AcDbSymbolTableRecord
100
AcDbTextStyleTableRecord
  2
Standard
 70
     0
 40
0.0
 41
1.0
 50
0.0
 71
     0
 42
0.2
  3
txt
  4

  0
ENDTAB
  0
TABLE
  2
VIEW
  5
6
330
0
100
AcDbSymbolTable
 70
     0
  0
ENDTAB
  0
TABLE
  2
UCS
  5
7
330
0
100
AcDbSymbolTable
 70
     0
  0
ENDTAB
  0
TABLE
  2
APPID
  5
9
330
0
100
AcDbSymbolTable
 70
     1
  0
APPID
  5
12
330
9
100
AcDbSymbolTableRecord
100
AcDbRegAppTableRecord
  2
ACAD
 70
     0
  0
ENDTAB
  0
TABLE
  2
DIMSTYLE
  5
A
330
0
100
AcDbSymbolTable
 70
     1
100
AcDbDimStyleTable
  0
DIMSTYLE
105
27
330
A
100
AcDbSymbolTableRecord
100
AcDbDimStyleTableRecord
  2
Standard
 70
     0
178
     0
340
11
  0
ENDTAB
  0
TABLE
  2
BLOCK_RECORD
  5
1
330
0
100
AcDbSymbolTable
 70
     1
  0
BLOCK_RECORD
  5
1F
330
1
100
AcDbSymbolTableRecord
100
AcDbBlockTableRecord
  2
*Model_Space
340
22
  0
BLOCK_RECORD
  5
1B
330
1
100
AcDbSymbolTableRecord
100
AcDbBlockTableRecord
  2
*Paper_Space
340
1E
  0
BLOCK_RECORD
  5
23
330
1
100
AcDbSymbolTableRecord
100
AcDbBlockTableRecord
  2
*Paper_Space0
340
26
  0
ENDTAB
  0
ENDSEC
  0
SECTION
  2
BLOCKS
  0
BLOCK
  5
20
330
1F
100
AcDbEntity
  8
0
100
AcDbBlockBegin
  2
*Model_Space
 70
     0
 10
0.0
 20
0.0
 30
0.0
  3
*Model_Space
  1
*Model_Space
  0
ENDBLK
  5
21
330
1F
100
AcDbEntity
  8
0
100
AcDbBlockEnd
  0
BLOCK
  5
1C
330
1B
100
AcDbEntity
 67
     1
  8
0
100
AcDbBlockBegin
  2
*Paper_Space
 70
     0
 10
0.0
 20
0.0
 30
0.0
  3
*Paper_Space
  1
*Paper_Space
  0
ENDBLK
  5
1D
330
1B
100
AcDbEntity
 67
     1
  8
0
100
AcDbBlockEnd
  0
BLOCK
  5
24
330
23
100
AcDbEntity
  8
0
100
AcDbBlockBegin
  2
*Paper_Space0
 70
     0
 10
0.0
 20
0.0
 30
0.0
  3
*Paper_Space0
  1
*Paper_Space0
  0
ENDBLK
  5
25
330
23
100
AcDbEntity
  8
0
100
AcDbBlockEnd
  0
ENDSEC
  0
SECTION
  2
ENTITIES
  0
SPLINE
  5
63
330
1F
100
AcDbEntity
  8
EGC111 EFC011$2D
100
AcDbSpline
210
0.0
220
0.0
230
1.0
 70
    12
 71
     2
 72
     8
 73
     5
 74
     0
 42
0.000000001
 43
0.0000000001
 12
1.0
 22
0.0
 32
0.0
 13
1.0
 23
0.0
 33
0.0
 40
0.0
 40
0.0
 40
0.0
 40
293.5810161323151
 40
293.5810161323151
 40
301.1541140261742
 40
301.1541140261742
 40
301.1541140261742
 10
4545.57332149077
 20
-1327.000014058657
 30
0.0
 41
1.0
 10
4398.782331722143
 20
-1327.000014058657
 30
0.0
 41
1.0
 10
4251.991341953515
 20
-1327.000014058657
 30
0.0
 41
1.0
 10
4247.606616082748
 20
-1327.00001592435
 30
0.0
 41
0.8073847116401826
 10
4246.274797032636
 20
-1322.822447375595
 30
0.0
 41
1.0
  0
SPLINE
  5
64
330
1F
100
AcDbEntity
  8
EGC111 EFC011$2D
100
AcDbSpline
210
0.0
220
0.0
230
1.0
 70
     8
 71
     2
 72
     8
 73
     5
 74
     0
 42
0.000000001
 43
0.0000000001
 12
1.0
 22
0.0
 32
0.0
 13
1.0
 23
0.0
 33
0.0
 40
0.0
 40
0.0
 40
0.0
 40
0.0478705454843578
 40
0.0478705454843578
 40
0.0883199658946126
 40
0.0883199658946126
 40
0.0883199658946126
 10
4319.458865558413
 20
-1327.000014058657
 30
0.0
 10
4319.43493028567
 20
-1327.000014619971
 30
0.0
 10
4319.410995012926
 20
-1327.000015181284
 30
0.0
 10
4319.431219723129
 20
-1327.000015742598
 30
0.0
 10
4319.451444433333
 20
-1327.000016303911
 30
0.0
  0
SPLINE
  5
65
330
1F
100
AcDbEntity
  8
EGC111 EFC011$2D
100
AcDbSpline
210
0.0
220
0.0
230
1.0
 70
     8
 71
     2
 72
     8
 73
     5
 74
     0
 42
0.000000001
 43
0.0000000001
 12
1.0
 22
0.0
 32
0.0
 13
1.0
 23
0.0
 33
0.0
 40
-0.0390708919788096
 40
-0.0390708919788096
 40
-0.0390708919788096
 40
0.0
 40
0.0
 40
0.0506354660668933
 40
0.0506354660668933
 40
0.0506354660668933
 10
4317.693479617711
 20
-1327.000016303911
 30
0.0
 10
4317.713015063704
 20
-1327.000015742598
 30
0.0
 10
4317.732550509698
 20
-1327.000015181284
 30
0.0
 10
4317.707232776668
 20
-1327.000014619971
 30
0.0
 10
4317.681915043639
 20
-1327.000014058657
 30
0.0
  0
SPLINE
  5
66
330
1F
100
AcDbEntity
  8
EGC111 EFC011$2D
100
AcDbSpline
210
0.0
220
0.0
230
1.0
 70
     8
 71
     2
 72
     8
 73
     5
 74
     0
 42
0.000000001
 43
0.0000000001
 12
1.0
 22
0.0
 32
0.0
 13
1.0
 23
0.0
 33
0.0
 40
3.774155114740728
 40
3.774155114740728
 40
3.774155114740728
 40
5.674747796826574
 40
5.674747796826574
 40
5.69067447789935
 40
5.69067447789935
 40
5.69067447789935
 10
4246.269008050982
 20
-1322.803617467293
 30
0.0
 10
4245.964486302507
 20
-1321.846299005899
 30
0.0
 10
4245.659964554032
 20
-1320.888980544506
 30
0.0
 10
4245.657285035329
 20
-1320.880633572538
 30
0.0
 10
4245.654605516625
 20
-1320.87228660057
 30
0.0
  0
SPLINE
  5
67
330
1F
100
AcDbEntity
  8
EGC111 EFC011$2D
100
AcDbSpline
210
0.0
220
0.0
230
1.0
 70
    12
 71
     3
 72
   110
 73
   106
 74
     0
 42
0.000000001
 43
0.0000000001
 12
1.0
 22
0.0
 32
0.0
 13
1.0
 23
0.0
 33
0.0
 40
0.0
 40
0.0
 40
0.0
 40
0.0
 40
6.469661982525397
 40
6.469661982525397
 40
6.469661982525397
 40
662.3822578955844
 40
662.3822578955844
 40
662.3822578955844
 40
669.9684713846642
 40
669.9684713846642
 40
669.9684713846642
 40
715.08081727778
 40
715.08081727778
 40
715.08081727778
 40
775.9319515379316
 40
775.9319515379316
 40
775.9319515379316
 40
776.215136438007
 40
776.215136438007
 40
776.215136438007
 40
981.3639632148615
 40
981.3639632148615
 40
981.3639632148615
 40
1644.217942603556
 40
1644.217942603556
 40
1644.217942603556
 40
1649.217943052606
 40
1649.217943052606
 40
1649.217943052606
 40
1649.70560367375
 40
1649.70560367375
 40
1649.70560367375
 40
1656.964403924876
 40
1656.964403924876
 40
1656.964403924876
 40
1855.40762527197
 40
1855.40762527197
 40
1855.40762527197
 40
1867.530160697348
 40
1867.530160697348
 40
1867.530160697348
 40
2259.239405445276
 40
2259.239405445276
 40
2259.239405445276
 40
2259.48165514321
 40
2259.48165514321
 40
2259.48165514321
 40
2259.723904841145
 40
2259.723904841145
 40
2259.723904841145
 40
2265.214365179972
 40
2265.214365179972
 40
2265.214365179972
 40
2270.7048255188
 40
2270.7048255188
 40
2270.7048255188
 40
2283.584989259631
 40
2283.584989259631
 40
2283.584989259631
 40
2285.959738727513
 40
2285.959738727513
 40
2285.959738727513
 40
2315.099351169852
 40
2315.099351169852
 40
2315.099351169852
 40
2316.259970752631
 40
2316.259970752631
 40
2316.259970752631
 40
2317.511984096383
 40
2317.511984096383
 40
2317.511984096383
 40
2318.657314602337
 40
2318.657314602337
 40
2318.657314602337
 40
2318.945146234854
 40
2318.945146234854
 40
2318.945146234854
 40
2319.881998828911
 40
2319.881998828911
 40
2319.881998828911
 40
2323.216780944008
 40
2323.216780944008
 40
2323.216780944008
 40
2328.407359274253
 40
2328.407359274253
 40
2328.407359274253
 40
2335.255143615298
 40
2335.255143615298
 40
2335.255143615298
 40
2343.488669815492
 40
2343.488669815492
 40
2343.488669815492
 40
2352.77423097539
 40
2352.77423097539
 40
2352.77423097539
 40
2362.719475968405
 40
2362.719475968405
 40
2362.719475968405
 40
2365.278095293591
 40
2365.278095293591
 40
2365.278095293591
 40
2370.000795008887
 40
2370.000795008887
 40
2370.000795008887
 40
2715.749562976706
 40
2715.749562976706
 40
2715.749562976706
 40
2715.749562976706
 10
4255.675902251494
 20
-1327.000014060337
 30
0.0
 41
1.0
 10
4253.478549488877
 20
-1327.750756859602
 30
0.0
 41
0.865277431834412
 10
4252.177770321228
 20
-1329.674281611467
 30
0.0
 41
0.865277431834412
 10
4252.299297678794
 20
-1331.993161732429
 30
0.0
 41
1.0
 10
4263.741905195184
 20
-1550.331119771951
 30
0.0
 41
1.0
 10
4275.184512711574
 20
-1768.669077811473
 30
0.0
 41
1.0
 10
4286.627120227964
 20
-1987.007035850994
 30
0.0
 41
1.0
 10
4286.774140406525
 20
-1989.809278451817
 30
0.0
 41
0.8171908487200472
 10
4288.808565095973
 20
-1991.741969505692
 30
0.0
 41
0.8171908487200472
 10
4291.614659943845
 20
-1991.745168178885
 30
0.0
 41
1.0
 10
4293.145594212246
 20
-1991.74706434189
 30
0.0
 41
1.0
 10
4294.676528480645
 20
-1991.748960504895
 30
0.0
 41
1.0
 10
4296.207462749046
 20
-1991.750856667901
 30
0.0
 41
1.0
 10
4310.84934701481
 20
-1991.833337786702
 30
0.0
 41
1.0
 10
4325.491231280575
 20
-1991.915818905504
 30
0.0
 41
1.0
 10
4340.133115546338
 20
-1991.998300024306
 30
0.0
 41
1.0
 10
4340.228872740509
 20
-1991.998857825724
 30
0.0
 41
1.0
 10
4340.32462993468
 20
-1991.999415627143
 30
0.0
 41
1.0
 10
4340.420387128851
 20
-1991.999973428561
 30
0.0
 41
1.0
 10
4408.804703386821
 20
-1991.999981699921
 30
0.0
 41
1.0
 10
4477.189019644789
 20
-1991.99998997128
 30
0.0
 41
1.0
 10
4545.573335902758
 20
-1991.999998242639
 30
0.0
 41
1.0
 10
4545.573335902758
 20
-1772.000004263063
 30
0.0
 41
1.0
 10
4545.573335902758
 20
-1552.000010283487
 30
0.0
 41
1.0
 10
4545.573335902758
 20
-1332.000016303911
 30
0.0
 41
1.0
 10
4545.573335359918
 20
-1330.333349188193
 30
0.0
 41
1.0
 10
4545.573334817077
 20
-1328.666682072476
 30
0.0
 41
1.0
 10
4545.573334274237
 20
-1327.000014956759
 30
0.0
 41
1.0
 10
4545.573334192503
 20
-1326.994487483252
 30
0.0
 41
1.0
 10
4545.573334110771
 20
-1326.988960009745
 30
0.0
 41
1.0
 10
4545.573334029037
 20
-1326.983432536238
 30
0.0
 41
1.0
 10
4545.573335087897
 20
-1325.605704064843
 30
0.0
 41
1.0
 10
4545.573336146756
 20
-1324.227975593449
 30
0.0
 41
1.0
 10
4545.573337205617
 20
-1322.850247122054
 30
0.0
 41
1.0
 10
4545.573336135588
 20
-1270.096762189541
 30
0.0
 41
1.0
 10
4545.573335065558
 20
-1217.343277257028
 30
0.0
 41
1.0
 10
4545.57333399553
 20
-1164.589792324515
 30
0.0
 41
1.0
 10
4545.573335267036
 20
-1162.059866235895
 30
0.0
 41
1.0
 10
4545.573336538542
 20
-1159.529940147276
 30
0.0
 41
1.0
 10
4545.573337810049
 20
-1157.000014058657
 30
0.0
 41
1.0
 10
4415.002507925736
 20
-1157.000014058659
 30
0.0
 41
1.0
 10
4284.431678041422
 20
-1157.000014058661
 30
0.0
 41
1.0
 10
4153.860848157109
 20
-1157.000014058664
 30
0.0
 41
1.0
 10
4153.780098257798
 20
-1157.000014058713
 30
0.0
 41
0.9999999999999641
 10
4153.699348358487
 20
-1157.000014032286
 30
0.0
 41
0.9999999999999641
 10
4153.618598459176
 20
-1157.000013979385
 30
0.0
 41
1.0
 10
4153.537848559864
 20
-1157.000013926513
 30
0.0
 41
0.9999999999996785
 10
4153.457098660553
 20
-1157.000013952939
 30
0.0
 41
0.9999999999996785
 10
4153.376348761241
 20
-1157.000014058664
 30
0.0
 41
1.0
 10
4151.479309684626
 20
-1157.000168616854
 30
0.0
 41
0.9314365909550119
 10
4149.777440078126
 20
-1157.838259974983
 30
0.0
 41
0.9314365909550119
 10
4148.620797887659
 20
-1159.341900931238
 30
0.0
 41
1.0
 10
4147.464155697192
 20
-1160.845541887493
 30
0.0
 41
0.9314365909550119
 10
4147.090650917627
 20
-1162.705448192052
 30
0.0
 41
0.9314365909550119
 10
4147.577109831911
 20
-1164.539055294681
 30
0.0
 41
1.0
 10
4147.598183120331
 20
-1164.553640126374
 30
0.0
 41
1.0
 10
4147.61925640875
 20
-1164.568224958068
 30
0.0
 41
1.0
 10
4147.640329697169
 20
-1164.582809789761
 30
0.0
 41
1.0
 10
4147.646836894622
 20
-1164.587028622597
 30
0.0
 41
1.0
 10
4147.653344092073
 20
-1164.591247455432
 30
0.0
 41
1.0
 10
4147.659851289524
 20
-1164.595466288268
 30
0.0
 41
1.0
 10
4147.804074531682
 20
-1164.682072824319
 30
0.0
 41
1.0
 10
4147.948297773839
 20
-1164.768679360369
 30
0.0
 41
1.0
 10
4148.092521015997
 20
-1164.85528589642
 30
0.0
 41
1.0
 10
4148.116449143103
 20
-1164.856350950246
 30
0.0
 41
0.8102323439961022
 10
4148.132821867953
 20
-1164.873833040724
 30
0.0
 41
0.8102323439961022
 10
4148.132318149695
 20
-1164.897779561857
 30
0.0
 41
1.0
 10
4148.156427273822
 20
-1164.891914614103
 30
0.0
 41
0.8126772752149091
 10
4148.177838218924
 20
-1164.904453310537
 30
0.0
 41
0.8126772752149091
 10
4148.184518715268
 20
-1164.928349302815
 30
0.0
 41
1.0
 10
4148.213494002601
 20
-1164.945034143534
 30
0.0
 41
1.0
 10
4148.242469289934
 20
-1164.961718984253
 30
0.0
 41
1.0
 10
4148.271444577266
 20
-1164.978403824972
 30
0.0
 41
1.0
 10
4148.358494923589
 20
-1165.019053592095
 30
0.0
 41
0.997299222061061
 10
4148.448847912795
 20
-1165.051710960388
 30
0.0
 41
0.997299222061061
 10
4148.541771474801
 20
-1165.076111328953
 30
0.0
 41
1.0
 10
4148.844593756206
 20
-1165.153384230885
 30
0.0
 41
0.998454219529024
 10
4149.151972973522
 20
-1165.209868319357
 30
0.0
 41
0.998454219529024
 10
4149.462483704375
 20
-1165.245301658365
 30
0.0
 41
1.0
 10
4150.567345615461
 20
-1165.370273618973
 30
0.0
 41
0.999436668114392
 10
4151.676410377123
 20
-1165.449729191146
 30
0.0
 41
0.999436668114392
 10
4152.787803674728
 20
-1165.483534095314
 30
0.0
 41
1.0
 10
4154.516864445276
 20
-1165.548008008563
 30
0.0
 41
0.9999195051532691
 10
4156.246718324826
 20
-1165.585605736544
 30
0.0
 41
0.9999195051532691
 10
4157.976947580407
 20
-1165.596318199986
 30
0.0
 41
1.0
 10
4160.259505430248
 20
-1165.613608285398
 30
0.0
 41
0.9999749819711301
 10
4162.542127411553
 20
-1165.61112325021
 30
0.0
 41
0.9999749819711301
 10
4164.82464220421
 20
-1165.588863280935
 30
0.0
 41
1.0
 10
4167.569052063037
 20
-1165.563384252058
 30
0.0
 41
0.9999858656299402
 10
4170.313237823487
 20
-1165.520034900396
 30
0.0
 41
0.9999858656299402
 10
4173.057083123547
 20
-1165.458817064094
 30
0.0
 41
1.0
 10
4176.151535688652
 20
-1165.390465216027
 30
0.0
 41
0.9999868733182184
 10
4179.245498394108
 20
-1165.302696029657
 30
0.0
 41
0.9999868733182182
 10
4182.338849399521
 20
-1165.195512961343
 30
0.0
 41
1.0
 10
4185.651999517485
 20
-1165.081504580273
 30
0.0
 41
0.9999822407597503
 10
4188.964229217157
 20
-1164.943316188116
 30
0.0
 41
0.9999822407597514
 10
4192.275362030489
 20
-1164.780955147236
 30
0.0
 41
1.0
 10
4193.127630620335
 20
-1164.748009693684
 30
0.0
 41
0.9999249258022817
 10
4193.979308822843
 20
-1164.702277959328
 30
0.0
 41
0.999924925802282
 10
4194.830886897846
 20
-1164.643738313476
 30
0.0
 41
1.0
 10
4196.498090998232
 20
-1164.551713004724
 30
0.0
 41
1.0
 10
4198.165295098618
 20
-1164.459687695971
 30
0.0
 41
1.0
 10
4199.832499199005
 20
-1164.367662387218
 30
0.0
 41
1.0
 10
4315.079391349188
 20
-1164.512559527599
 30
0.0
 41
0.9999998740069677
 10
4430.326350801676
 20
-1164.586602849361
 30
0.0
 41
0.9999998740069677
 10
4545.57333399553
 20
-1164.589792324521
 30
0.0
 41
1.0
  0
SPLINE
  5
68
330
1F
100
AcDbEntity
  8
EGC111 EFC011$2D
100
AcDbSpline
210
0.0
220
0.0
230
1.0
 70
    12
 71
     3
 72
    59
 73
    55
 74
     0
 42
0.000000001
 43
0.0000000001
 12
1.0
 22
0.0
 32
0.0
 13
1.0
 23
0.0
 33
0.0
 40
0.0
 40
0.0
 40
0.0
 40
0.0
 40
242.1068548939696
 40
242.1068548939696
 40
242.1068548939696
 40
245.5768250656685
 40
245.5768250656685
 40
245.5768250656685
 40
247.2671821608366
 40
247.2671821608366
 40
247.2671821608366
 40
273.1181452649489
 40
273.1181452649489
 40
273.1181452649489
 40
278.788581059078
 40
278.788581059078
 40
278.788581059078
 40
289.356127864816
 40
289.356127864816
 40
289.356127864816
 40
290.1686042429195
 40
290.1686042429195
 40
290.1686042429195
 40
290.8938736915118
 40
290.8938736915118
 40
290.8938736915118
 40
291.6732282684494
 40
291.6732282684494
 40
291.6732282684494
 40
299.4262468212526
 40
299.4262468212526
 40
299.4262468212526
 40
301.6509282613566
 40
301.6509282613566
 40
301.6509282613566
 40
303.0206595854447
 40
303.0206595854447
 40
303.0206595854447
 40
303.3816182713635
 40
303.3816182713635
 40
303.3816182713635
 40
303.483644000201
 40
303.483644000201
 40
303.483644000201
 40
303.5384803041771
 40
303.5384803041771
 40
303.5384803041771
 40
423.6894596620991
 40
423.6894596620991
 40
423.6894596620991
 40
459.2263995128357
 40
459.2263995128357
 40
459.2263995128357
 40
482.6526621010606
 40
482.6526621010606
 40
482.6526621010606
 40
482.6526621010606
 10
4545.57333394847
 20
-1322.850247122056
 30
0.0
 41
1.0
 10
4464.870754932175
 20
-1322.846933073587
 30
0.0
 41
0.9999998464013075
 10
4384.168196759236
 20
-1322.788836534952
 30
0.0
 41
0.9999998464013075
 10
4303.465696617077
 20
-1322.675957532922
 30
0.0
 41
1.0
 10
4302.30755118915
 20
-1322.678277922799
 30
0.0
 41
1.0
 10
4301.149405761223
 20
-1322.680598312676
 30
0.0
 41
1.0
 10
4299.991260333296
 20
-1322.682918702553
 30
0.0
 41
1.0
 10
4299.428321785301
 20
-1322.644077249199
 30
0.0
 41
0.9974387417844609
 10
4298.864144524682
 20
-1322.654683187075
 30
0.0
 41
0.9974387417844609
 10
4298.303063562371
 20
-1322.714655022544
 30
0.0
 41
1.0
 10
4289.698011555824
 20
-1323.178889003005
 30
0.0
 41
0.9998703916940929
 10
4281.085478858971
 20
-1323.473361021411
 30
0.0
 41
0.9998703916940929
 10
4272.468814239129
 20
-1323.597956579705
 30
0.0
 41
1.0
 10
4270.578874957404
 20
-1323.626338221168
 30
0.0
 41
0.9999924749833138
 10
4268.68882215851
 20
-1323.64573985965
 30
0.0
 41
0.9999924749833138
 10
4266.798698510484
 20
-1323.656161057159
 30
0.0
 41
1.0
 10
4263.765675861838
 20
-1323.677038804166
 30
0.0
 41
0.9999493335980637
 10
4260.732626329118
 20
-1323.660522158069
 30
0.0
 41
0.9999493335980637
 10
4257.700010933447
 20
-1323.606613629385
 30
0.0
 41
1.0
 10
4257.525885275357
 20
-1323.603727797837
 30
0.0
 41
1.0
 10
4257.351759617265
 20
-1323.600841966289
 30
0.0
 41
1.0
 10
4257.177633959175
 20
-1323.597956134741
 30
0.0
 41
1.0
 10
4257.006091421626
 20
-1323.593360599492
 30
0.0
 41
1.0
 10
4256.834548884078
 20
-1323.588765064243
 30
0.0
 41
1.0
 10
4256.663006346529
 20
-1323.584169528993
 30
0.0
 41
1.0
 10
4256.4943834048
 20
-1323.579117191504
 30
0.0
 41
1.0
 10
4256.32576046307
 20
-1323.574064854014
 30
0.0
 41
1.0
 10
4256.157137521341
 20
-1323.569012516524
 30
0.0
 41
1.0
 10
4254.210742710105
 20
-1323.512334722401
 30
0.0
 41
0.9999403912812984
 10
4252.265279843966
 20
-1323.429634238574
 30
0.0
 41
0.9999403912812984
 10
4250.321096822569
 20
-1323.320925854053
 30
0.0
 41
1.0
 10
4249.58071026689
 20
-1323.278566362086
 30
0.0
 41
0.9999006630071999
 10
4248.841165257308
 20
-1323.223432369022
 30
0.0
 41
0.9999006630071999
 10
4248.102682186353
 20
-1323.155540305395
 30
0.0
 41
1.0
 10
4247.647558049144
 20
-1323.117263351684
 30
0.0
 41
0.9993267804114042
 10
4247.194613265126
 20
-1323.058576657401
 30
0.0
 41
0.9993267804114042
 10
4246.7447626282
 20
-1322.979598749643
 30
0.0
 41
1.0
 10
4246.626114706406
 20
-1322.958860098256
 30
0.0
 41
0.9978897474970957
 10
4246.509491136642
 20
-1322.928754218713
 30
0.0
 41
0.9978897474970957
 10
4246.39563023445
 20
-1322.889471704036
 30
0.0
 41
1.0
 10
4246.363521232414
 20
-1322.878039172599
 30
0.0
 41
0.9956062654394366
 10
4246.332934245938
 20
-1322.863001651355
 30
0.0
 41
0.9956062654394366
 10
4246.304272448322
 20
-1322.844557352933
 30
0.0
 41
1.0
 10
4246.292464314362
 20
-1322.830929002348
 30
0.0
 41
1.0
 10
4246.280656180404
 20
-1322.817300651763
 30
0.0
 41
1.0
 10
4246.268848046445
 20
-1322.803672301178
 30
0.0
 41
1.0
 10
4246.261289911144
 20
-1322.819197241478
 30
0.0
 41
1.0
 10
4246.253731775842
 20
-1322.834722181778
 30
0.0
 41
1.0
 10
4246.24617364054
 20
-1322.850247122079
 30
0.0
 41
1.0
 10
4241.713435765708
 20
-1308.867667671985
 30
0.0
 41
1.0
 10
4237.920632730998
 20
-1299.545248290445
 30
0.0
 41
1.0
 10
4232.193007452437
 20
-1291.332657462572
 30
0.0
 41
1.0
 10
4227.779984696703
 20
-1285.005017569194
 30
0.0
 41
1.0
 10
4222.218374108924
 20
-1279.336216272723
 30
0.0
 41
1.0
 10
4216.234515668455
 20
-1274.384429117204
 30
0.0
 41
1.0
  0
SPLINE
  5
69
330
1F
100
AcDbEntity
  8
EGC111 EFC011$2D
100
AcDbSpline
210
0.0
220
0.0
230
1.0
 70
    12
 71
     2
 72
     8
 73
     5
 74
     0
 42
0.000000001
 43
0.0000000001
 12
1.0
 22
0.0
 32
0.0
 13
1.0
 23
0.0
 33
0.0
 40
1.603021174222853
 40
1.603021174222853
 40
1.603021174222853
 40
1.855258415474394
 40
1.855258415474394
 40
7.566629819324115
 40
7.566629819324115
 40
7.566629819324115
 10
4250.397748149317
 20
-1326.792429808953
 30
0.0
 41
1.0
 10
4250.273871641192
 20
-1326.756769166436
 30
0.0
 41
1.0
 10
4250.149995133068
 20
-1326.721108523918
 30
0.0
 41
1.0
 10
4247.19985143771
 20
-1325.792410649798
 30
0.0
 41
0.8887514447339195
 10
4246.24617364054
 20
-1322.850247122079
 30
0.0
 41
1.0
  0
LINE
  5
6A
330
1F
100
AcDbEntity
  8
EGC111 EFC011$2D
100
AcDbLine
 10
4297.091329671187
 20
-1991.747999914812
 30
0.0
 11
4297.284204181608
 21
-1991.749107119846
 31
0.0
  0
ARC
  5
6B
330
1F
100
AcDbEntity
  8
EGC111 EFC011$2D
100
AcDbCircle
 10
4251.991331307404
 20
-1321.000014449714
 30
0.0
 40
5.999999609494573
100
AcDbArc
 50
255.3692266420772
 51
256.6656972218396
  0
LINE
  5
6C
330
1F
100
AcDbEntity
  8
EGC111 EFC011$2D
100
AcDbLine
 10
4420.842008838012
 20
-1157.000014058657
 30
0.0
 11
4420.81025368657
 21
-1157.000014058657
 31
0.0
  0
LINE
  5
6D
330
1F
100
AcDbEntity
  8
EGC111 EFC011$2D
100
AcDbLine
 10
4420.795465423505
 20
-1157.000014058657
 30
0.0
 11
4420.713048904481
 21
-1157.000014058657
 31
0.0
  0
SPLINE
  5
6E
330
1F
100
AcDbEntity
  8
EGC111 EFC011$2D
100
AcDbSpline
210
0.0
220
0.0
230
1.0
 70
    12
 71
     3
 72
    31
 73
    27
 74
     0
 42
0.000000001
 43
0.0000000001
 12
1.0
 22
0.0
 32
0.0
 13
1.0
 23
0.0
 33
0.0
 40
0.0
 40
0.0
 40
0.0
 40
0.0
 40
10.99278476339869
 40
10.99278476339869
 40
10.99278476339869
 40
18.3561826616632
 40
18.3561826616632
 40
18.3561826616632
 40
30.79992418597811
 40
30.79992418597811
 40
44.16140698459608
 40
44.16140698459608
 40
44.16140698459608
 40
55.57143108099322
 40
55.57143108099322
 40
67.07464633355201
 40
67.07464633355201
 40
67.07464633355201
 40
80.16103663064284
 40
80.16103663064284
 40
80.16103663064284
 40
98.69750769886511
 40
98.69750769886511
 40
113.6831960698738
 40
113.6831960698738
 40
140.1245230612113
 40
140.1245230612113
 40
140.1245230612113
 40
140.1245230612113
 10
4217.180397020144
 20
-1275.149008987787
 30
0.0
 41
1.0
 10
4214.352347528788
 20
-1272.816805587069
 30
0.0
 41
0.9992392312592981
 10
4211.416139572747
 20
-1270.622330828323
 30
0.0
 41
0.9992392312592973
 10
4208.37847447771
 20
-1268.570593174947
 30
0.0
 41
1.0
 10
4206.342992734704
 20
-1267.198704605215
 30
0.0
 41
0.9998571055618787
 10
4204.279544303726
 20
-1265.869251805536
 30
0.0
 41
0.9998571055618793
 10
4202.189013750691
 20
-1264.582804690142
 30
0.0
 41
1.0
 10
4198.862046765659
 20
-1262.511702221515
 30
0.0
 41
1.0
 10
4196.164024082794
 20
-1260.900413529113
 30
0.0
 41
1.0
 10
4189.189776038121
 20
-1256.251309244658
 30
0.0
 41
1.0
 10
4185.723084904872
 20
-1253.681892535547
 30
0.0
 41
1.0
 10
4182.417768133548
 20
-1250.510734248075
 30
0.0
 41
1.0
 10
4179.722820954559
 20
-1247.925171449649
 30
0.0
 41
1.0
 10
4177.276106238681
 20
-1245.063220186864
 30
0.0
 41
1.0
 10
4172.847519275224
 20
-1239.03633504835
 30
0.0
 41
1.0
 10
4170.843498439817
 20
-1235.83416281465
 30
0.0
 41
1.0
 10
4169.047145033996
 20
-1232.552282610283
 30
0.0
 41
1.0
 10
4166.959788242941
 20
-1228.718827127591
 30
0.0
 41
0.9987268991051577
 10
4165.113213937922
 20
-1224.763754100832
 30
0.0
 41
0.9987268991051572
 10
4163.51447474514
 20
-1220.702169151035
 30
0.0
 41
1.0
 10
4161.30720037759
 20
-1215.125041693967
 30
0.0
 41
1.0
 10
4159.62433799878
 20
-1209.56055784059
 30
0.0
 41
1.0
 10
4156.718661453535
 20
-1199.258801694106
 30
0.0
 41
1.0
 10
4155.244149289199
 20
-1193.703857871629
 30
0.0
 41
1.0
 10
4151.772241209039
 20
-1180.528455829773
 30
0.0
 41
1.0
 10
4149.646292590763
 20
-1172.394297835053
 30
0.0
 41
1.0
 10
4147.572391449461
 20
-1164.54030120603
 30
0.0
 41
1.0
  0
LINE
  5
6F
330
1F
100
AcDbEntity
  8
EGC111 EFC011$2D
100
AcDbLine
 10
4297.259525715611
 20
-1991.756681420117
 30
0.0
 11
4297.042966936698
 21
-1991.755489373916
 31
0.0
  0
SPLINE
  5
70
330
1F
100
AcDbEntity
  8
EGC111 EFC011$2D
100
AcDbSpline
210
0.0
220
0.0
230
1.0
 70
    12
 71
     3
 72
    26
 73
    22
 74
     0
 42
0.000000001
 43
0.0000000001
 12
1.0
 22
0.0
 32
0.0
 13
1.0
 23
0.0
 33
0.0
 40
0.0
 40
0.0
 40
0.0
 40
0.0
 40
3.364661474478339
 40
3.364661474478339
 40
3.364661474478339
 40
34.36720541971449
 40
34.36720541971449
 40
34.36720541971449
 40
190.2651796180182
 40
190.2651796180182
 40
190.2651796180182
 40
211.172870453863
 40
211.172870453863
 40
211.172870453863
 40
224.9861066885063
 40
224.9861066885063
 40
224.9861066885063
 40
239.9145691154602
 40
239.9145691154602
 40
239.9145691154602
 40
241.3684915279427
 40
241.3684915279427
 40
241.3684915279427
 40
241.3684915279427
 10
3425.036625198175
 20
-1537.000014058657
 30
0.0
 41
1.0
 10
3423.915071373349
 20
-1537.000014058657
 30
0.0
 41
1.0
 10
3422.793517548522
 20
-1537.000014058657
 30
0.0
 41
1.0
 10
3421.671963723696
 20
-1537.000014058657
 30
0.0
 41
1.0
 10
3410.147343078475
 20
-1537.000012167873
 30
0.0
 41
0.8095844333035124
 10
3401.914424513035
 20
-1528.935526262925
 30
0.0
 41
0.8095844333035124
 10
3401.676235589987
 20
-1517.413367304934
 30
0.0
 41
1.0
 10
3398.761039039772
 20
-1376.392469450003
 30
0.0
 41
1.0
 10
3395.350456991512
 20
-1369.576588244749
 30
0.0
 41
1.0
 10
3390.80090122862
 20
-1363.963410058409
 30
0.0
 41
1.0
 10
3386.04937055712
 20
-1358.101038058374
 30
0.0
 41
1.0
 10
3380.055493243116
 20
-1353.550526058515
 30
0.0
 41
1.0
 10
3375.225221252781
 20
-1350.275270058586
 30
0.0
 41
1.0
 10
3370.394949262445
 20
-1347.000014058657
 30
0.0
 41
1.0
 10
3366.728282595779
 20
-1345.000014058657
 30
0.0
 41
1.0
 10
3364.394949262445
 20
-1342.000014058657
 30
0.0
 41
1.0
 10
3362.207449262446
 20
-1339.187514058657
 30
0.0
 41
1.0
 10
3361.191824262446
 20
-1335.496107808657
 30
0.0
 41
1.0
 10
3361.073416059321
 20
-1328.453871480532
 30
0.0
 41
1.0
 10
3361.069482682584
 20
-1327.969252339907
 30
0.0
 41
1.0
 10
3361.065549305849
 20
-1327.484633199282
 30
0.0
 41
1.0
 10
3361.061615929113
 20
-1327.000014058657
 30
0.0
 41
1.0
  0
SPLINE
  5
71
330
1F
100
AcDbEntity
  8
EGC111 EFC011$2D
100
AcDbSpline
210
0.0
220
0.0
230
1.0
 70
    12
 71
     2
 72
     8
 73
     5
 74
     0
 42
0.000000001
 43
0.0000000001
 12
1.0
 22
0.0
 32
0.0
 13
1.0
 23
0.0
 33
0.0
 40
0.0
 40
0.0
 40
0.0
 40
293.581016132315
 40
293.581016132315
 40
301.1541140261745
 40
301.1541140261745
 40
301.1541140261745
 10
3641.57332149077
 20
-1327.000014058657
 30
0.0
 41
1.0
 10
3494.782331722142
 20
-1327.000014058657
 30
0.0
 41
1.0
 10
3347.991341953515
 20
-1327.000014058657
 30
0.0
 41
1.0
 10
3343.606616082749
 20
-1327.000015924347
 30
0.0
 41
0.8073847116404087
 10
3342.274797032637
 20
-1322.822447375595
 30
0.0
 41
1.0
  0
SPLINE
  5
72
330
1F
100
AcDbEntity
  8
EGC111 EFC011$2D
100
AcDbSpline
210
0.0
220
0.0
230
1.0
 70
     8
 71
     2
 72
     8
 73
     5
 74
     0
 42
0.000000001
 43
0.0000000001
 12
1.0
 22
0.0
 32
0.0
 13
1.0
 23
0.0
 33
0.0
 40
3.774155114786688
 40
3.774155114786688
 40
3.774155114786688
 40
5.674747799322706
 40
5.674747799322706
 40
5.690674475576985
 40
5.690674475576985
 40
5.690674475576985
 10
3342.269008050982
 20
-1322.803617467293
 30
0.0
 10
3341.964486302137
 20
-1321.846299004746
 30
0.0
 10
3341.659964553291
 20
-1320.888980542198
 30
0.0
 10
3341.657285035398
 20
-1320.880633572754
 30
0.0
 10
3341.654605517504
 20
-1320.87228660331
 30
0.0
  0
SPLINE
  5
73
330
1F
100
AcDbEntity
  8
EGC111 EFC011$2D
100
AcDbSpline
210
0.0
220
0.0
230
1.0
 70
    12
 71
     3
 72
    89
 73
    85
 74
     0
 42
0.000000001
 43
0.0000000001
 12
1.0
 22
0.0
 32
0.0
 13
1.0
 23
0.0
 33
0.0
 40
0.0
 40
0.0
 40
0.0
 40
0.0
 40
345.7487679678196
 40
345.7487679678196
 40
345.7487679678196
 40
350.471467683115
 40
350.471467683115
 40
350.471467683115
 40
353.0300870083017
 40
353.0300870083017
 40
353.0300870083017
 40
362.9753320013161
 40
362.9753320013161
 40
362.9753320013161
 40
372.2608931612141
 40
372.2608931612141
 40
372.2608931612141
 40
380.4944193614083
 40
380.4944193614083
 40
380.4944193614083
 40
387.3422037024527
 40
387.3422037024527
 40
387.3422037024527
 40
392.5327820326978
 40
392.5327820326978
 40
392.5327820326978
 40
395.8675641477952
 40
395.8675641477952
 40
395.8675641477952
 40
396.8044167418524
 40
396.8044167418524
 40
396.8044167418524
 40
397.0922483743697
 40
397.0922483743697
 40
397.0922483743697
 40
398.2375788803237
 40
398.2375788803237
 40
398.2375788803237
 40
399.4895922240744
 40
399.4895922240744
 40
399.4895922240744
 40
400.6502118068524
 40
400.6502118068524
 40
400.6502118068524
 40
429.7898242491916
 40
429.7898242491916
 40
429.7898242491916
 40
432.1645737170705
 40
432.1645737170705
 40
432.1645737170705
 40
445.0447374579044
 40
445.0447374579044
 40
445.0447374579044
 40
450.5351565570698
 40
450.5351565570698
 40
450.5351565570698
 40
456.0255756562352
 40
456.0255756562352
 40
456.0255756562352
 40
456.2678253541695
 40
456.2678253541695
 40
456.2678253541695
 40
456.5100750521038
 40
456.5100750521038
 40
456.5100750521038
 40
848.2193198000323
 40
848.2193198000323
 40
848.2193198000323
 40
860.3418552254095
 40
860.3418552254095
 40
860.3418552254095
 40
1058.785076572504
 40
1058.785076572504
 40
1058.785076572504
 40
1066.04387682363
 40
1066.04387682363
 40
1066.04387682363
 40
1066.531537444774
 40
1066.531537444774
 40
1066.531537444774
 40
1276.531537444774
 40
1276.531537444774
 40
1276.531537444774
 40
1492.63759116219
 40
1492.63759116219
 40
1492.63759116219
 40
1492.63759116219
 10
3641.573333995529
 20
-1164.589792324521
 30
0.0
 41
1.0
 10
3526.326350801676
 20
-1164.586602849369
 30
0.0
 41
0.9999998740069679
 10
3411.079391349188
 20
-1164.512559527589
 30
0.0
 41
0.9999998740069679
 10
3295.832499199006
 20
-1164.367662387167
 30
0.0
 41
1.0
 10
3294.165295098619
 20
-1164.459687695937
 30
0.0
 41
1.0
 10
3292.498090998232
 20
-1164.551713004706
 30
0.0
 41
1.0
 10
3290.830886897845
 20
-1164.643738313476
 30
0.0
 41
1.0
 10
3289.979308822843
 20
-1164.702277959329
 30
0.0
 41
0.999924925802282
 10
3289.127630620336
 20
-1164.748009693684
 30
0.0
 41
0.9999249258022821
 10
3288.275362030489
 20
-1164.780955147236
 30
0.0
 41
1.0
 10
3284.964229217157
 20
-1164.943316188116
 30
0.0
 41
0.999982240759751
 10
3281.651999517484
 20
-1165.081504580273
 30
0.0
 41
0.999982240759751
 10
3278.338849399521
 20
-1165.195512961343
 30
0.0
 41
1.0
 10
3275.245498394107
 20
-1165.302696029657
 30
0.0
 41
0.9999868733182182
 10
3272.151535688652
 20
-1165.390465216026
 30
0.0
 41
0.9999868733182184
 10
3269.057083123547
 20
-1165.458817064094
 30
0.0
 41
1.0
 10
3266.313237823487
 20
-1165.520034900395
 30
0.0
 41
0.9999858656299407
 10
3263.569052063038
 20
-1165.563384252058
 30
0.0
 41
0.9999858656299407
 10
3260.82464220421
 20
-1165.588863280935
 30
0.0
 41
1.0
 10
3258.542127411553
 20
-1165.61112325021
 30
0.0
 41
0.9999749819711301
 10
3256.259505430249
 20
-1165.613608285398
 30
0.0
 41
0.9999749819711301
 10
3253.976947580407
 20
-1165.596318199986
 30
0.0
 41
1.0
 10
3252.246718324826
 20
-1165.585605736544
 30
0.0
 41
0.9999195051532646
 10
3250.516864445278
 20
-1165.548008008563
 30
0.0
 41
0.9999195051532649
 10
3248.787803674727
 20
-1165.483534095314
 30
0.0
 41
1.0
 10
3247.676410377122
 20
-1165.449729191147
 30
0.0
 41
0.9994366681143804
 10
3246.567345615461
 20
-1165.370273618973
 30
0.0
 41
0.9994366681143805
 10
3245.462483704375
 20
-1165.245301658365
 30
0.0
 41
1.0
 10
3245.151972973522
 20
-1165.209868319357
 30
0.0
 41
0.9984542195289882
 10
3244.844593756206
 20
-1165.153384230885
 30
0.0
 41
0.9984542195289882
 10
3244.541771474801
 20
-1165.076111328953
 30
0.0
 41
1.0
 10
3244.448847912794
 20
-1165.051710960388
 30
0.0
 41
0.9972992220613562
 10
3244.358494923588
 20
-1165.019053592094
 30
0.0
 41
0.9972992220613562
 10
3244.271444577266
 20
-1164.978403824972
 30
0.0
 41
1.0
 10
3244.242469289933
 20
-1164.961718984253
 30
0.0
 41
1.0
 10
3244.213494002601
 20
-1164.945034143534
 30
0.0
 41
1.0
 10
3244.184518715268
 20
-1164.928349302815
 30
0.0
 41
1.0
 10
3244.177838218923
 20
-1164.904453310538
 30
0.0
 41
0.8126772752281899
 10
3244.156427273823
 20
-1164.891914614104
 30
0.0
 41
0.8126772752281899
 10
3244.132318149695
 20
-1164.897779561857
 30
0.0
 41
1.0
 10
3244.132821867952
 20
-1164.873833040723
 30
0.0
 41
0.8102323440035558
 10
3244.116449143102
 20
-1164.856350950246
 30
0.0
 41
0.8102323440035558
 10
3244.092521015997
 20
-1164.85528589642
 30
0.0
 41
1.0
 10
3243.948297773839
 20
-1164.76867936037
 30
0.0
 41
1.0
 10
3243.804074531682
 20
-1164.682072824319
 30
0.0
 41
1.0
 10
3243.659851289524
 20
-1164.595466288268
 30
0.0
 41
1.0
 10
3243.653344092073
 20
-1164.591247455432
 30
0.0
 41
1.0
 10
3243.646836894621
 20
-1164.587028622597
 30
0.0
 41
1.0
 10
3243.64032969717
 20
-1164.582809789761
 30
0.0
 41
1.0
 10
3243.61925640875
 20
-1164.568224958068
 30
0.0
 41
1.0
 10
3243.59818312033
 20
-1164.553640126374
 30
0.0
 41
1.0
 10
3243.577109831911
 20
-1164.539055294681
 30
0.0
 41
1.0
 10
3243.090698055505
 20
-1162.705454107821
 30
0.0
 41
0.9314400094784464
 10
3243.464220920734
 20
-1160.84556959586
 30
0.0
 41
0.9314400094784464
 10
3244.620852255301
 20
-1159.341942752332
 30
0.0
 41
1.0
 10
3245.777483589869
 20
-1157.838315908804
 30
0.0
 41
0.9314400094784464
 10
3247.47932749377
 20
-1157.000212660129
 30
0.0
 41
0.9314400094784464
 10
3249.37634876124
 20
-1157.000014058664
 30
0.0
 41
1.0
 10
3249.457098660552
 20
-1157.000013952958
 30
0.0
 41
0.9999999999996788
 10
3249.537848559863
 20
-1157.000013926525
 30
0.0
 41
0.9999999999996788
 10
3249.618598459175
 20
-1157.00001397937
 30
0.0
 41
1.0
 10
3249.699348358487
 20
-1157.000014032237
 30
0.0
 41
0.9999999999999641
 10
3249.780098257798
 20
-1157.000014058661
 30
0.0
 41
0.9999999999999641
 10
3249.860848157109
 20
-1157.000014058664
 30
0.0
 41
1.0
 10
3380.431678041421
 20
-1157.000014058661
 30
0.0
 41
1.0
 10
3511.002507925734
 20
-1157.000014058659
 30
0.0
 41
1.0
 10
3641.573337810048
 20
-1157.000014058657
 30
0.0
 41
1.0
 10
3641.573336538542
 20
-1159.529940147276
 30
0.0
 41
1.0
 10
3641.573335267035
 20
-1162.059866235895
 30
0.0
 41
1.0
 10
3641.573333995529
 20
-1164.589792324515
 30
0.0
 41
1.0
 10
3641.573335065558
 20
-1217.343277257028
 30
0.0
 41
1.0
 10
3641.573336135587
 20
-1270.096762189541
 30
0.0
 41
1.0
 10
3641.573337205616
 20
-1322.850247122054
 30
0.0
 41
1.0
 10
3641.573336146757
 20
-1324.227975593449
 30
0.0
 41
1.0
 10
3641.573335087897
 20
-1325.605704064843
 30
0.0
 41
1.0
 10
3641.573334029038
 20
-1326.983432536238
 30
0.0
 41
1.0
 10
3641.573334110771
 20
-1326.988959710378
 30
0.0
 41
1.0
 10
3641.573334192504
 20
-1326.994486884518
 30
0.0
 41
1.0
 10
3641.573334274237
 20
-1327.000014058658
 30
0.0
 41
1.0
 10
3641.573334817077
 20
-1397.000014058657
 30
0.0
 41
1.0
 10
3641.573335359917
 20
-1467.000014058657
 30
0.0
 41
1.0
 10
3641.573335902758
 20
-1537.000014058657
 30
0.0
 41
1.0
 10
3569.537984663619
 20
-1537.000014058657
 30
0.0
 41
1.0
 10
3497.50263342448
 20
-1537.000014058657
 30
0.0
 41
1.0
 10
3425.467282185341
 20
-1537.000014058657
 30
0.0
 41
1.0
  0
SPLINE
  5
74
330
1F
100
AcDbEntity
  8
EGC111 EFC011$2D
100
AcDbSpline
210
0.0
220
0.0
230
1.0
 70
    12
 71
     3
 72
    59
 73
    55
 74
     0
 42
0.000000001
 43
0.0000000001
 12
1.0
 22
0.0
 32
0.0
 13
1.0
 23
0.0
 33
0.0
 40
0.0
 40
0.0
 40
0.0
 40
0.0
 40
242.1068548939696
 40
242.1068548939696
 40
242.1068548939696
 40
245.5768250656685
 40
245.5768250656685
 40
245.5768250656685
 40
247.2671821608365
 40
247.2671821608365
 40
247.2671821608365
 40
273.1181452649489
 40
273.1181452649489
 40
273.1181452649489
 40
278.788581059078
 40
278.788581059078
 40
278.788581059078
 40
289.3561278648159
 40
289.3561278648159
 40
289.3561278648159
 40
290.1686042429195
 40
290.1686042429195
 40
290.1686042429195
 40
290.8938736915118
 40
290.8938736915118
 40
290.8938736915118
 40
291.6732282684493
 40
291.6732282684493
 40
291.6732282684493
 40
299.4262468212526
 40
299.4262468212526
 40
299.4262468212526
 40
301.6509282613566
 40
301.6509282613566
 40
301.6509282613566
 40
303.0206595854447
 40
303.0206595854447
 40
303.0206595854447
 40
303.3816182713635
 40
303.3816182713635
 40
303.3816182713635
 40
303.483644000201
 40
303.483644000201
 40
303.483644000201
 40
303.5384803041772
 40
303.5384803041772
 40
303.5384803041772
 40
423.6894596620992
 40
423.6894596620992
 40
423.6894596620992
 40
459.2263995128358
 40
459.2263995128358
 40
459.2263995128358
 40
482.652662101061
 40
482.652662101061
 40
482.652662101061
 40
482.652662101061
 10
3641.57333394847
 20
-1322.850247122056
 30
0.0
 41
1.0
 10
3560.870754932174
 20
-1322.846933073587
 30
0.0
 41
0.9999998464013075
 10
3480.168196759236
 20
-1322.788836534952
 30
0.0
 41
0.9999998464013075
 10
3399.465696617076
 20
-1322.675957532922
 30
0.0
 41
1.0
 10
3398.307551189149
 20
-1322.678277922799
 30
0.0
 41
1.0
 10
3397.149405761222
 20
-1322.680598312676
 30
0.0
 41
1.0
 10
3395.991260333295
 20
-1322.682918702553
 30
0.0
 41
1.0
 10
3395.4283217853
 20
-1322.644077249199
 30
0.0
 41
0.9974387417844978
 10
3394.864144524681
 20
-1322.654683187074
 30
0.0
 41
0.9974387417844978
 10
3394.30306356237
 20
-1322.714655022544
 30
0.0
 41
1.0
 10
3385.698011555824
 20
-1323.178889003005
 30
0.0
 41
0.9998703916940924
 10
3377.085478858971
 20
-1323.473361021412
 30
0.0
 41
0.9998703916940924
 10
3368.468814239129
 20
-1323.597956579705
 30
0.0
 41
1.0
 10
3366.578874957404
 20
-1323.626338221167
 30
0.0
 41
0.9999924749833154
 10
3364.68882215851
 20
-1323.645739859649
 30
0.0
 41
0.9999924749833154
 10
3362.798698510485
 20
-1323.656161057159
 30
0.0
 41
1.0
 10
3359.765675861838
 20
-1323.677038804164
 30
0.0
 41
0.9999493335980679
 10
3356.732626329118
 20
-1323.660522158068
 30
0.0
 41
0.9999493335980679
 10
3353.700010933447
 20
-1323.606613629385
 30
0.0
 41
1.0
 10
3353.525885275356
 20
-1323.603727797837
 30
0.0
 41
1.0
 10
3353.351759617266
 20
-1323.600841966289
 30
0.0
 41
1.0
 10
3353.177633959176
 20
-1323.597956134741
 30
0.0
 41
1.0
 10
3353.006091421626
 20
-1323.593360599492
 30
0.0
 41
1.0
 10
3352.834548884077
 20
-1323.588765064243
 30
0.0
 41
1.0
 10
3352.663006346529
 20
-1323.584169528993
 30
0.0
 41
1.0
 10
3352.494383404799
 20
-1323.579117191504
 30
0.0
 41
1.0
 10
3352.325760463069
 20
-1323.574064854014
 30
0.0
 41
1.0
 10
3352.15713752134
 20
-1323.569012516524
 30
0.0
 41
1.0
 10
3350.210742710105
 20
-1323.512334722402
 30
0.0
 41
0.999940391281294
 10
3348.265279843964
 20
-1323.429634238575
 30
0.0
 41
0.999940391281294
 10
3346.321096822568
 20
-1323.320925854053
 30
0.0
 41
1.0
 10
3345.58071026689
 20
-1323.278566362085
 30
0.0
 41
0.9999006630072076
 10
3344.841165257308
 20
-1323.223432369021
 30
0.0
 41
0.9999006630072076
 10
3344.102682186354
 20
-1323.155540305395
 30
0.0
 41
1.0
 10
3343.647558049145
 20
-1323.117263351684
 30
0.0
 41
0.9993267804113808
 10
3343.194613265126
 20
-1323.058576657401
 30
0.0
 41
0.9993267804113808
 10
3342.744762628201
 20
-1322.979598749643
 30
0.0
 41
1.0
 10
3342.626114706406
 20
-1322.958860098257
 30
0.0
 41
0.9978897474966985
 10
3342.509491136643
 20
-1322.928754218713
 30
0.0
 41
0.9978897474966985
 10
3342.39563023445
 20
-1322.889471704036
 30
0.0
 41
1.0
 10
3342.363521232414
 20
-1322.878039172598
 30
0.0
 41
0.9956062654408262
 10
3342.332934245938
 20
-1322.863001651354
 30
0.0
 41
0.9956062654408262
 10
3342.304272448322
 20
-1322.844557352933
 30
0.0
 41
1.0
 10
3342.292464314363
 20
-1322.830929002348
 30
0.0
 41
1.0
 10
3342.280656180404
 20
-1322.817300651763
 30
0.0
 41
1.0
 10
3342.268848046445
 20
-1322.803672301178
 30
0.0
 41
1.0
 10
3342.261289911144
 20
-1322.819197241478
 30
0.0
 41
1.0
 10
3342.253731775843
 20
-1322.834722181778
 30
0.0
 41
1.0
 10
3342.246173640542
 20
-1322.850247122079
 30
0.0
 41
1.0
 10
3337.713435765708
 20
-1308.867667671985
 30
0.0
 41
1.0
 10
3333.920632730997
 20
-1299.545248290445
 30
0.0
 41
1.0
 10
3328.193007452437
 20
-1291.332657462572
 30
0.0
 41
1.0
 10
3323.779984696703
 20
-1285.005017569194
 30
0.0
 41
1.0
 10
3318.218374108923
 20
-1279.336216272723
 30
0.0
 41
1.0
 10
3312.234515668455
 20
-1274.384429117203
 30
0.0
 41
1.0
  0
SPLINE
  5
75
330
1F
100
AcDbEntity
  8
EGC111 EFC011$2D
100
AcDbSpline
210
0.0
220
0.0
230
1.0
 70
    12
 71
     2
 72
     8
 73
     5
 74
     0
 42
0.000000001
 43
0.0000000001
 12
1.0
 22
0.0
 32
0.0
 13
1.0
 23
0.0
 33
0.0
 40
1.603021174222915
 40
1.603021174222915
 40
1.603021174222915
 40
1.855258415474415
 40
1.855258415474415
 40
7.566629819324125
 40
7.566629819324125
 40
7.566629819324125
 10
3346.397748149316
 20
-1326.792429808953
 30
0.0
 41
1.0
 10
3346.273871641192
 20
-1326.756769166436
 30
0.0
 41
1.0
 10
3346.149995133068
 20
-1326.721108523918
 30
0.0
 41
1.0
 10
3343.199851437709
 20
-1325.792410649798
 30
0.0
 41
0.8887514447339393
 10
3342.24617364054
 20
-1322.850247122079
 30
0.0
 41
1.0
  0
SPLINE
  5
76
330
1F
100
AcDbEntity
  8
EGC111 EFC011$2D
100
AcDbSpline
210
0.0
220
0.0
230
1.0
 70
    12
 71
     3
 72
    31
 73
    27
 74
     0
 42
0.000000001
 43
0.0000000001
 12
1.0
 22
0.0
 32
0.0
 13
1.0
 23
0.0
 33
0.0
 40
0.0
 40
0.0
 40
0.0
 40
0.0
 40
10.99278476339992
 40
10.99278476339992
 40
10.99278476339992
 40
18.35618266047759
 40
18.35618266047759
 40
18.35618266047759
 40
30.79992417487796
 40
30.79992417487796
 40
44.1614069845873
 40
44.1614069845873
 40
44.1614069845873
 40
55.57143108103671
 40
55.57143108103671
 40
67.07464633443885
 40
67.07464633443885
 40
67.07464633443885
 40
80.16103663065901
 40
80.16103663065901
 40
80.16103663065901
 40
98.697507696901
 40
98.697507696901
 40
113.683196068784
 40
113.683196068784
 40
140.1245230610326
 40
140.1245230610326
 40
140.1245230610326
 40
140.1245230610326
 10
3313.180397020143
 20
-1275.149008987787
 30
0.0
 41
1.0
 10
3310.352347528786
 20
-1272.816805587069
 30
0.0
 41
0.9992392312592987
 10
3307.416139572747
 20
-1270.622330828323
 30
0.0
 41
0.9992392312592979
 10
3304.378474477709
 20
-1268.570593174947
 30
0.0
 41
1.0
 10
3302.342992735037
 20
-1267.198704605425
 30
0.0
 41
0.9998571055618439
 10
3300.279544304396
 20
-1265.869251805956
 30
0.0
 41
0.9998571055618448
 10
3298.189013751697
 20
-1264.582804690769
 30
0.0
 41
1.0
 10
3294.86204677218
 20
-1262.511702225562
 30
0.0
 41
1.0
 10
3292.164024077357
 20
-1260.900413525489
 30
0.0
 41
1.0
 10
3285.189776038087
 20
-1256.251309244636
 30
0.0
 41
1.0
 10
3281.72308490493
 20
-1253.681892535604
 30
0.0
 41
1.0
 10
3278.417768133549
 20
-1250.510734248077
 30
0.0
 41
1.0
 10
3275.722820954548
 20
-1247.925171449638
 30
0.0
 41
1.0
 10
3273.276106238683
 20
-1245.063220186869
 30
0.0
 41
1.0
 10
3268.847519275065
 20
-1239.036335048135
 30
0.0
 41
1.0
 10
3266.843498439495
 20
-1235.834162814133
 30
0.0
 41
1.0
 10
3265.047145033578
 20
-1232.552282609518
 30
0.0
 41
1.0
 10
3262.959788242682
 20
-1228.71882712707
 30
0.0
 41
0.9987268991052005
 10
3261.113213937803
 20
-1224.763754100567
 30
0.0
 41
0.9987268991051996
 10
3259.51447474514
 20
-1220.702169151035
 30
0.0
 41
1.0
 10
3257.307200377889
 20
-1215.125041694723
 30
0.0
 41
1.0
 10
3255.624337998589
 20
-1209.560557839909
 30
0.0
 41
1.0
 10
3252.718661453476
 20
-1199.258801693898
 30
0.0
 41
1.0
 10
3251.24414928923
 20
-1193.703857871754
 30
0.0
 41
1.0
 10
3247.772241209034
 20
-1180.528455829755
 30
0.0
 41
1.0
 10
3245.646292590764
 20
-1172.394297835057
 30
0.0
 41
1.0
 10
3243.572391449462
 20
-1164.540301206029
 30
0.0
 41
1.0
  0
LINE
  5
77
330
1F
100
AcDbEntity
  8
EGC111 EFC011$2D
100
AcDbLine
 10
3516.79554964194
 20
-1157.000014058657
 30
0.0
 11
3516.713048904482
 21
-1157.000014058657
 31
0.0
  0
LINE
  5
78
330
1F
100
AcDbEntity
  8
EGC111 EFC011$2D
100
AcDbLine
 10
3516.842008838011
 20
-1157.000014058657
 30
0.0
 11
3516.81025368657
 21
-1157.000014058657
 31
0.0
  0
ARC
  5
79
330
1F
100
AcDbEntity
  8
EGC111 EFC011$2D
100
AcDbCircle
 10
3347.991331306997
 20
-1321.000014451469
 30
0.0
 40
5.999999607692923
100
AcDbArc
 50
255.3692266416207
 51
256.665697221756
  0
LINE
  5
7A
330
1F
100
AcDbEntity
  8
EGC111 EFC011$2D
100
AcDbLine
 10
3413.732550509705
 20
-1327.000014058657
 30
0.0
 11
3413.681915043609
 21
-1327.000014058657
 31
0.0
  0
LINE
  5
7B
330
1F
100
AcDbEntity
  8
EGC111 EFC011$2D
100
AcDbLine
 10
3415.458865558443
 20
-1327.000014058657
 30
0.0
 11
3415.410995012929
 21
-1327.000014058657
 31
0.0
  0
ARC
  5
7C
330
1F
100
AcDbEntity
  8
EGC111 EFC011$2D
100
AcDbCircle
 10
2600.573336094797
 20
-1328.000014058656
 30
0.0
 40
0.999999999998181
100
AcDbArc
 50
359.9999999998957
 51
84.85515865759518
  0
SPLINE
  5
7D
330
1F
100
AcDbEntity
  8
EGC111 EFC011$2D
100
AcDbSpline
210
0.0
220
0.0
230
1.0
 70
    12
 71
     3
 72
    31
 73
    27
 74
     0
 42
0.000000001
 43
0.0000000001
 12
1.0
 22
0.0
 32
0.0
 13
1.0
 23
0.0
 33
0.0
 40
0.0
 40
0.0
 40
0.0
 40
0.0
 40
10.99278476339956
 40
10.99278476339956
 40
10.99278476339956
 40
18.35618266069034
 40
18.35618266069034
 40
18.35618266069034
 40
30.79992417435196
 40
30.79992417435196
 40
44.16140698457156
 40
44.16140698457156
 40
44.16140698457156
 40
55.57143108094718
 40
55.57143108094718
 40
67.0746463345113
 40
67.0746463345113
 40
67.0746463345113
 40
80.16103663064703
 40
80.16103663064703
 40
80.16103663064703
 40
98.69750770177168
 40
98.69750770177168
 40
113.6831960691406
 40
113.6831960691406
 40
140.1245230611017
 40
140.1245230611017
 40
140.1245230611017
 40
140.1245230611017
 10
2448.180397212181
 20
-1275.149008987788
 30
0.0
 41
1.0
 10
2445.352347720825
 20
-1272.816805587069
 30
0.0
 41
0.9992392312592967
 10
2442.416139764784
 20
-1270.622330828324
 30
0.0
 41
0.9992392312592967
 10
2439.378474669748
 20
-1268.570593174948
 30
0.0
 41
1.0
 10
2437.342992927013
 20
-1267.198704605391
 30
0.0
 41
0.9998571055618677
 10
2435.279544496312
 20
-1265.869251805884
 30
0.0
 41
0.9998571055618676
 10
2433.189013943554
 20
-1264.582804690657
 30
0.0
 41
1.0
 10
2429.862046964722
 20
-1262.511702225878
 30
0.0
 41
1.0
 10
2427.16402426873
 20
-1260.900413525046
 30
0.0
 41
1.0
 10
2420.189776230488
 20
-1256.251309244878
 30
0.0
 41
1.0
 10
2416.723085096458
 20
-1253.681892535115
 30
0.0
 41
1.0
 10
2413.417768325587
 20
-1250.510734248077
 30
0.0
 41
1.0
 10
2410.722821146549
 20
-1247.925171449603
 30
0.0
 41
1.0
 10
2408.276106430764
 20
-1245.063220186925
 30
0.0
 41
1.0
 10
2403.847519467022
 20
-1239.036335048023
 30
0.0
 41
1.0
 10
2401.843498631556
 20
-1235.834162814181
 30
0.0
 41
1.0
 10
2400.047145225576
 20
-1232.552282609443
 30
0.0
 41
1.0
 10
2397.959788434669
 20
-1228.718827127031
 30
0.0
 41
0.9987268991049483
 10
2396.113214129805
 20
-1224.763754100552
 30
0.0
 41
0.9987268991049477
 10
2394.514474937179
 20
-1220.702169151036
 30
0.0
 41
1.0
 10
2392.307200569769
 20
-1215.125041694322
 30
0.0
 41
1.0
 10
2390.624338190725
 20
-1209.560557840257
 30
0.0
 41
1.0
 10
2387.718661646169
 20
-1199.258801696219
 30
0.0
 41
1.0
 10
2386.244149480904
 20
-1193.703857870371
 30
0.0
 41
1.0
 10
2382.772241401073
 20
-1180.528455829754
 30
0.0
 41
1.0
 10
2380.6462927828
 20
-1172.394297835047
 30
0.0
 41
1.0
 10
2378.5723916415
 20
-1164.54030120603
 30
0.0
 41
1.0
  0
ARC
  5
7E
330
1F
100
AcDbEntity
  8
EGC111 EFC011$2D
100
AcDbCircle
 10
2482.991329234035
 20
-1321.000014455147
 30
0.0
 40
5.999999604159845
100
AcDbArc
 50
255.3692749034318
 51
256.6657184192757
  0
LINE
  5
7F
330
1F
100
AcDbEntity
  8
EGC111 EFC011$2D
100
AcDbLine
 10
2631.573336094796
 20
-1473.000014058658
 30
0.0
 11
2766.573336094796
 21
-1473.000014058658
 31
0.0
  0
LINE
  5
80
330
1F
100
AcDbEntity
  8
EGC111 EFC011$2D
100
AcDbLine
 10
2631.573336094796
 20
-1443.000014058658
 30
0.0
 11
2766.573336094796
 21
-1443.000014058658
 31
0.0
  0
LINE
  5
81
330
1F
100
AcDbEntity
  8
EGC111 EFC011$2D
100
AcDbLine
 10
2586.573336094796
 20
-1383.000014058658
 30
0.0
 11
2586.573336094796
 21
-1358.000014058658
 31
0.0
  0
LINE
  5
82
330
1F
100
AcDbEntity
  8
EGC111 EFC011$2D
100
AcDbLine
 10
2556.573336094796
 20
-1383.000014058658
 30
0.0
 11
2556.573336094796
 21
-1358.000014058658
 31
0.0
  0
ARC
  5
83
330
1F
100
AcDbEntity
  8
EGC111 EFC011$2D
100
AcDbCircle
 10
2592.573340669594
 20
-1342.000016448505
 30
0.0
 40
1.00000278485244
100
AcDbArc
 50
276.7288326389216
 51
0.0001369278011484
  0
ARC
  5
84
330
1F
100
AcDbEntity
  8
EGC111 EFC011$2D
100
AcDbCircle
 10
2615.573336093322
 20
-1479.000014058501
 30
0.0
 40
1.000000001482455
100
AcDbArc
 50
353.0870922405699
 51
354.8374546307047
  0
SPLINE
  5
85
330
1F
100
AcDbEntity
  8
EGC111 EFC011$2D
100
AcDbSpline
210
0.0
220
0.0
230
1.0
 70
    15
 71
     3
 72
    58
 73
    54
 74
     0
 42
0.000000001
 43
0.0000000001
 12
1.0
 22
0.0
 32
0.0
 13
1.0
 23
0.0
 33
0.0
 40
100.3533400645098
 40
100.3533400645098
 40
100.3533400645098
 40
100.3533400645098
 40
101.8220212701739
 40
101.8220212701739
 40
101.8220212701739
 40
102.0685635190272
 40
102.0685635190272
 40
102.0685635190272
 40
103.3928175951845
 40
103.3928175951845
 40
103.3928175951845
 40
116.3928175951845
 40
116.3928175951845
 40
116.3928175951845
 40
117.8338468554638
 40
117.8338468554638
 40
117.8338468554638
 40
117.9321933104272
 40
117.9321933104272
 40
117.9321933104272
 40
118.0292575610188
 40
118.0292575610188
 40
118.0292575610188
 40
160.0182003350414
 40
160.0182003350414
 40
160.0182003350414
 40
160.8036011676596
 40
160.8036011676596
 40
160.8036011676596
 40
161.5890020002777
 40
161.5890020002777
 40
161.5890020002777
 40
174.5890020002777
 40
174.5890020002777
 40
174.5890020002777
 40
174.7468302330321
 40
174.9423553976859
 40
175.3345910330612
 40
175.7212177744676
 40
175.9066812799406
 40
175.9956169733787
 40
176.0387346505195
 40
176.0450923263908
 40
176.0488360034655
 40
176.0523622738498
 40
176.0696215960726
 40
176.1030117423359
 40
176.1030117423359
 40
176.1030117423359
 40
176.1318722897051
 40
176.1318722897051
 40
176.1318722897051
 40
216.6521338628324
 40
216.6521338628324
 40
216.6521338628324
 40
216.6521338628324
 10
2616.573336094797
 20
-1438.474223877065
 30
0.0
 41
1.0
 10
2616.573336094797
 20
-1437.98374203972
 30
0.0
 41
1.0
 10
2616.573336094797
 20
-1437.493260202374
 30
0.0
 41
1.0
 10
2616.573336094797
 20
-1437.002778365029
 30
0.0
 41
1.0
 10
2616.573223168193
 20
-1436.919469778129
 30
0.0
 41
0.9949420872651672
 10
2616.583353711282
 20
-1436.836779358487
 30
0.0
 41
0.9949420872651672
 10
2616.603574005857
 20
-1436.755961828884
 30
0.0
 41
1.0
 10
2616.720004424462
 20
-1436.293315755731
 30
0.0
 41
0.8591242150091064
 10
2617.096264369182
 20
-1436.000014058871
 30
0.0
 41
0.8591242150091064
 10
2617.573336094796
 20
-1436.000014058658
 30
0.0
 41
1.0
 10
2621.906669428129
 20
-1436.000012963647
 30
0.0
 41
1.0
 10
2626.240002761462
 20
-1436.000011868636
 30
0.0
 41
1.0
 10
2630.573336094796
 20
-1436.000010773625
 30
0.0
 41
1.0
 10
2631.101417663206
 20
-1436.000779984063
 30
0.0
 41
0.8343015583270734
 10
2631.497738276835
 20
-1436.349779562561
 30
0.0
 41
0.8343015583270734
 10
2631.56528881144
 20
-1436.873523450214
 30
0.0
 41
1.0
 10
2631.567447655785
 20
-1436.891903333863
 30
0.0
 41
1.0
 10
2631.56960650013
 20
-1436.910283217513
 30
0.0
 41
1.0
 10
2631.571765344475
 20
-1436.928663101163
 30
0.0
 41
1.0
 10
2631.572288927915
 20
-1436.953368189118
 30
0.0
 41
1.0
 10
2631.572812511355
 20
-1436.978073277073
 30
0.0
 41
1.0
 10
2631.573336094796
 20
-1437.002778365029
 30
0.0
 41
1.0
 10
2631.573336094796
 20
-1451.000935494033
 30
0.0
 41
1.0
 10
2631.573336094796
 20
-1464.999092623037
 30
0.0
 41
1.0
 10
2631.573336094797
 20
-1478.997249752041
 30
0.0
 41
1.0
 10
2631.574079846765
 20
-1479.266509040274
 30
0.0
 41
0.9490768243165469
 10
2631.471554080837
 20
-1479.515486117106
 30
0.0
 41
0.9490768243165469
 10
2631.281421609782
 20
-1479.706144872262
 30
0.0
 41
1.0
 10
2631.091289138728
 20
-1479.896803627418
 30
0.0
 41
0.9490768243165469
 10
2630.842596410228
 20
-1480.000017213045
 30
0.0
 41
0.9490768243165469
 10
2630.573336094796
 20
-1480.000017738482
 30
0.0
 41
1.0
 10
2626.240002761462
 20
-1480.000017738479
 30
0.0
 41
1.0
 10
2621.906669428129
 20
-1480.000017738476
 30
0.0
 41
1.0
 10
2617.573336094796
 20
-1480.000017738472
 30
0.0
 41
1.0
 10
2617.520710307908
 20
-1480.000024108595
 30
0.0
 41
1.0
 10
2617.402957078089
 20
-1479.990707841957
 30
0.0
 41
1.0
 10
2617.161254594965
 20
-1479.92760859531
 30
0.0
 41
1.0
 10
2616.878876596999
 20
-1479.754965842603
 30
0.0
 41
1.0
 10
2616.685442650021
 20
-1479.490267177963
 30
0.0
 41
1.0
 10
2616.610636506434
 20
-1479.28246482714
 30
0.0
 41
1.0
 10
2616.588578113433
 20
-1479.178185673086
 30
0.0
 41
1.0
 10
2616.582177461896
 20
-1479.133641984627
 30
0.0
 41
1.0
 10
2616.579783947465
 20
-1479.113549994211
 30
0.0
 41
1.0
 10
2616.580583414925
 20
-1479.119664914914
 30
0.0
 41
1.0
 10
2616.580583328705
 20
-1479.120711735495
 30
0.0
 41
1.0
 10
2616.577749055869
 20
-1479.095072524643
 30
0.0
 41
1.0
 10
2616.576713570504
 20
-1479.084072981303
 30
0.0
 41
1.0
 10
2616.575676965818
 20
-1479.071253473754
 30
0.0
 41
1.0
 10
2616.574896675477
 20
-1479.046585567311
 30
0.0
 41
1.0
 10
2616.574116385136
 20
-1479.021917660868
 30
0.0
 41
1.0
 10
2616.573336094796
 20
-1478.997249754425
 30
0.0
 41
1.0
 10
2616.573336094796
 20
-1465.489574461972
 30
0.0
 41
1.0
 10
2616.573336094796
 20
-1451.981899169518
 30
0.0
 41
1.0
 10
2616.573336094797
 20
-1438.474223877065
 30
0.0
 41
1.0
  0
SPLINE
  5
86
330
1F
100
AcDbEntity
  8
EGC111 EFC011$2D
100
AcDbSpline
210
0.0
220
0.0
230
1.0
 70
    12
 71
     2
 72
    36
 73
    33
 74
     0
 42
0.000000001
 43
0.0000000001
 12
1.0
 22
0.0
 32
0.0
 13
1.0
 23
0.0
 33
0.0
 40
0.0
 40
0.0
 40
0.0
 40
242.1068548939696
 40
242.1068548939696
 40
245.5768250656687
 40
245.5768250656687
 40
247.2671821608365
 40
247.2671821608365
 40
273.1181452649489
 40
273.1181452649489
 40
278.788581059078
 40
278.788581059078
 40
289.356127864816
 40
289.356127864816
 40
290.1686042429195
 40
290.1686042429195
 40
290.8938736915118
 40
290.8938736915118
 40
291.6732282684494
 40
291.6732282684494
 40
299.4262468212526
 40
299.4262468212526
 40
301.6509282613566
 40
301.6509282613566
 40
303.0206595854447
 40
303.0206595854447
 40
303.3816182713635
 40
303.3816182713635
 40
303.483644000201
 40
303.483644000201
 40
303.5384803041773
 40
303.5384803041773
 40
423.6894596620992
 40
423.6894596620992
 40
423.6894596620992
 10
2776.573334140508
 20
-1322.850247122056
 30
0.0
 41
1.0
 10
2655.519456319204
 20
-1322.845276048971
 30
0.0
 41
0.9999997696019611
 10
2534.465696809114
 20
-1322.675957532923
 30
0.0
 41
1.0
 10
2532.728478667224
 20
-1322.679438117738
 30
0.0
 41
1.0
 10
2530.991260525333
 20
-1322.682918702554
 30
0.0
 41
1.0
 10
2530.145767159569
 20
-1322.624581622522
 30
0.0
 41
0.9961581126768067
 10
2529.303063754409
 20
-1322.714655022545
 30
0.0
 41
1.0
 10
2516.394649117279
 20
-1323.411051128446
 30
0.0
 41
0.9998055875411394
 10
2503.468814431167
 20
-1323.597956579706
 30
0.0
 41
1.0
 10
2500.63389484209
 20
-1323.64052920208
 30
0.0
 41
0.9999887124749733
 10
2497.798698702523
 20
-1323.656161057159
 30
0.0
 41
1.0
 10
2493.249049466534
 20
-1323.687478471079
 30
0.0
 41
0.9999240003971013
 10
2488.700011125485
 20
-1323.606613629386
 30
0.0
 41
1.0
 10
2488.438822638349
 20
-1323.602284882064
 30
0.0
 41
1.0
 10
2488.177634151214
 20
-1323.597956134741
 30
0.0
 41
1.0
 10
2487.92032034489
 20
-1323.591062831868
 30
0.0
 41
1.0
 10
2487.663006538567
 20
-1323.584169528994
 30
0.0
 41
1.0
 10
2487.410072125972
 20
-1323.57659102276
 30
0.0
 41
1.0
 10
2487.157137713378
 20
-1323.569012516525
 30
0.0
 41
1.0
 10
2484.237458472167
 20
-1323.483993291247
 30
0.0
 41
0.9999105869219409
 10
2481.321097014606
 20
-1323.320925854054
 30
0.0
 41
1.0
 10
2480.210462012038
 20
-1323.257383459734
 30
0.0
 41
0.9998509945108114
 10
2479.102682378392
 20
-1323.155540305396
 30
0.0
 41
1.0
 10
2478.419766141423
 20
-1323.098105528696
 30
0.0
 41
0.9989901706170493
 10
2477.744762820239
 20
-1322.979598749644
 30
0.0
 41
1.0
 10
2477.566602558451
 20
-1322.948457845494
 30
0.0
 41
0.9968346212453189
 10
2477.395630426488
 20
-1322.889471704037
 30
0.0
 41
1.0
 10
2477.347360412639
 20
-1322.87228498331
 30
0.0
 41
0.9934093981595724
 10
2477.30427264036
 20
-1322.844557352934
 30
0.0
 41
1.0
 10
2477.286560439421
 20
-1322.824114827056
 30
0.0
 41
1.0
 10
2477.268848238483
 20
-1322.803672301178
 30
0.0
 41
1.0
 10
2477.257511035531
 20
-1322.826959711629
 30
0.0
 41
1.0
 10
2477.24617383258
 20
-1322.85024712208
 30
0.0
 41
1.0
  0
SPLINE
  5
87
330
1F
100
AcDbEntity
  8
EGC111 EFC011$2D
100
AcDbSpline
210
0.0
220
0.0
230
1.0
 70
     8
 71
     2
 72
     8
 73
     5
 74
     0
 42
0.000000001
 43
0.0000000001
 12
1.0
 22
0.0
 32
0.0
 13
1.0
 23
0.0
 33
0.0
 40
3.774155114824966
 40
3.774155114824966
 40
3.774155114824966
 40
5.674747800941139
 40
5.674747800941139
 40
5.69067447566772
 40
5.69067447566772
 40
5.69067447566772
 10
2477.26900824302
 20
-1322.803617467294
 30
0.0
 10
2476.964486493937
 20
-1321.846299004006
 30
0.0
 10
2476.659964744854
 20
-1320.888980540719
 30
0.0
 10
2476.657285227218
 20
-1320.880633572075
 30
0.0
 10
2476.654605709582
 20
-1320.872286603431
 30
0.0
  0
SPLINE
  5
88
330
1F
100
AcDbEntity
  8
EGC111 EFC011$2D
100
AcDbSpline
210
0.0
220
0.0
230
1.0
 70
    12
 71
     2
 72
    14
 73
    11
 74
     0
 42
0.000000001
 43
0.0000000001
 12
1.0
 22
0.0
 32
0.0
 13
1.0
 23
0.0
 33
0.0
 40
0.0
 40
0.0
 40
0.0
 40
1.510694387590648
 40
1.510694387590648
 40
38.51069438759065
 40
38.51069438759065
 40
57.51068822113471
 40
57.51068822113471
 40
58.83494172342316
 40
58.83494172342316
 40
58.99586529320606
 40
58.99586529320606
 40
58.99586529320606
 10
2595.633414078648
 20
-1398.001820000994
 30
0.0
 41
1.0
 10
2596.573347600727
 20
-1398.058380321085
 30
0.0
 41
0.7280332855640085
 10
2596.57334644287
 20
-1399.000014058658
 30
0.0
 41
1.0
 10
2596.573344352061
 20
-1417.500014058658
 30
0.0
 41
1.0
 10
2596.573342261252
 20
-1436.000014058658
 30
0.0
 41
1.0
 10
2606.073339178024
 20
-1436.000012416144
 30
0.0
 41
1.0
 10
2615.573336094796
 20
-1436.000010773629
 30
0.0
 41
1.0
 10
2616.352854743579
 20
-1436.000007135557
 30
0.0
 41
0.788684580620261
 10
2616.543097253081
 20
-1436.755954958751
 30
0.0
 41
1.0
 10
2616.556384859073
 20
-1436.835224020867
 30
0.0
 41
1.0
 10
2616.569672465065
 20
-1436.914493082983
 30
0.0
 41
1.0
  0
SPLINE
  5
89
330
1F
100
AcDbEntity
  8
EGC111 EFC011$2D
100
AcDbSpline
210
0.0
220
0.0
230
1.0
 70
    12
 71
     3
 72
    17
 73
    13
 74
     0
 42
0.000000001
 43
0.0000000001
 12
1.0
 22
0.0
 32
0.0
 13
1.0
 23
0.0
 33
0.0
 40
1.603029111667959
 40
1.603029111667959
 40
1.603029111667959
 40
1.603029111667959
 40
1.855258415474404
 40
1.855258415474404
 40
1.855258415474404
 40
7.566629819324122
 40
7.566629819324122
 40
7.566629819324122
 40
43.10356967006042
 40
43.10356967006042
 40
43.10356967006042
 40
66.52983225828555
 40
66.52983225828555
 40
66.52983225828555
 40
66.52983225828555
 10
2481.397740539175
 20
-1326.79242770151
 30
0.0
 41
1.0
 10
2481.315158801152
 20
-1326.768654642313
 30
0.0
 41
1.0
 10
2481.232577063128
 20
-1326.744881583116
 30
0.0
 41
1.0
 10
2481.149995325105
 20
-1326.721108523919
 30
0.0
 41
1.0
 10
2479.262008470896
 20
-1326.126774973106
 30
0.0
 41
0.9258342964893345
 10
2477.856493644132
 20
-1324.733126953326
 30
0.0
 41
0.9258342964893345
 10
2477.246173832578
 20
-1322.850247122079
 30
0.0
 41
1.0
 10
2472.713435957746
 20
-1308.867667671986
 30
0.0
 41
1.0
 10
2468.920632923035
 20
-1299.545248290445
 30
0.0
 41
1.0
 10
2463.193007644475
 20
-1291.332657462572
 30
0.0
 41
1.0
 10
2458.779984888742
 20
-1285.005017569195
 30
0.0
 41
1.0
 10
2453.218374300961
 20
-1279.336216272724
 30
0.0
 41
1.0
 10
2447.234515860493
 20
-1274.384429117204
 30
0.0
 41
1.0
  0
SPLINE
  5
8A
330
1F
100
AcDbEntity
  8
EGC111 EFC011$2D
100
AcDbSpline
210
0.0
220
0.0
230
1.0
 70
    12
 71
     2
 72
    14
 73
    11
 74
     0
 42
0.000000001
 43
0.0000000001
 12
1.0
 22
0.0
 32
0.0
 13
1.0
 23
0.0
 33
0.0
 40
0.0
 40
0.0
 40
0.0
 40
1.570796326795222
 40
1.570796326795222
 40
59.5707964026182
 40
59.5707964026182
 40
61.141592729413
 40
61.141592729413
 40
64.14159272941299
 40
64.14159272941299
 40
65.62259463528915
 40
65.62259463528915
 40
65.62259463528915
 10
2601.573336094796
 20
-1331.000014058658
 30
0.0
 41
1.0
 10
2601.573336094796
 20
-1332.000014058658
 30
0.0
 41
0.7071067811864672
 10
2600.573336094796
 20
-1332.000014058658
 30
0.0
 41
1.0
 10
2571.57333607584
 20
-1332.000014058658
 30
0.0
 41
1.0
 10
2542.573336056884
 20
-1332.000014058658
 30
0.0
 41
1.0
 10
2541.573336244427
 20
-1332.000013871115
 30
0.0
 41
0.7071069003957771
 10
2541.573336094795
 20
-1331.000014058658
 30
0.0
 41
1.0
 10
2541.573336094795
 20
-1329.500014058658
 30
0.0
 41
1.0
 10
2541.573336094796
 20
-1328.000014058658
 30
0.0
 41
1.0
 10
2541.573336094796
 20
-1327.086005491245
 30
0.0
 41
0.7381306795724107
 10
2542.483662294544
 20
-1327.004042869542
 30
0.0
 41
1.0
  0
SPLINE
  5
8B
330
1F
100
AcDbEntity
  8
EGC111 EFC011$2D
100
AcDbSpline
210
0.0
220
0.0
230
1.0
 70
    12
 71
     2
 72
    10
 73
     7
 74
     0
 42
0.000000001
 43
0.0000000001
 12
1.0
 22
0.0
 32
0.0
 13
1.0
 23
0.0
 33
0.0
 40
0.0
 40
0.0
 40
0.0
 40
0.1263251697205314
 40
0.1263251697205314
 40
1.450584013366362
 40
1.450584013366362
 40
11.45058401336648
 40
11.45058401336648
 40
11.45058401336648
 10
2550.453408372292
 20
-1342.992796684098
 30
0.0
 41
1.0
 10
2550.39134611909
 20
-1342.981286415956
 30
0.0
 41
1.0
 10
2550.329283865889
 20
-1342.969776147814
 30
0.0
 41
1.0
 10
2549.573331408643
 20
-1342.779536502401
 30
0.0
 41
0.7886839214914335
 10
2549.573332809763
 20
-1342.000014058658
 30
0.0
 41
1.0
 10
2549.57333445228
 20
-1337.000014058658
 30
0.0
 41
1.0
 10
2549.573336094796
 20
-1332.000014058658
 30
0.0
 41
1.0
  0
LINE
  5
8C
330
1F
100
AcDbEntity
  8
EGC111 EFC011$2D
100
AcDbLine
 10
2546.579501268912
 20
-1399.000014058658
 30
0.0
 11
2596.567183253591
 21
-1399.000014058658
 31
0.0
  0
LINE
  5
8D
330
1F
100
AcDbEntity
  8
EGC111 EFC011$2D
100
AcDbLine
 10
2546.579501268913
 20
-1532.000014058658
 30
0.0
 11
2596.567183253591
 21
-1532.000014058658
 31
0.0
  0
LINE
  5
8E
330
1F
100
AcDbEntity
  8
EGC111 EFC011$2D
100
AcDbLine
 10
2615.573336094795
 20
-1436.005433985399
 30
0.0
 11
2615.573336094796
 21
-1479.994594131916
 31
0.0
  0
LINE
  5
8F
330
1F
100
AcDbEntity
  8
EGC111 EFC011$2D
100
AcDbLine
 10
2617.573336094796
 20
-1436.005433985399
 30
0.0
 11
2617.573336094796
 21
-1479.994594131916
 31
0.0
  0
LINE
  5
90
330
1F
100
AcDbEntity
  8
EGC111 EFC011$2D
100
AcDbLine
 10
2630.573336094796
 20
-1436.0054339854
 30
0.0
 11
2630.573336094796
 21
-1479.994594131916
 31
0.0
  0
SPLINE
  5
91
330
1F
100
AcDbEntity
  8
EGC111 EFC011$2D
100
AcDbSpline
210
0.0
220
0.0
230
1.0
 70
    15
 71
     2
 72
    34
 73
    31
 74
     0
 42
0.000000001
 43
0.0000000001
 12
1.0
 22
0.0
 32
0.0
 13
1.0
 23
0.0
 33
0.0
 40
44.63037139164521
 40
44.63037139164521
 40
44.63037139164521
 40
46.30886419805029
 40
46.30886419805029
 40
46.55540644690325
 40
46.55540644690325
 40
47.87966052306014
 40
47.87966052306014
 40
60.87966052306037
 40
60.87966052306037
 40
62.31315892971453
 40
62.31315892971453
 40
62.41444215965012
 40
62.41444215965012
 40
62.44262896954321
 40
62.44262896954321
 40
110.429992139824
 40
110.429992139824
 40
110.6765343886769
 40
110.6765343886769
 40
112.0007884648338
 40
112.0007884648338
 40
125.000788464834
 40
125.000788464834
 40
126.43428686959
 40
126.43428686959
 40
126.5355701133053
 40
126.5355701133053
 40
126.5637569282228
 40
126.5637569282228
 40
172.8726211256485
 40
172.8726211256485
 40
172.8726211256485
 10
2593.88853104026
 20
-1383.000014058658
 30
0.0
 41
1.0
 10
2594.729357047109
 20
-1383.000014058658
 30
0.0
 41
1.0
 10
2595.570183053958
 20
-1383.000014058658
 30
0.0
 41
1.0
 10
2595.695661773644
 20
-1382.999820206854
 30
0.0
 41
0.9924135535647621
 10
2595.817394491026
 20
-1383.030251969719
 30
0.0
 41
1.0
 10
2596.573342260903
 20
-1383.220495268858
 30
0.0
 41
0.7886863225138357
 10
2596.573342261251
 20
-1384.000014058658
 30
0.0
 41
1.0
 10
2596.573344352061
 20
-1390.500014058658
 30
0.0
 41
1.0
 10
2596.573346442871
 20
-1397.000014058658
 30
0.0
 41
1.0
 10
2596.573378996426
 20
-1397.871368965267
 30
0.0
 41
0.7538746175222943
 10
2595.710202844331
 20
-1397.990475240438
 30
0.0
 41
1.0
 10
2595.693496445967
 20
-1397.993910623324
 30
0.0
 41
0.9987611071301916
 10
2595.676531307004
 20
-1397.995668366703
 30
0.0
 41
1.0
 10
2595.623357180345
 20
-1397.997841212681
 30
0.0
 41
1.0
 10
2595.570183053686
 20
-1398.000014058658
 30
0.0
 41
1.0
 10
2571.573342261116
 20
-1398.000014058658
 30
0.0
 41
1.0
 10
2547.576501468545
 20
-1398.000014058658
 30
0.0
 41
1.0
 10
2547.451022748861
 20
-1398.000207910462
 30
0.0
 41
0.9924135535650022
 10
2547.329290031479
 20
-1397.969776147597
 30
0.0
 41
1.0
 10
2546.5733422616
 20
-1397.779532848458
 30
0.0
 41
0.7886863225136506
 10
2546.573342261251
 20
-1397.000014058658
 30
0.0
 41
1.0
 10
2546.573340170442
 20
-1390.500014058658
 30
0.0
 41
1.0
 10
2546.573338079633
 20
-1384.000014058658
 30
0.0
 41
1.0
 10
2546.573305526075
 20
-1383.128659153716
 30
0.0
 41
0.7538746181367963
 10
2547.436481676295
 20
-1383.009552877155
 30
0.0
 41
1.0
 10
2547.453188075322
 20
-1383.006117493967
 30
0.0
 41
0.9987611069035006
 10
2547.470153214993
 20
-1383.00435975051
 30
0.0
 41
1.0
 10
2547.523327341906
 20
-1383.002186904584
 30
0.0
 41
1.0
 10
2547.576501468819
 20
-1383.000014058658
 30
0.0
 41
1.0
 10
2570.732516254539
 20
-1383.000014058658
 30
0.0
 41
1.0
 10
2593.88853104026
 20
-1383.000014058658
 30
0.0
 41
1.0
  0
LINE
  5
92
330
1F
100
AcDbEntity
  8
EGC111 EFC011$2D
100
AcDbLine
 10
2546.579501268913
 20
-1397.000014058658
 30
0.0
 11
2596.567183253591
 21
-1397.000014058658
 31
0.0
  0
SPLINE
  5
93
330
1F
100
AcDbEntity
  8
EGC111 EFC011$2D
100
AcDbSpline
210
0.0
220
0.0
230
1.0
 70
    12
 71
     2
 72
    28
 73
    25
 74
     0
 42
0.000000001
 43
0.0000000001
 12
1.0
 22
0.0
 32
0.0
 13
1.0
 23
0.0
 33
0.0
 40
0.0
 40
0.0
 40
0.0
 40
1.499819873930282
 40
1.499819873930282
 40
20.49981370747435
 40
20.49981370747435
 40
72.49981370747423
 40
72.49981370747423
 40
73.93331209593735
 40
73.93331209593735
 40
74.03459545679158
 40
74.03459545679158
 40
74.0627823146317
 40
74.0627823146317
 40
122.0501454849125
 40
122.0501454849125
 40
122.2966877337657
 40
122.2966877337657
 40
123.6209472272813
 40
123.6209472272813
 40
256.6209472272812
 40
256.6209472272812
 40
257.9452006251635
 40
257.9452006251635
 40
258.1317047970239
 40
258.1317047970239
 40
258.1317047970239
 10
2616.570817945005
 20
-1479.070936259015
 30
0.0
 41
1.0
 10
2616.504763759892
 20
-1480.000018784917
 30
0.0
 41
0.7317499635314495
 10
2615.573336094796
 20
-1480.000017738472
 30
0.0
 41
1.0
 10
2606.073339178024
 20
-1480.000015898565
 30
0.0
 41
1.0
 10
2596.573342261252
 20
-1480.000014058658
 30
0.0
 41
1.0
 10
2596.573344352061
 20
-1506.000014058658
 30
0.0
 41
1.0
 10
2596.573346442871
 20
-1532.000014058658
 30
0.0
 41
1.0
 10
2596.573378996452
 20
-1532.871368949288
 30
0.0
 41
0.7538746234111462
 10
2595.710202862324
 20
-1532.990475237776
 30
0.0
 41
1.0
 10
2595.693496457622
 20
-1532.993910623545
 30
0.0
 41
0.9987611049488158
 10
2595.67653131191
 20
-1532.995668367674
 30
0.0
 41
1.0
 10
2595.623357182798
 20
-1532.997841213166
 30
0.0
 41
1.0
 10
2595.570183053686
 20
-1533.000014058658
 30
0.0
 41
1.0
 10
2571.573342261116
 20
-1533.000014058658
 30
0.0
 41
1.0
 10
2547.576501468545
 20
-1533.000014058658
 30
0.0
 41
1.0
 10
2547.451022749759
 20
-1533.000207906814
 30
0.0
 41
0.9924135571923364
 10
2547.329290032344
 20
-1532.969776147814
 30
0.0
 41
1.0
 10
2546.573336920499
 20
-1532.779537012678
 30
0.0
 41
0.7886835818675144
 10
2546.573338528259
 20
-1532.000014058658
 30
0.0
 41
1.0
 10
2546.573338528259
 20
-1465.500014058658
 30
0.0
 41
1.0
 10
2546.57333852826
 20
-1399.000014058658
 30
0.0
 41
1.0
 10
2546.573334367001
 20
-1398.220495436323
 30
0.0
 41
0.7886843340655997
 10
2547.329282189453
 20
-1398.03025303223
 30
0.0
 41
1.0
 10
2547.421307292442
 20
-1398.016034653439
 30
0.0
 41
1.0
 10
2547.51333239543
 20
-1398.001816274647
 30
0.0
 41
1.0
  0
LINE
  5
94
330
1F
100
AcDbEntity
  8
EGC111 EFC011$2D
100
AcDbLine
 10
2596.567183253592
 20
-1384.000014058657
 30
0.0
 11
2546.579501268913
 21
-1384.000014058658
 31
0.0
  0
SPLINE
  5
95
330
1F
100
AcDbEntity
  8
EGC111 EFC011$2D
100
AcDbSpline
210
0.0
220
0.0
230
1.0
 70
     8
 71
     2
 72
    10
 73
     7
 74
     0
 42
0.000000001
 43
0.0000000001
 12
1.0
 22
0.0
 32
0.0
 13
1.0
 23
0.0
 33
0.0
 40
-59.99260919080689
 40
-59.99260919080689
 40
-59.99260919080689
 40
0.0000000000000036
 40
0.0000000000000036
 40
3.0
 40
3.0
 40
62.99260919080712
 40
62.99260919080712
 40
62.99260919080712
 10
2541.580726903989
 20
-1328.000014058658
 30
0.0
 10
2571.577031499392
 20
-1328.000014058658
 30
0.0
 10
2601.573336094796
 20
-1328.000014058658
 30
0.0
 10
2601.573336094796
 20
-1329.500014058658
 30
0.0
 10
2601.573336094796
 20
-1331.000014058658
 30
0.0
 10
2571.577031499392
 20
-1331.000014058658
 30
0.0
 10
2541.580726903989
 20
-1331.000014058658
 30
0.0
  0
SPLINE
  5
96
330
1F
100
AcDbEntity
  8
EGC111 EFC011$2D
100
AcDbSpline
210
0.0
220
0.0
230
1.0
 70
     8
 71
     2
 72
     8
 73
     5
 74
     0
 42
0.000000001
 43
0.0000000001
 12
1.0
 22
0.0
 32
0.0
 13
1.0
 23
0.0
 33
0.0
 40
65.45761473315477
 40
65.45761473315477
 40
65.45761473315477
 40
131.9460580447844
 40
131.9460580447844
 40
141.9460580447844
 40
141.9460580447844
 40
141.9460580447844
 10
2549.578756021538
 20
-1342.000014058658
 30
0.0
 10
2571.576046058167
 20
-1342.000014058658
 30
0.0
 10
2593.573336094796
 20
-1342.000014058658
 30
0.0
 10
2593.573336094796
 20
-1337.000014058658
 30
0.0
 10
2593.573336094796
 20
-1332.000014058658
 30
0.0
  0
SPLINE
  5
97
330
1F
100
AcDbEntity
  8
EGC111 EFC011$2D
100
AcDbSpline
210
0.0
220
0.0
230
1.0
 70
    15
 71
     3
 72
    53
 73
    49
 74
     0
 42
0.000000001
 43
0.0000000001
 12
1.0
 22
0.0
 32
0.0
 13
1.0
 23
0.0
 33
0.0
 40
44.6303775580916
 40
44.6303775580916
 40
44.6303775580916
 40
44.6303775580916
 40
46.3088703644969
 40
46.3088703644969
 40
46.3088703644969
 40
46.55541261334987
 40
46.55541261334987
 40
46.55541261334987
 40
47.87966668950683
 40
47.87966668950683
 40
47.87966668950683
 40
60.87966668950705
 40
60.87966668950705
 40
60.87966668950705
 40
62.31316509621861
 40
62.31316509621861
 40
62.31316509621861
 40
62.33306194679681
 40
62.33306194679681
 40
62.33306194679681
 40
62.41444832566864
 40
62.41444832566864
 40
62.41444832566864
 40
62.44263513536213
 40
62.44263513536213
 40
62.44263513536213
 40
110.4299921391959
 40
110.4299921391959
 40
110.4299921391959
 40
110.6765343880486
 40
110.6765343880486
 40
110.6765343880486
 40
112.0007884642059
 40
112.0007884642059
 40
112.0007884642059
 40
125.0007884642061
 40
125.0007884642061
 40
125.0007884642061
 40
126.4342868686692
 40
126.4342868686692
 40
126.4342868686692
 40
126.5355701144702
 40
126.5355701144702
 40
126.5355701144702
 40
126.5637569291276
 40
126.5637569291276
 40
126.5637569291276
 40
172.8726272929997
 40
172.8726272929997
 40
172.8726272929997
 40
172.8726272929997
 10
2593.88853104026
 20
-1343.000014058658
 30
0.0
 41
1.0
 10
2594.449081711492
 20
-1343.000014058658
 30
0.0
 41
1.0
 10
2595.009632382725
 20
-1343.000014058658
 30
0.0
 41
1.0
 10
2595.570183053958
 20
-1343.000014058658
 30
0.0
 41
1.0
 10
2595.653622916724
 20
-1342.999885152593
 30
0.0
 41
0.9949423690434083
 10
2595.736445615727
 20
-1343.010015692814
 30
0.0
 41
0.9949423690434083
 10
2595.817394491026
 20
-1343.030251969719
 30
0.0
 41
1.0
 10
2596.28004056418
 20
-1343.146682388324
 30
0.0
 41
0.8591242150088823
 10
2596.57334226104
 20
-1343.522942333043
 30
0.0
 41
0.8591242150088823
 10
2596.573342261252
 20
-1344.000014058658
 30
0.0
 41
1.0
 10
2596.573343655125
 20
-1348.333347391991
 30
0.0
 41
1.0
 10
2596.573345048998
 20
-1352.666680725325
 30
0.0
 41
1.0
 10
2596.573346442871
 20
-1357.000014058658
 30
0.0
 41
1.0
 10
2596.573366015242
 20
-1357.523904037606
 30
0.0
 41
0.8359164116683656
 10
2596.2291754612
 20
-1357.918864254506
 30
0.0
 41
0.8359164116683656
 10
2595.710202844275
 20
-1357.990475240446
 30
0.0
 41
1.0
 10
2595.716243609984
 20
-1357.989541146439
 30
0.0
 41
1.0
 10
2595.719574350833
 20
-1357.989137425476
 30
0.0
 41
1.0
 10
2595.714528277602
 20
-1357.989980520213
 30
0.0
 41
1.0
 10
2595.70186262073
 20
-1357.991876469042
 30
0.0
 41
1.0
 10
2595.689196963858
 20
-1357.993772417871
 30
0.0
 41
1.0
 10
2595.676531306985
 20
-1357.9956683667
 30
0.0
 41
1.0
 10
2595.641081889219
 20
-1357.997116930686
 30
0.0
 41
1.0
 10
2595.605632471452
 20
-1357.998565494672
 30
0.0
 41
1.0
 10
2595.570183053686
 20
-1358.000014058658
 30
0.0
 41
1.0
 10
2579.572289191972
 20
-1358.000014058658
 30
0.0
 41
1.0
 10
2563.574395330259
 20
-1358.000014058658
 30
0.0
 41
1.0
 10
2547.576501468545
 20
-1358.000014058658
 30
0.0
 41
1.0
 10
2547.49306160578
 20
-1358.000142964722
 30
0.0
 41
0.9949423690433156
 10
2547.410238906778
 20
-1357.990012424501
 30
0.0
 41
0.9949423690433156
 10
2547.329290031479
 20
-1357.969776147597
 30
0.0
 41
1.0
 10
2546.866643958324
 20
-1357.853345728993
 30
0.0
 41
0.8591242150084769
 10
2546.573342261464
 20
-1357.477085784273
 30
0.0
 41
0.8591242150084769
 10
2546.573342261252
 20
-1357.000014058658
 30
0.0
 41
1.0
 10
2546.573340867379
 20
-1352.666680725325
 30
0.0
 41
1.0
 10
2546.573339473506
 20
-1348.333347391991
 30
0.0
 41
1.0
 10
2546.573338079633
 20
-1344.000014058658
 30
0.0
 41
1.0
 10
2546.57331850726
 20
-1343.476124080695
 30
0.0
 41
0.835916412153949
 10
2546.917509060217
 20
-1343.081163864155
 30
0.0
 41
0.835916412153949
 10
2547.436481676006
 20
-1343.009552877198
 30
0.0
 41
1.0
 10
2547.447614672197
 20
-1343.007263568284
 30
0.0
 41
0.9991740712456295
 10
2547.458847796265
 20
-1343.00553109515
 30
0.0
 41
0.9991740712456295
 10
2547.470153214929
 20
-1343.004359750493
 30
0.0
 41
1.0
 10
2547.505602632893
 20
-1343.002911186548
 30
0.0
 41
1.0
 10
2547.541052050856
 20
-1343.001462622603
 30
0.0
 41
1.0
 10
2547.576501468819
 20
-1343.000014058658
 30
0.0
 41
1.0
 10
2563.013844659299
 20
-1343.000014058658
 30
0.0
 41
1.0
 10
2578.451187849779
 20
-1343.000014058658
 30
0.0
 41
1.0
 10
2593.88853104026
 20
-1343.000014058658
 30
0.0
 41
1.0
  0
LINE
  5
98
330
1F
100
AcDbEntity
  8
EGC111 EFC011$2D
100
AcDbLine
 10
2546.579501268913
 20
-1357.000014058658
 30
0.0
 11
2596.567183253591
 21
-1357.000014058658
 31
0.0
  0
LINE
  5
99
330
1F
100
AcDbEntity
  8
EGC111 EFC011$2D
100
AcDbLine
 10
2596.567183253592
 20
-1344.000014058658
 30
0.0
 11
2546.579501268913
 21
-1344.000014058658
 31
0.0
  0
SPLINE
  5
9A
330
1F
100
AcDbEntity
  8
EGC111 EFC011$2D
100
AcDbSpline
210
0.0
220
0.0
230
1.0
 70
    12
 71
     2
 72
    10
 73
     7
 74
     0
 42
0.000000001
 43
0.0000000001
 12
1.0
 22
0.0
 32
0.0
 13
1.0
 23
0.0
 33
0.0
 40
0.0
 40
0.0
 40
0.0
 40
1.570796326794702
 40
1.570796326794702
 40
69.57079641569149
 40
69.57079641569149
 40
71.14159274248637
 40
71.14159274248637
 40
71.14159274248637
 10
2775.573336094796
 20
-1423.000014058658
 30
0.0
 41
1.0
 10
2776.573336094797
 20
-1423.000014058658
 30
0.0
 41
0.7071067811861456
 10
2776.573336094795
 20
-1424.000014058658
 30
0.0
 41
1.0
 10
2776.573336094795
 20
-1458.000014080882
 30
0.0
 41
1.0
 10
2776.573336094796
 20
-1492.000014103107
 30
0.0
 41
1.0
 10
2776.573335903984
 20
-1493.000013912296
 30
0.0
 41
0.707106900395295
 10
2775.573336094796
 20
-1493.000014058658
 30
0.0
 41
1.0
  0
SPLINE
  5
9B
330
1F
100
AcDbEntity
  8
EGC111 EFC011$2D
100
AcDbSpline
210
0.0
220
0.0
230
1.0
 70
    12
 71
     2
 72
    18
 73
    15
 74
     0
 42
0.000000001
 43
0.0000000001
 12
1.0
 22
0.0
 32
0.0
 13
1.0
 23
0.0
 33
0.0
 40
0.0
 40
0.0
 40
0.0
 40
69.99999999999994
 40
69.99999999999994
 40
77.99999999999994
 40
77.99999999999994
 40
147.9999999999999
 40
147.9999999999999
 40
155.9999999999999
 40
155.9999999999999
 40
157.5707963267948
 40
157.5707963267948
 40
225.5707963267949
 40
225.5707963267949
 40
227.1415926535902
 40
227.1415926535902
 40
227.1415926535902
 10
2767.573336094796
 20
-1423.000014058658
 30
0.0
 41
1.0
 10
2767.573336094796
 20
-1458.000014058658
 30
0.0
 41
1.0
 10
2767.573336094796
 20
-1493.000014058658
 30
0.0
 41
1.0
 10
2771.573336094796
 20
-1493.000014058658
 30
0.0
 41
1.0
 10
2775.573336094796
 20
-1493.000014058658
 30
0.0
 41
1.0
 10
2775.573336094796
 20
-1458.000014058658
 30
0.0
 41
1.0
 10
2775.573336094796
 20
-1423.000014058658
 30
0.0
 41
1.0
 10
2771.573336094796
 20
-1423.000014058658
 30
0.0
 41
1.0
 10
2767.573336094796
 20
-1423.000014058658
 30
0.0
 41
1.0
 10
2766.573336094797
 20
-1423.000014058656
 30
0.0
 41
0.7071067811863868
 10
2766.573336094795
 20
-1424.000014058656
 30
0.0
 41
1.0
 10
2766.573336094795
 20
-1458.000014058657
 30
0.0
 41
1.0
 10
2766.573336094796
 20
-1492.000014058658
 30
0.0
 41
1.0
 10
2766.573336094796
 20
-1493.000014058658
 30
0.0
 41
0.7071067811868691
 10
2767.573336094795
 20
-1493.000014058658
 30
0.0
 41
1.0
  0
SPLINE
  5
9C
330
1F
100
AcDbEntity
  8
EGC111 EFC011$2D
100
AcDbSpline
210
0.0
220
0.0
230
1.0
 70
    12
 71
     2
 72
    66
 73
    63
 74
     0
 42
0.000000001
 43
0.0000000001
 12
1.0
 22
0.0
 32
0.0
 13
1.0
 23
0.0
 33
0.0
 40
0.0
 40
0.0
 40
0.0
 40
345.7489890107816
 40
345.7489890107816
 40
350.4730543733754
 40
350.4730543733754
 40
353.0316736985621
 40
353.0316736985621
 40
372.2624798514746
 40
372.2624798514746
 40
380.4960060516686
 40
380.4960060516686
 40
387.3437903927131
 40
387.3437903927131
 40
392.5343687229582
 40
392.5343687229582
 40
395.8691508380556
 40
395.8691508380556
 40
396.8060034321128
 40
396.8060034321128
 40
397.09383506463
 40
397.09383506463
 40
398.239165570584
 40
398.239165570584
 40
399.493532571445
 40
399.493532571445
 40
400.3511284315376
 40
400.3511284315376
 40
429.4981132588835
 40
429.4981132588835
 40
431.8728627267565
 40
431.8728627267565
 40
444.7530264675964
 40
444.7530264675964
 40
450.2434455667628
 40
450.2434455667628
 40
455.7338646659293
 40
455.7338646659293
 40
455.9761143638646
 40
455.9761143638646
 40
456.2183640617989
 40
456.2183640617989
 40
503.4424297539064
 40
503.4424297539064
 40
847.9276084244327
 40
847.9276084244327
 40
859.6713146177668
 40
859.6713146177668
 40
1058.114535964861
 40
1058.114535964861
 40
1065.373336215987
 40
1065.373336215987
 40
1065.860395911144
 40
1065.860395911144
 40
1359.441421664151
 40
1359.441421664151
 40
1359.473034824531
 40
1359.473034824531
 40
1359.679115944491
 40
1359.679115944491
 40
1359.759771030492
 40
1359.759771030492
 40
1367.034849261474
 40
1367.034849261474
 40
1367.034849261474
 10
2776.573334187567
 20
-1164.589792324521
 30
0.0
 41
1.0
 10
2603.702794270864
 20
-1164.585008633128
 30
0.0
 41
0.9999998110065965
 10
2430.832390921801
 20
-1164.367661195655
 30
0.0
 41
1.0
 10
2428.331297967336
 20
-1164.505715719823
 30
0.0
 41
1.0
 10
2425.830205012871
 20
-1164.64377024399
 30
0.0
 41
1.0
 10
2424.553813100239
 20
-1164.731535111684
 30
0.0
 41
0.9998873887034211
 10
2423.275362222528
 20
-1164.780955147237
 30
0.0
 41
1.0
 10
2413.670752132193
 20
-1165.248299521227
 30
0.0
 41
0.9999107180551343
 10
2404.057083315585
 20
-1165.458817064095
 30
0.0
 41
1.0
 10
2399.941286277985
 20
-1165.550644467518
 30
0.0
 41
0.9999787984449084
 10
2395.824642396248
 20
-1165.588863280935
 30
0.0
 41
1.0
 10
2392.400827377639
 20
-1165.622253652537
 30
0.0
 41
0.9999624729566999
 10
2388.976947772445
 20
-1165.596318199986
 30
0.0
 41
1.0
 10
2386.381499420556
 20
-1165.580248858023
 30
0.0
 41
0.9998792577298935
 10
2383.787803866765
 20
-1165.483534095315
 30
0.0
 41
1.0
 10
2382.120243960781
 20
-1165.432812444449
 30
0.0
 41
0.9991550021715617
 10
2380.462483896413
 20
-1165.245301658366
 30
0.0
 41
1.0
 10
2379.996356977437
 20
-1165.192110475261
 30
0.0
 41
0.9976813292934179
 10
2379.541771666839
 20
-1165.076111328954
 30
0.0
 41
1.0
 10
2379.402197333769
 20
-1165.039461150082
 30
0.0
 41
0.9959488330909669
 10
2379.271444769305
 20
-1164.978403824973
 30
0.0
 41
1.0
 10
2379.227995834093
 20
-1164.953391518022
 30
0.0
 41
1.0
 10
2379.184546898881
 20
-1164.928379211072
 30
0.0
 41
1.0
 10
2379.173318288737
 20
-1164.887672450803
 30
0.0
 41
0.7162087065746798
 10
2379.132334263073
 20
-1164.897842586382
 30
0.0
 41
1.0
 10
2379.113415869081
 20
-1164.875968808213
 30
0.0
 41
1.0
 10
2379.094497475089
 20
-1164.854095030043
 30
0.0
 41
1.0
 10
2378.877174478326
 20
-1164.724780659156
 30
0.0
 41
1.0
 10
2378.659851481563
 20
-1164.595466288269
 30
0.0
 41
1.0
 10
2378.650090685385
 20
-1164.589138039015
 30
0.0
 41
1.0
 10
2378.640329889208
 20
-1164.582809789762
 30
0.0
 41
1.0
 10
2378.608719956578
 20
-1164.560932542222
 30
0.0
 41
1.0
 10
2378.577110023949
 20
-1164.539055294681
 30
0.0
 41
1.0
 10
2377.819614065957
 20
-1161.683562161121
 30
0.0
 41
0.8971600142175845
 10
2379.620852447338
 20
-1159.341942752332
 30
0.0
 41
1.0
 10
2381.422090828719
 20
-1157.000323343542
 30
0.0
 41
0.8971600142175845
 10
2384.376348953278
 20
-1157.000014058664
 30
0.0
 41
1.0
 10
2384.497473802246
 20
-1157.00001390011
 30
0.0
 41
0.9999999999995182
 10
2384.618598651213
 20
-1157.000013979356
 30
0.0
 41
1.0
 10
2384.73972350018
 20
-1157.000014058666
 30
0.0
 41
0.9999999999999465
 10
2384.860848349148
 20
-1157.000014058664
 30
0.0
 41
1.0
 10
2408.474356287496
 20
-1157.000014058661
 30
0.0
 41
1.0
 10
2432.087864225844
 20
-1157.000014058658
 30
0.0
 41
1.0
 10
2604.330600921928
 20
-1157.001912288242
 30
0.0
 41
1.0
 10
2776.573337618011
 20
-1157.003810517826
 30
0.0
 41
1.0
 10
2776.573335902789
 20
-1160.796801421171
 30
0.0
 41
1.0
 10
2776.573334187567
 20
-1164.589792324515
 30
0.0
 41
1.0
 10
2776.573335792611
 20
-1243.720019723285
 30
0.0
 41
1.0
 10
2776.573337397654
 20
-1322.850247122055
 30
0.0
 41
1.0
 10
2776.573335809365
 20
-1324.916839829147
 30
0.0
 41
1.0
 10
2776.573334221076
 20
-1326.983432536238
 30
0.0
 41
1.0
 10
2776.573333203865
 20
-1326.991723291294
 30
0.0
 41
1.0
 10
2776.573332186656
 20
-1327.000014046351
 30
0.0
 41
1.0
 10
2629.782337166104
 20
-1327.000014052504
 30
0.0
 41
1.0
 10
2482.991342145553
 20
-1327.000014058658
 30
0.0
 41
1.0
 10
2482.976841093936
 20
-1326.999979031685
 30
0.0
 41
1.0
 10
2482.962340042319
 20
-1326.999944004712
 30
0.0
 41
1.0
 10
2482.865323626004
 20
-1326.997905778896
 30
0.0
 41
1.0
 10
2482.768307209689
 20
-1326.99586755308
 30
0.0
 41
1.0
 10
2482.73087301986
 20
-1326.994240965224
 30
0.0
 41
1.0
 10
2482.693438830031
 20
-1326.992614377369
 30
0.0
 41
1.0
 10
2478.538401588758
 20
-1326.786069371555
 30
0.0
 41
0.8217867270027588
 10
2477.274797224675
 20
-1322.822447375596
 30
0.0
 41
1.0
  0
ENDSEC
  0
SECTION
  2
OBJECTS
  0
DICTIONARY
  5
C
330
0
100
AcDbDictionary
281
     1
  3
ACAD_GROUP
350
D
  3
ACAD_LAYOUT
350
1A
  3
ACAD_MATERIAL
350
3B
  3
ACAD_MLEADERSTYLE
350
C7
  3
ACAD_MLINESTYLE
350
17
  3
ACAD_PLOTSETTINGS
350
19
  3
ACAD_PLOTSTYLENAME
350
E
  3
ACAD_SCALELIST
350
3F
  3
ACAD_TABLESTYLE
350
C6
  3
ACAD_VISUALSTYLE
350
2A
  3
AcDbVariableDictionary
350
9D
  0
DICTIONARY
  5
D
102
{ACAD_REACTORS
330
C
102
}
330
C
100
AcDbDictionary
281
     1
  0
DICTIONARY
  5
1A
102
{ACAD_REACTORS
330
C
102
}
330
C
100
AcDbDictionary
281
     1
  3
Layout1
350
1E
  3
Layout2
350
26
  3
Model
350
22
  0
DICTIONARY
  5
3B
102
{ACAD_REACTORS
330
C
102
}
330
C
100
AcDbDictionary
281
     1
  3
ByBlock
350
3D
  3
ByLayer
350
3C
  3
Global
350
3E
  0
DICTIONARY
  5
C7
102
{ACAD_REACTORS
330
C
102
}
330
C
100
AcDbDictionary
281
     1
  0
DICTIONARY
  5
17
102
{ACAD_REACTORS
330
C
102
}
330
C
100
AcDbDictionary
281
     1
  3
Standard
350
18
  0
DICTIONARY
  5
19
102
{ACAD_REACTORS
330
C
102
}
330
C
100
AcDbDictionary
281
     1
  0
ACDBDICTIONARYWDFLT
  5
E
102
{ACAD_REACTORS
330
C
102
}
330
C
100
AcDbDictionary
281
     1
  3
Normal
350
F
100
AcDbDictionaryWithDefault
340
F
  0
DICTIONARY
  5
3F
102
{ACAD_REACTORS
330
C
102
}
330
C
100
AcDbDictionary
281
     1
  3
A0
350
40
  3
A1
350
41
  3
A2
350
42
  3
A3
350
43
  3
A4
350
44
  3
A5
350
45
  3
A6
350
46
  3
A7
350
47
  3
A8
350
48
  3
A9
350
49
  3
B0
350
4A
  3
B1
350
4B
  3
B2
350
4C
  3
B3
350
4D
  3
B4
350
4E
  3
B5
350
4F
  3
B6
350
50
  3
B7
350
51
  3
B8
350
52
  3
B9
350
53
  3
C0
350
54
  3
C1
350
55
  3
C2
350
56
  3
C3
350
57
  3
C4
350
58
  3
C5
350
59
  3
C6
350
5A
  3
C7
350
5B
  3
C8
350
5C
  3
C9
350
5D
  3
D0
350
5E
  3
D1
350
5F
  3
D2
350
60
  0
DICTIONARY
  5
C6
102
{ACAD_REACTORS
330
C
102
}
330
C
100
AcDbDictionary
281
     1
  0
DICTIONARY
  5
2A
102
{ACAD_REACTORS
330
C
102
}
330
C
100
AcDbDictionary
281
     1
  3
2dWireframe
350
2F
  3
3D Hidden
350
31
  3
3dWireframe
350
30
  3
Basic
350
32
  3
Brighten
350
36
  3
ColorChange
350
3A
  3
Conceptual
350
34
  3
Dim
350
35
  3
Facepattern
350
39
  3
Flat
350
2B
  3
FlatWithEdges
350
2C
  3
Gouraud
350
2D
  3
GouraudWithEdges
350
2E
  3
Linepattern
350
38
  3
Realistic
350
33
  3
Thicken
350
37
  0
DICTIONARY
  5
9D
102
{ACAD_REACTORS
330
C
102
}
330
C
100
AcDbDictionary
281
     1
  3
CANNOSCALE
350
9E
  3
MSLTSCALE
350
9F
  0
LAYOUT
  5
1E
102
{ACAD_REACTORS
330
1A
102
}
330
1A
100
AcDbPlotSettings
  1

  2
none_device
  4

  6

 40
0.0
 41
0.0
 42
0.0
 43
0.0
 44
0.0
 45
0.0
 46
0.0
 47
0.0
 48
0.0
 49
0.0
140
0.0
141
0.0
142
1.0
143
1.0
 70
   688
 72
     0
 73
     0
 74
     5
  7

 75
    16
 76
     0
 77
     2
 78
   300
147
1.0
148
0.0
149
0.0
100
AcDbLayout
  1
Layout1
 70
     1
 71
     1
 10
0.0
 20
0.0
 11
12.0
 21
9.0
 12
0.0
 22
0.0
 32
0.0
 14
1.000000000000000E+20
 24
1.000000000000000E+20
 34
1.000000000000000E+20
 15
-1.000000000000000E+20
 25
-1.000000000000000E+20
 35
-1.000000000000000E+20
146
0.0
 13
0.0
 23
0.0
 33
0.0
 16
1.0
 26
0.0
 36
0.0
 17
0.0
 27
1.0
 37
0.0
 76
     0
330
1B
  0
LAYOUT
  5
26
102
{ACAD_REACTORS
330
1A
102
}
330
1A
100
AcDbPlotSettings
  1

  2
none_device
  4

  6

 40
0.0
 41
0.0
 42
0.0
 43
0.0
 44
0.0
 45
0.0
 46
0.0
 47
0.0
 48
0.0
 49
0.0
140
0.0
141
0.0
142
1.0
143
1.0
 70
   688
 72
     0
 73
     0
 74
     5
  7

 75
    16
 76
     0
 77
     2
 78
   300
147
1.0
148
0.0
149
0.0
100
AcDbLayout
  1
Layout2
 70
     1
 71
     2
 10
0.0
 20
0.0
 11
0.0
 21
0.0
 12
0.0
 22
0.0
 32
0.0
 14
0.0
 24
0.0
 34
0.0
 15
0.0
 25
0.0
 35
0.0
146
0.0
 13
0.0
 23
0.0
 33
0.0
 16
1.0
 26
0.0
 36
0.0
 17
0.0
 27
1.0
 37
0.0
 76
     0
330
23
  0
LAYOUT
  5
22
102
{ACAD_REACTORS
330
1A
102
}
330
1A
100
AcDbPlotSettings
  1

  2
none_device
  4
Letter_(8.50_x_11.00_Inches)
  6

 40
6.35
 41
6.35
 42
6.35000508
 43
6.35000508
 44
215.9
 45
279.4
 46
0.0
 47
0.0
 48
0.0
 49
0.0
140
0.0
141
0.0
142
1.0
143
1.0
 70
  1712
 72
     0
 73
     0
 74
     0
  7

 75
     0
 76
     0
 77
     2
 78
   300
147
1.0
148
0.0
149
0.0
100
AcDbLayout
  1
Model
 70
     1
 71
     0
 10
0.0
 20
0.0
 11
12.0
 21
9.0
 12
0.0
 22
0.0
 32
0.0
 14
2378.392576861542
 24
-1991.999998232084
 34
0.0
 15
4545.573337667715
 25
-1157.000013955705
 35
0.0
146
0.0
 13
0.0
 23
0.0
 33
0.0
 16
1.0
 26
0.0
 36
0.0
 17
0.0
 27
1.0
 37
0.0
 76
     0
330
1F
331
29
  0
MATERIAL
  5
3D
102
{ACAD_REACTORS
330
3B
102
}
102
{ACAD_XDICTIONARY
360
C2
102
}
330
3B
100
AcDbMaterial
  1
ByBlock
  0
MATERIAL
  5
3C
102
{ACAD_REACTORS
330
3B
102
}
102
{ACAD_XDICTIONARY
360
C0
102
}
330
3B
100
AcDbMaterial
  1
ByLayer
  0
MATERIAL
  5
3E
102
{ACAD_REACTORS
330
3B
102
}
102
{ACAD_XDICTIONARY
360
C4
102
}
330
3B
100
AcDbMaterial
  1
Global
  0
MLINESTYLE
  5
18
102
{ACAD_REACTORS
330
17
102
}
330
17
100
AcDbMlineStyle
  2
Standard
 70
     0
  3

 62
   256
 51
90.0
 52
90.0
 71
     2
 49
0.5
 62
   256
  6
BYLAYER
 49
-0.5
 62
   256
  6
BYLAYER
  0
ACDBPLACEHOLDER
  5
F
102
{ACAD_REACTORS
330
E
102
}
330
E
  0
SCALE
  5
40
102
{ACAD_REACTORS
330
3F
102
}
330
3F
100
AcDbScale
 70
     0
300
1:1
140
1.0
141
1.0
290
     1
  0
SCALE
  5
41
102
{ACAD_REACTORS
330
3F
102
}
330
3F
100
AcDbScale
 70
     0
300
1:2
140
1.0
141
2.0
290
     0
  0
SCALE
  5
42
102
{ACAD_REACTORS
330
3F
102
}
330
3F
100
AcDbScale
 70
     0
300
1:4
140
1.0
141
4.0
290
     0
  0
SCALE
  5
43
102
{ACAD_REACTORS
330
3F
102
}
330
3F
100
AcDbScale
 70
     0
300
1:5
140
1.0
141
5.0
290
     0
  0
SCALE
  5
44
102
{ACAD_REACTORS
330
3F
102
}
330
3F
100
AcDbScale
 70
     0
300
1:8
140
1.0
141
8.0
290
     0
  0
SCALE
  5
45
102
{ACAD_REACTORS
330
3F
102
}
330
3F
100
AcDbScale
 70
     0
300
1:10
140
1.0
141
10.0
290
     0
  0
SCALE
  5
46
102
{ACAD_REACTORS
330
3F
102
}
330
3F
100
AcDbScale
 70
     0
300
1:16
140
1.0
141
16.0
290
     0
  0
SCALE
  5
47
102
{ACAD_REACTORS
330
3F
102
}
330
3F
100
AcDbScale
 70
     0
300
1:20
140
1.0
141
20.0
290
     0
  0
SCALE
  5
48
102
{ACAD_REACTORS
330
3F
102
}
330
3F
100
AcDbScale
 70
     0
300
1:30
140
1.0
141
30.0
290
     0
  0
SCALE
  5
49
102
{ACAD_REACTORS
330
3F
102
}
330
3F
100
AcDbScale
 70
     0
300
1:40
140
1.0
141
40.0
290
     0
  0
SCALE
  5
4A
102
{ACAD_REACTORS
330
3F
102
}
330
3F
100
AcDbScale
 70
     0
300
1:50
140
1.0
141
50.0
290
     0
  0
SCALE
  5
4B
102
{ACAD_REACTORS
330
3F
102
}
330
3F
100
AcDbScale
 70
     0
300
1:100
140
1.0
141
100.0
290
     0
  0
SCALE
  5
4C
102
{ACAD_REACTORS
330
3F
102
}
330
3F
100
AcDbScale
 70
     0
300
2:1
140
2.0
141
1.0
290
     0
  0
SCALE
  5
4D
102
{ACAD_REACTORS
330
3F
102
}
330
3F
100
AcDbScale
 70
     0
300
4:1
140
4.0
141
1.0
290
     0
  0
SCALE
  5
4E
102
{ACAD_REACTORS
330
3F
102
}
330
3F
100
AcDbScale
 70
     0
300
8:1
140
8.0
141
1.0
290
     0
  0
SCALE
  5
4F
102
{ACAD_REACTORS
330
3F
102
}
330
3F
100
AcDbScale
 70
     0
300
10:1
140
10.0
141
1.0
290
     0
  0
SCALE
  5
50
102
{ACAD_REACTORS
330
3F
102
}
330
3F
100
AcDbScale
 70
     0
300
100:1
140
100.0
141
1.0
290
     0
  0
SCALE
  5
51
102
{ACAD_REACTORS
330
3F
102
}
330
3F
100
AcDbScale
 70
     0
300
1/128" = 1'-0"
140
0.0078125
141
12.0
290
     0
  0
SCALE
  5
52
102
{ACAD_REACTORS
330
3F
102
}
330
3F
100
AcDbScale
 70
     0
300
1/64" = 1'-0"
140
0.015625
141
12.0
290
     0
  0
SCALE
  5
53
102
{ACAD_REACTORS
330
3F
102
}
330
3F
100
AcDbScale
 70
     0
300
1/32" = 1'-0"
140
0.03125
141
12.0
290
     0
  0
SCALE
  5
54
102
{ACAD_REACTORS
330
3F
102
}
330
3F
100
AcDbScale
 70
     0
300
1/16" = 1'-0"
140
0.0625
141
12.0
290
     0
  0
SCALE
  5
55
102
{ACAD_REACTORS
330
3F
102
}
330
3F
100
AcDbScale
 70
     0
300
3/32" = 1'-0"
140
0.09375
141
12.0
290
     0
  0
SCALE
  5
56
102
{ACAD_REACTORS
330
3F
102
}
330
3F
100
AcDbScale
 70
     0
300
1/8" = 1'-0"
140
0.125
141
12.0
290
     0
  0
SCALE
  5
57
102
{ACAD_REACTORS
330
3F
102
}
330
3F
100
AcDbScale
 70
     0
300
3/16" = 1'-0"
140
0.1875
141
12.0
290
     0
  0
SCALE
  5
58
102
{ACAD_REACTORS
330
3F
102
}
330
3F
100
AcDbScale
 70
     0
300
1/4" = 1'-0"
140
0.25
141
12.0
290
     0
  0
SCALE
  5
59
102
{ACAD_REACTORS
330
3F
102
}
330
3F
100
AcDbScale
 70
     0
300
3/8" = 1'-0"
140
0.375
141
12.0
290
     0
  0
SCALE
  5
5A
102
{ACAD_REACTORS
330
3F
102
}
330
3F
100
AcDbScale
 70
     0
300
1/2" = 1'-0"
140
0.5
141
12.0
290
     0
  0
SCALE
  5
5B
102
{ACAD_REACTORS
330
3F
102
}
330
3F
100
AcDbScale
 70
     0
300
3/4" = 1'-0"
140
0.75
141
12.0
290
     0
  0
SCALE
  5
5C
102
{ACAD_REACTORS
330
3F
102
}
330
3F
100
AcDbScale
 70
     0
300
1" = 1'-0"
140
1.0
141
12.0
290
     0
  0
SCALE
  5
5D
102
{ACAD_REACTORS
330
3F
102
}
330
3F
100
AcDbScale
 70
     0
300
1-1/2" = 1'-0"
140
1.5
141
12.0
290
     0
  0
SCALE
  5
5E
102
{ACAD_REACTORS
330
3F
102
}
330
3F
100
AcDbScale
 70
     0
300
3" = 1'-0"
140
3.0
141
12.0
290
     0
  0
SCALE
  5
5F
102
{ACAD_REACTORS
330
3F
102
}
330
3F
100
AcDbScale
 70
     0
300
6" = 1'-0"
140
6.0
141
12.0
290
     0
  0
SCALE
  5
60
102
{ACAD_REACTORS
330
3F
102
}
330
3F
100
AcDbScale
 70
     0
300
1'-0" = 1'-0"
140
12.0
141
12.0
290
     0
  0
VISUALSTYLE
  5
2F
102
{ACAD_REACTORS
330
2A
102
}
102
{ACAD_XDICTIONARY
360
A8
102
}
330
2A
100
AcDbVisualStyle
  2
2dWireframe
 70
     4
 71
     0
 72
     2
 73
     0
 90
        0
 40
0.6
 41
30.0
 62
     5
 63
     7
421
 16777215
 74
     1
 91
        4
 64
     7
 65
   257
 75
     1
175
     1
 42
1.0
 92
        0
 66
   257
 43
1.0
 76
     1
 77
     6
 78
     2
 67
     7
 79
     5
170
     0
171
     0
290
     0
174
     0
 93
        1
 44
0.0
173
     0
291
     0
 45
0.0
1001
ACAD
1000
AcDbSavedByObjectVersion
1070
     0
  0
VISUALSTYLE
  5
31
102
{ACAD_REACTORS
330
2A
102
}
102
{ACAD_XDICTIONARY
360
AC
102
}
330
2A
100
AcDbVisualStyle
  2
3D Hidden
 70
     6
 71
     1
 72
     2
 73
     2
 90
        0
 40
0.6
 41
30.0
 62
     5
 63
     7
421
 16777215
 74
     2
 91
        2
 64
     7
 65
   257
 75
     2
175
     1
 42
40.0
 92
        0
 66
   257
 43
1.0
 76
     1
 77
     6
 78
     2
 67
     7
 79
     3
170
     0
171
     0
290
     0
174
     0
 93
        1
 44
0.0
173
     0
291
     0
 45
0.0
1001
ACAD
1000
AcDbSavedByObjectVersion
1070
     0
  0
VISUALSTYLE
  5
30
102
{ACAD_REACTORS
330
2A
102
}
102
{ACAD_XDICTIONARY
360
AA
102
}
330
2A
100
AcDbVisualStyle
  2
3dWireframe
 70
     5
 71
     0
 72
     2
 73
     0
 90
        0
 40
0.6
 41
30.0
 62
     5
 63
     7
421
 16777215
 74
     1
 91
        4
 64
     7
 65
   257
 75
     1
175
     1
 42
1.0
 92
        0
 66
   257
 43
1.0
 76
     1
 77
     6
 78
     2
 67
     7
 79
     5
170
     0
171
     0
290
     0
174
     0
 93
        1
 44
0.0
173
     0
291
     0
 45
0.0
1001
ACAD
1000
AcDbSavedByObjectVersion
1070
     0
  0
VISUALSTYLE
  5
32
102
{ACAD_REACTORS
330
2A
102
}
102
{ACAD_XDICTIONARY
360
AE
102
}
330
2A
100
AcDbVisualStyle
  2
Basic
 70
     7
 71
     1
 72
     0
 73
     1
 90
        0
 40
0.6
 41
30.0
 62
     5
 63
     7
421
 16777215
 74
     0
 91
        4
 64
     7
 65
   257
 75
     1
175
     1
 42
1.0
 92
        8
 66
     7
 43
1.0
 76
     1
 77
     6
 78
     2
 67
     7
 79
     5
170
     0
171
     0
290
     0
174
     0
 93
        1
 44
0.0
173
     0
291
     1
 45
0.0
1001
ACAD
1000
AcDbSavedByObjectVersion
1070
     0
  0
VISUALSTYLE
  5
36
102
{ACAD_REACTORS
330
2A
102
}
102
{ACAD_XDICTIONARY
360
B6
102
}
330
2A
100
AcDbVisualStyle
  2
Brighten
 70
    12
 71
     2
 72
     2
 73
     0
 90
        0
 40
0.6
 41
30.0
 62
     5
 63
     7
421
 16777215
 74
     1
 91
        4
 64
     7
 65
   257
 75
     1
175
     1
 42
1.0
 92
        8
 66
     7
 43
1.0
 76
     1
 77
     6
 78
     2
 67
     7
 79
     5
170
     0
171
     0
290
     0
174
     0
 93
        1
 44
50.0
173
     0
291
     1
 45
0.0
1001
ACAD
1000
AcDbSavedByObjectVersion
1070
     0
  0
VISUALSTYLE
  5
3A
102
{ACAD_REACTORS
330
2A
102
}
102
{ACAD_XDICTIONARY
360
BE
102
}
330
2A
100
AcDbVisualStyle
  2
ColorChange
 70
    16
 71
     2
 72
     2
 73
     3
 90
        0
 40
0.6
 41
30.0
 62
     5
 63
     8
421
  8421504
 74
     1
 91
        4
 64
     7
 65
   257
 75
     1
175
     1
 42
1.0
 92
        8
 66
     8
424
  8421504
 43
1.0
 76
     1
 77
     6
 78
     2
 67
     7
 79
     5
170
     0
171
     0
290
     0
174
     0
 93
        1
 44
0.0
173
     0
291
     1
 45
0.0
1001
ACAD
1000
AcDbSavedByObjectVersion
1070
     0
  0
VISUALSTYLE
  5
34
102
{ACAD_REACTORS
330
2A
102
}
102
{ACAD_XDICTIONARY
360
B2
102
}
330
2A
100
AcDbVisualStyle
  2
Conceptual
 70
     9
 71
     3
 72
     2
 73
     0
 90
        0
 40
0.6
 41
30.0
 62
     5
 63
     7
421
 16777215
 74
     2
 91
        2
 64
     7
 65
   257
 75
     1
175
     1
 42
40.0
 92
        8
 66
     7
 43
1.0
 76
     1
 77
     6
 78
     2
 67
     7
 79
     3
170
     0
171
     0
290
     0
174
     0
 93
        1
 44
0.0
173
     0
291
     0
 45
0.0
1001
ACAD
1000
AcDbSavedByObjectVersion
1070
     0
  0
VISUALSTYLE
  5
35
102
{ACAD_REACTORS
330
2A
102
}
102
{ACAD_XDICTIONARY
360
B4
102
}
330
2A
100
AcDbVisualStyle
  2
Dim
 70
    11
 71
     2
 72
     2
 73
     0
 90
        0
 40
0.6
 41
30.0
 62
     5
 63
     7
421
 16777215
 74
     1
 91
        4
 64
     7
 65
   257
 75
     1
175
     1
 42
1.0
 92
        8
 66
     7
 43
1.0
 76
     1
 77
     6
 78
     2
 67
     7
 79
     5
170
     0
171
     0
290
     0
174
     0
 93
        1
 44
-50.0
173
     0
291
     1
 45
0.0
1001
ACAD
1000
AcDbSavedByObjectVersion
1070
     0
  0
VISUALSTYLE
  5
39
102
{ACAD_REACTORS
330
2A
102
}
102
{ACAD_XDICTIONARY
360
BC
102
}
330
2A
100
AcDbVisualStyle
  2
Facepattern
 70
    15
 71
     2
 72
     2
 73
     0
 90
        0
 40
0.6
 41
30.0
 62
     5
 63
     7
421
 16777215
 74
     1
 91
        4
 64
     7
 65
   257
 75
     1
175
     1
 42
1.0
 92
        8
 66
     7
 43
1.0
 76
     1
 77
     6
 78
     2
 67
     7
 79
     5
170
     0
171
     0
290
     0
174
     0
 93
        1
 44
0.0
173
     0
291
     1
 45
0.0
1001
ACAD
1000
AcDbSavedByObjectVersion
1070
     0
  0
VISUALSTYLE
  5
2B
102
{ACAD_REACTORS
330
2A
102
}
102
{ACAD_XDICTIONARY
360
A0
102
}
330
2A
100
AcDbVisualStyle
  2
Flat
 70
     0
 71
     2
 72
     1
 73
     1
 90
        2
 40
0.6
 41
30.0
 62
     5
 63
     7
421
 16777215
 74
     0
 91
        4
 64
     7
 65
   257
 75
     1
175
     1
 42
1.0
 92
        8
 66
     7
 43
1.0
 76
     1
 77
     6
 78
     2
 67
     7
 79
     5
170
     0
171
     0
290
     0
174
     0
 93
       13
 44
0.0
173
     0
291
     1
 45
0.0
1001
ACAD
1000
AcDbSavedByObjectVersion
1070
     0
  0
VISUALSTYLE
  5
2C
102
{ACAD_REACTORS
330
2A
102
}
102
{ACAD_XDICTIONARY
360
A2
102
}
330
2A
100
AcDbVisualStyle
  2
FlatWithEdges
 70
     1
 71
     2
 72
     1
 73
     1
 90
        2
 40
0.6
 41
30.0
 62
     5
 63
     7
421
 16777215
 74
     1
 91
        4
 64
     7
 65
   257
 75
     1
175
     1
 42
1.0
 92
        0
 66
   257
 43
1.0
 76
     1
 77
     6
 78
     2
 67
     7
 79
     5
170
     0
171
     0
290
     0
174
     0
 93
       13
 44
0.0
173
     0
291
     1
 45
0.0
1001
ACAD
1000
AcDbSavedByObjectVersion
1070
     0
  0
VISUALSTYLE
  5
2D
102
{ACAD_REACTORS
330
2A
102
}
102
{ACAD_XDICTIONARY
360
A4
102
}
330
2A
100
AcDbVisualStyle
  2
Gouraud
 70
     2
 71
     2
 72
     2
 73
     1
 90
        2
 40
0.6
 41
30.0
 62
     5
 63
     7
421
 16777215
 74
     0
 91
        4
 64
     7
 65
   257
 75
     1
175
     1
 42
1.0
 92
        0
 66
     7
 43
1.0
 76
     1
 77
     6
 78
     2
 67
     7
 79
     5
170
     0
171
     0
290
     0
174
     0
 93
       13
 44
0.0
173
     0
291
     1
 45
0.0
1001
ACAD
1000
AcDbSavedByObjectVersion
1070
     0
  0
VISUALSTYLE
  5
2E
102
{ACAD_REACTORS
330
2A
102
}
102
{ACAD_XDICTIONARY
360
A6
102
}
330
2A
100
AcDbVisualStyle
  2
GouraudWithEdges
 70
     3
 71
     2
 72
     2
 73
     1
 90
        2
 40
0.6
 41
30.0
 62
     5
 63
     7
421
 16777215
 74
     1
 91
        4
 64
     7
 65
   257
 75
     1
175
     1
 42
1.0
 92
        0
 66
   257
 43
1.0
 76
     1
 77
     6
 78
     2
 67
     7
 79
     5
170
     0
171
     0
290
     0
174
     0
 93
       13
 44
0.0
173
     0
291
     1
 45
0.0
1001
ACAD
1000
AcDbSavedByObjectVersion
1070
     0
  0
VISUALSTYLE
  5
38
102
{ACAD_REACTORS
330
2A
102
}
102
{ACAD_XDICTIONARY
360
BA
102
}
330
2A
100
AcDbVisualStyle
  2
Linepattern
 70
    14
 71
     2
 72
     2
 73
     0
 90
        0
 40
0.6
 41
30.0
 62
     5
 63
     7
421
 16777215
 74
     1
 91
        4
 64
     7
 65
   257
 75
     7
175
     7
 42
1.0
 92
        8
 66
     7
 43
1.0
 76
     1
 77
     6
 78
     2
 67
     7
 79
     5
170
     0
171
     0
290
     0
174
     0
 93
        1
 44
0.0
173
     0
291
     1
 45
0.0
1001
ACAD
1000
AcDbSavedByObjectVersion
1070
     0
  0
VISUALSTYLE
  5
33
102
{ACAD_REACTORS
330
2A
102
}
102
{ACAD_XDICTIONARY
360
B0
102
}
330
2A
100
AcDbVisualStyle
  2
Realistic
 70
     8
 71
     2
 72
     3
 73
     0
 90
        2
 40
0.6
 41
30.0
 62
     5
 63
     7
421
 16777215
 74
     0
 91
        0
 64
     7
 65
   257
 75
     1
175
     1
 42
1.0
 92
        8
 66
   257
 43
1.0
 76
     1
 77
     6
 78
     2
 67
     7
 79
     3
170
     0
171
     0
290
     0
174
     0
 93
       13
 44
0.0
173
     0
291
     0
 45
0.0
1001
ACAD
1000
AcDbSavedByObjectVersion
1070
     0
  0
VISUALSTYLE
  5
37
102
{ACAD_REACTORS
330
2A
102
}
102
{ACAD_XDICTIONARY
360
B8
102
}
330
2A
100
AcDbVisualStyle
  2
Thicken
 70
    13
 71
     2
 72
     2
 73
     0
 90
        0
 40
0.6
 41
30.0
 62
     5
 63
     7
421
 16777215
 74
     1
 91
        4
 64
     7
 65
   257
 75
     1
175
     1
 42
1.0
 92
       12
 66
     7
 43
1.0
 76
     1
 77
     6
 78
     2
 67
     7
 79
     5
170
     0
171
     0
290
     0
174
     0
 93
        1
 44
0.0
173
     0
291
     1
 45
0.0
1001
ACAD
1000
AcDbSavedByObjectVersion
1070
     0
  0
DICTIONARYVAR
  5
9E
102
{ACAD_REACTORS
330
9D
102
}
330
9D
100
DictionaryVariables
280
     0
  1
1:1
  0
DICTIONARYVAR
  5
9F
102
{ACAD_REACTORS
330
9D
102
}
330
9D
100
DictionaryVariables
280
     0
  1
1
  0
DICTIONARY
  5
C2
330
3D
100
AcDbDictionary
280
     1
281
     1
  3
ACAD_XREC_ROUNDTRIP
360
C3
  0
DICTIONARY
  5
C0
330
3C
100
AcDbDictionary
280
     1
281
     1
  3
ACAD_XREC_ROUNDTRIP
360
C1
  0
DICTIONARY
  5
C4
330
3E
100
AcDbDictionary
280
     1
281
     1
  3
ACAD_XREC_ROUNDTRIP
360
C5
  0
DICTIONARY
  5
A8
330
2F
100
AcDbDictionary
280
     1
281
     1
  3
ACAD_XREC_ROUNDTRIP
360
A9
  0
DICTIONARY
  5
AC
330
31
100
AcDbDictionary
280
     1
281
     1
  3
ACAD_XREC_ROUNDTRIP
360
AD
  0
DICTIONARY
  5
AA
330
30
100
AcDbDictionary
280
     1
281
     1
  3
ACAD_XREC_ROUNDTRIP
360
AB
  0
DICTIONARY
  5
AE
330
32
100
AcDbDictionary
280
     1
281
     1
  3
ACAD_XREC_ROUNDTRIP
360
AF
  0
DICTIONARY
  5
B6
330
36
100
AcDbDictionary
280
     1
281
     1
  3
ACAD_XREC_ROUNDTRIP
360
B7
  0
DICTIONARY
  5
BE
330
3A
100
AcDbDictionary
280
     1
281
     1
  3
ACAD_XREC_ROUNDTRIP
360
BF
  0
DICTIONARY
  5
B2
330
34
100
AcDbDictionary
280
     1
281
     1
  3
ACAD_XREC_ROUNDTRIP
360
B3
  0
DICTIONARY
  5
B4
330
35
100
AcDbDictionary
280
     1
281
     1
  3
ACAD_XREC_ROUNDTRIP
360
B5
  0
DICTIONARY
  5
BC
330
39
100
AcDbDictionary
280
     1
281
     1
  3
ACAD_XREC_ROUNDTRIP
360
BD
  0
DICTIONARY
  5
A0
330
2B
100
AcDbDictionary
280
     1
281
     1
  3
ACAD_XREC_ROUNDTRIP
360
A1
  0
DICTIONARY
  5
A2
330
2C
100
AcDbDictionary
280
     1
281
     1
  3
ACAD_XREC_ROUNDTRIP
360
A3
  0
DICTIONARY
  5
A4
330
2D
100
AcDbDictionary
280
     1
281
     1
  3
ACAD_XREC_ROUNDTRIP
360
A5
  0
DICTIONARY
  5
A6
330
2E
100
AcDbDictionary
280
     1
281
     1
  3
ACAD_XREC_ROUNDTRIP
360
A7
  0
DICTIONARY
  5
BA
330
38
100
AcDbDictionary
280
     1
281
     1
  3
ACAD_XREC_ROUNDTRIP
360
BB
  0
DICTIONARY
  5
B0
330
33
100
AcDbDictionary
280
     1
281
     1
  3
ACAD_XREC_ROUNDTRIP
360
B1
  0
DICTIONARY
  5
B8
330
37
100
AcDbDictionary
280
     1
281
     1
  3
ACAD_XREC_ROUNDTRIP
360
B9
  0
XRECORD
  5
C3
102
{ACAD_REACTORS
330
C2
102
}
330
C2
100
AcDbXrecord
280
     1
102
MATERIAL
148
0.0
149
0.0
149
0.0
 93
        0
 94
      127
282
     0
 72
     1
 77
     1
171
     1
175
     1
179
     1
273
     0
  0
XRECORD
  5
C1
102
{ACAD_REACTORS
330
C0
102
}
330
C0
100
AcDbXrecord
280
     1
102
MATERIAL
148
0.0
149
0.0
149
0.0
 93
        0
 94
      127
282
     0
 72
     1
 77
     1
171
     1
175
     1
179
     1
273
     0
  0
XRECORD
  5
C5
102
{ACAD_REACTORS
330
C4
102
}
330
C4
100
AcDbXrecord
280
     1
102
MATERIAL
148
0.0
149
0.0
149
0.0
 93
        0
 94
      127
282
     0
 72
     1
 77
     1
171
     1
175
     1
179
     1
273
     0
  0
XRECORD
  5
A9
102
{ACAD_REACTORS
330
A8
102
}
330
A8
100
AcDbXrecord
280
     1
102
RTVSPropertyOp0
 70
     1
102
RTVSPropertyOp1
 70
     1
102
RTVSPropertyOp2
 70
     1
102
RTVSPropertyOp3
 70
     1
102
RTVSPropertyOp4
 70
     1
102
RTVSPropertyOp5
 70
     1
102
RTVSPropertyOp6
 70
     1
102
RTVSPropertyOp7
 70
     1
102
RTVSPropertyOp8
 70
     1
102
RTVSPropertyOp9
 70
     1
102
RTVSPropertyOp10
 70
     1
102
RTVSPropertyOp11
 70
     1
102
RTVSPropertyOp12
 70
     1
102
RTVSPropertyOp13
 70
     1
102
RTVSPropertyOp14
 70
     1
102
RTVSPropertyOp15
 70
     1
102
RTVSPropertyOp16
 70
     1
102
RTVSPropertyOp17
 70
     1
102
RTVSPropertyOp18
 70
     1
102
RTVSPropertyOp19
 70
     1
102
RTVSPropertyOp20
 70
     1
102
RTVSPropertyOp21
 70
     1
102
RTVSPropertyOp22
 70
     1
102
RTVSPropertyOp23
 70
     1
102
RTVSPropertyOp24
 70
     1
102
RTVSPropertyOp25
 70
     1
102
RTVSPropertyOp26
 70
     1
102
RTVSPropertyOp27
 70
     1
102
RTVSPropertyOp28
 70
     1
102
RTVSPropertyOp29
 70
     1
102
RTVSPropertyOp30
 70
     1
102
RTVSPropertyOp31
 70
     1
102
RTVSPropertyOp32
 70
     1
102
RTVSPropertyOp33
 70
     1
102
RTVSPropertyOp34
 70
     1
102
RTVSPropertyOp35
 70
     1
102
RTVSPropertyOp36
 70
     1
102
RTVSPropertyOp37
 70
     1
102
RTVSPropertyOp38
 70
     1
102
RTVSPropertyOp39
 70
     1
102
RTVSPropertyOp40
 70
     1
102
RTVSPropertyOp41
 70
     1
102
RTVSPropertyOp42
 70
     1
102
RTVSPropertyOp43
 70
     1
102
RTVSPropertyOp44
 70
     1
102
RTVSPropertyOp45
 70
     1
102
RTVSPropertyOp46
 70
     1
102
RTVSPropertyOp47
 70
     1
102
RTVSPropertyOp48
 70
     1
102
RTVSPropertyOp49
 70
     1
102
RTVSPropertyOp50
 70
     1
102
RTVSPropertyOp51
 70
     0
102
RTVSPropertyOp52
 70
     0
102
RTVSPropertyOp53
 70
     1
102
RTVSPropertyOp54
 70
     1
102
RTVSPropertyOp55
 70
     1
102
RTVSPropertyOp56
 70
     1
102
RTVSPropertyOp57
 70
     1
102
RTVSPost2010Prop28
280
     1
102
RTVSPost2010PropOp28
 70
     1
102
RTVSPost2010Prop29
280
     1
102
RTVSPost2010PropOp29
 70
     1
102
RTVSPost2010Prop30
280
     0
102
RTVSPost2010PropOp30
 70
     1
102
RTVSPost2010Prop31
280
     0
102
RTVSPost2010PropOp31
 70
     1
102
RTVSPost2010Prop32
280
     0
102
RTVSPost2010PropOp32
 70
     1
102
RTVSPost2010Prop33
280
     0
102
RTVSPost2010PropOp33
 70
     1
102
RTVSPost2010Prop34
280
     0
102
RTVSPost2010PropOp34
 70
     1
102
RTVSPost2010Prop35
280
     0
102
RTVSPost2010PropOp35
 70
     1
102
RTVSPost2010Prop36
280
     0
102
RTVSPost2010PropOp36
 70
     1
102
RTVSPost2010Prop37
 90
       50
102
RTVSPost2010PropOp37
 70
     1
102
RTVSPost2010Prop38
140
0.0
102
RTVSPost2010PropOp38
 70
     1
102
RTVSPost2010Prop39
140
1.0
102
RTVSPost2010PropOp39
 70
     1
102
RTVSPost2010Prop40
 90
        0
102
RTVSPost2010PropOp40
 70
     1
102
RTVSPost2010Prop41ColorIndex
 90
       18
102
RTVSPost2010Prop41ColorRGB
 90
        0
102
RTVSPost2010PropOp41
 70
     1
102
RTVSPost2010Prop42
 90
       50
102
RTVSPost2010PropOp42
 70
     1
102
RTVSPost2010Prop43
 90
        3
102
RTVSPost2010PropOp43
 70
     1
102
RTVSPost2010Prop44ColorIndex
 90
        5
102
RTVSPost2010Prop44ColorRGB
 90
      255
102
RTVSPost2010PropOp44
 70
     1
102
RTVSPost2010Prop45
280
     0
102
RTVSPost2010PropOp45
 70
     1
102
RTVSPost2010Prop46
 90
       50
102
RTVSPost2010PropOp46
 70
     1
102
RTVSPost2010Prop47
 90
       50
102
RTVSPost2010PropOp47
 70
     1
102
RTVSPost2010Prop48
 90
       50
102
RTVSPost2010PropOp48
 70
     1
102
RTVSPost2010Prop49
280
     0
102
RTVSPost2010PropOp49
 70
     1
102
RTVSPost2010Prop50
 90
       50
102
RTVSPost2010PropOp50
 70
     1
102
RTVSPost2010Prop51ColorIndex
 90
      256
102
RTVSPost2010Prop51ColorRGB
 90
-16777216
102
RTVSPost2010PropOp51
 70
     0
102
RTVSPost2010Prop52
140
1.0
102
RTVSPost2010PropOp52
 70
     0
102
RTVSPost2010Prop53
 90
        2
102
RTVSPost2010PropOp53
 70
     1
102
RTVSPost2010Prop54
  1
strokes_ogs.tif
102
RTVSPost2010PropOp54
 70
     1
102
RTVSPost2010Prop55
280
     0
102
RTVSPost2010PropOp55
 70
     1
102
RTVSPost2010Prop56
140
1.0
102
RTVSPost2010PropOp56
 70
     1
102
RTVSPost2010Prop57
140
1.0
102
RTVSPost2010PropOp57
 70
     1
  0
XRECORD
  5
AD
102
{ACAD_REACTORS
330
AC
102
}
330
AC
100
AcDbXrecord
280
     1
102
RTVSPropertyOp0
 70
     1
102
RTVSPropertyOp1
 70
     1
102
RTVSPropertyOp2
 70
     1
102
RTVSPropertyOp3
 70
     1
102
RTVSPropertyOp4
 70
     1
102
RTVSPropertyOp5
 70
     1
102
RTVSPropertyOp6
 70
     1
102
RTVSPropertyOp7
 70
     1
102
RTVSPropertyOp8
 70
     1
102
RTVSPropertyOp9
 70
     1
102
RTVSPropertyOp10
 70
     1
102
RTVSPropertyOp11
 70
     1
102
RTVSPropertyOp12
 70
     1
102
RTVSPropertyOp13
 70
     1
102
RTVSPropertyOp14
 70
     1
102
RTVSPropertyOp15
 70
     1
102
RTVSPropertyOp16
 70
     1
102
RTVSPropertyOp17
 70
     1
102
RTVSPropertyOp18
 70
     1
102
RTVSPropertyOp19
 70
     1
102
RTVSPropertyOp20
 70
     1
102
RTVSPropertyOp21
 70
     1
102
RTVSPropertyOp22
 70
     1
102
RTVSPropertyOp23
 70
     1
102
RTVSPropertyOp24
 70
     1
102
RTVSPropertyOp25
 70
     1
102
RTVSPropertyOp26
 70
     1
102
RTVSPropertyOp27
 70
     1
102
RTVSPropertyOp28
 70
     1
102
RTVSPropertyOp29
 70
     1
102
RTVSPropertyOp30
 70
     1
102
RTVSPropertyOp31
 70
     1
102
RTVSPropertyOp32
 70
     1
102
RTVSPropertyOp33
 70
     1
102
RTVSPropertyOp34
 70
     1
102
RTVSPropertyOp35
 70
     1
102
RTVSPropertyOp36
 70
     1
102
RTVSPropertyOp37
 70
     1
102
RTVSPropertyOp38
 70
     1
102
RTVSPropertyOp39
 70
     1
102
RTVSPropertyOp40
 70
     1
102
RTVSPropertyOp41
 70
     1
102
RTVSPropertyOp42
 70
     1
102
RTVSPropertyOp43
 70
     1
102
RTVSPropertyOp44
 70
     1
102
RTVSPropertyOp45
 70
     1
102
RTVSPropertyOp46
 70
     1
102
RTVSPropertyOp47
 70
     1
102
RTVSPropertyOp48
 70
     1
102
RTVSPropertyOp49
 70
     1
102
RTVSPropertyOp50
 70
     1
102
RTVSPropertyOp51
 70
     0
102
RTVSPropertyOp52
 70
     0
102
RTVSPropertyOp53
 70
     1
102
RTVSPropertyOp54
 70
     1
102
RTVSPropertyOp55
 70
     1
102
RTVSPropertyOp56
 70
     1
102
RTVSPropertyOp57
 70
     1
102
RTVSPost2010Prop28
280
     0
102
RTVSPost2010PropOp28
 70
     1
102
RTVSPost2010Prop29
280
     1
102
RTVSPost2010PropOp29
 70
     1
102
RTVSPost2010Prop30
280
     1
102
RTVSPost2010PropOp30
 70
     1
102
RTVSPost2010Prop31
280
     0
102
RTVSPost2010PropOp31
 70
     1
102
RTVSPost2010Prop32
280
     0
102
RTVSPost2010PropOp32
 70
     1
102
RTVSPost2010Prop33
280
     0
102
RTVSPost2010PropOp33
 70
     1
102
RTVSPost2010Prop34
280
     0
102
RTVSPost2010PropOp34
 70
     1
102
RTVSPost2010Prop35
280
     0
102
RTVSPost2010PropOp35
 70
     1
102
RTVSPost2010Prop36
280
     0
102
RTVSPost2010PropOp36
 70
     1
102
RTVSPost2010Prop37
 90
       50
102
RTVSPost2010PropOp37
 70
     1
102
RTVSPost2010Prop38
140
0.0
102
RTVSPost2010PropOp38
 70
     1
102
RTVSPost2010Prop39
140
1.0
102
RTVSPost2010PropOp39
 70
     1
102
RTVSPost2010Prop40
 90
        0
102
RTVSPost2010PropOp40
 70
     1
102
RTVSPost2010Prop41ColorIndex
 90
       18
102
RTVSPost2010Prop41ColorRGB
 90
        0
102
RTVSPost2010PropOp41
 70
     1
102
RTVSPost2010Prop42
 90
       50
102
RTVSPost2010PropOp42
 70
     1
102
RTVSPost2010Prop43
 90
        3
102
RTVSPost2010PropOp43
 70
     1
102
RTVSPost2010Prop44ColorIndex
 90
        5
102
RTVSPost2010Prop44ColorRGB
 90
      255
102
RTVSPost2010PropOp44
 70
     1
102
RTVSPost2010Prop45
280
     0
102
RTVSPost2010PropOp45
 70
     1
102
RTVSPost2010Prop46
 90
       50
102
RTVSPost2010PropOp46
 70
     1
102
RTVSPost2010Prop47
 90
       50
102
RTVSPost2010PropOp47
 70
     1
102
RTVSPost2010Prop48
 90
       50
102
RTVSPost2010PropOp48
 70
     1
102
RTVSPost2010Prop49
280
     0
102
RTVSPost2010PropOp49
 70
     1
102
RTVSPost2010Prop50
 90
       50
102
RTVSPost2010PropOp50
 70
     1
102
RTVSPost2010Prop51ColorIndex
 90
      256
102
RTVSPost2010Prop51ColorRGB
 90
-16777216
102
RTVSPost2010PropOp51
 70
     0
102
RTVSPost2010Prop52
140
1.0
102
RTVSPost2010PropOp52
 70
     0
102
RTVSPost2010Prop53
 90
        2
102
RTVSPost2010PropOp53
 70
     1
102
RTVSPost2010Prop54
  1
strokes_ogs.tif
102
RTVSPost2010PropOp54
 70
     1
102
RTVSPost2010Prop55
280
     0
102
RTVSPost2010PropOp55
 70
     1
102
RTVSPost2010Prop56
140
1.0
102
RTVSPost2010PropOp56
 70
     1
102
RTVSPost2010Prop57
140
1.0
102
RTVSPost2010PropOp57
 70
     1
  0
XRECORD
  5
AB
102
{ACAD_REACTORS
330
AA
102
}
330
AA
100
AcDbXrecord
280
     1
102
RTVSPropertyOp0
 70
     1
102
RTVSPropertyOp1
 70
     1
102
RTVSPropertyOp2
 70
     1
102
RTVSPropertyOp3
 70
     1
102
RTVSPropertyOp4
 70
     1
102
RTVSPropertyOp5
 70
     1
102
RTVSPropertyOp6
 70
     1
102
RTVSPropertyOp7
 70
     1
102
RTVSPropertyOp8
 70
     1
102
RTVSPropertyOp9
 70
     1
102
RTVSPropertyOp10
 70
     1
102
RTVSPropertyOp11
 70
     1
102
RTVSPropertyOp12
 70
     1
102
RTVSPropertyOp13
 70
     1
102
RTVSPropertyOp14
 70
     1
102
RTVSPropertyOp15
 70
     1
102
RTVSPropertyOp16
 70
     1
102
RTVSPropertyOp17
 70
     1
102
RTVSPropertyOp18
 70
     1
102
RTVSPropertyOp19
 70
     1
102
RTVSPropertyOp20
 70
     1
102
RTVSPropertyOp21
 70
     1
102
RTVSPropertyOp22
 70
     1
102
RTVSPropertyOp23
 70
     1
102
RTVSPropertyOp24
 70
     1
102
RTVSPropertyOp25
 70
     1
102
RTVSPropertyOp26
 70
     1
102
RTVSPropertyOp27
 70
     1
102
RTVSPropertyOp28
 70
     1
102
RTVSPropertyOp29
 70
     1
102
RTVSPropertyOp30
 70
     1
102
RTVSPropertyOp31
 70
     1
102
RTVSPropertyOp32
 70
     1
102
RTVSPropertyOp33
 70
     1
102
RTVSPropertyOp34
 70
     1
102
RTVSPropertyOp35
 70
     1
102
RTVSPropertyOp36
 70
     1
102
RTVSPropertyOp37
 70
     1
102
RTVSPropertyOp38
 70
     1
102
RTVSPropertyOp39
 70
     1
102
RTVSPropertyOp40
 70
     1
102
RTVSPropertyOp41
 70
     1
102
RTVSPropertyOp42
 70
     1
102
RTVSPropertyOp43
 70
     1
102
RTVSPropertyOp44
 70
     1
102
RTVSPropertyOp45
 70
     1
102
RTVSPropertyOp46
 70
     1
102
RTVSPropertyOp47
 70
     1
102
RTVSPropertyOp48
 70
     1
102
RTVSPropertyOp49
 70
     1
102
RTVSPropertyOp50
 70
     1
102
RTVSPropertyOp51
 70
     0
102
RTVSPropertyOp52
 70
     0
102
RTVSPropertyOp53
 70
     1
102
RTVSPropertyOp54
 70
     1
102
RTVSPropertyOp55
 70
     1
102
RTVSPropertyOp56
 70
     1
102
RTVSPropertyOp57
 70
     1
102
RTVSPost2010Prop28
280
     0
102
RTVSPost2010PropOp28
 70
     1
102
RTVSPost2010Prop29
280
     1
102
RTVSPost2010PropOp29
 70
     1
102
RTVSPost2010Prop30
280
     1
102
RTVSPost2010PropOp30
 70
     1
102
RTVSPost2010Prop31
280
     0
102
RTVSPost2010PropOp31
 70
     1
102
RTVSPost2010Prop32
280
     0
102
RTVSPost2010PropOp32
 70
     1
102
RTVSPost2010Prop33
280
     0
102
RTVSPost2010PropOp33
 70
     1
102
RTVSPost2010Prop34
280
     0
102
RTVSPost2010PropOp34
 70
     1
102
RTVSPost2010Prop35
280
     0
102
RTVSPost2010PropOp35
 70
     1
102
RTVSPost2010Prop36
280
     0
102
RTVSPost2010PropOp36
 70
     1
102
RTVSPost2010Prop37
 90
       50
102
RTVSPost2010PropOp37
 70
     1
102
RTVSPost2010Prop38
140
0.0
102
RTVSPost2010PropOp38
 70
     1
102
RTVSPost2010Prop39
140
1.0
102
RTVSPost2010PropOp39
 70
     1
102
RTVSPost2010Prop40
 90
        0
102
RTVSPost2010PropOp40
 70
     1
102
RTVSPost2010Prop41ColorIndex
 90
       18
102
RTVSPost2010Prop41ColorRGB
 90
        0
102
RTVSPost2010PropOp41
 70
     1
102
RTVSPost2010Prop42
 90
       50
102
RTVSPost2010PropOp42
 70
     1
102
RTVSPost2010Prop43
 90
        3
102
RTVSPost2010PropOp43
 70
     1
102
RTVSPost2010Prop44ColorIndex
 90
        5
102
RTVSPost2010Prop44ColorRGB
 90
      255
102
RTVSPost2010PropOp44
 70
     1
102
RTVSPost2010Prop45
280
     0
102
RTVSPost2010PropOp45
 70
     1
102
RTVSPost2010Prop46
 90
       50
102
RTVSPost2010PropOp46
 70
     1
102
RTVSPost2010Prop47
 90
       50
102
RTVSPost2010PropOp47
 70
     1
102
RTVSPost2010Prop48
 90
       50
102
RTVSPost2010PropOp48
 70
     1
102
RTVSPost2010Prop49
280
     0
102
RTVSPost2010PropOp49
 70
     1
102
RTVSPost2010Prop50
 90
       50
102
RTVSPost2010PropOp50
 70
     1
102
RTVSPost2010Prop51ColorIndex
 90
      256
102
RTVSPost2010Prop51ColorRGB
 90
-16777216
102
RTVSPost2010PropOp51
 70
     0
102
RTVSPost2010Prop52
140
1.0
102
RTVSPost2010PropOp52
 70
     0
102
RTVSPost2010Prop53
 90
        2
102
RTVSPost2010PropOp53
 70
     1
102
RTVSPost2010Prop54
  1
strokes_ogs.tif
102
RTVSPost2010PropOp54
 70
     1
102
RTVSPost2010Prop55
280
     0
102
RTVSPost2010PropOp55
 70
     1
102
RTVSPost2010Prop56
140
1.0
102
RTVSPost2010PropOp56
 70
     1
102
RTVSPost2010Prop57
140
1.0
102
RTVSPost2010PropOp57
 70
     1
  0
XRECORD
  5
AF
102
{ACAD_REACTORS
330
AE
102
}
330
AE
100
AcDbXrecord
280
     1
102
RTVSPropertyOp0
 70
     1
102
RTVSPropertyOp1
 70
     1
102
RTVSPropertyOp2
 70
     1
102
RTVSPropertyOp3
 70
     1
102
RTVSPropertyOp4
 70
     1
102
RTVSPropertyOp5
 70
     1
102
RTVSPropertyOp6
 70
     1
102
RTVSPropertyOp7
 70
     1
102
RTVSPropertyOp8
 70
     1
102
RTVSPropertyOp9
 70
     1
102
RTVSPropertyOp10
 70
     1
102
RTVSPropertyOp11
 70
     1
102
RTVSPropertyOp12
 70
     1
102
RTVSPropertyOp13
 70
     1
102
RTVSPropertyOp14
 70
     1
102
RTVSPropertyOp15
 70
     1
102
RTVSPropertyOp16
 70
     1
102
RTVSPropertyOp17
 70
     1
102
RTVSPropertyOp18
 70
     1
102
RTVSPropertyOp19
 70
     1
102
RTVSPropertyOp20
 70
     1
102
RTVSPropertyOp21
 70
     1
102
RTVSPropertyOp22
 70
     1
102
RTVSPropertyOp23
 70
     1
102
RTVSPropertyOp24
 70
     1
102
RTVSPropertyOp25
 70
     1
102
RTVSPropertyOp26
 70
     1
102
RTVSPropertyOp27
 70
     1
102
RTVSPropertyOp28
 70
     1
102
RTVSPropertyOp29
 70
     1
102
RTVSPropertyOp30
 70
     1
102
RTVSPropertyOp31
 70
     1
102
RTVSPropertyOp32
 70
     1
102
RTVSPropertyOp33
 70
     1
102
RTVSPropertyOp34
 70
     1
102
RTVSPropertyOp35
 70
     1
102
RTVSPropertyOp36
 70
     1
102
RTVSPropertyOp37
 70
     1
102
RTVSPropertyOp38
 70
     1
102
RTVSPropertyOp39
 70
     1
102
RTVSPropertyOp40
 70
     1
102
RTVSPropertyOp41
 70
     1
102
RTVSPropertyOp42
 70
     1
102
RTVSPropertyOp43
 70
     1
102
RTVSPropertyOp44
 70
     1
102
RTVSPropertyOp45
 70
     1
102
RTVSPropertyOp46
 70
     1
102
RTVSPropertyOp47
 70
     1
102
RTVSPropertyOp48
 70
     1
102
RTVSPropertyOp49
 70
     1
102
RTVSPropertyOp50
 70
     1
102
RTVSPropertyOp51
 70
     0
102
RTVSPropertyOp52
 70
     0
102
RTVSPropertyOp53
 70
     1
102
RTVSPropertyOp54
 70
     1
102
RTVSPropertyOp55
 70
     1
102
RTVSPropertyOp56
 70
     1
102
RTVSPropertyOp57
 70
     1
102
RTVSPost2010Prop28
280
     0
102
RTVSPost2010PropOp28
 70
     1
102
RTVSPost2010Prop29
280
     1
102
RTVSPost2010PropOp29
 70
     1
102
RTVSPost2010Prop30
280
     1
102
RTVSPost2010PropOp30
 70
     1
102
RTVSPost2010Prop31
280
     0
102
RTVSPost2010PropOp31
 70
     1
102
RTVSPost2010Prop32
280
     0
102
RTVSPost2010PropOp32
 70
     1
102
RTVSPost2010Prop33
280
     0
102
RTVSPost2010PropOp33
 70
     1
102
RTVSPost2010Prop34
280
     0
102
RTVSPost2010PropOp34
 70
     1
102
RTVSPost2010Prop35
280
     0
102
RTVSPost2010PropOp35
 70
     1
102
RTVSPost2010Prop36
280
     0
102
RTVSPost2010PropOp36
 70
     1
102
RTVSPost2010Prop37
 90
       50
102
RTVSPost2010PropOp37
 70
     1
102
RTVSPost2010Prop38
140
0.0
102
RTVSPost2010PropOp38
 70
     1
102
RTVSPost2010Prop39
140
1.0
102
RTVSPost2010PropOp39
 70
     1
102
RTVSPost2010Prop40
 90
        0
102
RTVSPost2010PropOp40
 70
     1
102
RTVSPost2010Prop41ColorIndex
 90
       18
102
RTVSPost2010Prop41ColorRGB
 90
        0
102
RTVSPost2010PropOp41
 70
     1
102
RTVSPost2010Prop42
 90
       50
102
RTVSPost2010PropOp42
 70
     1
102
RTVSPost2010Prop43
 90
        3
102
RTVSPost2010PropOp43
 70
     1
102
RTVSPost2010Prop44ColorIndex
 90
        5
102
RTVSPost2010Prop44ColorRGB
 90
      255
102
RTVSPost2010PropOp44
 70
     1
102
RTVSPost2010Prop45
280
     0
102
RTVSPost2010PropOp45
 70
     1
102
RTVSPost2010Prop46
 90
       50
102
RTVSPost2010PropOp46
 70
     1
102
RTVSPost2010Prop47
 90
       50
102
RTVSPost2010PropOp47
 70
     1
102
RTVSPost2010Prop48
 90
       50
102
RTVSPost2010PropOp48
 70
     1
102
RTVSPost2010Prop49
280
     0
102
RTVSPost2010PropOp49
 70
     1
102
RTVSPost2010Prop50
 90
       50
102
RTVSPost2010PropOp50
 70
     1
102
RTVSPost2010Prop51ColorIndex
 90
      256
102
RTVSPost2010Prop51ColorRGB
 90
-16777216
102
RTVSPost2010PropOp51
 70
     0
102
RTVSPost2010Prop52
140
1.0
102
RTVSPost2010PropOp52
 70
     0
102
RTVSPost2010Prop53
 90
        2
102
RTVSPost2010PropOp53
 70
     1
102
RTVSPost2010Prop54
  1
strokes_ogs.tif
102
RTVSPost2010PropOp54
 70
     1
102
RTVSPost2010Prop55
280
     0
102
RTVSPost2010PropOp55
 70
     1
102
RTVSPost2010Prop56
140
1.0
102
RTVSPost2010PropOp56
 70
     1
102
RTVSPost2010Prop57
140
1.0
102
RTVSPost2010PropOp57
 70
     1
  0
XRECORD
  5
B7
102
{ACAD_REACTORS
330
B6
102
}
330
B6
100
AcDbXrecord
280
     1
102
RTVSPropertyOp0
 70
     1
102
RTVSPropertyOp1
 70
     1
102
RTVSPropertyOp2
 70
     1
102
RTVSPropertyOp3
 70
     1
102
RTVSPropertyOp4
 70
     1
102
RTVSPropertyOp5
 70
     1
102
RTVSPropertyOp6
 70
     1
102
RTVSPropertyOp7
 70
     1
102
RTVSPropertyOp8
 70
     1
102
RTVSPropertyOp9
 70
     1
102
RTVSPropertyOp10
 70
     1
102
RTVSPropertyOp11
 70
     1
102
RTVSPropertyOp12
 70
     1
102
RTVSPropertyOp13
 70
     1
102
RTVSPropertyOp14
 70
     1
102
RTVSPropertyOp15
 70
     1
102
RTVSPropertyOp16
 70
     1
102
RTVSPropertyOp17
 70
     1
102
RTVSPropertyOp18
 70
     1
102
RTVSPropertyOp19
 70
     1
102
RTVSPropertyOp20
 70
     1
102
RTVSPropertyOp21
 70
     1
102
RTVSPropertyOp22
 70
     1
102
RTVSPropertyOp23
 70
     1
102
RTVSPropertyOp24
 70
     1
102
RTVSPropertyOp25
 70
     1
102
RTVSPropertyOp26
 70
     1
102
RTVSPropertyOp27
 70
     1
102
RTVSPropertyOp28
 70
     1
102
RTVSPropertyOp29
 70
     1
102
RTVSPropertyOp30
 70
     1
102
RTVSPropertyOp31
 70
     1
102
RTVSPropertyOp32
 70
     1
102
RTVSPropertyOp33
 70
     1
102
RTVSPropertyOp34
 70
     1
102
RTVSPropertyOp35
 70
     1
102
RTVSPropertyOp36
 70
     1
102
RTVSPropertyOp37
 70
     1
102
RTVSPropertyOp38
 70
     1
102
RTVSPropertyOp39
 70
     1
102
RTVSPropertyOp40
 70
     1
102
RTVSPropertyOp41
 70
     1
102
RTVSPropertyOp42
 70
     1
102
RTVSPropertyOp43
 70
     1
102
RTVSPropertyOp44
 70
     1
102
RTVSPropertyOp45
 70
     1
102
RTVSPropertyOp46
 70
     1
102
RTVSPropertyOp47
 70
     1
102
RTVSPropertyOp48
 70
     1
102
RTVSPropertyOp49
 70
     1
102
RTVSPropertyOp50
 70
     1
102
RTVSPropertyOp51
 70
     0
102
RTVSPropertyOp52
 70
     0
102
RTVSPropertyOp53
 70
     1
102
RTVSPropertyOp54
 70
     1
102
RTVSPropertyOp55
 70
     1
102
RTVSPropertyOp56
 70
     1
102
RTVSPropertyOp57
 70
     1
102
RTVSPost2010Prop28
280
     0
102
RTVSPost2010PropOp28
 70
     1
102
RTVSPost2010Prop29
280
     1
102
RTVSPost2010PropOp29
 70
     1
102
RTVSPost2010Prop30
280
     1
102
RTVSPost2010PropOp30
 70
     1
102
RTVSPost2010Prop31
280
     0
102
RTVSPost2010PropOp31
 70
     1
102
RTVSPost2010Prop32
280
     0
102
RTVSPost2010PropOp32
 70
     1
102
RTVSPost2010Prop33
280
     0
102
RTVSPost2010PropOp33
 70
     1
102
RTVSPost2010Prop34
280
     0
102
RTVSPost2010PropOp34
 70
     1
102
RTVSPost2010Prop35
280
     0
102
RTVSPost2010PropOp35
 70
     1
102
RTVSPost2010Prop36
280
     0
102
RTVSPost2010PropOp36
 70
     1
102
RTVSPost2010Prop37
 90
       50
102
RTVSPost2010PropOp37
 70
     1
102
RTVSPost2010Prop38
140
0.0
102
RTVSPost2010PropOp38
 70
     1
102
RTVSPost2010Prop39
140
1.0
102
RTVSPost2010PropOp39
 70
     1
102
RTVSPost2010Prop40
 90
        0
102
RTVSPost2010PropOp40
 70
     1
102
RTVSPost2010Prop41ColorIndex
 90
       18
102
RTVSPost2010Prop41ColorRGB
 90
        0
102
RTVSPost2010PropOp41
 70
     1
102
RTVSPost2010Prop42
 90
       50
102
RTVSPost2010PropOp42
 70
     1
102
RTVSPost2010Prop43
 90
        3
102
RTVSPost2010PropOp43
 70
     1
102
RTVSPost2010Prop44ColorIndex
 90
        5
102
RTVSPost2010Prop44ColorRGB
 90
      255
102
RTVSPost2010PropOp44
 70
     1
102
RTVSPost2010Prop45
280
     0
102
RTVSPost2010PropOp45
 70
     1
102
RTVSPost2010Prop46
 90
       50
102
RTVSPost2010PropOp46
 70
     1
102
RTVSPost2010Prop47
 90
       50
102
RTVSPost2010PropOp47
 70
     1
102
RTVSPost2010Prop48
 90
       50
102
RTVSPost2010PropOp48
 70
     1
102
RTVSPost2010Prop49
280
     0
102
RTVSPost2010PropOp49
 70
     1
102
RTVSPost2010Prop50
 90
       50
102
RTVSPost2010PropOp50
 70
     1
102
RTVSPost2010Prop51ColorIndex
 90
      256
102
RTVSPost2010Prop51ColorRGB
 90
-16777216
102
RTVSPost2010PropOp51
 70
     0
102
RTVSPost2010Prop52
140
1.0
102
RTVSPost2010PropOp52
 70
     0
102
RTVSPost2010Prop53
 90
        2
102
RTVSPost2010PropOp53
 70
     1
102
RTVSPost2010Prop54
  1
strokes_ogs.tif
102
RTVSPost2010PropOp54
 70
     1
102
RTVSPost2010Prop55
280
     0
102
RTVSPost2010PropOp55
 70
     1
102
RTVSPost2010Prop56
140
1.0
102
RTVSPost2010PropOp56
 70
     1
102
RTVSPost2010Prop57
140
1.0
102
RTVSPost2010PropOp57
 70
     1
  0
XRECORD
  5
BF
102
{ACAD_REACTORS
330
BE
102
}
330
BE
100
AcDbXrecord
280
     1
102
RTVSPropertyOp0
 70
     1
102
RTVSPropertyOp1
 70
     1
102
RTVSPropertyOp2
 70
     1
102
RTVSPropertyOp3
 70
     1
102
RTVSPropertyOp4
 70
     1
102
RTVSPropertyOp5
 70
     1
102
RTVSPropertyOp6
 70
     1
102
RTVSPropertyOp7
 70
     1
102
RTVSPropertyOp8
 70
     1
102
RTVSPropertyOp9
 70
     1
102
RTVSPropertyOp10
 70
     1
102
RTVSPropertyOp11
 70
     1
102
RTVSPropertyOp12
 70
     1
102
RTVSPropertyOp13
 70
     1
102
RTVSPropertyOp14
 70
     1
102
RTVSPropertyOp15
 70
     1
102
RTVSPropertyOp16
 70
     1
102
RTVSPropertyOp17
 70
     1
102
RTVSPropertyOp18
 70
     1
102
RTVSPropertyOp19
 70
     1
102
RTVSPropertyOp20
 70
     1
102
RTVSPropertyOp21
 70
     1
102
RTVSPropertyOp22
 70
     1
102
RTVSPropertyOp23
 70
     1
102
RTVSPropertyOp24
 70
     1
102
RTVSPropertyOp25
 70
     1
102
RTVSPropertyOp26
 70
     1
102
RTVSPropertyOp27
 70
     1
102
RTVSPropertyOp28
 70
     1
102
RTVSPropertyOp29
 70
     1
102
RTVSPropertyOp30
 70
     1
102
RTVSPropertyOp31
 70
     1
102
RTVSPropertyOp32
 70
     1
102
RTVSPropertyOp33
 70
     1
102
RTVSPropertyOp34
 70
     1
102
RTVSPropertyOp35
 70
     1
102
RTVSPropertyOp36
 70
     1
102
RTVSPropertyOp37
 70
     1
102
RTVSPropertyOp38
 70
     1
102
RTVSPropertyOp39
 70
     1
102
RTVSPropertyOp40
 70
     1
102
RTVSPropertyOp41
 70
     1
102
RTVSPropertyOp42
 70
     1
102
RTVSPropertyOp43
 70
     1
102
RTVSPropertyOp44
 70
     1
102
RTVSPropertyOp45
 70
     1
102
RTVSPropertyOp46
 70
     1
102
RTVSPropertyOp47
 70
     1
102
RTVSPropertyOp48
 70
     1
102
RTVSPropertyOp49
 70
     1
102
RTVSPropertyOp50
 70
     1
102
RTVSPropertyOp51
 70
     0
102
RTVSPropertyOp52
 70
     0
102
RTVSPropertyOp53
 70
     1
102
RTVSPropertyOp54
 70
     1
102
RTVSPropertyOp55
 70
     1
102
RTVSPropertyOp56
 70
     1
102
RTVSPropertyOp57
 70
     1
102
RTVSPost2010Prop28
280
     0
102
RTVSPost2010PropOp28
 70
     1
102
RTVSPost2010Prop29
280
     1
102
RTVSPost2010PropOp29
 70
     1
102
RTVSPost2010Prop30
280
     1
102
RTVSPost2010PropOp30
 70
     1
102
RTVSPost2010Prop31
280
     0
102
RTVSPost2010PropOp31
 70
     1
102
RTVSPost2010Prop32
280
     0
102
RTVSPost2010PropOp32
 70
     1
102
RTVSPost2010Prop33
280
     0
102
RTVSPost2010PropOp33
 70
     1
102
RTVSPost2010Prop34
280
     0
102
RTVSPost2010PropOp34
 70
     1
102
RTVSPost2010Prop35
280
     0
102
RTVSPost2010PropOp35
 70
     1
102
RTVSPost2010Prop36
280
     0
102
RTVSPost2010PropOp36
 70
     1
102
RTVSPost2010Prop37
 90
       50
102
RTVSPost2010PropOp37
 70
     1
102
RTVSPost2010Prop38
140
0.0
102
RTVSPost2010PropOp38
 70
     1
102
RTVSPost2010Prop39
140
1.0
102
RTVSPost2010PropOp39
 70
     1
102
RTVSPost2010Prop40
 90
        0
102
RTVSPost2010PropOp40
 70
     1
102
RTVSPost2010Prop41ColorIndex
 90
       18
102
RTVSPost2010Prop41ColorRGB
 90
        0
102
RTVSPost2010PropOp41
 70
     1
102
RTVSPost2010Prop42
 90
       50
102
RTVSPost2010PropOp42
 70
     1
102
RTVSPost2010Prop43
 90
        3
102
RTVSPost2010PropOp43
 70
     1
102
RTVSPost2010Prop44ColorIndex
 90
        5
102
RTVSPost2010Prop44ColorRGB
 90
      255
102
RTVSPost2010PropOp44
 70
     1
102
RTVSPost2010Prop45
280
     0
102
RTVSPost2010PropOp45
 70
     1
102
RTVSPost2010Prop46
 90
       50
102
RTVSPost2010PropOp46
 70
     1
102
RTVSPost2010Prop47
 90
       50
102
RTVSPost2010PropOp47
 70
     1
102
RTVSPost2010Prop48
 90
       50
102
RTVSPost2010PropOp48
 70
     1
102
RTVSPost2010Prop49
280
     0
102
RTVSPost2010PropOp49
 70
     1
102
RTVSPost2010Prop50
 90
       50
102
RTVSPost2010PropOp50
 70
     1
102
RTVSPost2010Prop51ColorIndex
 90
      256
102
RTVSPost2010Prop51ColorRGB
 90
-16777216
102
RTVSPost2010PropOp51
 70
     0
102
RTVSPost2010Prop52
140
1.0
102
RTVSPost2010PropOp52
 70
     0
102
RTVSPost2010Prop53
 90
        2
102
RTVSPost2010PropOp53
 70
     1
102
RTVSPost2010Prop54
  1
strokes_ogs.tif
102
RTVSPost2010PropOp54
 70
     1
102
RTVSPost2010Prop55
280
     0
102
RTVSPost2010PropOp55
 70
     1
102
RTVSPost2010Prop56
140
1.0
102
RTVSPost2010PropOp56
 70
     1
102
RTVSPost2010Prop57
140
1.0
102
RTVSPost2010PropOp57
 70
     1
  0
XRECORD
  5
B3
102
{ACAD_REACTORS
330
B2
102
}
330
B2
100
AcDbXrecord
280
     1
102
RTVSPropertyOp0
 70
     1
102
RTVSPropertyOp1
 70
     1
102
RTVSPropertyOp2
 70
     1
102
RTVSPropertyOp3
 70
     1
102
RTVSPropertyOp4
 70
     1
102
RTVSPropertyOp5
 70
     1
102
RTVSPropertyOp6
 70
     1
102
RTVSPropertyOp7
 70
     1
102
RTVSPropertyOp8
 70
     1
102
RTVSPropertyOp9
 70
     1
102
RTVSPropertyOp10
 70
     1
102
RTVSPropertyOp11
 70
     1
102
RTVSPropertyOp12
 70
     1
102
RTVSPropertyOp13
 70
     1
102
RTVSPropertyOp14
 70
     1
102
RTVSPropertyOp15
 70
     1
102
RTVSPropertyOp16
 70
     1
102
RTVSPropertyOp17
 70
     1
102
RTVSPropertyOp18
 70
     1
102
RTVSPropertyOp19
 70
     1
102
RTVSPropertyOp20
 70
     1
102
RTVSPropertyOp21
 70
     1
102
RTVSPropertyOp22
 70
     1
102
RTVSPropertyOp23
 70
     1
102
RTVSPropertyOp24
 70
     1
102
RTVSPropertyOp25
 70
     1
102
RTVSPropertyOp26
 70
     1
102
RTVSPropertyOp27
 70
     1
102
RTVSPropertyOp28
 70
     1
102
RTVSPropertyOp29
 70
     1
102
RTVSPropertyOp30
 70
     1
102
RTVSPropertyOp31
 70
     1
102
RTVSPropertyOp32
 70
     1
102
RTVSPropertyOp33
 70
     1
102
RTVSPropertyOp34
 70
     1
102
RTVSPropertyOp35
 70
     1
102
RTVSPropertyOp36
 70
     1
102
RTVSPropertyOp37
 70
     1
102
RTVSPropertyOp38
 70
     1
102
RTVSPropertyOp39
 70
     1
102
RTVSPropertyOp40
 70
     1
102
RTVSPropertyOp41
 70
     1
102
RTVSPropertyOp42
 70
     1
102
RTVSPropertyOp43
 70
     1
102
RTVSPropertyOp44
 70
     1
102
RTVSPropertyOp45
 70
     1
102
RTVSPropertyOp46
 70
     1
102
RTVSPropertyOp47
 70
     1
102
RTVSPropertyOp48
 70
     1
102
RTVSPropertyOp49
 70
     1
102
RTVSPropertyOp50
 70
     1
102
RTVSPropertyOp51
 70
     0
102
RTVSPropertyOp52
 70
     0
102
RTVSPropertyOp53
 70
     1
102
RTVSPropertyOp54
 70
     1
102
RTVSPropertyOp55
 70
     1
102
RTVSPropertyOp56
 70
     1
102
RTVSPropertyOp57
 70
     1
102
RTVSPost2010Prop28
280
     0
102
RTVSPost2010PropOp28
 70
     1
102
RTVSPost2010Prop29
280
     1
102
RTVSPost2010PropOp29
 70
     1
102
RTVSPost2010Prop30
280
     1
102
RTVSPost2010PropOp30
 70
     1
102
RTVSPost2010Prop31
280
     0
102
RTVSPost2010PropOp31
 70
     1
102
RTVSPost2010Prop32
280
     0
102
RTVSPost2010PropOp32
 70
     1
102
RTVSPost2010Prop33
280
     0
102
RTVSPost2010PropOp33
 70
     1
102
RTVSPost2010Prop34
280
     0
102
RTVSPost2010PropOp34
 70
     1
102
RTVSPost2010Prop35
280
     0
102
RTVSPost2010PropOp35
 70
     1
102
RTVSPost2010Prop36
280
     0
102
RTVSPost2010PropOp36
 70
     1
102
RTVSPost2010Prop37
 90
       50
102
RTVSPost2010PropOp37
 70
     1
102
RTVSPost2010Prop38
140
0.0
102
RTVSPost2010PropOp38
 70
     1
102
RTVSPost2010Prop39
140
1.0
102
RTVSPost2010PropOp39
 70
     1
102
RTVSPost2010Prop40
 90
        0
102
RTVSPost2010PropOp40
 70
     1
102
RTVSPost2010Prop41ColorIndex
 90
       18
102
RTVSPost2010Prop41ColorRGB
 90
        0
102
RTVSPost2010PropOp41
 70
     1
102
RTVSPost2010Prop42
 90
       50
102
RTVSPost2010PropOp42
 70
     1
102
RTVSPost2010Prop43
 90
        3
102
RTVSPost2010PropOp43
 70
     1
102
RTVSPost2010Prop44ColorIndex
 90
        5
102
RTVSPost2010Prop44ColorRGB
 90
      255
102
RTVSPost2010PropOp44
 70
     1
102
RTVSPost2010Prop45
280
     0
102
RTVSPost2010PropOp45
 70
     1
102
RTVSPost2010Prop46
 90
       50
102
RTVSPost2010PropOp46
 70
     1
102
RTVSPost2010Prop47
 90
       50
102
RTVSPost2010PropOp47
 70
     1
102
RTVSPost2010Prop48
 90
       50
102
RTVSPost2010PropOp48
 70
     1
102
RTVSPost2010Prop49
280
     0
102
RTVSPost2010PropOp49
 70
     1
102
RTVSPost2010Prop50
 90
       50
102
RTVSPost2010PropOp50
 70
     1
102
RTVSPost2010Prop51ColorIndex
 90
      256
102
RTVSPost2010Prop51ColorRGB
 90
-16777216
102
RTVSPost2010PropOp51
 70
     0
102
RTVSPost2010Prop52
140
1.0
102
RTVSPost2010PropOp52
 70
     0
102
RTVSPost2010Prop53
 90
        2
102
RTVSPost2010PropOp53
 70
     1
102
RTVSPost2010Prop54
  1
strokes_ogs.tif
102
RTVSPost2010PropOp54
 70
     1
102
RTVSPost2010Prop55
280
     0
102
RTVSPost2010PropOp55
 70
     1
102
RTVSPost2010Prop56
140
1.0
102
RTVSPost2010PropOp56
 70
     1
102
RTVSPost2010Prop57
140
1.0
102
RTVSPost2010PropOp57
 70
     1
  0
XRECORD
  5
B5
102
{ACAD_REACTORS
330
B4
102
}
330
B4
100
AcDbXrecord
280
     1
102
RTVSPropertyOp0
 70
     1
102
RTVSPropertyOp1
 70
     1
102
RTVSPropertyOp2
 70
     1
102
RTVSPropertyOp3
 70
     1
102
RTVSPropertyOp4
 70
     1
102
RTVSPropertyOp5
 70
     1
102
RTVSPropertyOp6
 70
     1
102
RTVSPropertyOp7
 70
     1
102
RTVSPropertyOp8
 70
     1
102
RTVSPropertyOp9
 70
     1
102
RTVSPropertyOp10
 70
     1
102
RTVSPropertyOp11
 70
     1
102
RTVSPropertyOp12
 70
     1
102
RTVSPropertyOp13
 70
     1
102
RTVSPropertyOp14
 70
     1
102
RTVSPropertyOp15
 70
     1
102
RTVSPropertyOp16
 70
     1
102
RTVSPropertyOp17
 70
     1
102
RTVSPropertyOp18
 70
     1
102
RTVSPropertyOp19
 70
     1
102
RTVSPropertyOp20
 70
     1
102
RTVSPropertyOp21
 70
     1
102
RTVSPropertyOp22
 70
     1
102
RTVSPropertyOp23
 70
     1
102
RTVSPropertyOp24
 70
     1
102
RTVSPropertyOp25
 70
     1
102
RTVSPropertyOp26
 70
     1
102
RTVSPropertyOp27
 70
     1
102
RTVSPropertyOp28
 70
     1
102
RTVSPropertyOp29
 70
     1
102
RTVSPropertyOp30
 70
     1
102
RTVSPropertyOp31
 70
     1
102
RTVSPropertyOp32
 70
     1
102
RTVSPropertyOp33
 70
     1
102
RTVSPropertyOp34
 70
     1
102
RTVSPropertyOp35
 70
     1
102
RTVSPropertyOp36
 70
     1
102
RTVSPropertyOp37
 70
     1
102
RTVSPropertyOp38
 70
     1
102
RTVSPropertyOp39
 70
     1
102
RTVSPropertyOp40
 70
     1
102
RTVSPropertyOp41
 70
     1
102
RTVSPropertyOp42
 70
     1
102
RTVSPropertyOp43
 70
     1
102
RTVSPropertyOp44
 70
     1
102
RTVSPropertyOp45
 70
     1
102
RTVSPropertyOp46
 70
     1
102
RTVSPropertyOp47
 70
     1
102
RTVSPropertyOp48
 70
     1
102
RTVSPropertyOp49
 70
     1
102
RTVSPropertyOp50
 70
     1
102
RTVSPropertyOp51
 70
     0
102
RTVSPropertyOp52
 70
     0
102
RTVSPropertyOp53
 70
     1
102
RTVSPropertyOp54
 70
     1
102
RTVSPropertyOp55
 70
     1
102
RTVSPropertyOp56
 70
     1
102
RTVSPropertyOp57
 70
     1
102
RTVSPost2010Prop28
280
     0
102
RTVSPost2010PropOp28
 70
     1
102
RTVSPost2010Prop29
280
     1
102
RTVSPost2010PropOp29
 70
     1
102
RTVSPost2010Prop30
280
     1
102
RTVSPost2010PropOp30
 70
     1
102
RTVSPost2010Prop31
280
     0
102
RTVSPost2010PropOp31
 70
     1
102
RTVSPost2010Prop32
280
     0
102
RTVSPost2010PropOp32
 70
     1
102
RTVSPost2010Prop33
280
     0
102
RTVSPost2010PropOp33
 70
     1
102
RTVSPost2010Prop34
280
     0
102
RTVSPost2010PropOp34
 70
     1
102
RTVSPost2010Prop35
280
     0
102
RTVSPost2010PropOp35
 70
     1
102
RTVSPost2010Prop36
280
     0
102
RTVSPost2010PropOp36
 70
     1
102
RTVSPost2010Prop37
 90
       50
102
RTVSPost2010PropOp37
 70
     1
102
RTVSPost2010Prop38
140
0.0
102
RTVSPost2010PropOp38
 70
     1
102
RTVSPost2010Prop39
140
1.0
102
RTVSPost2010PropOp39
 70
     1
102
RTVSPost2010Prop40
 90
        0
102
RTVSPost2010PropOp40
 70
     1
102
RTVSPost2010Prop41ColorIndex
 90
       18
102
RTVSPost2010Prop41ColorRGB
 90
        0
102
RTVSPost2010PropOp41
 70
     1
102
RTVSPost2010Prop42
 90
       50
102
RTVSPost2010PropOp42
 70
     1
102
RTVSPost2010Prop43
 90
        3
102
RTVSPost2010PropOp43
 70
     1
102
RTVSPost2010Prop44ColorIndex
 90
        5
102
RTVSPost2010Prop44ColorRGB
 90
      255
102
RTVSPost2010PropOp44
 70
     1
102
RTVSPost2010Prop45
280
     0
102
RTVSPost2010PropOp45
 70
     1
102
RTVSPost2010Prop46
 90
       50
102
RTVSPost2010PropOp46
 70
     1
102
RTVSPost2010Prop47
 90
       50
102
RTVSPost2010PropOp47
 70
     1
102
RTVSPost2010Prop48
 90
       50
102
RTVSPost2010PropOp48
 70
     1
102
RTVSPost2010Prop49
280
     0
102
RTVSPost2010PropOp49
 70
     1
102
RTVSPost2010Prop50
 90
       50
102
RTVSPost2010PropOp50
 70
     1
102
RTVSPost2010Prop51ColorIndex
 90
      256
102
RTVSPost2010Prop51ColorRGB
 90
-16777216
102
RTVSPost2010PropOp51
 70
     0
102
RTVSPost2010Prop52
140
1.0
102
RTVSPost2010PropOp52
 70
     0
102
RTVSPost2010Prop53
 90
        2
102
RTVSPost2010PropOp53
 70
     1
102
RTVSPost2010Prop54
  1
strokes_ogs.tif
102
RTVSPost2010PropOp54
 70
     1
102
RTVSPost2010Prop55
280
     0
102
RTVSPost2010PropOp55
 70
     1
102
RTVSPost2010Prop56
140
1.0
102
RTVSPost2010PropOp56
 70
     1
102
RTVSPost2010Prop57
140
1.0
102
RTVSPost2010PropOp57
 70
     1
  0
XRECORD
  5
BD
102
{ACAD_REACTORS
330
BC
102
}
330
BC
100
AcDbXrecord
280
     1
102
RTVSPropertyOp0
 70
     1
102
RTVSPropertyOp1
 70
     1
102
RTVSPropertyOp2
 70
     1
102
RTVSPropertyOp3
 70
     1
102
RTVSPropertyOp4
 70
     1
102
RTVSPropertyOp5
 70
     1
102
RTVSPropertyOp6
 70
     1
102
RTVSPropertyOp7
 70
     1
102
RTVSPropertyOp8
 70
     1
102
RTVSPropertyOp9
 70
     1
102
RTVSPropertyOp10
 70
     1
102
RTVSPropertyOp11
 70
     1
102
RTVSPropertyOp12
 70
     1
102
RTVSPropertyOp13
 70
     1
102
RTVSPropertyOp14
 70
     1
102
RTVSPropertyOp15
 70
     1
102
RTVSPropertyOp16
 70
     1
102
RTVSPropertyOp17
 70
     1
102
RTVSPropertyOp18
 70
     1
102
RTVSPropertyOp19
 70
     1
102
RTVSPropertyOp20
 70
     1
102
RTVSPropertyOp21
 70
     1
102
RTVSPropertyOp22
 70
     1
102
RTVSPropertyOp23
 70
     1
102
RTVSPropertyOp24
 70
     1
102
RTVSPropertyOp25
 70
     1
102
RTVSPropertyOp26
 70
     1
102
RTVSPropertyOp27
 70
     1
102
RTVSPropertyOp28
 70
     1
102
RTVSPropertyOp29
 70
     1
102
RTVSPropertyOp30
 70
     1
102
RTVSPropertyOp31
 70
     1
102
RTVSPropertyOp32
 70
     1
102
RTVSPropertyOp33
 70
     1
102
RTVSPropertyOp34
 70
     1
102
RTVSPropertyOp35
 70
     1
102
RTVSPropertyOp36
 70
     1
102
RTVSPropertyOp37
 70
     1
102
RTVSPropertyOp38
 70
     1
102
RTVSPropertyOp39
 70
     1
102
RTVSPropertyOp40
 70
     1
102
RTVSPropertyOp41
 70
     1
102
RTVSPropertyOp42
 70
     1
102
RTVSPropertyOp43
 70
     1
102
RTVSPropertyOp44
 70
     1
102
RTVSPropertyOp45
 70
     1
102
RTVSPropertyOp46
 70
     1
102
RTVSPropertyOp47
 70
     1
102
RTVSPropertyOp48
 70
     1
102
RTVSPropertyOp49
 70
     1
102
RTVSPropertyOp50
 70
     1
102
RTVSPropertyOp51
 70
     0
102
RTVSPropertyOp52
 70
     0
102
RTVSPropertyOp53
 70
     1
102
RTVSPropertyOp54
 70
     1
102
RTVSPropertyOp55
 70
     1
102
RTVSPropertyOp56
 70
     1
102
RTVSPropertyOp57
 70
     1
102
RTVSPost2010Prop28
280
     0
102
RTVSPost2010PropOp28
 70
     1
102
RTVSPost2010Prop29
280
     1
102
RTVSPost2010PropOp29
 70
     1
102
RTVSPost2010Prop30
280
     1
102
RTVSPost2010PropOp30
 70
     1
102
RTVSPost2010Prop31
280
     0
102
RTVSPost2010PropOp31
 70
     1
102
RTVSPost2010Prop32
280
     0
102
RTVSPost2010PropOp32
 70
     1
102
RTVSPost2010Prop33
280
     0
102
RTVSPost2010PropOp33
 70
     1
102
RTVSPost2010Prop34
280
     0
102
RTVSPost2010PropOp34
 70
     1
102
RTVSPost2010Prop35
280
     0
102
RTVSPost2010PropOp35
 70
     1
102
RTVSPost2010Prop36
280
     0
102
RTVSPost2010PropOp36
 70
     1
102
RTVSPost2010Prop37
 90
       50
102
RTVSPost2010PropOp37
 70
     1
102
RTVSPost2010Prop38
140
0.0
102
RTVSPost2010PropOp38
 70
     1
102
RTVSPost2010Prop39
140
1.0
102
RTVSPost2010PropOp39
 70
     1
102
RTVSPost2010Prop40
 90
        0
102
RTVSPost2010PropOp40
 70
     1
102
RTVSPost2010Prop41ColorIndex
 90
       18
102
RTVSPost2010Prop41ColorRGB
 90
        0
102
RTVSPost2010PropOp41
 70
     1
102
RTVSPost2010Prop42
 90
       50
102
RTVSPost2010PropOp42
 70
     1
102
RTVSPost2010Prop43
 90
        3
102
RTVSPost2010PropOp43
 70
     1
102
RTVSPost2010Prop44ColorIndex
 90
        5
102
RTVSPost2010Prop44ColorRGB
 90
      255
102
RTVSPost2010PropOp44
 70
     1
102
RTVSPost2010Prop45
280
     0
102
RTVSPost2010PropOp45
 70
     1
102
RTVSPost2010Prop46
 90
       50
102
RTVSPost2010PropOp46
 70
     1
102
RTVSPost2010Prop47
 90
       50
102
RTVSPost2010PropOp47
 70
     1
102
RTVSPost2010Prop48
 90
       50
102
RTVSPost2010PropOp48
 70
     1
102
RTVSPost2010Prop49
280
     0
102
RTVSPost2010PropOp49
 70
     1
102
RTVSPost2010Prop50
 90
       50
102
RTVSPost2010PropOp50
 70
     1
102
RTVSPost2010Prop51ColorIndex
 90
      256
102
RTVSPost2010Prop51ColorRGB
 90
-16777216
102
RTVSPost2010PropOp51
 70
     0
102
RTVSPost2010Prop52
140
1.0
102
RTVSPost2010PropOp52
 70
     0
102
RTVSPost2010Prop53
 90
        2
102
RTVSPost2010PropOp53
 70
     1
102
RTVSPost2010Prop54
  1
strokes_ogs.tif
102
RTVSPost2010PropOp54
 70
     1
102
RTVSPost2010Prop55
280
     0
102
RTVSPost2010PropOp55
 70
     1
102
RTVSPost2010Prop56
140
1.0
102
RTVSPost2010PropOp56
 70
     1
102
RTVSPost2010Prop57
140
1.0
102
RTVSPost2010PropOp57
 70
     1
  0
XRECORD
  5
A1
102
{ACAD_REACTORS
330
A0
102
}
330
A0
100
AcDbXrecord
280
     1
102
RTVSPropertyOp0
 70
     1
102
RTVSPropertyOp1
 70
     1
102
RTVSPropertyOp2
 70
     1
102
RTVSPropertyOp3
 70
     1
102
RTVSPropertyOp4
 70
     1
102
RTVSPropertyOp5
 70
     1
102
RTVSPropertyOp6
 70
     1
102
RTVSPropertyOp7
 70
     1
102
RTVSPropertyOp8
 70
     1
102
RTVSPropertyOp9
 70
     1
102
RTVSPropertyOp10
 70
     1
102
RTVSPropertyOp11
 70
     1
102
RTVSPropertyOp12
 70
     1
102
RTVSPropertyOp13
 70
     1
102
RTVSPropertyOp14
 70
     1
102
RTVSPropertyOp15
 70
     1
102
RTVSPropertyOp16
 70
     1
102
RTVSPropertyOp17
 70
     1
102
RTVSPropertyOp18
 70
     1
102
RTVSPropertyOp19
 70
     1
102
RTVSPropertyOp20
 70
     1
102
RTVSPropertyOp21
 70
     1
102
RTVSPropertyOp22
 70
     1
102
RTVSPropertyOp23
 70
     1
102
RTVSPropertyOp24
 70
     1
102
RTVSPropertyOp25
 70
     1
102
RTVSPropertyOp26
 70
     1
102
RTVSPropertyOp27
 70
     1
102
RTVSPropertyOp28
 70
     1
102
RTVSPropertyOp29
 70
     1
102
RTVSPropertyOp30
 70
     1
102
RTVSPropertyOp31
 70
     1
102
RTVSPropertyOp32
 70
     1
102
RTVSPropertyOp33
 70
     1
102
RTVSPropertyOp34
 70
     1
102
RTVSPropertyOp35
 70
     1
102
RTVSPropertyOp36
 70
     1
102
RTVSPropertyOp37
 70
     1
102
RTVSPropertyOp38
 70
     1
102
RTVSPropertyOp39
 70
     1
102
RTVSPropertyOp40
 70
     1
102
RTVSPropertyOp41
 70
     1
102
RTVSPropertyOp42
 70
     1
102
RTVSPropertyOp43
 70
     1
102
RTVSPropertyOp44
 70
     1
102
RTVSPropertyOp45
 70
     1
102
RTVSPropertyOp46
 70
     1
102
RTVSPropertyOp47
 70
     1
102
RTVSPropertyOp48
 70
     1
102
RTVSPropertyOp49
 70
     1
102
RTVSPropertyOp50
 70
     1
102
RTVSPropertyOp51
 70
     0
102
RTVSPropertyOp52
 70
     0
102
RTVSPropertyOp53
 70
     1
102
RTVSPropertyOp54
 70
     1
102
RTVSPropertyOp55
 70
     1
102
RTVSPropertyOp56
 70
     1
102
RTVSPropertyOp57
 70
     1
102
RTVSPost2010Prop28
280
     0
102
RTVSPost2010PropOp28
 70
     1
102
RTVSPost2010Prop29
280
     1
102
RTVSPost2010PropOp29
 70
     1
102
RTVSPost2010Prop30
280
     1
102
RTVSPost2010PropOp30
 70
     1
102
RTVSPost2010Prop31
280
     0
102
RTVSPost2010PropOp31
 70
     1
102
RTVSPost2010Prop32
280
     0
102
RTVSPost2010PropOp32
 70
     1
102
RTVSPost2010Prop33
280
     0
102
RTVSPost2010PropOp33
 70
     1
102
RTVSPost2010Prop34
280
     0
102
RTVSPost2010PropOp34
 70
     1
102
RTVSPost2010Prop35
280
     0
102
RTVSPost2010PropOp35
 70
     1
102
RTVSPost2010Prop36
280
     0
102
RTVSPost2010PropOp36
 70
     1
102
RTVSPost2010Prop37
 90
       50
102
RTVSPost2010PropOp37
 70
     1
102
RTVSPost2010Prop38
140
0.0
102
RTVSPost2010PropOp38
 70
     1
102
RTVSPost2010Prop39
140
1.0
102
RTVSPost2010PropOp39
 70
     1
102
RTVSPost2010Prop40
 90
        0
102
RTVSPost2010PropOp40
 70
     1
102
RTVSPost2010Prop41ColorIndex
 90
       18
102
RTVSPost2010Prop41ColorRGB
 90
        0
102
RTVSPost2010PropOp41
 70
     1
102
RTVSPost2010Prop42
 90
       50
102
RTVSPost2010PropOp42
 70
     1
102
RTVSPost2010Prop43
 90
        3
102
RTVSPost2010PropOp43
 70
     1
102
RTVSPost2010Prop44ColorIndex
 90
        5
102
RTVSPost2010Prop44ColorRGB
 90
      255
102
RTVSPost2010PropOp44
 70
     1
102
RTVSPost2010Prop45
280
     0
102
RTVSPost2010PropOp45
 70
     1
102
RTVSPost2010Prop46
 90
       50
102
RTVSPost2010PropOp46
 70
     1
102
RTVSPost2010Prop47
 90
       50
102
RTVSPost2010PropOp47
 70
     1
102
RTVSPost2010Prop48
 90
       50
102
RTVSPost2010PropOp48
 70
     1
102
RTVSPost2010Prop49
280
     0
102
RTVSPost2010PropOp49
 70
     1
102
RTVSPost2010Prop50
 90
       50
102
RTVSPost2010PropOp50
 70
     1
102
RTVSPost2010Prop51ColorIndex
 90
      256
102
RTVSPost2010Prop51ColorRGB
 90
-16777216
102
RTVSPost2010PropOp51
 70
     0
102
RTVSPost2010Prop52
140
1.0
102
RTVSPost2010PropOp52
 70
     0
102
RTVSPost2010Prop53
 90
        2
102
RTVSPost2010PropOp53
 70
     1
102
RTVSPost2010Prop54
  1
strokes_ogs.tif
102
RTVSPost2010PropOp54
 70
     1
102
RTVSPost2010Prop55
280
     0
102
RTVSPost2010PropOp55
 70
     1
102
RTVSPost2010Prop56
140
1.0
102
RTVSPost2010PropOp56
 70
     1
102
RTVSPost2010Prop57
140
1.0
102
RTVSPost2010PropOp57
 70
     1
  0
XRECORD
  5
A3
102
{ACAD_REACTORS
330
A2
102
}
330
A2
100
AcDbXrecord
280
     1
102
RTVSPropertyOp0
 70
     1
102
RTVSPropertyOp1
 70
     1
102
RTVSPropertyOp2
 70
     1
102
RTVSPropertyOp3
 70
     1
102
RTVSPropertyOp4
 70
     1
102
RTVSPropertyOp5
 70
     1
102
RTVSPropertyOp6
 70
     1
102
RTVSPropertyOp7
 70
     1
102
RTVSPropertyOp8
 70
     1
102
RTVSPropertyOp9
 70
     1
102
RTVSPropertyOp10
 70
     1
102
RTVSPropertyOp11
 70
     1
102
RTVSPropertyOp12
 70
     1
102
RTVSPropertyOp13
 70
     1
102
RTVSPropertyOp14
 70
     1
102
RTVSPropertyOp15
 70
     1
102
RTVSPropertyOp16
 70
     1
102
RTVSPropertyOp17
 70
     1
102
RTVSPropertyOp18
 70
     1
102
RTVSPropertyOp19
 70
     1
102
RTVSPropertyOp20
 70
     1
102
RTVSPropertyOp21
 70
     1
102
RTVSPropertyOp22
 70
     1
102
RTVSPropertyOp23
 70
     1
102
RTVSPropertyOp24
 70
     1
102
RTVSPropertyOp25
 70
     1
102
RTVSPropertyOp26
 70
     1
102
RTVSPropertyOp27
 70
     1
102
RTVSPropertyOp28
 70
     1
102
RTVSPropertyOp29
 70
     1
102
RTVSPropertyOp30
 70
     1
102
RTVSPropertyOp31
 70
     1
102
RTVSPropertyOp32
 70
     1
102
RTVSPropertyOp33
 70
     1
102
RTVSPropertyOp34
 70
     1
102
RTVSPropertyOp35
 70
     1
102
RTVSPropertyOp36
 70
     1
102
RTVSPropertyOp37
 70
     1
102
RTVSPropertyOp38
 70
     1
102
RTVSPropertyOp39
 70
     1
102
RTVSPropertyOp40
 70
     1
102
RTVSPropertyOp41
 70
     1
102
RTVSPropertyOp42
 70
     1
102
RTVSPropertyOp43
 70
     1
102
RTVSPropertyOp44
 70
     1
102
RTVSPropertyOp45
 70
     1
102
RTVSPropertyOp46
 70
     1
102
RTVSPropertyOp47
 70
     1
102
RTVSPropertyOp48
 70
     1
102
RTVSPropertyOp49
 70
     1
102
RTVSPropertyOp50
 70
     1
102
RTVSPropertyOp51
 70
     0
102
RTVSPropertyOp52
 70
     0
102
RTVSPropertyOp53
 70
     1
102
RTVSPropertyOp54
 70
     1
102
RTVSPropertyOp55
 70
     1
102
RTVSPropertyOp56
 70
     1
102
RTVSPropertyOp57
 70
     1
102
RTVSPost2010Prop28
280
     0
102
RTVSPost2010PropOp28
 70
     1
102
RTVSPost2010Prop29
280
     1
102
RTVSPost2010PropOp29
 70
     1
102
RTVSPost2010Prop30
280
     1
102
RTVSPost2010PropOp30
 70
     1
102
RTVSPost2010Prop31
280
     0
102
RTVSPost2010PropOp31
 70
     1
102
RTVSPost2010Prop32
280
     0
102
RTVSPost2010PropOp32
 70
     1
102
RTVSPost2010Prop33
280
     0
102
RTVSPost2010PropOp33
 70
     1
102
RTVSPost2010Prop34
280
     0
102
RTVSPost2010PropOp34
 70
     1
102
RTVSPost2010Prop35
280
     0
102
RTVSPost2010PropOp35
 70
     1
102
RTVSPost2010Prop36
280
     0
102
RTVSPost2010PropOp36
 70
     1
102
RTVSPost2010Prop37
 90
       50
102
RTVSPost2010PropOp37
 70
     1
102
RTVSPost2010Prop38
140
0.0
102
RTVSPost2010PropOp38
 70
     1
102
RTVSPost2010Prop39
140
1.0
102
RTVSPost2010PropOp39
 70
     1
102
RTVSPost2010Prop40
 90
        0
102
RTVSPost2010PropOp40
 70
     1
102
RTVSPost2010Prop41ColorIndex
 90
       18
102
RTVSPost2010Prop41ColorRGB
 90
        0
102
RTVSPost2010PropOp41
 70
     1
102
RTVSPost2010Prop42
 90
       50
102
RTVSPost2010PropOp42
 70
     1
102
RTVSPost2010Prop43
 90
        3
102
RTVSPost2010PropOp43
 70
     1
102
RTVSPost2010Prop44ColorIndex
 90
        5
102
RTVSPost2010Prop44ColorRGB
 90
      255
102
RTVSPost2010PropOp44
 70
     1
102
RTVSPost2010Prop45
280
     0
102
RTVSPost2010PropOp45
 70
     1
102
RTVSPost2010Prop46
 90
       50
102
RTVSPost2010PropOp46
 70
     1
102
RTVSPost2010Prop47
 90
       50
102
RTVSPost2010PropOp47
 70
     1
102
RTVSPost2010Prop48
 90
       50
102
RTVSPost2010PropOp48
 70
     1
102
RTVSPost2010Prop49
280
     0
102
RTVSPost2010PropOp49
 70
     1
102
RTVSPost2010Prop50
 90
       50
102
RTVSPost2010PropOp50
 70
     1
102
RTVSPost2010Prop51ColorIndex
 90
      256
102
RTVSPost2010Prop51ColorRGB
 90
-16777216
102
RTVSPost2010PropOp51
 70
     0
102
RTVSPost2010Prop52
140
1.0
102
RTVSPost2010PropOp52
 70
     0
102
RTVSPost2010Prop53
 90
        2
102
RTVSPost2010PropOp53
 70
     1
102
RTVSPost2010Prop54
  1
strokes_ogs.tif
102
RTVSPost2010PropOp54
 70
     1
102
RTVSPost2010Prop55
280
     0
102
RTVSPost2010PropOp55
 70
     1
102
RTVSPost2010Prop56
140
1.0
102
RTVSPost2010PropOp56
 70
     1
102
RTVSPost2010Prop57
140
1.0
102
RTVSPost2010PropOp57
 70
     1
  0
XRECORD
  5
A5
102
{ACAD_REACTORS
330
A4
102
}
330
A4
100
AcDbXrecord
280
     1
102
RTVSPropertyOp0
 70
     1
102
RTVSPropertyOp1
 70
     1
102
RTVSPropertyOp2
 70
     1
102
RTVSPropertyOp3
 70
     1
102
RTVSPropertyOp4
 70
     1
102
RTVSPropertyOp5
 70
     1
102
RTVSPropertyOp6
 70
     1
102
RTVSPropertyOp7
 70
     1
102
RTVSPropertyOp8
 70
     1
102
RTVSPropertyOp9
 70
     1
102
RTVSPropertyOp10
 70
     1
102
RTVSPropertyOp11
 70
     1
102
RTVSPropertyOp12
 70
     1
102
RTVSPropertyOp13
 70
     1
102
RTVSPropertyOp14
 70
     1
102
RTVSPropertyOp15
 70
     1
102
RTVSPropertyOp16
 70
     1
102
RTVSPropertyOp17
 70
     1
102
RTVSPropertyOp18
 70
     1
102
RTVSPropertyOp19
 70
     1
102
RTVSPropertyOp20
 70
     1
102
RTVSPropertyOp21
 70
     1
102
RTVSPropertyOp22
 70
     1
102
RTVSPropertyOp23
 70
     1
102
RTVSPropertyOp24
 70
     1
102
RTVSPropertyOp25
 70
     1
102
RTVSPropertyOp26
 70
     1
102
RTVSPropertyOp27
 70
     1
102
RTVSPropertyOp28
 70
     1
102
RTVSPropertyOp29
 70
     1
102
RTVSPropertyOp30
 70
     1
102
RTVSPropertyOp31
 70
     1
102
RTVSPropertyOp32
 70
     1
102
RTVSPropertyOp33
 70
     1
102
RTVSPropertyOp34
 70
     1
102
RTVSPropertyOp35
 70
     1
102
RTVSPropertyOp36
 70
     1
102
RTVSPropertyOp37
 70
     1
102
RTVSPropertyOp38
 70
     1
102
RTVSPropertyOp39
 70
     1
102
RTVSPropertyOp40
 70
     1
102
RTVSPropertyOp41
 70
     1
102
RTVSPropertyOp42
 70
     1
102
RTVSPropertyOp43
 70
     1
102
RTVSPropertyOp44
 70
     1
102
RTVSPropertyOp45
 70
     1
102
RTVSPropertyOp46
 70
     1
102
RTVSPropertyOp47
 70
     1
102
RTVSPropertyOp48
 70
     1
102
RTVSPropertyOp49
 70
     1
102
RTVSPropertyOp50
 70
     1
102
RTVSPropertyOp51
 70
     0
102
RTVSPropertyOp52
 70
     0
102
RTVSPropertyOp53
 70
     1
102
RTVSPropertyOp54
 70
     1
102
RTVSPropertyOp55
 70
     1
102
RTVSPropertyOp56
 70
     1
102
RTVSPropertyOp57
 70
     1
102
RTVSPost2010Prop28
280
     0
102
RTVSPost2010PropOp28
 70
     1
102
RTVSPost2010Prop29
280
     1
102
RTVSPost2010PropOp29
 70
     1
102
RTVSPost2010Prop30
280
     1
102
RTVSPost2010PropOp30
 70
     1
102
RTVSPost2010Prop31
280
     0
102
RTVSPost2010PropOp31
 70
     1
102
RTVSPost2010Prop32
280
     0
102
RTVSPost2010PropOp32
 70
     1
102
RTVSPost2010Prop33
280
     0
102
RTVSPost2010PropOp33
 70
     1
102
RTVSPost2010Prop34
280
     0
102
RTVSPost2010PropOp34
 70
     1
102
RTVSPost2010Prop35
280
     0
102
RTVSPost2010PropOp35
 70
     1
102
RTVSPost2010Prop36
280
     0
102
RTVSPost2010PropOp36
 70
     1
102
RTVSPost2010Prop37
 90
       50
102
RTVSPost2010PropOp37
 70
     1
102
RTVSPost2010Prop38
140
0.0
102
RTVSPost2010PropOp38
 70
     1
102
RTVSPost2010Prop39
140
1.0
102
RTVSPost2010PropOp39
 70
     1
102
RTVSPost2010Prop40
 90
        0
102
RTVSPost2010PropOp40
 70
     1
102
RTVSPost2010Prop41ColorIndex
 90
       18
102
RTVSPost2010Prop41ColorRGB
 90
        0
102
RTVSPost2010PropOp41
 70
     1
102
RTVSPost2010Prop42
 90
       50
102
RTVSPost2010PropOp42
 70
     1
102
RTVSPost2010Prop43
 90
        3
102
RTVSPost2010PropOp43
 70
     1
102
RTVSPost2010Prop44ColorIndex
 90
        5
102
RTVSPost2010Prop44ColorRGB
 90
      255
102
RTVSPost2010PropOp44
 70
     1
102
RTVSPost2010Prop45
280
     0
102
RTVSPost2010PropOp45
 70
     1
102
RTVSPost2010Prop46
 90
       50
102
RTVSPost2010PropOp46
 70
     1
102
RTVSPost2010Prop47
 90
       50
102
RTVSPost2010PropOp47
 70
     1
102
RTVSPost2010Prop48
 90
       50
102
RTVSPost2010PropOp48
 70
     1
102
RTVSPost2010Prop49
280
     0
102
RTVSPost2010PropOp49
 70
     1
102
RTVSPost2010Prop50
 90
       50
102
RTVSPost2010PropOp50
 70
     1
102
RTVSPost2010Prop51ColorIndex
 90
      256
102
RTVSPost2010Prop51ColorRGB
 90
-16777216
102
RTVSPost2010PropOp51
 70
     0
102
RTVSPost2010Prop52
140
1.0
102
RTVSPost2010PropOp52
 70
     0
102
RTVSPost2010Prop53
 90
        2
102
RTVSPost2010PropOp53
 70
     1
102
RTVSPost2010Prop54
  1
strokes_ogs.tif
102
RTVSPost2010PropOp54
 70
     1
102
RTVSPost2010Prop55
280
     0
102
RTVSPost2010PropOp55
 70
     1
102
RTVSPost2010Prop56
140
1.0
102
RTVSPost2010PropOp56
 70
     1
102
RTVSPost2010Prop57
140
1.0
102
RTVSPost2010PropOp57
 70
     1
  0
XRECORD
  5
A7
102
{ACAD_REACTORS
330
A6
102
}
330
A6
100
AcDbXrecord
280
     1
102
RTVSPropertyOp0
 70
     1
102
RTVSPropertyOp1
 70
     1
102
RTVSPropertyOp2
 70
     1
102
RTVSPropertyOp3
 70
     1
102
RTVSPropertyOp4
 70
     1
102
RTVSPropertyOp5
 70
     1
102
RTVSPropertyOp6
 70
     1
102
RTVSPropertyOp7
 70
     1
102
RTVSPropertyOp8
 70
     1
102
RTVSPropertyOp9
 70
     1
102
RTVSPropertyOp10
 70
     1
102
RTVSPropertyOp11
 70
     1
102
RTVSPropertyOp12
 70
     1
102
RTVSPropertyOp13
 70
     1
102
RTVSPropertyOp14
 70
     1
102
RTVSPropertyOp15
 70
     1
102
RTVSPropertyOp16
 70
     1
102
RTVSPropertyOp17
 70
     1
102
RTVSPropertyOp18
 70
     1
102
RTVSPropertyOp19
 70
     1
102
RTVSPropertyOp20
 70
     1
102
RTVSPropertyOp21
 70
     1
102
RTVSPropertyOp22
 70
     1
102
RTVSPropertyOp23
 70
     1
102
RTVSPropertyOp24
 70
     1
102
RTVSPropertyOp25
 70
     1
102
RTVSPropertyOp26
 70
     1
102
RTVSPropertyOp27
 70
     1
102
RTVSPropertyOp28
 70
     1
102
RTVSPropertyOp29
 70
     1
102
RTVSPropertyOp30
 70
     1
102
RTVSPropertyOp31
 70
     1
102
RTVSPropertyOp32
 70
     1
102
RTVSPropertyOp33
 70
     1
102
RTVSPropertyOp34
 70
     1
102
RTVSPropertyOp35
 70
     1
102
RTVSPropertyOp36
 70
     1
102
RTVSPropertyOp37
 70
     1
102
RTVSPropertyOp38
 70
     1
102
RTVSPropertyOp39
 70
     1
102
RTVSPropertyOp40
 70
     1
102
RTVSPropertyOp41
 70
     1
102
RTVSPropertyOp42
 70
     1
102
RTVSPropertyOp43
 70
     1
102
RTVSPropertyOp44
 70
     1
102
RTVSPropertyOp45
 70
     1
102
RTVSPropertyOp46
 70
     1
102
RTVSPropertyOp47
 70
     1
102
RTVSPropertyOp48
 70
     1
102
RTVSPropertyOp49
 70
     1
102
RTVSPropertyOp50
 70
     1
102
RTVSPropertyOp51
 70
     0
102
RTVSPropertyOp52
 70
     0
102
RTVSPropertyOp53
 70
     1
102
RTVSPropertyOp54
 70
     1
102
RTVSPropertyOp55
 70
     1
102
RTVSPropertyOp56
 70
     1
102
RTVSPropertyOp57
 70
     1
102
RTVSPost2010Prop28
280
     0
102
RTVSPost2010PropOp28
 70
     1
102
RTVSPost2010Prop29
280
     1
102
RTVSPost2010PropOp29
 70
     1
102
RTVSPost2010Prop30
280
     1
102
RTVSPost2010PropOp30
 70
     1
102
RTVSPost2010Prop31
280
     0
102
RTVSPost2010PropOp31
 70
     1
102
RTVSPost2010Prop32
280
     0
102
RTVSPost2010PropOp32
 70
     1
102
RTVSPost2010Prop33
280
     0
102
RTVSPost2010PropOp33
 70
     1
102
RTVSPost2010Prop34
280
     0
102
RTVSPost2010PropOp34
 70
     1
102
RTVSPost2010Prop35
280
     0
102
RTVSPost2010PropOp35
 70
     1
102
RTVSPost2010Prop36
280
     0
102
RTVSPost2010PropOp36
 70
     1
102
RTVSPost2010Prop37
 90
       50
102
RTVSPost2010PropOp37
 70
     1
102
RTVSPost2010Prop38
140
0.0
102
RTVSPost2010PropOp38
 70
     1
102
RTVSPost2010Prop39
140
1.0
102
RTVSPost2010PropOp39
 70
     1
102
RTVSPost2010Prop40
 90
        0
102
RTVSPost2010PropOp40
 70
     1
102
RTVSPost2010Prop41ColorIndex
 90
       18
102
RTVSPost2010Prop41ColorRGB
 90
        0
102
RTVSPost2010PropOp41
 70
     1
102
RTVSPost2010Prop42
 90
       50
102
RTVSPost2010PropOp42
 70
     1
102
RTVSPost2010Prop43
 90
        3
102
RTVSPost2010PropOp43
 70
     1
102
RTVSPost2010Prop44ColorIndex
 90
        5
102
RTVSPost2010Prop44ColorRGB
 90
      255
102
RTVSPost2010PropOp44
 70
     1
102
RTVSPost2010Prop45
280
     0
102
RTVSPost2010PropOp45
 70
     1
102
RTVSPost2010Prop46
 90
       50
102
RTVSPost2010PropOp46
 70
     1
102
RTVSPost2010Prop47
 90
       50
102
RTVSPost2010PropOp47
 70
     1
102
RTVSPost2010Prop48
 90
       50
102
RTVSPost2010PropOp48
 70
     1
102
RTVSPost2010Prop49
280
     0
102
RTVSPost2010PropOp49
 70
     1
102
RTVSPost2010Prop50
 90
       50
102
RTVSPost2010PropOp50
 70
     1
102
RTVSPost2010Prop51ColorIndex
 90
      256
102
RTVSPost2010Prop51ColorRGB
 90
-16777216
102
RTVSPost2010PropOp51
 70
     0
102
RTVSPost2010Prop52
140
1.0
102
RTVSPost2010PropOp52
 70
     0
102
RTVSPost2010Prop53
 90
        2
102
RTVSPost2010PropOp53
 70
     1
102
RTVSPost2010Prop54
  1
strokes_ogs.tif
102
RTVSPost2010PropOp54
 70
     1
102
RTVSPost2010Prop55
280
     0
102
RTVSPost2010PropOp55
 70
     1
102
RTVSPost2010Prop56
140
1.0
102
RTVSPost2010PropOp56
 70
     1
102
RTVSPost2010Prop57
140
1.0
102
RTVSPost2010PropOp57
 70
     1
  0
XRECORD
  5
BB
102
{ACAD_REACTORS
330
BA
102
}
330
BA
100
AcDbXrecord
280
     1
102
RTVSPropertyOp0
 70
     1
102
RTVSPropertyOp1
 70
     1
102
RTVSPropertyOp2
 70
     1
102
RTVSPropertyOp3
 70
     1
102
RTVSPropertyOp4
 70
     1
102
RTVSPropertyOp5
 70
     1
102
RTVSPropertyOp6
 70
     1
102
RTVSPropertyOp7
 70
     1
102
RTVSPropertyOp8
 70
     1
102
RTVSPropertyOp9
 70
     1
102
RTVSPropertyOp10
 70
     1
102
RTVSPropertyOp11
 70
     1
102
RTVSPropertyOp12
 70
     1
102
RTVSPropertyOp13
 70
     1
102
RTVSPropertyOp14
 70
     1
102
RTVSPropertyOp15
 70
     1
102
RTVSPropertyOp16
 70
     1
102
RTVSPropertyOp17
 70
     1
102
RTVSPropertyOp18
 70
     1
102
RTVSPropertyOp19
 70
     1
102
RTVSPropertyOp20
 70
     1
102
RTVSPropertyOp21
 70
     1
102
RTVSPropertyOp22
 70
     1
102
RTVSPropertyOp23
 70
     1
102
RTVSPropertyOp24
 70
     1
102
RTVSPropertyOp25
 70
     1
102
RTVSPropertyOp26
 70
     1
102
RTVSPropertyOp27
 70
     1
102
RTVSPropertyOp28
 70
     1
102
RTVSPropertyOp29
 70
     1
102
RTVSPropertyOp30
 70
     1
102
RTVSPropertyOp31
 70
     1
102
RTVSPropertyOp32
 70
     1
102
RTVSPropertyOp33
 70
     1
102
RTVSPropertyOp34
 70
     1
102
RTVSPropertyOp35
 70
     1
102
RTVSPropertyOp36
 70
     1
102
RTVSPropertyOp37
 70
     1
102
RTVSPropertyOp38
 70
     1
102
RTVSPropertyOp39
 70
     1
102
RTVSPropertyOp40
 70
     1
102
RTVSPropertyOp41
 70
     1
102
RTVSPropertyOp42
 70
     1
102
RTVSPropertyOp43
 70
     1
102
RTVSPropertyOp44
 70
     1
102
RTVSPropertyOp45
 70
     1
102
RTVSPropertyOp46
 70
     1
102
RTVSPropertyOp47
 70
     1
102
RTVSPropertyOp48
 70
     1
102
RTVSPropertyOp49
 70
     1
102
RTVSPropertyOp50
 70
     1
102
RTVSPropertyOp51
 70
     0
102
RTVSPropertyOp52
 70
     0
102
RTVSPropertyOp53
 70
     1
102
RTVSPropertyOp54
 70
     1
102
RTVSPropertyOp55
 70
     1
102
RTVSPropertyOp56
 70
     1
102
RTVSPropertyOp57
 70
     1
102
RTVSPost2010Prop28
280
     0
102
RTVSPost2010PropOp28
 70
     1
102
RTVSPost2010Prop29
280
     1
102
RTVSPost2010PropOp29
 70
     1
102
RTVSPost2010Prop30
280
     1
102
RTVSPost2010PropOp30
 70
     1
102
RTVSPost2010Prop31
280
     0
102
RTVSPost2010PropOp31
 70
     1
102
RTVSPost2010Prop32
280
     0
102
RTVSPost2010PropOp32
 70
     1
102
RTVSPost2010Prop33
280
     0
102
RTVSPost2010PropOp33
 70
     1
102
RTVSPost2010Prop34
280
     0
102
RTVSPost2010PropOp34
 70
     1
102
RTVSPost2010Prop35
280
     0
102
RTVSPost2010PropOp35
 70
     1
102
RTVSPost2010Prop36
280
     0
102
RTVSPost2010PropOp36
 70
     1
102
RTVSPost2010Prop37
 90
       50
102
RTVSPost2010PropOp37
 70
     1
102
RTVSPost2010Prop38
140
0.0
102
RTVSPost2010PropOp38
 70
     1
102
RTVSPost2010Prop39
140
1.0
102
RTVSPost2010PropOp39
 70
     1
102
RTVSPost2010Prop40
 90
        0
102
RTVSPost2010PropOp40
 70
     1
102
RTVSPost2010Prop41ColorIndex
 90
       18
102
RTVSPost2010Prop41ColorRGB
 90
        0
102
RTVSPost2010PropOp41
 70
     1
102
RTVSPost2010Prop42
 90
       50
102
RTVSPost2010PropOp42
 70
     1
102
RTVSPost2010Prop43
 90
        3
102
RTVSPost2010PropOp43
 70
     1
102
RTVSPost2010Prop44ColorIndex
 90
        5
102
RTVSPost2010Prop44ColorRGB
 90
      255
102
RTVSPost2010PropOp44
 70
     1
102
RTVSPost2010Prop45
280
     0
102
RTVSPost2010PropOp45
 70
     1
102
RTVSPost2010Prop46
 90
       50
102
RTVSPost2010PropOp46
 70
     1
102
RTVSPost2010Prop47
 90
       50
102
RTVSPost2010PropOp47
 70
     1
102
RTVSPost2010Prop48
 90
       50
102
RTVSPost2010PropOp48
 70
     1
102
RTVSPost2010Prop49
280
     0
102
RTVSPost2010PropOp49
 70
     1
102
RTVSPost2010Prop50
 90
       50
102
RTVSPost2010PropOp50
 70
     1
102
RTVSPost2010Prop51ColorIndex
 90
      256
102
RTVSPost2010Prop51ColorRGB
 90
-16777216
102
RTVSPost2010PropOp51
 70
     0
102
RTVSPost2010Prop52
140
1.0
102
RTVSPost2010PropOp52
 70
     0
102
RTVSPost2010Prop53
 90
        2
102
RTVSPost2010PropOp53
 70
     1
102
RTVSPost2010Prop54
  1
strokes_ogs.tif
102
RTVSPost2010PropOp54
 70
     1
102
RTVSPost2010Prop55
280
     0
102
RTVSPost2010PropOp55
 70
     1
102
RTVSPost2010Prop56
140
1.0
102
RTVSPost2010PropOp56
 70
     1
102
RTVSPost2010Prop57
140
1.0
102
RTVSPost2010PropOp57
 70
     1
  0
XRECORD
  5
B1
102
{ACAD_REACTORS
330
B0
102
}
330
B0
100
AcDbXrecord
280
     1
102
RTVSPropertyOp0
 70
     1
102
RTVSPropertyOp1
 70
     1
102
RTVSPropertyOp2
 70
     1
102
RTVSPropertyOp3
 70
     1
102
RTVSPropertyOp4
 70
     1
102
RTVSPropertyOp5
 70
     1
102
RTVSPropertyOp6
 70
     1
102
RTVSPropertyOp7
 70
     1
102
RTVSPropertyOp8
 70
     1
102
RTVSPropertyOp9
 70
     1
102
RTVSPropertyOp10
 70
     1
102
RTVSPropertyOp11
 70
     1
102
RTVSPropertyOp12
 70
     1
102
RTVSPropertyOp13
 70
     1
102
RTVSPropertyOp14
 70
     1
102
RTVSPropertyOp15
 70
     1
102
RTVSPropertyOp16
 70
     1
102
RTVSPropertyOp17
 70
     1
102
RTVSPropertyOp18
 70
     1
102
RTVSPropertyOp19
 70
     1
102
RTVSPropertyOp20
 70
     1
102
RTVSPropertyOp21
 70
     1
102
RTVSPropertyOp22
 70
     1
102
RTVSPropertyOp23
 70
     1
102
RTVSPropertyOp24
 70
     1
102
RTVSPropertyOp25
 70
     1
102
RTVSPropertyOp26
 70
     1
102
RTVSPropertyOp27
 70
     1
102
RTVSPropertyOp28
 70
     1
102
RTVSPropertyOp29
 70
     1
102
RTVSPropertyOp30
 70
     1
102
RTVSPropertyOp31
 70
     1
102
RTVSPropertyOp32
 70
     1
102
RTVSPropertyOp33
 70
     1
102
RTVSPropertyOp34
 70
     1
102
RTVSPropertyOp35
 70
     1
102
RTVSPropertyOp36
 70
     1
102
RTVSPropertyOp37
 70
     1
102
RTVSPropertyOp38
 70
     1
102
RTVSPropertyOp39
 70
     1
102
RTVSPropertyOp40
 70
     1
102
RTVSPropertyOp41
 70
     1
102
RTVSPropertyOp42
 70
     1
102
RTVSPropertyOp43
 70
     1
102
RTVSPropertyOp44
 70
     1
102
RTVSPropertyOp45
 70
     1
102
RTVSPropertyOp46
 70
     1
102
RTVSPropertyOp47
 70
     1
102
RTVSPropertyOp48
 70
     1
102
RTVSPropertyOp49
 70
     1
102
RTVSPropertyOp50
 70
     1
102
RTVSPropertyOp51
 70
     0
102
RTVSPropertyOp52
 70
     0
102
RTVSPropertyOp53
 70
     1
102
RTVSPropertyOp54
 70
     1
102
RTVSPropertyOp55
 70
     1
102
RTVSPropertyOp56
 70
     1
102
RTVSPropertyOp57
 70
     1
102
RTVSPost2010Prop28
280
     0
102
RTVSPost2010PropOp28
 70
     1
102
RTVSPost2010Prop29
280
     1
102
RTVSPost2010PropOp29
 70
     1
102
RTVSPost2010Prop30
280
     1
102
RTVSPost2010PropOp30
 70
     1
102
RTVSPost2010Prop31
280
     0
102
RTVSPost2010PropOp31
 70
     1
102
RTVSPost2010Prop32
280
     0
102
RTVSPost2010PropOp32
 70
     1
102
RTVSPost2010Prop33
280
     0
102
RTVSPost2010PropOp33
 70
     1
102
RTVSPost2010Prop34
280
     0
102
RTVSPost2010PropOp34
 70
     1
102
RTVSPost2010Prop35
280
     0
102
RTVSPost2010PropOp35
 70
     1
102
RTVSPost2010Prop36
280
     0
102
RTVSPost2010PropOp36
 70
     1
102
RTVSPost2010Prop37
 90
       50
102
RTVSPost2010PropOp37
 70
     1
102
RTVSPost2010Prop38
140
0.0
102
RTVSPost2010PropOp38
 70
     1
102
RTVSPost2010Prop39
140
1.0
102
RTVSPost2010PropOp39
 70
     1
102
RTVSPost2010Prop40
 90
        0
102
RTVSPost2010PropOp40
 70
     1
102
RTVSPost2010Prop41ColorIndex
 90
       18
102
RTVSPost2010Prop41ColorRGB
 90
        0
102
RTVSPost2010PropOp41
 70
     1
102
RTVSPost2010Prop42
 90
       50
102
RTVSPost2010PropOp42
 70
     1
102
RTVSPost2010Prop43
 90
        3
102
RTVSPost2010PropOp43
 70
     1
102
RTVSPost2010Prop44ColorIndex
 90
        5
102
RTVSPost2010Prop44ColorRGB
 90
      255
102
RTVSPost2010PropOp44
 70
     1
102
RTVSPost2010Prop45
280
     0
102
RTVSPost2010PropOp45
 70
     1
102
RTVSPost2010Prop46
 90
       50
102
RTVSPost2010PropOp46
 70
     1
102
RTVSPost2010Prop47
 90
       50
102
RTVSPost2010PropOp47
 70
     1
102
RTVSPost2010Prop48
 90
       50
102
RTVSPost2010PropOp48
 70
     1
102
RTVSPost2010Prop49
280
     0
102
RTVSPost2010PropOp49
 70
     1
102
RTVSPost2010Prop50
 90
       50
102
RTVSPost2010PropOp50
 70
     1
102
RTVSPost2010Prop51ColorIndex
 90
      256
102
RTVSPost2010Prop51ColorRGB
 90
-16777216
102
RTVSPost2010PropOp51
 70
     0
102
RTVSPost2010Prop52
140
1.0
102
RTVSPost2010PropOp52
 70
     0
102
RTVSPost2010Prop53
 90
        2
102
RTVSPost2010PropOp53
 70
     1
102
RTVSPost2010Prop54
  1
strokes_ogs.tif
102
RTVSPost2010PropOp54
 70
     1
102
RTVSPost2010Prop55
280
     0
102
RTVSPost2010PropOp55
 70
     1
102
RTVSPost2010Prop56
140
1.0
102
RTVSPost2010PropOp56
 70
     1
102
RTVSPost2010Prop57
140
1.0
102
RTVSPost2010PropOp57
 70
     1
  0
XRECORD
  5
B9
102
{ACAD_REACTORS
330
B8
102
}
330
B8
100
AcDbXrecord
280
     1
102
RTVSPropertyOp0
 70
     1
102
RTVSPropertyOp1
 70
     1
102
RTVSPropertyOp2
 70
     1
102
RTVSPropertyOp3
 70
     1
102
RTVSPropertyOp4
 70
     1
102
RTVSPropertyOp5
 70
     1
102
RTVSPropertyOp6
 70
     1
102
RTVSPropertyOp7
 70
     1
102
RTVSPropertyOp8
 70
     1
102
RTVSPropertyOp9
 70
     1
102
RTVSPropertyOp10
 70
     1
102
RTVSPropertyOp11
 70
     1
102
RTVSPropertyOp12
 70
     1
102
RTVSPropertyOp13
 70
     1
102
RTVSPropertyOp14
 70
     1
102
RTVSPropertyOp15
 70
     1
102
RTVSPropertyOp16
 70
     1
102
RTVSPropertyOp17
 70
     1
102
RTVSPropertyOp18
 70
     1
102
RTVSPropertyOp19
 70
     1
102
RTVSPropertyOp20
 70
     1
102
RTVSPropertyOp21
 70
     1
102
RTVSPropertyOp22
 70
     1
102
RTVSPropertyOp23
 70
     1
102
RTVSPropertyOp24
 70
     1
102
RTVSPropertyOp25
 70
     1
102
RTVSPropertyOp26
 70
     1
102
RTVSPropertyOp27
 70
     1
102
RTVSPropertyOp28
 70
     1
102
RTVSPropertyOp29
 70
     1
102
RTVSPropertyOp30
 70
     1
102
RTVSPropertyOp31
 70
     1
102
RTVSPropertyOp32
 70
     1
102
RTVSPropertyOp33
 70
     1
102
RTVSPropertyOp34
 70
     1
102
RTVSPropertyOp35
 70
     1
102
RTVSPropertyOp36
 70
     1
102
RTVSPropertyOp37
 70
     1
102
RTVSPropertyOp38
 70
     1
102
RTVSPropertyOp39
 70
     1
102
RTVSPropertyOp40
 70
     1
102
RTVSPropertyOp41
 70
     1
102
RTVSPropertyOp42
 70
     1
102
RTVSPropertyOp43
 70
     1
102
RTVSPropertyOp44
 70
     1
102
RTVSPropertyOp45
 70
     1
102
RTVSPropertyOp46
 70
     1
102
RTVSPropertyOp47
 70
     1
102
RTVSPropertyOp48
 70
     1
102
RTVSPropertyOp49
 70
     1
102
RTVSPropertyOp50
 70
     1
102
RTVSPropertyOp51
 70
     0
102
RTVSPropertyOp52
 70
     0
102
RTVSPropertyOp53
 70
     1
102
RTVSPropertyOp54
 70
     1
102
RTVSPropertyOp55
 70
     1
102
RTVSPropertyOp56
 70
     1
102
RTVSPropertyOp57
 70
     1
102
RTVSPost2010Prop28
280
     0
102
RTVSPost2010PropOp28
 70
     1
102
RTVSPost2010Prop29
280
     1
102
RTVSPost2010PropOp29
 70
     1
102
RTVSPost2010Prop30
280
     1
102
RTVSPost2010PropOp30
 70
     1
102
RTVSPost2010Prop31
280
     0
102
RTVSPost2010PropOp31
 70
     1
102
RTVSPost2010Prop32
280
     0
102
RTVSPost2010PropOp32
 70
     1
102
RTVSPost2010Prop33
280
     0
102
RTVSPost2010PropOp33
 70
     1
102
RTVSPost2010Prop34
280
     0
102
RTVSPost2010PropOp34
 70
     1
102
RTVSPost2010Prop35
280
     0
102
RTVSPost2010PropOp35
 70
     1
102
RTVSPost2010Prop36
280
     0
102
RTVSPost2010PropOp36
 70
     1
102
RTVSPost2010Prop37
 90
       50
102
RTVSPost2010PropOp37
 70
     1
102
RTVSPost2010Prop38
140
0.0
102
RTVSPost2010PropOp38
 70
     1
102
RTVSPost2010Prop39
140
1.0
102
RTVSPost2010PropOp39
 70
     1
102
RTVSPost2010Prop40
 90
        0
102
RTVSPost2010PropOp40
 70
     1
102
RTVSPost2010Prop41ColorIndex
 90
       18
102
RTVSPost2010Prop41ColorRGB
 90
        0
102
RTVSPost2010PropOp41
 70
     1
102
RTVSPost2010Prop42
 90
       50
102
RTVSPost2010PropOp42
 70
     1
102
RTVSPost2010Prop43
 90
        3
102
RTVSPost2010PropOp43
 70
     1
102
RTVSPost2010Prop44ColorIndex
 90
        5
102
RTVSPost2010Prop44ColorRGB
 90
      255
102
RTVSPost2010PropOp44
 70
     1
102
RTVSPost2010Prop45
280
     0
102
RTVSPost2010PropOp45
 70
     1
102
RTVSPost2010Prop46
 90
       50
102
RTVSPost2010PropOp46
 70
     1
102
RTVSPost2010Prop47
 90
       50
102
RTVSPost2010PropOp47
 70
     1
102
RTVSPost2010Prop48
 90
       50
102
RTVSPost2010PropOp48
 70
     1
102
RTVSPost2010Prop49
280
     0
102
RTVSPost2010PropOp49
 70
     1
102
RTVSPost2010Prop50
 90
       50
102
RTVSPost2010PropOp50
 70
     1
102
RTVSPost2010Prop51ColorIndex
 90
      256
102
RTVSPost2010Prop51ColorRGB
 90
-16777216
102
RTVSPost2010PropOp51
 70
     0
102
RTVSPost2010Prop52
140
1.0
102
RTVSPost2010PropOp52
 70
     0
102
RTVSPost2010Prop53
 90
        2
102
RTVSPost2010PropOp53
 70
     1
102
RTVSPost2010Prop54
  1
strokes_ogs.tif
102
RTVSPost2010PropOp54
 70
     1
102
RTVSPost2010Prop55
280
     0
102
RTVSPost2010PropOp55
 70
     1
102
RTVSPost2010Prop56
140
1.0
102
RTVSPost2010PropOp56
 70
     1
102
RTVSPost2010Prop57
140
1.0
102
RTVSPost2010PropOp57
 70
     1
  0
ENDSEC
  0
EOF
