  0
SECTION
  2
HEADER
  9
$ACADVER
  1
AC1024
  9
$ACADMAINTVER
 70
     6
  9
$DWGCODEPAGE
  3
ANSI_1252
  9
$LASTSAVEDBY
  1
ko72881
  9
$INSBASE
 10
0.0
 20
0.0
 30
0.0
  9
$EXTMIN
 10
176299.1156007319
 20
-42697.68622553738
 30
-0.0015258207003583
  9
$EXTMAX
 10
176670.7466470421
 20
-42157.10769588401
 30
0.0000000349246037
  9
$LIMMIN
 10
0.0
 20
0.0
  9
$LIMMAX
 10
420.0
 20
297.0
  9
$ORTHOMODE
 70
     1
  9
$REGENMODE
 70
     1
  9
$FILLMODE
 70
     1
  9
$QTEXTMODE
 70
     0
  9
$MIRRTEXT
 70
     1
  9
$LTSCALE
 40
1.0
  9
$ATTMODE
 70
     1
  9
$TEXTSIZE
 40
2.5
  9
$TRACEWID
 40
1.0
  9
$TEXTSTYLE
  7
Standard
  9
$CLAYER
  8
COTATION
  9
$CELTYPE
  6
ByLayer
  9
$CECOLOR
 62
   256
  9
$CELTSCALE
 40
30.0
  9
$DISPSILH
 70
     0
  9
$DIMSCALE
 40
0.0
  9
$DIMASZ
 40
50.0
  9
$DIMEXO
 40
45.0
  9
$DIMDLI
 40
20.182
  9
$DIMRND
 40
0.0
  9
$DIMDLE
 40
0.0
  9
$DIMEXE
 40
10.0
  9
$DIMTP
 40
0.0
  9
$DIMTM
 40
0.0
  9
$DIMTXT
 40
50.0
  9
$DIMCEN
 40
0.0
  9
$DIMTSZ
 40
0.0
  9
$DIMTOL
 70
     0
  9
$DIMLIM
 70
     0
  9
$DIMTIH
 70
     1
  9
$DIMTOH
 70
     1
  9
$DIMSE1
 70
     0
  9
$DIMSE2
 70
     0
  9
$DIMTAD
 70
     0
  9
$DIMZIN
 70
     8
  9
$DIMBLK
  1

  9
$DIMASO
 70
     1
  9
$DIMSHO
 70
     1
  9
$DIMPOST
  1

  9
$DIMAPOST
  1

  9
$DIMALT
 70
     0
  9
$DIMALTD
 70
     3
  9
$DIMALTF
 40
0.03937007874016
  9
$DIMLFAC
 40
1.0
  9
$DIMTOFL
 70
     0
  9
$DIMTVP
 40
0.0
  9
$DIMTIX
 70
     0
  9
$DIMSOXD
 70
     0
  9
$DIMSAH
 70
     0
  9
$DIMBLK1
  1

  9
$DIMBLK2
  1

  9
$DIMSTYLE
  2
ISO-25
  9
$DIMCLRD
 70
   256
  9
$DIMCLRE
 70
   256
  9
$DIMCLRT
 70
     0
  9
$DIMTFAC
 40
1.0
  9
$DIMGAP
 40
35.0
  9
$DIMJUST
 70
     0
  9
$DIMSD1
 70
     0
  9
$DIMSD2
 70
     0
  9
$DIMTOLJ
 70
     0
  9
$DIMTZIN
 70
     8
  9
$DIMALTZ
 70
     0
  9
$DIMALTTZ
 70
     0
  9
$DIMUPT
 70
     0
  9
$DIMDEC
 70
     0
  9
$DIMTDEC
 70
     0
  9
$DIMALTU
 70
     2
  9
$DIMALTTD
 70
     3
  9
$DIMTXSTY
  7
Standard
  9
$DIMAUNIT
 70
     0
  9
$DIMADEC
 70
     0
  9
$DIMALTRND
 40
0.0
  9
$DIMAZIN
 70
     0
  9
$DIMDSEP
 70
    44
  9
$DIMATFIT
 70
     3
  9
$DIMFRAC
 70
     0
  9
$DIMLDRBLK
  1

  9
$DIMLUNIT
 70
     2
  9
$DIMLWD
 70
    -1
  9
$DIMLWE
 70
    -1
  9
$DIMTMOVE
 70
     0
  9
$DIMFXL
 40
1.0
  9
$DIMFXLON
 70
     0
  9
$DIMJOGANG
 40
0.7853981633974483
  9
$DIMTFILL
 70
     0
  9
$DIMTFILLCLR
 70
     0
  9
$DIMARCSYM
 70
     0
  9
$DIMLTYPE
  6

  9
$DIMLTEX1
  6

  9
$DIMLTEX2
  6

  9
$DIMTXTDIRECTION
 70
     0
  9
$LUNITS
 70
     2
  9
$LUPREC
 70
     4
  9
$SKETCHINC
 40
1.0
  9
$FILLETRAD
 40
25.0
  9
$AUNITS
 70
     0
  9
$AUPREC
 70
     0
  9
$MENU
  1
.
  9
$ELEVATION
 40
0.0
  9
$PELEVATION
 40
0.0
  9
$THICKNESS
 40
0.0
  9
$LIMCHECK
 70
     0
  9
$CHAMFERA
 40
10.0
  9
$CHAMFERB
 40
10.0
  9
$CHAMFERC
 40
20.0
  9
$CHAMFERD
 40
0.0
  9
$SKPOLY
 70
     0
  9
$TDCREATE
 40
2451814.422419329
  9
$TDUCREATE
 40
2451814.380752662
  9
$TDUPDATE
 40
2458568.361138275
  9
$TDUUPDATE
 40
2458568.319471609
  9
$TDINDWG
 40
6.4440091204
  9
$TDUSRTIMER
 40
6.4440091204
  9
$USRTIMER
 70
     1
  9
$ANGBASE
 50
0.0
  9
$ANGDIR
 70
     0
  9
$PDMODE
 70
     0
  9
$PDSIZE
 40
0.0
  9
$PLINEWID
 40
0.0
  9
$SPLFRAME
 70
     0
  9
$SPLINETYPE
 70
     6
  9
$SPLINESEGS
 70
     8
  9
$HANDSEED
  5
3F016
  9
$SURFTAB1
 70
     6
  9
$SURFTAB2
 70
     6
  9
$SURFTYPE
 70
     6
  9
$SURFU
 70
     6
  9
$SURFV
 70
     6
  9
$UCSBASE
  2

  9
$UCSNAME
  2

  9
$UCSORG
 10
0.0
 20
0.0
 30
0.0
  9
$UCSXDIR
 10
1.0
 20
0.0
 30
0.0
  9
$UCSYDIR
 10
0.0
 20
1.0
 30
0.0
  9
$UCSORTHOREF
  2

  9
$UCSORTHOVIEW
 70
     0
  9
$UCSORGTOP
 10
0.0
 20
0.0
 30
0.0
  9
$UCSORGBOTTOM
 10
0.0
 20
0.0
 30
0.0
  9
$UCSORGLEFT
 10
0.0
 20
0.0
 30
0.0
  9
$UCSORGRIGHT
 10
0.0
 20
0.0
 30
0.0
  9
$UCSORGFRONT
 10
0.0
 20
0.0
 30
0.0
  9
$UCSORGBACK
 10
0.0
 20
0.0
 30
0.0
  9
$PUCSBASE
  2

  9
$PUCSNAME
  2

  9
$PUCSORG
 10
0.0
 20
0.0
 30
0.0
  9
$PUCSXDIR
 10
1.0
 20
0.0
 30
0.0
  9
$PUCSYDIR
 10
0.0
 20
1.0
 30
0.0
  9
$PUCSORTHOREF
  2

  9
$PUCSORTHOVIEW
 70
     0
  9
$PUCSORGTOP
 10
0.0
 20
0.0
 30
0.0
  9
$PUCSORGBOTTOM
 10
0.0
 20
0.0
 30
0.0
  9
$PUCSORGLEFT
 10
0.0
 20
0.0
 30
0.0
  9
$PUCSORGRIGHT
 10
0.0
 20
0.0
 30
0.0
  9
$PUCSORGFRONT
 10
0.0
 20
0.0
 30
0.0
  9
$PUCSORGBACK
 10
0.0
 20
0.0
 30
0.0
  9
$USERI1
 70
     0
  9
$USERI2
 70
     0
  9
$USERI3
 70
     0
  9
$USERI4
 70
     0
  9
$USERI5
 70
     0
  9
$USERR1
 40
0.0
  9
$USERR2
 40
0.0
  9
$USERR3
 40
0.0
  9
$USERR4
 40
0.0
  9
$USERR5
 40
0.0
  9
$WORLDVIEW
 70
     1
  9
$SHADEDGE
 70
     3
  9
$SHADEDIF
 70
    70
  9
$TILEMODE
 70
     1
  9
$MAXACTVP
 70
    64
  9
$PINSBASE
 10
0.0
 20
0.0
 30
0.0
  9
$PLIMCHECK
 70
     0
  9
$PEXTMIN
 10
4.65610217015574
 20
3.286023670294071
 30
0.0
  9
$PEXTMAX
 10
2873.756768105222
 20
1966.91281754242
 30
0.0
  9
$PLIMMIN
 10
-45.614588747813
 20
-64.76480907811893
  9
$PLIMMAX
 10
2924.06863879125
 20
2034.968467289068
  9
$UNITMODE
 70
     0
  9
$VISRETAIN
 70
     1
  9
$PLINEGEN
 70
     0
  9
$PSLTSCALE
 70
     1
  9
$TREEDEPTH
 70
  3020
  9
$CMLSTYLE
  2
Standard
  9
$CMLJUST
 70
     0
  9
$CMLSCALE
 40
20.0
  9
$PROXYGRAPHICS
 70
     1
  9
$MEASUREMENT
 70
     0
  9
$CELWEIGHT
370
    -1
  9
$ENDCAPS
280
     0
  9
$JOINSTYLE
280
     0
  9
$LWDISPLAY
290
     0
  9
$INSUNITS
 70
     4
  9
$HYPERLINKBASE
  1

  9
$STYLESHEET
  1
table_couleur.ctb
  9
$XEDIT
290
     1
  9
$CEPSNTYPE
380
     0
  9
$PSTYLEMODE
290
     1
  9
$FINGERPRINTGUID
  2
{3D662E1A-938F-11D4-85B7-00C04F172506}
  9
$VERSIONGUID
  2
{00E6D70A-AD55-4E7F-9B78-1B26A5E0F050}
  9
$EXTNAMES
290
     1
  9
$PSVPSCALE
 40
0.0
  9
$OLESTARTUP
290
     1
  9
$SORTENTS
280
   127
  9
$INDEXCTL
280
     0
  9
$HIDETEXT
280
     0
  9
$XCLIPFRAME
280
     0
  9
$HALOGAP
280
     0
  9
$OBSCOLOR
 70
   257
  9
$OBSLTYPE
280
     0
  9
$INTERSECTIONDISPLAY
280
     0
  9
$INTERSECTIONCOLOR
 70
   257
  9
$DIMASSOC
280
     1
  9
$PROJECTNAME
  1

  9
$CAMERADISPLAY
290
     0
  9
$LENSLENGTH
 40
50.0
  9
$CAMERAHEIGHT
 40
0.0
  9
$STEPSPERSEC
 40
2.0
  9
$STEPSIZE
 40
6.0
  9
$3DDWFPREC
 40
2.0
  9
$PSOLWIDTH
 40
0.25
  9
$PSOLHEIGHT
 40
4.0
  9
$LOFTANG1
 40
1.570796326794896
  9
$LOFTANG2
 40
1.570796326794896
  9
$LOFTMAG1
 40
0.0
  9
$LOFTMAG2
 40
0.0
  9
$LOFTPARAM
 70
     7
  9
$LOFTNORMALS
280
     1
  9
$LATITUDE
 40
37.795
  9
$LONGITUDE
 40
-122.394
  9
$NORTHDIRECTION
 40
0.0
  9
$TIMEZONE
 70
 -8000
  9
$LIGHTGLYPHDISPLAY
280
     1
  9
$TILEMODELIGHTSYNCH
280
     1
  9
$CMATERIAL
347
116F
  9
$SOLIDHIST
280
     1
  9
$SHOWHIST
280
     1
  9
$DWFFRAME
280
     2
  9
$DGNFRAME
280
     0
  9
$REALWORLDSCALE
290
     1
  9
$INTERFERECOLOR
 62
     1
  9
$INTERFEREOBJVS
345
1191
  9
$INTERFEREVPVS
346
118E
  9
$CSHADOW
280
     0
  9
$SHADOWPLANELOCATION
 40
0.0
  0
ENDSEC
  0
SECTION
  2
CLASSES
  0
CLASS
  1
ACDBDICTIONARYWDFLT
  2
AcDbDictionaryWithDefault
  3
ObjectDBX Classes
 90
        0
 91
        1
280
     0
281
     0
  0
CLASS
  1
SORTENTSTABLE
  2
AcDbSortentsTable
  3
ObjectDBX Classes
 90
        0
 91
        2
280
     0
281
     0
  0
CLASS
  1
MATERIAL
  2
AcDbMaterial
  3
ObjectDBX Classes
 90
     1153
 91
        3
280
     0
281
     0
  0
CLASS
  1
VISUALSTYLE
  2
AcDbVisualStyle
  3
ObjectDBX Classes
 90
     4095
 91
       19
280
     0
281
     0
  0
CLASS
  1
TABLESTYLE
  2
AcDbTableStyle
  3
ObjectDBX Classes
 90
     4095
 91
        1
280
     0
281
     0
  0
CLASS
  1
SCALE
  2
AcDbScale
  3
ObjectDBX Classes
 90
     1153
 91
       33
280
     0
281
     0
  0
CLASS
  1
MLEADERSTYLE
  2
AcDbMLeaderStyle
  3
ACDB_MLEADERSTYLE_CLASS
 90
     4095
 91
        1
280
     0
281
     0
  0
CLASS
  1
CELLSTYLEMAP
  2
AcDbCellStyleMap
  3
ObjectDBX Classes
 90
     1152
 91
        3
280
     0
281
     0
  0
CLASS
  1
DICTIONARYVAR
  2
AcDbDictionaryVar
  3
ObjectDBX Classes
 90
        0
 91
       10
280
     0
281
     0
  0
CLASS
  1
ACDB_ALDIMOBJECTCONTEXTDATA_CLASS
  2
AcDbAlignedDimensionObjectContextData
  3
ObjectDBX Classes
 90
     1153
 91
        0
280
     0
281
     0
  0
ENDSEC
  0
SECTION
  2
TABLES
  0
TABLE
  2
VPORT
  5
8
102
{ACAD_XDICTIONARY
360
11DC
102
}
330
0
100
AcDbSymbolTable
 70
     1
  0
VPORT
  5
372E1
330
8
100
AcDbSymbolTableRecord
100
AcDbViewportTableRecord
  2
*Active
 70
     0
 10
0.0
 20
0.0
 11
1.0
 21
1.0
 12
176572.5878231023
 22
-42431.70469602803
 13
0.0
 23
0.0
 14
10.0
 24
10.0
 15
10.0
 25
10.0
 16
0.0
 26
0.0
 36
1.0
 17
0.0
 27
0.0
 37
0.0
 40
615.4936176499965
 41
2.766260162601625
 42
50.0
 43
0.0
 44
0.0
 50
0.0
 51
0.0
 71
     0
 72
 20000
 73
     1
 74
     3
 75
     0
 76
     0
 77
     0
 78
     0
281
     0
 65
     1
110
0.0
120
0.0
130
0.0
111
1.0
121
0.0
131
0.0
112
0.0
122
1.0
132
0.0
 79
     0
146
0.0
348
118D
 60
     3
 61
     5
292
     1
282
     1
141
0.0
142
0.0
 63
   250
421
  3355443
  0
ENDTAB
  0
TABLE
  2
LTYPE
  5
5
330
0
100
AcDbSymbolTable
 70
     4
  0
LTYPE
  5
14
330
5
100
AcDbSymbolTableRecord
100
AcDbLinetypeTableRecord
  2
ByBlock
 70
     0
  3

 72
    65
 73
     0
 40
0.0
  0
LTYPE
  5
15
330
5
100
AcDbSymbolTableRecord
100
AcDbLinetypeTableRecord
  2
ByLayer
 70
     0
  3

 72
    65
 73
     0
 40
0.0
  0
LTYPE
  5
16
330
5
100
AcDbSymbolTableRecord
100
AcDbLinetypeTableRecord
  2
Continuous
 70
     0
  3
Solid line
 72
    65
 73
     0
 40
0.0
  0
LTYPE
  5
1151
330
5
100
AcDbSymbolTableRecord
100
AcDbLinetypeTableRecord
  2
AXES
 70
     0
  3
Centre ____ _ ____ _ ____ _ ____ _ ____ _ ____
 72
    65
 73
     4
 40
2.0
 49
1.25
 74
     0
 49
-0.25
 74
     0
 49
0.25
 74
     0
 49
-0.25
 74
     0
  0
LTYPE
  5
D3F0
330
5
100
AcDbSymbolTableRecord
100
AcDbLinetypeTableRecord
  2
CACHE
 70
     0
  3
Caché __ __ __ __ __ __ __ __ __ __ __ __ __ __
 72
    65
 73
     2
 40
9.524999999999998
 49
6.349999999999999
 74
     0
 49
-3.174999999999999
 74
     0
  0
LTYPE
  5
12266
330
5
100
AcDbSymbolTableRecord
100
AcDbLinetypeTableRecord
  2
ACAD_ISO02W100
 70
     0
  3
ISO interrompu __ __ __ __ __ __ __ __ __ __ __
 72
    65
 73
     2
 40
15.0
 49
12.0
 74
     0
 49
-3.0
 74
     0
  0
ENDTAB
  0
TABLE
  2
LAYER
  5
2
102
{ACAD_XDICTIONARY
360
1263
102
}
330
0
100
AcDbSymbolTable
 70
     9
  0
LAYER
  5
10
102
{ACAD_XDICTIONARY
360
11C8
102
}
330
2
100
AcDbSymbolTableRecord
100
AcDbLayerTableRecord
  2
0
 70
     0
 62
     7
  6
Continuous
370
    60
390
F
347
117F
  0
LAYER
  5
2C
102
{ACAD_XDICTIONARY
360
11CA
102
}
330
2
100
AcDbSymbolTableRecord
100
AcDbLayerTableRecord
  2
CARTOUCHE
 70
     0
 62
     7
  6
Continuous
370
    30
390
F
347
117F
  0
LAYER
  5
2D
102
{ACAD_XDICTIONARY
360
11CC
102
}
330
2
100
AcDbSymbolTableRecord
100
AcDbLayerTableRecord
  2
BORDS CARTOUCHE
 70
     0
 62
     6
  6
Continuous
370
    60
390
F
347
117F
  0
LAYER
  5
1C5
330
2
100
AcDbSymbolTableRecord
100
AcDbLayerTableRecord
  2
Defpoints
 70
     0
 62
     7
  6
Continuous
290
     0
370
    -3
390
F
347
117F
  0
LAYER
  5
B6E
102
{ACAD_XDICTIONARY
360
11CE
102
}
330
2
100
AcDbSymbolTableRecord
100
AcDbLayerTableRecord
  2
COTATION
 70
     0
 62
     7
  6
Continuous
370
    25
390
F
347
117F
  0
LAYER
  5
1154
102
{ACAD_XDICTIONARY
360
11D0
102
}
330
2
100
AcDbSymbolTableRecord
100
AcDbLayerTableRecord
  2
AXES
 70
     0
 62
     7
  6
AXES
370
    30
390
F
347
117F
  0
LAYER
  5
1396
330
2
100
AcDbSymbolTableRecord
100
AcDbLayerTableRecord
  2
CONTOURS
 70
     0
 62
     7
  6
Continuous
370
    60
390
F
347
117F
  0
LAYER
  5
139C
330
2
100
AcDbSymbolTableRecord
100
AcDbLayerTableRecord
  2
HACHURES MUR ET SOL
 70
     0
 62
     7
  6
Continuous
370
    15
390
F
347
117F
  0
LAYER
  5
139E
330
2
100
AcDbSymbolTableRecord
100
AcDbLayerTableRecord
  2
TRAITS INTERIEURS FIN
 70
     0
 62
     7
  6
Continuous
370
    20
390
F
347
117F
  0
ENDTAB
  0
TABLE
  2
STYLE
  5
3
330
0
100
AcDbSymbolTable
 70
     2
  0
STYLE
  5
11
330
3
100
AcDbSymbolTableRecord
100
AcDbTextStyleTableRecord
  2
Standard
 70
     0
 40
0.0
 41
1.0
 50
0.0
 71
     0
 42
2.5
  3
arial.ttf
  4

1001
AcadAnnotative
1000
AnnotativeData
1002
{
1070
     1
1070
     0
1002
}
1001
ACAD
1000
Arial
1071
       34
  0
STYLE
  5
2F
330
3
100
AcDbSymbolTableRecord
100
AcDbTextStyleTableRecord
  2
CARTOUCHE
 70
     0
 40
30.0
 41
1.0
 50
0.0
 71
     0
 42
30.0
  3
arial.ttf
  4

1001
ACAD
1000
Arial
1071
       34
  0
ENDTAB
  0
TABLE
  2
VIEW
  5
6
330
0
100
AcDbSymbolTable
 70
     0
  0
ENDTAB
  0
TABLE
  2
UCS
  5
7
330
0
100
AcDbSymbolTable
 70
     0
  0
ENDTAB
  0
TABLE
  2
APPID
  5
9
330
0
100
AcDbSymbolTable
 70
    12
  0
APPID
  5
12
330
9
100
AcDbSymbolTableRecord
100
AcDbRegAppTableRecord
  2
ACAD
 70
     0
  0
APPID
  5
11BE
330
9
100
AcDbSymbolTableRecord
100
AcDbRegAppTableRecord
  2
ACAD_MLEADERVER
 70
     0
  0
APPID
  5
126E
330
9
100
AcDbSymbolTableRecord
100
AcDbRegAppTableRecord
  2
AcAecLayerStandard
 70
     0
  0
APPID
  5
13A2
330
9
100
AcDbSymbolTableRecord
100
AcDbRegAppTableRecord
  2
ACAD_PSEXT
 70
     0
  0
APPID
  5
194D
330
9
100
AcDbSymbolTableRecord
100
AcDbRegAppTableRecord
  2
AcadAnnoPO
 70
     0
  0
APPID
  5
194E
330
9
100
AcDbSymbolTableRecord
100
AcDbRegAppTableRecord
  2
AcadAnnotative
 70
     0
  0
APPID
  5
194F
330
9
100
AcDbSymbolTableRecord
100
AcDbRegAppTableRecord
  2
ACAD_DSTYLE_DIMJAG
 70
     0
  0
APPID
  5
1950
330
9
100
AcDbSymbolTableRecord
100
AcDbRegAppTableRecord
  2
ACAD_DSTYLE_DIMTALN
 70
     0
  0
APPID
  5
2227
330
9
100
AcDbSymbolTableRecord
100
AcDbRegAppTableRecord
  2
ACAD_EXEMPT_FROM_CAD_STANDARDS
 70
     0
  0
APPID
  5
5739
330
9
100
AcDbSymbolTableRecord
100
AcDbRegAppTableRecord
  2
AcadAnnotativeDecomposition
 70
     0
  0
APPID
  5
8C37
330
9
100
AcDbSymbolTableRecord
100
AcDbRegAppTableRecord
  2
ACAD_DSTYLE_DIMRADIAL_EXTENSION
 70
     0
  0
APPID
  5
16D58
330
9
100
AcDbSymbolTableRecord
100
AcDbRegAppTableRecord
  2
ACAD_DSTYLE_DIMFLIPARROW_WHICH_SYMBOL
 70
     0
  0
ENDTAB
  0
TABLE
  2
DIMSTYLE
  5
A
330
0
100
AcDbSymbolTable
 70
     3
100
AcDbDimStyleTable
 71
     2
340
27
340
2DA
  0
DIMSTYLE
105
27
330
A
100
AcDbSymbolTableRecord
100
AcDbDimStyleTableRecord
  2
ISO-25
 70
     0
 41
20.0
 42
0.625
 43
3.75
 44
1.25
 77
     1
 78
     8
140
20.0
141
2.5
143
0.03937007874016
147
0.625
171
     3
172
     1
176
   256
177
   256
271
     0
272
     0
274
     3
278
    44
283
     0
284
     8
340
11
371
    -1
372
    -1
  0
DIMSTYLE
105
2DA
330
A
100
AcDbSymbolTableRecord
100
AcDbDimStyleTableRecord
  2
STANDARD
 70
     0
340
11
  0
DIMSTYLE
105
115EE
330
A
100
AcDbSymbolTableRecord
100
AcDbDimStyleTableRecord
  2
Copie de ISO-25
 70
     0
 41
50.0
 42
0.625
 43
3.75
 44
10.0
 77
     1
 78
     8
140
25.0
141
2.5
143
0.03937007874016
147
6.0
171
     3
172
     1
176
   256
177
   256
271
     0
272
     0
274
     3
278
    44
283
     0
284
     8
340
11
371
    -1
372
    -1
  0
ENDTAB
  0
TABLE
  2
BLOCK_RECORD
  5
1
330
0
100
AcDbSymbolTable
 70
    64
  0
BLOCK_RECORD
  5
1F
102
{ACAD_XDICTIONARY
360
F6C
102
}
330
1
100
AcDbSymbolTableRecord
100
AcDbBlockTableRecord
  2
*Model_Space
340
22
 70
     0
280
     1
281
     0
  0
BLOCK_RECORD
  5
23
330
1
100
AcDbSymbolTableRecord
100
AcDbBlockTableRecord
  2
*Paper_Space
340
26
 70
     0
280
     1
281
     0
  0
BLOCK_RECORD
  5
1B
330
1
100
AcDbSymbolTableRecord
100
AcDbBlockTableRecord
  2
*Paper_Space0
340
1E
 70
     0
280
     1
281
     0
  0
BLOCK_RECORD
  5
10040
102
{ACAD_XDICTIONARY
360
10044
102
}
330
1
100
AcDbSymbolTableRecord
100
AcDbBlockTableRecord
  2
A$C43963E35
340
0
 70
     4
280
     1
281
     0
  0
BLOCK_RECORD
  5
1E254
330
1
100
AcDbSymbolTableRecord
100
AcDbBlockTableRecord
  2
_None
340
0
 70
     0
280
     1
281
     0
  0
BLOCK_RECORD
  5
37CBC
330
1
100
AcDbSymbolTableRecord
100
AcDbBlockTableRecord
  2
rftghy
340
0
310
2800000020000000200000000100080000000000000400000000000000000000000000000000000000000000000080000080000000808000800000008000800080800000C0C0C000C0DCC000F0CAA6000020400000206000002080000020A0000020C0000020E00000400000004020000040400000406000004080000040A0
310
000040C0000040E00000600000006020000060400000606000006080000060A0000060C0000060E00000800000008020000080400000806000008080000080A0000080C0000080E00000A0000000A0200000A0400000A0600000A0800000A0A00000A0C00000A0E00000C0000000C0200000C0400000C0600000C0800000C0
310
A00000C0C00000C0E00000E0000000E0200000E0400000E0600000E0800000E0A00000E0C00000E0E00040000000400020004000400040006000400080004000A0004000C0004000E00040200000402020004020400040206000402080004020A0004020C0004020E000404000004040200040404000404060004040800040
310
40A0004040C0004040E00040600000406020004060400040606000406080004060A0004060C0004060E00040800000408020004080400040806000408080004080A0004080C0004080E00040A0000040A0200040A0400040A0600040A0800040A0A00040A0C00040A0E00040C0000040C0200040C0400040C0600040C08000
310
40C0A00040C0C00040C0E00040E0000040E0200040E0400040E0600040E0800040E0A00040E0C00040E0E00080000000800020008000400080006000800080008000A0008000C0008000E00080200000802020008020400080206000802080008020A0008020C0008020E00080400000804020008040400080406000804080
310
008040A0008040C0008040E00080600000806020008060400080606000806080008060A0008060C0008060E00080800000808020008080400080806000808080008080A0008080C0008080E00080A0000080A0200080A0400080A0600080A0800080A0A00080A0C00080A0E00080C0000080C0200080C0400080C0600080C0
310
800080C0A00080C0C00080C0E00080E0000080E0200080E0400080E0600080E0800080E0A00080E0C00080E0E000C0000000C0002000C0004000C0006000C0008000C000A000C000C000C000E000C0200000C0202000C0204000C0206000C0208000C020A000C020C000C020E000C0400000C0402000C0404000C0406000C0
310
408000C040A000C040C000C040E000C0600000C0602000C0604000C0606000C0608000C060A000C060C000C060E000C0800000C0802000C0804000C0806000C0808000C080A000C080C000C080E000C0A00000C0A02000C0A04000C0A06000C0A08000C0A0A000C0A0C000C0A0E000C0C00000C0C02000C0C04000C0C06000
310
C0C08000C0C0A000F0FBFF00A4A0A000808080000000FF0000FF000000FFFF00FF000000FF00FF00FFFF0000FFFFFF0007070707070707070707070707070707070707070707070707070707070707070707070707070707070707070707070707070707070707070707070707070707070707070707070707070707070707
310
07070707070707070707070707070707070700070707070707070707070707070707070707070707070707070707070707070000070707070707070707070707070707070707070707070707070707070707070007070707070707070707070707070707070707070707070707070707070707000007070707070707070707
310
07070707070707070707070707070707070707070007000707070707070707070707070707070707070707070707070707070707000700070707070707070707070707070707070707070707070707070707070707000000070707070707070707070707070707070707070707070707070707070700000707070707070707
310
07070707070707070707070707070707070707070707070700070707070707070707070707070707070707070707070707070707070707070007070707070707070707070707070707070707070707070707070707070707070007070707070707070707070707070707070707070707070707070707070707000707070707
310
07070707070707070707070707070707070707070707070707070007070707070707070707070707070707070707070707070707070707070707070007070707070707070707070707070707070707070707070707070707070707000707070707070707070707070707070707070707070707070707070707070707000707
310
07070707070707070707070707070707070707070707070707070707070000000000000000000000000000000000000000000000070707070707070707070707070707070707070707070707070707070707070707070707070707070707070700000000000007070700000000070000000707070707070707070707070707
310
07070000000000000707000000000000000000000707070707070707070707070700000700070700070000070700000007070700000707070707070707070707070000000700070000070700000700000707070000070707070707070707070707070007000700000007070000000700000000000707070707070707070707
310
07070700000700070000000007070000000000000707070707070707070707070707070700000000000707000000000700000000000707070707070707070707070707070000000000000707000007070000000000070707070707070707070707070707070707070707070707070707070707070707070707070707070707
310
0707070707070707070707070707070707070707070707070707070707070707070707070707070707070707070707070707070707070707
 70
     4
280
     1
281
     0
  0
BLOCK_RECORD
  5
3B43B
330
1
100
AcDbSymbolTableRecord
100
AcDbBlockTableRecord
  2
dddd
340
0
310
2800000020000000200000000100080000000000000400000000000000000000000000000000000000000000000080000080000000808000800000008000800080800000C0C0C000C0DCC000F0CAA6000020400000206000002080000020A0000020C0000020E00000400000004020000040400000406000004080000040A0
310
000040C0000040E00000600000006020000060400000606000006080000060A0000060C0000060E00000800000008020000080400000806000008080000080A0000080C0000080E00000A0000000A0200000A0400000A0600000A0800000A0A00000A0C00000A0E00000C0000000C0200000C0400000C0600000C0800000C0
310
A00000C0C00000C0E00000E0000000E0200000E0400000E0600000E0800000E0A00000E0C00000E0E00040000000400020004000400040006000400080004000A0004000C0004000E00040200000402020004020400040206000402080004020A0004020C0004020E000404000004040200040404000404060004040800040
310
40A0004040C0004040E00040600000406020004060400040606000406080004060A0004060C0004060E00040800000408020004080400040806000408080004080A0004080C0004080E00040A0000040A0200040A0400040A0600040A0800040A0A00040A0C00040A0E00040C0000040C0200040C0400040C0600040C08000
310
40C0A00040C0C00040C0E00040E0000040E0200040E0400040E0600040E0800040E0A00040E0C00040E0E00080000000800020008000400080006000800080008000A0008000C0008000E00080200000802020008020400080206000802080008020A0008020C0008020E00080400000804020008040400080406000804080
310
008040A0008040C0008040E00080600000806020008060400080606000806080008060A0008060C0008060E00080800000808020008080400080806000808080008080A0008080C0008080E00080A0000080A0200080A0400080A0600080A0800080A0A00080A0C00080A0E00080C0000080C0200080C0400080C0600080C0
310
800080C0A00080C0C00080C0E00080E0000080E0200080E0400080E0600080E0800080E0A00080E0C00080E0E000C0000000C0002000C0004000C0006000C0008000C000A000C000C000C000E000C0200000C0202000C0204000C0206000C0208000C020A000C020C000C020E000C0400000C0402000C0404000C0406000C0
310
408000C040A000C040C000C040E000C0600000C0602000C0604000C0606000C0608000C060A000C060C000C060E000C0800000C0802000C0804000C0806000C0808000C080A000C080C000C080E000C0A00000C0A02000C0A04000C0A06000C0A08000C0A0A000C0A0C000C0A0E000C0C00000C0C02000C0C04000C0C06000
310
C0C08000C0C0A000F0FBFF00A4A0A000808080000000FF0000FF000000FFFF00FF000000FF00FF00FFFF0000FFFFFF00F7F7F7F7F7F7F7F7F7F7F7F7F7F7F7F7F7F7F7F7F7F7F7F7F7F7F7F7F7F7F7F7F7F7F7F7F7F7F7F7F7F7F7F7F7F7F7F7F7F7F7F7F7F7F7F7F7F7F7F7F7F7F7F7F7F7F7F7F7F7F7F7F7F7F7F7F7F7F7
310
F7F7F7F7F7F7F7F7F7F7F7F7F7F7F7F7F7F7F7F7F7F7F7F7F7F7F7F7F7F7F7F7F7F7F7F7F7F7F7F7F7F7F7F7F7F7F7F7F7F7F7F7F7F7F7F7F7F7F7F7F7F7F7F7F7F7F7F7F7F7F7F7F7F7F7F7F7F7F7F7F7F7F7F7F7F7F7F7F7F7F7F7F7F7F7F7F7F7F7F7F7F7F7F7F7F7F7F7F7F7F7F7F7F7F7F7F7F7F7F7F7F7F7F7F7F7F7
310
F7F7F7F7F7F7F7F7F7F7F7F7F7F7F7F7F7F7F7F7F7F7F7F7F7F7F7F7F7F7F7F7F7F7F7F7F7F7F7F7F7F7F7F7F7F7F7F7F7F7F7F7F7F7F7F7F7F7F7F7F7F7F7F7F7F7F7F7F7F7F7F7F7F7F7F7F7F7F7F7F7F7F7F7F7F7F7F7F7000000000000000000000000000000000000F7F7F7F7F7F7F7F7F7F700000000F7F7F7F7F7F7
310
F7F7F7F7F7F7F7F7F7F7F7F700000000F7F7F7F7F7F700F7F7F7F7F7F7F7F7F7F7F7F7F7F7F7F7F7F7F7F7F7F7F7F7F700F7F7F7F700F7F7F7F7F7F7F7F7F7F7F7F7F7F7F7F7F7F7F7F7F7F7F7F7F7F700F7F7F7F700F7F7F7F7F7F7F7F7F7F7F7F7F7F7F7F7F7F7F7F7F7F7F7F7F7F700F7F7F7F700F7F7F7F7F7F7F7F7F7
310
F7F7F7F700F7F7F7F7F7F7F7F7F7F7F7F7F700F7F700F7F7F7F7F7F7F7F7F7F7F7F7F7F700F7F7F7F7F7F7F7F7F7F7F7F7F700F7F700F7F7F7F7F7F7F7F7F7F7F7F7F7F700F7F7F7F7F7F7F7F7F7F7F7F7F700F7F7F700F7F7F7F7F7F7F7F7F7F7F7F7F700F7F7F7F7F7F7F7F7F7F7F7F7F700F7F7F700F7F7F7F7F7F7F7F7
310
F7F7F7F7F7F7F7F7F7F7F7F7F7F7F7F7F7F700F7F7F7F700F7F7F7F7F7F7F7F7F7F7F7F7F7F7F7F7F7F7F7F7F7F7F7F7F7F700F7F7F7F7F700F7F7F7F7F7F7F7F7F7F7F7F7F7F7F7F7F7F7F7F7F7F7F7F7F700F7F7F7F7F700000000F7F7F7F7F7F7F7F7F7F7F7F7F7F7F7F7F7F700000000F7F7F7F7F7F7F7F7F7F7000000
310
000000000000000000000000000000F7F7F7F7F7F7F7F7F7F7F7F7F7F7F7F7F7F7F7F7F7F7F7F7F7F7F7F7F7F7F7F7F7F7F7F7F7F7F7F7F7F7F7F7F7F7F7F7F7F7F7F7F7F7F7F7F7F7F7F7F7F7F7F7F7F7F7F7F7F7F7F7F7F7F7F7F7F7F7F7F7F7F7F7F7F7F7F7F7F7F7F7F7F7F7F7F7F7F7F7F7F7F7F7F7F7F7F7F7F7F7F7
310
F7F7F7F7F7F7F7F7F7F7F7F7F7F7F7F7F7F7F7F7F7F7F7F7F7F7F7F7F7F7F7F7F7F7F7F7F7F7F7F7F7F7F7F7F7F7F7F7F7F7F7F7F7F7F7F7F7F7F7F7F7F7F7F7F7F7F7F7F7F7F7F7F7F7F7F7F7F7F7F7F7F7F7F7F7F7F7F7F7F7F7F7F7F7F7F7F7F7F7F7F7F7F7F7F7F7F7F7F7F7F7F7F7F7F7F7F7F7F7F7F7F7F7F7F7F7F7
310
F7F7F7F7F7F7F7F7F7F7F7F7F7F7F7F7F7F7F7F7F7F7F7F7F7F7F7F7F7F7F7F7F7F7F7F7F7F7F7F7F7F7F7F7F7F7F7F7F7F7F7F7F7F7F7F7
 70
     4
280
     1
281
     0
  0
BLOCK_RECORD
  5
3DEFF
330
1
100
AcDbSymbolTableRecord
100
AcDbBlockTableRecord
  2
*D50
340
0
 70
     0
280
     1
281
     0
  0
BLOCK_RECORD
  5
3DF0C
330
1
100
AcDbSymbolTableRecord
100
AcDbBlockTableRecord
  2
*D51
340
0
 70
     0
280
     1
281
     0
  0
BLOCK_RECORD
  5
3DF19
330
1
100
AcDbSymbolTableRecord
100
AcDbBlockTableRecord
  2
*D52
340
0
 70
     0
280
     1
281
     0
  0
BLOCK_RECORD
  5
3DF25
330
1
100
AcDbSymbolTableRecord
100
AcDbBlockTableRecord
  2
*D53
340
0
 70
     0
280
     1
281
     0
  0
BLOCK_RECORD
  5
3DF31
330
1
100
AcDbSymbolTableRecord
100
AcDbBlockTableRecord
  2
*D54
340
0
 70
     0
280
     1
281
     0
  0
BLOCK_RECORD
  5
3E25D
330
1
100
AcDbSymbolTableRecord
100
AcDbBlockTableRecord
  2
*D55
340
0
 70
     0
280
     1
281
     0
  0
BLOCK_RECORD
  5
3E26B
330
1
100
AcDbSymbolTableRecord
100
AcDbBlockTableRecord
  2
*D56
340
0
 70
     0
280
     1
281
     0
  0
BLOCK_RECORD
  5
3E279
330
1
100
AcDbSymbolTableRecord
100
AcDbBlockTableRecord
  2
*D57
340
0
 70
     0
280
     1
281
     0
  0
BLOCK_RECORD
  5
3E288
330
1
100
AcDbSymbolTableRecord
100
AcDbBlockTableRecord
  2
*D58
340
0
 70
     0
280
     1
281
     0
  0
BLOCK_RECORD
  5
3E5F1
330
1
100
AcDbSymbolTableRecord
100
AcDbBlockTableRecord
  2
*D59
340
0
 70
     0
280
     1
281
     0
  0
BLOCK_RECORD
  5
3E614
330
1
100
AcDbSymbolTableRecord
100
AcDbBlockTableRecord
  2
*D60
340
0
 70
     0
280
     1
281
     0
  0
BLOCK_RECORD
  5
3E7FD
330
1
100
AcDbSymbolTableRecord
100
AcDbBlockTableRecord
  2
*D61
340
0
 70
     0
280
     1
281
     0
  0
BLOCK_RECORD
  5
3E865
330
1
100
AcDbSymbolTableRecord
100
AcDbBlockTableRecord
  2
*D62
340
0
 70
     0
280
     1
281
     0
  0
BLOCK_RECORD
  5
3E873
330
1
100
AcDbSymbolTableRecord
100
AcDbBlockTableRecord
  2
*D63
340
0
 70
     0
280
     1
281
     0
  0
ENDTAB
  0
ENDSEC
  0
SECTION
  2
BLOCKS
  0
BLOCK
  5
20
330
1F
100
AcDbEntity
  8
0
100
AcDbBlockBegin
  2
*Model_Space
 70
     0
 10
0.0
 20
0.0
 30
0.0
  3
*Model_Space
  1

  0
ENDBLK
  5
21
330
1F
100
AcDbEntity
  8
0
100
AcDbBlockEnd
  0
BLOCK
  5
24
330
23
100
AcDbEntity
 67
     1
  8
0
100
AcDbBlockBegin
  2
*Paper_Space
 70
     0
 10
0.0
 20
0.0
 30
0.0
  3
*Paper_Space
  1

  0
ENDBLK
  5
25
330
23
100
AcDbEntity
 67
     1
  8
0
100
AcDbBlockEnd
  0
BLOCK
  5
1C
330
1B
100
AcDbEntity
 67
     1
  8
0
100
AcDbBlockBegin
  2
*Paper_Space0
 70
     0
 10
0.0
 20
0.0
 30
0.0
  3
*Paper_Space0
  1

  0
VIEWPORT
  5
10D6
330
1B
100
AcDbEntity
 67
     1
  8
0
100
AcDbViewport
 10
2172.230288162508
 20
2164.44563953854
 30
0.0
 40
9864.54301089811
 41
5157.746774269583
 68
     0
 69
     0
 12
2172.230288162508
 22
2164.44563953854
 13
0.0
 23
0.0
 14
10.0
 24
10.0
 15
10.0
 25
10.0
 16
0.0
 26
0.0
 36
1.0
 17
0.0
 27
0.0
 37
0.0
 42
50.0
 43
0.0
 44
0.0
 45
5157.746774269583
 50
0.0
 51
0.0
 72
 20000
 90
    32800
  1

281
     0
 71
     1
 74
     0
110
0.0
120
0.0
130
0.0
111
1.0
121
0.0
131
0.0
112
0.0
122
1.0
132
0.0
 79
     0
146
0.0
170
     0
 61
     5
348
118D
292
     1
282
     1
141
0.0
142
0.0
 63
   250
421
  3355443
  0
VIEWPORT
  5
10D8
330
1B
100
AcDbEntity
 67
     1
  8
COTATION
100
AcDbViewport
 10
1433.871729034479
 20
982.4849351662237
 30
0.0
 40
2868.848312283058
 41
1962.882051772217
 68
     0
 69
     0
 12
4672.82154075406
 22
2036.915432569854
 13
0.0
 23
0.0
 14
10.0
 24
10.0
 15
10.0
 25
10.0
 16
0.0
 26
0.0
 36
1.0
 17
0.0
 27
0.0
 37
0.0
 42
50.0
 43
0.0
 44
0.0
 45
2021.894736842107
 50
0.0
 51
0.0
 72
 20000
 90
    32864
  1

281
     0
 71
     1
 74
     0
110
0.0
120
0.0
130
0.0
111
1.0
121
0.0
131
0.0
112
0.0
122
1.0
132
0.0
 79
     0
146
0.0
170
     0
 61
     5
348
118D
292
     1
282
     1
141
0.0
142
0.0
 63
   250
421
  3355443
  0
ENDBLK
  5
1D
330
1B
100
AcDbEntity
 67
     1
  8
0
100
AcDbBlockEnd
  0
BLOCK
  5
10046
330
10040
100
AcDbEntity
  8
0
 48
60.0
100
AcDbBlockBegin
  2
A$C43963E35
 70
     0
 10
0.0
 20
0.0
 30
0.0
  3
A$C43963E35
  1

  0
LINE
  5
10041
330
10040
100
AcDbEntity
  8
TRAITS INTERIEURS FIN
 48
60.0
100
AcDbLine
 10
487.0359303894111
 20
59.03352122927026
 30
0.0
 11
3335.277567270383
 21
59.03352122927026
 31
0.0
  0
HATCH
  5
10042
330
10040
100
AcDbEntity
  8
TRAITS INTERIEURS FIN
 48
60.0
100
AcDbHatch
 10
0.0
 20
0.0
 30
0.0
210
0.0
220
0.0
230
1.0
  2
ANSI31
 70
     0
 71
     1
 91
        1
 92
        7
 72
     0
 73
     1
 93
        4
 10
487.0359303894111
 20
59.03352122927026
 10
0.0
 20
59.03352122927026
 10
0.0
 20
0.0
 10
487.0359303894111
 20
0.0
 97
        1
330
10043
 75
     0
 76
     1
 52
0.0
 41
1.0
 77
     0
 78
     1
 53
45.0
 43
-23209.77219263157
 44
-8752.978071548815
 45
-0.0883883476483184
 46
0.0883883476483185
 79
     0
 47
3.536237473367383
 98
        1
 10
389.0278602149992
 20
49.50732069702644
1001
ACAD
1010
0.0
1020
0.0
1030
0.0
  0
LWPOLYLINE
  5
10043
102
{ACAD_REACTORS
330
10042
102
}
330
10040
100
AcDbEntity
  8
TRAITS INTERIEURS FIN
 48
60.0
100
AcDbPolyline
 90
        4
 70
     1
 43
0.0
 10
487.0359303894111
 20
59.03352122927026
 10
0.0
 20
59.03352122927026
 10
0.0
 20
0.0
 10
487.0359303894111
 20
0.0
  0
ENDBLK
  5
10047
330
10040
100
AcDbEntity
  8
0
 48
60.0
100
AcDbBlockEnd
  0
BLOCK
  5
1E255
330
1E254
100
AcDbEntity
  8
0
 48
60.0
100
AcDbBlockBegin
  2
_None
 70
     0
 10
0.0
 20
0.0
 30
0.0
  3
_None
  1

  0
ENDBLK
  5
1E256
330
1E254
100
AcDbEntity
  8
0
 48
60.0
100
AcDbBlockEnd
  0
BLOCK
  5
37CBD
330
37CBC
100
AcDbEntity
  8
0
 48
30.0
100
AcDbBlockBegin
  2
rftghy
 70
     0
 10
0.0
 20
0.0
 30
0.0
  3
rftghy
  1

  0
LINE
  5
37CBF
330
37CBC
100
AcDbEntity
  8
COTATION
100
AcDbLine
 10
176703.0760122596
 20
-42219.26983910005
 30
0.0
 11
176730.5388637992
 21
-42154.23009859836
 31
0.0
  0
LINE
  5
37CC0
330
37CBC
100
AcDbEntity
  8
COTATION
100
AcDbLine
 10
176730.5388637992
 20
-42154.23009859836
 30
0.0
 11
176876.9372266914
 21
-42154.23009859837
 31
0.0
  0
SOLID
  5
37CC1
330
37CBC
100
AcDbEntity
  8
COTATION
100
AcDbTrace
 10
176695.3990014327
 20
-42216.02824239346
 30
0.0
 11
176710.7530230865
 21
-42222.51143580665
 31
0.0
 12
176683.6264320201
 22
-42265.33190406144
 32
0.0
 13
176683.6264320201
 23
-42265.33190406144
 33
0.0
  0
MTEXT
  5
37CC2
330
37CBC
100
AcDbEntity
  8
COTATION
100
AcDbMText
 10
176813.7380452453
 20
-42116.02380075044
 30
0.0
 40
50.0
 41
0.0
 46
0.0
 71
     5
 72
     1
  1
∅35
 73
     1
 44
1.0
  0
ENDBLK
  5
37CBE
330
37CBC
100
AcDbEntity
  8
0
 48
30.0
100
AcDbBlockEnd
  0
BLOCK
  5
3B43C
330
3B43B
100
AcDbEntity
  8
0
 48
30.0
100
AcDbBlockBegin
  2
dddd
 70
     0
 10
0.0
 20
0.0
 30
0.0
  3
dddd
  1

  0
ARC
  5
3B43E
330
3B43B
100
AcDbEntity
  8
0
 48
30.0
100
AcDbCircle
 10
175745.7704138991
 20
-42462.56990698227
 30
0.0
 40
20.0
100
AcDbArc
 50
270.0
 51
90.0
  0
ARC
  5
3B43F
330
3B43B
100
AcDbEntity
  8
0
 48
30.0
100
AcDbCircle
 10
175745.7704138991
 20
-39324.19794585262
 30
0.0
 40
3217.36836834693
100
AcDbArc
 50
270.0
 51
271.6959764155518
  0
ARC
  5
3B440
330
3B43B
100
AcDbEntity
  8
0
 48
30.0
100
AcDbCircle
 10
175590.2769936772
 20
-42462.56368151973
 30
0.0
 40
332.4884764813388
100
AcDbArc
 50
352.7916538803822
 51
359.9989272167381
  0
ARC
  5
3B441
330
3B43B
100
AcDbEntity
  8
0
 48
30.0
100
AcDbCircle
 10
175885.4142503022
 20
-42499.89186646122
 30
0.0
 40
35.0
100
AcDbArc
 50
297.5975352616955
 51
352.7916538803822
  0
ARC
  5
3B442
330
3B43B
100
AcDbEntity
  8
0
 48
30.0
100
AcDbCircle
 10
175875.0154690815
 20
-42479.9987483205
 30
0.0
 40
57.44706662881569
100
AcDbArc
 50
277.0640521522898
 51
297.5975352616955
  0
ARC
  5
3B443
330
3B43B
100
AcDbEntity
  8
0
 48
30.0
100
AcDbCircle
 10
175827.9695473007
 20
-42100.34966288146
 30
0.0
 40
440.0
100
AcDbArc
 50
271.6959764155518
 51
277.0640521522898
  0
ARC
  5
3B444
330
3B43B
100
AcDbEntity
  8
0
 48
30.0
100
AcDbCircle
 10
175745.7704138991
 20
-45600.94186811192
 30
0.0
 40
3217.36836834693
100
AcDbArc
 50
88.30402358444823
 51
90.0
  0
ARC
  5
3B445
330
3B43B
100
AcDbEntity
  8
0
 48
30.0
100
AcDbCircle
 10
175590.2769936772
 20
-42462.57613244484
 30
0.0
 40
332.4884764813388
100
AcDbArc
 50
0.0010727832618436
 51
7.208346119617785
  0
ARC
  5
3B446
330
3B43B
100
AcDbEntity
  8
0
 48
30.0
100
AcDbCircle
 10
175885.4142503022
 20
-42425.24794750331
 30
0.0
 40
35.0
100
AcDbArc
 50
7.208346119617785
 51
62.40246473830453
  0
ARC
  5
3B447
330
3B43B
100
AcDbEntity
  8
0
 48
30.0
100
AcDbCircle
 10
175875.0154690815
 20
-42445.14106564404
 30
0.0
 40
57.44706662881569
100
AcDbArc
 50
62.40246473830453
 51
82.9359478477102
  0
ARC
  5
3B448
330
3B43B
100
AcDbEntity
  8
0
 48
30.0
100
AcDbCircle
 10
175827.9695473007
 20
-42824.79015108308
 30
0.0
 40
440.0
100
AcDbArc
 50
82.9359478477102
 51
88.30402358444823
  0
ARC
  5
3B449
330
3B43B
100
AcDbEntity
  8
0
 48
30.0
100
AcDbCircle
 10
175745.7704138991
 20
-42462.56990698227
 30
0.0
 40
20.0
100
AcDbArc
 50
90.0
 51
270.0
  0
ARC
  5
3B44A
330
3B43B
100
AcDbEntity
  8
0
 48
30.0
100
AcDbCircle
 10
175745.7704138991
 20
-39324.19794585262
 30
0.0
 40
3217.36836834693
100
AcDbArc
 50
268.3040235827824
 51
270.0
  0
ARC
  5
3B44B
330
3B43B
100
AcDbEntity
  8
0
 48
30.0
100
AcDbCircle
 10
175901.2638341211
 20
-42462.56368151973
 30
0.0
 40
332.4884764813388
100
AcDbArc
 50
180.0010727832619
 51
187.2083461197303
  0
ARC
  5
3B44C
330
3B43B
100
AcDbEntity
  8
0
 48
30.0
100
AcDbCircle
 10
175606.1265774961
 20
-42499.89186646122
 30
0.0
 40
35.0
100
AcDbArc
 50
187.2083461197303
 51
242.4024647395819
  0
ARC
  5
3B44D
330
3B43B
100
AcDbEntity
  8
0
 48
30.0
100
AcDbCircle
 10
175616.5253587168
 20
-42479.9987483205
 30
0.0
 40
57.44706662881569
100
AcDbArc
 50
242.4024647395819
 51
262.9359478477689
  0
ARC
  5
3B44E
330
3B43B
100
AcDbEntity
  8
0
 48
30.0
100
AcDbCircle
 10
175663.5712804976
 20
-42100.34966288146
 30
0.0
 40
440.0
100
AcDbArc
 50
262.9359478477689
 51
268.3040235827824
  0
ARC
  5
3B44F
330
3B43B
100
AcDbEntity
  8
0
 48
30.0
100
AcDbCircle
 10
175745.7704138992
 20
-45600.94186811192
 30
0.0
 40
3217.36836834693
100
AcDbArc
 50
90.0
 51
91.69597641721765
  0
ARC
  5
3B450
330
3B43B
100
AcDbEntity
  8
0
 48
30.0
100
AcDbCircle
 10
175901.2638341211
 20
-42462.57613244484
 30
0.0
 40
332.4884764813388
100
AcDbArc
 50
172.7916538802697
 51
179.9989272167382
  0
ARC
  5
3B451
330
3B43B
100
AcDbEntity
  8
0
 48
30.0
100
AcDbCircle
 10
175606.1265774961
 20
-42425.24794750331
 30
0.0
 40
35.0
100
AcDbArc
 50
117.5975352604181
 51
172.7916538802697
  0
ARC
  5
3B452
330
3B43B
100
AcDbEntity
  8
0
 48
30.0
100
AcDbCircle
 10
175616.5253587168
 20
-42445.14106564404
 30
0.0
 40
57.44706662881569
100
AcDbArc
 50
97.06405215223107
 51
117.5975352604181
  0
ARC
  5
3B453
330
3B43B
100
AcDbEntity
  8
0
 48
30.0
100
AcDbCircle
 10
175663.5712804976
 20
-42824.79015108308
 30
0.0
 40
440.0
100
AcDbArc
 50
91.69597641721765
 51
97.06405215223107
  0
ENDBLK
  5
3B43D
330
3B43B
100
AcDbEntity
  8
0
 48
30.0
100
AcDbBlockEnd
  0
BLOCK
  5
3DF00
330
3DEFF
100
AcDbEntity
  8
0
 48
30.0
100
AcDbBlockBegin
  2
*D50
 70
     1
 10
0.0
 20
0.0
 30
0.0
  3
*D50
  1

  0
LINE
  5
3EB4A
330
3DEFF
100
AcDbEntity
  8
COTATION
 48
30.0
100
AcDbLine
 10
176259.9541600434
 20
-42692.74161895582
 30
0.0
 11
176051.3426630523
 21
-42692.74161895582
 31
0.0
  0
LINE
  5
3EB4B
330
3DEFF
100
AcDbEntity
  8
COTATION
 48
30.0
100
AcDbLine
 10
176259.9541600434
 20
-42157.74248297526
 30
0.0
 11
176051.3426630523
 21
-42157.74248297526
 31
0.0
  0
LINE
  5
3EB4C
330
3DEFF
100
AcDbEntity
  8
COTATION
 48
30.0
100
AcDbLine
 10
176061.3426630523
 20
-42642.74161895582
 30
0.0
 11
176061.3426630523
 21
-42470.78775355762
 31
0.0
  0
LINE
  5
3EB4D
330
3DEFF
100
AcDbEntity
  8
COTATION
 48
30.0
100
AcDbLine
 10
176061.3426630523
 20
-42207.74248297526
 30
0.0
 11
176061.3426630523
 21
-42379.69634837345
 31
0.0
  0
SOLID
  5
3EB4E
330
3DEFF
100
AcDbEntity
  8
COTATION
 48
30.0
100
AcDbTrace
 10
176053.0093297189
 20
-42642.74161895582
 30
0.0
 11
176069.6759963856
 21
-42642.74161895582
 31
0.0
 12
176061.3426630523
 22
-42692.74161895582
 32
0.0
 13
176061.3426630523
 23
-42692.74161895582
 33
0.0
  0
SOLID
  5
3EB4F
330
3DEFF
100
AcDbEntity
  8
COTATION
 48
30.0
100
AcDbTrace
 10
176053.0093297189
 20
-42207.74248297526
 30
0.0
 11
176069.6759963856
 21
-42207.74248297526
 31
0.0
 12
176061.3426630523
 22
-42157.74248297526
 32
0.0
 13
176061.3426630523
 23
-42157.74248297526
 33
0.0
  0
MTEXT
  5
3EB50
330
3DEFF
100
AcDbEntity
  8
COTATION
 62
     0
 48
30.0
100
AcDbMText
 10
176061.3426630523
 20
-42425.24205096551
 30
0.0
 40
50.0
 41
0.0
 46
0.0
 71
     5
 72
     1
  1
535
 73
     1
 44
1.0
  0
POINT
  5
3EB51
330
3DEFF
100
AcDbEntity
  8
Defpoints
 62
     0
 48
30.0
100
AcDbPoint
 10
176304.9541600434
 20
-42692.74161895582
 30
0.0
  0
POINT
  5
3EB52
330
3DEFF
100
AcDbEntity
  8
Defpoints
 62
     0
 48
30.0
100
AcDbPoint
 10
176304.9541600434
 20
-42157.74248297526
 30
0.0
  0
POINT
  5
3EB53
330
3DEFF
100
AcDbEntity
  8
Defpoints
 62
     0
 48
30.0
100
AcDbPoint
 10
176061.3426630523
 20
-42157.74248297526
 30
0.0
  0
ENDBLK
  5
3DF01
330
3DEFF
100
AcDbEntity
  8
0
 48
30.0
100
AcDbBlockEnd
  0
BLOCK
  5
3DF0D
330
3DF0C
100
AcDbEntity
  8
0
 48
30.0
100
AcDbBlockBegin
  2
*D51
 70
     1
 10
0.0
 20
0.0
 30
0.0
  3
*D51
  1

  0
LINE
  5
3EB54
330
3DF0C
100
AcDbEntity
  8
COTATION
 48
30.0
100
AcDbLine
 10
176259.9541600434
 20
-42692.74161895582
 30
0.0
 11
176183.7403676947
 21
-42692.74161895582
 31
0.0
  0
LINE
  5
3EB55
330
3DF0C
100
AcDbEntity
  8
COTATION
 48
30.0
100
AcDbLine
 10
176275.363520441
 20
-42262.74161895582
 30
0.0
 11
176183.7403676947
 21
-42262.74161895582
 31
0.0
  0
LINE
  5
3EB56
330
3DF0C
100
AcDbEntity
  8
COTATION
 48
30.0
100
AcDbLine
 10
176193.7403676947
 20
-42642.74161895582
 30
0.0
 11
176193.7403676947
 21
-42520.78732154791
 31
0.0
  0
LINE
  5
3EB57
330
3DF0C
100
AcDbEntity
  8
COTATION
 48
30.0
100
AcDbLine
 10
176193.7403676947
 20
-42312.74161895582
 30
0.0
 11
176193.7403676947
 21
-42429.69591636374
 31
0.0
  0
SOLID
  5
3EB58
330
3DF0C
100
AcDbEntity
  8
COTATION
 48
30.0
100
AcDbTrace
 10
176185.4070343614
 20
-42642.74161895582
 30
0.0
 11
176202.0737010281
 21
-42642.74161895582
 31
0.0
 12
176193.7403676947
 22
-42692.74161895582
 32
0.0
 13
176193.7403676947
 23
-42692.74161895582
 33
0.0
  0
SOLID
  5
3EB59
330
3DF0C
100
AcDbEntity
  8
COTATION
 48
30.0
100
AcDbTrace
 10
176185.4070343614
 20
-42312.74161895582
 30
0.0
 11
176202.0737010281
 21
-42312.74161895582
 31
0.0
 12
176193.7403676947
 22
-42262.74161895582
 32
0.0
 13
176193.7403676947
 23
-42262.74161895582
 33
0.0
  0
MTEXT
  5
3EB5A
330
3DF0C
100
AcDbEntity
  8
COTATION
 62
     0
 48
30.0
100
AcDbMText
 10
176193.7403676947
 20
-42475.24161895579
 30
0.0
 40
50.0
 41
0.0
 46
0.0
 71
     5
 72
     1
  1
430
 73
     1
 44
1.0
  0
POINT
  5
3EB5B
330
3DF0C
100
AcDbEntity
  8
Defpoints
 62
     0
 48
30.0
100
AcDbPoint
 10
176304.9541600434
 20
-42692.74161895582
 30
0.0
  0
POINT
  5
3EB5C
330
3DF0C
100
AcDbEntity
  8
Defpoints
 62
     0
 48
30.0
100
AcDbPoint
 10
176320.363520441
 20
-42262.74161895582
 30
0.0
  0
POINT
  5
3EB5D
330
3DF0C
100
AcDbEntity
  8
Defpoints
 62
     0
 48
30.0
100
AcDbPoint
 10
176193.7403676947
 20
-42262.74161895582
 30
0.0
  0
ENDBLK
  5
3DF0E
330
3DF0C
100
AcDbEntity
  8
0
 48
30.0
100
AcDbBlockEnd
  0
BLOCK
  5
3DF1A
330
3DF19
100
AcDbEntity
  8
0
 48
30.0
100
AcDbBlockBegin
  2
*D52
 70
     1
 10
0.0
 20
0.0
 30
0.0
  3
*D52
  1

  0
LINE
  5
3EB5E
330
3DF19
100
AcDbEntity
  8
COTATION
 48
30.0
100
AcDbLine
 10
176664.9162469597
 20
-42743.24879877661
 30
0.0
 11
176664.9162469597
 21
-42810.56524282065
 31
0.0
  0
LINE
  5
3EB5F
330
3DF19
100
AcDbEntity
  8
COTATION
 48
30.0
100
AcDbLine
 10
176304.9541600434
 20
-42737.74161895582
 30
0.0
 11
176304.9541600434
 21
-42810.56524282065
 31
0.0
  0
LINE
  5
3EB60
330
3DF19
100
AcDbEntity
  8
COTATION
 48
30.0
100
AcDbLine
 10
176614.9162469597
 20
-42800.56524282065
 30
0.0
 11
176354.9541600434
 21
-42800.56524282065
 31
0.0
  0
SOLID
  5
3EB61
330
3DF19
100
AcDbEntity
  8
COTATION
 48
30.0
100
AcDbTrace
 10
176614.9162469597
 20
-42792.23190948731
 30
0.0
 11
176614.9162469597
 21
-42808.89857615399
 31
0.0
 12
176664.9162469597
 22
-42800.56524282065
 32
0.0
 13
176664.9162469597
 23
-42800.56524282065
 33
0.0
  0
SOLID
  5
3EB62
330
3DF19
100
AcDbEntity
  8
COTATION
 48
30.0
100
AcDbTrace
 10
176354.9541600434
 20
-42792.23190948731
 30
0.0
 11
176354.9541600434
 21
-42808.89857615399
 31
0.0
 12
176304.9541600434
 22
-42800.56524282065
 32
0.0
 13
176304.9541600434
 23
-42800.56524282065
 33
0.0
  0
MTEXT
  5
3EB63
330
3DF19
100
AcDbEntity
  8
COTATION
 62
     0
 48
30.0
100
AcDbMText
 10
176484.9352035015
 20
-42755.01954022857
 30
0.0
 40
50.0
 41
0.0
 46
0.0
 71
     5
 72
     1
  1
360
 73
     1
 44
1.0
  0
POINT
  5
3EB64
330
3DF19
100
AcDbEntity
  8
Defpoints
 62
     0
 48
30.0
100
AcDbPoint
 10
176664.9162469597
 20
-42698.24879877661
 30
0.0
  0
POINT
  5
3EB65
330
3DF19
100
AcDbEntity
  8
Defpoints
 62
     0
 48
30.0
100
AcDbPoint
 10
176304.9541600434
 20
-42692.74161895582
 30
0.0
  0
POINT
  5
3EB66
330
3DF19
100
AcDbEntity
  8
Defpoints
 62
     0
 48
30.0
100
AcDbPoint
 10
176304.9541600434
 20
-42800.56524282065
 30
0.0
  0
ENDBLK
  5
3DF1B
330
3DF19
100
AcDbEntity
  8
0
 48
30.0
100
AcDbBlockEnd
  0
BLOCK
  5
3DF26
330
3DF25
100
AcDbEntity
  8
0
 48
30.0
100
AcDbBlockBegin
  2
*D53
 70
     1
 10
0.0
 20
0.0
 30
0.0
  3
*D53
  1

  0
LINE
  5
3EB67
330
3DF25
100
AcDbEntity
  8
COTATION
 48
30.0
100
AcDbLine
 10
176562.4541600434
 20
-42112.74161895582
 30
0.0
 11
176562.4541600434
 21
-42071.07161709212
 31
0.0
  0
LINE
  5
3EB68
330
3DF25
100
AcDbEntity
  8
COTATION
 48
30.0
100
AcDbLine
 10
176407.4541600434
 20
-42112.74161895582
 30
0.0
 11
176407.4541600434
 21
-42071.07161709212
 31
0.0
  0
LINE
  5
3EB69
330
3DF25
100
AcDbEntity
  8
COTATION
 48
30.0
100
AcDbLine
 10
176512.4541600434
 20
-42081.07161709212
 30
0.0
 11
176457.4541600434
 21
-42081.07161709212
 31
0.0
  0
SOLID
  5
3EB6A
330
3DF25
100
AcDbEntity
  8
COTATION
 48
30.0
100
AcDbTrace
 10
176512.4541600434
 20
-42072.73828375878
 30
0.0
 11
176512.4541600434
 21
-42089.40495042545
 31
0.0
 12
176562.4541600434
 22
-42081.07161709212
 32
0.0
 13
176562.4541600434
 23
-42081.07161709212
 33
0.0
  0
SOLID
  5
3EB6B
330
3DF25
100
AcDbEntity
  8
COTATION
 48
30.0
100
AcDbTrace
 10
176457.4541600434
 20
-42072.73828375878
 30
0.0
 11
176457.4541600434
 21
-42089.40495042545
 31
0.0
 12
176407.4541600434
 22
-42081.07161709212
 32
0.0
 13
176407.4541600434
 23
-42081.07161709212
 33
0.0
  0
MTEXT
  5
3EB6C
330
3DF25
100
AcDbEntity
  8
COTATION
 62
     0
 48
30.0
100
AcDbMText
 10
176484.9541600434
 20
-42035.54296770604
 30
0.0
 40
50.0
 41
0.0
 46
0.0
 71
     5
 72
     1
  1
155
 73
     1
 44
1.0
  0
POINT
  5
3EB6D
330
3DF25
100
AcDbEntity
  8
Defpoints
 62
     0
 48
30.0
100
AcDbPoint
 10
176562.4541600434
 20
-42157.74161895581
 30
0.0
  0
POINT
  5
3EB6E
330
3DF25
100
AcDbEntity
  8
Defpoints
 62
     0
 48
30.0
100
AcDbPoint
 10
176407.4541600434
 20
-42157.74161895581
 30
0.0
  0
POINT
  5
3EB6F
330
3DF25
100
AcDbEntity
  8
Defpoints
 62
     0
 48
30.0
100
AcDbPoint
 10
176407.4541600434
 20
-42081.07161709212
 30
0.0
  0
ENDBLK
  5
3DF27
330
3DF25
100
AcDbEntity
  8
0
 48
30.0
100
AcDbBlockEnd
  0
BLOCK
  5
3DF32
330
3DF31
100
AcDbEntity
  8
0
 48
30.0
100
AcDbBlockBegin
  2
*D54
 70
     1
 10
0.0
 20
0.0
 30
0.0
  3
*D54
  1

  0
LINE
  5
3EB70
330
3DF31
100
AcDbEntity
  8
COTATION
 48
30.0
100
AcDbLine
 10
176344.9541600434
 20
-42112.74161895582
 30
0.0
 11
176344.9541600434
 21
-41978.74180828558
 31
0.0
  0
LINE
  5
3EB71
330
3DF31
100
AcDbEntity
  8
COTATION
 48
30.0
100
AcDbLine
 10
176624.9541600434
 20
-42112.74161895582
 30
0.0
 11
176624.9541600434
 21
-41978.74180828558
 31
0.0
  0
LINE
  5
3EB72
330
3DF31
100
AcDbEntity
  8
COTATION
 48
30.0
100
AcDbLine
 10
176394.9541600434
 20
-41988.74180828559
 30
0.0
 11
176574.9541600434
 21
-41988.74180828559
 31
0.0
  0
SOLID
  5
3EB73
330
3DF31
100
AcDbEntity
  8
COTATION
 48
30.0
100
AcDbTrace
 10
176394.9541600434
 20
-41980.40847495225
 30
0.0
 11
176394.9541600434
 21
-41997.07514161892
 31
0.0
 12
176344.9541600434
 22
-41988.74180828559
 32
0.0
 13
176344.9541600434
 23
-41988.74180828559
 33
0.0
  0
SOLID
  5
3EB74
330
3DF31
100
AcDbEntity
  8
COTATION
 48
30.0
100
AcDbTrace
 10
176574.9541600434
 20
-41980.40847495225
 30
0.0
 11
176574.9541600434
 21
-41997.07514161892
 31
0.0
 12
176624.9541600434
 22
-41988.74180828559
 32
0.0
 13
176624.9541600434
 23
-41988.74180828559
 33
0.0
  0
MTEXT
  5
3EB75
330
3DF31
100
AcDbEntity
  8
COTATION
 62
     0
 48
30.0
100
AcDbMText
 10
176484.9541600434
 20
-41943.2131588995
 30
0.0
 40
50.0
 41
0.0
 46
0.0
 71
     5
 72
     1
  1
280
 73
     1
 44
1.0
  0
POINT
  5
3EB76
330
3DF31
100
AcDbEntity
  8
Defpoints
 62
     0
 48
30.0
100
AcDbPoint
 10
176344.9541600434
 20
-42157.74161895581
 30
0.0
  0
POINT
  5
3EB77
330
3DF31
100
AcDbEntity
  8
Defpoints
 62
     0
 48
30.0
100
AcDbPoint
 10
176624.9541600434
 20
-42157.74161895581
 30
0.0
  0
POINT
  5
3EB78
330
3DF31
100
AcDbEntity
  8
Defpoints
 62
     0
 48
30.0
100
AcDbPoint
 10
176624.9541600434
 20
-41988.74180828559
 30
0.0
  0
ENDBLK
  5
3DF33
330
3DF31
100
AcDbEntity
  8
0
 48
30.0
100
AcDbBlockEnd
  0
BLOCK
  5
3E25E
330
3E25D
100
AcDbEntity
  8
0
 48
30.0
100
AcDbBlockBegin
  2
*D55
 70
     1
 10
0.0
 20
0.0
 30
0.0
  3
*D55
  1

  0
LINE
  5
3EB79
330
3E25D
100
AcDbEntity
  8
COTATION
 48
30.0
100
AcDbLine
 10
177178.916079661
 20
-42218.94963008987
 30
0.0
 11
177178.916079661
 21
-42155.93967895701
 31
0.0
  0
LINE
  5
3EB7A
330
3E25D
100
AcDbEntity
  8
COTATION
 48
30.0
100
AcDbLine
 10
177358.916079661
 20
-42218.94963008987
 30
0.0
 11
177358.916079661
 21
-42155.93967895701
 31
0.0
  0
LINE
  5
3EB7B
330
3E25D
100
AcDbEntity
  8
COTATION
 48
30.0
100
AcDbLine
 10
177228.916079661
 20
-42165.93967895701
 30
0.0
 11
177308.916079661
 21
-42165.93967895701
 31
0.0
  0
SOLID
  5
3EB7C
330
3E25D
100
AcDbEntity
  8
COTATION
 48
30.0
100
AcDbTrace
 10
177228.916079661
 20
-42157.60634562368
 30
0.0
 11
177228.916079661
 21
-42174.27301229035
 31
0.0
 12
177178.916079661
 22
-42165.93967895701
 32
0.0
 13
177178.916079661
 23
-42165.93967895701
 33
0.0
  0
SOLID
  5
3EB7D
330
3E25D
100
AcDbEntity
  8
COTATION
 48
30.0
100
AcDbTrace
 10
177308.916079661
 20
-42157.60634562368
 30
0.0
 11
177308.916079661
 21
-42174.27301229035
 31
0.0
 12
177358.916079661
 22
-42165.93967895701
 32
0.0
 13
177358.916079661
 23
-42165.93967895701
 33
0.0
  0
MTEXT
  5
3EB7E
330
3E25D
100
AcDbEntity
  8
COTATION
 62
     0
 48
30.0
100
AcDbMText
 10
177268.916079661
 20
-42120.41102957093
 30
0.0
 40
50.0
 41
0.0
 46
0.0
 71
     5
 72
     1
  1
180
 73
     1
 44
1.0
  0
POINT
  5
3EB7F
330
3E25D
100
AcDbEntity
  8
Defpoints
 62
     0
 48
30.0
100
AcDbPoint
 10
177178.916079661
 20
-42263.94963008988
 30
0.0
  0
POINT
  5
3EB80
330
3E25D
100
AcDbEntity
  8
Defpoints
 62
     0
 48
30.0
100
AcDbPoint
 10
177358.916079661
 20
-42263.94963008988
 30
0.0
  0
POINT
  5
3EB81
330
3E25D
100
AcDbEntity
  8
Defpoints
 62
     0
 48
30.0
100
AcDbPoint
 10
177358.916079661
 20
-42165.93967895701
 30
0.0
  0
ENDBLK
  5
3E25F
330
3E25D
100
AcDbEntity
  8
0
 48
30.0
100
AcDbBlockEnd
  0
BLOCK
  5
3E26C
330
3E26B
100
AcDbEntity
  8
0
 48
30.0
100
AcDbBlockBegin
  2
*D56
 70
     1
 10
0.0
 20
0.0
 30
0.0
  3
*D56
  1

  0
LINE
  5
3EB82
330
3E26B
100
AcDbEntity
  8
COTATION
 48
30.0
100
AcDbLine
 10
177076.3266194269
 20
-42339.86983336894
 30
0.0
 11
176996.5074046274
 21
-42339.86983336894
 31
0.0
  0
LINE
  5
3EB83
330
3E26B
100
AcDbEntity
  8
COTATION
 48
30.0
100
AcDbLine
 10
177030.0481923575
 20
-42655.24161895583
 30
0.0
 11
176996.5074046274
 21
-42655.24161895583
 31
0.0
  0
LINE
  5
3EB84
330
3E26B
100
AcDbEntity
  8
COTATION
 48
30.0
100
AcDbLine
 10
177006.5074046273
 20
-42389.86983336894
 30
0.0
 11
177006.5074046273
 21
-42437.01002357029
 31
0.0
  0
LINE
  5
3EB85
330
3E26B
100
AcDbEntity
  8
COTATION
 48
30.0
100
AcDbLine
 10
177006.5074046273
 20
-42605.24161895583
 30
0.0
 11
177006.5074046273
 21
-42558.10142875446
 31
0.0
  0
SOLID
  5
3EB86
330
3E26B
100
AcDbEntity
  8
COTATION
 48
30.0
100
AcDbTrace
 10
176998.174071294
 20
-42389.86983336894
 30
0.0
 11
177014.8407379607
 21
-42389.86983336894
 31
0.0
 12
177006.5074046273
 22
-42339.86983336894
 32
0.0
 13
177006.5074046273
 23
-42339.86983336894
 33
0.0
  0
SOLID
  5
3EB87
330
3E26B
100
AcDbEntity
  8
COTATION
 48
30.0
100
AcDbTrace
 10
176998.174071294
 20
-42605.24161895583
 30
0.0
 11
177014.8407379607
 21
-42605.24161895583
 31
0.0
 12
177006.5074046273
 22
-42655.24161895583
 32
0.0
 13
177006.5074046273
 23
-42655.24161895583
 33
0.0
  0
MTEXT
  5
3EB88
330
3E26B
100
AcDbEntity
  8
COTATION
 62
     0
 48
30.0
100
AcDbMText
 10
177006.5074046273
 20
-42497.55572616235
 30
0.0
 40
50.0
 41
0.0
 46
0.0
 71
     5
 72
     1
  1
315
 73
     1
 44
1.0
  0
POINT
  5
3EB89
330
3E26B
100
AcDbEntity
  8
Defpoints
 62
     0
 48
30.0
100
AcDbPoint
 10
177121.3266194269
 20
-42339.86983336894
 30
0.0
  0
POINT
  5
3EB8A
330
3E26B
100
AcDbEntity
  8
Defpoints
 62
     0
 48
30.0
100
AcDbPoint
 10
177075.0481923575
 20
-42655.24161895583
 30
0.0
  0
POINT
  5
3EB8B
330
3E26B
100
AcDbEntity
  8
Defpoints
 62
     0
 48
30.0
100
AcDbPoint
 10
177006.5074046273
 20
-42655.24161895583
 30
0.0
  0
ENDBLK
  5
3E26D
330
3E26B
100
AcDbEntity
  8
0
 48
30.0
100
AcDbBlockEnd
  0
BLOCK
  5
3E27A
330
3E279
100
AcDbEntity
  8
0
 48
30.0
100
AcDbBlockBegin
  2
*D57
 70
     1
 10
0.0
 20
0.0
 30
0.0
  3
*D57
  1

  0
LINE
  5
3EB8C
330
3E279
100
AcDbEntity
  8
COTATION
 48
30.0
100
AcDbLine
 10
177423.4672141582
 20
-42440.24161895581
 30
0.0
 11
177492.6850136086
 21
-42440.24161895581
 31
0.0
  0
LINE
  5
3EB8D
330
3E279
100
AcDbEntity
  8
COTATION
 48
30.0
100
AcDbLine
 10
177509.64802135
 20
-42655.24161895581
 30
0.0
 11
177492.6850136086
 21
-42655.24161895581
 31
0.0
  0
LINE
  5
3EB8E
330
3E279
100
AcDbEntity
  8
COTATION
 48
30.0
100
AcDbLine
 10
177482.6850136086
 20
-42490.24161895582
 30
0.0
 11
177482.6850136086
 21
-42502.21296956976
 31
0.0
  0
LINE
  5
3EB8F
330
3E279
100
AcDbEntity
  8
COTATION
 48
30.0
100
AcDbLine
 10
177482.6850136086
 20
-42605.24161895581
 30
0.0
 11
177482.6850136086
 21
-42593.27026834192
 31
0.0
  0
SOLID
  5
3EB90
330
3E279
100
AcDbEntity
  8
COTATION
 48
30.0
100
AcDbTrace
 10
177474.3516802753
 20
-42490.24161895582
 30
0.0
 11
177491.018346942
 21
-42490.24161895582
 31
0.0
 12
177482.6850136086
 22
-42440.24161895581
 32
0.0
 13
177482.6850136086
 23
-42440.24161895581
 33
0.0
  0
SOLID
  5
3EB91
330
3E279
100
AcDbEntity
  8
COTATION
 48
30.0
100
AcDbTrace
 10
177474.3516802753
 20
-42605.24161895581
 30
0.0
 11
177491.018346942
 21
-42605.24161895581
 31
0.0
 12
177482.6850136086
 22
-42655.24161895581
 32
0.0
 13
177482.6850136086
 23
-42655.24161895581
 33
0.0
  0
MTEXT
  5
3EB92
330
3E279
100
AcDbEntity
  8
COTATION
 62
     0
 48
30.0
100
AcDbMText
 10
177482.6850136086
 20
-42547.74161895581
 30
0.0
 40
50.0
 41
0.0
 46
0.0
 71
     5
 72
     1
  1
215
 73
     1
 44
1.0
  0
POINT
  5
3EB93
330
3E279
100
AcDbEntity
  8
Defpoints
 62
     0
 48
30.0
100
AcDbPoint
 10
177378.4672141582
 20
-42440.24161895581
 30
0.0
  0
POINT
  5
3EB94
330
3E279
100
AcDbEntity
  8
Defpoints
 62
     0
 48
30.0
100
AcDbPoint
 10
177464.64802135
 20
-42655.24161895581
 30
0.0
  0
POINT
  5
3EB95
330
3E279
100
AcDbEntity
  8
Defpoints
 62
     0
 48
30.0
100
AcDbPoint
 10
177482.6850136086
 20
-42655.24161895581
 30
0.0
  0
ENDBLK
  5
3E27B
330
3E279
100
AcDbEntity
  8
0
 48
30.0
100
AcDbBlockEnd
  0
BLOCK
  5
3E289
330
3E288
100
AcDbEntity
  8
0
 48
30.0
100
AcDbBlockBegin
  2
*D58
 70
     1
 10
0.0
 20
0.0
 30
0.0
  3
*D58
  1

  0
LINE
  5
3EB96
330
3E288
100
AcDbEntity
  8
COTATION
 48
30.0
100
AcDbLine
 10
177467.6644339068
 20
-42305.24161895582
 30
0.0
 11
177631.4160796609
 21
-42305.24161895582
 31
0.0
  0
LINE
  5
3EB97
330
3E288
100
AcDbEntity
  8
COTATION
 48
30.0
100
AcDbLine
 10
177576.4160796609
 20
-42655.2416189558
 30
0.0
 11
177611.4160796609
 21
-42655.2416189558
 31
0.0
  0
LINE
  5
3EB98
330
3E288
100
AcDbEntity
  8
COTATION
 48
30.0
100
AcDbLine
 10
177621.4160796609
 20
-42355.24161895582
 30
0.0
 11
177621.4160796609
 21
-42419.69591636372
 31
0.0
  0
LINE
  5
3EB99
330
3E288
100
AcDbEntity
  8
COTATION
 48
30.0
100
AcDbLine
 10
177621.4160796609
 20
-42605.2416189558
 30
0.0
 11
177621.4160796609
 21
-42540.78732154789
 31
0.0
  0
SOLID
  5
3EB9A
330
3E288
100
AcDbEntity
  8
COTATION
 48
30.0
100
AcDbTrace
 10
177613.0827463276
 20
-42355.24161895582
 30
0.0
 11
177629.7494129943
 21
-42355.24161895582
 31
0.0
 12
177621.4160796609
 22
-42305.24161895582
 32
0.0
 13
177621.4160796609
 23
-42305.24161895582
 33
0.0
  0
SOLID
  5
3EB9B
330
3E288
100
AcDbEntity
  8
COTATION
 48
30.0
100
AcDbTrace
 10
177613.0827463276
 20
-42605.2416189558
 30
0.0
 11
177629.7494129943
 21
-42605.2416189558
 31
0.0
 12
177621.4160796609
 22
-42655.2416189558
 32
0.0
 13
177621.4160796609
 23
-42655.2416189558
 33
0.0
  0
MTEXT
  5
3EB9C
330
3E288
100
AcDbEntity
  8
COTATION
 62
     0
 48
30.0
100
AcDbMText
 10
177621.4160796609
 20
-42480.24161895578
 30
0.0
 40
50.0
 41
0.0
 46
0.0
 71
     5
 72
     1
  1
350
 73
     1
 44
1.0
  0
POINT
  5
3EB9D
330
3E288
100
AcDbEntity
  8
Defpoints
 62
     0
 48
30.0
100
AcDbPoint
 10
177422.6644339068
 20
-42305.24161895582
 30
0.0
  0
POINT
  5
3EB9E
330
3E288
100
AcDbEntity
  8
Defpoints
 62
     0
 48
30.0
100
AcDbPoint
 10
177621.4160796609
 20
-42655.2416189558
 30
0.0
  0
POINT
  5
3EB9F
330
3E288
100
AcDbEntity
  8
Defpoints
 62
     0
 48
30.0
100
AcDbPoint
 10
177621.4160796609
 20
-42655.2416189558
 30
0.0
  0
ENDBLK
  5
3E28A
330
3E288
100
AcDbEntity
  8
0
 48
30.0
100
AcDbBlockEnd
  0
BLOCK
  5
3E5F2
330
3E5F1
100
AcDbEntity
  8
0
 48
30.0
100
AcDbBlockBegin
  2
*D59
 70
     1
 10
0.0
 20
0.0
 30
0.0
  3
*D59
  1

  0
LINE
  5
3EBA0
330
3E5F1
100
AcDbEntity
  8
COTATION
100
AcDbLine
 10
177968.8331366483
 20
-42389.237514766
 30
0.0
 11
177868.32226595
 21
-42389.237514766
 31
0.0
  0
LINE
  5
3EBA1
330
3E5F1
100
AcDbEntity
  8
COTATION
100
AcDbLine
 10
177968.8331366483
 20
-42491.237514766
 30
0.0
 11
177868.32226595
 21
-42491.237514766
 31
0.0
  0
LINE
  5
3EBA2
330
3E5F1
100
AcDbEntity
  8
COTATION
100
AcDbLine
 10
177878.3222659501
 20
-42339.237514766
 30
0.0
 11
177878.3222659501
 21
-42289.237514766
 31
0.0
  0
LINE
  5
3EBA3
330
3E5F1
100
AcDbEntity
  8
COTATION
100
AcDbLine
 10
177878.3222659501
 20
-42541.237514766
 30
0.0
 11
177878.3222659501
 21
-42591.237514766
 31
0.0
  0
SOLID
  5
3EBA4
330
3E5F1
100
AcDbEntity
  8
COTATION
100
AcDbTrace
 10
177869.9889326167
 20
-42339.237514766
 30
0.0
 11
177886.6555992834
 21
-42339.237514766
 31
0.0
 12
177878.3222659501
 22
-42389.237514766
 32
0.0
 13
177878.3222659501
 23
-42389.237514766
 33
0.0
  0
SOLID
  5
3EBA5
330
3E5F1
100
AcDbEntity
  8
COTATION
100
AcDbTrace
 10
177869.9889326167
 20
-42541.237514766
 30
0.0
 11
177886.6555992834
 21
-42541.237514766
 31
0.0
 12
177878.3222659501
 22
-42491.237514766
 32
0.0
 13
177878.3222659501
 23
-42491.237514766
 33
0.0
  0
MTEXT
  5
3EBA6
330
3E5F1
100
AcDbEntity
  8
COTATION
 62
     0
100
AcDbMText
 10
177878.3222659501
 20
-42440.23751476597
 30
0.0
 40
50.0
 41
0.0
 46
0.0
 71
     5
 72
     1
  1
%%c102
 73
     1
 44
1.0
  0
POINT
  5
3EBA7
330
3E5F1
100
AcDbEntity
  8
Defpoints
 62
     0
100
AcDbPoint
 10
178013.8331366483
 20
-42389.237514766
 30
0.0
  0
POINT
  5
3EBA8
330
3E5F1
100
AcDbEntity
  8
Defpoints
 62
     0
100
AcDbPoint
 10
178013.8331366483
 20
-42491.237514766
 30
0.0
  0
POINT
  5
3EBA9
330
3E5F1
100
AcDbEntity
  8
Defpoints
 62
     0
100
AcDbPoint
 10
177878.3222659501
 20
-42491.237514766
 30
0.0
  0
ENDBLK
  5
3E5F3
330
3E5F1
100
AcDbEntity
  8
0
 48
30.0
100
AcDbBlockEnd
  0
BLOCK
  5
3E615
330
3E614
100
AcDbEntity
  8
0
 48
30.0
100
AcDbBlockBegin
  2
*D60
 70
     1
 10
0.0
 20
0.0
 30
0.0
  3
*D60
  1

  0
LINE
  5
3EBAA
330
3E614
100
AcDbEntity
  8
COTATION
100
AcDbLine
 10
178055.7947035262
 20
-42277.27449810746
 30
0.0
 11
177989.4181688699
 21
-42277.27449810746
 31
0.0
  0
LINE
  5
3EBAB
330
3E614
100
AcDbEntity
  8
COTATION
100
AcDbLine
 10
178055.7947035262
 20
-42333.20053142454
 30
0.0
 11
177989.4181688699
 21
-42333.20053142454
 31
0.0
  0
LINE
  5
3EBAC
330
3E614
100
AcDbEntity
  8
COTATION
100
AcDbLine
 10
177999.4181688699
 20
-42227.27449810746
 30
0.0
 11
177999.4181688699
 21
-42177.27449810746
 31
0.0
  0
LINE
  5
3EBAD
330
3E614
100
AcDbEntity
  8
COTATION
100
AcDbLine
 10
177999.4181688699
 20
-42383.20053142454
 30
0.0
 11
177999.4181688699
 21
-42433.20053142454
 31
0.0
  0
SOLID
  5
3EBAE
330
3E614
100
AcDbEntity
  8
COTATION
100
AcDbTrace
 10
177991.0848355365
 20
-42227.27449810746
 30
0.0
 11
178007.7515022032
 21
-42227.27449810746
 31
0.0
 12
177999.4181688699
 22
-42277.27449810746
 32
0.0
 13
177999.4181688699
 23
-42277.27449810746
 33
0.0
  0
SOLID
  5
3EBAF
330
3E614
100
AcDbEntity
  8
COTATION
100
AcDbTrace
 10
177991.0848355365
 20
-42383.20053142454
 30
0.0
 11
178007.7515022032
 21
-42383.20053142454
 31
0.0
 12
177999.4181688699
 22
-42333.20053142454
 32
0.0
 13
177999.4181688699
 23
-42333.20053142454
 33
0.0
  0
MTEXT
  5
3EBB0
330
3E614
100
AcDbEntity
  8
COTATION
 62
     0
100
AcDbMText
 10
177999.4181688699
 20
-42305.23751476598
 30
0.0
 40
50.0
 41
0.0
 46
0.0
 71
     5
 72
     1
  1
%%c55
 73
     1
 44
1.0
  0
POINT
  5
3EBB1
330
3E614
100
AcDbEntity
  8
Defpoints
 62
     0
100
AcDbPoint
 10
178100.7947035262
 20
-42277.27449810746
 30
0.0
  0
POINT
  5
3EBB2
330
3E614
100
AcDbEntity
  8
Defpoints
 62
     0
100
AcDbPoint
 10
178100.7947035262
 20
-42333.20053142454
 30
0.0
  0
POINT
  5
3EBB3
330
3E614
100
AcDbEntity
  8
Defpoints
 62
     0
100
AcDbPoint
 10
177999.4181688699
 20
-42333.20053142454
 30
0.0
  0
ENDBLK
  5
3E616
330
3E614
100
AcDbEntity
  8
0
 48
30.0
100
AcDbBlockEnd
  0
BLOCK
  5
3E7FE
330
3E7FD
100
AcDbEntity
  8
0
 48
30.0
100
AcDbBlockBegin
  2
*D61
 70
     1
 10
0.0
 20
0.0
 30
0.0
  3
*D61
  1

  0
LINE
  5
3EBB4
330
3E7FD
100
AcDbEntity
  8
COTATION
 48
30.0
100
AcDbLine
 10
178042.8325200549
 20
-42610.23755960915
 30
0.0
 11
177990.5473383579
 21
-42610.23755960915
 31
0.0
  0
LINE
  5
3EBB5
330
3E7FD
100
AcDbEntity
  8
COTATION
 48
30.0
100
AcDbLine
 10
178042.832421668
 20
-42655.2416256309
 30
0.0
 11
177990.5473383579
 21
-42655.2416256309
 31
0.0
  0
LINE
  5
3EBB6
330
3E7FD
100
AcDbEntity
  8
COTATION
 48
30.0
100
AcDbLine
 10
178000.5473383579
 20
-42560.23755960915
 30
0.0
 11
178000.5473383579
 21
-42510.23755960916
 31
0.0
  0
LINE
  5
3EBB7
330
3E7FD
100
AcDbEntity
  8
COTATION
 48
30.0
100
AcDbLine
 10
178000.5473383579
 20
-42705.2416256309
 30
0.0
 11
178000.5473383579
 21
-42755.24162563089
 31
0.0
  0
MTEXT
  5
3EBB8
330
3E7FD
100
AcDbEntity
  8
COTATION
 62
     0
 48
30.0
100
AcDbMText
 10
177945.9463321364
 20
-42632.73959262
 30
0.0
 40
50.0
 41
0.0
 46
0.0
 71
     5
 72
     1
  1
45
 73
     1
 44
1.0
  0
SOLID
  5
3EBB9
330
3E7FD
100
AcDbEntity
  8
COTATION
 48
30.0
100
AcDbTrace
 10
177992.2140050246
 20
-42560.23755960915
 30
0.0
 11
178008.8806716912
 21
-42560.23755960915
 31
0.0
 12
178000.5473383579
 22
-42610.23755960915
 32
0.0
 13
178000.5473383579
 23
-42610.23755960915
 33
0.0
  0
SOLID
  5
3EBBA
330
3E7FD
100
AcDbEntity
  8
COTATION
 48
30.0
100
AcDbTrace
 10
177992.2140050246
 20
-42705.2416256309
 30
0.0
 11
178008.8806716912
 21
-42705.2416256309
 31
0.0
 12
178000.5473383579
 22
-42655.2416256309
 32
0.0
 13
178000.5473383579
 23
-42655.2416256309
 33
0.0
  0
POINT
  5
3EBBB
330
3E7FD
100
AcDbEntity
  8
Defpoints
 62
     0
 48
30.0
100
AcDbPoint
 10
178087.832520055
 20
-42610.23755960915
 30
0.0
  0
POINT
  5
3EBBC
330
3E7FD
100
AcDbEntity
  8
Defpoints
 62
     0
 48
30.0
100
AcDbPoint
 10
178087.832421668
 20
-42655.2416256309
 30
0.0
  0
POINT
  5
3EBBD
330
3E7FD
100
AcDbEntity
  8
Defpoints
 62
     0
 48
30.0
100
AcDbPoint
 10
178000.5473383579
 20
-42655.2416256309
 30
0.0
  0
ENDBLK
  5
3E7FF
330
3E7FD
100
AcDbEntity
  8
0
 48
30.0
100
AcDbBlockEnd
  0
BLOCK
  5
3E866
330
3E865
100
AcDbEntity
  8
0
 48
30.0
100
AcDbBlockBegin
  2
*D62
 70
     1
 10
0.0
 20
0.0
 30
0.0
  3
*D62
  1

  0
LINE
  5
3EBBE
330
3E865
100
AcDbEntity
  8
COTATION
 48
30.0
100
AcDbLine
 10
178706.4608065645
 20
-42245.24907838338
 30
0.0
 11
178859.1730192345
 21
-42245.24907838338
 31
0.0
  0
LINE
  5
3EBBF
330
3E865
100
AcDbEntity
  8
COTATION
 48
30.0
100
AcDbLine
 10
178790.5401154497
 20
-42655.2416067495
 30
0.0
 11
178859.1730192345
 21
-42655.2416067495
 31
0.0
  0
LINE
  5
3EBC0
330
3E865
100
AcDbEntity
  8
COTATION
 48
30.0
100
AcDbLine
 10
178849.1730192345
 20
-42295.24907838338
 30
0.0
 11
178849.1730192345
 21
-42389.71669250768
 31
0.0
  0
LINE
  5
3EBC1
330
3E865
100
AcDbEntity
  8
COTATION
 48
30.0
100
AcDbLine
 10
178849.1730192345
 20
-42605.2416067495
 30
0.0
 11
178849.1730192345
 21
-42510.77399127986
 31
0.0
  0
SOLID
  5
3EBC2
330
3E865
100
AcDbEntity
  8
COTATION
 48
30.0
100
AcDbTrace
 10
178840.8396859011
 20
-42295.24907838338
 30
0.0
 11
178857.5063525678
 21
-42295.24907838338
 31
0.0
 12
178849.1730192345
 22
-42245.24907838338
 32
0.0
 13
178849.1730192345
 23
-42245.24907838338
 33
0.0
  0
SOLID
  5
3EBC3
330
3E865
100
AcDbEntity
  8
COTATION
 48
30.0
100
AcDbTrace
 10
178840.8396859011
 20
-42605.2416067495
 30
0.0
 11
178857.5063525678
 21
-42605.2416067495
 31
0.0
 12
178849.1730192345
 22
-42655.2416067495
 32
0.0
 13
178849.1730192345
 23
-42655.2416067495
 33
0.0
  0
MTEXT
  5
3EBC4
330
3E865
100
AcDbEntity
  8
COTATION
 62
     0
 48
30.0
100
AcDbMText
 10
178849.1730192345
 20
-42450.24534189375
 30
0.0
 40
50.0
 41
0.0
 46
0.0
 71
     5
 72
     1
  1
410
 73
     1
 44
1.0
  0
POINT
  5
3EBC5
330
3E865
100
AcDbEntity
  8
Defpoints
 62
     0
 48
30.0
100
AcDbPoint
 10
178661.4608065646
 20
-42245.24907838338
 30
0.0
  0
POINT
  5
3EBC6
330
3E865
100
AcDbEntity
  8
Defpoints
 62
     0
 48
30.0
100
AcDbPoint
 10
178745.5401154497
 20
-42655.2416067495
 30
0.0
  0
POINT
  5
3EBC7
330
3E865
100
AcDbEntity
  8
Defpoints
 62
     0
 48
30.0
100
AcDbPoint
 10
178849.1730192345
 20
-42655.2416067495
 30
0.0
  0
ENDBLK
  5
3E867
330
3E865
100
AcDbEntity
  8
0
 48
30.0
100
AcDbBlockEnd
  0
BLOCK
  5
3E874
330
3E873
100
AcDbEntity
  8
0
 48
30.0
100
AcDbBlockBegin
  2
*D63
 70
     1
 10
0.0
 20
0.0
 30
0.0
  3
*D63
  1

  0
LINE
  5
3EC65
330
3E873
100
AcDbEntity
  8
COTATION
 48
30.0
100
AcDbLine
 10
178611.0572024156
 20
-42600.54132417226
 30
0.0
 11
178714.7866030554
 21
-42600.54132417226
 31
0.0
  0
LINE
  5
3EC66
330
3E873
100
AcDbEntity
  8
COTATION
 48
30.0
100
AcDbLine
 10
178659.7866030555
 20
-42655.24161921418
 30
0.0
 11
178694.7866030554
 21
-42655.24161921418
 31
0.0
  0
LINE
  5
3EC67
330
3E873
100
AcDbEntity
  8
COTATION
 48
30.0
100
AcDbLine
 10
178704.7866030555
 20
-42550.54132417226
 30
0.0
 11
178704.7866030555
 21
-42500.54132417226
 31
0.0
  0
LINE
  5
3EC68
330
3E873
100
AcDbEntity
  8
COTATION
 48
30.0
100
AcDbLine
 10
178704.7866030555
 20
-42705.24161921418
 30
0.0
 11
178704.7866030555
 21
-42755.24161921418
 31
0.0
  0
MTEXT
  5
3EC69
330
3E873
100
AcDbEntity
  8
COTATION
 62
     0
 48
30.0
100
AcDbMText
 10
178761.5087780965
 20
-42627.8914716932
 30
0.0
 40
50.0
 41
0.0
 46
0.0
 71
     5
 72
     1
  1
55
 73
     1
 44
1.0
  0
SOLID
  5
3EC6A
330
3E873
100
AcDbEntity
  8
COTATION
 48
30.0
100
AcDbTrace
 10
178696.4532697221
 20
-42550.54132417226
 30
0.0
 11
178713.1199363888
 21
-42550.54132417226
 31
0.0
 12
178704.7866030555
 22
-42600.54132417226
 32
0.0
 13
178704.7866030555
 23
-42600.54132417226
 33
0.0
  0
SOLID
  5
3EC6B
330
3E873
100
AcDbEntity
  8
COTATION
 48
30.0
100
AcDbTrace
 10
178696.4532697221
 20
-42705.24161921418
 30
0.0
 11
178713.1199363888
 21
-42705.24161921418
 31
0.0
 12
178704.7866030555
 22
-42655.24161921418
 32
0.0
 13
178704.7866030555
 23
-42655.24161921418
 33
0.0
  0
POINT
  5
3EC6C
330
3E873
100
AcDbEntity
  8
Defpoints
 62
     0
 48
30.0
100
AcDbPoint
 10
178566.0572024156
 20
-42600.54132417226
 30
0.0
  0
POINT
  5
3EC6D
330
3E873
100
AcDbEntity
  8
Defpoints
 62
     0
 48
30.0
100
AcDbPoint
 10
178704.7866030555
 20
-42655.24161921418
 30
0.0
  0
POINT
  5
3EC6E
330
3E873
100
AcDbEntity
  8
Defpoints
 62
     0
 48
30.0
100
AcDbPoint
 10
178704.7866030555
 20
-42655.24161921418
 30
0.0
  0
ENDBLK
  5
3E875
330
3E873
100
AcDbEntity
  8
0
 48
30.0
100
AcDbBlockEnd
  0
ENDSEC
  0
SECTION
  2
ENTITIES
  0
MTEXT
  5
681
330
1F
100
AcDbEntity
  8
0
100
AcDbMText
 10
561.0024225737434
 20
809.2258672307794
 30
0.0
 40
30.0
 41
1388.165
 46
0.0
 71
     1
 72
     5
  1

  7
CARTOUCHE
 73
     1
 44
1.0
  0
MTEXT
  5
2CE81
330
1F
100
AcDbEntity
  8
AXES
 48
60.0
100
AcDbMText
 10
137145.267659208
 20
-26299.88381377913
 30
0.0
 40
50.0
 41
0.0
 46
0.0
 71
     9
 72
     1
  1

 73
     1
 44
1.0
  0
LINE
  5
3D7A9
330
1F
100
AcDbEntity
  8
CONTOURS
 48
30.0
100
AcDbLine
 10
176620.4445189546
 20
-42157.74161895581
 30
0.0
 11
176484.9541600434
 21
-42157.74161895581
 31
0.0
  0
CIRCLE
  5
3D7AC
330
1F
100
AcDbEntity
  8
TRAITS INTERIEURS FIN
 48
30.0
100
AcDbCircle
 10
176562.4541600434
 20
-42262.74161895582
 30
0.0
 40
7.5
  0
ARC
  5
3D7AD
330
1F
100
AcDbEntity
  8
CONTOURS
 48
30.0
100
AcDbCircle
 10
175665.0110296689
 20
-42437.93652691624
 30
0.0
 40
1000.0
100
AcDbArc
 50
0.7888703250070014
 51
16.01267548649878
  0
ARC
  5
3D7AF
330
1F
100
AcDbEntity
  8
CONTOURS
 48
30.0
100
AcDbCircle
 10
176484.9541600434
 20
-42550.74161895581
 30
0.0
 40
142.0
100
AcDbArc
 50
270.0
 51
310.8788320765616
  0
ARC
  5
3D7B0
330
1F
100
AcDbEntity
  8
CONTOURS
 48
30.0
100
AcDbCircle
 10
176264.9541600434
 20
-42429.67575718604
 30
0.0
 40
400.0
100
AcDbArc
 50
339.821450547986
 51
0.7888703250070014
  0
ARC
  5
3D7B1
330
1F
100
AcDbEntity
  8
CONTOURS
 48
30.0
100
AcDbCircle
 10
176433.9061615604
 20
-42491.76618465567
 30
0.0
 40
220.0
100
AcDbArc
 50
310.8788320765616
 51
339.821450547986
  0
ARC
  5
3D7B2
330
1F
100
AcDbEntity
  8
TRAITS INTERIEURS FIN
 48
30.0
100
AcDbCircle
 10
176484.9541600434
 20
-42550.74161895581
 30
0.0
 40
102.0
100
AcDbArc
 50
270.0
 51
310.8788320765616
  0
ARC
  5
3D7B4
330
1F
100
AcDbEntity
  8
TRAITS INTERIEURS FIN
 48
30.0
100
AcDbCircle
 10
176484.9541600434
 20
-42550.74161895581
 30
0.0
 40
86.0
100
AcDbArc
 50
270.0
 51
310.8788320765616
  0
ARC
  5
3D7B5
330
1F
100
AcDbEntity
  8
TRAITS INTERIEURS FIN
 48
30.0
100
AcDbCircle
 10
176433.9061615604
 20
-42491.76618465567
 30
0.0
 40
180.0
100
AcDbArc
 50
310.8788320765616
 51
339.6699744068937
  0
ARC
  5
3D7B7
330
1F
100
AcDbEntity
  8
TRAITS INTERIEURS FIN
 48
30.0
100
AcDbCircle
 10
176433.9061615604
 20
-42491.76618465567
 30
0.0
 40
164.0
100
AcDbArc
 50
310.8788320765616
 51
339.6699744068937
  0
LINE
  5
3D7B8
330
1F
100
AcDbEntity
  8
TRAITS INTERIEURS FIN
 48
30.0
100
AcDbLine
 10
176529.9541600434
 20
-42368.78746969246
 30
0.0
 11
176529.0223479674
 21
-42422.17094777124
 31
0.0
  0
ARC
  5
3D7B9
330
1F
100
AcDbEntity
  8
TRAITS INTERIEURS FIN
 48
30.0
100
AcDbCircle
 10
176484.9541600434
 20
-42478.3319811935
 30
0.0
 40
125.0
100
AcDbArc
 50
72.2810681268641
 51
90.0
  0
ARC
  5
3D7BA
330
1F
100
AcDbEntity
  8
TRAITS INTERIEURS FIN
 48
30.0
100
AcDbCircle
 10
176519.9541600434
 20
-42368.78746969246
 30
0.0
 40
10.0
100
AcDbArc
 50
0.0
 51
72.2810681268641
  0
LINE
  5
3D848
330
1F
100
AcDbEntity
  8
CONTOURS
 48
30.0
100
AcDbLine
 10
176349.4638011321
 20
-42157.74161895581
 30
0.0
 11
176484.9541600434
 21
-42157.74161895581
 31
0.0
  0
CIRCLE
  5
3D84B
330
1F
100
AcDbEntity
  8
TRAITS INTERIEURS FIN
 48
30.0
100
AcDbCircle
 10
176407.4541600434
 20
-42262.74161895582
 30
0.0
 40
7.5
  0
ARC
  5
3D84D
330
1F
100
AcDbEntity
  8
CONTOURS
 48
30.0
100
AcDbCircle
 10
177304.8972904178
 20
-42437.93652691624
 30
0.0
 40
1000.0
100
AcDbArc
 50
163.9873245135012
 51
179.211129674993
  0
ARC
  5
3D84E
330
1F
100
AcDbEntity
  8
CONTOURS
 48
30.0
100
AcDbCircle
 10
176484.9541600434
 20
-42550.74161895581
 30
0.0
 40
142.0
100
AcDbArc
 50
229.1211679234384
 51
270.0
  0
ARC
  5
3D84F
330
1F
100
AcDbEntity
  8
CONTOURS
 48
30.0
100
AcDbCircle
 10
176704.9541600434
 20
-42429.67575718604
 30
0.0
 40
400.0
100
AcDbArc
 50
179.211129674993
 51
200.178549452014
  0
ARC
  5
3D850
330
1F
100
AcDbEntity
  8
CONTOURS
 48
30.0
100
AcDbCircle
 10
176536.0021585262
 20
-42491.76618465567
 30
0.0
 40
220.0
100
AcDbArc
 50
200.178549452014
 51
229.1211679234384
  0
LINE
  5
3D851
330
1F
100
AcDbEntity
  8
TRAITS INTERIEURS FIN
 48
30.0
100
AcDbLine
 10
176439.9541600434
 20
-42368.78746969246
 30
0.0
 11
176440.8859721194
 21
-42422.17094777124
 31
0.0
  0
ARC
  5
3D852
330
1F
100
AcDbEntity
  8
TRAITS INTERIEURS FIN
 48
30.0
100
AcDbCircle
 10
176484.9541600434
 20
-42478.3319811935
 30
0.0
 40
125.0
100
AcDbArc
 50
90.0
 51
107.7189318731359
  0
ARC
  5
3D853
330
1F
100
AcDbEntity
  8
TRAITS INTERIEURS FIN
 48
30.0
100
AcDbCircle
 10
176449.9541600434
 20
-42368.78746969246
 30
0.0
 40
10.0
100
AcDbArc
 50
107.7189318731359
 51
180.0
  0
LINE
  5
3D854
330
1F
100
AcDbEntity
  8
TRAITS INTERIEURS FIN
 48
30.0
100
AcDbLine
 10
176579.7532776757
 20
-42345.79688407553
 30
0.0
 11
176585.4863665109
 21
-42340.30817776263
 31
0.0
  0
ARC
  5
3D855
330
1F
100
AcDbEntity
  8
TRAITS INTERIEURS FIN
 48
30.0
100
AcDbCircle
 10
176585.3021106758
 20
-42337.86968729123
 30
0.0
 40
9.7050263854
100
AcDbArc
 50
222.6767200794001
 51
223.1363033168038
  0
SPLINE
  5
3D856
330
1F
100
AcDbEntity
  8
TRAITS INTERIEURS FIN
 48
30.0
100
AcDbSpline
210
0.0
220
0.0
230
1.0
 70
     8
 71
     3
 72
    19
 73
    15
 74
     0
 42
0.0000000001
 43
0.0000000001
 40
0.0
 40
0.0
 40
0.0
 40
0.0
 40
0.2969362564
 40
0.5363095333
 40
0.7094833628
 40
0.8269324255
 40
0.8698276085999999
 40
0.9045854666
 40
0.9328160575
 40
0.9554047148
 40
0.9727079521
 40
0.9849326151999999
 40
0.9925465738999999
 40
1.0
 40
1.0
 40
1.0
 40
1.0
 10
176578.2200695422
 20
-42344.50536589414
 30
0.0
 10
176578.3584978176
 20
-42344.65421010114
 30
0.0
 10
176578.6186914448
 20
-42344.91373927454
 30
0.0
 10
176578.9821394408
 20
-42345.23613043233
 30
0.0
 10
176579.2626754957
 20
-42345.46628880803
 30
0.0
 10
176579.4438314701
 20
-42345.60532899704
 30
0.0
 10
176579.5525254572
 20
-42345.68296689184
 30
0.0
 10
176579.612595417
 20
-42345.72352465043
 30
0.0
 10
176579.6623550593
 20
-42345.75454179773
 30
0.0
 10
176579.7029642712
 20
-42345.77730449774
 30
0.0
 10
176579.7358876048
 20
-42345.79195428822
 30
0.0
 10
176579.7595866336
 20
-42345.79936815064
 30
0.0
 10
176579.7808526134
 20
-42345.79772482462
 30
0.0
 10
176579.784190569
 20
-42345.78553828113
 30
0.0
 10
176579.7840316893
 20
-42345.78043856063
 30
0.0
  0
SPLINE
  5
3D857
330
1F
100
AcDbEntity
  8
TRAITS INTERIEURS FIN
 48
30.0
100
AcDbSpline
210
0.0
220
0.0
230
1.0
 70
     8
 71
     3
 72
     9
 73
     5
 74
     0
 42
0.0000000001
 43
0.0000000001
 40
0.0
 40
0.0
 40
0.0
 40
0.0
 40
0.4513890712000001
 40
1.0
 40
1.0
 40
1.0
 40
1.0
 10
176559.089319867
 20
-42348.28010947332
 30
0.0
 10
176559.4776063656
 20
-42348.05851574901
 30
0.0
 10
176560.3757364583
 20
-42347.63706945091
 30
0.0
 10
176561.2786828737
 20
-42347.23133358783
 30
0.0
 10
176561.7689436554
 20
-42346.99705997783
 30
0.0
  0
SPLINE
  5
3D858
330
1F
100
AcDbEntity
  8
TRAITS INTERIEURS FIN
 48
30.0
100
AcDbSpline
210
0.0
220
0.0
230
1.0
 70
     8
 71
     3
 72
    12
 73
     8
 74
     0
 42
0.0000000001
 43
0.0000000001
 40
0.0
 40
0.0
 40
0.0
 40
0.0
 40
0.2790184743
 40
0.5387995964
 40
0.7862757266
 40
0.899522772
 40
1.0
 40
1.0
 40
1.0
 40
1.0
 10
176554.2714304497
 20
-42347.77206423112
 30
0.0
 10
176554.6607507012
 20
-42348.03804680212
 30
0.0
 10
176555.4802809563
 20
-42348.46177753404
 30
0.0
 10
176556.7905558396
 20
-42348.75214135422
 30
0.0
 10
176557.85280945
 20
-42348.70799735874
 30
0.0
 10
176558.608839295
 20
-42348.50999852694
 30
0.0
 10
176558.9418513569
 20
-42348.36426922782
 30
0.0
 10
176559.089319867
 20
-42348.28010947332
 30
0.0
  0
SPLINE
  5
3D859
330
1F
100
AcDbEntity
  8
TRAITS INTERIEURS FIN
 48
30.0
100
AcDbSpline
210
0.0
220
0.0
230
1.0
 70
     8
 71
     3
 72
    17
 73
    13
 74
     0
 42
0.0000000001
 43
0.0000000001
 40
0.0
 40
0.0
 40
0.0
 40
0.0
 40
0.1257104083
 40
0.2519946324
 40
0.4595042825000001
 40
0.6158784443
 40
0.7346580390000001
 40
0.8240676966
 40
0.8898653344999999
 40
0.9454441285999999
 40
0.973715653
 40
1.0
 40
1.0
 40
1.0
 40
1.0
 10
176561.7689436596
 20
-42346.99706000333
 30
0.0
 10
176562.390299007
 20
-42346.70014218743
 30
0.0
 10
176563.6721262756
 20
-42346.18039805703
 30
0.0
 10
176566.0716886577
 20
-42345.41586065102
 30
0.0
 10
176568.6859173336
 20
-42344.78871794652
 30
0.0
 10
176571.2906615312
 20
-42344.32851983032
 30
0.0
 10
176573.2729813677
 20
-42344.07969144212
 30
0.0
 10
176574.7704152729
 20
-42343.96645670223
 30
0.0
 10
176575.9253180197
 20
-42343.94418710973
 30
0.0
 10
176576.7455939269
 20
-42343.98637199642
 30
0.0
 10
176577.3425183583
 20
-42344.07654875432
 30
0.0
 10
176577.6329308413
 20
-42344.15333077712
 30
0.0
 10
176577.7674062094
 20
-42344.20479839783
 30
0.0
  0
SPLINE
  5
3D85A
330
1F
100
AcDbEntity
  8
TRAITS INTERIEURS FIN
 48
30.0
100
AcDbSpline
210
0.0
220
0.0
230
1.0
 70
     8
 71
     3
 72
     8
 73
     4
 74
     0
 42
0.0000000001
 43
0.0000000001
 40
0.0
 40
0.0
 40
0.0
 40
0.0
 40
1.0
 40
1.0
 40
1.0
 40
1.0
 10
176577.7674062094
 20
-42344.20479839783
 30
0.0
 10
176577.8828587301
 20
-42344.24844586953
 30
0.0
 10
176577.9970336306
 20
-42344.30323791864
 30
0.0
 10
176578.0934724648
 20
-42344.38026997422
 30
0.0
  0
SPLINE
  5
3D85B
330
1F
100
AcDbEntity
  8
TRAITS INTERIEURS FIN
 48
30.0
100
AcDbSpline
210
0.0
220
0.0
230
1.0
 70
     8
 71
     3
 72
     8
 73
     4
 74
     0
 42
0.0000000001
 43
0.0000000001
 40
0.0
 40
0.0
 40
0.0
 40
0.0
 40
1.0
 40
1.0
 40
1.0
 40
1.0
 10
176578.0934724648
 20
-42344.38026997422
 30
0.0
 10
176578.1195836992
 20
-42344.40112673892
 30
0.0
 10
176578.1444185684
 20
-42344.42377713243
 30
0.0
 10
176578.1670715666
 20
-42344.44834627722
 30
0.0
  0
SPLINE
  5
3D85C
330
1F
100
AcDbEntity
  8
TRAITS INTERIEURS FIN
 48
30.0
100
AcDbSpline
210
0.0
220
0.0
230
1.0
 70
     8
 71
     3
 72
     9
 73
     5
 74
     0
 42
0.0000000001
 43
0.0000000001
 40
0.0
 40
0.0
 40
0.0
 40
0.0
 40
0.2590098442
 40
1.0
 40
1.0
 40
1.0
 40
1.0
 10
176551.848187582
 20
-42346.02801782552
 30
0.0
 10
176552.0541260725
 20
-42346.18306337334
 30
0.0
 10
176552.8522996955
 20
-42346.77755792572
 30
0.0
 10
176553.6625059699
 20
-42347.35604816942
 30
0.0
 10
176554.2714309525
 20
-42347.77206361342
 30
0.0
  0
SPLINE
  5
3D85D
330
1F
100
AcDbEntity
  8
TRAITS INTERIEURS FIN
 48
30.0
100
AcDbSpline
210
0.0
220
0.0
230
1.0
 70
     8
 71
     3
 72
    13
 73
     9
 74
     0
 42
0.0000000001
 43
0.0000000001
 40
0.0
 40
0.0
 40
0.0
 40
0.0
 40
0.2499519736
 40
0.4998807428
 40
0.6249230259000001
 40
0.7499612631999999
 40
0.8749848777
 40
1.0
 40
1.0
 40
1.0
 40
1.0
 10
176484.9541600434
 20
-42324.74161895582
 30
0.0
 10
176490.9012532494
 20
-42324.74161895582
 30
0.0
 10
176502.81207069
 20
-42325.60082824434
 30
0.0
 10
176517.3796717879
 20
-42328.87310033873
 30
0.0
 10
176528.6052371909
 20
-42332.84708123194
 30
0.0
 10
176536.7521464361
 20
-42336.51838576094
 30
0.0
 10
176544.552707489
 20
-42340.87582445132
 30
0.0
 10
176549.4718863198
 20
-42344.23896499452
 30
0.0
 10
176551.8481873906
 20
-42346.02801812902
 30
0.0
  0
ARC
  5
3D85E
330
1F
100
AcDbEntity
  8
TRAITS INTERIEURS FIN
 48
30.0
100
AcDbCircle
 10
176484.9541600433
 20
-42437.74161895582
 30
0.0
 40
140.0
100
AcDbArc
 50
357.7825393257008
 51
90.0
  0
ARC
  5
3D85F
330
1F
100
AcDbEntity
  8
TRAITS INTERIEURS FIN
 48
30.0
100
AcDbCircle
 10
176479.2548738368
 20
-42441.84192183901
 30
0.0
 40
132.0128715376844
100
AcDbArc
 50
34.22738783978579
 51
47.31239286806627
  0
ARC
  5
3D860
330
1F
100
AcDbEntity
  8
TRAITS INTERIEURS FIN
 48
30.0
100
AcDbCircle
 10
176483.4396885107
 20
-42436.50317602866
 30
0.0
 40
125.5667901041413
100
AcDbArc
 50
357.2445947993324
 51
33.2872505712714
  0
ARC
  5
3D861
330
1F
100
AcDbEntity
  8
TRAITS INTERIEURS FIN
 48
30.0
100
AcDbCircle
 10
176265.1189023202
 20
-42429.22930659041
 30
0.0
 40
360.0
100
AcDbArc
 50
339.6699744068937
 51
357.7825393257008
  0
ARC
  5
3D863
330
1F
100
AcDbEntity
  8
TRAITS INTERIEURS FIN
 48
30.0
100
AcDbCircle
 10
176265.1189023202
 20
-42429.22930659041
 30
0.0
 40
344.0
100
AcDbArc
 50
339.6699744068937
 51
357.7825393257008
  0
ARC
  5
3D865
330
1F
100
AcDbEntity
  8
TRAITS INTERIEURS FIN
 48
30.0
100
AcDbCircle
 10
176484.9541600434
 20
-42550.74161895581
 30
0.0
 40
102.0
100
AcDbArc
 50
229.1211679234384
 51
270.0
  0
ARC
  5
3D867
330
1F
100
AcDbEntity
  8
TRAITS INTERIEURS FIN
 48
30.0
100
AcDbCircle
 10
176484.9541600434
 20
-42550.74161895581
 30
0.0
 40
86.0
100
AcDbArc
 50
229.1211679234384
 51
270.0
  0
ARC
  5
3D868
330
1F
100
AcDbEntity
  8
TRAITS INTERIEURS FIN
 48
30.0
100
AcDbCircle
 10
176536.0021585262
 20
-42491.76618465567
 30
0.0
 40
180.0
100
AcDbArc
 50
200.3300255931062
 51
229.1211679234384
  0
ARC
  5
3D86A
330
1F
100
AcDbEntity
  8
TRAITS INTERIEURS FIN
 48
30.0
100
AcDbCircle
 10
176536.0021585262
 20
-42491.76618465567
 30
0.0
 40
164.0
100
AcDbArc
 50
200.3300255931062
 51
229.1211679234384
  0
LINE
  5
3D86B
330
1F
100
AcDbEntity
  8
TRAITS INTERIEURS FIN
 48
30.0
100
AcDbLine
 10
176390.155042411
 20
-42345.79688407553
 30
0.0
 11
176384.4219535758
 21
-42340.30817776263
 31
0.0
  0
ARC
  5
3D86C
330
1F
100
AcDbEntity
  8
TRAITS INTERIEURS FIN
 48
30.0
100
AcDbCircle
 10
176384.6062094109
 20
-42337.86968729123
 30
0.0
 40
9.7050263854
100
AcDbArc
 50
316.8636966831962
 51
317.3232799205999
  0
SPLINE
  5
3D86D
330
1F
100
AcDbEntity
  8
TRAITS INTERIEURS FIN
 48
30.0
100
AcDbSpline
210
0.0
220
0.0
230
1.0
 70
     8
 71
     3
 72
    19
 73
    15
 74
     0
 42
0.0000000001
 43
0.0000000001
 40
0.0
 40
0.0
 40
0.0
 40
0.0
 40
0.2969362564
 40
0.5363095333
 40
0.7094833628
 40
0.8269324255
 40
0.8698276085999999
 40
0.9045854666
 40
0.9328160575
 40
0.9554047148
 40
0.9727079521
 40
0.9849326151999999
 40
0.9925465738999999
 40
1.0
 40
1.0
 40
1.0
 40
1.0
 10
176391.6882505446
 20
-42344.50536589414
 30
0.0
 10
176391.5498222692
 20
-42344.65421010114
 30
0.0
 10
176391.289628642
 20
-42344.91373927454
 30
0.0
 10
176390.926180646
 20
-42345.23613043233
 30
0.0
 10
176390.645644591
 20
-42345.46628880803
 30
0.0
 10
176390.4644886167
 20
-42345.60532899704
 30
0.0
 10
176390.3557946296
 20
-42345.68296689184
 30
0.0
 10
176390.2957246697
 20
-42345.72352465043
 30
0.0
 10
176390.2459650275
 20
-42345.75454179773
 30
0.0
 10
176390.2053558156
 20
-42345.77730449774
 30
0.0
 10
176390.172432482
 20
-42345.79195428822
 30
0.0
 10
176390.1487334532
 20
-42345.79936815064
 30
0.0
 10
176390.1274674734
 20
-42345.79772482462
 30
0.0
 10
176390.1241295177
 20
-42345.78553828113
 30
0.0
 10
176390.1242883975
 20
-42345.78043856063
 30
0.0
  0
SPLINE
  5
3D86E
330
1F
100
AcDbEntity
  8
TRAITS INTERIEURS FIN
 48
30.0
100
AcDbSpline
210
0.0
220
0.0
230
1.0
 70
     8
 71
     3
 72
     9
 73
     5
 74
     0
 42
0.0000000001
 43
0.0000000001
 40
0.0
 40
0.0
 40
0.0
 40
0.0
 40
0.4513890712000001
 40
1.0
 40
1.0
 40
1.0
 40
1.0
 10
176410.8190002198
 20
-42348.28010947332
 30
0.0
 10
176410.4307137212
 20
-42348.05851574901
 30
0.0
 10
176409.5325836285
 20
-42347.63706945091
 30
0.0
 10
176408.6296372131
 20
-42347.23133358783
 30
0.0
 10
176408.1393764314
 20
-42346.99705997783
 30
0.0
  0
SPLINE
  5
3D86F
330
1F
100
AcDbEntity
  8
TRAITS INTERIEURS FIN
 48
30.0
100
AcDbSpline
210
0.0
220
0.0
230
1.0
 70
     8
 71
     3
 72
    12
 73
     8
 74
     0
 42
0.0000000001
 43
0.0000000001
 40
0.0
 40
0.0
 40
0.0
 40
0.0
 40
0.2790184743
 40
0.5387995964
 40
0.7862757266
 40
0.899522772
 40
1.0
 40
1.0
 40
1.0
 40
1.0
 10
176415.6368896371
 20
-42347.77206423112
 30
0.0
 10
176415.2475693856
 20
-42348.03804680212
 30
0.0
 10
176414.4280391304
 20
-42348.46177753404
 30
0.0
 10
176413.1177642472
 20
-42348.75214135422
 30
0.0
 10
176412.0555106368
 20
-42348.70799735874
 30
0.0
 10
176411.2994807918
 20
-42348.50999852694
 30
0.0
 10
176410.9664687299
 20
-42348.36426922782
 30
0.0
 10
176410.8190002198
 20
-42348.28010947332
 30
0.0
  0
SPLINE
  5
3D870
330
1F
100
AcDbEntity
  8
TRAITS INTERIEURS FIN
 48
30.0
100
AcDbSpline
210
0.0
220
0.0
230
1.0
 70
     8
 71
     3
 72
    17
 73
    13
 74
     0
 42
0.0000000001
 43
0.0000000001
 40
0.0
 40
0.0
 40
0.0
 40
0.0
 40
0.1257104083
 40
0.2519946324
 40
0.4595042825000001
 40
0.6158784443
 40
0.7346580390000001
 40
0.8240676966
 40
0.8898653344999999
 40
0.9454441285999999
 40
0.973715653
 40
1.0
 40
1.0
 40
1.0
 40
1.0
 10
176408.1393764272
 20
-42346.99706000333
 30
0.0
 10
176407.5180210798
 20
-42346.70014218743
 30
0.0
 10
176406.2361938111
 20
-42346.18039805703
 30
0.0
 10
176403.8366314291
 20
-42345.41586065102
 30
0.0
 10
176401.2224027531
 20
-42344.78871794652
 30
0.0
 10
176398.6176585556
 20
-42344.32851983032
 30
0.0
 10
176396.635338719
 20
-42344.07969144212
 30
0.0
 10
176395.1379048139
 20
-42343.96645670223
 30
0.0
 10
176393.9830020669
 20
-42343.94418710973
 30
0.0
 10
176393.1627261599
 20
-42343.98637199642
 30
0.0
 10
176392.5658017285
 20
-42344.07654875432
 30
0.0
 10
176392.2753892455
 20
-42344.15333077712
 30
0.0
 10
176392.1409138774
 20
-42344.20479839783
 30
0.0
  0
SPLINE
  5
3D871
330
1F
100
AcDbEntity
  8
TRAITS INTERIEURS FIN
 48
30.0
100
AcDbSpline
210
0.0
220
0.0
230
1.0
 70
     8
 71
     3
 72
     8
 73
     4
 74
     0
 42
0.0000000001
 43
0.0000000001
 40
0.0
 40
0.0
 40
0.0
 40
0.0
 40
1.0
 40
1.0
 40
1.0
 40
1.0
 10
176392.1409138774
 20
-42344.20479839783
 30
0.0
 10
176392.0254613567
 20
-42344.24844586953
 30
0.0
 10
176391.9112864561
 20
-42344.30323791864
 30
0.0
 10
176391.814847622
 20
-42344.38026997422
 30
0.0
  0
SPLINE
  5
3D872
330
1F
100
AcDbEntity
  8
TRAITS INTERIEURS FIN
 48
30.0
100
AcDbSpline
210
0.0
220
0.0
230
1.0
 70
     8
 71
     3
 72
     8
 73
     4
 74
     0
 42
0.0000000001
 43
0.0000000001
 40
0.0
 40
0.0
 40
0.0
 40
0.0
 40
1.0
 40
1.0
 40
1.0
 40
1.0
 10
176391.814847622
 20
-42344.38026997422
 30
0.0
 10
176391.7887363875
 20
-42344.40112673892
 30
0.0
 10
176391.7639015183
 20
-42344.42377713243
 30
0.0
 10
176391.7412485202
 20
-42344.44834627722
 30
0.0
  0
SPLINE
  5
3D873
330
1F
100
AcDbEntity
  8
TRAITS INTERIEURS FIN
 48
30.0
100
AcDbSpline
210
0.0
220
0.0
230
1.0
 70
     8
 71
     3
 72
     9
 73
     5
 74
     0
 42
0.0000000001
 43
0.0000000001
 40
0.0
 40
0.0
 40
0.0
 40
0.0
 40
0.2590098442
 40
1.0
 40
1.0
 40
1.0
 40
1.0
 10
176418.0601325048
 20
-42346.02801782552
 30
0.0
 10
176417.8541940141
 20
-42346.18306337334
 30
0.0
 10
176417.0560203913
 20
-42346.77755792572
 30
0.0
 10
176416.2458141169
 20
-42347.35604816942
 30
0.0
 10
176415.6368891343
 20
-42347.77206361342
 30
0.0
  0
SPLINE
  5
3D874
330
1F
100
AcDbEntity
  8
TRAITS INTERIEURS FIN
 48
30.0
100
AcDbSpline
210
0.0
220
0.0
230
1.0
 70
     8
 71
     3
 72
    13
 73
     9
 74
     0
 42
0.0000000001
 43
0.0000000001
 40
0.0
 40
0.0
 40
0.0
 40
0.0
 40
0.2499519736
 40
0.4998807428
 40
0.6249230259000001
 40
0.7499612631999999
 40
0.8749848777
 40
1.0
 40
1.0
 40
1.0
 40
1.0
 10
176484.9541600434
 20
-42324.74161895582
 30
0.0
 10
176479.0070668374
 20
-42324.74161895582
 30
0.0
 10
176467.0962493967
 20
-42325.60082824434
 30
0.0
 10
176452.5286482989
 20
-42328.87310033873
 30
0.0
 10
176441.3030828957
 20
-42332.84708123194
 30
0.0
 10
176433.1561736507
 20
-42336.51838576094
 30
0.0
 10
176425.3556125978
 20
-42340.87582445132
 30
0.0
 10
176420.4364337668
 20
-42344.23896499452
 30
0.0
 10
176418.0601326962
 20
-42346.02801812902
 30
0.0
  0
ARC
  5
3D875
330
1F
100
AcDbEntity
  8
TRAITS INTERIEURS FIN
 48
30.0
100
AcDbCircle
 10
176484.9541600434
 20
-42437.74161895582
 30
0.0
 40
140.0
100
AcDbArc
 50
90.0
 51
182.2174606742991
  0
ARC
  5
3D876
330
1F
100
AcDbEntity
  8
TRAITS INTERIEURS FIN
 48
30.0
100
AcDbCircle
 10
176490.6534462499
 20
-42441.84192183901
 30
0.0
 40
132.0128715376844
100
AcDbArc
 50
132.6876071319337
 51
145.7726121602142
  0
ARC
  5
3D877
330
1F
100
AcDbEntity
  8
TRAITS INTERIEURS FIN
 48
30.0
100
AcDbCircle
 10
176486.468631576
 20
-42436.50317602866
 30
0.0
 40
125.5667901041413
100
AcDbArc
 50
146.7127494287286
 51
182.7554052006677
  0
ARC
  5
3D878
330
1F
100
AcDbEntity
  8
TRAITS INTERIEURS FIN
 48
30.0
100
AcDbCircle
 10
176704.7894177666
 20
-42429.22930659041
 30
0.0
 40
360.0
100
AcDbArc
 50
182.2174606742991
 51
200.3300255931062
  0
ARC
  5
3D87A
330
1F
100
AcDbEntity
  8
TRAITS INTERIEURS FIN
 48
30.0
100
AcDbCircle
 10
176704.7894177666
 20
-42429.22930659041
 30
0.0
 40
344.0
100
AcDbArc
 50
182.2174606742991
 51
200.3300255931062
  0
ARC
  5
3D87B
330
1F
100
AcDbEntity
  8
CONTOURS
 48
30.0
100
AcDbCircle
 10
176620.4445189546
 20
-42163.74161895582
 30
0.0
 40
6.0
100
AcDbArc
 50
16.01267548649878
 51
90.0
  0
ARC
  5
3D87C
330
1F
100
AcDbEntity
  8
CONTOURS
 48
30.0
100
AcDbCircle
 10
176349.4638011321
 20
-42163.74161895582
 30
0.0
 40
6.0
100
AcDbArc
 50
90.0
 51
163.9873245135012
  0
ARC
  5
3D90F
330
1F
100
AcDbEntity
  8
TRAITS INTERIEURS FIN
 48
30.0
100
AcDbCircle
 10
176484.9541600434
 20
-42403.7367788318
 30
0.0
 40
55.0
100
AcDbArc
 50
243.0202264689548
 51
296.9797735310452
  0
ARC
  5
3D910
330
1F
100
AcDbEntity
  8
TRAITS INTERIEURS FIN
 48
30.0
100
AcDbCircle
 10
176475.8806414498
 20
-42421.56011354594
 30
0.0
 40
35.0
100
AcDbArc
 50
180.9999999998715
 51
243.0202264689548
  0
ARC
  5
3D911
330
1F
100
AcDbEntity
  8
TRAITS INTERIEURS FIN
 48
30.0
100
AcDbCircle
 10
176494.0276786369
 20
-42421.56011354594
 30
0.0
 40
35.0
100
AcDbArc
 50
296.9797735310452
 51
359.0000000001024
  0
LINE
  5
3DCC9
330
1F
100
AcDbEntity
  8
TRAITS INTERIEURS FIN
 48
30.0
100
AcDbLine
 10
176407.4541600434
 20
-42231.85141665534
 30
0.0
 11
176407.4541600434
 21
-42293.6318212563
 31
0.0
  0
LINE
  5
3DCCA
330
1F
100
AcDbEntity
  8
TRAITS INTERIEURS FIN
 48
30.0
100
AcDbLine
 10
176372.9030255461
 20
-42262.74161895582
 30
0.0
 11
176442.0052945406
 21
-42262.74161895582
 31
0.0
  0
LINE
  5
3DCCB
330
1F
100
AcDbEntity
  8
TRAITS INTERIEURS FIN
 48
30.0
100
AcDbLine
 10
176562.4541600434
 20
-42231.85141665534
 30
0.0
 11
176562.4541600434
 21
-42293.6318212563
 31
0.0
  0
LINE
  5
3DCCC
330
1F
100
AcDbEntity
  8
TRAITS INTERIEURS FIN
 48
30.0
100
AcDbLine
 10
176527.9030255461
 20
-42262.74161895582
 30
0.0
 11
176597.0052945406
 21
-42262.74161895582
 31
0.0
  0
VIEWPORT
  5
3EF
330
23
100
AcDbEntity
 67
     1
  8
0
100
AcDbViewport
 10
2430.509960921944
 20
1187.184910510923
 30
0.0
 40
5551.528278373901
 41
2902.656214121211
 68
     2
 69
     1
 12
2430.509960921944
 22
1187.184910510923
 13
0.0
 23
0.0
 14
10.0
 24
10.0
 15
10.0
 25
10.0
 16
0.0
 26
0.0
 36
1.0
 17
0.0
 27
0.0
 37
0.0
 42
50.0
 43
0.0
 44
0.0
 45
2902.656214121211
 50
0.0
 51
0.0
 72
 20000
 90
    32800
  1

281
     0
 71
     1
 74
     0
110
0.0
120
0.0
130
0.0
111
1.0
121
0.0
131
0.0
112
0.0
122
1.0
132
0.0
 79
     0
146
0.0
170
     0
 61
     5
348
118D
292
     1
282
     1
141
0.0
142
0.0
 63
   250
421
  3355443
  0
VIEWPORT
  5
3F1
330
23
100
AcDbEntity
 67
     1
  8
0
100
AcDbViewport
 10
1439.016350385474
 20
985.0994206063571
 30
0.0
 40
2868.720496430637
 41
1963.626793872126
 68
     1
 69
     2
 12
4567.076136122964
 22
2046.23637355573
 13
0.0
 23
0.0
 14
10.0
 24
10.0
 15
10.0
 25
10.0
 16
0.0
 26
0.0
 36
1.0
 17
0.0
 27
0.0
 37
0.0
 42
50.0
 43
0.0
 44
0.0
 45
1828.293185278945
 50
0.0
 51
0.0
 72
 20000
 90
    32864
  1

281
     0
 71
     1
 74
     0
110
0.0
120
0.0
130
0.0
111
1.0
121
0.0
131
0.0
112
0.0
122
1.0
132
0.0
 79
     0
146
0.0
170
     0
 61
     5
348
118D
292
     1
282
     1
141
0.0
142
0.0
 63
   250
421
  3355443
  0
ENDSEC
  0
SECTION
  2
OBJECTS
  0
DICTIONARY
  5
C
330
0
100
AcDbDictionary
281
     1
  3
ACAD_COLOR
350
B78
  3
ACAD_GROUP
350
D
  3
ACAD_LAYOUT
350
1A
  3
ACAD_MATERIAL
350
B77
  3
ACAD_MLEADERSTYLE
350
11BC
  3
ACAD_MLINESTYLE
350
17
  3
ACAD_PLOTSETTINGS
350
19
  3
ACAD_PLOTSTYLENAME
350
E
  3
ACAD_SCALELIST
350
119A
  3
ACAD_TABLESTYLE
350
1198
  3
ACAD_VISUALSTYLE
350
1187
  3
ACDB_RECOMPOSE_DATA
350
3F015
  3
AcDbVariableDictionary
350
1200
  0
DICTIONARY
  5
11DC
330
8
100
AcDbDictionary
280
     1
281
     1
  0
DICTIONARY
  5
1263
330
2
100
AcDbDictionary
280
     1
281
     1
  3
ACAD_LAYERFILTERS
360
51D8
  3
ACAD_LAYERSTATES
360
13A3
  3
ACLYDICTIONARY
360
51D7
  0
DICTIONARY
  5
11C8
330
10
100
AcDbDictionary
280
     1
281
     1
  3
ADSK_XREC_LAYER_RECONCILED
360
11C9
  0
DICTIONARY
  5
11CA
330
2C
100
AcDbDictionary
280
     1
281
     1
  3
ADSK_XREC_LAYER_RECONCILED
360
11CB
  0
DICTIONARY
  5
11CC
330
2D
100
AcDbDictionary
280
     1
281
     1
  3
ADSK_XREC_LAYER_RECONCILED
360
11CD
  0
DICTIONARY
  5
11CE
330
B6E
100
AcDbDictionary
280
     1
281
     1
  3
ADSK_XREC_LAYER_RECONCILED
360
11CF
  0
DICTIONARY
  5
11D0
330
1154
100
AcDbDictionary
280
     1
281
     1
  3
ADSK_XREC_LAYER_RECONCILED
360
11D1
  0
DICTIONARY
  5
F6C
330
1F
100
AcDbDictionary
280
     1
281
     1
  3
ACAD_SORTENTS
360
F6D
  0
DICTIONARY
  5
10044
330
10040
100
AcDbDictionary
280
     1
281
     1
  3
ACAD_SORTENTS
360
10045
  0
DICTIONARY
  5
B78
102
{ACAD_REACTORS
330
C
102
}
330
C
100
AcDbDictionary
281
     1
  0
DICTIONARY
  5
D
102
{ACAD_REACTORS
330
C
102
}
330
C
100
AcDbDictionary
281
     1
  3
*A1
350
1139
  3
*A2
350
113A
  0
DICTIONARY
  5
1A
102
{ACAD_REACTORS
330
C
102
}
330
C
100
AcDbDictionary
281
     1
  3
Model
350
22
  3
Présentation1
350
1E
  3
Présentation2
350
26
  0
DICTIONARY
  5
B77
102
{ACAD_REACTORS
330
C
102
}
330
C
100
AcDbDictionary
281
     1
  3
ByBlock
350
1177
  3
ByLayer
350
116F
  3
Global
350
117F
  0
DICTIONARY
  5
11BC
102
{ACAD_REACTORS
330
C
102
}
330
C
100
AcDbDictionary
281
     1
  3
Standard
350
11BD
  0
DICTIONARY
  5
17
102
{ACAD_REACTORS
330
C
102
}
330
C
100
AcDbDictionary
281
     1
  3
Standard
350
18
  0
DICTIONARY
  5
19
102
{ACAD_REACTORS
330
C
102
}
330
C
100
AcDbDictionary
281
     1
  0
ACDBDICTIONARYWDFLT
  5
E
102
{ACAD_REACTORS
330
C
102
}
330
C
100
AcDbDictionary
281
     1
  3
Normal
350
F
100
AcDbDictionaryWithDefault
340
F
  0
DICTIONARY
  5
119A
102
{ACAD_REACTORS
330
C
102
}
330
C
100
AcDbDictionary
281
     1
  3
A0
350
119B
  3
A1
350
119C
  3
A2
350
119D
  3
A3
350
119E
  3
A4
350
119F
  3
A5
350
11A0
  3
A6
350
11A1
  3
A7
350
11A2
  3
A8
350
11A3
  3
A9
350
11A4
  3
B0
350
11A5
  3
B1
350
11A6
  3
B2
350
11A7
  3
B3
350
11A8
  3
B4
350
11A9
  3
B5
350
11AA
  3
B6
350
11AB
  3
B7
350
11AC
  3
B8
350
11AD
  3
B9
350
11AE
  3
C0
350
11AF
  3
C1
350
11B0
  3
C2
350
11B1
  3
C3
350
11B2
  3
C4
350
11B3
  3
C5
350
11B4
  3
C6
350
11B5
  3
C7
350
11B6
  3
C8
350
11B7
  3
C9
350
11B8
  3
D0
350
11B9
  3
D1
350
11BA
  3
D2
350
11BB
  0
DICTIONARY
  5
1198
102
{ACAD_REACTORS
330
C
102
}
330
C
100
AcDbDictionary
281
     1
  3
Standard
350
1199
  0
DICTIONARY
  5
1187
102
{ACAD_REACTORS
330
C
102
}
330
C
100
AcDbDictionary
281
     1
  3
2dWireframe
350
118D
  3
3D Hidden
350
118F
  3
3dWireframe
350
118E
  3
Basic
350
118C
  3
Brighten
350
1193
  3
ColorChange
350
1197
  3
Conceptual
350
1190
  3
Dim
350
1192
  3
EdgeColorOff
350
3EFCF
  3
Facepattern
350
1196
  3
Flat
350
1188
  3
FlatWithEdges
350
1189
  3
Gouraud
350
118A
  3
GouraudWithEdges
350
118B
  3
JitterOff
350
3EFCD
  3
Linepattern
350
1195
  3
OverhangOff
350
3EFCE
  3
Realistic
350
1191
  3
Thicken
350
1194
  0
XRECORD
  5
3F015
102
{ACAD_REACTORS
330
C
102
}
330
C
100
AcDbXrecord
280
     1
 90
        1
330
1199
  0
DICTIONARY
  5
1200
102
{ACAD_REACTORS
330
C
102
}
330
C
100
AcDbDictionary
281
     1
  3
CANNOSCALE
350
1203
  3
CMLEADERSTYLE
350
1202
  3
CTABLESTYLE
350
1201
  3
DIMASSOC
350
1206
  3
INDEXCTL
350
1205
  3
LAYEREVAL
350
3F012
  3
LAYERNOTIFY
350
3F013
  3
LIGHTINGUNITS
350
3F011
  3
MSLTSCALE
350
3F010
  3
SORTENTS
350
1204
  0
DICTIONARY
  5
51D8
102
{ACAD_REACTORS
330
1263
102
}
330
1263
100
AcDbDictionary
281
     1
  0
DICTIONARY
  5
13A3
102
{ACAD_REACTORS
330
1263
102
}
330
1263
100
AcDbDictionary
281
     1
  0
DICTIONARY
  5
51D7
102
{ACAD_REACTORS
330
1263
102
}
330
1263
100
AcDbDictionary
281
     1
1001
ACAD
1000
<AllUsed
  0
XRECORD
  5
11C9
102
{ACAD_REACTORS
330
11C8
102
}
330
11C8
100
AcDbXrecord
280
     1
290
     1
  0
XRECORD
  5
11CB
102
{ACAD_REACTORS
330
11CA
102
}
330
11CA
100
AcDbXrecord
280
     1
290
     1
  0
XRECORD
  5
11CD
102
{ACAD_REACTORS
330
11CC
102
}
330
11CC
100
AcDbXrecord
280
     1
290
     1
  0
XRECORD
  5
11CF
102
{ACAD_REACTORS
330
11CE
102
}
330
11CE
100
AcDbXrecord
280
     1
290
     1
  0
XRECORD
  5
11D1
102
{ACAD_REACTORS
330
11D0
102
}
330
11D0
100
AcDbXrecord
280
     1
290
     1
  0
SORTENTSTABLE
  5
F6D
102
{ACAD_REACTORS
330
F6C
102
}
330
F6C
100
AcDbSortentsTable
330
1F
331
3D86E
  5
3D876
331
3D86A
  5
3D872
331
3D7BA
  5
3D7D8
331
3D7B2
  5
3D7C2
331
3D910
  5
3D92E
331
3D85E
  5
3D869
331
3D85A
  5
3D862
331
3D856
  5
3D85E
331
3D852
  5
3D85A
331
3D84E
  5
3D856
331
3D875
  5
3D895
331
3D871
  5
3D879
331
3DCCB
  5
3DEFB
331
3D86D
  5
3D875
331
3D7B9
  5
3D7D2
331
3D865
  5
3D86F
331
3D7B5
  5
3D7C9
331
3D861
  5
3D86D
331
3D7B1
  5
3D7BA
331
3D90F
  5
3D92D
331
3D85D
  5
3D868
331
3D859
  5
3D861
331
3D7AD
  5
3D7B7
331
3D7A9
  5
3D7B4
331
3D855
  5
3D85D
331
3D851
  5
3D859
331
3D84D
  5
3D855
331
3D87C
  5
3D8D2
331
3D878
  5
3D898
331
3D874
  5
3D883
331
3D870
  5
3D878
331
3DCCA
  5
3DEFA
331
3D86C
  5
3D874
331
3D868
  5
3D871
331
3D7B8
  5
3D7CF
331
3D7B4
  5
3D7C3
331
3D860
  5
3D86C
331
3D7B0
  5
3D7B9
331
3D85C
  5
3D866
331
3D858
  5
3D860
331
3D7AC
  5
3D7B5
331
3D854
  5
3D85C
331
3D850
  5
3D858
331
3D848
  5
3D853
331
681
  5
2CE81
331
3D87B
  5
3D8D1
331
3D877
  5
3D897
331
3D873
  5
3D87C
331
3DCC9
  5
3DE3B
331
3D86F
  5
3D877
331
3D86B
  5
3D873
331
3D867
  5
3D870
331
3D863
  5
3D86E
331
3D7B7
  5
3D7CA
331
3D85F
  5
3D86B
331
3D911
  5
3D92F
331
3D85B
  5
3D864
331
3D7AF
  5
3D7B8
331
3D857
  5
3D85F
331
3D853
  5
3D85B
331
3D84F
  5
3D857
331
3D84B
  5
3D854
331
3D87A
  5
3D8A4
331
3D876
  5
3D896
331
3D872
  5
3D87B
331
3DCCC
  5
3DEFC
331
2CE81
  5
32AA2
  0
SORTENTSTABLE
  5
10045
102
{ACAD_REACTORS
330
10044
102
}
330
10044
100
AcDbSortentsTable
330
10040
  0
GROUP
  5
1139
102
{ACAD_REACTORS
330
D
102
}
330
D
100
AcDbGroup
300

 70
     1
 71
     1
  0
GROUP
  5
113A
102
{ACAD_REACTORS
330
D
102
}
330
D
100
AcDbGroup
300

 70
     1
 71
     1
  0
LAYOUT
  5
22
102
{ACAD_REACTORS
330
1A
102
}
330
1A
100
AcDbPlotSettings
  1

  2
PDF995
  4
A4
  6

 40
3.174999952316284
 41
3.174999952316284
 42
3.175003051757812
 43
3.17498779296875
 44
209.9733276367187
 45
296.9683227539062
 46
1.173510970580707
 47
0.0
 48
174749.0813833014
 49
-44851.59189328006
140
180409.0813833014
141
-40931.59189328005
142
1.0
143
19.47571545970111
 70
 11956
 72
     1
 73
     1
 74
     4
  7
table_couleur.ctb
 75
     0
147
0.0513459955845621
 76
     0
 77
     2
 78
   300
148
-174749.0813833014
149
44851.59189328006
100
AcDbLayout
  1
Model
 70
     1
 71
     0
 10
0.0
 20
0.0
 11
12.0
 21
9.0
 12
0.0
 22
0.0
 32
0.0
 14
0.0
 24
0.0
 34
0.0
 15
0.0
 25
0.0
 35
0.0
146
0.0
 13
0.0
 23
0.0
 33
0.0
 16
1.0
 26
0.0
 36
0.0
 17
0.0
 27
1.0
 37
0.0
 76
     0
330
1F
331
372E1
1001
ACAD_PSEXT
1000
PDF995
1000
PDF995 Printer Driver
1000
PDF995PORT
1000

1070
     0
  0
LAYOUT
  5
1E
102
{ACAD_REACTORS
330
1A
102
}
330
1A
100
AcDbPlotSettings
  1

  2
\\KEDOD0229\HP LaserJet 4V
  4
A4
  6

 40
6.805083274841308
 41
5.069413185119628
 42
6.805084228515625
 43
5.027069091796875
 44
209.9733276367187
 45
296.9683227539062
 46
0.0
 47
0.0
 48
0.0
 49
0.0
140
0.0
141
0.0
142
1.0
143
10.0
 70
   688
 72
     1
 73
     1
 74
     5
  7
aclt.ctb
 75
    20
147
0.1
 76
     1
 77
     2
 78
   300
148
0.0
149
0.0
100
AcDbLayout
  1
Présentation1
 70
     1
 71
     1
 10
-50.27069091796875
 20
-68.05083274841308
 11
2919.412536621094
 21
2031.682443618775
 12
0.0
 22
0.0
 32
0.0
 14
-49.60246442199059
 24
-66.00788451328753
 34
0.0
 15
2917.059049332895
 25
2030.635493671731
 35
0.0
146
0.0
 13
0.0
 23
0.0
 33
0.0
 16
1.0
 26
0.0
 36
0.0
 17
0.0
 27
1.0
 37
0.0
 76
     0
330
1B
331
10D6
  0
LAYOUT
  5
26
102
{ACAD_REACTORS
330
1A
102
}
330
1A
100
AcDbPlotSettings
  1

  2
\\KEDOD0229\HP LaserJet 4V
  4
A4
  6

 40
6.805083274841308
 41
5.069413185119628
 42
6.805084228515625
 43
5.027069091796875
 44
209.9733276367187
 45
296.9683227539062
 46
0.0
 47
0.0
 48
0.0
 49
0.0
140
0.0
141
0.0
142
1.0
143
10.0
 70
   688
 72
     1
 73
     1
 74
     1
  7
aclt.ctb
 75
    20
147
0.1
 76
     1
 77
     4
 78
   600
148
-4.65610217015574
149
-3.286023670294152
100
AcDbLayout
  1
Présentation2
 70
     1
 71
     2
 10
-45.614588747813
 20
-64.76480907811893
 11
2924.06863879125
 21
2034.968467289068
 12
0.0
 22
0.0
 32
0.0
 14
4.65610217015574
 24
3.286023670294071
 34
0.0
 15
2873.756768105222
 25
1966.91281754242
 35
0.0
146
0.0
 13
0.0
 23
0.0
 33
0.0
 16
1.0
 26
0.0
 36
0.0
 17
0.0
 27
1.0
 37
0.0
 76
     0
330
23
331
3F1
  0
MATERIAL
  5
1177
102
{ACAD_XDICTIONARY
360
1178
102
}
102
{ACAD_REACTORS
330
B77
102
}
330
B77
100
AcDbMaterial
  1
ByBlock
 72
     0
 43
0.0008202099737533
 43
0.0
 43
0.0
 43
0.0
 43
0.0
 43
0.0008202099737533
 43
0.0
 43
0.0
 43
0.0
 43
0.0
 43
1.0
 43
0.0
 43
0.0
 43
0.0
 43
0.0
 43
1.0
 77
     0
 47
0.0008202099737533
 47
0.0
 47
0.0
 47
0.0
 47
0.0
 47
0.0008202099737533
 47
0.0
 47
0.0
 47
0.0
 47
0.0
 47
1.0
 47
0.0
 47
0.0
 47
0.0
 47
0.0
 47
1.0
171
     0
 49
0.0008202099737533
 49
0.0
 49
0.0
 49
0.0
 49
0.0
 49
0.0008202099737533
 49
0.0
 49
0.0
 49
0.0
 49
0.0
 49
1.0
 49
0.0
 49
0.0
 49
0.0
 49
0.0
 49
1.0
175
     0
142
0.0008202099737533
142
0.0
142
0.0
142
0.0
142
0.0
142
0.0008202099737533
142
0.0
142
0.0
142
0.0
142
0.0
142
1.0
142
0.0
142
0.0
142
0.0
142
0.0
142
1.0
179
     0
144
0.0008202099737533
144
0.0
144
0.0
144
0.0
144
0.0
144
0.0008202099737533
144
0.0
144
0.0
144
0.0
144
0.0
144
1.0
144
0.0
144
0.0
144
0.0
144
0.0
144
1.0
147
0.0008202099737533
147
0.0
147
0.0
147
0.0
147
0.0
147
0.0008202099737533
147
0.0
147
0.0
147
0.0
147
0.0
147
1.0
147
0.0
147
0.0
147
0.0
147
0.0
147
1.0
  0
MATERIAL
  5
116F
102
{ACAD_XDICTIONARY
360
1170
102
}
102
{ACAD_REACTORS
330
B77
102
}
330
B77
100
AcDbMaterial
  1
ByLayer
 72
     0
 43
0.0008202099737533
 43
0.0
 43
0.0
 43
0.0
 43
0.0
 43
0.0008202099737533
 43
0.0
 43
0.0
 43
0.0
 43
0.0
 43
1.0
 43
0.0
 43
0.0
 43
0.0
 43
0.0
 43
1.0
 77
     0
 47
0.0008202099737533
 47
0.0
 47
0.0
 47
0.0
 47
0.0
 47
0.0008202099737533
 47
0.0
 47
0.0
 47
0.0
 47
0.0
 47
1.0
 47
0.0
 47
0.0
 47
0.0
 47
0.0
 47
1.0
171
     0
 49
0.0008202099737533
 49
0.0
 49
0.0
 49
0.0
 49
0.0
 49
0.0008202099737533
 49
0.0
 49
0.0
 49
0.0
 49
0.0
 49
1.0
 49
0.0
 49
0.0
 49
0.0
 49
0.0
 49
1.0
175
     0
142
0.0008202099737533
142
0.0
142
0.0
142
0.0
142
0.0
142
0.0008202099737533
142
0.0
142
0.0
142
0.0
142
0.0
142
1.0
142
0.0
142
0.0
142
0.0
142
0.0
142
1.0
179
     0
144
0.0008202099737533
144
0.0
144
0.0
144
0.0
144
0.0
144
0.0008202099737533
144
0.0
144
0.0
144
0.0
144
0.0
144
1.0
144
0.0
144
0.0
144
0.0
144
0.0
144
1.0
147
0.0008202099737533
147
0.0
147
0.0
147
0.0
147
0.0
147
0.0008202099737533
147
0.0
147
0.0
147
0.0
147
0.0
147
1.0
147
0.0
147
0.0
147
0.0
147
0.0
147
1.0
  0
MATERIAL
  5
117F
102
{ACAD_XDICTIONARY
360
1180
102
}
102
{ACAD_REACTORS
330
B77
102
}
330
B77
100
AcDbMaterial
  1
Global
 72
     0
 43
0.0008202099737533
 43
0.0
 43
0.0
 43
0.0
 43
0.0
 43
0.0008202099737533
 43
0.0
 43
0.0
 43
0.0
 43
0.0
 43
1.0
 43
0.0
 43
0.0
 43
0.0
 43
0.0
 43
1.0
 77
     0
 47
0.0008202099737533
 47
0.0
 47
0.0
 47
0.0
 47
0.0
 47
0.0008202099737533
 47
0.0
 47
0.0
 47
0.0
 47
0.0
 47
1.0
 47
0.0
 47
0.0
 47
0.0
 47
0.0
 47
1.0
171
     0
 49
0.0008202099737533
 49
0.0
 49
0.0
 49
0.0
 49
0.0
 49
0.0008202099737533
 49
0.0
 49
0.0
 49
0.0
 49
0.0
 49
1.0
 49
0.0
 49
0.0
 49
0.0
 49
0.0
 49
1.0
175
     0
142
0.0008202099737533
142
0.0
142
0.0
142
0.0
142
0.0
142
0.0008202099737533
142
0.0
142
0.0
142
0.0
142
0.0
142
1.0
142
0.0
142
0.0
142
0.0
142
0.0
142
1.0
179
     0
144
0.0008202099737533
144
0.0
144
0.0
144
0.0
144
0.0
144
0.0008202099737533
144
0.0
144
0.0
144
0.0
144
0.0
144
1.0
144
0.0
144
0.0
144
0.0
144
0.0
144
1.0
147
0.0008202099737533
147
0.0
147
0.0
147
0.0
147
0.0
147
0.0008202099737533
147
0.0
147
0.0
147
0.0
147
0.0
147
1.0
147
0.0
147
0.0
147
0.0
147
0.0
147
1.0
  0
MLEADERSTYLE
  5
11BD
102
{ACAD_REACTORS
330
11BC
102
}
330
11BC
100
AcDbMLeaderStyle
179
     2
170
     2
171
     1
172
     0
 90
        2
 40
0.0
 41
0.0
173
     1
 91
-1056964608
340
14
 92
       -2
290
     1
 42
0.09
291
     1
 43
0.36
  3
Standard
 44
0.18
300

342
11
174
     1
178
     6
175
     1
176
     0
 93
-1056964608
 45
0.18
292
     0
297
     0
 46
0.18
 94
-1056964608
 47
1.0
 49
1.0
140
1.0
293
     1
141
0.0
294
     1
177
     0
142
1.0
295
     0
296
     0
143
0.125
271
     0
272
     9
273
     9
  0
MLINESTYLE
  5
18
102
{ACAD_REACTORS
330
17
102
}
330
17
100
AcDbMlineStyle
  2
STANDARD
 70
     0
  3

 62
   256
 51
90.0
 52
90.0
 71
     2
 49
0.5
 62
   256
  6
BYLAYER
 49
-0.5
 62
   256
  6
BYLAYER
  0
ACDBPLACEHOLDER
  5
F
102
{ACAD_REACTORS
330
E
102
}
330
E
  0
SCALE
  5
119B
102
{ACAD_REACTORS
330
119A
102
}
330
119A
100
AcDbScale
 70
     0
300
1:1
140
1.0
141
1.0
290
     1
  0
SCALE
  5
119C
102
{ACAD_REACTORS
330
119A
102
}
330
119A
100
AcDbScale
 70
     0
300
1:2
140
1.0
141
2.0
290
     0
  0
SCALE
  5
119D
102
{ACAD_REACTORS
330
119A
102
}
330
119A
100
AcDbScale
 70
     0
300
1:4
140
1.0
141
4.0
290
     0
  0
SCALE
  5
119E
102
{ACAD_REACTORS
330
119A
102
}
330
119A
100
AcDbScale
 70
     0
300
1:5
140
1.0
141
5.0
290
     0
  0
SCALE
  5
119F
102
{ACAD_REACTORS
330
119A
102
}
330
119A
100
AcDbScale
 70
     0
300
1:8
140
1.0
141
8.0
290
     0
  0
SCALE
  5
11A0
102
{ACAD_REACTORS
330
119A
102
}
330
119A
100
AcDbScale
 70
     0
300
1:10
140
1.0
141
10.0
290
     0
  0
SCALE
  5
11A1
102
{ACAD_REACTORS
330
119A
102
}
330
119A
100
AcDbScale
 70
     0
300
1:16
140
1.0
141
16.0
290
     0
  0
SCALE
  5
11A2
102
{ACAD_REACTORS
330
119A
102
}
330
119A
100
AcDbScale
 70
     0
300
1:20
140
1.0
141
20.0
290
     0
  0
SCALE
  5
11A3
102
{ACAD_REACTORS
330
119A
102
}
330
119A
100
AcDbScale
 70
     0
300
1:30
140
1.0
141
30.0
290
     0
  0
SCALE
  5
11A4
102
{ACAD_REACTORS
330
119A
102
}
330
119A
100
AcDbScale
 70
     0
300
1:40
140
1.0
141
40.0
290
     0
  0
SCALE
  5
11A5
102
{ACAD_REACTORS
330
119A
102
}
330
119A
100
AcDbScale
 70
     0
300
1:50
140
1.0
141
50.0
290
     0
  0
SCALE
  5
11A6
102
{ACAD_REACTORS
330
119A
102
}
330
119A
100
AcDbScale
 70
     0
300
1:100
140
1.0
141
100.0
290
     0
  0
SCALE
  5
11A7
102
{ACAD_REACTORS
330
119A
102
}
330
119A
100
AcDbScale
 70
     0
300
2:1
140
2.0
141
1.0
290
     0
  0
SCALE
  5
11A8
102
{ACAD_REACTORS
330
119A
102
}
330
119A
100
AcDbScale
 70
     0
300
4:1
140
4.0
141
1.0
290
     0
  0
SCALE
  5
11A9
102
{ACAD_REACTORS
330
119A
102
}
330
119A
100
AcDbScale
 70
     0
300
8:1
140
8.0
141
1.0
290
     0
  0
SCALE
  5
11AA
102
{ACAD_REACTORS
330
119A
102
}
330
119A
100
AcDbScale
 70
     0
300
10:1
140
10.0
141
1.0
290
     0
  0
SCALE
  5
11AB
102
{ACAD_REACTORS
330
119A
102
}
330
119A
100
AcDbScale
 70
     0
300
100:1
140
100.0
141
1.0
290
     0
  0
SCALE
  5
11AC
102
{ACAD_REACTORS
330
119A
102
}
330
119A
100
AcDbScale
 70
     0
300
1/128" = 1'-0"
140
0.0078125
141
12.0
290
     0
  0
SCALE
  5
11AD
102
{ACAD_REACTORS
330
119A
102
}
330
119A
100
AcDbScale
 70
     0
300
1/64" = 1'-0"
140
0.015625
141
12.0
290
     0
  0
SCALE
  5
11AE
102
{ACAD_REACTORS
330
119A
102
}
330
119A
100
AcDbScale
 70
     0
300
1/32" = 1'-0"
140
0.03125
141
12.0
290
     0
  0
SCALE
  5
11AF
102
{ACAD_REACTORS
330
119A
102
}
330
119A
100
AcDbScale
 70
     0
300
1/16" = 1'-0"
140
0.0625
141
12.0
290
     0
  0
SCALE
  5
11B0
102
{ACAD_REACTORS
330
119A
102
}
330
119A
100
AcDbScale
 70
     0
300
3/32" = 1'-0"
140
0.09375
141
12.0
290
     0
  0
SCALE
  5
11B1
102
{ACAD_REACTORS
330
119A
102
}
330
119A
100
AcDbScale
 70
     0
300
1/8" = 1'-0"
140
0.125
141
12.0
290
     0
  0
SCALE
  5
11B2
102
{ACAD_REACTORS
330
119A
102
}
330
119A
100
AcDbScale
 70
     0
300
3/16" = 1'-0"
140
0.1875
141
12.0
290
     0
  0
SCALE
  5
11B3
102
{ACAD_REACTORS
330
119A
102
}
330
119A
100
AcDbScale
 70
     0
300
1/4" = 1'-0"
140
0.25
141
12.0
290
     0
  0
SCALE
  5
11B4
102
{ACAD_REACTORS
330
119A
102
}
330
119A
100
AcDbScale
 70
     0
300
3/8" = 1'-0"
140
0.375
141
12.0
290
     0
  0
SCALE
  5
11B5
102
{ACAD_REACTORS
330
119A
102
}
330
119A
100
AcDbScale
 70
     0
300
1/2" = 1'-0"
140
0.5
141
12.0
290
     0
  0
SCALE
  5
11B6
102
{ACAD_REACTORS
330
119A
102
}
330
119A
100
AcDbScale
 70
     0
300
3/4" = 1'-0"
140
0.75
141
12.0
290
     0
  0
SCALE
  5
11B7
102
{ACAD_REACTORS
330
119A
102
}
330
119A
100
AcDbScale
 70
     0
300
1" = 1'-0"
140
1.0
141
12.0
290
     0
  0
SCALE
  5
11B8
102
{ACAD_REACTORS
330
119A
102
}
330
119A
100
AcDbScale
 70
     0
300
1-1/2" = 1'-0"
140
1.5
141
12.0
290
     0
  0
SCALE
  5
11B9
102
{ACAD_REACTORS
330
119A
102
}
330
119A
100
AcDbScale
 70
     0
300
3" = 1'-0"
140
3.0
141
12.0
290
     0
  0
SCALE
  5
11BA
102
{ACAD_REACTORS
330
119A
102
}
330
119A
100
AcDbScale
 70
     0
300
6" = 1'-0"
140
6.0
141
12.0
290
     0
  0
SCALE
  5
11BB
102
{ACAD_REACTORS
330
119A
102
}
330
119A
100
AcDbScale
 70
     0
300
1'-0" = 1'-0"
140
12.0
141
12.0
290
     0
  0
TABLESTYLE
  5
1199
102
{ACAD_XDICTIONARY
360
11D8
102
}
102
{ACAD_REACTORS
330
1198
102
}
330
1198
100
AcDbTableStyle
280
     0
  3
Standard
 70
     0
 71
     0
 40
0.06
 41
0.06
280
     0
281
     0
  7
Standard
140
0.18
170
     2
 62
     0
 63
     7
283
     0
 90
      512
 91
        0
  1

274
    -2
284
     1
 64
     0
275
    -2
285
     1
 65
     0
276
    -2
286
     1
 66
     0
277
    -2
287
     1
 67
     0
278
    -2
288
     1
 68
     0
279
    -2
289
     1
 69
     0
  7
Standard
140
0.25
170
     5
 62
     0
 63
     7
283
     0
 90
      512
 91
        0
  1

274
    -2
284
     1
 64
     0
275
    -2
285
     1
 65
     0
276
    -2
286
     1
 66
     0
277
    -2
287
     1
 67
     0
278
    -2
288
     1
 68
     0
279
    -2
289
     1
 69
     0
  7
Standard
140
0.18
170
     5
 62
     0
 63
     7
283
     0
 90
      512
 91
        0
  1

274
    -2
284
     1
 64
     0
275
    -2
285
     1
 65
     0
276
    -2
286
     1
 66
     0
277
    -2
287
     1
 67
     0
278
    -2
288
     1
 68
     0
279
    -2
289
     1
 69
     0
  0
VISUALSTYLE
  5
118D
102
{ACAD_REACTORS
330
1187
102
}
330
1187
100
AcDbVisualStyle
  2
2dWireframe
 70
     4
177
     2
291
     0
 71
     0
176
     1
 72
     2
176
     1
 73
     0
176
     1
 90
        0
176
     1
 40
0.6
176
     1
 41
30.0
176
     1
 63
     7
176
     1
 74
     1
176
     1
 91
        4
176
     1
 64
     7
176
     1
 65
   257
176
     1
 75
     1
176
     1
175
     1
176
     1
 42
1.0
176
     1
 92
        0
176
     1
 66
   257
176
     1
 43
1.0
176
     1
 76
     1
176
     1
 77
     6
176
     1
 78
     2
176
     1
 67
     7
176
     1
 79
     5
176
     1
170
     0
176
     1
171
     0
176
     1
290
     0
176
     1
 93
        1
176
     1
 44
0.0
176
     1
173
     0
176
     1
  0
VISUALSTYLE
  5
118F
102
{ACAD_REACTORS
330
1187
102
}
330
1187
100
AcDbVisualStyle
  2
3D Hidden
 70
     6
177
     2
291
     0
 71
     1
176
     1
 72
     2
176
     1
 73
     2
176
     1
 90
        0
176
     1
 40
0.6
176
     1
 41
30.0
176
     1
 63
     7
176
     1
 74
     2
176
     1
 91
        2
176
     1
 64
     7
176
     1
 65
   257
176
     1
 75
     2
176
     1
175
     1
176
     1
 42
40.0
176
     1
 92
        0
176
     1
 66
   257
176
     1
 43
1.0
176
     1
 76
     1
176
     1
 77
     6
176
     1
 78
     2
176
     1
 67
     7
176
     1
 79
     3
176
     1
170
     0
176
     1
171
     0
176
     1
290
     0
176
     1
 93
        1
176
     1
 44
0.0
176
     1
173
     0
176
     1
  0
VISUALSTYLE
  5
118E
102
{ACAD_REACTORS
330
1187
102
}
330
1187
100
AcDbVisualStyle
  2
3dWireframe
 70
     5
177
     2
291
     0
 71
     0
176
     1
 72
     2
176
     1
 73
     0
176
     1
 90
        0
176
     1
 40
0.6
176
     1
 41
30.0
176
     1
 63
     7
176
     1
 74
     1
176
     1
 91
        4
176
     1
 64
     7
176
     1
 65
   257
176
     1
 75
     1
176
     1
175
     1
176
     1
 42
1.0
176
     1
 92
        0
176
     1
 66
   257
176
     1
 43
1.0
176
     1
 76
     1
176
     1
 77
     6
176
     1
 78
     2
176
     1
 67
     7
176
     1
 79
     5
176
     1
170
     0
176
     1
171
     0
176
     1
290
     0
176
     1
 93
        1
176
     1
 44
0.0
176
     1
173
     0
176
     1
  0
VISUALSTYLE
  5
118C
102
{ACAD_REACTORS
330
1187
102
}
330
1187
100
AcDbVisualStyle
  2
Basic
 70
     7
177
     2
291
     1
 71
     1
176
     1
 72
     0
176
     1
 73
     1
176
     1
 90
        0
176
     1
 40
0.6
176
     1
 41
30.0
176
     1
 63
     7
176
     1
 74
     0
176
     1
 91
        4
176
     1
 64
     7
176
     1
 65
   257
176
     1
 75
     1
176
     1
175
     1
176
     1
 42
1.0
176
     1
 92
        8
176
     1
 66
     7
176
     1
 43
1.0
176
     1
 76
     1
176
     1
 77
     6
176
     1
 78
     2
176
     1
 67
     7
176
     1
 79
     5
176
     1
170
     0
176
     1
171
     0
176
     1
290
     0
176
     1
 93
        1
176
     1
 44
0.0
176
     1
173
     0
176
     1
  0
VISUALSTYLE
  5
1193
102
{ACAD_REACTORS
330
1187
102
}
330
1187
100
AcDbVisualStyle
  2
Brighten
 70
    12
177
     2
291
     1
 71
     2
176
     1
 72
     2
176
     1
 73
     0
176
     1
 90
        0
176
     1
 40
0.6
176
     1
 41
30.0
176
     1
 63
     7
176
     1
 74
     1
176
     1
 91
        4
176
     1
 64
     7
176
     1
 65
   257
176
     1
 75
     1
176
     1
175
     1
176
     1
 42
1.0
176
     1
 92
        8
176
     1
 66
     7
176
     1
 43
1.0
176
     1
 76
     1
176
     1
 77
     6
176
     1
 78
     2
176
     1
 67
     7
176
     1
 79
     5
176
     1
170
     0
176
     1
171
     0
176
     1
290
     0
176
     1
 93
        1
176
     1
 44
50.0
176
     1
173
     0
176
     1
  0
VISUALSTYLE
  5
1197
102
{ACAD_REACTORS
330
1187
102
}
330
1187
100
AcDbVisualStyle
  2
ColorChange
 70
    16
177
     2
291
     1
 71
     2
176
     1
 72
     2
176
     1
 73
     3
176
     1
 90
        0
176
     1
 40
0.6
176
     1
 41
30.0
176
     1
 63
     8
176
     1
 74
     1
176
     1
 91
        4
176
     1
 64
     7
176
     1
 65
   257
176
     1
 75
     1
176
     1
175
     1
176
     1
 42
1.0
176
     1
 92
        8
176
     1
 66
     8
176
     1
 43
1.0
176
     1
 76
     1
176
     1
 77
     6
176
     1
 78
     2
176
     1
 67
     7
176
     1
 79
     5
176
     1
170
     0
176
     1
171
     0
176
     1
290
     0
176
     1
 93
        1
176
     1
 44
0.0
176
     1
173
     0
176
     1
  0
VISUALSTYLE
  5
1190
102
{ACAD_REACTORS
330
1187
102
}
330
1187
100
AcDbVisualStyle
  2
Conceptual
 70
     9
177
     2
291
     0
 71
     3
176
     1
 72
     2
176
     1
 73
     0
176
     1
 90
        0
176
     1
 40
0.6
176
     1
 41
30.0
176
     1
 63
     7
176
     1
 74
     2
176
     1
 91
        2
176
     1
 64
     7
176
     1
 65
   257
176
     1
 75
     1
176
     1
175
     1
176
     1
 42
40.0
176
     1
 92
        8
176
     1
 66
     7
176
     1
 43
1.0
176
     1
 76
     1
176
     1
 77
     6
176
     1
 78
     2
176
     1
 67
     7
176
     1
 79
     3
176
     1
170
     0
176
     1
171
     0
176
     1
290
     0
176
     1
 93
        1
176
     1
 44
0.0
176
     1
173
     0
176
     1
  0
VISUALSTYLE
  5
1192
102
{ACAD_REACTORS
330
1187
102
}
330
1187
100
AcDbVisualStyle
  2
Dim
 70
    11
177
     2
291
     1
 71
     2
176
     1
 72
     2
176
     1
 73
     0
176
     1
 90
        0
176
     1
 40
0.6
176
     1
 41
30.0
176
     1
 63
     7
176
     1
 74
     1
176
     1
 91
        4
176
     1
 64
     7
176
     1
 65
   257
176
     1
 75
     1
176
     1
175
     1
176
     1
 42
1.0
176
     1
 92
        8
176
     1
 66
     7
176
     1
 43
1.0
176
     1
 76
     1
176
     1
 77
     6
176
     1
 78
     2
176
     1
 67
     7
176
     1
 79
     5
176
     1
170
     0
176
     1
171
     0
176
     1
290
     0
176
     1
 93
        1
176
     1
 44
-50.0
176
     1
173
     0
176
     1
  0
VISUALSTYLE
  5
3EFCF
102
{ACAD_REACTORS
330
1187
102
}
330
1187
100
AcDbVisualStyle
  2
EdgeColorOff
 70
    22
177
     2
291
     1
 71
     2
176
     0
 72
     2
176
     0
 73
     0
176
     0
 90
        0
176
     0
 40
0.6
176
     0
 41
30.0
176
     0
 63
     7
421
 16777215
176
     0
 74
     1
176
     0
 91
        4
176
     0
 64
     7
176
     0
 65
   257
176
     0
 75
     1
176
     0
175
     1
176
     0
 42
1.0
176
     0
 92
        8
176
     2
 66
     7
176
     0
 43
1.0
176
     0
 76
     1
176
     0
 77
     6
176
     0
 78
     2
176
     0
 67
     7
176
     0
 79
     5
176
     0
170
     0
176
     0
171
     0
176
     0
290
     0
176
     0
 93
        1
176
     0
 44
0.0
176
     0
173
     0
176
     0
  0
VISUALSTYLE
  5
1196
102
{ACAD_REACTORS
330
1187
102
}
330
1187
100
AcDbVisualStyle
  2
Facepattern
 70
    15
177
     2
291
     1
 71
     2
176
     1
 72
     2
176
     1
 73
     0
176
     1
 90
        0
176
     1
 40
0.6
176
     1
 41
30.0
176
     1
 63
     7
176
     1
 74
     1
176
     1
 91
        4
176
     1
 64
     7
176
     1
 65
   257
176
     1
 75
     1
176
     1
175
     1
176
     1
 42
1.0
176
     1
 92
        8
176
     1
 66
     7
176
     1
 43
1.0
176
     1
 76
     1
176
     1
 77
     6
176
     1
 78
     2
176
     1
 67
     7
176
     1
 79
     5
176
     1
170
     0
176
     1
171
     0
176
     1
290
     0
176
     1
 93
        1
176
     1
 44
0.0
176
     1
173
     0
176
     1
  0
VISUALSTYLE
  5
1188
102
{ACAD_REACTORS
330
1187
102
}
330
1187
100
AcDbVisualStyle
  2
Flat
 70
     0
177
     2
291
     1
 71
     2
176
     1
 72
     1
176
     1
 73
     1
176
     1
 90
        2
176
     1
 40
0.6
176
     1
 41
30.0
176
     1
 63
     7
176
     1
 74
     0
176
     1
 91
        4
176
     1
 64
     7
176
     1
 65
   257
176
     1
 75
     1
176
     1
175
     1
176
     1
 42
1.0
176
     1
 92
        8
176
     1
 66
     7
176
     1
 43
1.0
176
     1
 76
     1
176
     1
 77
     6
176
     1
 78
     2
176
     1
 67
     7
176
     1
 79
     5
176
     1
170
     0
176
     1
171
     0
176
     1
290
     0
176
     1
 93
       13
176
     1
 44
0.0
176
     1
173
     0
176
     1
  0
VISUALSTYLE
  5
1189
102
{ACAD_REACTORS
330
1187
102
}
330
1187
100
AcDbVisualStyle
  2
FlatWithEdges
 70
     1
177
     2
291
     1
 71
     2
176
     1
 72
     1
176
     1
 73
     1
176
     1
 90
        2
176
     1
 40
0.6
176
     1
 41
30.0
176
     1
 63
     7
176
     1
 74
     1
176
     1
 91
        4
176
     1
 64
     7
176
     1
 65
   257
176
     1
 75
     1
176
     1
175
     1
176
     1
 42
1.0
176
     1
 92
        0
176
     1
 66
   257
176
     1
 43
1.0
176
     1
 76
     1
176
     1
 77
     6
176
     1
 78
     2
176
     1
 67
     7
176
     1
 79
     5
176
     1
170
     0
176
     1
171
     0
176
     1
290
     0
176
     1
 93
       13
176
     1
 44
0.0
176
     1
173
     0
176
     1
  0
VISUALSTYLE
  5
118A
102
{ACAD_REACTORS
330
1187
102
}
330
1187
100
AcDbVisualStyle
  2
Gouraud
 70
     2
177
     2
291
     1
 71
     2
176
     1
 72
     2
176
     1
 73
     1
176
     1
 90
        2
176
     1
 40
0.6
176
     1
 41
30.0
176
     1
 63
     7
176
     1
 74
     0
176
     1
 91
        4
176
     1
 64
     7
176
     1
 65
   257
176
     1
 75
     1
176
     1
175
     1
176
     1
 42
1.0
176
     1
 92
        0
176
     1
 66
     7
176
     1
 43
1.0
176
     1
 76
     1
176
     1
 77
     6
176
     1
 78
     2
176
     1
 67
     7
176
     1
 79
     5
176
     1
170
     0
176
     1
171
     0
176
     1
290
     0
176
     1
 93
       13
176
     1
 44
0.0
176
     1
173
     0
176
     1
  0
VISUALSTYLE
  5
118B
102
{ACAD_REACTORS
330
1187
102
}
330
1187
100
AcDbVisualStyle
  2
GouraudWithEdges
 70
     3
177
     2
291
     1
 71
     2
176
     1
 72
     2
176
     1
 73
     1
176
     1
 90
        2
176
     1
 40
0.6
176
     1
 41
30.0
176
     1
 63
     7
176
     1
 74
     1
176
     1
 91
        4
176
     1
 64
     7
176
     1
 65
   257
176
     1
 75
     1
176
     1
175
     1
176
     1
 42
1.0
176
     1
 92
        0
176
     1
 66
   257
176
     1
 43
1.0
176
     1
 76
     1
176
     1
 77
     6
176
     1
 78
     2
176
     1
 67
     7
176
     1
 79
     5
176
     1
170
     0
176
     1
171
     0
176
     1
290
     0
176
     1
 93
       13
176
     1
 44
0.0
176
     1
173
     0
176
     1
  0
VISUALSTYLE
  5
3EFCD
102
{ACAD_REACTORS
330
1187
102
}
330
1187
100
AcDbVisualStyle
  2
JitterOff
 70
    20
177
     2
291
     1
 71
     2
176
     0
 72
     2
176
     0
 73
     0
176
     0
 90
        0
176
     0
 40
0.6
176
     0
 41
30.0
176
     0
 63
     7
421
 16777215
176
     0
 74
     1
176
     0
 91
        4
176
     0
 64
     7
176
     0
 65
   257
176
     0
 75
     1
176
     0
175
     1
176
     0
 42
1.0
176
     0
 92
       10
176
     2
 66
     7
176
     0
 43
1.0
176
     0
 76
     1
176
     0
 77
     6
176
     0
 78
     2
176
     0
 67
     7
176
     0
 79
     5
176
     0
170
     0
176
     0
171
     0
176
     0
290
     0
176
     0
 93
        1
176
     0
 44
0.0
176
     0
173
     0
176
     0
  0
VISUALSTYLE
  5
1195
102
{ACAD_REACTORS
330
1187
102
}
330
1187
100
AcDbVisualStyle
  2
Linepattern
 70
    14
177
     2
291
     1
 71
     2
176
     1
 72
     2
176
     1
 73
     0
176
     1
 90
        0
176
     1
 40
0.6
176
     1
 41
30.0
176
     1
 63
     7
176
     1
 74
     1
176
     1
 91
        4
176
     1
 64
     7
176
     1
 65
   257
176
     1
 75
     7
176
     1
175
     7
176
     1
 42
1.0
176
     1
 92
        8
176
     1
 66
     7
176
     1
 43
1.0
176
     1
 76
     1
176
     1
 77
     6
176
     1
 78
     2
176
     1
 67
     7
176
     1
 79
     5
176
     1
170
     0
176
     1
171
     0
176
     1
290
     0
176
     1
 93
        1
176
     1
 44
0.0
176
     1
173
     0
176
     1
  0
VISUALSTYLE
  5
3EFCE
102
{ACAD_REACTORS
330
1187
102
}
330
1187
100
AcDbVisualStyle
  2
OverhangOff
 70
    21
177
     2
291
     1
 71
     2
176
     0
 72
     2
176
     0
 73
     0
176
     0
 90
        0
176
     0
 40
0.6
176
     0
 41
30.0
176
     0
 63
     7
421
 16777215
176
     0
 74
     1
176
     0
 91
        4
176
     0
 64
     7
176
     0
 65
   257
176
     0
 75
     1
176
     0
175
     1
176
     0
 42
1.0
176
     0
 92
        9
176
     2
 66
     7
176
     0
 43
1.0
176
     0
 76
     1
176
     0
 77
     6
176
     0
 78
     2
176
     0
 67
     7
176
     0
 79
     5
176
     0
170
     0
176
     0
171
     0
176
     0
290
     0
176
     0
 93
        1
176
     0
 44
0.0
176
     0
173
     0
176
     0
  0
VISUALSTYLE
  5
1191
102
{ACAD_REACTORS
330
1187
102
}
330
1187
100
AcDbVisualStyle
  2
Realistic
 70
     8
177
     2
291
     0
 71
     2
176
     1
 72
     2
176
     1
 73
     0
176
     1
 90
        0
176
     1
 40
0.6
176
     1
 41
30.0
176
     1
 63
     7
176
     1
 74
     1
176
     1
 91
        0
176
     1
 64
     7
176
     1
 65
   257
176
     1
 75
     1
176
     1
175
     1
176
     1
 42
1.0
176
     1
 92
        8
176
     1
 66
     8
176
     1
 43
1.0
176
     1
 76
     1
176
     1
 77
     6
176
     1
 78
     2
176
     1
 67
     7
176
     1
 79
     5
176
     1
170
     0
176
     1
171
     0
176
     1
290
     0
176
     1
 93
       13
176
     1
 44
0.0
176
     1
173
     0
176
     1
  0
VISUALSTYLE
  5
1194
102
{ACAD_REACTORS
330
1187
102
}
330
1187
100
AcDbVisualStyle
  2
Thicken
 70
    13
177
     2
291
     1
 71
     2
176
     1
 72
     2
176
     1
 73
     0
176
     1
 90
        0
176
     1
 40
0.6
176
     1
 41
30.0
176
     1
 63
     7
176
     1
 74
     1
176
     1
 91
        4
176
     1
 64
     7
176
     1
 65
   257
176
     1
 75
     1
176
     1
175
     1
176
     1
 42
1.0
176
     1
 92
       12
176
     1
 66
     7
176
     1
 43
1.0
176
     1
 76
     1
176
     1
 77
     6
176
     1
 78
     2
176
     1
 67
     7
176
     1
 79
     5
176
     1
170
     0
176
     1
171
     0
176
     1
290
     0
176
     1
 93
        1
176
     1
 44
0.0
176
     1
173
     0
176
     1
  0
DICTIONARYVAR
  5
1203
102
{ACAD_REACTORS
330
1200
102
}
330
1200
100
DictionaryVariables
280
     0
  1
1:1
  0
DICTIONARYVAR
  5
1202
102
{ACAD_REACTORS
330
1200
102
}
330
1200
100
DictionaryVariables
280
     0
  1
STANDARD
  0
DICTIONARYVAR
  5
1201
102
{ACAD_REACTORS
330
1200
102
}
330
1200
100
DictionaryVariables
280
     0
  1
STANDARD
  0
DICTIONARYVAR
  5
1206
102
{ACAD_REACTORS
330
1200
102
}
330
1200
100
DictionaryVariables
280
     0
  1
1
  0
DICTIONARYVAR
  5
1205
102
{ACAD_REACTORS
330
1200
102
}
330
1200
100
DictionaryVariables
280
     0
  1
0
  0
DICTIONARYVAR
  5
3F012
102
{ACAD_REACTORS
330
1200
102
}
330
1200
100
DictionaryVariables
280
     0
  1
1
  0
DICTIONARYVAR
  5
3F013
102
{ACAD_REACTORS
330
1200
102
}
330
1200
100
DictionaryVariables
280
     0
  1
15
  0
DICTIONARYVAR
  5
3F011
102
{ACAD_REACTORS
330
1200
102
}
330
1200
100
DictionaryVariables
280
     0
  1
0
  0
DICTIONARYVAR
  5
3F010
102
{ACAD_REACTORS
330
1200
102
}
330
1200
100
DictionaryVariables
280
     0
  1
0
  0
DICTIONARYVAR
  5
1204
102
{ACAD_REACTORS
330
1200
102
}
330
1200
100
DictionaryVariables
280
     0
  1
127
  0
DICTIONARY
  5
1178
330
1177
100
AcDbDictionary
280
     1
281
     1
  3
BUMPTILE
360
117A
  3
DIFFUSETILE
360
1179
  3
OPACITYTILE
360
117D
  3
REFLECTIONTILE
360
117C
  3
REFRACTIONTILE
360
117E
  3
SPECULARTILE
360
117B
  0
DICTIONARY
  5
1170
330
116F
100
AcDbDictionary
280
     1
281
     1
  3
BUMPTILE
360
1172
  3
DIFFUSETILE
360
1171
  3
OPACITYTILE
360
1175
  3
REFLECTIONTILE
360
1174
  3
REFRACTIONTILE
360
1176
  3
SPECULARTILE
360
1173
  0
DICTIONARY
  5
1180
330
117F
100
AcDbDictionary
280
     1
281
     1
  3
BUMPTILE
360
1182
  3
DIFFUSETILE
360
1181
  3
OPACITYTILE
360
1185
  3
REFLECTIONTILE
360
1184
  3
REFRACTIONTILE
360
1186
  3
SPECULARTILE
360
1183
  0
DICTIONARY
  5
11D8
330
1199
100
AcDbDictionary
280
     1
281
     1
  3
ACAD_ROUNDTRIP_2008_TABLESTYLE_CELLSTYLEMAP
360
3F014
  0
XRECORD
  5
117A
102
{ACAD_REACTORS
330
1178
102
}
330
1178
100
AcDbXrecord
280
     1
270
     1
271
     1
  0
XRECORD
  5
1179
102
{ACAD_REACTORS
330
1178
102
}
330
1178
100
AcDbXrecord
280
     1
270
     1
271
     1
  0
XRECORD
  5
117D
102
{ACAD_REACTORS
330
1178
102
}
330
1178
100
AcDbXrecord
280
     1
270
     1
271
     1
  0
XRECORD
  5
117C
102
{ACAD_REACTORS
330
1178
102
}
330
1178
100
AcDbXrecord
280
     1
270
     1
271
     1
  0
XRECORD
  5
117E
102
{ACAD_REACTORS
330
1178
102
}
330
1178
100
AcDbXrecord
280
     1
270
     1
271
     1
  0
XRECORD
  5
117B
102
{ACAD_REACTORS
330
1178
102
}
330
1178
100
AcDbXrecord
280
     1
270
     1
271
     1
  0
XRECORD
  5
1172
102
{ACAD_REACTORS
330
1170
102
}
330
1170
100
AcDbXrecord
280
     1
270
     1
271
     1
  0
XRECORD
  5
1171
102
{ACAD_REACTORS
330
1170
102
}
330
1170
100
AcDbXrecord
280
     1
270
     1
271
     1
  0
XRECORD
  5
1175
102
{ACAD_REACTORS
330
1170
102
}
330
1170
100
AcDbXrecord
280
     1
270
     1
271
     1
  0
XRECORD
  5
1174
102
{ACAD_REACTORS
330
1170
102
}
330
1170
100
AcDbXrecord
280
     1
270
     1
271
     1
  0
XRECORD
  5
1176
102
{ACAD_REACTORS
330
1170
102
}
330
1170
100
AcDbXrecord
280
     1
270
     1
271
     1
  0
XRECORD
  5
1173
102
{ACAD_REACTORS
330
1170
102
}
330
1170
100
AcDbXrecord
280
     1
270
     1
271
     1
  0
XRECORD
  5
1182
102
{ACAD_REACTORS
330
1180
102
}
330
1180
100
AcDbXrecord
280
     1
270
     1
271
     1
  0
XRECORD
  5
1181
102
{ACAD_REACTORS
330
1180
102
}
330
1180
100
AcDbXrecord
280
     1
270
     1
271
     1
  0
XRECORD
  5
1185
102
{ACAD_REACTORS
330
1180
102
}
330
1180
100
AcDbXrecord
280
     1
270
     1
271
     1
  0
XRECORD
  5
1184
102
{ACAD_REACTORS
330
1180
102
}
330
1180
100
AcDbXrecord
280
     1
270
     1
271
     1
  0
XRECORD
  5
1186
102
{ACAD_REACTORS
330
1180
102
}
330
1180
100
AcDbXrecord
280
     1
270
     1
271
     1
  0
XRECORD
  5
1183
102
{ACAD_REACTORS
330
1180
102
}
330
1180
100
AcDbXrecord
280
     1
270
     1
271
     1
  0
CELLSTYLEMAP
  5
3F014
102
{ACAD_REACTORS
330
11D8
102
}
330
11D8
100
AcDbCellStyleMap
 90
        3
300
CELLSTYLE
  1
TABLEFORMAT_BEGIN
 90
        5
170
     1
 91
        0
 92
    32768
 62
   257
 93
        1
300
CONTENTFORMAT
  1
CONTENTFORMAT_BEGIN
 90
        0
 91
        0
 92
      512
 93
        0
300

 40
0.0
140
1.0
 94
        5
 62
     0
340
11
144
0.25
309
CONTENTFORMAT_END
171
     1
301
MARGIN
  1
CELLMARGIN_BEGIN
 40
0.06
 40
0.06
 40
0.06
 40
0.06
 40
0.18
 40
0.18
309
CELLMARGIN_END
 94
        6
 95
        1
302
GRIDFORMAT
  1
GRIDFORMAT_BEGIN
 90
        0
 91
        1
 62
     0
 92
       -2
340
0
 93
        0
 40
0.045
309
GRIDFORMAT_END
 95
        2
302
GRIDFORMAT
  1
GRIDFORMAT_BEGIN
 90
        0
 91
        1
 62
     0
 92
       -2
340
0
 93
        0
 40
0.045
309
GRIDFORMAT_END
 95
        4
302
GRIDFORMAT
  1
GRIDFORMAT_BEGIN
 90
        0
 91
        1
 62
     0
 92
       -2
340
0
 93
        0
 40
0.045
309
GRIDFORMAT_END
 95
        8
302
GRIDFORMAT
  1
GRIDFORMAT_BEGIN
 90
        0
 91
        1
 62
     0
 92
       -2
340
0
 93
        0
 40
0.045
309
GRIDFORMAT_END
 95
       16
302
GRIDFORMAT
  1
GRIDFORMAT_BEGIN
 90
        0
 91
        1
 62
     0
 92
       -2
340
0
 93
        0
 40
0.045
309
GRIDFORMAT_END
 95
       32
302
GRIDFORMAT
  1
GRIDFORMAT_BEGIN
 90
        0
 91
        1
 62
     0
 92
       -2
340
0
 93
        0
 40
0.045
309
GRIDFORMAT_END
309
TABLEFORMAT_END
  1
CELLSTYLE_BEGIN
 90
        1
 91
        1
300
_TITLE
309
CELLSTYLE_END
300
CELLSTYLE
  1
TABLEFORMAT_BEGIN
 90
        5
170
     1
 91
        0
 92
        0
 62
   257
 93
        1
300
CONTENTFORMAT
  1
CONTENTFORMAT_BEGIN
 90
        0
 91
        0
 92
      512
 93
        0
300

 40
0.0
140
1.0
 94
        5
 62
     0
340
11
144
0.18
309
CONTENTFORMAT_END
171
     1
301
MARGIN
  1
CELLMARGIN_BEGIN
 40
0.06
 40
0.06
 40
0.06
 40
0.06
 40
0.18
 40
0.18
309
CELLMARGIN_END
 94
        6
 95
        1
302
GRIDFORMAT
  1
GRIDFORMAT_BEGIN
 90
        0
 91
        1
 62
     0
 92
       -2
340
0
 93
        0
 40
0.045
309
GRIDFORMAT_END
 95
        2
302
GRIDFORMAT
  1
GRIDFORMAT_BEGIN
 90
        0
 91
        1
 62
     0
 92
       -2
340
0
 93
        0
 40
0.045
309
GRIDFORMAT_END
 95
        4
302
GRIDFORMAT
  1
GRIDFORMAT_BEGIN
 90
        0
 91
        1
 62
     0
 92
       -2
340
0
 93
        0
 40
0.045
309
GRIDFORMAT_END
 95
        8
302
GRIDFORMAT
  1
GRIDFORMAT_BEGIN
 90
        0
 91
        1
 62
     0
 92
       -2
340
0
 93
        0
 40
0.045
309
GRIDFORMAT_END
 95
       16
302
GRIDFORMAT
  1
GRIDFORMAT_BEGIN
 90
        0
 91
        1
 62
     0
 92
       -2
340
0
 93
        0
 40
0.045
309
GRIDFORMAT_END
 95
       32
302
GRIDFORMAT
  1
GRIDFORMAT_BEGIN
 90
        0
 91
        1
 62
     0
 92
       -2
340
0
 93
        0
 40
0.045
309
GRIDFORMAT_END
309
TABLEFORMAT_END
  1
CELLSTYLE_BEGIN
 90
        2
 91
        1
300
_HEADER
309
CELLSTYLE_END
300
CELLSTYLE
  1
TABLEFORMAT_BEGIN
 90
        5
170
     1
 91
        0
 92
        0
 62
   257
 93
        1
300
CONTENTFORMAT
  1
CONTENTFORMAT_BEGIN
 90
        0
 91
        0
 92
      512
 93
        0
300

 40
0.0
140
1.0
 94
        2
 62
     0
340
11
144
0.18
309
CONTENTFORMAT_END
171
     1
301
MARGIN
  1
CELLMARGIN_BEGIN
 40
0.06
 40
0.06
 40
0.06
 40
0.06
 40
0.18
 40
0.18
309
CELLMARGIN_END
 94
        6
 95
        1
302
GRIDFORMAT
  1
GRIDFORMAT_BEGIN
 90
        0
 91
        1
 62
     0
 92
       -2
340
0
 93
        0
 40
0.045
309
GRIDFORMAT_END
 95
        2
302
GRIDFORMAT
  1
GRIDFORMAT_BEGIN
 90
        0
 91
        1
 62
     0
 92
       -2
340
0
 93
        0
 40
0.045
309
GRIDFORMAT_END
 95
        4
302
GRIDFORMAT
  1
GRIDFORMAT_BEGIN
 90
        0
 91
        1
 62
     0
 92
       -2
340
0
 93
        0
 40
0.045
309
GRIDFORMAT_END
 95
        8
302
GRIDFORMAT
  1
GRIDFORMAT_BEGIN
 90
        0
 91
        1
 62
     0
 92
       -2
340
0
 93
        0
 40
0.045
309
GRIDFORMAT_END
 95
       16
302
GRIDFORMAT
  1
GRIDFORMAT_BEGIN
 90
        0
 91
        1
 62
     0
 92
       -2
340
0
 93
        0
 40
0.045
309
GRIDFORMAT_END
 95
       32
302
GRIDFORMAT
  1
GRIDFORMAT_BEGIN
 90
        0
 91
        1
 62
     0
 92
       -2
340
0
 93
        0
 40
0.045
309
GRIDFORMAT_END
309
TABLEFORMAT_END
  1
CELLSTYLE_BEGIN
 90
        3
 91
        2
300
_DATA
309
CELLSTYLE_END
  0
ENDSEC
  0
EOF
