  0
SECTION
  2
HEADER
  9
$ACADVER
  1
AC1018
  9
$ACADMAINTVER
 70
     0
  9
$DWGCODEPAGE
  3
ANSI_936
  9
$INSBASE
 10
0.0
 20
0.0
 30
0.0
  9
$EXTMIN
 10
851.9999999999275
 20
-317.4887403237178
 30
0.0
  9
$EXTMAX
 10
1449.954843156743
 20
92.51125967628695
 30
0.0
  9
$LIMMIN
 10
0.0
 20
0.0
  9
$LIMMAX
 10
12.0
 20
9.0
  9
$ORTHOMODE
 70
     0
  9
$REGENMODE
 70
     1
  9
$FILLMODE
 70
     1
  9
$QTEXTMODE
 70
     0
  9
$MIRRTEXT
 70
     1
  9
$LTSCALE
 40
1.0
  9
$ATTMODE
 70
     1
  9
$TEXTSIZE
 40
0.2
  9
$TRACEWID
 40
0.05
  9
$TEXTSTYLE
  7
Standard
  9
$CLAYER
  8
0
  9
$CELTYPE
  6
ByLayer
  9
$CECOLOR
 62
   256
  9
$CELTSCALE
 40
1.0
  9
$DISPSILH
 70
     0
  9
$DIMSCALE
 40
1.0
  9
$DIMASZ
 40
0.18
  9
$DIMEXO
 40
0.0625
  9
$DIMDLI
 40
0.38
  9
$DIMRND
 40
0.0
  9
$DIMDLE
 40
0.0
  9
$DIMEXE
 40
0.18
  9
$DIMTP
 40
0.0
  9
$DIMTM
 40
0.0
  9
$DIMTXT
 40
0.18
  9
$DIMCEN
 40
0.09
  9
$DIMTSZ
 40
0.0
  9
$DIMTOL
 70
     0
  9
$DIMLIM
 70
     0
  9
$DIMTIH
 70
     1
  9
$DIMTOH
 70
     1
  9
$DIMSE1
 70
     0
  9
$DIMSE2
 70
     0
  9
$DIMTAD
 70
     0
  9
$DIMZIN
 70
     0
  9
$DIMBLK
  1

  9
$DIMASO
 70
     1
  9
$DIMSHO
 70
     1
  9
$DIMPOST
  1

  9
$DIMAPOST
  1

  9
$DIMALT
 70
     0
  9
$DIMALTD
 70
     2
  9
$DIMALTF
 40
25.4
  9
$DIMLFAC
 40
1.0
  9
$DIMTOFL
 70
     0
  9
$DIMTVP
 40
0.0
  9
$DIMTIX
 70
     0
  9
$DIMSOXD
 70
     0
  9
$DIMSAH
 70
     0
  9
$DIMBLK1
  1

  9
$DIMBLK2
  1

  9
$DIMSTYLE
  2
Standard
  9
$DIMCLRD
 70
     0
  9
$DIMCLRE
 70
     0
  9
$DIMCLRT
 70
     0
  9
$DIMTFAC
 40
1.0
  9
$DIMGAP
 40
0.09
  9
$DIMJUST
 70
     0
  9
$DIMSD1
 70
     0
  9
$DIMSD2
 70
     0
  9
$DIMTOLJ
 70
     1
  9
$DIMTZIN
 70
     0
  9
$DIMALTZ
 70
     0
  9
$DIMALTTZ
 70
     0
  9
$DIMUPT
 70
     0
  9
$DIMDEC
 70
     4
  9
$DIMTDEC
 70
     4
  9
$DIMALTU
 70
     2
  9
$DIMALTTD
 70
     2
  9
$DIMTXSTY
  7
Standard
  9
$DIMAUNIT
 70
     0
  9
$DIMADEC
 70
     0
  9
$DIMALTRND
 40
0.0
  9
$DIMAZIN
 70
     0
  9
$DIMDSEP
 70
    46
  9
$DIMATFIT
 70
     3
  9
$DIMFRAC
 70
     0
  9
$DIMLDRBLK
  1

  9
$DIMLUNIT
 70
     2
  9
$DIMLWD
 70
    -2
  9
$DIMLWE
 70
    -2
  9
$DIMTMOVE
 70
     2
  9
$LUNITS
 70
     2
  9
$LUPREC
 70
     3
  9
$SKETCHINC
 40
0.1
  9
$FILLETRAD
 40
0.5
  9
$AUNITS
 70
     0
  9
$AUPREC
 70
     0
  9
$MENU
  1
.
  9
$ELEVATION
 40
0.0
  9
$PELEVATION
 40
0.0
  9
$THICKNESS
 40
0.0
  9
$LIMCHECK
 70
     0
  9
$CHAMFERA
 40
0.5
  9
$CHAMFERB
 40
0.5
  9
$CHAMFERC
 40
1.0
  9
$CHAMFERD
 40
0.0
  9
$SKPOLY
 70
     0
  9
$TDCREATE
 40
2458215.745711748
  9
$TDUCREATE
 40
2458215.412378415
  9
$TDUPDATE
 40
2458215.745711782
  9
$TDUUPDATE
 40
2458215.412378449
  9
$TDINDWG
 40
0.0000000116
  9
$TDUSRTIMER
 40
0.0000000116
  9
$USRTIMER
 70
     1
  9
$ANGBASE
 50
0.0
  9
$ANGDIR
 70
     0
  9
$PDMODE
 70
     0
  9
$PDSIZE
 40
0.0
  9
$PLINEWID
 40
0.0
  9
$SPLFRAME
 70
     0
  9
$SPLINETYPE
 70
     6
  9
$SPLINESEGS
 70
     8
  9
$HANDSEED
  5
A4
  9
$SURFTAB1
 70
     6
  9
$SURFTAB2
 70
     6
  9
$SURFTYPE
 70
     6
  9
$SURFU
 70
     6
  9
$SURFV
 70
     6
  9
$UCSBASE
  2

  9
$UCSNAME
  2

  9
$UCSORG
 10
0.0
 20
0.0
 30
0.0
  9
$UCSXDIR
 10
1.0
 20
0.0
 30
0.0
  9
$UCSYDIR
 10
0.0
 20
1.0
 30
0.0
  9
$UCSORTHOREF
  2

  9
$UCSORTHOVIEW
 70
     0
  9
$UCSORGTOP
 10
0.0
 20
0.0
 30
0.0
  9
$UCSORGBOTTOM
 10
0.0
 20
0.0
 30
0.0
  9
$UCSORGLEFT
 10
0.0
 20
0.0
 30
0.0
  9
$UCSORGRIGHT
 10
0.0
 20
0.0
 30
0.0
  9
$UCSORGFRONT
 10
0.0
 20
0.0
 30
0.0
  9
$UCSORGBACK
 10
0.0
 20
0.0
 30
0.0
  9
$PUCSBASE
  2

  9
$PUCSNAME
  2

  9
$PUCSORG
 10
0.0
 20
0.0
 30
0.0
  9
$PUCSXDIR
 10
1.0
 20
0.0
 30
0.0
  9
$PUCSYDIR
 10
0.0
 20
1.0
 30
0.0
  9
$PUCSORTHOREF
  2

  9
$PUCSORTHOVIEW
 70
     0
  9
$PUCSORGTOP
 10
0.0
 20
0.0
 30
0.0
  9
$PUCSORGBOTTOM
 10
0.0
 20
0.0
 30
0.0
  9
$PUCSORGLEFT
 10
0.0
 20
0.0
 30
0.0
  9
$PUCSORGRIGHT
 10
0.0
 20
0.0
 30
0.0
  9
$PUCSORGFRONT
 10
0.0
 20
0.0
 30
0.0
  9
$PUCSORGBACK
 10
0.0
 20
0.0
 30
0.0
  9
$USERI1
 70
     0
  9
$USERI2
 70
     0
  9
$USERI3
 70
     0
  9
$USERI4
 70
     0
  9
$USERI5
 70
     0
  9
$USERR1
 40
0.0
  9
$USERR2
 40
0.0
  9
$USERR3
 40
0.0
  9
$USERR4
 40
0.0
  9
$USERR5
 40
0.0
  9
$WORLDVIEW
 70
     1
  9
$SHADEDGE
 70
     3
  9
$SHADEDIF
 70
    70
  9
$TILEMODE
 70
     1
  9
$MAXACTVP
 70
    64
  9
$PINSBASE
 10
0.0
 20
0.0
 30
0.0
  9
$PLIMCHECK
 70
     0
  9
$PEXTMIN
 10
1.000000000000000E+20
 20
1.000000000000000E+20
 30
1.000000000000000E+20
  9
$PEXTMAX
 10
-1.000000000000000E+20
 20
-1.000000000000000E+20
 30
-1.000000000000000E+20
  9
$PLIMMIN
 10
0.0
 20
0.0
  9
$PLIMMAX
 10
12.0
 20
9.0
  9
$UNITMODE
 70
     0
  9
$VISRETAIN
 70
     1
  9
$PLINEGEN
 70
     0
  9
$PSLTSCALE
 70
     1
  9
$TREEDEPTH
 70
  3020
  9
$CMLSTYLE
  2
Standard
  9
$CMLJUST
 70
     0
  9
$CMLSCALE
 40
1.0
  9
$PROXYGRAPHICS
 70
     1
  9
$MEASUREMENT
 70
     0
  9
$CELWEIGHT
370
    -1
  9
$ENDCAPS
280
     0
  9
$JOINSTYLE
280
     0
  9
$LWDISPLAY
290
     0
  9
$INSUNITS
 70
     4
  9
$HYPERLINKBASE
  1

  9
$STYLESHEET
  1

  9
$XEDIT
290
     1
  9
$CEPSNTYPE
380
     0
  9
$PSTYLEMODE
290
     1
  9
$FINGERPRINTGUID
  2
{F5F24156-A5F4-4799-A59B-E6C2F20DE98D}
  9
$VERSIONGUID
  2
{FAEB1C32-E019-11D5-929B-00C0DF256EC4}
  9
$EXTNAMES
290
     1
  9
$PSVPSCALE
 40
0.0
  9
$OLESTARTUP
290
     0
  9
$SORTENTS
280
   127
  9
$INDEXCTL
280
     0
  9
$HIDETEXT
280
     1
  9
$XCLIPFRAME
290
     0
  9
$HALOGAP
280
     0
  9
$OBSCOLOR
 70
   257
  9
$OBSLTYPE
280
     0
  9
$INTERSECTIONDISPLAY
280
     0
  9
$INTERSECTIONCOLOR
 70
   257
  9
$DIMASSOC
280
     2
  9
$PROJECTNAME
  1

  0
ENDSEC
  0
SECTION
  2
CLASSES
  0
CLASS
  1
ACDBDICTIONARYWDFLT
  2
AcDbDictionaryWithDefault
  3
ObjectDBX Classes
 90
        0
 91
        4
280
     0
281
     0
  0
CLASS
  1
VISUALSTYLE
  2
AcDbVisualStyle
  3
ObjectDBX Classes
 90
     4095
 91
        4
280
     0
281
     0
  0
CLASS
  1
MATERIAL
  2
AcDbMaterial
  3
ObjectDBX Classes
 90
     1153
 91
        4
280
     0
281
     0
  0
CLASS
  1
SCALE
  2
AcDbScale
  3
ObjectDBX Classes
 90
     1153
 91
        4
280
     0
281
     0
  0
CLASS
  1
SUN
  2
AcDbSun
  3
SCENEOE
 90
     1153
 91
        4
280
     0
281
     0
  0
CLASS
  1
DICTIONARYVAR
  2
AcDbDictionaryVar
  3
ObjectDBX Classes
 90
        0
 91
        4
280
     0
281
     0
  0
ENDSEC
  0
SECTION
  2
TABLES
  0
TABLE
  2
VPORT
  5
8
330
0
100
AcDbSymbolTable
 70
     1
  0
VPORT
  5
29
330
8
100
AcDbSymbolTableRecord
100
AcDbViewportTableRecord
  2
*Active
 70
     0
 10
0.0
 20
0.0
 11
1.0
 21
1.0
 12
1150.977421578335
 22
-112.4887403237154
 13
0.0
 23
0.0
 14
0.5
 24
0.5
 15
0.5
 25
0.5
 16
0.0
 26
0.0
 36
1.0
 17
0.0
 27
0.0
 37
0.0
 40
418.2000000000049
 41
1.458426446723924
 42
50.0
 43
0.0
 44
0.0
 50
0.0
 51
0.0
 71
     0
 72
   100
 73
     1
 74
     3
 75
     0
 76
     0
 77
     0
 78
     0
281
     0
 65
     1
110
0.0
120
0.0
130
0.0
111
1.0
121
0.0
131
0.0
112
0.0
122
1.0
132
0.0
 79
     0
146
0.0
  0
ENDTAB
  0
TABLE
  2
LTYPE
  5
5
330
0
100
AcDbSymbolTable
 70
     1
  0
LTYPE
  5
14
330
5
100
AcDbSymbolTableRecord
100
AcDbLinetypeTableRecord
  2
ByBlock
 70
     0
  3

 72
    65
 73
     0
 40
0.0
  0
LTYPE
  5
15
330
5
100
AcDbSymbolTableRecord
100
AcDbLinetypeTableRecord
  2
ByLayer
 70
     0
  3

 72
    65
 73
     0
 40
0.0
  0
LTYPE
  5
16
330
5
100
AcDbSymbolTableRecord
100
AcDbLinetypeTableRecord
  2
Continuous
 70
     0
  3
Solid line
 72
    65
 73
     0
 40
0.0
  0
ENDTAB
  0
TABLE
  2
LAYER
  5
2
330
0
100
AcDbSymbolTable
 70
     2
  0
LAYER
  5
10
330
2
100
AcDbSymbolTableRecord
100
AcDbLayerTableRecord
  2
0
 70
     0
 62
     7
  6
Continuous
370
    -3
390
F
  0
LAYER
  5
62
330
2
100
AcDbSymbolTableRecord
100
AcDbLayerTableRecord
  2
NOUVELLE VAGUE$EBD0002
 70
     0
 62
     1
420
 16711680
  6
Continuous
370
    -3
390
F
  0
ENDTAB
  0
TABLE
  2
STYLE
  5
3
330
0
100
AcDbSymbolTable
 70
     1
  0
STYLE
  5
11
330
3
100
AcDbSymbolTableRecord
100
AcDbTextStyleTableRecord
  2
Standard
 70
     0
 40
0.0
 41
1.0
 50
0.0
 71
     0
 42
0.2
  3
txt
  4

  0
ENDTAB
  0
TABLE
  2
VIEW
  5
6
330
0
100
AcDbSymbolTable
 70
     0
  0
ENDTAB
  0
TABLE
  2
UCS
  5
7
330
0
100
AcDbSymbolTable
 70
     0
  0
ENDTAB
  0
TABLE
  2
APPID
  5
9
330
0
100
AcDbSymbolTable
 70
     1
  0
APPID
  5
12
330
9
100
AcDbSymbolTableRecord
100
AcDbRegAppTableRecord
  2
ACAD
 70
     0
  0
ENDTAB
  0
TABLE
  2
DIMSTYLE
  5
A
330
0
100
AcDbSymbolTable
 70
     1
100
AcDbDimStyleTable
  0
DIMSTYLE
105
27
330
A
100
AcDbSymbolTableRecord
100
AcDbDimStyleTableRecord
  2
Standard
 70
     0
178
     0
340
11
  0
ENDTAB
  0
TABLE
  2
BLOCK_RECORD
  5
1
330
0
100
AcDbSymbolTable
 70
     1
  0
BLOCK_RECORD
  5
1F
330
1
100
AcDbSymbolTableRecord
100
AcDbBlockTableRecord
  2
*Model_Space
340
22
  0
BLOCK_RECORD
  5
1B
330
1
100
AcDbSymbolTableRecord
100
AcDbBlockTableRecord
  2
*Paper_Space
340
1E
  0
BLOCK_RECORD
  5
23
330
1
100
AcDbSymbolTableRecord
100
AcDbBlockTableRecord
  2
*Paper_Space0
340
26
  0
ENDTAB
  0
ENDSEC
  0
SECTION
  2
BLOCKS
  0
BLOCK
  5
20
330
1F
100
AcDbEntity
  8
0
100
AcDbBlockBegin
  2
*Model_Space
 70
     0
 10
0.0
 20
0.0
 30
0.0
  3
*Model_Space
  1
*Model_Space
  0
ENDBLK
  5
21
330
1F
100
AcDbEntity
  8
0
100
AcDbBlockEnd
  0
BLOCK
  5
1C
330
1B
100
AcDbEntity
 67
     1
  8
0
100
AcDbBlockBegin
  2
*Paper_Space
 70
     0
 10
0.0
 20
0.0
 30
0.0
  3
*Paper_Space
  1
*Paper_Space
  0
ENDBLK
  5
1D
330
1B
100
AcDbEntity
 67
     1
  8
0
100
AcDbBlockEnd
  0
BLOCK
  5
24
330
23
100
AcDbEntity
  8
0
100
AcDbBlockBegin
  2
*Paper_Space0
 70
     0
 10
0.0
 20
0.0
 30
0.0
  3
*Paper_Space0
  1
*Paper_Space0
  0
ENDBLK
  5
25
330
23
100
AcDbEntity
  8
0
100
AcDbBlockEnd
  0
ENDSEC
  0
SECTION
  2
ENTITIES
  0
LINE
  5
63
330
1F
100
AcDbEntity
  8
NOUVELLE VAGUE$EBD0002
100
AcDbLine
 10
1431.949351856643
 20
7.511259676286045
 30
0.0
 11
1431.932884765159
 21
7.511259676286045
 31
0.0
  0
ARC
  5
64
330
1F
100
AcDbEntity
  8
NOUVELLE VAGUE$EBD0002
100
AcDbCircle
 10
1431.954843154518
 20
25.51125967851083
 30
0.0
 40
18.00000000222487
100
AcDbArc
 50
269.9999999987356
 51
359.998263845811
  0
ARC
  5
65
330
1F
100
AcDbEntity
  8
NOUVELLE VAGUE$EBD0002
100
AcDbCircle
 10
1374.954868562641
 20
-307.4887300993366
 30
0.0
 40
10.00001022438119
100
AcDbArc
 50
269.9999490935339
 51
359.9948420779139
  0
LINE
  5
66
330
1F
100
AcDbEntity
  8
NOUVELLE VAGUE$EBD0002
100
AcDbLine
 10
1374.954844422765
 20
-317.488740323714
 30
0.0
 11
1373.84393515379
 21
-317.488740323714
 31
0.0
  0
LINE
  5
67
330
1F
100
AcDbEntity
  8
NOUVELLE VAGUE$EBD0002
100
AcDbLine
 10
1449.954842966956
 20
77.51105042990139
 30
0.0
 11
1449.954843156743
 21
25.51125974129445
 31
0.0
  0
ARC
  5
68
330
1F
100
AcDbEntity
  8
NOUVELLE VAGUE$EBD0002
100
AcDbCircle
 10
1434.954842966969
 20
77.5112596763009
 30
0.0
 40
14.99999999998606
100
AcDbArc
 50
0.0000002090632772
 51
89.99999999994877
  0
ARC
  5
69
330
1F
100
AcDbEntity
  8
NOUVELLE VAGUE$EBD0002
100
AcDbCircle
 10
1429.954843968608
 20
-37.48873993104682
 30
0.0
 40
44.99999954584784
100
AcDbArc
 50
89.99999942766374
 51
180.0000004999593
  0
LINE
  5
6A
330
1F
100
AcDbEntity
  8
NOUVELLE VAGUE$EBD0002
100
AcDbLine
 10
1431.932884765158
 20
7.511259721974056
 30
0.0
 11
1430.346178731339
 21
7.511259716158065
 31
0.0
  0
LINE
  5
6B
330
1F
100
AcDbEntity
  8
NOUVELLE VAGUE$EBD0002
100
AcDbLine
 10
1384.95484442276
 20
-37.61939120585407
 30
0.0
 11
1384.95484442276
 21
-307.4887403237144
 31
0.0
  0
LINE
  5
6C
330
1F
100
AcDbEntity
  8
NOUVELLE VAGUE$EBD0002
100
AcDbLine
 10
1034.427518801434
 20
-317.488740323714
 30
0.0
 11
1370.648576077009
 21
-317.488740323714
 31
0.0
  0
ARC
  5
6D
330
1F
100
AcDbEntity
  8
NOUVELLE VAGUE$EBD0002
100
AcDbCircle
 10
1034.427518802238
 20
-307.4887403241406
 30
0.0
 40
9.999999999573427
100
AcDbArc
 50
183.0467973607039
 51
269.9999999953948
  0
LINE
  5
6E
330
1F
100
AcDbEntity
  8
NOUVELLE VAGUE$EBD0002
100
AcDbLine
 10
1373.84393515379
 20
-317.488740323714
 30
0.0
 11
1370.648576077008
 21
-317.488740323714
 31
0.0
  0
LINE
  5
6F
330
1F
100
AcDbEntity
  8
NOUVELLE VAGUE$EBD0002
100
AcDbLine
 10
1449.948538625467
 20
25.51071444041634
 30
0.0
 11
1447.677637025464
 21
25.32515876893376
 31
0.0
  0
SPLINE
  5
70
330
1F
100
AcDbEntity
  8
NOUVELLE VAGUE$EBD0002
100
AcDbSpline
210
0.0
220
0.0
230
1.0
 70
    12
 71
     3
 72
    98
 73
    94
 74
     0
 42
0.000000001
 43
0.0000000001
 12
1.0
 22
0.0
 32
0.0
 13
1.0
 23
0.0
 33
0.0
 40
-45.69683442327837
 40
-45.69683442327837
 40
-45.69683442327837
 40
-45.69683442327837
 40
-44.86676056060267
 40
-44.86676056060267
 40
-44.86676056060267
 40
-40.1858122358822
 40
-40.1858122358822
 40
-40.1858122358822
 40
-35.49140526510443
 40
-35.49140526510443
 40
-35.49140526510443
 40
-30.79308297486173
 40
-30.79308297486173
 40
-30.79308297486173
 40
-29.24442640387104
 40
-29.24442640387104
 40
-29.24442640387104
 40
-27.53543342801134
 40
-27.53543342801134
 40
-27.53543342801134
 40
-25.66840241179644
 40
-25.66840241179644
 40
-25.66840241179644
 40
-23.64450923713806
 40
-23.64450923713806
 40
-23.64450923713806
 40
-21.46376364249924
 40
-21.46376364249924
 40
-21.46376364249924
 40
-19.12120638058429
 40
-19.12120638058429
 40
-19.12120638058429
 40
-16.61468204731765
 40
-16.61468204731765
 40
-16.61468204731765
 40
-15.15061985454507
 40
-15.15061985454507
 40
-15.15061985454507
 40
-13.05134713615353
 40
-13.05134713615353
 40
-13.05134713615353
 40
-10.21040834783208
 40
-10.21040834783208
 40
-10.21040834783208
 40
-7.185387889496544
 40
-7.185387889496544
 40
-7.185387889496544
 40
-3.963431684295289
 40
-3.963431684295289
 40
-3.963431684295289
 40
-0.5266503418895798
 40
-0.5266503418895798
 40
-0.5266503418895798
 40
3.142290970679412
 40
3.142290970679412
 40
3.142290970679412
 40
7.077830552940151
 40
7.077830552940151
 40
7.077830552940151
 40
11.32342440715016
 40
11.32342440715016
 40
11.32342440715016
 40
15.93937367695389
 40
15.93937367695389
 40
15.93937367695389
 40
16.35398448588075
 40
16.35398448588075
 40
16.35398448588075
 40
21.05755997763846
 40
21.05755997763846
 40
21.05755997763846
 40
26.75101767577129
 40
26.75101767577129
 40
26.75101767577129
 40
33.3311614526945
 40
33.3311614526945
 40
33.3311614526945
 40
35.89641886684581
 40
35.89641886684581
 40
35.89641886684581
 40
41.39529856314236
 40
41.39529856314236
 40
41.39529856314236
 40
52.07197621704105
 40
52.07197621704105
 40
52.07197621704105
 40
53.06151734589656
 40
53.06151734589656
 40
53.06151734589656
 40
66.73763358313428
 40
66.73763358313428
 40
66.73763358313428
 40
72.52739298127918
 40
72.52739298127918
 40
72.52739298127918
 40
72.52739298127918
 10
1447.677637025464
 20
25.32515876893376
 30
0.0
 41
1.0
 10
1447.622921844496
 20
25.32088121995639
 30
0.0
 41
1.0
 10
1447.567281719821
 20
25.31648803841358
 30
0.0
 41
1.0
 10
1447.510723567911
 20
25.31197501880865
 30
0.0
 41
1.0
 10
1447.191778961045
 20
25.28651970450097
 30
0.0
 41
0.9999999999999997
 10
1446.843562696659
 20
25.2572395412352
 30
0.0
 41
1.0
 10
1446.467240257322
 20
25.22321564510526
 30
0.0
 41
1.0
 10
1446.089829228679
 20
25.18908808179855
 30
0.0
 41
1.0
 10
1445.684612474827
 20
25.15026519296296
 30
0.0
 41
0.9999999999999991
 10
1445.253070704487
 20
25.1057850725997
 30
0.0
 41
1.0
 10
1444.821167411845
 20
25.06126331529764
 30
0.0
 41
1.0
 10
1444.362011495864
 20
25.01093087678579
 30
0.0
 41
0.9999999999999997
 10
1443.87625792258
 20
24.953490503186
 30
0.0
 41
1.0
 10
1443.363603035174
 20
24.89288201700725
 30
0.0
 41
0.9999755567796215
 10
1442.851485946487
 20
24.8278857890142
 30
0.0
 41
0.9999755567796211
 10
1442.339944209892
 20
24.75850658535819
 30
0.0
 41
1.0
 10
1441.775439140411
 20
24.6819459555556
 30
0.0
 41
0.9999690012258227
 10
1441.211698620173
 20
24.59994516685289
 30
0.0
 41
0.9999690012258229
 10
1440.648775074974
 20
24.51251184502485
 30
0.0
 41
1.0
 10
1440.033793219628
 20
24.41699328180629
 30
0.0
 41
0.9999617065400008
 10
1439.419870463854
 20
24.31488878500837
 30
0.0
 41
0.9999617065400007
 10
1438.807077335331
 20
24.20621008443413
 30
0.0
 41
1.0
 10
1438.142796783428
 20
24.08839876984069
 30
0.0
 41
0.9999536576822143
 10
1437.479951493412
 20
23.96276326934961
 30
0.0
 41
0.9999536576822141
 10
1436.818633618641
 20
23.82932104967836
 30
0.0
 41
1.0
 10
1436.106059247911
 20
23.68554198197866
 30
0.0
 41
0.9999452183943125
 10
1435.395386598393
 20
23.53263992392665
 30
0.0
 41
0.9999452183943125
 10
1434.686732465454
 20
23.37064000418036
 30
0.0
 41
1.0
 10
1433.925493474832
 20
23.19661318109697
 30
0.0
 41
0.9999350037177348
 10
1433.16675872437
 20
23.01197376375822
 30
0.0
 41
0.9999350037177349
 10
1432.41067615888
 20
22.81675775478857
 30
0.0
 41
1.0
 10
1431.601668324958
 20
22.60786795449795
 30
0.0
 41
0.9999214762585786
 10
1430.795961795633
 20
22.38658620510168
 30
0.0
 41
0.9999214762585783
 10
1429.993746372179
 20
22.15296463421419
 30
0.0
 41
1.0
 10
1429.525184665438
 20
22.01650918712268
 30
0.0
 41
0.9999751092640983
 10
1429.057819595536
 20
21.87600988641164
 30
0.0
 41
0.9999751092640979
 10
1428.591686061654
 20
21.7314772234763
 30
0.0
 41
1.0
 10
1428.214262550984
 20
21.61444562675753
 30
0.0
 41
0.9999999999999997
 10
1427.832133364948
 20
21.49304964570331
 30
0.0
 41
0.9999999999999999
 10
1427.445301686798
 20
21.36700974693736
 30
0.0
 41
1.0
 10
1426.544859021067
 20
21.07364237098188
 30
0.0
 41
0.9998984740426955
 10
1425.649673182106
 20
20.76460560089474
 30
0.0
 41
0.9998984740426957
 10
1424.760016823711
 20
20.43999356243808
 30
0.0
 41
1.0
 10
1423.812704915998
 20
20.0943530039152
 30
0.0
 41
0.999884566591222
 10
1422.87198883181
 20
19.73114439286855
 30
0.0
 41
0.9998845665912213
 10
1421.938194341338
 20
19.35049350851864
 30
0.0
 41
1.0
 10
1420.943597549309
 20
18.94506251404362
 30
0.0
 41
0.9998678708187174
 10
1419.957269402013
 20
18.5199109459604
 30
0.0
 41
0.9998678708187174
 10
1418.979600867639
 20
18.07520732905232
 30
0.0
 41
1.0
 10
1417.936733417218
 20
17.60084325817203
 30
0.0
 41
0.9998410206549312
 10
1416.904473635487
 20
17.10381857678303
 30
0.0
 41
0.9998410206549309
 10
1415.883313846398
 20
16.58437033485961
 30
0.0
 41
1.0
 10
1414.793153167379
 20
16.02985327516351
 30
0.0
 41
0.9998273203412407
 10
1413.715895112598
 20
15.45066888398788
 30
0.0
 41
0.9998273203412414
 10
1412.652097743713
 20
14.84711720142286
 30
0.0
 41
1.0
 10
1411.510979762402
 20
14.19969474788564
 30
0.0
 41
0.9997880925903851
 10
1410.386547008072
 20
13.5237087557254
 30
0.0
 41
0.9997880925903846
 10
1409.279514307616
 20
12.81958896425976
 30
0.0
 41
1.0
 10
1408.085225994655
 20
12.06000606950605
 30
0.0
 41
0.9997476713303404
 10
1406.912286425728
 20
11.26785487426283
 30
0.0
 41
0.99974767133034
 10
1405.761583499678
 20
10.44373502590429
 30
0.0
 41
1.0
 10
1404.510448056912
 20
9.547721581032121
 30
0.0
 41
0.9996888405213957
 10
1403.287269164266
 20
8.613905011189031
 30
0.0
 41
0.9996888405213955
 10
1402.093188632857
 20
7.643157013999826
 30
0.0
 41
1.0
 10
1401.996431629639
 20
7.564481387013412
 30
0.0
 41
1.0
 10
1401.899699064861
 20
7.485424686040117
 30
0.0
 41
1.0
 10
1401.80299592946
 20
7.40598608993696
 30
0.0
 41
1.0
 10
1400.591170763644
 20
6.410744197268741
 30
0.0
 41
0.9996558205986908
 10
1399.411947337451
 20
5.377081404795976
 30
0.0
 41
0.9996558205986907
 10
1398.266543244119
 20
4.306065008840733
 30
0.0
 41
1.0
 10
1396.879880105295
 20
3.009605341118842
 30
0.0
 41
0.9994660023845756
 10
1395.546207958802
 20
1.658694190717818
 30
0.0
 41
0.9994660023845756
 10
1394.26766333788
 20
0.2554957076390565
 30
0.0
 41
1.0
 10
1392.789730291938
 20
-1.366287962913668
 30
0.0
 41
0.9992633406343089
 10
1391.389649987406
 20
-3.055738614223323
 30
0.0
 41
0.9992633406343077
 10
1390.070516571088
 20
-4.809122597358055
 30
0.0
 41
1.0
 10
1389.556584302718
 20
-5.492591486931284
 30
0.0
 41
0.9998846305702886
 10
1389.055455667881
 20
-6.18550287436603
 30
0.0
 41
0.9998846305702891
 10
1388.567304111354
 20
-6.88761693728361
 30
0.0
 41
1.0
 10
1387.520396526521
 20
-8.392808152066133
 30
0.0
 41
0.9994425487612755
 10
1386.53590539684
 20
-9.939544490233434
 30
0.0
 41
0.9994425487612747
 10
1385.615477139708
 20
-11.52523926152799
 30
0.0
 41
1.0
 10
1383.824753799008
 20
-14.60560659966655
 30
0.0
 41
0.9976663542869002
 10
1382.297812451086
 20
-17.82489272252054
 30
0.0
 41
0.9976663542869001
 10
1381.045343116331
 20
-21.16055961030952
 30
0.0
 41
1.0
 10
1380.92665936698
 20
-21.47756225712602
 30
0.0
 41
0.9999999999999994
 10
1380.81068916444
 20
-21.79525871698057
 30
0.0
 41
1.0
 10
1380.697460300551
 20
-22.11357473988642
 30
0.0
 41
1.0
 10
1379.160802910858
 20
-26.41626835435097
 30
0.0
 41
0.9955624516196735
 10
1378.12999386025
 20
-30.86732676493271
 30
0.0
 41
0.9955624516196727
 10
1377.618755943824
 20
-35.40749461051496
 30
0.0
 41
1.0
 10
1377.404763493788
 20
-37.32634971167973
 30
0.0
 41
0.9991397542604686
 10
1377.288495396869
 20
-39.25359629620885
 30
0.0
 41
0.999139754260469
 10
1377.270251710471
 20
-41.18426064711116
 30
0.0
 41
1.0
  0
SPLINE
  5
71
330
1F
100
AcDbEntity
  8
NOUVELLE VAGUE$EBD0002
100
AcDbSpline
210
0.0
220
0.0
230
1.0
 70
     8
 71
     3
 72
    68
 73
    64
 74
     0
 42
0.000000001
 43
0.0000000001
 12
1.0
 22
0.0
 32
0.0
 13
1.0
 23
0.0
 33
0.0
 40
2.287081224784502
 40
2.287081224784502
 40
2.287081224784502
 40
2.287081224784502
 40
11.04767144721471
 40
11.04767144721471
 40
11.04767144721471
 40
25.80841707666509
 40
25.80841707666509
 40
25.80841707666509
 40
40.54965759911634
 40
40.54965759911634
 40
40.54965759911634
 40
55.24893690250485
 40
55.24893690250485
 40
55.24893690250485
 40
69.89794078598075
 40
69.89794078598075
 40
69.89794078598075
 40
84.49198511167828
 40
84.49198511167828
 40
84.49198511167828
 40
90.98096901741872
 40
90.98096901741872
 40
90.98096901741872
 40
99.04154285489354
 40
99.04154285489354
 40
99.04154285489354
 40
113.5452088764065
 40
113.5452088764065
 40
113.5452088764065
 40
127.9888337736781
 40
127.9888337736781
 40
127.9888337736781
 40
142.3750253841327
 40
142.3750253841327
 40
142.3750253841327
 40
156.7130718176867
 40
156.7130718176867
 40
156.7130718176867
 40
171.009864619466
 40
171.009864619466
 40
171.009864619466
 40
185.2737607000062
 40
185.2737607000062
 40
185.2737607000062
 40
199.510215027012
 40
199.510215027012
 40
199.510215027012
 40
213.7214095447782
 40
213.7214095447782
 40
213.7214095447782
 40
227.9188105060524
 40
227.9188105060524
 40
227.9188105060524
 40
242.1229921261398
 40
242.1229921261398
 40
242.1229921261398
 40
256.3253709501106
 40
256.3253709501106
 40
256.3253709501106
 40
270.5281265248084
 40
270.5281265248084
 40
270.5281265248084
 40
275.0702135389089
 40
275.0702135389089
 40
275.0702135389089
 40
275.0702135389089
 10
1377.270251710471
 20
-41.18426064711116
 30
0.0
 10
1377.244033300534
 20
-44.00062404756227
 30
0.0
 10
1377.217606567997
 20
-46.81472017807059
 30
0.0
 10
1377.191073066374
 20
-49.6270538345243
 30
0.0
 10
1377.1463682142
 20
-54.36555437612905
 30
0.0
 10
1377.101243450276
 20
-59.09988458781144
 30
0.0
 10
1377.056115016575
 20
-63.83193425731679
 30
0.0
 10
1377.01104843914
 20
-68.55772072708915
 30
0.0
 10
1376.965296310588
 20
-73.28639639307457
 30
0.0
 10
1376.919047673035
 20
-78.01844475614189
 30
0.0
 10
1376.872933678616
 20
-82.73701439147271
 30
0.0
 10
1376.826497481541
 20
-87.45754793019402
 30
0.0
 10
1376.780009883446
 20
-92.18057334786022
 30
0.0
 10
1376.733683620356
 20
-96.88743662721058
 30
0.0
 10
1376.687200943589
 20
-101.5977171858191
 30
0.0
 10
1376.64101020754
 20
-106.3115254661768
 30
0.0
 10
1376.594993559353
 20
-111.0076438340214
 30
0.0
 10
1376.549152838951
 20
-115.7083658250335
 30
0.0
 10
1376.504042964189
 20
-120.413446129616
 30
0.0
 10
1376.483985657273
 20
-122.505476174117
 30
0.0
 10
1376.46408873861
 20
-124.5982019381133
 30
0.0
 10
1376.444403190732
 20
-126.691609681669
 30
0.0
 10
1376.419949923072
 20
-129.2920268793922
 30
0.0
 10
1376.395820056198
 20
-131.8934968158143
 30
0.0
 10
1376.37211162367
 20
-134.4959818415352
 30
0.0
 10
1376.329451610868
 20
-139.1787233243457
 30
0.0
 10
1376.287703365735
 20
-143.8699925112809
 30
0.0
 10
1376.247080006629
 20
-148.5688204767127
 30
0.0
 10
1376.206622879505
 20
-153.2482014085801
 30
0.0
 10
1376.167110980629
 20
-157.9373363738484
 30
0.0
 10
1376.128655823706
 20
-162.6351235378042
 30
0.0
 10
1376.090350871323
 20
-167.3142368780023
 30
0.0
 10
1376.053073098509
 20
-172.0022516990584
 30
0.0
 10
1376.016899277537
 20
-176.698184771617
 30
0.0
 10
1375.980844041718
 20
-181.3784084119161
 30
0.0
 10
1375.945882315744
 20
-186.0665269861638
 30
0.0
 10
1375.912002502089
 20
-190.7617003351691
 30
0.0
 10
1375.878218012044
 20
-195.4433698536523
 30
0.0
 10
1375.845506476495
 20
-200.1321068906214
 30
0.0
 10
1375.813808898384
 20
-204.8272413343359
 30
0.0
 10
1375.782182643598
 20
-209.5115761434054
 30
0.0
 10
1375.751593443748
 20
-214.201659263347
 30
0.0
 10
1375.721921735411
 20
-218.8969760216905
 30
0.0
 10
1375.692305780108
 20
-223.5832627244952
 30
0.0
 10
1375.663611938903
 20
-228.2745745539661
 30
0.0
 10
1375.635696681753
 20
-232.9705355121919
 30
0.0
 10
1375.607829912451
 20
-237.6581671991021
 30
0.0
 10
1375.580728782318
 20
-242.3506574319991
 30
0.0
 10
1375.55417817606
 20
-247.0476233617667
 30
0.0
 10
1375.527651880597
 20
-251.740032215104
 30
0.0
 10
1375.501844290435
 20
-256.432403653776
 30
0.0
 10
1375.477011205252
 20
-261.1247505629156
 30
0.0
 10
1375.452165861203
 20
-265.8193395276725
 30
0.0
 10
1375.428251997782
 20
-270.5150914168134
 30
0.0
 10
1375.405437843564
 20
-275.2117257411223
 30
0.0
 10
1375.382626533177
 20
-279.9077646473523
 30
0.0
 10
1375.360941533933
 20
-284.6038803687799
 30
0.0
 10
1375.340495048388
 20
-289.3000911615374
 30
0.0
 10
1375.320047848969
 20
-293.9964265128294
 30
0.0
 10
1375.300806064488
 20
-298.6939972623947
 30
0.0
 10
1375.282727157572
 20
-303.3927183001522
 30
0.0
 10
1375.276945454503
 20
-304.8953844525734
 30
0.0
 10
1375.271283366941
 20
-306.3981423888487
 30
0.0
 10
1375.265740642704
 20
-307.900990209567
 30
0.0
  0
SPLINE
  5
72
330
1F
100
AcDbEntity
  8
NOUVELLE VAGUE$EBD0002
100
AcDbSpline
210
0.0
220
0.0
230
1.0
 70
    12
 71
     3
 72
   293
 73
   289
 74
     0
 42
0.000000001
 43
0.0000000001
 12
1.0
 22
0.0
 32
0.0
 13
1.0
 23
0.0
 33
0.0
 40
0.000008477477742
 40
0.000008477477742
 40
0.000008477477742
 40
0.000008477477742
 40
5.806959022189056
 40
5.806959022189056
 40
5.806959022189056
 40
8.769793789842115
 40
8.769793789842115
 40
8.769793789842115
 40
11.69994153329363
 40
11.69994153329363
 40
11.69994153329363
 40
14.6931507593769
 40
14.6931507593769
 40
14.6931507593769
 40
17.71474933150364
 40
17.71474933150364
 40
17.71474933150364
 40
20.7552756636765
 40
20.7552756636765
 40
20.7552756636765
 40
23.8183330625763
 40
23.8183330625763
 40
23.8183330625763
 40
26.90594795903872
 40
26.90594795903872
 40
26.90594795903872
 40
30.0194337824475
 40
30.0194337824475
 40
30.0194337824475
 40
33.1567852103901
 40
33.1567852103901
 40
33.1567852103901
 40
36.31580692526779
 40
36.31580692526779
 40
36.31580692526779
 40
39.49357577638612
 40
39.49357577638612
 40
39.49357577638612
 40
42.68830142236215
 40
42.68830142236215
 40
42.68830142236215
 40
45.89862878788794
 40
45.89862878788794
 40
45.89862878788794
 40
49.12318524311251
 40
49.12318524311251
 40
49.12318524311251
 40
52.36068875676458
 40
52.36068875676458
 40
52.36068875676458
 40
55.60992904121357
 40
55.60992904121357
 40
55.60992904121357
 40
58.86983165418455
 40
58.86983165418455
 40
58.86983165418455
 40
62.13916363411487
 40
62.13916363411487
 40
62.13916363411487
 40
65.41699021717488
 40
65.41699021717488
 40
65.41699021717488
 40
68.7025239094666
 40
68.7025239094666
 40
68.7025239094666
 40
71.99510794264603
 40
71.99510794264603
 40
71.99510794264603
 40
75.29408877848027
 40
75.29408877848027
 40
75.29408877848027
 40
78.59897493545009
 40
78.59897493545009
 40
78.59897493545009
 40
81.90943840200683
 40
81.90943840200683
 40
81.90943840200683
 40
85.22509723633615
 40
85.22509723633615
 40
85.22509723633615
 40
88.54555099527164
 40
88.54555099527164
 40
88.54555099527164
 40
91.8704322814844
 40
91.8704322814844
 40
91.8704322814844
 40
95.19936324281309
 40
95.19936324281309
 40
95.19936324281309
 40
98.53176975468637
 40
98.53176975468637
 40
98.53176975468637
 40
101.8671784490536
 40
101.8671784490536
 40
101.8671784490536
 40
105.2053667138064
 40
105.2053667138064
 40
105.2053667138064
 40
108.54610715634
 40
108.54610715634
 40
108.54610715634
 40
111.8892366854463
 40
111.8892366854463
 40
111.8892366854463
 40
115.2345951024415
 40
115.2345951024415
 40
115.2345951024415
 40
118.5822650122474
 40
118.5822650122474
 40
118.5822650122474
 40
121.9322168873111
 40
121.9322168873111
 40
121.9322168873111
 40
125.2845151752833
 40
125.2845151752833
 40
125.2845151752833
 40
128.6386668529526
 40
128.6386668529526
 40
128.6386668529526
 40
131.9953882274789
 40
131.9953882274789
 40
131.9953882274789
 40
135.3352098214576
 40
135.3352098214576
 40
135.3352098214576
 40
138.6843058265909
 40
138.6843058265909
 40
138.6843058265909
 40
142.0497649789332
 40
142.0497649789332
 40
142.0497649789332
 40
145.4312207129604
 40
145.4312207129604
 40
145.4312207129604
 40
148.7924978976867
 40
148.7924978976867
 40
148.7924978976867
 40
152.154874388478
 40
152.154874388478
 40
152.154874388478
 40
155.519784979364
 40
155.519784979364
 40
155.519784979364
 40
158.8857609151479
 40
158.8857609151479
 40
158.8857609151479
 40
162.2521637426356
 40
162.2521637426356
 40
162.2521637426356
 40
165.6192923502755
 40
165.6192923502755
 40
165.6192923502755
 40
168.9877382383045
 40
168.9877382383045
 40
168.9877382383045
 40
172.3574016215339
 40
172.3574016215339
 40
172.3574016215339
 40
175.7283287625991
 40
175.7283287625991
 40
175.7283287625991
 40
179.1004417299941
 40
179.1004417299941
 40
179.1004417299941
 40
182.4758021991982
 40
182.4758021991982
 40
182.4758021991982
 40
185.8543399648566
 40
185.8543399648566
 40
185.8543399648566
 40
189.234257788907
 40
189.234257788907
 40
189.234257788907
 40
192.6156568760411
 40
192.6156568760411
 40
192.6156568760411
 40
195.9990140261568
 40
195.9990140261568
 40
195.9990140261568
 40
199.3782210735494
 40
199.3782210735494
 40
199.3782210735494
 40
202.7629745205267
 40
202.7629745205267
 40
202.7629745205267
 40
206.1461261853709
 40
206.1461261853709
 40
206.1461261853709
 40
209.5449999983182
 40
209.5449999983182
 40
209.5449999983182
 40
212.9296427302779
 40
212.9296427302779
 40
212.9296427302779
 40
217.2750041830661
 40
217.2750041830661
 40
217.2750041830661
 40
221.5902258135573
 40
221.5902258135573
 40
221.5902258135573
 40
225.9309374756315
 40
225.9309374756315
 40
225.9309374756315
 40
230.2747229785406
 40
230.2747229785406
 40
230.2747229785406
 40
234.6300112758936
 40
234.6300112758936
 40
234.6300112758936
 40
238.9874811404726
 40
238.9874811404726
 40
238.9874811404726
 40
243.3485639053136
 40
243.3485639053136
 40
243.3485639053136
 40
247.7122469021509
 40
247.7122469021509
 40
247.7122469021509
 40
252.0784128365547
 40
252.0784128365547
 40
252.0784128365547
 40
256.447522442552
 40
256.447522442552
 40
256.447522442552
 40
260.8186802285586
 40
260.8186802285586
 40
260.8186802285586
 40
265.1909449471312
 40
265.1909449471312
 40
265.1909449471312
 40
269.5633483759006
 40
269.5633483759006
 40
269.5633483759006
 40
273.9348098702662
 40
273.9348098702662
 40
273.9348098702662
 40
278.3040242831269
 40
278.3040242831269
 40
278.3040242831269
 40
282.6693482570286
 40
282.6693482570286
 40
282.6693482570286
 40
287.0303281837792
 40
287.0303281837792
 40
287.0303281837792
 40
291.3844774652522
 40
291.3844774652522
 40
291.3844774652522
 40
295.7683923925421
 40
295.7683923925421
 40
295.7683923925421
 40
300.1524527859255
 40
300.1524527859255
 40
300.1524527859255
 40
304.5363980664943
 40
304.5363980664943
 40
304.5363980664943
 40
308.9191193516418
 40
308.9191193516418
 40
308.9191193516418
 40
313.3004966456502
 40
313.3004966456502
 40
313.3004966456502
 40
317.6809965838276
 40
317.6809965838276
 40
317.6809965838276
 40
322.0618221175367
 40
322.0618221175367
 40
322.0618221175367
 40
326.4429177659102
 40
326.4429177659102
 40
326.4429177659102
 40
330.8236678970949
 40
330.8236678970949
 40
330.8236678970949
 40
335.2040956930137
 40
335.2040956930137
 40
335.2040956930137
 40
339.5821075860174
 40
339.5821075860174
 40
339.5821075860174
 40
343.9606209798677
 40
343.9606209798677
 40
343.9606209798677
 40
348.3308911175515
 40
348.3308911175515
 40
348.3308911175515
 40
389.1929210779387
 40
389.1929210779387
 40
389.1929210779387
 40
389.1929210779387
 10
1024.441654249405
 20
-308.0202561978047
 30
0.0
 41
1.0
 10
1024.586904611117
 20
-308.0218213255234
 30
0.0
 41
1.0
 10
1024.732154972829
 20
-308.023386453242
 30
0.0
 41
1.0
 10
1024.87740533454
 20
-308.0249515809608
 30
0.0
 41
1.0
 10
1025.023917277975
 20
-308.0265499700762
 30
0.0
 41
1.0
 10
1025.203194354249
 20
-308.0284557084581
 30
0.0
 41
1.0
 10
1025.415501343154
 20
-308.0307741103929
 30
0.0
 41
1.0
 10
1025.625462229309
 20
-308.0330658834138
 30
0.0
 41
1.0
 10
1025.87016884535
 20
-308.0358365680269
 30
0.0
 41
1.0
 10
1026.141562430694
 20
-308.0389639037085
 30
0.0
 41
1.0
 10
1026.418689915469
 20
-308.0421545126105
 30
0.0
 41
1.0
 10
1026.724513031005
 20
-308.0457294937472
 30
0.0
 41
1.0
 10
1027.059530358132
 20
-308.0497963713015
 30
0.0
 41
1.0
 10
1027.397811598258
 20
-308.0539046554873
 30
0.0
 41
1.0
 10
1027.763977745037
 20
-308.058462502941
 30
0.0
 41
1.0
 10
1028.155440009309
 20
-308.0631918717992
 30
0.0
 41
1.0
 10
1028.549361861525
 20
-308.0679513102289
 30
0.0
 41
1.0
 10
1028.969520334341
 20
-308.0729013444636
 30
0.0
 41
1.0
 10
1029.413278978174
 20
-308.0777461045795
 30
0.0
 41
1.0
 10
1029.860327576373
 20
-308.0826268962214
 30
0.0
 41
1.0
 10
1030.331215528155
 20
-308.0874003368124
 30
0.0
 41
1.0
 10
1030.823833861954
 20
-308.0918836893356
 30
0.0
 41
1.0
 10
1031.320412599015
 20
-308.0964031229059
 30
0.0
 41
1.0
 10
1031.838625846242
 20
-308.1006146879863
 30
0.0
 41
1.0
 10
1032.375972343201
 20
-308.1046526684072
 30
0.0
 41
1.0
 10
1032.917830237899
 20
-308.108724358883
 30
0.0
 41
1.0
 10
1033.479296187338
 20
-308.1126254611653
 30
0.0
 41
1.0
 10
1034.058208727376
 20
-308.1164483027148
 30
0.0
 41
1.0
 10
1034.64156712415
 20
-308.1203002840959
 30
0.0
 41
1.0
 10
1035.242684384785
 20
-308.1240719626779
 30
0.0
 41
1.0
 10
1035.85953078829
 20
-308.1278773637591
 30
0.0
 41
1.0
 10
1036.480644739372
 20
-308.1317091378196
 30
0.0
 41
1.0
 10
1037.118004424115
 20
-308.1355826829792
 30
0.0
 41
1.0
 10
1037.769892096823
 20
-308.1395020544751
 30
0.0
 41
1.0
 10
1038.425653995449
 20
-308.1434448095754
 30
0.0
 41
1.0
 10
1039.096317788714
 20
-308.1474384028986
 30
0.0
 41
1.0
 10
1039.780370022485
 20
-308.1514431489911
 30
0.0
 41
1.0
 10
1040.468077141664
 20
-308.1554694502954
 30
0.0
 41
1.0
 10
1041.169424676526
 20
-308.1595098085136
 30
0.0
 41
1.0
 10
1041.883041815894
 20
-308.163541469091
 30
0.0
 41
1.0
 10
1042.600148090115
 20
-308.1675929698388
 30
0.0
 41
1.0
 10
1043.3297796483
 20
-308.1716390850155
 30
0.0
 41
1.0
 10
1044.070707381256
 20
-308.1756588170113
 30
0.0
 41
1.0
 10
1044.814922683149
 20
-308.1796964871152
 30
0.0
 41
1.0
 10
1045.570661556965
 20
-308.1837107261722
 30
0.0
 41
1.0
 10
1046.336820224732
 20
-308.1876855851418
 30
0.0
 41
1.0
 10
1047.106058222641
 20
-308.1916764883932
 30
0.0
 41
1.0
 10
1047.885923878614
 20
-308.1956307975182
 30
0.0
 41
1.0
 10
1048.675427073182
 20
-308.1995362883188
 30
0.0
 41
1.0
 10
1049.467795042811
 20
-308.203456090391
 30
0.0
 41
1.0
 10
1050.269999557564
 20
-308.2073292706148
 30
0.0
 41
1.0
 10
1051.08114244791
 20
-308.2111438782219
 30
0.0
 41
1.0
 10
1051.894949362818
 20
-308.2149711009768
 30
0.0
 41
1.0
 10
1052.717889697891
 20
-308.2187433423835
 30
0.0
 41
1.0
 10
1053.549177119214
 20
-308.2224411641198
 30
0.0
 41
1.0
 10
1054.382871033929
 20
-308.2261497165102
 30
0.0
 41
1.0
 10
1055.225080743238
 20
-308.2297857190918
 30
0.0
 41
1.0
 10
1056.075094383144
 20
-308.2333247640615
 30
0.0
 41
1.0
 10
1056.927318260615
 20
-308.2368730965033
 30
0.0
 41
1.0
 10
1057.787483750768
 20
-308.2403262005853
 30
0.0
 41
1.0
 10
1058.654947998914
 20
-308.2436644394139
 30
0.0
 41
1.0
 10
1059.524453354172
 20
-308.2470106274286
 30
0.0
 41
1.0
 10
1060.401391923119
 20
-308.2502433833139
 30
0.0
 41
1.0
 10
1061.285180032927
 20
-308.2533433044571
 30
0.0
 41
1.0
 10
1062.170865908789
 20
-308.25644996668
 30
0.0
 41
1.0
 10
1063.063513972282
 20
-308.2594251097019
 30
0.0
 41
1.0
 10
1063.962596897733
 20
-308.2622541943271
 30
0.0
 41
1.0
 10
1064.863427676174
 20
-308.2650888288618
 30
0.0
 41
1.0
 10
1065.770805838747
 20
-308.2677785170217
 30
0.0
 41
1.0
 10
1066.684253804588
 20
-308.2703076229143
 30
0.0
 41
1.0
 10
1067.599337882879
 20
-308.2728413039301
 30
0.0
 41
1.0
 10
1068.520552574284
 20
-308.2752145626387
 30
0.0
 41
1.0
 10
1069.447453681718
 20
-308.2774298517622
 30
0.0
 41
1.0
 10
1070.37591992624
 20
-308.2796489340615
 30
0.0
 41
1.0
 10
1071.310139906174
 20
-308.2817102497854
 30
0.0
 41
1.0
 10
1072.249700533256
 20
-308.2836277960329
 30
0.0
 41
1.0
 10
1073.19073648663
 20
-308.2855484166678
 30
0.0
 41
1.0
 10
1074.137200429993
 20
-308.2873259280162
 30
0.0
 41
1.0
 10
1075.088715258783
 20
-308.2889738123525
 30
0.0
 41
1.0
 10
1076.041606831634
 20
-308.2906241257899
 30
0.0
 41
1.0
 10
1076.999620233544
 20
-308.2921453421143
 30
0.0
 41
1.0
 10
1077.96241039237
 20
-308.2935540706812
 30
0.0
 41
1.0
 10
1078.926484981821
 20
-308.2949647257369
 30
0.0
 41
1.0
 10
1079.89540338688
 20
-308.2962631963567
 30
0.0
 41
1.0
 10
1080.868845341423
 20
-308.2974681623705
 30
0.0
 41
1.0
 10
1081.84347349496
 20
-308.2986746522751
 30
0.0
 41
1.0
 10
1082.822712523137
 20
-308.2997883741459
 30
0.0
 41
1.0
 10
1083.806273505869
 20
-308.3008190723198
 30
0.0
 41
1.0
 10
1084.79086184517
 20
-308.3018508785119
 30
0.0
 41
1.0
 10
1085.779888423242
 20
-308.3028007074219
 30
0.0
 41
1.0
 10
1086.773100758658
 20
-308.30365388937
 30
0.0
 41
1.0
 10
1087.767208291816
 20
-308.304507868784
 30
0.0
 41
1.0
 10
1088.765545437018
 20
-308.3052653058149
 30
0.0
 41
1.0
 10
1089.767875554994
 20
-308.305915799221
 30
0.0
 41
1.0
 10
1090.771041330617
 20
-308.306566868159
 30
0.0
 41
1.0
 10
1091.778249416949
 20
-308.3071111894766
 30
0.0
 41
1.0
 10
1092.789281242885
 20
-308.3075386951125
 30
0.0
 41
1.0
 10
1093.801086363037
 20
-308.3079665682175
 30
0.0
 41
1.0
 10
1094.816762245528
 20
-308.3082776451449
 30
0.0
 41
1.0
 10
1095.836104091276
 20
-308.3084619871624
 30
0.0
 41
1.0
 10
1096.856175196825
 20
-308.3086464903088
 30
0.0
 41
1.0
 10
1097.87995022669
 20
-308.3087043846618
 30
0.0
 41
1.0
 10
1098.907241273116
 20
-308.308627437857
 30
0.0
 41
1.0
 10
1099.935217484366
 20
-308.3085504598673
 30
0.0
 41
1.0
 10
1100.966736805775
 20
-308.3083384602303
 30
0.0
 41
1.0
 10
1102.001617747003
 20
-308.3079896430928
 30
0.0
 41
1.0
 10
1103.03721400565
 20
-308.3076406226215
 30
0.0
 41
1.0
 10
1104.076147241783
 20
-308.3071545101458
 30
0.0
 41
1.0
 10
1105.118243835861
 20
-308.3065512588437
 30
0.0
 41
1.0
 10
1106.161050974964
 20
-308.305947634471
 30
0.0
 41
1.0
 10
1107.207091683682
 20
-308.3052267829658
 30
0.0
 41
1.0
 10
1108.25618126877
 20
-308.3044074941224
 30
0.0
 41
1.0
 10
1109.306006018295
 20
-308.3035876765441
 30
0.0
 41
1.0
 10
1110.358825893431
 20
-308.302669252677
 30
0.0
 41
1.0
 10
1111.414554440212
 20
-308.30167016979
 30
0.0
 41
1.0
 10
1112.470866309331
 20
-308.3006705384782
 30
0.0
 41
1.0
 10
1113.530336077771
 20
-308.2995900334111
 30
0.0
 41
1.0
 10
1114.592540754021
 20
-308.2984581967537
 30
0.0
 41
1.0
 10
1115.655561288397
 20
-308.297325620146
 30
0.0
 41
1.0
 10
1116.720857796901
 20
-308.296141896715
 30
0.0
 41
1.0
 10
1117.789343230133
 20
-308.2949021929534
 30
0.0
 41
1.0
 10
1118.852449605792
 20
-308.2936684954679
 30
0.0
 41
1.0
 10
1119.918670159044
 20
-308.2923826801668
 30
0.0
 41
1.0
 10
1120.98660272167
 20
-308.2911337488799
 30
0.0
 41
1.0
 10
1122.057499110343
 20
-308.2898816271611
 30
0.0
 41
1.0
 10
1123.131352189458
 20
-308.2886538302362
 30
0.0
 41
1.0
 10
1124.208158720175
 20
-308.2873227545481
 30
0.0
 41
1.0
 10
1125.290225914376
 20
-308.2859852293919
 30
0.0
 41
1.0
 10
1126.375108723573
 20
-308.2845522024475
 30
0.0
 41
1.0
 10
1127.462348240922
 20
-308.2830498271405
 30
0.0
 41
1.0
 10
1128.554759114524
 20
-308.2815400305
 30
0.0
 41
1.0
 10
1129.649045786376
 20
-308.2799575904065
 30
0.0
 41
1.0
 10
1130.74677545427
 20
-308.2781996770004
 30
0.0
 41
1.0
 10
1131.837957184823
 20
-308.2764521659527
 30
0.0
 41
1.0
 10
1132.931936930663
 20
-308.2745404101335
 30
0.0
 41
1.0
 10
1134.027363951833
 20
-308.2725363531124
 30
0.0
 41
1.0
 10
1135.123147844106
 20
-308.2705320241707
 30
0.0
 41
1.0
 10
1136.221512981707
 20
-308.2684178127278
 30
0.0
 41
1.0
 10
1137.322626134079
 20
-308.2660945256827
 30
0.0
 41
1.0
 10
1138.42456987948
 20
-308.2637694742814
 30
0.0
 41
1.0
 10
1139.528387552645
 20
-308.2612532083053
 30
0.0
 41
1.0
 10
1140.63396194492
 20
-308.2586779988292
 30
0.0
 41
1.0
 10
1141.739886357872
 20
-308.2561016686915
 30
0.0
 41
1.0
 10
1142.848218196789
 20
-308.2534518429487
 30
0.0
 41
1.0
 10
1143.958839571659
 20
-308.25065593304
 30
0.0
 41
1.0
 10
1145.069601694125
 20
-308.247859944112
 30
0.0
 41
1.0
 10
1146.182603884978
 20
-308.2449227224158
 30
0.0
 41
1.0
 10
1147.297800382476
 20
-308.2417875289673
 30
0.0
 41
1.0
 10
1148.413237353323
 20
-308.2386515351576
 30
0.0
 41
1.0
 10
1149.530702722137
 20
-308.2353174193281
 30
0.0
 41
1.0
 10
1150.65008870353
 20
-308.2317996954508
 30
0.0
 41
1.0
 10
1151.769912606418
 20
-308.2282806970039
 30
0.0
 41
1.0
 10
1152.891709256386
 20
-308.2245780984447
 30
0.0
 41
1.0
 10
1154.015394074703
 20
-308.2206936013146
 30
0.0
 41
1.0
 10
1155.139485047584
 20
-308.2168077036885
 30
0.0
 41
1.0
 10
1156.265470657166
 20
-308.2127394767071
 30
0.0
 41
1.0
 10
1157.393261499926
 20
-308.208494744986
 30
0.0
 41
1.0
 10
1158.521475306113
 20
-308.2042484505063
 30
0.0
 41
1.0
 10
1159.651501636476
 20
-308.1998255290537
 30
0.0
 41
1.0
 10
1160.783253807189
 20
-308.1952351149124
 30
0.0
 41
1.0
 10
1161.915404089147
 20
-308.190643115073
 30
0.0
 41
1.0
 10
1163.049325712739
 20
-308.1858828250033
 30
0.0
 41
1.0
 10
1164.184932780021
 20
-308.180953278759
 30
0.0
 41
1.0
 10
1165.321633618299
 20
-308.1760190324499
 30
0.0
 41
1.0
 10
1166.459337851613
 20
-308.170924313083
 30
0.0
 41
1.0
 10
1167.59789951591
 20
-308.1659250129674
 30
0.0
 41
1.0
 10
1168.737533031402
 20
-308.1609210398865
 30
0.0
 41
1.0
 10
1169.878828057358
 20
-308.1560024036487
 30
0.0
 41
1.0
 10
1171.021705462875
 20
-308.151142965095
 30
0.0
 41
1.0
 10
1172.165049689698
 20
-308.1462815700881
 30
0.0
 41
1.0
 10
1173.30982224346
 20
-308.1414812478089
 30
0.0
 41
1.0
 10
1174.455961807214
 20
-308.1367633118834
 30
0.0
 41
1.0
 10
1175.60260352407
 20
-308.1320433327485
 30
0.0
 41
1.0
 10
1176.750767004821
 20
-308.1274041999923
 30
0.0
 41
1.0
 10
1177.900280505784
 20
-308.1228585975527
 30
0.0
 41
1.0
 10
1179.050459884686
 20
-308.1183104291865
 30
0.0
 41
1.0
 10
1180.201704442072
 20
-308.1138583445806
 30
0.0
 41
1.0
 10
1181.354272602548
 20
-308.1095092643698
 30
0.0
 41
1.0
 10
1182.505426064191
 20
-308.1051656470436
 30
0.0
 41
1.0
 10
1183.658447829451
 20
-308.1009203469599
 30
0.0
 41
1.0
 10
1184.812669093667
 20
-308.0967950968076
 30
0.0
 41
1.0
 10
1185.96878324948
 20
-308.0926632635429
 30
0.0
 41
1.0
 10
1187.124852982605
 20
-308.0886594665178
 30
0.0
 41
1.0
 10
1188.281806830143
 20
-308.0847307215859
 30
0.0
 41
1.0
 10
1189.438192673121
 20
-308.0808016446829
 30
0.0
 41
1.0
 10
1190.599746193677
 20
-308.0769423017457
 30
0.0
 41
1.0
 10
1191.762312904894
 20
-308.0733300537274
 30
0.0
 41
1.0
 10
1192.930209251014
 20
-308.0697002354701
 30
0.0
 41
1.0
 10
1194.089762869823
 20
-308.0663075663651
 30
0.0
 41
1.0
 10
1195.253484471783
 20
-308.0623129559388
 30
0.0
 41
1.0
 10
1196.413226970691
 20
-308.058240959054
 30
0.0
 41
1.0
 10
1197.60020266837
 20
-308.0539950033153
 30
0.0
 41
1.0
 10
1198.755390391097
 20
-308.0514102709365
 30
0.0
 41
1.0
 10
1200.240994640892
 20
-308.0480328438169
 30
0.0
 41
1.0
 10
1201.716062791765
 20
-308.0460158479661
 30
0.0
 41
1.0
 10
1203.219191546162
 20
-308.043517991965
 30
0.0
 41
1.0
 10
1204.712407808944
 20
-308.0410746500679
 30
0.0
 41
1.0
 10
1206.209862208267
 20
-308.0382977936598
 30
0.0
 41
1.0
 10
1207.694340101815
 20
-308.0355614302055
 30
0.0
 41
1.0
 10
1209.187708952647
 20
-308.0328065235524
 30
0.0
 41
1.0
 10
1210.681807229841
 20
-308.0300529193898
 30
0.0
 41
1.0
 10
1212.180187690063
 20
-308.0272963335188
 30
0.0
 41
1.0
 10
1213.679646495909
 20
-308.0245384843591
 30
0.0
 41
1.0
 10
1215.177847764611
 20
-308.0217976709461
 30
0.0
 41
1.0
 10
1216.673449476183
 20
-308.0196389773846
 30
0.0
 41
1.0
 10
1218.173017772545
 20
-308.0174744745033
 30
0.0
 41
1.0
 10
1219.673406646965
 20
-308.0158786263605
 30
0.0
 41
1.0
 10
1221.174799440923
 20
-308.0145502821623
 30
0.0
 41
1.0
 10
1222.676944493596
 20
-308.0132209650009
 30
0.0
 41
1.0
 10
1224.179286973493
 20
-308.012162518703
 30
0.0
 41
1.0
 10
1225.681596794942
 20
-308.0112092713367
 30
0.0
 41
1.0
 10
1227.18515232352
 20
-308.0102552659137
 30
0.0
 41
1.0
 10
1228.688679257646
 20
-308.0094072540012
 30
0.0
 41
1.0
 10
1230.192055326385
 20
-308.0085694695905
 30
0.0
 41
1.0
 10
1231.696327826186
 20
-308.0077310287591
 30
0.0
 41
1.0
 10
1233.200470313599
 20
-308.0069030497835
 30
0.0
 41
1.0
 10
1234.704347488122
 20
-308.005953597411
 30
0.0
 41
1.0
 10
1236.20908055549
 20
-308.0050035538435
 30
0.0
 41
1.0
 10
1237.713153797942
 20
-308.0039351867755
 30
0.0
 41
1.0
 10
1239.216423807571
 20
-308.0028028252071
 30
0.0
 41
1.0
 10
1240.72070761967
 20
-308.001669731708
 30
0.0
 41
1.0
 10
1242.224190345699
 20
-308.00047306952
 30
0.0
 41
1.0
 10
1243.726746546202
 20
-307.9992646390514
 30
0.0
 41
1.0
 10
1245.230007389143
 20
-307.9980556033415
 30
0.0
 41
1.0
 10
1246.732338748589
 20
-307.9968346671855
 30
0.0
 41
1.0
 10
1248.233619995494
 20
-307.9956540190886
 30
0.0
 41
1.0
 10
1249.735281662224
 20
-307.9944730530183
 30
0.0
 41
1.0
 10
1251.235895658488
 20
-307.9933323943088
 30
0.0
 41
1.0
 10
1252.73534797061
 20
-307.9922828889344
 30
0.0
 41
1.0
 10
1254.234848069646
 20
-307.9912333299144
 30
0.0
 41
1.0
 10
1255.733177951015
 20
-307.9902750214344
 30
0.0
 41
1.0
 10
1257.230232398594
 20
-307.9894600308064
 30
0.0
 41
1.0
 10
1258.726964538678
 20
-307.9886452047526
 30
0.0
 41
1.0
 10
1260.222453066594
 20
-307.9879731704099
 30
0.0
 41
1.0
 10
1261.716585955851
 20
-307.9874881926648
 30
0.0
 41
1.0
 10
1263.209950917613
 20
-307.987003453762
 30
0.0
 41
1.0
 10
1264.702020961881
 20
-307.9867047704145
 30
0.0
 41
1.0
 10
1266.192725239114
 20
-307.9865881313184
 30
0.0
 41
1.0
 10
1267.682102314978
 20
-307.9864715482587
 30
0.0
 41
1.0
 10
1269.170235079634
 20
-307.9865352330046
 30
0.0
 41
1.0
 10
1270.656907370505
 20
-307.9867801943186
 30
0.0
 41
1.0
 10
1272.142099826828
 20
-307.9870250135367
 30
0.0
 41
1.0
 10
1273.625496626062
 20
-307.987454253036
 30
0.0
 41
1.0
 10
1275.107417491013
 20
-307.9880636132521
 30
0.0
 41
1.0
 10
1276.587018728594
 20
-307.9886715810462
 30
0.0
 41
1.0
 10
1278.065933980972
 20
-307.9894530992428
 30
0.0
 41
1.0
 10
1279.542521874279
 20
-307.9904091866781
 30
0.0
 41
1.0
 10
1281.029204149996
 20
-307.991371703077
 30
0.0
 41
1.0
 10
1282.51362164992
 20
-307.9925044057817
 30
0.0
 41
1.0
 10
1283.996943666432
 20
-307.9938145348642
 30
0.0
 41
1.0
 10
1285.480312941497
 20
-307.9951250358002
 30
0.0
 41
1.0
 10
1286.962209523844
 20
-307.996620644371
 30
0.0
 41
1.0
 10
1288.442159205022
 20
-307.9981938315998
 30
0.0
 41
1.0
 10
1289.922070295678
 20
-307.9997668107205
 30
0.0
 41
1.0
 10
1291.400420014935
 20
-308.0014128105659
 30
0.0
 41
1.0
 10
1292.877151351682
 20
-308.0029866614491
 30
0.0
 41
1.0
 10
1294.353470114967
 20
-308.0045600518458
 30
0.0
 41
1.0
 10
1295.828065588998
 20
-308.0060621258758
 30
0.0
 41
1.0
 10
1297.300757301824
 20
-308.0073550489003
 30
0.0
 41
1.0
 10
1298.772997217859
 20
-308.0086474844259
 30
0.0
 41
1.0
 10
1300.24342221837
 20
-308.0097307487436
 30
0.0
 41
1.0
 10
1301.711883255862
 20
-308.0104511810283
 30
0.0
 41
1.0
 10
1303.180050114115
 20
-308.011171393848
 30
0.0
 41
1.0
 10
1304.645862368617
 20
-308.0115313910942
 30
0.0
 41
1.0
 10
1306.109187189443
 20
-308.0115617783574
 30
0.0
 41
1.0
 10
1307.572620807628
 20
-308.0115921813084
 30
0.0
 41
1.0
 10
1309.033513768482
 20
-308.0112935260202
 30
0.0
 41
1.0
 10
1310.491742262187
 20
-308.0107375182467
 30
0.0
 41
1.0
 10
1311.95006066242
 20
-308.010181443313
 30
0.0
 41
1.0
 10
1313.405726014524
 20
-308.0093679623637
 30
0.0
 41
1.0
 10
1314.858629140829
 20
-308.0083601418883
 30
0.0
 41
1.0
 10
1316.311417729174
 20
-308.0073523455565
 30
0.0
 41
1.0
 10
1317.761538226353
 20
-308.0061497242841
 30
0.0
 41
1.0
 10
1319.208815932906
 20
-308.0048203221104
 30
0.0
 41
1.0
 10
1320.655986814712
 20
-308.0034910518444
 30
0.0
 41
1.0
 10
1322.100119653305
 20
-308.002035474918
 30
0.0
 41
1.0
 10
1323.541258710972
 20
-308.0005049344761
 30
0.0
 41
1.0
 10
1324.981603308732
 20
-307.9989751342163
 30
0.0
 41
1.0
 10
1326.419796839104
 20
-307.9973682802338
 30
0.0
 41
1.0
 10
1327.855016977997
 20
-307.9957089293198
 30
0.0
 41
1.0
 10
1329.290394378492
 20
-307.9940496534708
 30
0.0
 41
1.0
 10
1330.720934144403
 20
-307.9923401352629
 30
0.0
 41
1.0
 10
1332.148829988469
 20
-307.9905374897924
 30
0.0
 41
1.0
 10
1333.57405095553
 20
-307.9887362562444
 30
0.0
 41
1.0
 10
1335.001359446269
 20
-307.9868482512734
 30
0.0
 41
1.0
 10
1336.421432467502
 20
-307.9849873897221
 30
0.0
 41
1.0
 10
1349.369564565854
 20
-307.9718945866014
 30
0.0
 41
0.9999995582230242
 10
1362.317673011097
 20
-307.9438955141808
 30
0.0
 41
0.9999995582230242
 10
1375.265740642704
 20
-307.9009902095677
 30
0.0
 41
1.0
  0
SPLINE
  5
73
330
1F
100
AcDbEntity
  8
NOUVELLE VAGUE$EBD0002
100
AcDbSpline
210
0.0
220
0.0
230
1.0
 70
     8
 71
     3
 72
    32
 73
    28
 74
     0
 42
0.000000001
 43
0.0000000001
 12
1.0
 22
0.0
 32
0.0
 13
1.0
 23
0.0
 33
0.0
 40
0.0
 40
0.0
 40
0.0
 40
0.0
 40
10.89089685374224
 40
21.6247783842046
 40
32.85879625398014
 40
45.70978556372741
 40
60.16063148090336
 40
76.21242116771796
 40
93.87033920308826
 40
103.504177424719
 40
129.9945598869455
 40
145.2442097632429
 40
175.7532861558821
 40
191.8052268956775
 40
207.0540161044804
 40
237.5659920582357
 40
255.2267168643623
 40
273.6833435245288
 40
292.9435477550008
 40
313.8186116392899
 40
334.6916262623741
 40
357.9662016696728
 40
373.2406937515414
 40
382.0920518634488
 40
400.5113254676094
 40
410.9467587057442
 40
437.5898467203951
 40
437.5898467203951
 40
437.5898467203951
 40
437.5898467203951
 10
852.3730912283177
 20
74.18657325716913
 30
0.0
 10
853.1808071263074
 20
70.6486561705342
 30
0.0
 10
855.1696112793779
 20
63.70215976970781
 30
0.0
 10
859.5953604081463
 20
53.6582889368608
 30
0.0
 10
865.5226875071411
 20
43.6595091415229
 30
0.0
 10
873.1088455673075
 20
33.28145234642375
 30
0.0
 10
882.3833286865946
 20
22.19130330782673
 30
0.0
 10
893.3608140875878
 20
10.47029602301882
 30
0.0
 10
903.6540638813046
 20
0.3298740555301265
 30
0.0
 10
916.640484526613
 20
-12.02929037605531
 30
0.0
 10
929.1777962590093
 20
-23.69517514031736
 30
0.0
 10
946.4771485937887
 20
-40.45007073055399
 30
0.0
 10
960.6925012301373
 20
-55.38575685059072
 30
0.0
 10
973.609922675492
 20
-71.45785903117303
 30
0.0
 10
985.3053015136692
 20
-88.43736710674489
 30
0.0
 10
995.2919977400393
 20
-107.1351830712729
 30
0.0
 10
1003.57347443774
 20
-127.7586096668429
 30
0.0
 10
1009.030662422223
 20
-145.4107111552446
 30
0.0
 10
1013.399000354278
 20
-164.4565881730648
 30
0.0
 10
1016.699339868353
 20
-184.5319451320422
 30
0.0
 10
1019.207898998829
 20
-206.0641371735198
 30
0.0
 10
1020.770618216777
 20
-225.813125300901
 30
0.0
 10
1021.60824386684
 20
-241.5914045247616
 30
0.0
 10
1022.189769297188
 20
-255.7613843646777
 30
0.0
 10
1022.60423864065
 20
-268.3232701425543
 30
0.0
 10
1023.350832232352
 20
-286.8076033788221
 30
0.0
 10
1023.969112981418
 20
-299.1518273613334
 30
0.0
 10
1024.441654249405
 20
-308.0202561978044
 30
0.0
  0
SPLINE
  5
74
330
1F
100
AcDbEntity
  8
NOUVELLE VAGUE$EBD0002
100
AcDbSpline
210
0.0
220
0.0
230
1.0
 70
    12
 71
     3
 72
   335
 73
   331
 74
     0
 42
0.000000001
 43
0.0000000001
 12
1.0
 22
0.0
 32
0.0
 13
1.0
 23
0.0
 33
0.0
 40
-0.000050766157121
 40
-0.000050766157121
 40
-0.000050766157121
 40
-0.000050766157121
 40
29.0024845986019
 40
29.0024845986019
 40
29.0024845986019
 40
46.44909394521363
 40
46.44909394521363
 40
46.44909394521363
 40
52.2074724532126
 40
52.2074724532126
 40
52.2074724532126
 40
58.09263915982241
 40
58.09263915982241
 40
58.09263915982241
 40
64.08690254010338
 40
64.08690254010338
 40
64.08690254010338
 40
70.16536662622592
 40
70.16536662622592
 40
70.16536662622592
 40
76.27675408690948
 40
76.27675408690948
 40
76.27675408690948
 40
82.41132912773361
 40
82.41132912773361
 40
82.41132912773361
 40
88.57270357522971
 40
88.57270357522971
 40
88.57270357522971
 40
94.76009371797821
 40
94.76009371797821
 40
94.76009371797821
 40
100.9719207577639
 40
100.9719207577639
 40
100.9719207577639
 40
107.206724066045
 40
107.206724066045
 40
107.206724066045
 40
113.4640061925912
 40
113.4640061925912
 40
113.4640061925912
 40
119.7316395207996
 40
119.7316395207996
 40
119.7316395207996
 40
126.0078461982754
 40
126.0078461982754
 40
126.0078461982754
 40
132.2930067206206
 40
132.2930067206206
 40
132.2930067206206
 40
138.5896595828383
 40
138.5896595828383
 40
138.5896595828383
 40
144.8967450616746
 40
144.8967450616746
 40
144.8967450616746
 40
151.2171470464347
 40
151.2171470464347
 40
151.2171470464347
 40
157.5576565382498
 40
157.5576565382498
 40
157.5576565382498
 40
163.9212599949842
 40
163.9212599949842
 40
163.9212599949842
 40
170.3076259808144
 40
170.3076259808144
 40
170.3076259808144
 40
176.7161430261251
 40
176.7161430261251
 40
176.7161430261251
 40
183.1449147202858
 40
183.1449147202858
 40
183.1449147202858
 40
189.5826906630511
 40
189.5826906630511
 40
189.5826906630511
 40
196.0215577453954
 40
196.0215577453954
 40
196.0215577453954
 40
202.4622815200344
 40
202.4622815200344
 40
202.4622815200344
 40
208.9046964347913
 40
208.9046964347913
 40
208.9046964347913
 40
215.3496925252666
 40
215.3496925252666
 40
215.3496925252666
 40
221.7972585433285
 40
221.7972585433285
 40
221.7972585433285
 40
228.2553773431297
 40
228.2553773431297
 40
228.2553773431297
 40
234.7295354621216
 40
234.7295354621216
 40
234.7295354621216
 40
241.2192551728402
 40
241.2192551728402
 40
241.2192551728402
 40
247.7252655608798
 40
247.7252655608798
 40
247.7252655608798
 40
254.2446242963353
 40
254.2446242963353
 40
254.2446242963353
 40
260.7812666089163
 40
260.7812666089163
 40
260.7812666089163
 40
280.2936252399554
 40
280.2936252399554
 40
280.2936252399554
 40
299.7133459693923
 40
299.7133459693923
 40
299.7133459693923
 40
306.1864091538051
 40
306.1864091538051
 40
306.1864091538051
 40
312.6414187169684
 40
312.6414187169684
 40
312.6414187169684
 40
396.9899112983634
 40
396.9899112983634
 40
396.9899112983634
 40
403.402654053725
 40
403.402654053725
 40
403.402654053725
 40
409.836893442927
 40
409.836893442927
 40
409.836893442927
 40
415.0068551308522
 40
415.0068551308522
 40
415.0068551308522
 40
420.1487732078633
 40
420.1487732078633
 40
420.1487732078633
 40
425.2904351718556
 40
425.2904351718556
 40
425.2904351718556
 40
430.5908359867946
 40
430.5908359867946
 40
430.5908359867946
 40
436.0156118487315
 40
436.0156118487315
 40
436.0156118487315
 40
441.2675688622123
 40
441.2675688622123
 40
441.2675688622123
 40
446.4272367675821
 40
446.4272367675821
 40
446.4272367675821
 40
451.5005153239958
 40
451.5005153239958
 40
451.5005153239958
 40
456.5288073222656
 40
456.5288073222656
 40
456.5288073222656
 40
461.5851902827076
 40
461.5851902827076
 40
461.5851902827076
 40
466.6687082474896
 40
466.6687082474896
 40
466.6687082474896
 40
471.7803167235249
 40
471.7803167235249
 40
471.7803167235249
 40
476.9200575665282
 40
476.9200575665282
 40
476.9200575665282
 40
482.0860637822653
 40
482.0860637822653
 40
482.0860637822653
 40
487.2600878666128
 40
487.2600878666128
 40
487.2600878666128
 40
492.4265481148425
 40
492.4265481148425
 40
492.4265481148425
 40
497.5876392612654
 40
497.5876392612654
 40
497.5876392612654
 40
502.7422118677543
 40
502.7422118677543
 40
502.7422118677543
 40
507.8964246620722
 40
507.8964246620722
 40
507.8964246620722
 40
513.0153297853469
 40
513.0153297853469
 40
513.0153297853469
 40
518.0455261979254
 40
518.0455261979254
 40
518.0455261979254
 40
522.9752920582827
 40
522.9752920582827
 40
522.9752920582827
 40
527.8058372290975
 40
527.8058372290975
 40
527.8058372290975
 40
532.5888660555053
 40
532.5888660555053
 40
532.5888660555053
 40
537.4089296180052
 40
537.4089296180052
 40
537.4089296180052
 40
542.276505526837
 40
542.276505526837
 40
542.276505526837
 40
547.1854393521203
 40
547.1854393521203
 40
547.1854393521203
 40
552.1332166901624
 40
552.1332166901624
 40
552.1332166901624
 40
557.1052906049978
 40
557.1052906049978
 40
557.1052906049978
 40
562.0751570636047
 40
562.0751570636047
 40
562.0751570636047
 40
567.0467506141022
 40
567.0467506141022
 40
567.0467506141022
 40
572.0224194766029
 40
572.0224194766029
 40
572.0224194766029
 40
576.9891923452982
 40
576.9891923452982
 40
576.9891923452982
 40
581.9438844085438
 40
581.9438844085438
 40
581.9438844085438
 40
586.8668438728062
 40
586.8668438728062
 40
586.8668438728062
 40
591.7581660856752
 40
591.7581660856752
 40
591.7581660856752
 40
596.6189875665359
 40
596.6189875665359
 40
596.6189875665359
 40
601.4702587863902
 40
601.4702587863902
 40
601.4702587863902
 40
606.3444164431904
 40
606.3444164431904
 40
606.3444164431904
 40
611.24414639984
 40
611.24414639984
 40
611.24414639984
 40
616.1624143473119
 40
616.1624143473119
 40
616.1624143473119
 40
621.0852089242733
 40
621.0852089242733
 40
621.0852089242733
 40
626.0066476593707
 40
626.0066476593707
 40
626.0066476593707
 40
630.9272516045241
 40
630.9272516045241
 40
630.9272516045241
 40
635.8471508049287
 40
635.8471508049287
 40
635.8471508049287
 40
640.7686705574159
 40
640.7686705574159
 40
640.7686705574159
 40
645.6943231019565
 40
645.6943231019565
 40
645.6943231019565
 40
650.6235241689471
 40
650.6235241689471
 40
650.6235241689471
 40
655.5535970065806
 40
655.5535970065806
 40
655.5535970065806
 40
660.4855614391269
 40
660.4855614391269
 40
660.4855614391269
 40
665.4185158237965
 40
665.4185158237965
 40
665.4185158237965
 40
670.3542827180612
 40
670.3542827180612
 40
670.3542827180612
 40
675.2923004038473
 40
675.2923004038473
 40
675.2923004038473
 40
680.227623536018
 40
680.227623536018
 40
680.227623536018
 40
685.162059832665
 40
685.162059832665
 40
685.162059832665
 40
690.095534609096
 40
690.095534609096
 40
690.095534609096
 40
695.0266788101774
 40
695.0266788101774
 40
695.0266788101774
 40
699.955267066327
 40
699.955267066327
 40
699.955267066327
 40
704.8804855376686
 40
704.8804855376686
 40
704.8804855376686
 40
709.8032340609828
 40
709.8032340609828
 40
709.8032340609828
 40
714.7235911769369
 40
714.7235911769369
 40
714.7235911769369
 40
719.6387391893142
 40
719.6387391893142
 40
719.6387391893142
 40
724.5502646582084
 40
724.5502646582084
 40
724.5502646582084
 40
729.460098699721
 40
729.460098699721
 40
729.460098699721
 40
734.3681980196246
 40
734.3681980196246
 40
734.3681980196246
 40
739.2725957523153
 40
739.2725957523153
 40
739.2725957523153
 40
742.9478433900058
 40
742.9478433900058
 40
742.9478433900058
 40
742.9478433900058
 10
852.3730912283174
 20
74.18657325717004
 30
0.0
 41
1.0
 10
854.0218185088803
 20
74.21898782306357
 30
0.0
 41
1.0
 10
855.6705457894433
 20
74.2514023889571
 30
0.0
 41
1.0
 10
857.3192730700061
 20
74.28381695485064
 30
0.0
 41
1.0
 10
859.6763490173568
 20
74.33036144857465
 30
0.0
 41
1.0
 10
862.0334249647076
 20
74.37690594229866
 30
0.0
 41
1.0
 10
864.3905009120583
 20
74.42345043602268
 30
0.0
 41
1.0
 10
865.3676909389819
 20
74.44680662837037
 30
0.0
 41
1.0
 10
866.3990085213279
 20
74.47044356382928
 30
0.0
 41
1.0
 10
867.4699504203038
 20
74.49332254180672
 30
0.0
 41
1.0
 10
868.5645617874214
 20
74.51671647941495
 30
0.0
 41
1.0
 10
869.7032060085767
 20
74.53979124454796
 30
0.0
 41
1.0
 10
870.8767736888271
 20
74.56216316151608
 30
0.0
 41
1.0
 10
872.0721723576014
 20
74.58495794908882
 30
0.0
 41
1.0
 10
873.3020049624567
 20
74.6067037686047
 30
0.0
 41
1.0
 10
874.5558378967503
 20
74.62687672804714
 30
0.0
 41
1.0
 10
875.827328790971
 20
74.6473380679763
 30
0.0
 41
1.0
 10
877.1307841696564
 20
74.66741743852695
 30
0.0
 41
1.0
 10
878.4619019025288
 20
74.68700705839865
 30
0.0
 41
1.0
 10
879.8002424629576
 20
74.70670371910117
 30
0.0
 41
1.0
 10
881.1695295352476
 20
74.72639887607365
 30
0.0
 41
1.0
 10
882.5674445747236
 20
74.74606439132867
 30
0.0
 41
1.0
 10
883.9706695120685
 20
74.7658049293817
 30
0.0
 41
1.0
 10
885.4019765966436
 20
74.78539127984426
 30
0.0
 41
1.0
 10
886.8587103566526
 20
74.80477740221568
 30
0.0
 41
1.0
 10
888.3218154062056
 20
74.82424867639601
 30
0.0
 41
1.0
 10
889.8107877535533
 20
74.84355304023974
 30
0.0
 41
1.0
 10
891.3232662163521
 20
74.86266023152552
 30
0.0
 41
1.0
 10
892.8421384024593
 20
74.88184850617368
 30
0.0
 41
1.0
 10
894.3846576105616
 20
74.90082898507019
 30
0.0
 41
1.0
 10
895.9486287665588
 20
74.91958123562108
 30
0.0
 41
1.0
 10
897.5187846375164
 20
74.93840791879953
 30
0.0
 41
1.0
 10
899.1105466653463
 20
74.95700240010059
 30
0.0
 41
1.0
 10
900.7219567555148
 20
74.97535974148195
 30
0.0
 41
1.0
 10
902.3393322977522
 20
74.99378527800978
 30
0.0
 41
1.0
 10
903.9765621032773
 20
75.01197897588966
 30
0.0
 41
1.0
 10
905.6313547025827
 20
75.02986774985766
 30
0.0
 41
1.0
 10
907.2921186311222
 20
75.04782127639622
 30
0.0
 41
1.0
 10
908.9718677860244
 20
75.06566391918957
 30
0.0
 41
1.0
 10
910.669642011113
 20
75.08345506793285
 30
0.0
 41
1.0
 10
912.3702293983256
 20
75.1012757877786
 30
0.0
 41
1.0
 10
914.0891261963293
 20
75.119076074448
 30
0.0
 41
1.0
 10
915.8251905291067
 20
75.13686192885302
 30
0.0
 41
1.0
 10
917.5636317128226
 20
75.15467215921083
 30
0.0
 41
1.0
 10
919.3191903742406
 20
75.17245414756745
 30
0.0
 41
1.0
 10
921.0907972281125
 20
75.19022000424252
 30
0.0
 41
1.0
 10
922.8649330913854
 20
75.20801122576914
 30
0.0
 41
1.0
 10
924.6552646548977
 20
75.22580015935424
 30
0.0
 41
1.0
 10
926.46062614074
 20
75.24357416127759
 30
0.0
 41
1.0
 10
928.2692903155622
 20
75.2613806804346
 30
0.0
 41
1.0
 10
930.0930216875815
 20
75.27917026015433
 30
0.0
 41
1.0
 10
931.9308538803102
 20
75.29695362637085
 30
0.0
 41
1.0
 10
933.7717333157018
 20
75.31476650138029
 30
0.0
 41
1.0
 10
935.6269895381881
 20
75.33260448481052
 30
0.0
 41
1.0
 10
937.4957653912388
 20
75.3504790082875
 30
0.0
 41
1.0
 10
939.3684899196194
 20
75.36839135020536
 30
0.0
 41
1.0
 10
941.253385669426
 20
75.38615075493603
 30
0.0
 41
1.0
 10
943.1492562894271
 20
75.40374817313068
 30
0.0
 41
1.0
 10
945.0511629539305
 20
75.42140173966732
 30
0.0
 41
1.0
 10
946.9631592914993
 20
75.43876523921001
 30
0.0
 41
1.0
 10
948.883796889153
 20
75.45580449754925
 30
0.0
 41
1.0
 10
950.8114347266323
 20
75.4729060016721
 30
0.0
 41
1.0
 10
952.7479974079284
 20
75.4897096344192
 30
0.0
 41
1.0
 10
954.6921944524211
 20
75.50618562896852
 30
0.0
 41
1.0
 10
956.6433502302588
 20
75.5227206985266
 30
0.0
 41
1.0
 10
958.6021702236005
 20
75.53892269269882
 30
0.0
 41
1.0
 10
960.5675427882811
 20
75.55477525610286
 30
0.0
 41
1.0
 10
962.539736404533
 20
75.57068294187376
 30
0.0
 41
1.0
 10
964.5183120664713
 20
75.58621128984042
 30
0.0
 41
1.0
 10
966.502091795659
 20
75.60132701067164
 30
0.0
 41
1.0
 10
968.492144750779
 20
75.61649061698215
 30
0.0
 41
1.0
 10
970.4884639723983
 20
75.6313661399192
 30
0.0
 41
1.0
 10
972.4902165874987
 20
75.64593858237004
 30
0.0
 41
1.0
 10
974.4947743817196
 20
75.66053145897408
 30
0.0
 41
1.0
 10
976.5071663566399
 20
75.67510910794707
 30
0.0
 41
1.0
 10
978.5271768596474
 20
75.68969152752584
 30
0.0
 41
1.0
 10
980.54753007931
 20
75.70427639924105
 30
0.0
 41
1.0
 10
982.5751056190575
 20
75.71881870047183
 30
0.0
 41
1.0
 10
984.6095511598951
 20
75.733324185313
 30
0.0
 41
1.0
 10
986.6445836666898
 20
75.74783382870162
 30
0.0
 41
1.0
 10
988.6866039883386
 20
75.76231987214113
 30
0.0
 41
1.0
 10
990.7353167645597
 20
75.77679157687749
 30
0.0
 41
1.0
 10
992.7845675853973
 20
75.79126704745232
 30
0.0
 41
1.0
 10
994.840483100433
 20
75.80572453598262
 30
0.0
 41
1.0
 10
996.9026880131828
 20
75.82016113182499
 30
0.0
 41
1.0
 10
998.9657193936722
 20
75.8346034877124
 30
0.0
 41
1.0
 10
1001.035210364323
 20
75.84904342003607
 30
0.0
 41
1.0
 10
1003.110951148074
 20
75.86349580283104
 30
0.0
 41
1.0
 10
1005.187520237953
 20
75.87795394186458
 30
0.0
 41
1.0
 10
1007.269665358165
 20
75.89235061904145
 30
0.0
 41
1.0
 10
1009.356988611412
 20
75.90668161370354
 30
0.0
 41
1.0
 10
1011.447729763577
 20
75.92103609421771
 30
0.0
 41
1.0
 10
1013.541738127152
 20
75.9351195347624
 30
0.0
 41
1.0
 10
1015.638331549294
 20
75.94890707473974
 30
0.0
 41
1.0
 10
1017.740134294958
 20
75.96272892537552
 30
0.0
 41
1.0
 10
1019.844789338012
 20
75.9762797841666
 30
0.0
 41
1.0
 10
1021.951715010397
 20
75.98953942985804
 30
0.0
 41
1.0
 10
1024.063706996297
 20
76.00283099832956
 30
0.0
 41
1.0
 10
1026.177987511384
 20
76.01583072365624
 30
0.0
 41
1.0
 10
1028.293976516387
 20
76.02851080873006
 30
0.0
 41
1.0
 10
1030.415278800049
 20
76.04122278521666
 30
0.0
 41
1.0
 10
1032.538070327768
 20
76.05359070926849
 30
0.0
 41
1.0
 10
1034.661969745319
 20
76.06561860898546
 30
0.0
 41
1.0
 10
1036.79022850614
 20
76.0776711426063
 30
0.0
 41
1.0
 10
1038.920327169259
 20
76.08945302111023
 30
0.0
 41
1.0
 10
1041.051494477312
 20
76.10086834414733
 30
0.0
 41
1.0
 10
1043.188307647844
 20
76.11231332725164
 30
0.0
 41
1.0
 10
1045.324100351935
 20
76.12319425524753
 30
0.0
 41
1.0
 10
1047.459470449189
 20
76.13367665796
 30
0.0
 41
1.0
 10
1053.901966614526
 20
76.1674345572829
 30
0.0
 41
1.0
 10
1060.344462779864
 20
76.20119245660582
 30
0.0
 41
1.0
 10
1066.786958945202
 20
76.23495035592873
 30
0.0
 41
1.0
 10
1073.292733680799
 20
76.27014329502829
 30
0.0
 41
1.0
 10
1079.798508416396
 20
76.30533623412786
 30
0.0
 41
1.0
 10
1086.304283151992
 20
76.34052917322742
 30
0.0
 41
1.0
 10
1088.482373646123
 20
76.35179951979224
 30
0.0
 41
1.0
 10
1090.660464140254
 20
76.36306986635707
 30
0.0
 41
1.0
 10
1092.838554634385
 20
76.37434021292188
 30
0.0
 41
1.0
 10
1095.025317949658
 20
76.38605587757093
 30
0.0
 41
1.0
 10
1097.212081264932
 20
76.39777154221997
 30
0.0
 41
1.0
 10
1099.398844580205
 20
76.40948720686902
 30
0.0
 41
1.0
 10
1128.103179289255
 20
76.58668729220557
 30
0.0
 41
0.9999987172698157
 10
1156.807806378222
 20
76.70757832878117
 30
0.0
 41
0.9999987172698157
 10
1185.512615386232
 20
76.77215985138173
 30
0.0
 41
1.0
 10
1187.701607707086
 20
76.77739029543096
 30
0.0
 41
1.0
 10
1189.912286397788
 20
76.78268982696699
 30
0.0
 41
1.0
 10
1192.126652281597
 20
76.78730506825104
 30
0.0
 41
1.0
 10
1194.348209256783
 20
76.79196927170099
 30
0.0
 41
1.0
 10
1196.541365944906
 20
76.79557450737512
 30
0.0
 41
1.0
 10
1198.755390392122
 20
76.80079283497571
 30
0.0
 41
1.0
 10
1200.53274652535
 20
76.80493966145315
 30
0.0
 41
1.0
 10
1202.351185506315
 20
76.81109866278523
 30
0.0
 41
1.0
 10
1204.144720271647
 20
76.81674626987456
 30
0.0
 41
1.0
 10
1205.927259708706
 20
76.82227039754412
 30
0.0
 41
1.0
 10
1207.707818130204
 20
76.82693608502069
 30
0.0
 41
1.0
 10
1209.500353452846
 20
76.83163421658469
 30
0.0
 41
1.0
 10
1211.292875246066
 20
76.83633338731312
 30
0.0
 41
1.0
 10
1213.081766545286
 20
76.84103620683332
 30
0.0
 41
1.0
 10
1214.866772897748
 20
76.8455466629639
 30
0.0
 41
1.0
 10
1216.70720170056
 20
76.85020936946391
 30
0.0
 41
1.0
 10
1218.4715996954
 20
76.85430386416867
 30
0.0
 41
1.0
 10
1220.176422637706
 20
76.85713785142298
 30
0.0
 41
1.0
 10
1221.921648250379
 20
76.8600541989442
 30
0.0
 41
1.0
 10
1223.7050315801
 20
76.86201917983277
 30
0.0
 41
1.0
 10
1225.528752581153
 20
76.86343411571647
 30
0.0
 41
1.0
 10
1227.29450045608
 20
76.86480647679228
 30
0.0
 41
1.0
 10
1229.079231772447
 20
76.86564234022545
 30
0.0
 41
1.0
 10
1230.883675834986
 20
76.86616723303291
 30
0.0
 41
1.0
 10
1232.656391351044
 20
76.86668392098902
 30
0.0
 41
1.0
 10
1234.440988421978
 20
76.86689953716308
 30
0.0
 41
1.0
 10
1236.237683857348
 20
76.86696781272985
 30
0.0
 41
1.0
 10
1238.004303422332
 20
76.86703597223004
 30
0.0
 41
1.0
 10
1239.786562259616
 20
76.86695956804786
 30
0.0
 41
1.0
 10
1241.585612201062
 20
76.86696334335466
 30
0.0
 41
1.0
 10
1243.368724346739
 20
76.8669678559881
 30
0.0
 41
1.0
 10
1245.144847659504
 20
76.86705148197598
 30
0.0
 41
1.0
 10
1246.913067911546
 20
76.86712971996212
 30
0.0
 41
1.0
 10
1248.691175467649
 20
76.8672084823898
 30
0.0
 41
1.0
 10
1250.462415049867
 20
76.86728099925298
 30
0.0
 41
1.0
 10
1252.226904161237
 20
76.86727923166791
 30
0.0
 41
1.0
 10
1254.000865842479
 20
76.86727770638055
 30
0.0
 41
1.0
 10
1255.767639820099
 20
76.86720124278132
 30
0.0
 41
1.0
 10
1257.527259093052
 20
76.86698312347198
 30
0.0
 41
1.0
 10
1259.296605328533
 20
76.86676401644945
 30
0.0
 41
1.0
 10
1261.058883030277
 20
76.8664016434216
 30
0.0
 41
1.0
 10
1262.814269348263
 20
76.86583621978343
 30
0.0
 41
1.0
 10
1264.579319291649
 20
76.86526789950818
 30
0.0
 41
1.0
 10
1266.337155655063
 20
76.86449450625591
 30
0.0
 41
1.0
 10
1268.088033434499
 20
76.8634585951122
 30
0.0
 41
1.0
 10
1269.847860998037
 20
76.86241757618959
 30
0.0
 41
1.0
 10
1271.601501737389
 20
76.86111003114476
 30
0.0
 41
1.0
 10
1273.349161382213
 20
76.85949208158445
 30
0.0
 41
1.0
 10
1275.099534332262
 20
76.85787169219567
 30
0.0
 41
1.0
 10
1276.849369243042
 20
76.85592483124088
 30
0.0
 41
1.0
 10
1278.598535191847
 20
76.85366381787117
 30
0.0
 41
1.0
 10
1280.345143664695
 20
76.85140613468587
 30
0.0
 41
1.0
 10
1282.090599752763
 20
76.84883697617443
 30
0.0
 41
1.0
 10
1283.83471333782
 20
76.84596645471424
 30
0.0
 41
1.0
 10
1285.57701408052
 20
76.84309883822552
 30
0.0
 41
1.0
 10
1287.317985622534
 20
76.83993124856887
 30
0.0
 41
1.0
 10
1289.057499356353
 20
76.83646517541183
 30
0.0
 41
1.0
 10
1290.7948155914
 20
76.83300380849543
 30
0.0
 41
1.0
 10
1292.531070170907
 20
76.8292389340187
 30
0.0
 41
1.0
 10
1294.265982627512
 20
76.82521442220082
 30
0.0
 41
1.0
 10
1296.000773701507
 20
76.82119028235807
 30
0.0
 41
1.0
 10
1297.73243617747
 20
76.8169256329224
 30
0.0
 41
1.0
 10
1299.46098591468
 20
76.81238557609367
 30
0.0
 41
1.0
 10
1301.177689127558
 20
76.80787672914305
 30
0.0
 41
1.0
 10
1302.90429207187
 20
76.80296898062514
 30
0.0
 41
1.0
 10
1304.639964907704
 20
76.79779778344027
 30
0.0
 41
1.0
 10
1306.345547897083
 20
76.79271740079766
 30
0.0
 41
1.0
 10
1308.064458968534
 20
76.78733243616044
 30
0.0
 41
1.0
 10
1309.795921028909
 20
76.78182749524149
 30
0.0
 41
1.0
 10
1311.492789017998
 20
76.77643392742097
 30
0.0
 41
1.0
 10
1313.200244611241
 20
76.7709427581748
 30
0.0
 41
1.0
 10
1314.916226835617
 20
76.76556937251075
 30
0.0
 41
1.0
 10
1316.597643422587
 20
76.76030614112923
 30
0.0
 41
1.0
 10
1318.289863830844
 20
76.75512164309308
 30
0.0
 41
1.0
 10
1319.991642892065
 20
76.75027618545255
 30
0.0
 41
1.0
 10
1321.676679001832
 20
76.74547948722127
 30
0.0
 41
1.0
 10
1323.347612504762
 20
76.74128557552373
 30
0.0
 41
1.0
 10
1325.00335755263
 20
76.73764769669356
 30
0.0
 41
1.0
 10
1326.671936079417
 20
76.73398158822971
 30
0.0
 41
1.0
 10
1328.320870683867
 20
76.73092161234985
 30
0.0
 41
1.0
 10
1329.950960325499
 20
76.72833930111983
 30
0.0
 41
1.0
 10
1331.597125597158
 20
76.72573198579555
 30
0.0
 41
1.0
 10
1333.225110041101
 20
76.7236016322898
 30
0.0
 41
1.0
 10
1334.835838311524
 20
76.72184305178962
 30
0.0
 41
1.0
 10
1336.460255012845
 20
76.72007005568028
 30
0.0
 41
1.0
 10
1338.066723744888
 20
76.7186787151697
 30
0.0
 41
1.0
 10
1339.65644005164
 20
76.71757010217902
 30
0.0
 41
1.0
 10
1341.258743442545
 20
76.71645289012795
 30
0.0
 41
1.0
 10
1342.843956882997
 20
76.71562551066023
 30
0.0
 41
1.0
 10
1344.412707305512
 20
76.7149902038368
 30
0.0
 41
1.0
 10
1345.989167308026
 20
76.71435213395034
 30
0.0
 41
1.0
 10
1347.555289280608
 20
76.71384399389996
 30
0.0
 41
1.0
 10
1349.111068900123
 20
76.7134944138204
 30
0.0
 41
1.0
 10
1350.666156026562
 20
76.7131441808944
 30
0.0
 41
1.0
 10
1352.21165234604
 20
76.7129544884309
 30
0.0
 41
1.0
 10
1353.747090084255
 20
76.7127921475817
 30
0.0
 41
1.0
 10
1355.283066114851
 20
76.71263274179461
 30
0.0
 41
1.0
 10
1356.807238583539
 20
76.71248709767782
 30
0.0
 41
1.0
 10
1358.318875638112
 20
76.71294442892417
 30
0.0
 41
1.0
 10
1359.83175312829
 20
76.71339923747776
 30
0.0
 41
1.0
 10
1361.335805035171
 20
76.7144811793944
 30
0.0
 41
1.0
 10
1362.831007621799
 20
76.7152675460868
 30
0.0
 41
1.0
 10
1364.32353691362
 20
76.71604955903376
 30
0.0
 41
1.0
 10
1365.80343023942
 20
76.71651023499956
 30
0.0
 41
1.0
 10
1367.270084548571
 20
76.71724121888542
 30
0.0
 41
1.0
 10
1368.733171817245
 20
76.71797418286647
 30
0.0
 41
1.0
 10
1370.189357360786
 20
76.71893380502857
 30
0.0
 41
1.0
 10
1371.636944809172
 20
76.72010824717313
 30
0.0
 41
1.0
 10
1373.075252866673
 20
76.72127365925718
 30
0.0
 41
1.0
 10
1374.504903956455
 20
76.7226560981016
 30
0.0
 41
1.0
 10
1375.924310352107
 20
76.72419229370689
 30
0.0
 41
1.0
 10
1377.334587691088
 20
76.72571915664989
 30
0.0
 41
1.0
 10
1378.733872297101
 20
76.72739215257798
 30
0.0
 41
1.0
 10
1380.120123736559
 20
76.72948228631913
 30
0.0
 41
1.0
 10
1381.497722350902
 20
76.73156036132663
 30
0.0
 41
1.0
 10
1382.863882624192
 20
76.73404809674471
 30
0.0
 41
1.0
 10
1384.21653298683
 20
76.73693726953843
 30
0.0
 41
1.0
 10
1385.566522826265
 20
76.73982028068276
 30
0.0
 41
1.0
 10
1386.89512337956
 20
76.74317711126668
 30
0.0
 41
1.0
 10
1388.202527467872
 20
76.74699021167453
 30
0.0
 41
1.0
 10
1389.516103459947
 20
76.75082155398326
 30
0.0
 41
1.0
 10
1390.807495914737
 20
76.75512168066598
 30
0.0
 41
1.0
 10
1392.077542982455
 20
76.7598155131684
 30
0.0
 41
1.0
 10
1393.354255370871
 20
76.76453414601325
 30
0.0
 41
1.0
 10
1394.609197581853
 20
76.76965208832598
 30
0.0
 41
1.0
 10
1395.843301774994
 20
76.77510596032744
 30
0.0
 41
1.0
 10
1397.082077240307
 20
76.78058059535945
 30
0.0
 41
1.0
 10
1398.301536874294
 20
76.78638034966338
 30
0.0
 41
1.0
 10
1399.501849041226
 20
76.79247289372233
 30
0.0
 41
1.0
 10
1400.703266592933
 20
76.79857107650527
 30
0.0
 41
1.0
 10
1401.887339870935
 20
76.80494804825574
 30
0.0
 41
1.0
 10
1403.053442485902
 20
76.81160934029253
 30
0.0
 41
1.0
 10
1404.219223382976
 20
76.81826883667105
 30
0.0
 41
1.0
 10
1405.366657790329
 20
76.82521537410922
 30
0.0
 41
1.0
 10
1406.495304697087
 20
76.83244610107658
 30
0.0
 41
1.0
 10
1407.623759521917
 20
76.83967563764398
 30
0.0
 41
1.0
 10
1408.733576054195
 20
76.84718831685663
 30
0.0
 41
1.0
 10
1409.824233357357
 20
76.85498101932421
 30
0.0
 41
1.0
 10
1410.91473406221
 20
76.86277268149846
 30
0.0
 41
1.0
 10
1411.985783053821
 20
76.87084603263462
 30
0.0
 41
1.0
 10
1413.036980753382
 20
76.87920111795142
 30
0.0
 41
1.0
 10
1414.088524907115
 20
76.8875588418667
 30
0.0
 41
1.0
 10
1415.119994028389
 20
76.89620125310499
 30
0.0
 41
1.0
 10
1416.131106418783
 20
76.9050750831343
 30
0.0
 41
1.0
 10
1417.143068792854
 20
76.91395687757199
 30
0.0
 41
1.0
 10
1418.134417601977
 20
76.92306692555293
 30
0.0
 41
1.0
 10
1419.104997571434
 20
76.93252934559996
 30
0.0
 41
1.0
 10
1420.076276385047
 20
76.94199872849696
 30
0.0
 41
1.0
 10
1421.027195797022
 20
76.95182539440708
 30
0.0
 41
1.0
 10
1421.957428794265
 20
76.96186580812491
 30
0.0
 41
1.0
 10
1422.887825516985
 20
76.97190761683987
 30
0.0
 41
1.0
 10
1423.797250912351
 20
76.98216074968774
 30
0.0
 41
1.0
 10
1424.685443015647
 20
76.9926371982533
 30
0.0
 41
1.0
 10
1425.573976337743
 20
77.00311789887418
 30
0.0
 41
1.0
 10
1426.44133407686
 20
77.01382217583159
 30
0.0
 41
1.0
 10
1427.28722237091
 20
77.02473315457223
 30
0.0
 41
1.0
 10
1428.133280090156
 20
77.0356461056127
 30
0.0
 41
1.0
 10
1428.957967448092
 20
77.04676750861168
 30
0.0
 41
1.0
 10
1429.760933863771
 20
77.05800847500382
 30
0.0
 41
1.0
 10
1430.564359106028
 20
77.0692567976186
 30
0.0
 41
1.0
 10
1431.345605186786
 20
77.08061771752025
 30
0.0
 41
1.0
 10
1432.10459549648
 20
77.09232283500364
 30
0.0
 41
1.0
 10
1432.863931582865
 20
77.10403325771887
 30
0.0
 41
1.0
 10
1433.601743111093
 20
77.11609989085393
 30
0.0
 41
1.0
 10
1434.31745387637
 20
77.12819864854487
 30
0.0
 41
1.0
 10
1435.03277204546
 20
77.14028953481362
 30
0.0
 41
1.0
 10
1435.725630759737
 20
77.15240615514098
 30
0.0
 41
1.0
 10
1436.395678884279
 20
77.16451500432959
 30
0.0
 41
1.0
 10
1437.065606978239
 20
77.176622185341
 30
0.0
 41
1.0
 10
1437.712723044924
 20
77.18871869576982
 30
0.0
 41
1.0
 10
1438.336651550771
 20
77.20085707299108
 30
0.0
 41
1.0
 10
1438.960458561028
 20
77.21299349584403
 30
0.0
 41
1.0
 10
1439.56124537246
 20
77.22517506409476
 30
0.0
 41
1.0
 10
1440.138518241306
 20
77.23731911450795
 30
0.0
 41
1.0
 10
1440.715517702657
 20
77.24945737383365
 30
0.0
 41
1.0
 10
1441.268996756929
 20
77.26155736704904
 30
0.0
 41
1.0
 10
1441.798463353906
 20
77.27356252497157
 30
0.0
 41
1.0
 10
1442.327654864845
 20
77.2855615736211
 30
0.0
 41
1.0
 10
1442.832867635083
 20
77.29746575727239
 30
0.0
 41
1.0
 10
1443.313595509896
 20
77.30920600137165
 30
0.0
 41
1.0
 10
1443.793994079565
 20
77.32093808731098
 30
0.0
 41
1.0
 10
1444.249953892215
 20
77.33250802776001
 30
0.0
 41
1.0
 10
1444.680920830815
 20
77.34380645585907
 30
0.0
 41
1.0
 10
1445.111672310418
 20
77.35509977213965
 30
0.0
 41
1.0
 10
1445.517386383449
 20
77.36611630537627
 30
0.0
 41
1.0
 10
1445.897610696429
 20
77.3768622794953
 30
0.0
 41
1.0
 10
1446.277649452577
 20
77.38760315151863
 30
0.0
 41
1.0
 10
1446.632367626212
 20
77.39808204615666
 30
0.0
 41
1.0
 10
1446.961107124353
 20
77.40809086873514
 30
0.0
 41
1.0
 10
1447.289497198085
 20
77.41808861264491
 30
0.0
 41
1.0
 10
1447.591891429804
 20
77.4276124778491
 30
0.0
 41
1.0
 10
1447.867687628736
 20
77.43656968036021
 30
0.0
 41
1.0
 10
1448.143280406404
 20
77.44552018925603
 30
0.0
 41
1.0
 10
1448.392281408548
 20
77.45390703062746
 30
0.0
 41
1.0
 10
1448.614202735158
 20
77.46158165082215
 30
0.0
 41
1.0
 10
1448.836046950508
 20
77.46925374548317
 30
0.0
 41
1.0
 10
1449.030750903384
 20
77.47621004157415
 30
0.0
 41
1.0
 10
1449.198068992622
 20
77.48234088089976
 30
0.0
 41
1.0
 10
1449.365326692599
 20
77.48846923700931
 30
0.0
 41
1.0
 10
1449.505252689187
 20
77.49377900849908
 30
0.0
 41
1.0
 10
1449.617439654937
 20
77.49808845686766
 30
0.0
 41
1.0
 10
1449.729540154673
 20
77.50239317068463
 30
0.0
 41
1.0
 10
1449.813922163039
 20
77.50569945882239
 30
0.0
 41
1.0
 10
1449.870261184655
 20
77.50791912068189
 30
0.0
 41
1.0
 10
1449.912479310147
 20
77.50958231742592
 30
0.0
 41
1.0
 10
1449.938945215325
 20
77.51063090547875
 30
0.0
 41
1.0
 10
1449.949541248536
 20
77.51105042988215
 30
0.0
 41
1.0
  0
ARC
  5
75
330
1F
100
AcDbEntity
  8
NOUVELLE VAGUE$EBD0002
100
AcDbCircle
 10
866.9999999997187
 20
77.51125967649568
 30
0.0
 40
14.99999999979127
100
AcDbArc
 50
90.00000000207832
 51
192.8057148795067
  0
LINE
  5
76
330
1F
100
AcDbEntity
  8
NOUVELLE VAGUE$EBD0002
100
AcDbLine
 10
866.9999999991746
 20
92.51125967628695
 30
0.0
 11
1434.950007986474
 21
92.5112596762868
 31
0.0
  0
SPLINE
  5
77
330
1F
100
AcDbEntity
  8
NOUVELLE VAGUE$EBD0002
100
AcDbSpline
210
0.0
220
0.0
230
1.0
 70
     8
 71
     3
 72
     9
 73
     5
 74
     0
 42
0.000000001
 43
0.0000000001
 12
1.0
 22
0.0
 32
0.0
 13
1.0
 23
0.0
 33
0.0
 40
0.3606592059511176
 40
0.3606592059511176
 40
0.3606592059511176
 40
0.3606592059511176
 40
4.632111734940143
 40
9.094065863098823
 40
9.094065863098823
 40
9.094065863098823
 40
9.094065863098823
 10
1384.95484442276
 20
-307.4887403237144
 30
0.0
 10
1384.961207614881
 20
-307.5711350771116
 30
0.0
 10
1383.164943792665
 20
-307.7397561393547
 30
0.0
 10
1378.238295047088
 20
-307.8611634871883
 30
0.0
 10
1375.265740642704
 20
-307.900990209567
 30
0.0
  0
SPLINE
  5
78
330
1F
100
AcDbEntity
  8
NOUVELLE VAGUE$EBD0002
100
AcDbSpline
210
0.0
220
0.0
230
1.0
 70
    12
 71
     2
 72
     6
 73
     3
 74
     0
 42
0.000000001
 43
0.0000000001
 12
1.0
 22
0.0
 32
0.0
 13
1.0
 23
0.0
 33
0.0
 40
0.0
 40
0.0
 40
0.0
 40
16.17007114075275
 40
16.17007114075275
 40
16.17007114075275
 10
1370.648576077008
 20
-317.488740323714
 30
0.0
 41
1.0
 10
1375.082934274363
 20
-317.488740338406
 30
0.0
 41
0.721534814634916
 10
1375.265740642704
 20
-307.900990209567
 30
0.0
 41
1.0
  0
ENDSEC
  0
SECTION
  2
OBJECTS
  0
DICTIONARY
  5
C
330
0
100
AcDbDictionary
281
     1
  3
ACAD_GROUP
350
D
  3
ACAD_LAYOUT
350
1A
  3
ACAD_MATERIAL
350
3B
  3
ACAD_MLEADERSTYLE
350
A3
  3
ACAD_MLINESTYLE
350
17
  3
ACAD_PLOTSETTINGS
350
19
  3
ACAD_PLOTSTYLENAME
350
E
  3
ACAD_SCALELIST
350
3F
  3
ACAD_TABLESTYLE
350
A2
  3
ACAD_VISUALSTYLE
350
2A
  3
AcDbVariableDictionary
350
79
  0
DICTIONARY
  5
D
102
{ACAD_REACTORS
330
C
102
}
330
C
100
AcDbDictionary
281
     1
  0
DICTIONARY
  5
1A
102
{ACAD_REACTORS
330
C
102
}
330
C
100
AcDbDictionary
281
     1
  3
Layout1
350
1E
  3
Layout2
350
26
  3
Model
350
22
  0
DICTIONARY
  5
3B
102
{ACAD_REACTORS
330
C
102
}
330
C
100
AcDbDictionary
281
     1
  3
ByBlock
350
3D
  3
ByLayer
350
3C
  3
Global
350
3E
  0
DICTIONARY
  5
A3
102
{ACAD_REACTORS
330
C
102
}
330
C
100
AcDbDictionary
281
     1
  0
DICTIONARY
  5
17
102
{ACAD_REACTORS
330
C
102
}
330
C
100
AcDbDictionary
281
     1
  3
Standard
350
18
  0
DICTIONARY
  5
19
102
{ACAD_REACTORS
330
C
102
}
330
C
100
AcDbDictionary
281
     1
  0
ACDBDICTIONARYWDFLT
  5
E
102
{ACAD_REACTORS
330
C
102
}
330
C
100
AcDbDictionary
281
     1
  3
Normal
350
F
100
AcDbDictionaryWithDefault
340
F
  0
DICTIONARY
  5
3F
102
{ACAD_REACTORS
330
C
102
}
330
C
100
AcDbDictionary
281
     1
  3
A0
350
40
  3
A1
350
41
  3
A2
350
42
  3
A3
350
43
  3
A4
350
44
  3
A5
350
45
  3
A6
350
46
  3
A7
350
47
  3
A8
350
48
  3
A9
350
49
  3
B0
350
4A
  3
B1
350
4B
  3
B2
350
4C
  3
B3
350
4D
  3
B4
350
4E
  3
B5
350
4F
  3
B6
350
50
  3
B7
350
51
  3
B8
350
52
  3
B9
350
53
  3
C0
350
54
  3
C1
350
55
  3
C2
350
56
  3
C3
350
57
  3
C4
350
58
  3
C5
350
59
  3
C6
350
5A
  3
C7
350
5B
  3
C8
350
5C
  3
C9
350
5D
  3
D0
350
5E
  3
D1
350
5F
  3
D2
350
60
  0
DICTIONARY
  5
A2
102
{ACAD_REACTORS
330
C
102
}
330
C
100
AcDbDictionary
281
     1
  0
DICTIONARY
  5
2A
102
{ACAD_REACTORS
330
C
102
}
330
C
100
AcDbDictionary
281
     1
  3
2dWireframe
350
2F
  3
3D Hidden
350
31
  3
3dWireframe
350
30
  3
Basic
350
32
  3
Brighten
350
36
  3
ColorChange
350
3A
  3
Conceptual
350
34
  3
Dim
350
35
  3
Facepattern
350
39
  3
Flat
350
2B
  3
FlatWithEdges
350
2C
  3
Gouraud
350
2D
  3
GouraudWithEdges
350
2E
  3
Linepattern
350
38
  3
Realistic
350
33
  3
Thicken
350
37
  0
DICTIONARY
  5
79
102
{ACAD_REACTORS
330
C
102
}
330
C
100
AcDbDictionary
281
     1
  3
CANNOSCALE
350
7A
  3
MSLTSCALE
350
7B
  0
LAYOUT
  5
1E
102
{ACAD_REACTORS
330
1A
102
}
330
1A
100
AcDbPlotSettings
  1

  2
none_device
  4

  6

 40
0.0
 41
0.0
 42
0.0
 43
0.0
 44
0.0
 45
0.0
 46
0.0
 47
0.0
 48
0.0
 49
0.0
140
0.0
141
0.0
142
1.0
143
1.0
 70
   688
 72
     0
 73
     0
 74
     5
  7

 75
    16
 76
     0
 77
     2
 78
   300
147
1.0
148
0.0
149
0.0
100
AcDbLayout
  1
Layout1
 70
     1
 71
     1
 10
0.0
 20
0.0
 11
12.0
 21
9.0
 12
0.0
 22
0.0
 32
0.0
 14
1.000000000000000E+20
 24
1.000000000000000E+20
 34
1.000000000000000E+20
 15
-1.000000000000000E+20
 25
-1.000000000000000E+20
 35
-1.000000000000000E+20
146
0.0
 13
0.0
 23
0.0
 33
0.0
 16
1.0
 26
0.0
 36
0.0
 17
0.0
 27
1.0
 37
0.0
 76
     0
330
1B
  0
LAYOUT
  5
26
102
{ACAD_REACTORS
330
1A
102
}
330
1A
100
AcDbPlotSettings
  1

  2
none_device
  4

  6

 40
0.0
 41
0.0
 42
0.0
 43
0.0
 44
0.0
 45
0.0
 46
0.0
 47
0.0
 48
0.0
 49
0.0
140
0.0
141
0.0
142
1.0
143
1.0
 70
   688
 72
     0
 73
     0
 74
     5
  7

 75
    16
 76
     0
 77
     2
 78
   300
147
1.0
148
0.0
149
0.0
100
AcDbLayout
  1
Layout2
 70
     1
 71
     2
 10
0.0
 20
0.0
 11
0.0
 21
0.0
 12
0.0
 22
0.0
 32
0.0
 14
0.0
 24
0.0
 34
0.0
 15
0.0
 25
0.0
 35
0.0
146
0.0
 13
0.0
 23
0.0
 33
0.0
 16
1.0
 26
0.0
 36
0.0
 17
0.0
 27
1.0
 37
0.0
 76
     0
330
23
  0
LAYOUT
  5
22
102
{ACAD_REACTORS
330
1A
102
}
330
1A
100
AcDbPlotSettings
  1

  2
none_device
  4
Letter_(8.50_x_11.00_Inches)
  6

 40
6.35
 41
6.35
 42
6.35000508
 43
6.35000508
 44
215.9
 45
279.4
 46
0.0
 47
0.0
 48
0.0
 49
0.0
140
0.0
141
0.0
142
1.0
143
1.0
 70
  1712
 72
     0
 73
     0
 74
     0
  7

 75
     0
 76
     0
 77
     2
 78
   300
147
1.0
148
0.0
149
0.0
100
AcDbLayout
  1
Model
 70
     1
 71
     0
 10
0.0
 20
0.0
 11
12.0
 21
9.0
 12
0.0
 22
0.0
 32
0.0
 14
851.9999999999275
 24
-317.4887403237178
 34
0.0
 15
1449.954843156743
 25
92.51125967628695
 35
0.0
146
0.0
 13
0.0
 23
0.0
 33
0.0
 16
1.0
 26
0.0
 36
0.0
 17
0.0
 27
1.0
 37
0.0
 76
     0
330
1F
331
29
  0
MATERIAL
  5
3D
102
{ACAD_REACTORS
330
3B
102
}
102
{ACAD_XDICTIONARY
360
9E
102
}
330
3B
100
AcDbMaterial
  1
ByBlock
  0
MATERIAL
  5
3C
102
{ACAD_REACTORS
330
3B
102
}
102
{ACAD_XDICTIONARY
360
9C
102
}
330
3B
100
AcDbMaterial
  1
ByLayer
  0
MATERIAL
  5
3E
102
{ACAD_REACTORS
330
3B
102
}
102
{ACAD_XDICTIONARY
360
A0
102
}
330
3B
100
AcDbMaterial
  1
Global
  0
MLINESTYLE
  5
18
102
{ACAD_REACTORS
330
17
102
}
330
17
100
AcDbMlineStyle
  2
Standard
 70
     0
  3

 62
   256
 51
90.0
 52
90.0
 71
     2
 49
0.5
 62
   256
  6
BYLAYER
 49
-0.5
 62
   256
  6
BYLAYER
  0
ACDBPLACEHOLDER
  5
F
102
{ACAD_REACTORS
330
E
102
}
330
E
  0
SCALE
  5
40
102
{ACAD_REACTORS
330
3F
102
}
330
3F
100
AcDbScale
 70
     0
300
1:1
140
1.0
141
1.0
290
     1
  0
SCALE
  5
41
102
{ACAD_REACTORS
330
3F
102
}
330
3F
100
AcDbScale
 70
     0
300
1:2
140
1.0
141
2.0
290
     0
  0
SCALE
  5
42
102
{ACAD_REACTORS
330
3F
102
}
330
3F
100
AcDbScale
 70
     0
300
1:4
140
1.0
141
4.0
290
     0
  0
SCALE
  5
43
102
{ACAD_REACTORS
330
3F
102
}
330
3F
100
AcDbScale
 70
     0
300
1:5
140
1.0
141
5.0
290
     0
  0
SCALE
  5
44
102
{ACAD_REACTORS
330
3F
102
}
330
3F
100
AcDbScale
 70
     0
300
1:8
140
1.0
141
8.0
290
     0
  0
SCALE
  5
45
102
{ACAD_REACTORS
330
3F
102
}
330
3F
100
AcDbScale
 70
     0
300
1:10
140
1.0
141
10.0
290
     0
  0
SCALE
  5
46
102
{ACAD_REACTORS
330
3F
102
}
330
3F
100
AcDbScale
 70
     0
300
1:16
140
1.0
141
16.0
290
     0
  0
SCALE
  5
47
102
{ACAD_REACTORS
330
3F
102
}
330
3F
100
AcDbScale
 70
     0
300
1:20
140
1.0
141
20.0
290
     0
  0
SCALE
  5
48
102
{ACAD_REACTORS
330
3F
102
}
330
3F
100
AcDbScale
 70
     0
300
1:30
140
1.0
141
30.0
290
     0
  0
SCALE
  5
49
102
{ACAD_REACTORS
330
3F
102
}
330
3F
100
AcDbScale
 70
     0
300
1:40
140
1.0
141
40.0
290
     0
  0
SCALE
  5
4A
102
{ACAD_REACTORS
330
3F
102
}
330
3F
100
AcDbScale
 70
     0
300
1:50
140
1.0
141
50.0
290
     0
  0
SCALE
  5
4B
102
{ACAD_REACTORS
330
3F
102
}
330
3F
100
AcDbScale
 70
     0
300
1:100
140
1.0
141
100.0
290
     0
  0
SCALE
  5
4C
102
{ACAD_REACTORS
330
3F
102
}
330
3F
100
AcDbScale
 70
     0
300
2:1
140
2.0
141
1.0
290
     0
  0
SCALE
  5
4D
102
{ACAD_REACTORS
330
3F
102
}
330
3F
100
AcDbScale
 70
     0
300
4:1
140
4.0
141
1.0
290
     0
  0
SCALE
  5
4E
102
{ACAD_REACTORS
330
3F
102
}
330
3F
100
AcDbScale
 70
     0
300
8:1
140
8.0
141
1.0
290
     0
  0
SCALE
  5
4F
102
{ACAD_REACTORS
330
3F
102
}
330
3F
100
AcDbScale
 70
     0
300
10:1
140
10.0
141
1.0
290
     0
  0
SCALE
  5
50
102
{ACAD_REACTORS
330
3F
102
}
330
3F
100
AcDbScale
 70
     0
300
100:1
140
100.0
141
1.0
290
     0
  0
SCALE
  5
51
102
{ACAD_REACTORS
330
3F
102
}
330
3F
100
AcDbScale
 70
     0
300
1/128" = 1'-0"
140
0.0078125
141
12.0
290
     0
  0
SCALE
  5
52
102
{ACAD_REACTORS
330
3F
102
}
330
3F
100
AcDbScale
 70
     0
300
1/64" = 1'-0"
140
0.015625
141
12.0
290
     0
  0
SCALE
  5
53
102
{ACAD_REACTORS
330
3F
102
}
330
3F
100
AcDbScale
 70
     0
300
1/32" = 1'-0"
140
0.03125
141
12.0
290
     0
  0
SCALE
  5
54
102
{ACAD_REACTORS
330
3F
102
}
330
3F
100
AcDbScale
 70
     0
300
1/16" = 1'-0"
140
0.0625
141
12.0
290
     0
  0
SCALE
  5
55
102
{ACAD_REACTORS
330
3F
102
}
330
3F
100
AcDbScale
 70
     0
300
3/32" = 1'-0"
140
0.09375
141
12.0
290
     0
  0
SCALE
  5
56
102
{ACAD_REACTORS
330
3F
102
}
330
3F
100
AcDbScale
 70
     0
300
1/8" = 1'-0"
140
0.125
141
12.0
290
     0
  0
SCALE
  5
57
102
{ACAD_REACTORS
330
3F
102
}
330
3F
100
AcDbScale
 70
     0
300
3/16" = 1'-0"
140
0.1875
141
12.0
290
     0
  0
SCALE
  5
58
102
{ACAD_REACTORS
330
3F
102
}
330
3F
100
AcDbScale
 70
     0
300
1/4" = 1'-0"
140
0.25
141
12.0
290
     0
  0
SCALE
  5
59
102
{ACAD_REACTORS
330
3F
102
}
330
3F
100
AcDbScale
 70
     0
300
3/8" = 1'-0"
140
0.375
141
12.0
290
     0
  0
SCALE
  5
5A
102
{ACAD_REACTORS
330
3F
102
}
330
3F
100
AcDbScale
 70
     0
300
1/2" = 1'-0"
140
0.5
141
12.0
290
     0
  0
SCALE
  5
5B
102
{ACAD_REACTORS
330
3F
102
}
330
3F
100
AcDbScale
 70
     0
300
3/4" = 1'-0"
140
0.75
141
12.0
290
     0
  0
SCALE
  5
5C
102
{ACAD_REACTORS
330
3F
102
}
330
3F
100
AcDbScale
 70
     0
300
1" = 1'-0"
140
1.0
141
12.0
290
     0
  0
SCALE
  5
5D
102
{ACAD_REACTORS
330
3F
102
}
330
3F
100
AcDbScale
 70
     0
300
1-1/2" = 1'-0"
140
1.5
141
12.0
290
     0
  0
SCALE
  5
5E
102
{ACAD_REACTORS
330
3F
102
}
330
3F
100
AcDbScale
 70
     0
300
3" = 1'-0"
140
3.0
141
12.0
290
     0
  0
SCALE
  5
5F
102
{ACAD_REACTORS
330
3F
102
}
330
3F
100
AcDbScale
 70
     0
300
6" = 1'-0"
140
6.0
141
12.0
290
     0
  0
SCALE
  5
60
102
{ACAD_REACTORS
330
3F
102
}
330
3F
100
AcDbScale
 70
     0
300
1'-0" = 1'-0"
140
12.0
141
12.0
290
     0
  0
VISUALSTYLE
  5
2F
102
{ACAD_REACTORS
330
2A
102
}
102
{ACAD_XDICTIONARY
360
84
102
}
330
2A
100
AcDbVisualStyle
  2
2dWireframe
 70
     4
 71
     0
 72
     2
 73
     0
 90
        0
 40
0.6
 41
30.0
 62
     5
 63
     7
421
 16777215
 74
     1
 91
        4
 64
     7
 65
   257
 75
     1
175
     1
 42
1.0
 92
        0
 66
   257
 43
1.0
 76
     1
 77
     6
 78
     2
 67
     7
 79
     5
170
     0
171
     0
290
     0
174
     0
 93
        1
 44
0.0
173
     0
291
     0
 45
0.0
1001
ACAD
1000
AcDbSavedByObjectVersion
1070
     0
  0
VISUALSTYLE
  5
31
102
{ACAD_REACTORS
330
2A
102
}
102
{ACAD_XDICTIONARY
360
88
102
}
330
2A
100
AcDbVisualStyle
  2
3D Hidden
 70
     6
 71
     1
 72
     2
 73
     2
 90
        0
 40
0.6
 41
30.0
 62
     5
 63
     7
421
 16777215
 74
     2
 91
        2
 64
     7
 65
   257
 75
     2
175
     1
 42
40.0
 92
        0
 66
   257
 43
1.0
 76
     1
 77
     6
 78
     2
 67
     7
 79
     3
170
     0
171
     0
290
     0
174
     0
 93
        1
 44
0.0
173
     0
291
     0
 45
0.0
1001
ACAD
1000
AcDbSavedByObjectVersion
1070
     0
  0
VISUALSTYLE
  5
30
102
{ACAD_REACTORS
330
2A
102
}
102
{ACAD_XDICTIONARY
360
86
102
}
330
2A
100
AcDbVisualStyle
  2
3dWireframe
 70
     5
 71
     0
 72
     2
 73
     0
 90
        0
 40
0.6
 41
30.0
 62
     5
 63
     7
421
 16777215
 74
     1
 91
        4
 64
     7
 65
   257
 75
     1
175
     1
 42
1.0
 92
        0
 66
   257
 43
1.0
 76
     1
 77
     6
 78
     2
 67
     7
 79
     5
170
     0
171
     0
290
     0
174
     0
 93
        1
 44
0.0
173
     0
291
     0
 45
0.0
1001
ACAD
1000
AcDbSavedByObjectVersion
1070
     0
  0
VISUALSTYLE
  5
32
102
{ACAD_REACTORS
330
2A
102
}
102
{ACAD_XDICTIONARY
360
8A
102
}
330
2A
100
AcDbVisualStyle
  2
Basic
 70
     7
 71
     1
 72
     0
 73
     1
 90
        0
 40
0.6
 41
30.0
 62
     5
 63
     7
421
 16777215
 74
     0
 91
        4
 64
     7
 65
   257
 75
     1
175
     1
 42
1.0
 92
        8
 66
     7
 43
1.0
 76
     1
 77
     6
 78
     2
 67
     7
 79
     5
170
     0
171
     0
290
     0
174
     0
 93
        1
 44
0.0
173
     0
291
     1
 45
0.0
1001
ACAD
1000
AcDbSavedByObjectVersion
1070
     0
  0
VISUALSTYLE
  5
36
102
{ACAD_REACTORS
330
2A
102
}
102
{ACAD_XDICTIONARY
360
92
102
}
330
2A
100
AcDbVisualStyle
  2
Brighten
 70
    12
 71
     2
 72
     2
 73
     0
 90
        0
 40
0.6
 41
30.0
 62
     5
 63
     7
421
 16777215
 74
     1
 91
        4
 64
     7
 65
   257
 75
     1
175
     1
 42
1.0
 92
        8
 66
     7
 43
1.0
 76
     1
 77
     6
 78
     2
 67
     7
 79
     5
170
     0
171
     0
290
     0
174
     0
 93
        1
 44
50.0
173
     0
291
     1
 45
0.0
1001
ACAD
1000
AcDbSavedByObjectVersion
1070
     0
  0
VISUALSTYLE
  5
3A
102
{ACAD_REACTORS
330
2A
102
}
102
{ACAD_XDICTIONARY
360
9A
102
}
330
2A
100
AcDbVisualStyle
  2
ColorChange
 70
    16
 71
     2
 72
     2
 73
     3
 90
        0
 40
0.6
 41
30.0
 62
     5
 63
     8
421
  8421504
 74
     1
 91
        4
 64
     7
 65
   257
 75
     1
175
     1
 42
1.0
 92
        8
 66
     8
424
  8421504
 43
1.0
 76
     1
 77
     6
 78
     2
 67
     7
 79
     5
170
     0
171
     0
290
     0
174
     0
 93
        1
 44
0.0
173
     0
291
     1
 45
0.0
1001
ACAD
1000
AcDbSavedByObjectVersion
1070
     0
  0
VISUALSTYLE
  5
34
102
{ACAD_REACTORS
330
2A
102
}
102
{ACAD_XDICTIONARY
360
8E
102
}
330
2A
100
AcDbVisualStyle
  2
Conceptual
 70
     9
 71
     3
 72
     2
 73
     0
 90
        0
 40
0.6
 41
30.0
 62
     5
 63
     7
421
 16777215
 74
     2
 91
        2
 64
     7
 65
   257
 75
     1
175
     1
 42
40.0
 92
        8
 66
     7
 43
1.0
 76
     1
 77
     6
 78
     2
 67
     7
 79
     3
170
     0
171
     0
290
     0
174
     0
 93
        1
 44
0.0
173
     0
291
     0
 45
0.0
1001
ACAD
1000
AcDbSavedByObjectVersion
1070
     0
  0
VISUALSTYLE
  5
35
102
{ACAD_REACTORS
330
2A
102
}
102
{ACAD_XDICTIONARY
360
90
102
}
330
2A
100
AcDbVisualStyle
  2
Dim
 70
    11
 71
     2
 72
     2
 73
     0
 90
        0
 40
0.6
 41
30.0
 62
     5
 63
     7
421
 16777215
 74
     1
 91
        4
 64
     7
 65
   257
 75
     1
175
     1
 42
1.0
 92
        8
 66
     7
 43
1.0
 76
     1
 77
     6
 78
     2
 67
     7
 79
     5
170
     0
171
     0
290
     0
174
     0
 93
        1
 44
-50.0
173
     0
291
     1
 45
0.0
1001
ACAD
1000
AcDbSavedByObjectVersion
1070
     0
  0
VISUALSTYLE
  5
39
102
{ACAD_REACTORS
330
2A
102
}
102
{ACAD_XDICTIONARY
360
98
102
}
330
2A
100
AcDbVisualStyle
  2
Facepattern
 70
    15
 71
     2
 72
     2
 73
     0
 90
        0
 40
0.6
 41
30.0
 62
     5
 63
     7
421
 16777215
 74
     1
 91
        4
 64
     7
 65
   257
 75
     1
175
     1
 42
1.0
 92
        8
 66
     7
 43
1.0
 76
     1
 77
     6
 78
     2
 67
     7
 79
     5
170
     0
171
     0
290
     0
174
     0
 93
        1
 44
0.0
173
     0
291
     1
 45
0.0
1001
ACAD
1000
AcDbSavedByObjectVersion
1070
     0
  0
VISUALSTYLE
  5
2B
102
{ACAD_REACTORS
330
2A
102
}
102
{ACAD_XDICTIONARY
360
7C
102
}
330
2A
100
AcDbVisualStyle
  2
Flat
 70
     0
 71
     2
 72
     1
 73
     1
 90
        2
 40
0.6
 41
30.0
 62
     5
 63
     7
421
 16777215
 74
     0
 91
        4
 64
     7
 65
   257
 75
     1
175
     1
 42
1.0
 92
        8
 66
     7
 43
1.0
 76
     1
 77
     6
 78
     2
 67
     7
 79
     5
170
     0
171
     0
290
     0
174
     0
 93
       13
 44
0.0
173
     0
291
     1
 45
0.0
1001
ACAD
1000
AcDbSavedByObjectVersion
1070
     0
  0
VISUALSTYLE
  5
2C
102
{ACAD_REACTORS
330
2A
102
}
102
{ACAD_XDICTIONARY
360
7E
102
}
330
2A
100
AcDbVisualStyle
  2
FlatWithEdges
 70
     1
 71
     2
 72
     1
 73
     1
 90
        2
 40
0.6
 41
30.0
 62
     5
 63
     7
421
 16777215
 74
     1
 91
        4
 64
     7
 65
   257
 75
     1
175
     1
 42
1.0
 92
        0
 66
   257
 43
1.0
 76
     1
 77
     6
 78
     2
 67
     7
 79
     5
170
     0
171
     0
290
     0
174
     0
 93
       13
 44
0.0
173
     0
291
     1
 45
0.0
1001
ACAD
1000
AcDbSavedByObjectVersion
1070
     0
  0
VISUALSTYLE
  5
2D
102
{ACAD_REACTORS
330
2A
102
}
102
{ACAD_XDICTIONARY
360
80
102
}
330
2A
100
AcDbVisualStyle
  2
Gouraud
 70
     2
 71
     2
 72
     2
 73
     1
 90
        2
 40
0.6
 41
30.0
 62
     5
 63
     7
421
 16777215
 74
     0
 91
        4
 64
     7
 65
   257
 75
     1
175
     1
 42
1.0
 92
        0
 66
     7
 43
1.0
 76
     1
 77
     6
 78
     2
 67
     7
 79
     5
170
     0
171
     0
290
     0
174
     0
 93
       13
 44
0.0
173
     0
291
     1
 45
0.0
1001
ACAD
1000
AcDbSavedByObjectVersion
1070
     0
  0
VISUALSTYLE
  5
2E
102
{ACAD_REACTORS
330
2A
102
}
102
{ACAD_XDICTIONARY
360
82
102
}
330
2A
100
AcDbVisualStyle
  2
GouraudWithEdges
 70
     3
 71
     2
 72
     2
 73
     1
 90
        2
 40
0.6
 41
30.0
 62
     5
 63
     7
421
 16777215
 74
     1
 91
        4
 64
     7
 65
   257
 75
     1
175
     1
 42
1.0
 92
        0
 66
   257
 43
1.0
 76
     1
 77
     6
 78
     2
 67
     7
 79
     5
170
     0
171
     0
290
     0
174
     0
 93
       13
 44
0.0
173
     0
291
     1
 45
0.0
1001
ACAD
1000
AcDbSavedByObjectVersion
1070
     0
  0
VISUALSTYLE
  5
38
102
{ACAD_REACTORS
330
2A
102
}
102
{ACAD_XDICTIONARY
360
96
102
}
330
2A
100
AcDbVisualStyle
  2
Linepattern
 70
    14
 71
     2
 72
     2
 73
     0
 90
        0
 40
0.6
 41
30.0
 62
     5
 63
     7
421
 16777215
 74
     1
 91
        4
 64
     7
 65
   257
 75
     7
175
     7
 42
1.0
 92
        8
 66
     7
 43
1.0
 76
     1
 77
     6
 78
     2
 67
     7
 79
     5
170
     0
171
     0
290
     0
174
     0
 93
        1
 44
0.0
173
     0
291
     1
 45
0.0
1001
ACAD
1000
AcDbSavedByObjectVersion
1070
     0
  0
VISUALSTYLE
  5
33
102
{ACAD_REACTORS
330
2A
102
}
102
{ACAD_XDICTIONARY
360
8C
102
}
330
2A
100
AcDbVisualStyle
  2
Realistic
 70
     8
 71
     2
 72
     3
 73
     0
 90
        2
 40
0.6
 41
30.0
 62
     5
 63
     7
421
 16777215
 74
     0
 91
        0
 64
     7
 65
   257
 75
     1
175
     1
 42
1.0
 92
        8
 66
   257
 43
1.0
 76
     1
 77
     6
 78
     2
 67
     7
 79
     3
170
     0
171
     0
290
     0
174
     0
 93
       13
 44
0.0
173
     0
291
     0
 45
0.0
1001
ACAD
1000
AcDbSavedByObjectVersion
1070
     0
  0
VISUALSTYLE
  5
37
102
{ACAD_REACTORS
330
2A
102
}
102
{ACAD_XDICTIONARY
360
94
102
}
330
2A
100
AcDbVisualStyle
  2
Thicken
 70
    13
 71
     2
 72
     2
 73
     0
 90
        0
 40
0.6
 41
30.0
 62
     5
 63
     7
421
 16777215
 74
     1
 91
        4
 64
     7
 65
   257
 75
     1
175
     1
 42
1.0
 92
       12
 66
     7
 43
1.0
 76
     1
 77
     6
 78
     2
 67
     7
 79
     5
170
     0
171
     0
290
     0
174
     0
 93
        1
 44
0.0
173
     0
291
     1
 45
0.0
1001
ACAD
1000
AcDbSavedByObjectVersion
1070
     0
  0
DICTIONARYVAR
  5
7A
102
{ACAD_REACTORS
330
79
102
}
330
79
100
DictionaryVariables
280
     0
  1
1:1
  0
DICTIONARYVAR
  5
7B
102
{ACAD_REACTORS
330
79
102
}
330
79
100
DictionaryVariables
280
     0
  1
1
  0
DICTIONARY
  5
9E
330
3D
100
AcDbDictionary
280
     1
281
     1
  3
ACAD_XREC_ROUNDTRIP
360
9F
  0
DICTIONARY
  5
9C
330
3C
100
AcDbDictionary
280
     1
281
     1
  3
ACAD_XREC_ROUNDTRIP
360
9D
  0
DICTIONARY
  5
A0
330
3E
100
AcDbDictionary
280
     1
281
     1
  3
ACAD_XREC_ROUNDTRIP
360
A1
  0
DICTIONARY
  5
84
330
2F
100
AcDbDictionary
280
     1
281
     1
  3
ACAD_XREC_ROUNDTRIP
360
85
  0
DICTIONARY
  5
88
330
31
100
AcDbDictionary
280
     1
281
     1
  3
ACAD_XREC_ROUNDTRIP
360
89
  0
DICTIONARY
  5
86
330
30
100
AcDbDictionary
280
     1
281
     1
  3
ACAD_XREC_ROUNDTRIP
360
87
  0
DICTIONARY
  5
8A
330
32
100
AcDbDictionary
280
     1
281
     1
  3
ACAD_XREC_ROUNDTRIP
360
8B
  0
DICTIONARY
  5
92
330
36
100
AcDbDictionary
280
     1
281
     1
  3
ACAD_XREC_ROUNDTRIP
360
93
  0
DICTIONARY
  5
9A
330
3A
100
AcDbDictionary
280
     1
281
     1
  3
ACAD_XREC_ROUNDTRIP
360
9B
  0
DICTIONARY
  5
8E
330
34
100
AcDbDictionary
280
     1
281
     1
  3
ACAD_XREC_ROUNDTRIP
360
8F
  0
DICTIONARY
  5
90
330
35
100
AcDbDictionary
280
     1
281
     1
  3
ACAD_XREC_ROUNDTRIP
360
91
  0
DICTIONARY
  5
98
330
39
100
AcDbDictionary
280
     1
281
     1
  3
ACAD_XREC_ROUNDTRIP
360
99
  0
DICTIONARY
  5
7C
330
2B
100
AcDbDictionary
280
     1
281
     1
  3
ACAD_XREC_ROUNDTRIP
360
7D
  0
DICTIONARY
  5
7E
330
2C
100
AcDbDictionary
280
     1
281
     1
  3
ACAD_XREC_ROUNDTRIP
360
7F
  0
DICTIONARY
  5
80
330
2D
100
AcDbDictionary
280
     1
281
     1
  3
ACAD_XREC_ROUNDTRIP
360
81
  0
DICTIONARY
  5
82
330
2E
100
AcDbDictionary
280
     1
281
     1
  3
ACAD_XREC_ROUNDTRIP
360
83
  0
DICTIONARY
  5
96
330
38
100
AcDbDictionary
280
     1
281
     1
  3
ACAD_XREC_ROUNDTRIP
360
97
  0
DICTIONARY
  5
8C
330
33
100
AcDbDictionary
280
     1
281
     1
  3
ACAD_XREC_ROUNDTRIP
360
8D
  0
DICTIONARY
  5
94
330
37
100
AcDbDictionary
280
     1
281
     1
  3
ACAD_XREC_ROUNDTRIP
360
95
  0
XRECORD
  5
9F
102
{ACAD_REACTORS
330
9E
102
}
330
9E
100
AcDbXrecord
280
     1
102
MATERIAL
148
0.0
149
0.0
149
0.0
 93
        0
 94
      127
282
     0
 72
     1
 77
     1
171
     1
175
     1
179
     1
273
     0
  0
XRECORD
  5
9D
102
{ACAD_REACTORS
330
9C
102
}
330
9C
100
AcDbXrecord
280
     1
102
MATERIAL
148
0.0
149
0.0
149
0.0
 93
        0
 94
      127
282
     0
 72
     1
 77
     1
171
     1
175
     1
179
     1
273
     0
  0
XRECORD
  5
A1
102
{ACAD_REACTORS
330
A0
102
}
330
A0
100
AcDbXrecord
280
     1
102
MATERIAL
148
0.0
149
0.0
149
0.0
 93
        0
 94
      127
282
     0
 72
     1
 77
     1
171
     1
175
     1
179
     1
273
     0
  0
XRECORD
  5
85
102
{ACAD_REACTORS
330
84
102
}
330
84
100
AcDbXrecord
280
     1
102
RTVSPropertyOp0
 70
     1
102
RTVSPropertyOp1
 70
     1
102
RTVSPropertyOp2
 70
     1
102
RTVSPropertyOp3
 70
     1
102
RTVSPropertyOp4
 70
     1
102
RTVSPropertyOp5
 70
     1
102
RTVSPropertyOp6
 70
     1
102
RTVSPropertyOp7
 70
     1
102
RTVSPropertyOp8
 70
     1
102
RTVSPropertyOp9
 70
     1
102
RTVSPropertyOp10
 70
     1
102
RTVSPropertyOp11
 70
     1
102
RTVSPropertyOp12
 70
     1
102
RTVSPropertyOp13
 70
     1
102
RTVSPropertyOp14
 70
     1
102
RTVSPropertyOp15
 70
     1
102
RTVSPropertyOp16
 70
     1
102
RTVSPropertyOp17
 70
     1
102
RTVSPropertyOp18
 70
     1
102
RTVSPropertyOp19
 70
     1
102
RTVSPropertyOp20
 70
     1
102
RTVSPropertyOp21
 70
     1
102
RTVSPropertyOp22
 70
     1
102
RTVSPropertyOp23
 70
     1
102
RTVSPropertyOp24
 70
     1
102
RTVSPropertyOp25
 70
     1
102
RTVSPropertyOp26
 70
     1
102
RTVSPropertyOp27
 70
     1
102
RTVSPropertyOp28
 70
     1
102
RTVSPropertyOp29
 70
     1
102
RTVSPropertyOp30
 70
     1
102
RTVSPropertyOp31
 70
     1
102
RTVSPropertyOp32
 70
     1
102
RTVSPropertyOp33
 70
     1
102
RTVSPropertyOp34
 70
     1
102
RTVSPropertyOp35
 70
     1
102
RTVSPropertyOp36
 70
     1
102
RTVSPropertyOp37
 70
     1
102
RTVSPropertyOp38
 70
     1
102
RTVSPropertyOp39
 70
     1
102
RTVSPropertyOp40
 70
     1
102
RTVSPropertyOp41
 70
     1
102
RTVSPropertyOp42
 70
     1
102
RTVSPropertyOp43
 70
     1
102
RTVSPropertyOp44
 70
     1
102
RTVSPropertyOp45
 70
     1
102
RTVSPropertyOp46
 70
     1
102
RTVSPropertyOp47
 70
     1
102
RTVSPropertyOp48
 70
     1
102
RTVSPropertyOp49
 70
     1
102
RTVSPropertyOp50
 70
     1
102
RTVSPropertyOp51
 70
     0
102
RTVSPropertyOp52
 70
     0
102
RTVSPropertyOp53
 70
     1
102
RTVSPropertyOp54
 70
     1
102
RTVSPropertyOp55
 70
     1
102
RTVSPropertyOp56
 70
     1
102
RTVSPropertyOp57
 70
     1
102
RTVSPost2010Prop28
280
     1
102
RTVSPost2010PropOp28
 70
     1
102
RTVSPost2010Prop29
280
     1
102
RTVSPost2010PropOp29
 70
     1
102
RTVSPost2010Prop30
280
     0
102
RTVSPost2010PropOp30
 70
     1
102
RTVSPost2010Prop31
280
     0
102
RTVSPost2010PropOp31
 70
     1
102
RTVSPost2010Prop32
280
     0
102
RTVSPost2010PropOp32
 70
     1
102
RTVSPost2010Prop33
280
     0
102
RTVSPost2010PropOp33
 70
     1
102
RTVSPost2010Prop34
280
     0
102
RTVSPost2010PropOp34
 70
     1
102
RTVSPost2010Prop35
280
     0
102
RTVSPost2010PropOp35
 70
     1
102
RTVSPost2010Prop36
280
     0
102
RTVSPost2010PropOp36
 70
     1
102
RTVSPost2010Prop37
 90
       50
102
RTVSPost2010PropOp37
 70
     1
102
RTVSPost2010Prop38
140
0.0
102
RTVSPost2010PropOp38
 70
     1
102
RTVSPost2010Prop39
140
1.0
102
RTVSPost2010PropOp39
 70
     1
102
RTVSPost2010Prop40
 90
        0
102
RTVSPost2010PropOp40
 70
     1
102
RTVSPost2010Prop41ColorIndex
 90
       18
102
RTVSPost2010Prop41ColorRGB
 90
        0
102
RTVSPost2010PropOp41
 70
     1
102
RTVSPost2010Prop42
 90
       50
102
RTVSPost2010PropOp42
 70
     1
102
RTVSPost2010Prop43
 90
        3
102
RTVSPost2010PropOp43
 70
     1
102
RTVSPost2010Prop44ColorIndex
 90
        5
102
RTVSPost2010Prop44ColorRGB
 90
      255
102
RTVSPost2010PropOp44
 70
     1
102
RTVSPost2010Prop45
280
     0
102
RTVSPost2010PropOp45
 70
     1
102
RTVSPost2010Prop46
 90
       50
102
RTVSPost2010PropOp46
 70
     1
102
RTVSPost2010Prop47
 90
       50
102
RTVSPost2010PropOp47
 70
     1
102
RTVSPost2010Prop48
 90
       50
102
RTVSPost2010PropOp48
 70
     1
102
RTVSPost2010Prop49
280
     0
102
RTVSPost2010PropOp49
 70
     1
102
RTVSPost2010Prop50
 90
       50
102
RTVSPost2010PropOp50
 70
     1
102
RTVSPost2010Prop51ColorIndex
 90
      256
102
RTVSPost2010Prop51ColorRGB
 90
-16777216
102
RTVSPost2010PropOp51
 70
     0
102
RTVSPost2010Prop52
140
1.0
102
RTVSPost2010PropOp52
 70
     0
102
RTVSPost2010Prop53
 90
        2
102
RTVSPost2010PropOp53
 70
     1
102
RTVSPost2010Prop54
  1
strokes_ogs.tif
102
RTVSPost2010PropOp54
 70
     1
102
RTVSPost2010Prop55
280
     0
102
RTVSPost2010PropOp55
 70
     1
102
RTVSPost2010Prop56
140
1.0
102
RTVSPost2010PropOp56
 70
     1
102
RTVSPost2010Prop57
140
1.0
102
RTVSPost2010PropOp57
 70
     1
  0
XRECORD
  5
89
102
{ACAD_REACTORS
330
88
102
}
330
88
100
AcDbXrecord
280
     1
102
RTVSPropertyOp0
 70
     1
102
RTVSPropertyOp1
 70
     1
102
RTVSPropertyOp2
 70
     1
102
RTVSPropertyOp3
 70
     1
102
RTVSPropertyOp4
 70
     1
102
RTVSPropertyOp5
 70
     1
102
RTVSPropertyOp6
 70
     1
102
RTVSPropertyOp7
 70
     1
102
RTVSPropertyOp8
 70
     1
102
RTVSPropertyOp9
 70
     1
102
RTVSPropertyOp10
 70
     1
102
RTVSPropertyOp11
 70
     1
102
RTVSPropertyOp12
 70
     1
102
RTVSPropertyOp13
 70
     1
102
RTVSPropertyOp14
 70
     1
102
RTVSPropertyOp15
 70
     1
102
RTVSPropertyOp16
 70
     1
102
RTVSPropertyOp17
 70
     1
102
RTVSPropertyOp18
 70
     1
102
RTVSPropertyOp19
 70
     1
102
RTVSPropertyOp20
 70
     1
102
RTVSPropertyOp21
 70
     1
102
RTVSPropertyOp22
 70
     1
102
RTVSPropertyOp23
 70
     1
102
RTVSPropertyOp24
 70
     1
102
RTVSPropertyOp25
 70
     1
102
RTVSPropertyOp26
 70
     1
102
RTVSPropertyOp27
 70
     1
102
RTVSPropertyOp28
 70
     1
102
RTVSPropertyOp29
 70
     1
102
RTVSPropertyOp30
 70
     1
102
RTVSPropertyOp31
 70
     1
102
RTVSPropertyOp32
 70
     1
102
RTVSPropertyOp33
 70
     1
102
RTVSPropertyOp34
 70
     1
102
RTVSPropertyOp35
 70
     1
102
RTVSPropertyOp36
 70
     1
102
RTVSPropertyOp37
 70
     1
102
RTVSPropertyOp38
 70
     1
102
RTVSPropertyOp39
 70
     1
102
RTVSPropertyOp40
 70
     1
102
RTVSPropertyOp41
 70
     1
102
RTVSPropertyOp42
 70
     1
102
RTVSPropertyOp43
 70
     1
102
RTVSPropertyOp44
 70
     1
102
RTVSPropertyOp45
 70
     1
102
RTVSPropertyOp46
 70
     1
102
RTVSPropertyOp47
 70
     1
102
RTVSPropertyOp48
 70
     1
102
RTVSPropertyOp49
 70
     1
102
RTVSPropertyOp50
 70
     1
102
RTVSPropertyOp51
 70
     0
102
RTVSPropertyOp52
 70
     0
102
RTVSPropertyOp53
 70
     1
102
RTVSPropertyOp54
 70
     1
102
RTVSPropertyOp55
 70
     1
102
RTVSPropertyOp56
 70
     1
102
RTVSPropertyOp57
 70
     1
102
RTVSPost2010Prop28
280
     0
102
RTVSPost2010PropOp28
 70
     1
102
RTVSPost2010Prop29
280
     1
102
RTVSPost2010PropOp29
 70
     1
102
RTVSPost2010Prop30
280
     1
102
RTVSPost2010PropOp30
 70
     1
102
RTVSPost2010Prop31
280
     0
102
RTVSPost2010PropOp31
 70
     1
102
RTVSPost2010Prop32
280
     0
102
RTVSPost2010PropOp32
 70
     1
102
RTVSPost2010Prop33
280
     0
102
RTVSPost2010PropOp33
 70
     1
102
RTVSPost2010Prop34
280
     0
102
RTVSPost2010PropOp34
 70
     1
102
RTVSPost2010Prop35
280
     0
102
RTVSPost2010PropOp35
 70
     1
102
RTVSPost2010Prop36
280
     0
102
RTVSPost2010PropOp36
 70
     1
102
RTVSPost2010Prop37
 90
       50
102
RTVSPost2010PropOp37
 70
     1
102
RTVSPost2010Prop38
140
0.0
102
RTVSPost2010PropOp38
 70
     1
102
RTVSPost2010Prop39
140
1.0
102
RTVSPost2010PropOp39
 70
     1
102
RTVSPost2010Prop40
 90
        0
102
RTVSPost2010PropOp40
 70
     1
102
RTVSPost2010Prop41ColorIndex
 90
       18
102
RTVSPost2010Prop41ColorRGB
 90
        0
102
RTVSPost2010PropOp41
 70
     1
102
RTVSPost2010Prop42
 90
       50
102
RTVSPost2010PropOp42
 70
     1
102
RTVSPost2010Prop43
 90
        3
102
RTVSPost2010PropOp43
 70
     1
102
RTVSPost2010Prop44ColorIndex
 90
        5
102
RTVSPost2010Prop44ColorRGB
 90
      255
102
RTVSPost2010PropOp44
 70
     1
102
RTVSPost2010Prop45
280
     0
102
RTVSPost2010PropOp45
 70
     1
102
RTVSPost2010Prop46
 90
       50
102
RTVSPost2010PropOp46
 70
     1
102
RTVSPost2010Prop47
 90
       50
102
RTVSPost2010PropOp47
 70
     1
102
RTVSPost2010Prop48
 90
       50
102
RTVSPost2010PropOp48
 70
     1
102
RTVSPost2010Prop49
280
     0
102
RTVSPost2010PropOp49
 70
     1
102
RTVSPost2010Prop50
 90
       50
102
RTVSPost2010PropOp50
 70
     1
102
RTVSPost2010Prop51ColorIndex
 90
      256
102
RTVSPost2010Prop51ColorRGB
 90
-16777216
102
RTVSPost2010PropOp51
 70
     0
102
RTVSPost2010Prop52
140
1.0
102
RTVSPost2010PropOp52
 70
     0
102
RTVSPost2010Prop53
 90
        2
102
RTVSPost2010PropOp53
 70
     1
102
RTVSPost2010Prop54
  1
strokes_ogs.tif
102
RTVSPost2010PropOp54
 70
     1
102
RTVSPost2010Prop55
280
     0
102
RTVSPost2010PropOp55
 70
     1
102
RTVSPost2010Prop56
140
1.0
102
RTVSPost2010PropOp56
 70
     1
102
RTVSPost2010Prop57
140
1.0
102
RTVSPost2010PropOp57
 70
     1
  0
XRECORD
  5
87
102
{ACAD_REACTORS
330
86
102
}
330
86
100
AcDbXrecord
280
     1
102
RTVSPropertyOp0
 70
     1
102
RTVSPropertyOp1
 70
     1
102
RTVSPropertyOp2
 70
     1
102
RTVSPropertyOp3
 70
     1
102
RTVSPropertyOp4
 70
     1
102
RTVSPropertyOp5
 70
     1
102
RTVSPropertyOp6
 70
     1
102
RTVSPropertyOp7
 70
     1
102
RTVSPropertyOp8
 70
     1
102
RTVSPropertyOp9
 70
     1
102
RTVSPropertyOp10
 70
     1
102
RTVSPropertyOp11
 70
     1
102
RTVSPropertyOp12
 70
     1
102
RTVSPropertyOp13
 70
     1
102
RTVSPropertyOp14
 70
     1
102
RTVSPropertyOp15
 70
     1
102
RTVSPropertyOp16
 70
     1
102
RTVSPropertyOp17
 70
     1
102
RTVSPropertyOp18
 70
     1
102
RTVSPropertyOp19
 70
     1
102
RTVSPropertyOp20
 70
     1
102
RTVSPropertyOp21
 70
     1
102
RTVSPropertyOp22
 70
     1
102
RTVSPropertyOp23
 70
     1
102
RTVSPropertyOp24
 70
     1
102
RTVSPropertyOp25
 70
     1
102
RTVSPropertyOp26
 70
     1
102
RTVSPropertyOp27
 70
     1
102
RTVSPropertyOp28
 70
     1
102
RTVSPropertyOp29
 70
     1
102
RTVSPropertyOp30
 70
     1
102
RTVSPropertyOp31
 70
     1
102
RTVSPropertyOp32
 70
     1
102
RTVSPropertyOp33
 70
     1
102
RTVSPropertyOp34
 70
     1
102
RTVSPropertyOp35
 70
     1
102
RTVSPropertyOp36
 70
     1
102
RTVSPropertyOp37
 70
     1
102
RTVSPropertyOp38
 70
     1
102
RTVSPropertyOp39
 70
     1
102
RTVSPropertyOp40
 70
     1
102
RTVSPropertyOp41
 70
     1
102
RTVSPropertyOp42
 70
     1
102
RTVSPropertyOp43
 70
     1
102
RTVSPropertyOp44
 70
     1
102
RTVSPropertyOp45
 70
     1
102
RTVSPropertyOp46
 70
     1
102
RTVSPropertyOp47
 70
     1
102
RTVSPropertyOp48
 70
     1
102
RTVSPropertyOp49
 70
     1
102
RTVSPropertyOp50
 70
     1
102
RTVSPropertyOp51
 70
     0
102
RTVSPropertyOp52
 70
     0
102
RTVSPropertyOp53
 70
     1
102
RTVSPropertyOp54
 70
     1
102
RTVSPropertyOp55
 70
     1
102
RTVSPropertyOp56
 70
     1
102
RTVSPropertyOp57
 70
     1
102
RTVSPost2010Prop28
280
     0
102
RTVSPost2010PropOp28
 70
     1
102
RTVSPost2010Prop29
280
     1
102
RTVSPost2010PropOp29
 70
     1
102
RTVSPost2010Prop30
280
     1
102
RTVSPost2010PropOp30
 70
     1
102
RTVSPost2010Prop31
280
     0
102
RTVSPost2010PropOp31
 70
     1
102
RTVSPost2010Prop32
280
     0
102
RTVSPost2010PropOp32
 70
     1
102
RTVSPost2010Prop33
280
     0
102
RTVSPost2010PropOp33
 70
     1
102
RTVSPost2010Prop34
280
     0
102
RTVSPost2010PropOp34
 70
     1
102
RTVSPost2010Prop35
280
     0
102
RTVSPost2010PropOp35
 70
     1
102
RTVSPost2010Prop36
280
     0
102
RTVSPost2010PropOp36
 70
     1
102
RTVSPost2010Prop37
 90
       50
102
RTVSPost2010PropOp37
 70
     1
102
RTVSPost2010Prop38
140
0.0
102
RTVSPost2010PropOp38
 70
     1
102
RTVSPost2010Prop39
140
1.0
102
RTVSPost2010PropOp39
 70
     1
102
RTVSPost2010Prop40
 90
        0
102
RTVSPost2010PropOp40
 70
     1
102
RTVSPost2010Prop41ColorIndex
 90
       18
102
RTVSPost2010Prop41ColorRGB
 90
        0
102
RTVSPost2010PropOp41
 70
     1
102
RTVSPost2010Prop42
 90
       50
102
RTVSPost2010PropOp42
 70
     1
102
RTVSPost2010Prop43
 90
        3
102
RTVSPost2010PropOp43
 70
     1
102
RTVSPost2010Prop44ColorIndex
 90
        5
102
RTVSPost2010Prop44ColorRGB
 90
      255
102
RTVSPost2010PropOp44
 70
     1
102
RTVSPost2010Prop45
280
     0
102
RTVSPost2010PropOp45
 70
     1
102
RTVSPost2010Prop46
 90
       50
102
RTVSPost2010PropOp46
 70
     1
102
RTVSPost2010Prop47
 90
       50
102
RTVSPost2010PropOp47
 70
     1
102
RTVSPost2010Prop48
 90
       50
102
RTVSPost2010PropOp48
 70
     1
102
RTVSPost2010Prop49
280
     0
102
RTVSPost2010PropOp49
 70
     1
102
RTVSPost2010Prop50
 90
       50
102
RTVSPost2010PropOp50
 70
     1
102
RTVSPost2010Prop51ColorIndex
 90
      256
102
RTVSPost2010Prop51ColorRGB
 90
-16777216
102
RTVSPost2010PropOp51
 70
     0
102
RTVSPost2010Prop52
140
1.0
102
RTVSPost2010PropOp52
 70
     0
102
RTVSPost2010Prop53
 90
        2
102
RTVSPost2010PropOp53
 70
     1
102
RTVSPost2010Prop54
  1
strokes_ogs.tif
102
RTVSPost2010PropOp54
 70
     1
102
RTVSPost2010Prop55
280
     0
102
RTVSPost2010PropOp55
 70
     1
102
RTVSPost2010Prop56
140
1.0
102
RTVSPost2010PropOp56
 70
     1
102
RTVSPost2010Prop57
140
1.0
102
RTVSPost2010PropOp57
 70
     1
  0
XRECORD
  5
8B
102
{ACAD_REACTORS
330
8A
102
}
330
8A
100
AcDbXrecord
280
     1
102
RTVSPropertyOp0
 70
     1
102
RTVSPropertyOp1
 70
     1
102
RTVSPropertyOp2
 70
     1
102
RTVSPropertyOp3
 70
     1
102
RTVSPropertyOp4
 70
     1
102
RTVSPropertyOp5
 70
     1
102
RTVSPropertyOp6
 70
     1
102
RTVSPropertyOp7
 70
     1
102
RTVSPropertyOp8
 70
     1
102
RTVSPropertyOp9
 70
     1
102
RTVSPropertyOp10
 70
     1
102
RTVSPropertyOp11
 70
     1
102
RTVSPropertyOp12
 70
     1
102
RTVSPropertyOp13
 70
     1
102
RTVSPropertyOp14
 70
     1
102
RTVSPropertyOp15
 70
     1
102
RTVSPropertyOp16
 70
     1
102
RTVSPropertyOp17
 70
     1
102
RTVSPropertyOp18
 70
     1
102
RTVSPropertyOp19
 70
     1
102
RTVSPropertyOp20
 70
     1
102
RTVSPropertyOp21
 70
     1
102
RTVSPropertyOp22
 70
     1
102
RTVSPropertyOp23
 70
     1
102
RTVSPropertyOp24
 70
     1
102
RTVSPropertyOp25
 70
     1
102
RTVSPropertyOp26
 70
     1
102
RTVSPropertyOp27
 70
     1
102
RTVSPropertyOp28
 70
     1
102
RTVSPropertyOp29
 70
     1
102
RTVSPropertyOp30
 70
     1
102
RTVSPropertyOp31
 70
     1
102
RTVSPropertyOp32
 70
     1
102
RTVSPropertyOp33
 70
     1
102
RTVSPropertyOp34
 70
     1
102
RTVSPropertyOp35
 70
     1
102
RTVSPropertyOp36
 70
     1
102
RTVSPropertyOp37
 70
     1
102
RTVSPropertyOp38
 70
     1
102
RTVSPropertyOp39
 70
     1
102
RTVSPropertyOp40
 70
     1
102
RTVSPropertyOp41
 70
     1
102
RTVSPropertyOp42
 70
     1
102
RTVSPropertyOp43
 70
     1
102
RTVSPropertyOp44
 70
     1
102
RTVSPropertyOp45
 70
     1
102
RTVSPropertyOp46
 70
     1
102
RTVSPropertyOp47
 70
     1
102
RTVSPropertyOp48
 70
     1
102
RTVSPropertyOp49
 70
     1
102
RTVSPropertyOp50
 70
     1
102
RTVSPropertyOp51
 70
     0
102
RTVSPropertyOp52
 70
     0
102
RTVSPropertyOp53
 70
     1
102
RTVSPropertyOp54
 70
     1
102
RTVSPropertyOp55
 70
     1
102
RTVSPropertyOp56
 70
     1
102
RTVSPropertyOp57
 70
     1
102
RTVSPost2010Prop28
280
     0
102
RTVSPost2010PropOp28
 70
     1
102
RTVSPost2010Prop29
280
     1
102
RTVSPost2010PropOp29
 70
     1
102
RTVSPost2010Prop30
280
     1
102
RTVSPost2010PropOp30
 70
     1
102
RTVSPost2010Prop31
280
     0
102
RTVSPost2010PropOp31
 70
     1
102
RTVSPost2010Prop32
280
     0
102
RTVSPost2010PropOp32
 70
     1
102
RTVSPost2010Prop33
280
     0
102
RTVSPost2010PropOp33
 70
     1
102
RTVSPost2010Prop34
280
     0
102
RTVSPost2010PropOp34
 70
     1
102
RTVSPost2010Prop35
280
     0
102
RTVSPost2010PropOp35
 70
     1
102
RTVSPost2010Prop36
280
     0
102
RTVSPost2010PropOp36
 70
     1
102
RTVSPost2010Prop37
 90
       50
102
RTVSPost2010PropOp37
 70
     1
102
RTVSPost2010Prop38
140
0.0
102
RTVSPost2010PropOp38
 70
     1
102
RTVSPost2010Prop39
140
1.0
102
RTVSPost2010PropOp39
 70
     1
102
RTVSPost2010Prop40
 90
        0
102
RTVSPost2010PropOp40
 70
     1
102
RTVSPost2010Prop41ColorIndex
 90
       18
102
RTVSPost2010Prop41ColorRGB
 90
        0
102
RTVSPost2010PropOp41
 70
     1
102
RTVSPost2010Prop42
 90
       50
102
RTVSPost2010PropOp42
 70
     1
102
RTVSPost2010Prop43
 90
        3
102
RTVSPost2010PropOp43
 70
     1
102
RTVSPost2010Prop44ColorIndex
 90
        5
102
RTVSPost2010Prop44ColorRGB
 90
      255
102
RTVSPost2010PropOp44
 70
     1
102
RTVSPost2010Prop45
280
     0
102
RTVSPost2010PropOp45
 70
     1
102
RTVSPost2010Prop46
 90
       50
102
RTVSPost2010PropOp46
 70
     1
102
RTVSPost2010Prop47
 90
       50
102
RTVSPost2010PropOp47
 70
     1
102
RTVSPost2010Prop48
 90
       50
102
RTVSPost2010PropOp48
 70
     1
102
RTVSPost2010Prop49
280
     0
102
RTVSPost2010PropOp49
 70
     1
102
RTVSPost2010Prop50
 90
       50
102
RTVSPost2010PropOp50
 70
     1
102
RTVSPost2010Prop51ColorIndex
 90
      256
102
RTVSPost2010Prop51ColorRGB
 90
-16777216
102
RTVSPost2010PropOp51
 70
     0
102
RTVSPost2010Prop52
140
1.0
102
RTVSPost2010PropOp52
 70
     0
102
RTVSPost2010Prop53
 90
        2
102
RTVSPost2010PropOp53
 70
     1
102
RTVSPost2010Prop54
  1
strokes_ogs.tif
102
RTVSPost2010PropOp54
 70
     1
102
RTVSPost2010Prop55
280
     0
102
RTVSPost2010PropOp55
 70
     1
102
RTVSPost2010Prop56
140
1.0
102
RTVSPost2010PropOp56
 70
     1
102
RTVSPost2010Prop57
140
1.0
102
RTVSPost2010PropOp57
 70
     1
  0
XRECORD
  5
93
102
{ACAD_REACTORS
330
92
102
}
330
92
100
AcDbXrecord
280
     1
102
RTVSPropertyOp0
 70
     1
102
RTVSPropertyOp1
 70
     1
102
RTVSPropertyOp2
 70
     1
102
RTVSPropertyOp3
 70
     1
102
RTVSPropertyOp4
 70
     1
102
RTVSPropertyOp5
 70
     1
102
RTVSPropertyOp6
 70
     1
102
RTVSPropertyOp7
 70
     1
102
RTVSPropertyOp8
 70
     1
102
RTVSPropertyOp9
 70
     1
102
RTVSPropertyOp10
 70
     1
102
RTVSPropertyOp11
 70
     1
102
RTVSPropertyOp12
 70
     1
102
RTVSPropertyOp13
 70
     1
102
RTVSPropertyOp14
 70
     1
102
RTVSPropertyOp15
 70
     1
102
RTVSPropertyOp16
 70
     1
102
RTVSPropertyOp17
 70
     1
102
RTVSPropertyOp18
 70
     1
102
RTVSPropertyOp19
 70
     1
102
RTVSPropertyOp20
 70
     1
102
RTVSPropertyOp21
 70
     1
102
RTVSPropertyOp22
 70
     1
102
RTVSPropertyOp23
 70
     1
102
RTVSPropertyOp24
 70
     1
102
RTVSPropertyOp25
 70
     1
102
RTVSPropertyOp26
 70
     1
102
RTVSPropertyOp27
 70
     1
102
RTVSPropertyOp28
 70
     1
102
RTVSPropertyOp29
 70
     1
102
RTVSPropertyOp30
 70
     1
102
RTVSPropertyOp31
 70
     1
102
RTVSPropertyOp32
 70
     1
102
RTVSPropertyOp33
 70
     1
102
RTVSPropertyOp34
 70
     1
102
RTVSPropertyOp35
 70
     1
102
RTVSPropertyOp36
 70
     1
102
RTVSPropertyOp37
 70
     1
102
RTVSPropertyOp38
 70
     1
102
RTVSPropertyOp39
 70
     1
102
RTVSPropertyOp40
 70
     1
102
RTVSPropertyOp41
 70
     1
102
RTVSPropertyOp42
 70
     1
102
RTVSPropertyOp43
 70
     1
102
RTVSPropertyOp44
 70
     1
102
RTVSPropertyOp45
 70
     1
102
RTVSPropertyOp46
 70
     1
102
RTVSPropertyOp47
 70
     1
102
RTVSPropertyOp48
 70
     1
102
RTVSPropertyOp49
 70
     1
102
RTVSPropertyOp50
 70
     1
102
RTVSPropertyOp51
 70
     0
102
RTVSPropertyOp52
 70
     0
102
RTVSPropertyOp53
 70
     1
102
RTVSPropertyOp54
 70
     1
102
RTVSPropertyOp55
 70
     1
102
RTVSPropertyOp56
 70
     1
102
RTVSPropertyOp57
 70
     1
102
RTVSPost2010Prop28
280
     0
102
RTVSPost2010PropOp28
 70
     1
102
RTVSPost2010Prop29
280
     1
102
RTVSPost2010PropOp29
 70
     1
102
RTVSPost2010Prop30
280
     1
102
RTVSPost2010PropOp30
 70
     1
102
RTVSPost2010Prop31
280
     0
102
RTVSPost2010PropOp31
 70
     1
102
RTVSPost2010Prop32
280
     0
102
RTVSPost2010PropOp32
 70
     1
102
RTVSPost2010Prop33
280
     0
102
RTVSPost2010PropOp33
 70
     1
102
RTVSPost2010Prop34
280
     0
102
RTVSPost2010PropOp34
 70
     1
102
RTVSPost2010Prop35
280
     0
102
RTVSPost2010PropOp35
 70
     1
102
RTVSPost2010Prop36
280
     0
102
RTVSPost2010PropOp36
 70
     1
102
RTVSPost2010Prop37
 90
       50
102
RTVSPost2010PropOp37
 70
     1
102
RTVSPost2010Prop38
140
0.0
102
RTVSPost2010PropOp38
 70
     1
102
RTVSPost2010Prop39
140
1.0
102
RTVSPost2010PropOp39
 70
     1
102
RTVSPost2010Prop40
 90
        0
102
RTVSPost2010PropOp40
 70
     1
102
RTVSPost2010Prop41ColorIndex
 90
       18
102
RTVSPost2010Prop41ColorRGB
 90
        0
102
RTVSPost2010PropOp41
 70
     1
102
RTVSPost2010Prop42
 90
       50
102
RTVSPost2010PropOp42
 70
     1
102
RTVSPost2010Prop43
 90
        3
102
RTVSPost2010PropOp43
 70
     1
102
RTVSPost2010Prop44ColorIndex
 90
        5
102
RTVSPost2010Prop44ColorRGB
 90
      255
102
RTVSPost2010PropOp44
 70
     1
102
RTVSPost2010Prop45
280
     0
102
RTVSPost2010PropOp45
 70
     1
102
RTVSPost2010Prop46
 90
       50
102
RTVSPost2010PropOp46
 70
     1
102
RTVSPost2010Prop47
 90
       50
102
RTVSPost2010PropOp47
 70
     1
102
RTVSPost2010Prop48
 90
       50
102
RTVSPost2010PropOp48
 70
     1
102
RTVSPost2010Prop49
280
     0
102
RTVSPost2010PropOp49
 70
     1
102
RTVSPost2010Prop50
 90
       50
102
RTVSPost2010PropOp50
 70
     1
102
RTVSPost2010Prop51ColorIndex
 90
      256
102
RTVSPost2010Prop51ColorRGB
 90
-16777216
102
RTVSPost2010PropOp51
 70
     0
102
RTVSPost2010Prop52
140
1.0
102
RTVSPost2010PropOp52
 70
     0
102
RTVSPost2010Prop53
 90
        2
102
RTVSPost2010PropOp53
 70
     1
102
RTVSPost2010Prop54
  1
strokes_ogs.tif
102
RTVSPost2010PropOp54
 70
     1
102
RTVSPost2010Prop55
280
     0
102
RTVSPost2010PropOp55
 70
     1
102
RTVSPost2010Prop56
140
1.0
102
RTVSPost2010PropOp56
 70
     1
102
RTVSPost2010Prop57
140
1.0
102
RTVSPost2010PropOp57
 70
     1
  0
XRECORD
  5
9B
102
{ACAD_REACTORS
330
9A
102
}
330
9A
100
AcDbXrecord
280
     1
102
RTVSPropertyOp0
 70
     1
102
RTVSPropertyOp1
 70
     1
102
RTVSPropertyOp2
 70
     1
102
RTVSPropertyOp3
 70
     1
102
RTVSPropertyOp4
 70
     1
102
RTVSPropertyOp5
 70
     1
102
RTVSPropertyOp6
 70
     1
102
RTVSPropertyOp7
 70
     1
102
RTVSPropertyOp8
 70
     1
102
RTVSPropertyOp9
 70
     1
102
RTVSPropertyOp10
 70
     1
102
RTVSPropertyOp11
 70
     1
102
RTVSPropertyOp12
 70
     1
102
RTVSPropertyOp13
 70
     1
102
RTVSPropertyOp14
 70
     1
102
RTVSPropertyOp15
 70
     1
102
RTVSPropertyOp16
 70
     1
102
RTVSPropertyOp17
 70
     1
102
RTVSPropertyOp18
 70
     1
102
RTVSPropertyOp19
 70
     1
102
RTVSPropertyOp20
 70
     1
102
RTVSPropertyOp21
 70
     1
102
RTVSPropertyOp22
 70
     1
102
RTVSPropertyOp23
 70
     1
102
RTVSPropertyOp24
 70
     1
102
RTVSPropertyOp25
 70
     1
102
RTVSPropertyOp26
 70
     1
102
RTVSPropertyOp27
 70
     1
102
RTVSPropertyOp28
 70
     1
102
RTVSPropertyOp29
 70
     1
102
RTVSPropertyOp30
 70
     1
102
RTVSPropertyOp31
 70
     1
102
RTVSPropertyOp32
 70
     1
102
RTVSPropertyOp33
 70
     1
102
RTVSPropertyOp34
 70
     1
102
RTVSPropertyOp35
 70
     1
102
RTVSPropertyOp36
 70
     1
102
RTVSPropertyOp37
 70
     1
102
RTVSPropertyOp38
 70
     1
102
RTVSPropertyOp39
 70
     1
102
RTVSPropertyOp40
 70
     1
102
RTVSPropertyOp41
 70
     1
102
RTVSPropertyOp42
 70
     1
102
RTVSPropertyOp43
 70
     1
102
RTVSPropertyOp44
 70
     1
102
RTVSPropertyOp45
 70
     1
102
RTVSPropertyOp46
 70
     1
102
RTVSPropertyOp47
 70
     1
102
RTVSPropertyOp48
 70
     1
102
RTVSPropertyOp49
 70
     1
102
RTVSPropertyOp50
 70
     1
102
RTVSPropertyOp51
 70
     0
102
RTVSPropertyOp52
 70
     0
102
RTVSPropertyOp53
 70
     1
102
RTVSPropertyOp54
 70
     1
102
RTVSPropertyOp55
 70
     1
102
RTVSPropertyOp56
 70
     1
102
RTVSPropertyOp57
 70
     1
102
RTVSPost2010Prop28
280
     0
102
RTVSPost2010PropOp28
 70
     1
102
RTVSPost2010Prop29
280
     1
102
RTVSPost2010PropOp29
 70
     1
102
RTVSPost2010Prop30
280
     1
102
RTVSPost2010PropOp30
 70
     1
102
RTVSPost2010Prop31
280
     0
102
RTVSPost2010PropOp31
 70
     1
102
RTVSPost2010Prop32
280
     0
102
RTVSPost2010PropOp32
 70
     1
102
RTVSPost2010Prop33
280
     0
102
RTVSPost2010PropOp33
 70
     1
102
RTVSPost2010Prop34
280
     0
102
RTVSPost2010PropOp34
 70
     1
102
RTVSPost2010Prop35
280
     0
102
RTVSPost2010PropOp35
 70
     1
102
RTVSPost2010Prop36
280
     0
102
RTVSPost2010PropOp36
 70
     1
102
RTVSPost2010Prop37
 90
       50
102
RTVSPost2010PropOp37
 70
     1
102
RTVSPost2010Prop38
140
0.0
102
RTVSPost2010PropOp38
 70
     1
102
RTVSPost2010Prop39
140
1.0
102
RTVSPost2010PropOp39
 70
     1
102
RTVSPost2010Prop40
 90
        0
102
RTVSPost2010PropOp40
 70
     1
102
RTVSPost2010Prop41ColorIndex
 90
       18
102
RTVSPost2010Prop41ColorRGB
 90
        0
102
RTVSPost2010PropOp41
 70
     1
102
RTVSPost2010Prop42
 90
       50
102
RTVSPost2010PropOp42
 70
     1
102
RTVSPost2010Prop43
 90
        3
102
RTVSPost2010PropOp43
 70
     1
102
RTVSPost2010Prop44ColorIndex
 90
        5
102
RTVSPost2010Prop44ColorRGB
 90
      255
102
RTVSPost2010PropOp44
 70
     1
102
RTVSPost2010Prop45
280
     0
102
RTVSPost2010PropOp45
 70
     1
102
RTVSPost2010Prop46
 90
       50
102
RTVSPost2010PropOp46
 70
     1
102
RTVSPost2010Prop47
 90
       50
102
RTVSPost2010PropOp47
 70
     1
102
RTVSPost2010Prop48
 90
       50
102
RTVSPost2010PropOp48
 70
     1
102
RTVSPost2010Prop49
280
     0
102
RTVSPost2010PropOp49
 70
     1
102
RTVSPost2010Prop50
 90
       50
102
RTVSPost2010PropOp50
 70
     1
102
RTVSPost2010Prop51ColorIndex
 90
      256
102
RTVSPost2010Prop51ColorRGB
 90
-16777216
102
RTVSPost2010PropOp51
 70
     0
102
RTVSPost2010Prop52
140
1.0
102
RTVSPost2010PropOp52
 70
     0
102
RTVSPost2010Prop53
 90
        2
102
RTVSPost2010PropOp53
 70
     1
102
RTVSPost2010Prop54
  1
strokes_ogs.tif
102
RTVSPost2010PropOp54
 70
     1
102
RTVSPost2010Prop55
280
     0
102
RTVSPost2010PropOp55
 70
     1
102
RTVSPost2010Prop56
140
1.0
102
RTVSPost2010PropOp56
 70
     1
102
RTVSPost2010Prop57
140
1.0
102
RTVSPost2010PropOp57
 70
     1
  0
XRECORD
  5
8F
102
{ACAD_REACTORS
330
8E
102
}
330
8E
100
AcDbXrecord
280
     1
102
RTVSPropertyOp0
 70
     1
102
RTVSPropertyOp1
 70
     1
102
RTVSPropertyOp2
 70
     1
102
RTVSPropertyOp3
 70
     1
102
RTVSPropertyOp4
 70
     1
102
RTVSPropertyOp5
 70
     1
102
RTVSPropertyOp6
 70
     1
102
RTVSPropertyOp7
 70
     1
102
RTVSPropertyOp8
 70
     1
102
RTVSPropertyOp9
 70
     1
102
RTVSPropertyOp10
 70
     1
102
RTVSPropertyOp11
 70
     1
102
RTVSPropertyOp12
 70
     1
102
RTVSPropertyOp13
 70
     1
102
RTVSPropertyOp14
 70
     1
102
RTVSPropertyOp15
 70
     1
102
RTVSPropertyOp16
 70
     1
102
RTVSPropertyOp17
 70
     1
102
RTVSPropertyOp18
 70
     1
102
RTVSPropertyOp19
 70
     1
102
RTVSPropertyOp20
 70
     1
102
RTVSPropertyOp21
 70
     1
102
RTVSPropertyOp22
 70
     1
102
RTVSPropertyOp23
 70
     1
102
RTVSPropertyOp24
 70
     1
102
RTVSPropertyOp25
 70
     1
102
RTVSPropertyOp26
 70
     1
102
RTVSPropertyOp27
 70
     1
102
RTVSPropertyOp28
 70
     1
102
RTVSPropertyOp29
 70
     1
102
RTVSPropertyOp30
 70
     1
102
RTVSPropertyOp31
 70
     1
102
RTVSPropertyOp32
 70
     1
102
RTVSPropertyOp33
 70
     1
102
RTVSPropertyOp34
 70
     1
102
RTVSPropertyOp35
 70
     1
102
RTVSPropertyOp36
 70
     1
102
RTVSPropertyOp37
 70
     1
102
RTVSPropertyOp38
 70
     1
102
RTVSPropertyOp39
 70
     1
102
RTVSPropertyOp40
 70
     1
102
RTVSPropertyOp41
 70
     1
102
RTVSPropertyOp42
 70
     1
102
RTVSPropertyOp43
 70
     1
102
RTVSPropertyOp44
 70
     1
102
RTVSPropertyOp45
 70
     1
102
RTVSPropertyOp46
 70
     1
102
RTVSPropertyOp47
 70
     1
102
RTVSPropertyOp48
 70
     1
102
RTVSPropertyOp49
 70
     1
102
RTVSPropertyOp50
 70
     1
102
RTVSPropertyOp51
 70
     0
102
RTVSPropertyOp52
 70
     0
102
RTVSPropertyOp53
 70
     1
102
RTVSPropertyOp54
 70
     1
102
RTVSPropertyOp55
 70
     1
102
RTVSPropertyOp56
 70
     1
102
RTVSPropertyOp57
 70
     1
102
RTVSPost2010Prop28
280
     0
102
RTVSPost2010PropOp28
 70
     1
102
RTVSPost2010Prop29
280
     1
102
RTVSPost2010PropOp29
 70
     1
102
RTVSPost2010Prop30
280
     1
102
RTVSPost2010PropOp30
 70
     1
102
RTVSPost2010Prop31
280
     0
102
RTVSPost2010PropOp31
 70
     1
102
RTVSPost2010Prop32
280
     0
102
RTVSPost2010PropOp32
 70
     1
102
RTVSPost2010Prop33
280
     0
102
RTVSPost2010PropOp33
 70
     1
102
RTVSPost2010Prop34
280
     0
102
RTVSPost2010PropOp34
 70
     1
102
RTVSPost2010Prop35
280
     0
102
RTVSPost2010PropOp35
 70
     1
102
RTVSPost2010Prop36
280
     0
102
RTVSPost2010PropOp36
 70
     1
102
RTVSPost2010Prop37
 90
       50
102
RTVSPost2010PropOp37
 70
     1
102
RTVSPost2010Prop38
140
0.0
102
RTVSPost2010PropOp38
 70
     1
102
RTVSPost2010Prop39
140
1.0
102
RTVSPost2010PropOp39
 70
     1
102
RTVSPost2010Prop40
 90
        0
102
RTVSPost2010PropOp40
 70
     1
102
RTVSPost2010Prop41ColorIndex
 90
       18
102
RTVSPost2010Prop41ColorRGB
 90
        0
102
RTVSPost2010PropOp41
 70
     1
102
RTVSPost2010Prop42
 90
       50
102
RTVSPost2010PropOp42
 70
     1
102
RTVSPost2010Prop43
 90
        3
102
RTVSPost2010PropOp43
 70
     1
102
RTVSPost2010Prop44ColorIndex
 90
        5
102
RTVSPost2010Prop44ColorRGB
 90
      255
102
RTVSPost2010PropOp44
 70
     1
102
RTVSPost2010Prop45
280
     0
102
RTVSPost2010PropOp45
 70
     1
102
RTVSPost2010Prop46
 90
       50
102
RTVSPost2010PropOp46
 70
     1
102
RTVSPost2010Prop47
 90
       50
102
RTVSPost2010PropOp47
 70
     1
102
RTVSPost2010Prop48
 90
       50
102
RTVSPost2010PropOp48
 70
     1
102
RTVSPost2010Prop49
280
     0
102
RTVSPost2010PropOp49
 70
     1
102
RTVSPost2010Prop50
 90
       50
102
RTVSPost2010PropOp50
 70
     1
102
RTVSPost2010Prop51ColorIndex
 90
      256
102
RTVSPost2010Prop51ColorRGB
 90
-16777216
102
RTVSPost2010PropOp51
 70
     0
102
RTVSPost2010Prop52
140
1.0
102
RTVSPost2010PropOp52
 70
     0
102
RTVSPost2010Prop53
 90
        2
102
RTVSPost2010PropOp53
 70
     1
102
RTVSPost2010Prop54
  1
strokes_ogs.tif
102
RTVSPost2010PropOp54
 70
     1
102
RTVSPost2010Prop55
280
     0
102
RTVSPost2010PropOp55
 70
     1
102
RTVSPost2010Prop56
140
1.0
102
RTVSPost2010PropOp56
 70
     1
102
RTVSPost2010Prop57
140
1.0
102
RTVSPost2010PropOp57
 70
     1
  0
XRECORD
  5
91
102
{ACAD_REACTORS
330
90
102
}
330
90
100
AcDbXrecord
280
     1
102
RTVSPropertyOp0
 70
     1
102
RTVSPropertyOp1
 70
     1
102
RTVSPropertyOp2
 70
     1
102
RTVSPropertyOp3
 70
     1
102
RTVSPropertyOp4
 70
     1
102
RTVSPropertyOp5
 70
     1
102
RTVSPropertyOp6
 70
     1
102
RTVSPropertyOp7
 70
     1
102
RTVSPropertyOp8
 70
     1
102
RTVSPropertyOp9
 70
     1
102
RTVSPropertyOp10
 70
     1
102
RTVSPropertyOp11
 70
     1
102
RTVSPropertyOp12
 70
     1
102
RTVSPropertyOp13
 70
     1
102
RTVSPropertyOp14
 70
     1
102
RTVSPropertyOp15
 70
     1
102
RTVSPropertyOp16
 70
     1
102
RTVSPropertyOp17
 70
     1
102
RTVSPropertyOp18
 70
     1
102
RTVSPropertyOp19
 70
     1
102
RTVSPropertyOp20
 70
     1
102
RTVSPropertyOp21
 70
     1
102
RTVSPropertyOp22
 70
     1
102
RTVSPropertyOp23
 70
     1
102
RTVSPropertyOp24
 70
     1
102
RTVSPropertyOp25
 70
     1
102
RTVSPropertyOp26
 70
     1
102
RTVSPropertyOp27
 70
     1
102
RTVSPropertyOp28
 70
     1
102
RTVSPropertyOp29
 70
     1
102
RTVSPropertyOp30
 70
     1
102
RTVSPropertyOp31
 70
     1
102
RTVSPropertyOp32
 70
     1
102
RTVSPropertyOp33
 70
     1
102
RTVSPropertyOp34
 70
     1
102
RTVSPropertyOp35
 70
     1
102
RTVSPropertyOp36
 70
     1
102
RTVSPropertyOp37
 70
     1
102
RTVSPropertyOp38
 70
     1
102
RTVSPropertyOp39
 70
     1
102
RTVSPropertyOp40
 70
     1
102
RTVSPropertyOp41
 70
     1
102
RTVSPropertyOp42
 70
     1
102
RTVSPropertyOp43
 70
     1
102
RTVSPropertyOp44
 70
     1
102
RTVSPropertyOp45
 70
     1
102
RTVSPropertyOp46
 70
     1
102
RTVSPropertyOp47
 70
     1
102
RTVSPropertyOp48
 70
     1
102
RTVSPropertyOp49
 70
     1
102
RTVSPropertyOp50
 70
     1
102
RTVSPropertyOp51
 70
     0
102
RTVSPropertyOp52
 70
     0
102
RTVSPropertyOp53
 70
     1
102
RTVSPropertyOp54
 70
     1
102
RTVSPropertyOp55
 70
     1
102
RTVSPropertyOp56
 70
     1
102
RTVSPropertyOp57
 70
     1
102
RTVSPost2010Prop28
280
     0
102
RTVSPost2010PropOp28
 70
     1
102
RTVSPost2010Prop29
280
     1
102
RTVSPost2010PropOp29
 70
     1
102
RTVSPost2010Prop30
280
     1
102
RTVSPost2010PropOp30
 70
     1
102
RTVSPost2010Prop31
280
     0
102
RTVSPost2010PropOp31
 70
     1
102
RTVSPost2010Prop32
280
     0
102
RTVSPost2010PropOp32
 70
     1
102
RTVSPost2010Prop33
280
     0
102
RTVSPost2010PropOp33
 70
     1
102
RTVSPost2010Prop34
280
     0
102
RTVSPost2010PropOp34
 70
     1
102
RTVSPost2010Prop35
280
     0
102
RTVSPost2010PropOp35
 70
     1
102
RTVSPost2010Prop36
280
     0
102
RTVSPost2010PropOp36
 70
     1
102
RTVSPost2010Prop37
 90
       50
102
RTVSPost2010PropOp37
 70
     1
102
RTVSPost2010Prop38
140
0.0
102
RTVSPost2010PropOp38
 70
     1
102
RTVSPost2010Prop39
140
1.0
102
RTVSPost2010PropOp39
 70
     1
102
RTVSPost2010Prop40
 90
        0
102
RTVSPost2010PropOp40
 70
     1
102
RTVSPost2010Prop41ColorIndex
 90
       18
102
RTVSPost2010Prop41ColorRGB
 90
        0
102
RTVSPost2010PropOp41
 70
     1
102
RTVSPost2010Prop42
 90
       50
102
RTVSPost2010PropOp42
 70
     1
102
RTVSPost2010Prop43
 90
        3
102
RTVSPost2010PropOp43
 70
     1
102
RTVSPost2010Prop44ColorIndex
 90
        5
102
RTVSPost2010Prop44ColorRGB
 90
      255
102
RTVSPost2010PropOp44
 70
     1
102
RTVSPost2010Prop45
280
     0
102
RTVSPost2010PropOp45
 70
     1
102
RTVSPost2010Prop46
 90
       50
102
RTVSPost2010PropOp46
 70
     1
102
RTVSPost2010Prop47
 90
       50
102
RTVSPost2010PropOp47
 70
     1
102
RTVSPost2010Prop48
 90
       50
102
RTVSPost2010PropOp48
 70
     1
102
RTVSPost2010Prop49
280
     0
102
RTVSPost2010PropOp49
 70
     1
102
RTVSPost2010Prop50
 90
       50
102
RTVSPost2010PropOp50
 70
     1
102
RTVSPost2010Prop51ColorIndex
 90
      256
102
RTVSPost2010Prop51ColorRGB
 90
-16777216
102
RTVSPost2010PropOp51
 70
     0
102
RTVSPost2010Prop52
140
1.0
102
RTVSPost2010PropOp52
 70
     0
102
RTVSPost2010Prop53
 90
        2
102
RTVSPost2010PropOp53
 70
     1
102
RTVSPost2010Prop54
  1
strokes_ogs.tif
102
RTVSPost2010PropOp54
 70
     1
102
RTVSPost2010Prop55
280
     0
102
RTVSPost2010PropOp55
 70
     1
102
RTVSPost2010Prop56
140
1.0
102
RTVSPost2010PropOp56
 70
     1
102
RTVSPost2010Prop57
140
1.0
102
RTVSPost2010PropOp57
 70
     1
  0
XRECORD
  5
99
102
{ACAD_REACTORS
330
98
102
}
330
98
100
AcDbXrecord
280
     1
102
RTVSPropertyOp0
 70
     1
102
RTVSPropertyOp1
 70
     1
102
RTVSPropertyOp2
 70
     1
102
RTVSPropertyOp3
 70
     1
102
RTVSPropertyOp4
 70
     1
102
RTVSPropertyOp5
 70
     1
102
RTVSPropertyOp6
 70
     1
102
RTVSPropertyOp7
 70
     1
102
RTVSPropertyOp8
 70
     1
102
RTVSPropertyOp9
 70
     1
102
RTVSPropertyOp10
 70
     1
102
RTVSPropertyOp11
 70
     1
102
RTVSPropertyOp12
 70
     1
102
RTVSPropertyOp13
 70
     1
102
RTVSPropertyOp14
 70
     1
102
RTVSPropertyOp15
 70
     1
102
RTVSPropertyOp16
 70
     1
102
RTVSPropertyOp17
 70
     1
102
RTVSPropertyOp18
 70
     1
102
RTVSPropertyOp19
 70
     1
102
RTVSPropertyOp20
 70
     1
102
RTVSPropertyOp21
 70
     1
102
RTVSPropertyOp22
 70
     1
102
RTVSPropertyOp23
 70
     1
102
RTVSPropertyOp24
 70
     1
102
RTVSPropertyOp25
 70
     1
102
RTVSPropertyOp26
 70
     1
102
RTVSPropertyOp27
 70
     1
102
RTVSPropertyOp28
 70
     1
102
RTVSPropertyOp29
 70
     1
102
RTVSPropertyOp30
 70
     1
102
RTVSPropertyOp31
 70
     1
102
RTVSPropertyOp32
 70
     1
102
RTVSPropertyOp33
 70
     1
102
RTVSPropertyOp34
 70
     1
102
RTVSPropertyOp35
 70
     1
102
RTVSPropertyOp36
 70
     1
102
RTVSPropertyOp37
 70
     1
102
RTVSPropertyOp38
 70
     1
102
RTVSPropertyOp39
 70
     1
102
RTVSPropertyOp40
 70
     1
102
RTVSPropertyOp41
 70
     1
102
RTVSPropertyOp42
 70
     1
102
RTVSPropertyOp43
 70
     1
102
RTVSPropertyOp44
 70
     1
102
RTVSPropertyOp45
 70
     1
102
RTVSPropertyOp46
 70
     1
102
RTVSPropertyOp47
 70
     1
102
RTVSPropertyOp48
 70
     1
102
RTVSPropertyOp49
 70
     1
102
RTVSPropertyOp50
 70
     1
102
RTVSPropertyOp51
 70
     0
102
RTVSPropertyOp52
 70
     0
102
RTVSPropertyOp53
 70
     1
102
RTVSPropertyOp54
 70
     1
102
RTVSPropertyOp55
 70
     1
102
RTVSPropertyOp56
 70
     1
102
RTVSPropertyOp57
 70
     1
102
RTVSPost2010Prop28
280
     0
102
RTVSPost2010PropOp28
 70
     1
102
RTVSPost2010Prop29
280
     1
102
RTVSPost2010PropOp29
 70
     1
102
RTVSPost2010Prop30
280
     1
102
RTVSPost2010PropOp30
 70
     1
102
RTVSPost2010Prop31
280
     0
102
RTVSPost2010PropOp31
 70
     1
102
RTVSPost2010Prop32
280
     0
102
RTVSPost2010PropOp32
 70
     1
102
RTVSPost2010Prop33
280
     0
102
RTVSPost2010PropOp33
 70
     1
102
RTVSPost2010Prop34
280
     0
102
RTVSPost2010PropOp34
 70
     1
102
RTVSPost2010Prop35
280
     0
102
RTVSPost2010PropOp35
 70
     1
102
RTVSPost2010Prop36
280
     0
102
RTVSPost2010PropOp36
 70
     1
102
RTVSPost2010Prop37
 90
       50
102
RTVSPost2010PropOp37
 70
     1
102
RTVSPost2010Prop38
140
0.0
102
RTVSPost2010PropOp38
 70
     1
102
RTVSPost2010Prop39
140
1.0
102
RTVSPost2010PropOp39
 70
     1
102
RTVSPost2010Prop40
 90
        0
102
RTVSPost2010PropOp40
 70
     1
102
RTVSPost2010Prop41ColorIndex
 90
       18
102
RTVSPost2010Prop41ColorRGB
 90
        0
102
RTVSPost2010PropOp41
 70
     1
102
RTVSPost2010Prop42
 90
       50
102
RTVSPost2010PropOp42
 70
     1
102
RTVSPost2010Prop43
 90
        3
102
RTVSPost2010PropOp43
 70
     1
102
RTVSPost2010Prop44ColorIndex
 90
        5
102
RTVSPost2010Prop44ColorRGB
 90
      255
102
RTVSPost2010PropOp44
 70
     1
102
RTVSPost2010Prop45
280
     0
102
RTVSPost2010PropOp45
 70
     1
102
RTVSPost2010Prop46
 90
       50
102
RTVSPost2010PropOp46
 70
     1
102
RTVSPost2010Prop47
 90
       50
102
RTVSPost2010PropOp47
 70
     1
102
RTVSPost2010Prop48
 90
       50
102
RTVSPost2010PropOp48
 70
     1
102
RTVSPost2010Prop49
280
     0
102
RTVSPost2010PropOp49
 70
     1
102
RTVSPost2010Prop50
 90
       50
102
RTVSPost2010PropOp50
 70
     1
102
RTVSPost2010Prop51ColorIndex
 90
      256
102
RTVSPost2010Prop51ColorRGB
 90
-16777216
102
RTVSPost2010PropOp51
 70
     0
102
RTVSPost2010Prop52
140
1.0
102
RTVSPost2010PropOp52
 70
     0
102
RTVSPost2010Prop53
 90
        2
102
RTVSPost2010PropOp53
 70
     1
102
RTVSPost2010Prop54
  1
strokes_ogs.tif
102
RTVSPost2010PropOp54
 70
     1
102
RTVSPost2010Prop55
280
     0
102
RTVSPost2010PropOp55
 70
     1
102
RTVSPost2010Prop56
140
1.0
102
RTVSPost2010PropOp56
 70
     1
102
RTVSPost2010Prop57
140
1.0
102
RTVSPost2010PropOp57
 70
     1
  0
XRECORD
  5
7D
102
{ACAD_REACTORS
330
7C
102
}
330
7C
100
AcDbXrecord
280
     1
102
RTVSPropertyOp0
 70
     1
102
RTVSPropertyOp1
 70
     1
102
RTVSPropertyOp2
 70
     1
102
RTVSPropertyOp3
 70
     1
102
RTVSPropertyOp4
 70
     1
102
RTVSPropertyOp5
 70
     1
102
RTVSPropertyOp6
 70
     1
102
RTVSPropertyOp7
 70
     1
102
RTVSPropertyOp8
 70
     1
102
RTVSPropertyOp9
 70
     1
102
RTVSPropertyOp10
 70
     1
102
RTVSPropertyOp11
 70
     1
102
RTVSPropertyOp12
 70
     1
102
RTVSPropertyOp13
 70
     1
102
RTVSPropertyOp14
 70
     1
102
RTVSPropertyOp15
 70
     1
102
RTVSPropertyOp16
 70
     1
102
RTVSPropertyOp17
 70
     1
102
RTVSPropertyOp18
 70
     1
102
RTVSPropertyOp19
 70
     1
102
RTVSPropertyOp20
 70
     1
102
RTVSPropertyOp21
 70
     1
102
RTVSPropertyOp22
 70
     1
102
RTVSPropertyOp23
 70
     1
102
RTVSPropertyOp24
 70
     1
102
RTVSPropertyOp25
 70
     1
102
RTVSPropertyOp26
 70
     1
102
RTVSPropertyOp27
 70
     1
102
RTVSPropertyOp28
 70
     1
102
RTVSPropertyOp29
 70
     1
102
RTVSPropertyOp30
 70
     1
102
RTVSPropertyOp31
 70
     1
102
RTVSPropertyOp32
 70
     1
102
RTVSPropertyOp33
 70
     1
102
RTVSPropertyOp34
 70
     1
102
RTVSPropertyOp35
 70
     1
102
RTVSPropertyOp36
 70
     1
102
RTVSPropertyOp37
 70
     1
102
RTVSPropertyOp38
 70
     1
102
RTVSPropertyOp39
 70
     1
102
RTVSPropertyOp40
 70
     1
102
RTVSPropertyOp41
 70
     1
102
RTVSPropertyOp42
 70
     1
102
RTVSPropertyOp43
 70
     1
102
RTVSPropertyOp44
 70
     1
102
RTVSPropertyOp45
 70
     1
102
RTVSPropertyOp46
 70
     1
102
RTVSPropertyOp47
 70
     1
102
RTVSPropertyOp48
 70
     1
102
RTVSPropertyOp49
 70
     1
102
RTVSPropertyOp50
 70
     1
102
RTVSPropertyOp51
 70
     0
102
RTVSPropertyOp52
 70
     0
102
RTVSPropertyOp53
 70
     1
102
RTVSPropertyOp54
 70
     1
102
RTVSPropertyOp55
 70
     1
102
RTVSPropertyOp56
 70
     1
102
RTVSPropertyOp57
 70
     1
102
RTVSPost2010Prop28
280
     0
102
RTVSPost2010PropOp28
 70
     1
102
RTVSPost2010Prop29
280
     1
102
RTVSPost2010PropOp29
 70
     1
102
RTVSPost2010Prop30
280
     1
102
RTVSPost2010PropOp30
 70
     1
102
RTVSPost2010Prop31
280
     0
102
RTVSPost2010PropOp31
 70
     1
102
RTVSPost2010Prop32
280
     0
102
RTVSPost2010PropOp32
 70
     1
102
RTVSPost2010Prop33
280
     0
102
RTVSPost2010PropOp33
 70
     1
102
RTVSPost2010Prop34
280
     0
102
RTVSPost2010PropOp34
 70
     1
102
RTVSPost2010Prop35
280
     0
102
RTVSPost2010PropOp35
 70
     1
102
RTVSPost2010Prop36
280
     0
102
RTVSPost2010PropOp36
 70
     1
102
RTVSPost2010Prop37
 90
       50
102
RTVSPost2010PropOp37
 70
     1
102
RTVSPost2010Prop38
140
0.0
102
RTVSPost2010PropOp38
 70
     1
102
RTVSPost2010Prop39
140
1.0
102
RTVSPost2010PropOp39
 70
     1
102
RTVSPost2010Prop40
 90
        0
102
RTVSPost2010PropOp40
 70
     1
102
RTVSPost2010Prop41ColorIndex
 90
       18
102
RTVSPost2010Prop41ColorRGB
 90
        0
102
RTVSPost2010PropOp41
 70
     1
102
RTVSPost2010Prop42
 90
       50
102
RTVSPost2010PropOp42
 70
     1
102
RTVSPost2010Prop43
 90
        3
102
RTVSPost2010PropOp43
 70
     1
102
RTVSPost2010Prop44ColorIndex
 90
        5
102
RTVSPost2010Prop44ColorRGB
 90
      255
102
RTVSPost2010PropOp44
 70
     1
102
RTVSPost2010Prop45
280
     0
102
RTVSPost2010PropOp45
 70
     1
102
RTVSPost2010Prop46
 90
       50
102
RTVSPost2010PropOp46
 70
     1
102
RTVSPost2010Prop47
 90
       50
102
RTVSPost2010PropOp47
 70
     1
102
RTVSPost2010Prop48
 90
       50
102
RTVSPost2010PropOp48
 70
     1
102
RTVSPost2010Prop49
280
     0
102
RTVSPost2010PropOp49
 70
     1
102
RTVSPost2010Prop50
 90
       50
102
RTVSPost2010PropOp50
 70
     1
102
RTVSPost2010Prop51ColorIndex
 90
      256
102
RTVSPost2010Prop51ColorRGB
 90
-16777216
102
RTVSPost2010PropOp51
 70
     0
102
RTVSPost2010Prop52
140
1.0
102
RTVSPost2010PropOp52
 70
     0
102
RTVSPost2010Prop53
 90
        2
102
RTVSPost2010PropOp53
 70
     1
102
RTVSPost2010Prop54
  1
strokes_ogs.tif
102
RTVSPost2010PropOp54
 70
     1
102
RTVSPost2010Prop55
280
     0
102
RTVSPost2010PropOp55
 70
     1
102
RTVSPost2010Prop56
140
1.0
102
RTVSPost2010PropOp56
 70
     1
102
RTVSPost2010Prop57
140
1.0
102
RTVSPost2010PropOp57
 70
     1
  0
XRECORD
  5
7F
102
{ACAD_REACTORS
330
7E
102
}
330
7E
100
AcDbXrecord
280
     1
102
RTVSPropertyOp0
 70
     1
102
RTVSPropertyOp1
 70
     1
102
RTVSPropertyOp2
 70
     1
102
RTVSPropertyOp3
 70
     1
102
RTVSPropertyOp4
 70
     1
102
RTVSPropertyOp5
 70
     1
102
RTVSPropertyOp6
 70
     1
102
RTVSPropertyOp7
 70
     1
102
RTVSPropertyOp8
 70
     1
102
RTVSPropertyOp9
 70
     1
102
RTVSPropertyOp10
 70
     1
102
RTVSPropertyOp11
 70
     1
102
RTVSPropertyOp12
 70
     1
102
RTVSPropertyOp13
 70
     1
102
RTVSPropertyOp14
 70
     1
102
RTVSPropertyOp15
 70
     1
102
RTVSPropertyOp16
 70
     1
102
RTVSPropertyOp17
 70
     1
102
RTVSPropertyOp18
 70
     1
102
RTVSPropertyOp19
 70
     1
102
RTVSPropertyOp20
 70
     1
102
RTVSPropertyOp21
 70
     1
102
RTVSPropertyOp22
 70
     1
102
RTVSPropertyOp23
 70
     1
102
RTVSPropertyOp24
 70
     1
102
RTVSPropertyOp25
 70
     1
102
RTVSPropertyOp26
 70
     1
102
RTVSPropertyOp27
 70
     1
102
RTVSPropertyOp28
 70
     1
102
RTVSPropertyOp29
 70
     1
102
RTVSPropertyOp30
 70
     1
102
RTVSPropertyOp31
 70
     1
102
RTVSPropertyOp32
 70
     1
102
RTVSPropertyOp33
 70
     1
102
RTVSPropertyOp34
 70
     1
102
RTVSPropertyOp35
 70
     1
102
RTVSPropertyOp36
 70
     1
102
RTVSPropertyOp37
 70
     1
102
RTVSPropertyOp38
 70
     1
102
RTVSPropertyOp39
 70
     1
102
RTVSPropertyOp40
 70
     1
102
RTVSPropertyOp41
 70
     1
102
RTVSPropertyOp42
 70
     1
102
RTVSPropertyOp43
 70
     1
102
RTVSPropertyOp44
 70
     1
102
RTVSPropertyOp45
 70
     1
102
RTVSPropertyOp46
 70
     1
102
RTVSPropertyOp47
 70
     1
102
RTVSPropertyOp48
 70
     1
102
RTVSPropertyOp49
 70
     1
102
RTVSPropertyOp50
 70
     1
102
RTVSPropertyOp51
 70
     0
102
RTVSPropertyOp52
 70
     0
102
RTVSPropertyOp53
 70
     1
102
RTVSPropertyOp54
 70
     1
102
RTVSPropertyOp55
 70
     1
102
RTVSPropertyOp56
 70
     1
102
RTVSPropertyOp57
 70
     1
102
RTVSPost2010Prop28
280
     0
102
RTVSPost2010PropOp28
 70
     1
102
RTVSPost2010Prop29
280
     1
102
RTVSPost2010PropOp29
 70
     1
102
RTVSPost2010Prop30
280
     1
102
RTVSPost2010PropOp30
 70
     1
102
RTVSPost2010Prop31
280
     0
102
RTVSPost2010PropOp31
 70
     1
102
RTVSPost2010Prop32
280
     0
102
RTVSPost2010PropOp32
 70
     1
102
RTVSPost2010Prop33
280
     0
102
RTVSPost2010PropOp33
 70
     1
102
RTVSPost2010Prop34
280
     0
102
RTVSPost2010PropOp34
 70
     1
102
RTVSPost2010Prop35
280
     0
102
RTVSPost2010PropOp35
 70
     1
102
RTVSPost2010Prop36
280
     0
102
RTVSPost2010PropOp36
 70
     1
102
RTVSPost2010Prop37
 90
       50
102
RTVSPost2010PropOp37
 70
     1
102
RTVSPost2010Prop38
140
0.0
102
RTVSPost2010PropOp38
 70
     1
102
RTVSPost2010Prop39
140
1.0
102
RTVSPost2010PropOp39
 70
     1
102
RTVSPost2010Prop40
 90
        0
102
RTVSPost2010PropOp40
 70
     1
102
RTVSPost2010Prop41ColorIndex
 90
       18
102
RTVSPost2010Prop41ColorRGB
 90
        0
102
RTVSPost2010PropOp41
 70
     1
102
RTVSPost2010Prop42
 90
       50
102
RTVSPost2010PropOp42
 70
     1
102
RTVSPost2010Prop43
 90
        3
102
RTVSPost2010PropOp43
 70
     1
102
RTVSPost2010Prop44ColorIndex
 90
        5
102
RTVSPost2010Prop44ColorRGB
 90
      255
102
RTVSPost2010PropOp44
 70
     1
102
RTVSPost2010Prop45
280
     0
102
RTVSPost2010PropOp45
 70
     1
102
RTVSPost2010Prop46
 90
       50
102
RTVSPost2010PropOp46
 70
     1
102
RTVSPost2010Prop47
 90
       50
102
RTVSPost2010PropOp47
 70
     1
102
RTVSPost2010Prop48
 90
       50
102
RTVSPost2010PropOp48
 70
     1
102
RTVSPost2010Prop49
280
     0
102
RTVSPost2010PropOp49
 70
     1
102
RTVSPost2010Prop50
 90
       50
102
RTVSPost2010PropOp50
 70
     1
102
RTVSPost2010Prop51ColorIndex
 90
      256
102
RTVSPost2010Prop51ColorRGB
 90
-16777216
102
RTVSPost2010PropOp51
 70
     0
102
RTVSPost2010Prop52
140
1.0
102
RTVSPost2010PropOp52
 70
     0
102
RTVSPost2010Prop53
 90
        2
102
RTVSPost2010PropOp53
 70
     1
102
RTVSPost2010Prop54
  1
strokes_ogs.tif
102
RTVSPost2010PropOp54
 70
     1
102
RTVSPost2010Prop55
280
     0
102
RTVSPost2010PropOp55
 70
     1
102
RTVSPost2010Prop56
140
1.0
102
RTVSPost2010PropOp56
 70
     1
102
RTVSPost2010Prop57
140
1.0
102
RTVSPost2010PropOp57
 70
     1
  0
XRECORD
  5
81
102
{ACAD_REACTORS
330
80
102
}
330
80
100
AcDbXrecord
280
     1
102
RTVSPropertyOp0
 70
     1
102
RTVSPropertyOp1
 70
     1
102
RTVSPropertyOp2
 70
     1
102
RTVSPropertyOp3
 70
     1
102
RTVSPropertyOp4
 70
     1
102
RTVSPropertyOp5
 70
     1
102
RTVSPropertyOp6
 70
     1
102
RTVSPropertyOp7
 70
     1
102
RTVSPropertyOp8
 70
     1
102
RTVSPropertyOp9
 70
     1
102
RTVSPropertyOp10
 70
     1
102
RTVSPropertyOp11
 70
     1
102
RTVSPropertyOp12
 70
     1
102
RTVSPropertyOp13
 70
     1
102
RTVSPropertyOp14
 70
     1
102
RTVSPropertyOp15
 70
     1
102
RTVSPropertyOp16
 70
     1
102
RTVSPropertyOp17
 70
     1
102
RTVSPropertyOp18
 70
     1
102
RTVSPropertyOp19
 70
     1
102
RTVSPropertyOp20
 70
     1
102
RTVSPropertyOp21
 70
     1
102
RTVSPropertyOp22
 70
     1
102
RTVSPropertyOp23
 70
     1
102
RTVSPropertyOp24
 70
     1
102
RTVSPropertyOp25
 70
     1
102
RTVSPropertyOp26
 70
     1
102
RTVSPropertyOp27
 70
     1
102
RTVSPropertyOp28
 70
     1
102
RTVSPropertyOp29
 70
     1
102
RTVSPropertyOp30
 70
     1
102
RTVSPropertyOp31
 70
     1
102
RTVSPropertyOp32
 70
     1
102
RTVSPropertyOp33
 70
     1
102
RTVSPropertyOp34
 70
     1
102
RTVSPropertyOp35
 70
     1
102
RTVSPropertyOp36
 70
     1
102
RTVSPropertyOp37
 70
     1
102
RTVSPropertyOp38
 70
     1
102
RTVSPropertyOp39
 70
     1
102
RTVSPropertyOp40
 70
     1
102
RTVSPropertyOp41
 70
     1
102
RTVSPropertyOp42
 70
     1
102
RTVSPropertyOp43
 70
     1
102
RTVSPropertyOp44
 70
     1
102
RTVSPropertyOp45
 70
     1
102
RTVSPropertyOp46
 70
     1
102
RTVSPropertyOp47
 70
     1
102
RTVSPropertyOp48
 70
     1
102
RTVSPropertyOp49
 70
     1
102
RTVSPropertyOp50
 70
     1
102
RTVSPropertyOp51
 70
     0
102
RTVSPropertyOp52
 70
     0
102
RTVSPropertyOp53
 70
     1
102
RTVSPropertyOp54
 70
     1
102
RTVSPropertyOp55
 70
     1
102
RTVSPropertyOp56
 70
     1
102
RTVSPropertyOp57
 70
     1
102
RTVSPost2010Prop28
280
     0
102
RTVSPost2010PropOp28
 70
     1
102
RTVSPost2010Prop29
280
     1
102
RTVSPost2010PropOp29
 70
     1
102
RTVSPost2010Prop30
280
     1
102
RTVSPost2010PropOp30
 70
     1
102
RTVSPost2010Prop31
280
     0
102
RTVSPost2010PropOp31
 70
     1
102
RTVSPost2010Prop32
280
     0
102
RTVSPost2010PropOp32
 70
     1
102
RTVSPost2010Prop33
280
     0
102
RTVSPost2010PropOp33
 70
     1
102
RTVSPost2010Prop34
280
     0
102
RTVSPost2010PropOp34
 70
     1
102
RTVSPost2010Prop35
280
     0
102
RTVSPost2010PropOp35
 70
     1
102
RTVSPost2010Prop36
280
     0
102
RTVSPost2010PropOp36
 70
     1
102
RTVSPost2010Prop37
 90
       50
102
RTVSPost2010PropOp37
 70
     1
102
RTVSPost2010Prop38
140
0.0
102
RTVSPost2010PropOp38
 70
     1
102
RTVSPost2010Prop39
140
1.0
102
RTVSPost2010PropOp39
 70
     1
102
RTVSPost2010Prop40
 90
        0
102
RTVSPost2010PropOp40
 70
     1
102
RTVSPost2010Prop41ColorIndex
 90
       18
102
RTVSPost2010Prop41ColorRGB
 90
        0
102
RTVSPost2010PropOp41
 70
     1
102
RTVSPost2010Prop42
 90
       50
102
RTVSPost2010PropOp42
 70
     1
102
RTVSPost2010Prop43
 90
        3
102
RTVSPost2010PropOp43
 70
     1
102
RTVSPost2010Prop44ColorIndex
 90
        5
102
RTVSPost2010Prop44ColorRGB
 90
      255
102
RTVSPost2010PropOp44
 70
     1
102
RTVSPost2010Prop45
280
     0
102
RTVSPost2010PropOp45
 70
     1
102
RTVSPost2010Prop46
 90
       50
102
RTVSPost2010PropOp46
 70
     1
102
RTVSPost2010Prop47
 90
       50
102
RTVSPost2010PropOp47
 70
     1
102
RTVSPost2010Prop48
 90
       50
102
RTVSPost2010PropOp48
 70
     1
102
RTVSPost2010Prop49
280
     0
102
RTVSPost2010PropOp49
 70
     1
102
RTVSPost2010Prop50
 90
       50
102
RTVSPost2010PropOp50
 70
     1
102
RTVSPost2010Prop51ColorIndex
 90
      256
102
RTVSPost2010Prop51ColorRGB
 90
-16777216
102
RTVSPost2010PropOp51
 70
     0
102
RTVSPost2010Prop52
140
1.0
102
RTVSPost2010PropOp52
 70
     0
102
RTVSPost2010Prop53
 90
        2
102
RTVSPost2010PropOp53
 70
     1
102
RTVSPost2010Prop54
  1
strokes_ogs.tif
102
RTVSPost2010PropOp54
 70
     1
102
RTVSPost2010Prop55
280
     0
102
RTVSPost2010PropOp55
 70
     1
102
RTVSPost2010Prop56
140
1.0
102
RTVSPost2010PropOp56
 70
     1
102
RTVSPost2010Prop57
140
1.0
102
RTVSPost2010PropOp57
 70
     1
  0
XRECORD
  5
83
102
{ACAD_REACTORS
330
82
102
}
330
82
100
AcDbXrecord
280
     1
102
RTVSPropertyOp0
 70
     1
102
RTVSPropertyOp1
 70
     1
102
RTVSPropertyOp2
 70
     1
102
RTVSPropertyOp3
 70
     1
102
RTVSPropertyOp4
 70
     1
102
RTVSPropertyOp5
 70
     1
102
RTVSPropertyOp6
 70
     1
102
RTVSPropertyOp7
 70
     1
102
RTVSPropertyOp8
 70
     1
102
RTVSPropertyOp9
 70
     1
102
RTVSPropertyOp10
 70
     1
102
RTVSPropertyOp11
 70
     1
102
RTVSPropertyOp12
 70
     1
102
RTVSPropertyOp13
 70
     1
102
RTVSPropertyOp14
 70
     1
102
RTVSPropertyOp15
 70
     1
102
RTVSPropertyOp16
 70
     1
102
RTVSPropertyOp17
 70
     1
102
RTVSPropertyOp18
 70
     1
102
RTVSPropertyOp19
 70
     1
102
RTVSPropertyOp20
 70
     1
102
RTVSPropertyOp21
 70
     1
102
RTVSPropertyOp22
 70
     1
102
RTVSPropertyOp23
 70
     1
102
RTVSPropertyOp24
 70
     1
102
RTVSPropertyOp25
 70
     1
102
RTVSPropertyOp26
 70
     1
102
RTVSPropertyOp27
 70
     1
102
RTVSPropertyOp28
 70
     1
102
RTVSPropertyOp29
 70
     1
102
RTVSPropertyOp30
 70
     1
102
RTVSPropertyOp31
 70
     1
102
RTVSPropertyOp32
 70
     1
102
RTVSPropertyOp33
 70
     1
102
RTVSPropertyOp34
 70
     1
102
RTVSPropertyOp35
 70
     1
102
RTVSPropertyOp36
 70
     1
102
RTVSPropertyOp37
 70
     1
102
RTVSPropertyOp38
 70
     1
102
RTVSPropertyOp39
 70
     1
102
RTVSPropertyOp40
 70
     1
102
RTVSPropertyOp41
 70
     1
102
RTVSPropertyOp42
 70
     1
102
RTVSPropertyOp43
 70
     1
102
RTVSPropertyOp44
 70
     1
102
RTVSPropertyOp45
 70
     1
102
RTVSPropertyOp46
 70
     1
102
RTVSPropertyOp47
 70
     1
102
RTVSPropertyOp48
 70
     1
102
RTVSPropertyOp49
 70
     1
102
RTVSPropertyOp50
 70
     1
102
RTVSPropertyOp51
 70
     0
102
RTVSPropertyOp52
 70
     0
102
RTVSPropertyOp53
 70
     1
102
RTVSPropertyOp54
 70
     1
102
RTVSPropertyOp55
 70
     1
102
RTVSPropertyOp56
 70
     1
102
RTVSPropertyOp57
 70
     1
102
RTVSPost2010Prop28
280
     0
102
RTVSPost2010PropOp28
 70
     1
102
RTVSPost2010Prop29
280
     1
102
RTVSPost2010PropOp29
 70
     1
102
RTVSPost2010Prop30
280
     1
102
RTVSPost2010PropOp30
 70
     1
102
RTVSPost2010Prop31
280
     0
102
RTVSPost2010PropOp31
 70
     1
102
RTVSPost2010Prop32
280
     0
102
RTVSPost2010PropOp32
 70
     1
102
RTVSPost2010Prop33
280
     0
102
RTVSPost2010PropOp33
 70
     1
102
RTVSPost2010Prop34
280
     0
102
RTVSPost2010PropOp34
 70
     1
102
RTVSPost2010Prop35
280
     0
102
RTVSPost2010PropOp35
 70
     1
102
RTVSPost2010Prop36
280
     0
102
RTVSPost2010PropOp36
 70
     1
102
RTVSPost2010Prop37
 90
       50
102
RTVSPost2010PropOp37
 70
     1
102
RTVSPost2010Prop38
140
0.0
102
RTVSPost2010PropOp38
 70
     1
102
RTVSPost2010Prop39
140
1.0
102
RTVSPost2010PropOp39
 70
     1
102
RTVSPost2010Prop40
 90
        0
102
RTVSPost2010PropOp40
 70
     1
102
RTVSPost2010Prop41ColorIndex
 90
       18
102
RTVSPost2010Prop41ColorRGB
 90
        0
102
RTVSPost2010PropOp41
 70
     1
102
RTVSPost2010Prop42
 90
       50
102
RTVSPost2010PropOp42
 70
     1
102
RTVSPost2010Prop43
 90
        3
102
RTVSPost2010PropOp43
 70
     1
102
RTVSPost2010Prop44ColorIndex
 90
        5
102
RTVSPost2010Prop44ColorRGB
 90
      255
102
RTVSPost2010PropOp44
 70
     1
102
RTVSPost2010Prop45
280
     0
102
RTVSPost2010PropOp45
 70
     1
102
RTVSPost2010Prop46
 90
       50
102
RTVSPost2010PropOp46
 70
     1
102
RTVSPost2010Prop47
 90
       50
102
RTVSPost2010PropOp47
 70
     1
102
RTVSPost2010Prop48
 90
       50
102
RTVSPost2010PropOp48
 70
     1
102
RTVSPost2010Prop49
280
     0
102
RTVSPost2010PropOp49
 70
     1
102
RTVSPost2010Prop50
 90
       50
102
RTVSPost2010PropOp50
 70
     1
102
RTVSPost2010Prop51ColorIndex
 90
      256
102
RTVSPost2010Prop51ColorRGB
 90
-16777216
102
RTVSPost2010PropOp51
 70
     0
102
RTVSPost2010Prop52
140
1.0
102
RTVSPost2010PropOp52
 70
     0
102
RTVSPost2010Prop53
 90
        2
102
RTVSPost2010PropOp53
 70
     1
102
RTVSPost2010Prop54
  1
strokes_ogs.tif
102
RTVSPost2010PropOp54
 70
     1
102
RTVSPost2010Prop55
280
     0
102
RTVSPost2010PropOp55
 70
     1
102
RTVSPost2010Prop56
140
1.0
102
RTVSPost2010PropOp56
 70
     1
102
RTVSPost2010Prop57
140
1.0
102
RTVSPost2010PropOp57
 70
     1
  0
XRECORD
  5
97
102
{ACAD_REACTORS
330
96
102
}
330
96
100
AcDbXrecord
280
     1
102
RTVSPropertyOp0
 70
     1
102
RTVSPropertyOp1
 70
     1
102
RTVSPropertyOp2
 70
     1
102
RTVSPropertyOp3
 70
     1
102
RTVSPropertyOp4
 70
     1
102
RTVSPropertyOp5
 70
     1
102
RTVSPropertyOp6
 70
     1
102
RTVSPropertyOp7
 70
     1
102
RTVSPropertyOp8
 70
     1
102
RTVSPropertyOp9
 70
     1
102
RTVSPropertyOp10
 70
     1
102
RTVSPropertyOp11
 70
     1
102
RTVSPropertyOp12
 70
     1
102
RTVSPropertyOp13
 70
     1
102
RTVSPropertyOp14
 70
     1
102
RTVSPropertyOp15
 70
     1
102
RTVSPropertyOp16
 70
     1
102
RTVSPropertyOp17
 70
     1
102
RTVSPropertyOp18
 70
     1
102
RTVSPropertyOp19
 70
     1
102
RTVSPropertyOp20
 70
     1
102
RTVSPropertyOp21
 70
     1
102
RTVSPropertyOp22
 70
     1
102
RTVSPropertyOp23
 70
     1
102
RTVSPropertyOp24
 70
     1
102
RTVSPropertyOp25
 70
     1
102
RTVSPropertyOp26
 70
     1
102
RTVSPropertyOp27
 70
     1
102
RTVSPropertyOp28
 70
     1
102
RTVSPropertyOp29
 70
     1
102
RTVSPropertyOp30
 70
     1
102
RTVSPropertyOp31
 70
     1
102
RTVSPropertyOp32
 70
     1
102
RTVSPropertyOp33
 70
     1
102
RTVSPropertyOp34
 70
     1
102
RTVSPropertyOp35
 70
     1
102
RTVSPropertyOp36
 70
     1
102
RTVSPropertyOp37
 70
     1
102
RTVSPropertyOp38
 70
     1
102
RTVSPropertyOp39
 70
     1
102
RTVSPropertyOp40
 70
     1
102
RTVSPropertyOp41
 70
     1
102
RTVSPropertyOp42
 70
     1
102
RTVSPropertyOp43
 70
     1
102
RTVSPropertyOp44
 70
     1
102
RTVSPropertyOp45
 70
     1
102
RTVSPropertyOp46
 70
     1
102
RTVSPropertyOp47
 70
     1
102
RTVSPropertyOp48
 70
     1
102
RTVSPropertyOp49
 70
     1
102
RTVSPropertyOp50
 70
     1
102
RTVSPropertyOp51
 70
     0
102
RTVSPropertyOp52
 70
     0
102
RTVSPropertyOp53
 70
     1
102
RTVSPropertyOp54
 70
     1
102
RTVSPropertyOp55
 70
     1
102
RTVSPropertyOp56
 70
     1
102
RTVSPropertyOp57
 70
     1
102
RTVSPost2010Prop28
280
     0
102
RTVSPost2010PropOp28
 70
     1
102
RTVSPost2010Prop29
280
     1
102
RTVSPost2010PropOp29
 70
     1
102
RTVSPost2010Prop30
280
     1
102
RTVSPost2010PropOp30
 70
     1
102
RTVSPost2010Prop31
280
     0
102
RTVSPost2010PropOp31
 70
     1
102
RTVSPost2010Prop32
280
     0
102
RTVSPost2010PropOp32
 70
     1
102
RTVSPost2010Prop33
280
     0
102
RTVSPost2010PropOp33
 70
     1
102
RTVSPost2010Prop34
280
     0
102
RTVSPost2010PropOp34
 70
     1
102
RTVSPost2010Prop35
280
     0
102
RTVSPost2010PropOp35
 70
     1
102
RTVSPost2010Prop36
280
     0
102
RTVSPost2010PropOp36
 70
     1
102
RTVSPost2010Prop37
 90
       50
102
RTVSPost2010PropOp37
 70
     1
102
RTVSPost2010Prop38
140
0.0
102
RTVSPost2010PropOp38
 70
     1
102
RTVSPost2010Prop39
140
1.0
102
RTVSPost2010PropOp39
 70
     1
102
RTVSPost2010Prop40
 90
        0
102
RTVSPost2010PropOp40
 70
     1
102
RTVSPost2010Prop41ColorIndex
 90
       18
102
RTVSPost2010Prop41ColorRGB
 90
        0
102
RTVSPost2010PropOp41
 70
     1
102
RTVSPost2010Prop42
 90
       50
102
RTVSPost2010PropOp42
 70
     1
102
RTVSPost2010Prop43
 90
        3
102
RTVSPost2010PropOp43
 70
     1
102
RTVSPost2010Prop44ColorIndex
 90
        5
102
RTVSPost2010Prop44ColorRGB
 90
      255
102
RTVSPost2010PropOp44
 70
     1
102
RTVSPost2010Prop45
280
     0
102
RTVSPost2010PropOp45
 70
     1
102
RTVSPost2010Prop46
 90
       50
102
RTVSPost2010PropOp46
 70
     1
102
RTVSPost2010Prop47
 90
       50
102
RTVSPost2010PropOp47
 70
     1
102
RTVSPost2010Prop48
 90
       50
102
RTVSPost2010PropOp48
 70
     1
102
RTVSPost2010Prop49
280
     0
102
RTVSPost2010PropOp49
 70
     1
102
RTVSPost2010Prop50
 90
       50
102
RTVSPost2010PropOp50
 70
     1
102
RTVSPost2010Prop51ColorIndex
 90
      256
102
RTVSPost2010Prop51ColorRGB
 90
-16777216
102
RTVSPost2010PropOp51
 70
     0
102
RTVSPost2010Prop52
140
1.0
102
RTVSPost2010PropOp52
 70
     0
102
RTVSPost2010Prop53
 90
        2
102
RTVSPost2010PropOp53
 70
     1
102
RTVSPost2010Prop54
  1
strokes_ogs.tif
102
RTVSPost2010PropOp54
 70
     1
102
RTVSPost2010Prop55
280
     0
102
RTVSPost2010PropOp55
 70
     1
102
RTVSPost2010Prop56
140
1.0
102
RTVSPost2010PropOp56
 70
     1
102
RTVSPost2010Prop57
140
1.0
102
RTVSPost2010PropOp57
 70
     1
  0
XRECORD
  5
8D
102
{ACAD_REACTORS
330
8C
102
}
330
8C
100
AcDbXrecord
280
     1
102
RTVSPropertyOp0
 70
     1
102
RTVSPropertyOp1
 70
     1
102
RTVSPropertyOp2
 70
     1
102
RTVSPropertyOp3
 70
     1
102
RTVSPropertyOp4
 70
     1
102
RTVSPropertyOp5
 70
     1
102
RTVSPropertyOp6
 70
     1
102
RTVSPropertyOp7
 70
     1
102
RTVSPropertyOp8
 70
     1
102
RTVSPropertyOp9
 70
     1
102
RTVSPropertyOp10
 70
     1
102
RTVSPropertyOp11
 70
     1
102
RTVSPropertyOp12
 70
     1
102
RTVSPropertyOp13
 70
     1
102
RTVSPropertyOp14
 70
     1
102
RTVSPropertyOp15
 70
     1
102
RTVSPropertyOp16
 70
     1
102
RTVSPropertyOp17
 70
     1
102
RTVSPropertyOp18
 70
     1
102
RTVSPropertyOp19
 70
     1
102
RTVSPropertyOp20
 70
     1
102
RTVSPropertyOp21
 70
     1
102
RTVSPropertyOp22
 70
     1
102
RTVSPropertyOp23
 70
     1
102
RTVSPropertyOp24
 70
     1
102
RTVSPropertyOp25
 70
     1
102
RTVSPropertyOp26
 70
     1
102
RTVSPropertyOp27
 70
     1
102
RTVSPropertyOp28
 70
     1
102
RTVSPropertyOp29
 70
     1
102
RTVSPropertyOp30
 70
     1
102
RTVSPropertyOp31
 70
     1
102
RTVSPropertyOp32
 70
     1
102
RTVSPropertyOp33
 70
     1
102
RTVSPropertyOp34
 70
     1
102
RTVSPropertyOp35
 70
     1
102
RTVSPropertyOp36
 70
     1
102
RTVSPropertyOp37
 70
     1
102
RTVSPropertyOp38
 70
     1
102
RTVSPropertyOp39
 70
     1
102
RTVSPropertyOp40
 70
     1
102
RTVSPropertyOp41
 70
     1
102
RTVSPropertyOp42
 70
     1
102
RTVSPropertyOp43
 70
     1
102
RTVSPropertyOp44
 70
     1
102
RTVSPropertyOp45
 70
     1
102
RTVSPropertyOp46
 70
     1
102
RTVSPropertyOp47
 70
     1
102
RTVSPropertyOp48
 70
     1
102
RTVSPropertyOp49
 70
     1
102
RTVSPropertyOp50
 70
     1
102
RTVSPropertyOp51
 70
     0
102
RTVSPropertyOp52
 70
     0
102
RTVSPropertyOp53
 70
     1
102
RTVSPropertyOp54
 70
     1
102
RTVSPropertyOp55
 70
     1
102
RTVSPropertyOp56
 70
     1
102
RTVSPropertyOp57
 70
     1
102
RTVSPost2010Prop28
280
     0
102
RTVSPost2010PropOp28
 70
     1
102
RTVSPost2010Prop29
280
     1
102
RTVSPost2010PropOp29
 70
     1
102
RTVSPost2010Prop30
280
     1
102
RTVSPost2010PropOp30
 70
     1
102
RTVSPost2010Prop31
280
     0
102
RTVSPost2010PropOp31
 70
     1
102
RTVSPost2010Prop32
280
     0
102
RTVSPost2010PropOp32
 70
     1
102
RTVSPost2010Prop33
280
     0
102
RTVSPost2010PropOp33
 70
     1
102
RTVSPost2010Prop34
280
     0
102
RTVSPost2010PropOp34
 70
     1
102
RTVSPost2010Prop35
280
     0
102
RTVSPost2010PropOp35
 70
     1
102
RTVSPost2010Prop36
280
     0
102
RTVSPost2010PropOp36
 70
     1
102
RTVSPost2010Prop37
 90
       50
102
RTVSPost2010PropOp37
 70
     1
102
RTVSPost2010Prop38
140
0.0
102
RTVSPost2010PropOp38
 70
     1
102
RTVSPost2010Prop39
140
1.0
102
RTVSPost2010PropOp39
 70
     1
102
RTVSPost2010Prop40
 90
        0
102
RTVSPost2010PropOp40
 70
     1
102
RTVSPost2010Prop41ColorIndex
 90
       18
102
RTVSPost2010Prop41ColorRGB
 90
        0
102
RTVSPost2010PropOp41
 70
     1
102
RTVSPost2010Prop42
 90
       50
102
RTVSPost2010PropOp42
 70
     1
102
RTVSPost2010Prop43
 90
        3
102
RTVSPost2010PropOp43
 70
     1
102
RTVSPost2010Prop44ColorIndex
 90
        5
102
RTVSPost2010Prop44ColorRGB
 90
      255
102
RTVSPost2010PropOp44
 70
     1
102
RTVSPost2010Prop45
280
     0
102
RTVSPost2010PropOp45
 70
     1
102
RTVSPost2010Prop46
 90
       50
102
RTVSPost2010PropOp46
 70
     1
102
RTVSPost2010Prop47
 90
       50
102
RTVSPost2010PropOp47
 70
     1
102
RTVSPost2010Prop48
 90
       50
102
RTVSPost2010PropOp48
 70
     1
102
RTVSPost2010Prop49
280
     0
102
RTVSPost2010PropOp49
 70
     1
102
RTVSPost2010Prop50
 90
       50
102
RTVSPost2010PropOp50
 70
     1
102
RTVSPost2010Prop51ColorIndex
 90
      256
102
RTVSPost2010Prop51ColorRGB
 90
-16777216
102
RTVSPost2010PropOp51
 70
     0
102
RTVSPost2010Prop52
140
1.0
102
RTVSPost2010PropOp52
 70
     0
102
RTVSPost2010Prop53
 90
        2
102
RTVSPost2010PropOp53
 70
     1
102
RTVSPost2010Prop54
  1
strokes_ogs.tif
102
RTVSPost2010PropOp54
 70
     1
102
RTVSPost2010Prop55
280
     0
102
RTVSPost2010PropOp55
 70
     1
102
RTVSPost2010Prop56
140
1.0
102
RTVSPost2010PropOp56
 70
     1
102
RTVSPost2010Prop57
140
1.0
102
RTVSPost2010PropOp57
 70
     1
  0
XRECORD
  5
95
102
{ACAD_REACTORS
330
94
102
}
330
94
100
AcDbXrecord
280
     1
102
RTVSPropertyOp0
 70
     1
102
RTVSPropertyOp1
 70
     1
102
RTVSPropertyOp2
 70
     1
102
RTVSPropertyOp3
 70
     1
102
RTVSPropertyOp4
 70
     1
102
RTVSPropertyOp5
 70
     1
102
RTVSPropertyOp6
 70
     1
102
RTVSPropertyOp7
 70
     1
102
RTVSPropertyOp8
 70
     1
102
RTVSPropertyOp9
 70
     1
102
RTVSPropertyOp10
 70
     1
102
RTVSPropertyOp11
 70
     1
102
RTVSPropertyOp12
 70
     1
102
RTVSPropertyOp13
 70
     1
102
RTVSPropertyOp14
 70
     1
102
RTVSPropertyOp15
 70
     1
102
RTVSPropertyOp16
 70
     1
102
RTVSPropertyOp17
 70
     1
102
RTVSPropertyOp18
 70
     1
102
RTVSPropertyOp19
 70
     1
102
RTVSPropertyOp20
 70
     1
102
RTVSPropertyOp21
 70
     1
102
RTVSPropertyOp22
 70
     1
102
RTVSPropertyOp23
 70
     1
102
RTVSPropertyOp24
 70
     1
102
RTVSPropertyOp25
 70
     1
102
RTVSPropertyOp26
 70
     1
102
RTVSPropertyOp27
 70
     1
102
RTVSPropertyOp28
 70
     1
102
RTVSPropertyOp29
 70
     1
102
RTVSPropertyOp30
 70
     1
102
RTVSPropertyOp31
 70
     1
102
RTVSPropertyOp32
 70
     1
102
RTVSPropertyOp33
 70
     1
102
RTVSPropertyOp34
 70
     1
102
RTVSPropertyOp35
 70
     1
102
RTVSPropertyOp36
 70
     1
102
RTVSPropertyOp37
 70
     1
102
RTVSPropertyOp38
 70
     1
102
RTVSPropertyOp39
 70
     1
102
RTVSPropertyOp40
 70
     1
102
RTVSPropertyOp41
 70
     1
102
RTVSPropertyOp42
 70
     1
102
RTVSPropertyOp43
 70
     1
102
RTVSPropertyOp44
 70
     1
102
RTVSPropertyOp45
 70
     1
102
RTVSPropertyOp46
 70
     1
102
RTVSPropertyOp47
 70
     1
102
RTVSPropertyOp48
 70
     1
102
RTVSPropertyOp49
 70
     1
102
RTVSPropertyOp50
 70
     1
102
RTVSPropertyOp51
 70
     0
102
RTVSPropertyOp52
 70
     0
102
RTVSPropertyOp53
 70
     1
102
RTVSPropertyOp54
 70
     1
102
RTVSPropertyOp55
 70
     1
102
RTVSPropertyOp56
 70
     1
102
RTVSPropertyOp57
 70
     1
102
RTVSPost2010Prop28
280
     0
102
RTVSPost2010PropOp28
 70
     1
102
RTVSPost2010Prop29
280
     1
102
RTVSPost2010PropOp29
 70
     1
102
RTVSPost2010Prop30
280
     1
102
RTVSPost2010PropOp30
 70
     1
102
RTVSPost2010Prop31
280
     0
102
RTVSPost2010PropOp31
 70
     1
102
RTVSPost2010Prop32
280
     0
102
RTVSPost2010PropOp32
 70
     1
102
RTVSPost2010Prop33
280
     0
102
RTVSPost2010PropOp33
 70
     1
102
RTVSPost2010Prop34
280
     0
102
RTVSPost2010PropOp34
 70
     1
102
RTVSPost2010Prop35
280
     0
102
RTVSPost2010PropOp35
 70
     1
102
RTVSPost2010Prop36
280
     0
102
RTVSPost2010PropOp36
 70
     1
102
RTVSPost2010Prop37
 90
       50
102
RTVSPost2010PropOp37
 70
     1
102
RTVSPost2010Prop38
140
0.0
102
RTVSPost2010PropOp38
 70
     1
102
RTVSPost2010Prop39
140
1.0
102
RTVSPost2010PropOp39
 70
     1
102
RTVSPost2010Prop40
 90
        0
102
RTVSPost2010PropOp40
 70
     1
102
RTVSPost2010Prop41ColorIndex
 90
       18
102
RTVSPost2010Prop41ColorRGB
 90
        0
102
RTVSPost2010PropOp41
 70
     1
102
RTVSPost2010Prop42
 90
       50
102
RTVSPost2010PropOp42
 70
     1
102
RTVSPost2010Prop43
 90
        3
102
RTVSPost2010PropOp43
 70
     1
102
RTVSPost2010Prop44ColorIndex
 90
        5
102
RTVSPost2010Prop44ColorRGB
 90
      255
102
RTVSPost2010PropOp44
 70
     1
102
RTVSPost2010Prop45
280
     0
102
RTVSPost2010PropOp45
 70
     1
102
RTVSPost2010Prop46
 90
       50
102
RTVSPost2010PropOp46
 70
     1
102
RTVSPost2010Prop47
 90
       50
102
RTVSPost2010PropOp47
 70
     1
102
RTVSPost2010Prop48
 90
       50
102
RTVSPost2010PropOp48
 70
     1
102
RTVSPost2010Prop49
280
     0
102
RTVSPost2010PropOp49
 70
     1
102
RTVSPost2010Prop50
 90
       50
102
RTVSPost2010PropOp50
 70
     1
102
RTVSPost2010Prop51ColorIndex
 90
      256
102
RTVSPost2010Prop51ColorRGB
 90
-16777216
102
RTVSPost2010PropOp51
 70
     0
102
RTVSPost2010Prop52
140
1.0
102
RTVSPost2010PropOp52
 70
     0
102
RTVSPost2010Prop53
 90
        2
102
RTVSPost2010PropOp53
 70
     1
102
RTVSPost2010Prop54
  1
strokes_ogs.tif
102
RTVSPost2010PropOp54
 70
     1
102
RTVSPost2010Prop55
280
     0
102
RTVSPost2010PropOp55
 70
     1
102
RTVSPost2010Prop56
140
1.0
102
RTVSPost2010PropOp56
 70
     1
102
RTVSPost2010Prop57
140
1.0
102
RTVSPost2010PropOp57
 70
     1
  0
ENDSEC
  0
EOF
