  0
SECTION
  2
HEADER
  9
$ACADVER
  1
AC1018
  9
$ACADMAINTVER
 70
     0
  9
$DWGCODEPAGE
  3
ANSI_936
  9
$INSBASE
 10
0.0
 20
0.0
 30
0.0
  9
$EXTMIN
 10
1.000000000000000E+20
 20
1.000000000000000E+20
 30
1.000000000000000E+20
  9
$EXTMAX
 10
-1.000000000000000E+20
 20
-1.000000000000000E+20
 30
-1.000000000000000E+20
  9
$LIMMIN
 10
0.0
 20
0.0
  9
$LIMMAX
 10
12.0
 20
9.0
  9
$ORTHOMODE
 70
     0
  9
$REGENMODE
 70
     1
  9
$FILLMODE
 70
     1
  9
$QTEXTMODE
 70
     0
  9
$MIRRTEXT
 70
     1
  9
$LTSCALE
 40
1.0
  9
$ATTMODE
 70
     1
  9
$TEXTSIZE
 40
0.2
  9
$TRACEWID
 40
0.05
  9
$TEXTSTYLE
  7
Standard
  9
$CLAYER
  8
0
  9
$CELTYPE
  6
ByLayer
  9
$CECOLOR
 62
   256
  9
$CELTSCALE
 40
1.0
  9
$DISPSILH
 70
     0
  9
$DIMSCALE
 40
1.0
  9
$DIMASZ
 40
0.18
  9
$DIMEXO
 40
0.0625
  9
$DIMDLI
 40
0.38
  9
$DIMRND
 40
0.0
  9
$DIMDLE
 40
0.0
  9
$DIMEXE
 40
0.18
  9
$DIMTP
 40
0.0
  9
$DIMTM
 40
0.0
  9
$DIMTXT
 40
0.18
  9
$DIMCEN
 40
0.09
  9
$DIMTSZ
 40
0.0
  9
$DIMTOL
 70
     0
  9
$DIMLIM
 70
     0
  9
$DIMTIH
 70
     1
  9
$DIMTOH
 70
     1
  9
$DIMSE1
 70
     0
  9
$DIMSE2
 70
     0
  9
$DIMTAD
 70
     0
  9
$DIMZIN
 70
     0
  9
$DIMBLK
  1

  9
$DIMASO
 70
     1
  9
$DIMSHO
 70
     1
  9
$DIMPOST
  1

  9
$DIMAPOST
  1

  9
$DIMALT
 70
     0
  9
$DIMALTD
 70
     2
  9
$DIMALTF
 40
25.4
  9
$DIMLFAC
 40
1.0
  9
$DIMTOFL
 70
     0
  9
$DIMTVP
 40
0.0
  9
$DIMTIX
 70
     0
  9
$DIMSOXD
 70
     0
  9
$DIMSAH
 70
     0
  9
$DIMBLK1
  1

  9
$DIMBLK2
  1

  9
$DIMSTYLE
  2
STANDARD_ACAD
  9
$DIMCLRD
 70
     0
  9
$DIMCLRE
 70
     0
  9
$DIMCLRT
 70
     0
  9
$DIMTFAC
 40
1.0
  9
$DIMGAP
 40
0.09
  9
$DIMJUST
 70
     0
  9
$DIMSD1
 70
     0
  9
$DIMSD2
 70
     0
  9
$DIMTOLJ
 70
     1
  9
$DIMTZIN
 70
     0
  9
$DIMALTZ
 70
     0
  9
$DIMALTTZ
 70
     0
  9
$DIMUPT
 70
     0
  9
$DIMDEC
 70
     4
  9
$DIMTDEC
 70
     4
  9
$DIMALTU
 70
     2
  9
$DIMALTTD
 70
     2
  9
$DIMTXSTY
  7
Standard
  9
$DIMAUNIT
 70
     0
  9
$DIMADEC
 70
     0
  9
$DIMALTRND
 40
0.0
  9
$DIMAZIN
 70
     0
  9
$DIMDSEP
 70
    46
  9
$DIMATFIT
 70
     3
  9
$DIMFRAC
 70
     0
  9
$DIMLDRBLK
  1

  9
$DIMLUNIT
 70
     2
  9
$DIMLWD
 70
    -2
  9
$DIMLWE
 70
    -2
  9
$DIMTMOVE
 70
     2
  9
$LUNITS
 70
     2
  9
$LUPREC
 70
     3
  9
$SKETCHINC
 40
0.1
  9
$FILLETRAD
 40
0.5
  9
$AUNITS
 70
     0
  9
$AUPREC
 70
     0
  9
$MENU
  1
.
  9
$ELEVATION
 40
0.0
  9
$PELEVATION
 40
0.0
  9
$THICKNESS
 40
0.0
  9
$LIMCHECK
 70
     0
  9
$CHAMFERA
 40
0.0
  9
$CHAMFERB
 40
0.0
  9
$CHAMFERC
 40
0.0
  9
$CHAMFERD
 40
0.0
  9
$SKPOLY
 70
     0
  9
$TDCREATE
 40
2458581.015568889
  9
$TDUCREATE
 40
2458580.682235556
  9
$TDUPDATE
 40
2458581.01556897
  9
$TDUUPDATE
 40
2458580.682235637
  9
$TDINDWG
 40
0.0000000116
  9
$TDUSRTIMER
 40
0.0000000116
  9
$USRTIMER
 70
     1
  9
$ANGBASE
 50
0.0
  9
$ANGDIR
 70
     0
  9
$PDMODE
 70
     0
  9
$PDSIZE
 40
0.0
  9
$PLINEWID
 40
0.0
  9
$SPLFRAME
 70
     0
  9
$SPLINETYPE
 70
     6
  9
$SPLINESEGS
 70
     8
  9
$HANDSEED
  5
3AB
  9
$SURFTAB1
 70
     6
  9
$SURFTAB2
 70
     6
  9
$SURFTYPE
 70
     6
  9
$SURFU
 70
     6
  9
$SURFV
 70
     6
  9
$UCSBASE
  2

  9
$UCSNAME
  2

  9
$UCSORG
 10
0.0
 20
0.0
 30
0.0
  9
$UCSXDIR
 10
1.0
 20
0.0
 30
0.0
  9
$UCSYDIR
 10
0.0
 20
1.0
 30
0.0
  9
$UCSORTHOREF
  2

  9
$UCSORTHOVIEW
 70
     0
  9
$UCSORGTOP
 10
0.0
 20
0.0
 30
0.0
  9
$UCSORGBOTTOM
 10
0.0
 20
0.0
 30
0.0
  9
$UCSORGLEFT
 10
0.0
 20
0.0
 30
0.0
  9
$UCSORGRIGHT
 10
0.0
 20
0.0
 30
0.0
  9
$UCSORGFRONT
 10
0.0
 20
0.0
 30
0.0
  9
$UCSORGBACK
 10
0.0
 20
0.0
 30
0.0
  9
$PUCSBASE
  2

  9
$PUCSNAME
  2

  9
$PUCSORG
 10
0.0
 20
0.0
 30
0.0
  9
$PUCSXDIR
 10
1.0
 20
0.0
 30
0.0
  9
$PUCSYDIR
 10
0.0
 20
1.0
 30
0.0
  9
$PUCSORTHOREF
  2

  9
$PUCSORTHOVIEW
 70
     0
  9
$PUCSORGTOP
 10
0.0
 20
0.0
 30
0.0
  9
$PUCSORGBOTTOM
 10
0.0
 20
0.0
 30
0.0
  9
$PUCSORGLEFT
 10
0.0
 20
0.0
 30
0.0
  9
$PUCSORGRIGHT
 10
0.0
 20
0.0
 30
0.0
  9
$PUCSORGFRONT
 10
0.0
 20
0.0
 30
0.0
  9
$PUCSORGBACK
 10
0.0
 20
0.0
 30
0.0
  9
$USERI1
 70
     0
  9
$USERI2
 70
     0
  9
$USERI3
 70
     0
  9
$USERI4
 70
     0
  9
$USERI5
 70
     0
  9
$USERR1
 40
0.0
  9
$USERR2
 40
0.0
  9
$USERR3
 40
0.0
  9
$USERR4
 40
0.0
  9
$USERR5
 40
0.0
  9
$WORLDVIEW
 70
     1
  9
$SHADEDGE
 70
     3
  9
$SHADEDIF
 70
    70
  9
$TILEMODE
 70
     1
  9
$MAXACTVP
 70
    64
  9
$PINSBASE
 10
0.0
 20
0.0
 30
0.0
  9
$PLIMCHECK
 70
     0
  9
$PEXTMIN
 10
1.000000000000000E+20
 20
1.000000000000000E+20
 30
1.000000000000000E+20
  9
$PEXTMAX
 10
-1.000000000000000E+20
 20
-1.000000000000000E+20
 30
-1.000000000000000E+20
  9
$PLIMMIN
 10
0.0
 20
0.0
  9
$PLIMMAX
 10
12.0
 20
9.0
  9
$UNITMODE
 70
     0
  9
$VISRETAIN
 70
     1
  9
$PLINEGEN
 70
     0
  9
$PSLTSCALE
 70
     1
  9
$TREEDEPTH
 70
  3020
  9
$CMLSTYLE
  2
Standard
  9
$CMLJUST
 70
     0
  9
$CMLSCALE
 40
1.0
  9
$PROXYGRAPHICS
 70
     1
  9
$MEASUREMENT
 70
     0
  9
$CELWEIGHT
370
    -1
  9
$ENDCAPS
280
     0
  9
$JOINSTYLE
280
     0
  9
$LWDISPLAY
290
     0
  9
$INSUNITS
 70
     4
  9
$HYPERLINKBASE
  1

  9
$STYLESHEET
  1

  9
$XEDIT
290
     1
  9
$CEPSNTYPE
380
     0
  9
$PSTYLEMODE
290
     1
  9
$FINGERPRINTGUID
  2
{7aa31135-9505-4eaf-946d-a427975d252f}
  9
$VERSIONGUID
  2
{FAEB1C32-E019-11D5-929B-00C0DF256EC4}
  9
$EXTNAMES
290
     1
  9
$PSVPSCALE
 40
0.0
  9
$OLESTARTUP
290
     0
  9
$SORTENTS
280
   127
  9
$INDEXCTL
280
     0
  9
$HIDETEXT
280
     1
  9
$XCLIPFRAME
290
     0
  9
$HALOGAP
280
     0
  9
$OBSCOLOR
 70
   257
  9
$OBSLTYPE
280
     0
  9
$INTERSECTIONDISPLAY
280
     0
  9
$INTERSECTIONCOLOR
 70
   257
  9
$DIMASSOC
280
     2
  9
$PROJECTNAME
  1

  0
ENDSEC
  0
SECTION
  2
CLASSES
  0
CLASS
  1
ACDBDICTIONARYWDFLT
  2
AcDbDictionaryWithDefault
  3
ObjectDBX Classes
 90
        0
 91
        3
280
     0
281
     0
  0
CLASS
  1
VISUALSTYLE
  2
AcDbVisualStyle
  3
ObjectDBX Classes
 90
     4095
 91
        3
280
     0
281
     0
  0
CLASS
  1
MATERIAL
  2
AcDbMaterial
  3
ObjectDBX Classes
 90
     1153
 91
        3
280
     0
281
     0
  0
CLASS
  1
SCALE
  2
AcDbScale
  3
ObjectDBX Classes
 90
     1153
 91
        3
280
     0
281
     0
  0
CLASS
  1
TABLESTYLE
  2
AcDbTableStyle
  3
ObjectDBX Classes
 90
     4095
 91
        3
280
     0
281
     0
  0
CLASS
  1
MLEADERSTYLE
  2
AcDbMLeaderStyle
  3
ACDB_MLEADERSTYLE_CLASS
 90
     4095
 91
        3
280
     0
281
     0
  0
CLASS
  1
SUN
  2
AcDbSun
  3
SCENEOE
 90
     1153
 91
        3
280
     0
281
     0
  0
CLASS
  1
DICTIONARYVAR
  2
AcDbDictionaryVar
  3
ObjectDBX Classes
 90
        0
 91
        3
280
     0
281
     0
  0
CLASS
  1
CELLSTYLEMAP
  2
AcDbCellStyleMap
  3
ObjectDBX Classes
 90
     1152
 91
        3
280
     0
281
     0
  0
ENDSEC
  0
SECTION
  2
TABLES
  0
TABLE
  2
VPORT
  5
8
102
{ACAD_XDICTIONARY
360
364
102
}
330
0
100
AcDbSymbolTable
 70
     1
  0
VPORT
  5
29
330
8
100
AcDbSymbolTableRecord
100
AcDbViewportTableRecord
  2
*Active
 70
     0
 10
0.0
 20
0.0
 11
1.0
 21
1.0
 12
10.42990654205607
 22
4.5
 13
0.0
 23
0.0
 14
0.5
 24
0.5
 15
0.5
 25
0.5
 16
0.0
 26
0.0
 36
1.0
 17
0.0
 27
0.0
 37
0.0
 40
9.0
 41
1.972972972850329
 42
50.0
 43
0.0
 44
0.0
 50
0.0
 51
0.0
 71
     0
 72
   100
 73
     1
 74
     3
 75
     0
 76
     0
 77
     0
 78
     0
281
     0
 65
     1
110
0.0
120
0.0
130
0.0
111
1.0
121
0.0
131
0.0
112
0.0
122
1.0
132
0.0
 79
     0
146
0.0
  0
ENDTAB
  0
TABLE
  2
LTYPE
  5
5
330
0
100
AcDbSymbolTable
 70
     1
  0
LTYPE
  5
14
330
5
100
AcDbSymbolTableRecord
100
AcDbLinetypeTableRecord
  2
ByBlock
 70
     0
  3

 72
    65
 73
     0
 40
0.0
  0
LTYPE
  5
15
330
5
100
AcDbSymbolTableRecord
100
AcDbLinetypeTableRecord
  2
ByLayer
 70
     0
  3

 72
    65
 73
     0
 40
0.0
  0
LTYPE
  5
16
330
5
100
AcDbSymbolTableRecord
100
AcDbLinetypeTableRecord
  2
Continuous
 70
     0
  3
Solid line
 72
    65
 73
     0
 40
0.0
  0
ENDTAB
  0
TABLE
  2
LAYER
  5
2
330
0
100
AcDbSymbolTable
 70
     2
  0
LAYER
  5
10
330
2
100
AcDbSymbolTableRecord
100
AcDbLayerTableRecord
  2
0
 70
     0
 62
     7
  6
Continuous
370
    -3
390
F
  0
LAYER
  5
6E
330
2
100
AcDbSymbolTableRecord
100
AcDbLayerTableRecord
  2
Make2D$Visible$Curves
 70
     0
 62
    18
420
        0
  6
Continuous
370
    -3
390
F
  0
ENDTAB
  0
TABLE
  2
STYLE
  5
3
330
0
100
AcDbSymbolTable
 70
     1
  0
STYLE
  5
11
330
3
100
AcDbSymbolTableRecord
100
AcDbTextStyleTableRecord
  2
Standard
 70
     0
 40
0.0
 41
1.0
 50
0.0
 71
     0
 42
0.2
  3
txt
  4

  0
ENDTAB
  0
TABLE
  2
VIEW
  5
6
330
0
100
AcDbSymbolTable
 70
     0
  0
ENDTAB
  0
TABLE
  2
UCS
  5
7
330
0
100
AcDbSymbolTable
 70
     0
  0
ENDTAB
  0
TABLE
  2
APPID
  5
9
330
0
100
AcDbSymbolTable
 70
     2
  0
APPID
  5
12
330
9
100
AcDbSymbolTableRecord
100
AcDbRegAppTableRecord
  2
ACAD
 70
     0
  0
APPID
  5
3A3
330
9
100
AcDbSymbolTableRecord
100
AcDbRegAppTableRecord
  2
ACAD_MLEADERVER
 70
     0
  0
ENDTAB
  0
TABLE
  2
DIMSTYLE
  5
A
330
0
100
AcDbSymbolTable
 70
     1
100
AcDbDimStyleTable
  0
DIMSTYLE
105
27
330
A
100
AcDbSymbolTableRecord
100
AcDbDimStyleTableRecord
  2
STANDARD_ACAD
 70
     0
178
     0
340
11
  0
ENDTAB
  0
TABLE
  2
BLOCK_RECORD
  5
1
330
0
100
AcDbSymbolTable
 70
     1
  0
BLOCK_RECORD
  5
1F
330
1
100
AcDbSymbolTableRecord
100
AcDbBlockTableRecord
  2
*Model_Space
340
22
  0
BLOCK_RECORD
  5
1B
330
1
100
AcDbSymbolTableRecord
100
AcDbBlockTableRecord
  2
*Paper_Space
340
1E
  0
BLOCK_RECORD
  5
23
330
1
100
AcDbSymbolTableRecord
100
AcDbBlockTableRecord
  2
*Paper_Space0
340
26
  0
ENDTAB
  0
ENDSEC
  0
SECTION
  2
BLOCKS
  0
BLOCK
  5
20
330
1F
100
AcDbEntity
  8
0
100
AcDbBlockBegin
  2
*Model_Space
 70
     0
 10
0.0
 20
0.0
 30
0.0
  3
*Model_Space
  1

  0
ENDBLK
  5
21
330
1F
100
AcDbEntity
  8
0
100
AcDbBlockEnd
  0
BLOCK
  5
1C
330
1B
100
AcDbEntity
 67
     1
  8
0
100
AcDbBlockBegin
  2
*Paper_Space
 70
     0
 10
0.0
 20
0.0
 30
0.0
  3
*Paper_Space
  1

  0
ENDBLK
  5
1D
330
1B
100
AcDbEntity
 67
     1
  8
0
100
AcDbBlockEnd
  0
BLOCK
  5
24
330
23
100
AcDbEntity
  8
0
100
AcDbBlockBegin
  2
*Paper_Space0
 70
     0
 10
0.0
 20
0.0
 30
0.0
  3
*Paper_Space0
  1

  0
ENDBLK
  5
25
330
23
100
AcDbEntity
  8
0
100
AcDbBlockEnd
  0
ENDSEC
  0
SECTION
  2
ENTITIES
  0
LINE
  5
6F
330
1F
100
AcDbEntity
  8
Make2D$Visible$Curves
 62
     9
420
 12500670
370
    -3
100
AcDbLine
 10
-697.9977840556039
 20
888.07963612143
 30
0.0
 11
-697.9977840556039
 21
888.0341306064201
 31
0.0
  0
LINE
  5
70
330
1F
100
AcDbEntity
  8
Make2D$Visible$Curves
 62
     9
420
 12500670
370
    -3
100
AcDbLine
 10
-706.8037532469139
 20
888.0796143063972
 30
0.0
 11
-706.8618770662856
 21
888.07963612143
 31
0.0
  0
LINE
  5
71
330
1F
100
AcDbEntity
  8
Make2D$Visible$Curves
 62
     9
420
 12500670
370
    -3
100
AcDbLine
 10
-708.1298305609444
 20
889.9030709160465
 30
0.0
 11
-708.1298305609444
 21
889.8986204586413
 31
0.0
  0
LINE
  5
72
330
1F
100
AcDbEntity
  8
Make2D$Visible$Curves
 62
     9
420
 12500670
370
    -3
100
AcDbLine
 10
-708.4298305609445
 20
889.9195844553662
 30
0.0
 11
-708.4298305609445
 21
889.9042210960483
 31
0.0
  0
LINE
  5
73
330
1F
100
AcDbEntity
  8
Make2D$Visible$Curves
 62
     9
420
 12500670
370
    -3
100
AcDbLine
 10
-696.4298305609445
 20
889.9042210960481
 30
0.0
 11
-696.4298305609445
 21
889.919584455366
 31
0.0
  0
LINE
  5
74
330
1F
100
AcDbEntity
  8
Make2D$Visible$Curves
 62
     9
420
 12500670
370
    -3
100
AcDbLine
 10
-696.7298305609447
 20
889.8986204586413
 30
0.0
 11
-696.7298305609447
 21
889.9030709160465
 31
0.0
  0
LINE
  5
75
330
1F
100
AcDbEntity
  8
Make2D$Visible$Curves
 62
     9
420
 12500670
370
    -3
100
AcDbLine
 10
-696.4298305609445
 20
889.8911039584327
 30
0.0
 11
-696.4298305609445
 21
889.8974702786397
 31
0.0
  0
LINE
  5
76
330
1F
100
AcDbEntity
  8
Make2D$Visible$Curves
 62
     9
420
 12500670
370
    -3
100
AcDbLine
 10
-696.7298305609447
 20
889.8855033210257
 30
0.0
 11
-696.7298305609447
 21
889.8899537784309
 31
0.0
  0
LINE
  5
77
330
1F
100
AcDbEntity
  8
Make2D$Visible$Curves
 62
     9
420
 12500670
370
    -3
100
AcDbLine
 10
-708.4298305609445
 20
889.8843531410243
 30
0.0
 11
-708.4298305609445
 21
889.8689897817062
 31
0.0
  0
LINE
  5
78
330
1F
100
AcDbEntity
  8
Make2D$Visible$Curves
 62
     9
420
 12500670
370
    -3
100
AcDbLine
 10
-708.1298305609444
 20
889.8855033210257
 30
0.0
 11
-707.9423335952347
 21
889.8854191453374
 31
0.0
  0
LINE
  5
79
330
1F
100
AcDbEntity
  8
Make2D$Visible$Curves
 62
     9
420
 12500670
370
    -3
100
AcDbLine
 10
-708.1298305609444
 20
889.8899537784312
 30
0.0
 11
-708.1298305609444
 21
889.8855033210257
 31
0.0
  0
LINE
  5
7A
330
1F
100
AcDbEntity
  8
Make2D$Visible$Curves
 62
     9
420
 12500670
370
    -3
100
AcDbLine
 10
-708.4298305609445
 20
889.89747027864
 30
0.0
 11
-708.4298305609445
 21
889.8911039584327
 31
0.0
  0
LINE
  5
7B
330
1F
100
AcDbEntity
  8
Make2D$Visible$Curves
 62
     9
420
 12500670
370
    -3
100
AcDbLine
 10
-708.8298305609446
 20
889.8691068990065
 30
0.0
 11
-708.8298305609446
 21
889.9194673380662
 31
0.0
  0
LINE
  5
7C
330
1F
100
AcDbEntity
  8
Make2D$Visible$Curves
 62
     9
420
 12500670
370
    -3
100
AcDbLine
 10
-696.0298305609444
 20
889.9194673380659
 30
0.0
 11
-696.0298305609444
 21
889.8691068990063
 31
0.0
  0
LINE
  5
7D
330
1F
100
AcDbEntity
  8
Make2D$Visible$Curves
 62
     9
420
 12500670
370
    -3
100
AcDbLine
 10
-708.8298305609446
 20
891.419466309331
 30
0.0
 11
-708.8298305609446
 21
889.9194673380662
 31
0.0
  0
LINE
  5
7E
330
1F
100
AcDbEntity
  8
Make2D$Visible$Curves
 62
     9
420
 12500670
370
    -3
100
AcDbLine
 10
-696.0298305609444
 20
889.9194673380659
 30
0.0
 11
-696.0298305609444
 21
891.419466309331
 31
0.0
  0
LINE
  5
7F
330
1F
100
AcDbEntity
  8
Make2D$Visible$Curves
 62
     9
420
 12500670
370
    -3
100
AcDbLine
 10
-696.4298305609445
 20
889.919584455366
 30
0.0
 11
-697.2298303423385
 21
889.9207319658154
 31
0.0
  0
LINE
  5
80
330
1F
100
AcDbEntity
  8
Make2D$Visible$Curves
 62
     9
420
 12500670
370
    -3
100
AcDbLine
 10
-708.4298305609445
 20
889.8689897817062
 30
0.0
 11
-707.8670273658113
 21
889.8679364686902
 31
0.0
  0
ARC
  5
81
330
1F
100
AcDbEntity
  8
Make2D$Visible$Curves
 62
     9
420
 12500670
370
    -3
100
AcDbCircle
 10
-707.3344265657007
 20
891.4175369822954
 30
0.0
 40
1.495802594260592
100
AcDbArc
 50
104.8608683823279
 51
170.9900457875291
  0
LINE
  5
82
330
1F
100
AcDbEntity
  8
Make2D$Visible$Curves
 62
     9
420
 12500670
370
    -3
100
AcDbLine
 10
-708.8117726727378
 20
891.6517887293949
 30
0.0
 11
-708.7787193003783
 21
891.6101239645805
 31
0.0
  0
LINE
  5
83
330
1F
100
AcDbEntity
  8
Make2D$Visible$Curves
 62
     9
420
 12500670
370
    -3
100
AcDbLine
 10
-696.0809418215108
 20
891.6101239645805
 30
0.0
 11
-696.0478884491513
 21
891.6517887293949
 31
0.0
  0
ARC
  5
84
330
1F
100
AcDbEntity
  8
Make2D$Visible$Curves
 62
     9
420
 12500670
370
    -3
100
AcDbCircle
 10
-697.5252345561872
 20
891.4175369822963
 30
0.0
 40
1.495802594259348
100
AcDbArc
 50
9.00995421244335
 51
75.13913161770833
  0
LINE
  5
85
330
1F
100
AcDbEntity
  8
Make2D$Visible$Curves
 62
     9
420
 12500670
370
    -3
100
AcDbLine
 10
-697.5298305609444
 20
890.162538295514
 30
0.0
 11
-696.0809418215108
 21
891.6101239645805
 31
0.0
  0
LINE
  5
86
330
1F
100
AcDbEntity
  8
Make2D$Visible$Curves
 62
     9
420
 12500670
370
    -3
100
AcDbLine
 10
-708.7787193003783
 20
891.6101239645805
 30
0.0
 11
-707.3298305609446
 21
890.162538295514
 31
0.0
  0
LINE
  5
87
330
1F
100
AcDbEntity
  8
Make2D$Visible$Curves
 62
     9
420
 12500670
370
    -3
100
AcDbLine
 10
-708.8117726727378
 20
891.6517887293949
 30
0.0
 11
-708.8298305609446
 21
891.419466309331
 31
0.0
  0
LINE
  5
88
330
1F
100
AcDbEntity
  8
Make2D$Visible$Curves
 62
     9
420
 12500670
370
    -3
100
AcDbLine
 10
-696.0298305609444
 20
891.419466309331
 30
0.0
 11
-696.0478884491513
 21
891.6517887293949
 31
0.0
  0
ARC
  5
89
330
1F
100
AcDbEntity
  8
Make2D$Visible$Curves
 62
     9
420
 12500670
370
    -3
100
AcDbCircle
 10
-697.5280446463048
 20
891.4146418593978
 30
0.0
 40
1.499322889934234
100
AcDbArc
 50
75.06371247495085
 51
90.00111410483164
  0
LINE
  5
8A
330
1F
100
AcDbEntity
  8
Make2D$Visible$Curves
 62
     9
420
 12500670
370
    -3
100
AcDbLine
 10
-696.0298305609444
 20
889.8691068990063
 30
0.0
 11
-696.9924317435241
 21
889.8674667539001
 31
0.0
  0
LINE
  5
8B
330
1F
100
AcDbEntity
  8
Make2D$Visible$Curves
 62
     9
420
 12500670
370
    -3
100
AcDbLine
 10
-707.0298305609444
 20
888.90318871917
 30
0.0
 11
-707.0298305609444
 21
888.603188924917
 31
0.0
  0
LINE
  5
8C
330
1F
100
AcDbEntity
  8
Make2D$Visible$Curves
 62
     9
420
 12500670
370
    -3
100
AcDbLine
 10
-706.8618770662856
 20
888.07963612143
 30
0.0
 11
-706.8618770662856
 21
888.4764971440572
 31
0.0
  0
LINE
  5
8D
330
1F
100
AcDbEntity
  8
Make2D$Visible$Curves
 62
     9
420
 12500670
370
    -3
100
AcDbLine
 10
-706.1298305609444
 20
887.8317877211812
 30
0.0
 11
-706.1298305609444
 21
887.708116490177
 31
0.0
  0
LINE
  5
8E
330
1F
100
AcDbEntity
  8
Make2D$Visible$Curves
 62
     9
420
 12500670
370
    -3
100
AcDbLine
 10
-706.1717067415725
 20
887.9132563147614
 30
0.0
 11
-706.1934669245811
 21
887.9250552609612
 31
0.0
  0
ARC
  5
8F
330
1F
100
AcDbEntity
  8
Make2D$Visible$Curves
 62
     9
420
 12500670
370
    -3
100
AcDbCircle
 10
705.8286929548607
 20
888.8574334230995
 30
0.0
 40
1.001193830493288
210
0.0
220
0.0
230
-1.0
100
AcDbArc
 50
291.3669099591093
 51
329.329023494184
  0
LINE
  5
90
330
1F
100
AcDbEntity
  8
Make2D$Visible$Curves
 62
     9
420
 12500670
370
    -3
100
AcDbLine
 10
-706.8037532469134
 20
888.486997518457
 30
0.0
 11
-706.8037532469134
 21
888.0796143063972
 31
0.0
  0
ARC
  5
91
330
1F
100
AcDbEntity
  8
Make2D$Visible$Curves
 62
     9
420
 12500670
370
    -3
100
AcDbCircle
 10
-705.8309673071359
 20
888.8521395394718
 30
0.0
 40
0.9988074923256667
100
AcDbArc
 50
210.6959140774677
 51
248.719604607213
  0
ARC
  5
92
330
1F
100
AcDbEntity
  8
Make2D$Visible$Curves
 62
     9
420
 12500670
370
    -3
100
AcDbCircle
 10
706.0724746486273
 20
888.5988787580711
 30
0.0
 40
0.8997394348350185
210
0.0
220
0.0
230
-1.0
100
AcDbArc
 50
276.3320222138495
 51
276.3489768371115
  0
ARC
  5
93
330
1F
100
AcDbEntity
  8
Make2D$Visible$Curves
 62
     9
420
 12500670
370
    -3
100
AcDbCircle
 10
708.1298305615638
 20
888.903068156731
 30
0.0
 40
1.000002759315521
210
0.0
220
0.0
230
-1.0
100
AcDbArc
 50
90.00000003549347
 51
90.04193948483777
  0
LINE
  5
94
330
1F
100
AcDbEntity
  8
Make2D$Visible$Curves
 62
     9
420
 12500670
370
    -3
100
AcDbLine
 10
-706.1934669245811
 20
887.9214352716842
 30
0.0
 11
-706.1934669245811
 21
887.9250552609612
 31
0.0
  0
ARC
  5
95
330
1F
100
AcDbEntity
  8
Make2D$Visible$Curves
 62
     9
420
 12500670
370
    -3
100
AcDbCircle
 10
-706.1307558243418
 20
888.5983200105632
 30
0.0
 40
0.9990719184228227
100
AcDbArc
 50
215.588806417593
 51
263.6680704627777
  0
ARC
  5
96
330
1F
100
AcDbEntity
  8
Make2D$Visible$Curves
 62
     9
420
 12500670
370
    -3
100
AcDbCircle
 10
706.1298316846754
 20
888.6030718496418
 30
0.0
 40
0.9999988783351468
210
0.0
220
0.0
230
-1.0
100
AcDbArc
 50
324.4279656906044
 51
356.5831113046667
  0
LINE
  5
97
330
1F
100
AcDbEntity
  8
Make2D$Visible$Curves
 62
     9
420
 12500670
370
    -3
100
AcDbLine
 10
-707.1298305609446
 20
888.9030716018701
 30
0.0
 11
-707.0298305609444
 21
888.9031887191702
 31
0.0
  0
LINE
  5
98
330
1F
100
AcDbEntity
  8
Make2D$Visible$Curves
 62
     9
420
 12500670
370
    -3
100
AcDbLine
 10
-707.1298305609446
 20
888.603071807617
 30
0.0
 11
-707.0298305609444
 21
888.603188924917
 31
0.0
  0
LINE
  5
99
330
1F
100
AcDbEntity
  8
Make2D$Visible$Curves
 62
     9
420
 12500670
370
    -3
100
AcDbLine
 10
-706.8618770662856
 20
888.4764971440572
 30
0.0
 11
-706.8037532469134
 21
888.486997518457
 31
0.0
  0
ARC
  5
9A
330
1F
100
AcDbEntity
  8
Make2D$Visible$Curves
 62
     9
420
 12500670
370
    -3
100
AcDbCircle
 10
-706.2299836843675
 20
887.8318042040363
 30
0.0
 40
0.1001531247795291
100
AcDbArc
 50
359.9905704585888
 51
54.41723000712402
  0
LINE
  5
9B
330
1F
100
AcDbEntity
  8
Make2D$Visible$Curves
 62
     9
420
 12500670
370
    -3
100
AcDbLine
 10
-706.171706741573
 20
887.7082117924442
 30
0.0
 11
-706.1298305609448
 21
887.708116490177
 31
0.0
  0
LINE
  5
9C
330
1F
100
AcDbEntity
  8
Make2D$Visible$Curves
 62
     9
420
 12500670
370
    -3
100
AcDbLine
 10
-706.2409416720559
 20
887.6053427816476
 30
0.0
 11
-706.2298305609447
 21
887.6059084095621
 31
0.0
  0
LINE
  5
9D
330
1F
100
AcDbEntity
  8
Make2D$Visible$Curves
 62
     9
420
 12500670
370
    -3
100
AcDbLine
 10
-698.0298305609444
 20
888.8570108348763
 30
0.0
 11
-698.0298305609444
 21
889.203071396123
 31
0.0
  0
LINE
  5
9E
330
1F
100
AcDbEntity
  8
Make2D$Visible$Curves
 62
     9
420
 12500670
370
    -3
100
AcDbLine
 10
-697.9977840556039
 20
888.07963612143
 30
0.0
 11
-697.9977840556039
 21
888.4764971440572
 31
0.0
  0
LINE
  5
9F
330
1F
100
AcDbEntity
  8
Make2D$Visible$Curves
 62
     9
420
 12500670
370
    -3
100
AcDbLine
 10
-697.8298305609446
 20
888.90318871917
 30
0.0
 11
-697.8298305609446
 21
888.603188924917
 31
0.0
  0
LINE
  5
A0
330
1F
100
AcDbEntity
  8
Make2D$Visible$Curves
 62
     9
420
 12500670
370
    -3
100
AcDbLine
 10
-698.7298305609447
 20
887.8317877211812
 30
0.0
 11
-698.7298305609447
 21
887.708116490177
 31
0.0
  0
ARC
  5
A1
330
1F
100
AcDbEntity
  8
Make2D$Visible$Curves
 62
     9
420
 12500670
370
    -3
100
AcDbCircle
 10
-699.0309681670194
 20
888.8574334230882
 30
0.0
 40
1.001193830479369
100
AcDbArc
 50
291.3669099588411
 51
329.3290234944625
  0
LINE
  5
A2
330
1F
100
AcDbEntity
  8
Make2D$Visible$Curves
 62
     9
420
 12500670
370
    -3
100
AcDbLine
 10
-698.6879543803166
 20
887.9132563147614
 30
0.0
 11
-698.6661941973084
 21
887.9250552609612
 31
0.0
  0
LINE
  5
A3
330
1F
100
AcDbEntity
  8
Make2D$Visible$Curves
 62
     9
420
 12500670
370
    -3
100
AcDbLine
 10
-698.0559078749757
 20
888.4869975184567
 30
0.0
 11
-698.0559078749757
 21
888.0796143063972
 31
0.0
  0
ARC
  5
A4
330
1F
100
AcDbEntity
  8
Make2D$Visible$Curves
 62
     9
420
 12500670
370
    -3
100
AcDbCircle
 10
697.8467796621514
 20
888.2007641094544
 30
0.0
 40
0.354491429837307
210
0.0
220
0.0
230
-1.0
100
AcDbArc
 50
24.31325314328848
 51
53.84734180309361
  0
ARC
  5
A5
330
1F
100
AcDbEntity
  8
Make2D$Visible$Curves
 62
     9
420
 12500670
370
    -3
100
AcDbCircle
 10
696.7298319310978
 20
888.9030716018623
 30
0.0
 40
0.9999986298469139
210
0.0
220
0.0
230
-1.0
100
AcDbArc
 50
0.0000000004364236
 51
3.416887133701543
  0
ARC
  5
A6
330
1F
100
AcDbEntity
  8
Make2D$Visible$Curves
 62
     9
420
 12500670
370
    -3
100
AcDbCircle
 10
697.029831682053
 20
889.2030713602953
 30
0.0
 40
0.9999988788914613
210
0.0
220
0.0
230
-1.0
100
AcDbArc
 50
0.0000020527797212
 51
38.24664215090488
  0
ARC
  5
A7
330
1F
100
AcDbEntity
  8
Make2D$Visible$Curves
 62
     9
420
 12500670
370
    -3
100
AcDbCircle
 10
699.029829354335
 20
888.8570108538128
 30
0.0
 40
0.9999987933905461
210
0.0
220
0.0
230
-1.0
100
AcDbArc
 50
180.0000010849814
 51
210.6834360759311
  0
ARC
  5
A8
330
1F
100
AcDbEntity
  8
Make2D$Visible$Curves
 62
     9
420
 12500670
370
    -3
100
AcDbCircle
 10
-698.7289052975477
 20
888.5983200105635
 30
0.0
 40
0.999071918423352
100
AcDbArc
 50
276.3319295372453
 51
324.4111935824116
  0
ARC
  5
A9
330
1F
100
AcDbEntity
  8
Make2D$Visible$Curves
 62
     9
420
 12500670
370
    -3
100
AcDbCircle
 10
698.7298291918097
 20
888.6030718076588
 30
0.0
 40
0.9999986308649795
210
0.0
220
0.0
230
-1.0
100
AcDbArc
 50
180.0000000023971
 51
183.4168871321829
  0
LINE
  5
AA
330
1F
100
AcDbEntity
  8
Make2D$Visible$Curves
 62
     9
420
 12500670
370
    -3
100
AcDbLine
 10
-697.6523255408438
 20
889.8531880676378
 30
0.0
 11
-697.8151840134433
 21
889.8221185906132
 31
0.0
  0
LINE
  5
AB
330
1F
100
AcDbEntity
  8
Make2D$Visible$Curves
 62
     9
420
 12500670
370
    -3
100
AcDbLine
 10
-697.8298305609446
 20
888.90318871917
 30
0.0
 11
-697.7298305609447
 21
888.9030716018699
 31
0.0
  0
LINE
  5
AC
330
1F
100
AcDbEntity
  8
Make2D$Visible$Curves
 62
     9
420
 12500670
370
    -3
100
AcDbLine
 10
-697.8298305609446
 20
888.603188924917
 30
0.0
 11
-697.7298305609447
 21
888.603071807617
 31
0.0
  0
LINE
  5
AD
330
1F
100
AcDbEntity
  8
Make2D$Visible$Curves
 62
     9
420
 12500670
370
    -3
100
AcDbLine
 10
-698.0559078749757
 20
888.4869975184567
 30
0.0
 11
-697.9977840556039
 21
888.4764971440572
 31
0.0
  0
LINE
  5
AE
330
1F
100
AcDbEntity
  8
Make2D$Visible$Curves
 62
     9
420
 12500670
370
    -3
100
AcDbLine
 10
-698.7298305609445
 20
887.708116490177
 30
0.0
 11
-698.6879543803163
 21
887.7082117924442
 31
0.0
  0
ARC
  5
AF
330
1F
100
AcDbEntity
  8
Make2D$Visible$Curves
 62
     9
420
 12500670
370
    -3
100
AcDbCircle
 10
-698.6296774375235
 20
887.8318042040373
 30
0.0
 40
0.1001531247775846
100
AcDbArc
 50
125.5827699923174
 51
180.0094295419967
  0
LINE
  5
B0
330
1F
100
AcDbEntity
  8
Make2D$Visible$Curves
 62
     9
420
 12500670
370
    -3
100
AcDbLine
 10
-698.0559078749759
 20
888.0796143063972
 30
0.0
 11
-697.9977840556039
 21
888.0341306064201
 31
0.0
  0
LINE
  5
B1
330
1F
100
AcDbEntity
  8
Make2D$Visible$Curves
 62
     9
420
 12500670
370
    -3
100
AcDbLine
 10
-698.6298305609444
 20
887.6059084095621
 30
0.0
 11
-698.6187194498334
 21
887.6053427816476
 31
0.0
  0
ARC
  5
B2
330
1F
100
AcDbEntity
  8
Make2D$Visible$Curves
 62
     9
420
 12500670
370
    -3
100
AcDbCircle
 10
-698.5835875059614
 20
887.6996060428997
 30
0.0
 40
0.104487638633645
100
AcDbArc
 50
177.2450339158045
 51
243.7320514272125
  0
LINE
  5
B3
330
1F
100
AcDbEntity
  8
Make2D$Visible$Curves
 62
     9
420
 12500670
370
    -3
100
AcDbLine
 10
-697.9977840556039
 20
888.0294715564032
 30
0.0
 11
-698.0559078749759
 21
888.0749732444574
 31
0.0
  0
LINE
  5
B4
330
1F
100
AcDbEntity
  8
Make2D$Visible$Curves
 62
     9
420
 12500670
370
    -3
100
AcDbLine
 10
-707.2458929168752
 20
889.9029120297391
 30
0.0
 11
-707.2073355810453
 21
889.8870209723043
 31
0.0
  0
LINE
  5
B5
330
1F
100
AcDbEntity
  8
Make2D$Visible$Curves
 62
     9
420
 12500670
370
    -3
100
AcDbLine
 10
-697.6523255408426
 20
889.8870209723068
 30
0.0
 11
-697.6836786823582
 21
889.9212240975678
 31
0.0
  0
LINE
  5
B6
330
1F
100
AcDbEntity
  8
Make2D$Visible$Curves
 62
     9
420
 12500670
370
    -3
100
AcDbLine
 10
-697.7806580330885
 20
889.8635979087003
 30
0.0
 11
-697.7986197277548
 21
889.8425900765533
 31
0.0
  0
LINE
  5
B7
330
1F
100
AcDbEntity
  8
Make2D$Visible$Curves
 62
     9
420
 12500670
370
    -3
100
AcDbLine
 10
-697.7852352586729
 20
889.8382480979358
 30
0.0
 11
-697.7534829150563
 21
889.8500719164281
 31
0.0
  0
LINE
  5
B8
330
1F
100
AcDbEntity
  8
Make2D$Visible$Curves
 62
     9
420
 12500670
370
    -3
100
AcDbLine
 10
-697.6523255408424
 20
889.8870209723068
 30
0.0
 11
-697.612925750429
 21
889.9032465919968
 31
0.0
  0
ARC
  5
B9
330
1F
100
AcDbEntity
  8
Make2D$Visible$Curves
 62
     9
420
 12500670
370
    -3
100
AcDbCircle
 10
-707.3316164755861
 20
891.4146418594157
 30
0.0
 40
1.499322889916383
100
AcDbArc
 50
89.99888589510753
 51
104.9362875251589
  0
LINE
  5
BA
330
1F
100
AcDbEntity
  8
Make2D$Visible$Curves
 62
     9
420
 12500670
370
    -3
100
AcDbLine
 10
-696.4299037592374
 20
889.8843530992314
 30
0.0
 11
-696.7298312421866
 21
889.8845726410883
 31
0.0
  0
LINE
  5
BB
330
1F
100
AcDbEntity
  8
Make2D$Visible$Curves
 62
     9
420
 12500670
370
    -3
100
AcDbLine
 10
-707.060996335616
 20
889.8424889209664
 30
0.0
 11
-707.0451008573491
 21
889.8229097457875
 31
0.0
  0
ARC
  5
BC
330
1F
100
AcDbEntity
  8
Make2D$Visible$Curves
 62
     9
420
 12500670
370
    -3
100
AcDbCircle
 10
707.8298294398354
 20
889.2030713602953
 30
0.0
 40
0.9999988788906669
210
0.0
220
0.0
230
-1.0
100
AcDbArc
 50
141.7533578490497
 51
179.9999979472203
  0
ARC
  5
BD
330
1F
100
AcDbEntity
  8
Make2D$Visible$Curves
 62
     9
420
 12500670
370
    -3
100
AcDbCircle
 10
708.129829191547
 20
888.9030716018359
 30
0.0
 40
0.9999986306025901
210
0.0
220
0.0
230
-1.0
100
AcDbArc
 50
176.5831128673697
 51
179.9999999980524
  0
ARC
  5
BE
330
1F
100
AcDbEntity
  8
Make2D$Visible$Curves
 62
     9
420
 12500670
370
    -3
100
AcDbCircle
 10
706.129831931337
 20
888.6030718076175
 30
0.0
 40
0.9999986296073796
210
0.0
220
0.0
230
-1.0
100
AcDbArc
 50
356.5831128658837
 51
359.9999999999674
  0
ARC
  5
BF
330
1F
100
AcDbEntity
  8
Make2D$Visible$Curves
 62
     9
420
 12500670
370
    -3
100
AcDbCircle
 10
698.729829437216
 20
888.6030718496424
 30
0.0
 40
0.9999988783373133
210
0.0
220
0.0
230
-1.0
100
AcDbArc
 50
183.416888695365
 51
215.5720343093553
  0
LINE
  5
C0
330
1F
100
AcDbEntity
  8
Make2D$Visible$Curves
 62
     9
420
 12500670
370
    -3
100
AcDbLine
 10
-696.8245307772866
 20
889.8985767548859
 30
0.0
 11
-696.7298305609447
 21
889.8986204586413
 31
0.0
  0
LINE
  5
C1
330
1F
100
AcDbEntity
  8
Make2D$Visible$Curves
 62
     9
420
 12500670
370
    -3
100
AcDbLine
 10
-696.9168910705928
 20
889.88541932255
 30
0.0
 11
-696.7298305609447
 21
889.8855033210257
 31
0.0
  0
LINE
  5
C2
330
1F
100
AcDbEntity
  8
Make2D$Visible$Curves
 62
     9
420
 12500670
370
    -3
100
AcDbLine
 10
-697.7044498764371
 20
889.867818608705
 30
0.0
 11
-697.6523255408433
 21
889.867818608705
 31
0.0
  0
LINE
  5
C3
330
1F
100
AcDbEntity
  8
Make2D$Visible$Curves
 62
     9
420
 12500670
370
    -3
100
AcDbLine
 10
-707.2070598802768
 20
889.867818608705
 30
0.0
 11
-707.1551840621562
 21
889.867818608705
 31
0.0
  0
LINE
  5
C4
330
1F
100
AcDbEntity
  8
Make2D$Visible$Curves
 62
     9
420
 12500670
370
    -3
100
AcDbLine
 10
-708.429830560945
 20
889.9206617048636
 30
0.0
 11
-708.4298305609449
 21
889.9195844553662
 31
0.0
  0
LINE
  5
C5
330
1F
100
AcDbEntity
  8
Make2D$Visible$Curves
 62
     9
420
 12500670
370
    -3
100
AcDbLine
 10
-707.6293113706722
 20
889.9207320898201
 30
0.0
 11
-708.4298305609445
 21
889.9195844553662
 31
0.0
  0
LINE
  5
C6
330
1F
100
AcDbEntity
  8
Make2D$Visible$Curves
 62
     9
420
 12500670
370
    -3
100
AcDbLine
 10
-696.9925638993844
 20
889.8679365084654
 30
0.0
 11
-696.4298305609445
 21
889.8689897817062
 31
0.0
  0
LINE
  5
C7
330
1F
100
AcDbEntity
  8
Make2D$Visible$Curves
 62
     9
420
 12500670
370
    -3
100
AcDbLine
 10
-707.2638412095232
 20
889.9212240975683
 30
0.0
 11
-707.2469418962405
 21
889.9033946156844
 31
0.0
  0
LINE
  5
C8
330
1F
100
AcDbEntity
  8
Make2D$Visible$Curves
 62
     9
420
 12500670
370
    -3
100
AcDbLine
 10
-697.6126810595933
 20
889.9034470019542
 30
0.0
 11
-697.5957628565898
 21
889.9212747839895
 31
0.0
  0
ARC
  5
C9
330
1F
100
AcDbEntity
  8
Make2D$Visible$Curves
 62
     9
420
 12500670
370
    -3
100
AcDbCircle
 10
-707.8298294420472
 20
889.1986209018623
 30
0.0
 40
0.999998881263902
100
AcDbArc
 50
0.2549931396742838
 51
38.24664211874627
  0
LINE
  5
CA
330
1F
100
AcDbEntity
  8
Make2D$Visible$Curves
 62
     9
420
 12500670
370
    -3
100
AcDbLine
 10
-707.1385989910475
 20
889.9211825277864
 30
0.0
 11
-707.0958684442026
 21
889.8777646075343
 31
0.0
  0
LINE
  5
CB
330
1F
100
AcDbEntity
  8
Make2D$Visible$Curves
 62
     9
420
 12500670
370
    -3
100
AcDbLine
 10
-707.1696992789275
 20
889.9496851545914
 30
0.0
 11
-707.1385989910475
 21
889.9211825277864
 31
0.0
  0
LINE
  5
CC
330
1F
100
AcDbEntity
  8
Make2D$Visible$Curves
 62
     9
420
 12500670
370
    -3
100
AcDbLine
 10
-708.1298298797724
 20
889.8976898740761
 30
0.0
 11
-708.4298305609445
 21
889.89747027864
 31
0.0
  0
LINE
  5
CD
330
1F
100
AcDbEntity
  8
Make2D$Visible$Curves
 62
     9
420
 12500670
370
    -3
100
AcDbLine
 10
-708.128895188697
 20
889.9040008164338
 30
0.0
 11
-707.2467353714601
 21
889.9033550903332
 31
0.0
  0
LINE
  5
CE
330
1F
100
AcDbEntity
  8
Make2D$Visible$Curves
 62
     9
420
 12500670
370
    -3
100
AcDbLine
 10
-706.9355504835
 20
888.0111075701341
 30
0.0
 11
-706.9432155668792
 21
888.0168960130038
 31
0.0
  0
LINE
  5
CF
330
1F
100
AcDbEntity
  8
Make2D$Visible$Curves
 62
     9
420
 12500670
370
    -3
100
AcDbLine
 10
-697.7257262065116
 20
889.9212623797293
 30
0.0
 11
-697.7637926776847
 21
889.8822928996731
 31
0.0
  0
LINE
  5
D0
330
1F
100
AcDbEntity
  8
Make2D$Visible$Curves
 62
     9
420
 12500670
370
    -3
100
AcDbLine
 10
-696.729639696297
 20
889.9040016408201
 30
0.0
 11
-696.4298305609445
 21
889.9042210960481
 31
0.0
  0
ARC
  5
D1
330
1F
100
AcDbEntity
  8
Make2D$Visible$Curves
 62
     9
420
 12500670
370
    -3
100
AcDbCircle
 10
707.2458041843679
 20
889.9578123516055
 30
0.0
 40
0.0788275102468357
210
0.0
220
0.0
230
-1.0
100
AcDbArc
 50
207.5171569852745
 51
207.5953620113172
  0
LINE
  5
D2
330
1F
100
AcDbEntity
  8
Make2D$Visible$Curves
 62
     9
420
 12500670
370
    -3
100
AcDbLine
 10
-707.1339060569619
 20
889.9212240975601
 30
0.0
 11
-707.1062340370495
 21
889.8933387825268
 31
0.0
  0
LINE
  5
D3
330
1F
100
AcDbEntity
  8
Make2D$Visible$Curves
 62
     9
420
 12500670
370
    -3
100
AcDbLine
 10
-707.0867364163059
 20
889.867818608705
 30
0.0
 11
-707.0825932080265
 21
889.867818608705
 31
0.0
  0
LINE
  5
D4
330
1F
100
AcDbEntity
  8
Make2D$Visible$Curves
 62
     9
420
 12500670
370
    -3
100
AcDbLine
 10
-706.8298305609446
 20
888.8570108348765
 30
0.0
 11
-706.8298305609446
 21
889.203071396123
 31
0.0
  0
ARC
  5
D5
330
1F
100
AcDbEntity
  8
Make2D$Visible$Curves
 62
     9
420
 12500670
370
    -3
100
AcDbCircle
 10
-707.0120988214129
 20
888.2013996956205
 30
0.0
 40
0.353516611805514
100
AcDbArc
 50
24.27160294448237
 51
53.88899200159355
  0
ARC
  5
D6
330
1F
100
AcDbEntity
  8
Make2D$Visible$Curves
 62
     9
420
 12500670
370
    -3
100
AcDbCircle
 10
708.1298305539023
 20
888.9030702911477
 30
0.0
 40
1.000000624443417
210
0.0
220
0.0
230
-1.0
100
AcDbArc
 50
99.02076156577925
 51
100.7846900123102
  0
ARC
  5
D7
330
1F
100
AcDbEntity
  8
Make2D$Visible$Curves
 62
     9
420
 12500670
370
    -3
100
AcDbCircle
 10
-705.8298317675483
 20
888.8525603964088
 30
0.0
 40
0.9999987933963441
100
AcDbArc
 50
180.0000010850401
 51
210.6834360758143
  0
LINE
  5
D8
330
1F
100
AcDbEntity
  8
Make2D$Visible$Curves
 62
     9
420
 12500670
370
    -3
100
AcDbLine
 10
-707.0453035563505
 20
889.8222788999235
 30
0.0
 11
-707.0484365411949
 21
889.8228552371243
 31
0.0
  0
ARC
  5
D9
330
1F
100
AcDbEntity
  8
Make2D$Visible$Curves
 62
     9
420
 12500670
370
    -3
100
AcDbCircle
 10
-706.2760736159281
 20
887.6996060428999
 30
0.0
 40
0.1044876386339615
100
AcDbArc
 50
296.2679485729836
 51
2.75496608412426
  0
LINE
  5
DA
330
1F
100
AcDbEntity
  8
Make2D$Visible$Curves
 62
     9
420
 12500670
370
    -3
100
AcDbLine
 10
-697.923467165953
 20
888.0113787243197
 30
0.0
 11
-697.9164455550106
 21
888.0168960130038
 31
0.0
  0
LINE
  5
DB
330
1F
100
AcDbEntity
  8
Make2D$Visible$Curves
 62
     9
420
 12500670
370
    -3
100
AcDbLine
 10
-707.1104295199029
 20
889.8516142053331
 30
0.0
 11
-707.0537155541806
 21
889.8292011059607
 31
0.0
  0
LINE
  5
DC
330
1F
100
AcDbEntity
  8
Make2D$Visible$Curves
 62
     9
420
 12500670
370
    -3
100
AcDbLine
 10
-697.8151840134433
 20
889.8221185906132
 30
0.0
 11
-697.7852352586729
 21
889.8382480979358
 31
0.0
  0
LINE
  5
DD
330
1F
100
AcDbEntity
  8
Make2D$Visible$Curves
 62
     9
420
 12500670
370
    -3
100
AcDbLine
 10
-697.7986197277548
 20
889.8425900765533
 30
0.0
 11
-697.8151823990252
 21
889.8221206408523
 31
0.0
  0
LINE
  5
DE
330
1F
100
AcDbEntity
  8
Make2D$Visible$Curves
 62
     9
420
 12500670
370
    -3
100
AcDbLine
 10
-707.3315873226625
 20
892.9139647490485
 30
0.0
 11
-697.5280737992268
 21
892.9139647490488
 31
0.0
  0
ARC
  5
DF
330
1F
100
AcDbEntity
  8
Make2D$Visible$Curves
 62
     9
420
 12500670
370
    -3
100
AcDbCircle
 10
705.8298317656538
 20
888.8570108545044
 30
0.0
 40
0.9999987953778443
210
0.0
220
0.0
230
-1.0
100
AcDbArc
 50
329.3165639455648
 51
359.74196649483
  0
LINE
  5
E0
330
1F
100
AcDbEntity
  8
Make2D$Visible$Curves
 62
     9
420
 12500670
370
    -3
100
AcDbLine
 10
-707.1062340370495
 20
889.8933387825268
 30
0.0
 11
-707.0827842512047
 21
889.867818608705
 31
0.0
  0
LINE
  5
E1
330
1F
100
AcDbEntity
  8
Make2D$Visible$Curves
 62
     9
420
 12500670
370
    -3
100
AcDbLine
 10
-654.58330498141
 20
887.5915997610209
 30
0.0
 11
-654.58330498141
 21
887.5931888525934
 31
0.0
  0
LINE
  5
E2
330
1F
100
AcDbEntity
  8
Make2D$Visible$Curves
 62
     9
420
 12500670
370
    -3
100
AcDbLine
 10
-654.58330498141
 20
887.5931888525934
 30
0.0
 11
-654.58330498141
 21
887.6107649118587
 31
0.0
  0
LINE
  5
E3
330
1F
100
AcDbEntity
  8
Make2D$Visible$Curves
 62
     9
420
 12500670
370
    -3
100
AcDbLine
 10
-654.58330498141
 20
887.6106688598898
 30
0.0
 11
-654.58330498141
 21
887.6162306803931
 31
0.0
  0
LINE
  5
E4
330
1F
100
AcDbEntity
  8
Make2D$Visible$Curves
 62
     9
420
 12500670
370
    -3
100
AcDbLine
 10
-654.58330498141
 20
887.6162306803931
 30
0.0
 11
-654.58330498141
 21
887.6333842877152
 31
0.0
  0
LINE
  5
E5
330
1F
100
AcDbEntity
  8
Make2D$Visible$Curves
 62
     9
420
 12500670
370
    -3
100
AcDbLine
 10
-654.58330498141
 20
887.6422892992246
 30
0.0
 11
-654.58330498141
 21
887.6627116088853
 31
0.0
  0
LINE
  5
E6
330
1F
100
AcDbEntity
  8
Make2D$Visible$Curves
 62
     9
420
 12500670
370
    -3
100
AcDbLine
 10
-654.58330498141
 20
887.6627116088853
 30
0.0
 11
-654.58330498141
 21
887.6652343573692
 31
0.0
  0
LINE
  5
E7
330
1F
100
AcDbEntity
  8
Make2D$Visible$Curves
 62
     9
420
 12500670
370
    -3
100
AcDbLine
 10
-654.58330498141
 20
887.6654925191369
 30
0.0
 11
-654.583304974682
 21
887.6817155540125
 31
0.0
  0
LINE
  5
E8
330
1F
100
AcDbEntity
  8
Make2D$Visible$Curves
 62
     9
420
 12500670
370
    -3
100
AcDbLine
 10
-654.583304974682
 20
887.6817155540125
 30
0.0
 11
-654.583304974682
 21
887.6924795660391
 31
0.0
  0
LINE
  5
E9
330
1F
100
AcDbEntity
  8
Make2D$Visible$Curves
 62
     9
420
 12500670
370
    -3
100
AcDbLine
 10
-654.58330498141
 20
887.7723589273801
 30
0.0
 11
-654.5833049814103
 21
887.7749253424629
 31
0.0
  0
LINE
  5
EA
330
1F
100
AcDbEntity
  8
Make2D$Visible$Curves
 62
     9
420
 12500670
370
    -3
100
AcDbLine
 10
-654.58330498141
 20
887.7751398376317
 30
0.0
 11
-654.5828345219029
 21
887.7751398376317
 31
0.0
  0
LINE
  5
EB
330
1F
100
AcDbEntity
  8
Make2D$Visible$Curves
 62
     9
420
 12500670
370
    -3
100
AcDbLine
 10
-628.1249716480766
 20
887.7751398376317
 30
0.0
 11
-628.1249716480766
 21
887.7690628038451
 31
0.0
  0
LINE
  5
EC
330
1F
100
AcDbEntity
  8
Make2D$Visible$Curves
 62
     9
420
 12500670
370
    -3
100
AcDbLine
 10
-642.3717665198715
 20
887.7701428895232
 30
0.0
 11
-642.3717665198715
 21
887.7723589273801
 31
0.0
  0
LINE
  5
ED
330
1F
100
AcDbEntity
  8
Make2D$Visible$Curves
 62
     9
420
 12500670
370
    -3
100
AcDbLine
 10
-654.58330498141
 20
887.7123707205224
 30
0.0
 11
-628.1249716480766
 21
887.7123707205224
 31
0.0
  0
LINE
  5
EE
330
1F
100
AcDbEntity
  8
Make2D$Visible$Curves
 62
     9
420
 12500670
370
    -3
100
AcDbLine
 10
-628.1249716480766
 20
887.7123707205224
 30
0.0
 11
-628.1249716480766
 21
887.7095898102707
 31
0.0
  0
LINE
  5
EF
330
1F
100
AcDbEntity
  8
Make2D$Visible$Curves
 62
     9
420
 12500670
370
    -3
100
AcDbLine
 10
-628.1249716480766
 20
887.7095898102707
 30
0.0
 11
-654.58330498141
 21
887.7095898102707
 31
0.0
  0
LINE
  5
F0
330
1F
100
AcDbEntity
  8
Make2D$Visible$Curves
 62
     9
420
 12500670
370
    -3
100
AcDbLine
 10
-654.5833049837447
 20
887.6929585796188
 30
0.0
 11
-650.2583851096151
 21
887.7006263406201
 31
0.0
  0
LINE
  5
F1
330
1F
100
AcDbEntity
  8
Make2D$Visible$Curves
 62
     9
420
 12500670
370
    -3
100
AcDbLine
 10
-644.4070229301278
 20
887.6746297956784
 30
0.0
 11
-644.4070229301278
 21
887.6849588908988
 31
0.0
  0
LINE
  5
F2
330
1F
100
AcDbEntity
  8
Make2D$Visible$Curves
 62
     9
420
 12500670
370
    -3
100
AcDbLine
 10
-644.4070229301278
 20
887.6849588908988
 30
0.0
 11
-641.693347716453
 21
887.6849588908988
 31
0.0
  0
LINE
  5
F3
330
1F
100
AcDbEntity
  8
Make2D$Visible$Curves
 62
     9
420
 12500670
370
    -3
100
AcDbLine
 10
-641.693347716453
 20
887.6849588908988
 30
0.0
 11
-641.693347716453
 21
887.6718488854265
 31
0.0
  0
LINE
  5
F4
330
1F
100
AcDbEntity
  8
Make2D$Visible$Curves
 62
     9
420
 12500670
370
    -3
100
AcDbLine
 10
-641.693347716453
 20
887.6718488854265
 30
0.0
 11
-654.583304974682
 21
887.6817155540125
 31
0.0
  0
LINE
  5
F5
330
1F
100
AcDbEntity
  8
Make2D$Visible$Curves
 62
     9
420
 12500670
370
    -3
100
AcDbLine
 10
-648.949248824893
 20
887.6444370558029
 30
0.0
 11
-628.1249716480766
 21
887.6444370558029
 31
0.0
  0
LINE
  5
F6
330
1F
100
AcDbEntity
  8
Make2D$Visible$Curves
 62
     9
420
 12500670
370
    -3
100
AcDbLine
 10
-628.1249716480766
 20
887.6444370558029
 30
0.0
 11
-628.1249716480766
 21
887.6416561455512
 31
0.0
  0
LINE
  5
F7
330
1F
100
AcDbEntity
  8
Make2D$Visible$Curves
 62
     9
420
 12500670
370
    -3
100
AcDbLine
 10
-628.1249716480766
 20
887.6416561455512
 30
0.0
 11
-654.58330498141
 21
887.6416561455512
 31
0.0
  0
LINE
  5
F8
330
1F
100
AcDbEntity
  8
Make2D$Visible$Curves
 62
     9
420
 12500670
370
    -3
100
AcDbLine
 10
-654.58330498141
 20
887.6337106876892
 30
0.0
 11
-628.1249716480766
 21
887.6337106876892
 31
0.0
  0
LINE
  5
F9
330
1F
100
AcDbEntity
  8
Make2D$Visible$Curves
 62
     9
420
 12500670
370
    -3
100
AcDbLine
 10
-628.1249716480766
 20
887.6337106876892
 30
0.0
 11
-628.1249716480766
 21
887.6162306803931
 31
0.0
  0
LINE
  5
FA
330
1F
100
AcDbEntity
  8
Make2D$Visible$Curves
 62
     9
420
 12500670
370
    -3
100
AcDbLine
 10
-628.1249716480766
 20
887.6162306803931
 30
0.0
 11
-630.8386468617518
 21
887.6162306803931
 31
0.0
  0
LINE
  5
FB
330
1F
100
AcDbEntity
  8
Make2D$Visible$Curves
 62
     9
420
 12500670
370
    -3
100
AcDbLine
 10
-630.8386468617518
 20
887.6162306803931
 30
0.0
 11
-630.8386468617518
 21
887.6309297774376
 31
0.0
  0
LINE
  5
FC
330
1F
100
AcDbEntity
  8
Make2D$Visible$Curves
 62
     9
420
 12500670
370
    -3
100
AcDbLine
 10
-630.8386468617518
 20
887.6309297774376
 30
0.0
 11
-638.9796725027777
 21
887.6309297774376
 31
0.0
  0
LINE
  5
FD
330
1F
100
AcDbEntity
  8
Make2D$Visible$Curves
 62
     9
420
 12500670
370
    -3
100
AcDbLine
 10
-638.9796725027777
 20
887.6309297774376
 30
0.0
 11
-638.9796725027777
 21
887.6162306803931
 31
0.0
  0
LINE
  5
FE
330
1F
100
AcDbEntity
  8
Make2D$Visible$Curves
 62
     9
420
 12500670
370
    -3
100
AcDbLine
 10
-638.9796725027777
 20
887.6162306803931
 30
0.0
 11
-641.693347716453
 21
887.6162306803931
 31
0.0
  0
LINE
  5
FF
330
1F
100
AcDbEntity
  8
Make2D$Visible$Curves
 62
     9
420
 12500670
370
    -3
100
AcDbLine
 10
-641.693347716453
 20
887.6162306803931
 30
0.0
 11
-641.693347716453
 21
887.6309297774376
 31
0.0
  0
LINE
  5
100
330
1F
100
AcDbEntity
  8
Make2D$Visible$Curves
 62
     9
420
 12500670
370
    -3
100
AcDbLine
 10
-641.693347716453
 20
887.6309297774376
 30
0.0
 11
-651.8696297677348
 21
887.6309297774376
 31
0.0
  0
LINE
  5
101
330
1F
100
AcDbEntity
  8
Make2D$Visible$Curves
 62
     9
420
 12500670
370
    -3
100
AcDbLine
 10
-651.8696297677348
 20
887.6309297774376
 30
0.0
 11
-651.8696297677348
 21
887.6162306803931
 31
0.0
  0
LINE
  5
102
330
1F
100
AcDbEntity
  8
Make2D$Visible$Curves
 62
     9
420
 12500670
370
    -3
100
AcDbLine
 10
-651.8696297677348
 20
887.6162306803931
 30
0.0
 11
-654.58330498141
 21
887.6162306803931
 31
0.0
  0
LINE
  5
103
330
1F
100
AcDbEntity
  8
Make2D$Visible$Curves
 62
     9
420
 12500670
370
    -3
100
AcDbLine
 10
-654.58330498141
 20
887.6106688598898
 30
0.0
 11
-628.1249716480766
 21
887.6106688598898
 31
0.0
  0
LINE
  5
104
330
1F
100
AcDbEntity
  8
Make2D$Visible$Curves
 62
     9
420
 12500670
370
    -3
100
AcDbLine
 10
-628.1249716480766
 20
887.6106688598898
 30
0.0
 11
-628.1249716480766
 21
887.5931888525934
 31
0.0
  0
LINE
  5
105
330
1F
100
AcDbEntity
  8
Make2D$Visible$Curves
 62
     9
420
 12500670
370
    -3
100
AcDbLine
 10
-628.1249716480766
 20
887.5931888525934
 30
0.0
 11
-630.8386468617518
 21
887.5931888525934
 31
0.0
  0
LINE
  5
106
330
1F
100
AcDbEntity
  8
Make2D$Visible$Curves
 62
     9
420
 12500670
370
    -3
100
AcDbLine
 10
-630.8386468617518
 20
887.5931888525934
 30
0.0
 11
-630.8386468617518
 21
887.6078879496381
 31
0.0
  0
LINE
  5
107
330
1F
100
AcDbEntity
  8
Make2D$Visible$Curves
 62
     9
420
 12500670
370
    -3
100
AcDbLine
 10
-630.8386468617518
 20
887.6078879496381
 30
0.0
 11
-638.9796725027777
 21
887.6078879496381
 31
0.0
  0
LINE
  5
108
330
1F
100
AcDbEntity
  8
Make2D$Visible$Curves
 62
     9
420
 12500670
370
    -3
100
AcDbLine
 10
-638.9796725027777
 20
887.6078879496381
 30
0.0
 11
-638.9796725027777
 21
887.5931888525934
 31
0.0
  0
LINE
  5
109
330
1F
100
AcDbEntity
  8
Make2D$Visible$Curves
 62
     9
420
 12500670
370
    -3
100
AcDbLine
 10
-638.9796725027777
 20
887.5931888525934
 30
0.0
 11
-641.693347716453
 21
887.5931888525934
 31
0.0
  0
LINE
  5
10A
330
1F
100
AcDbEntity
  8
Make2D$Visible$Curves
 62
     9
420
 12500670
370
    -3
100
AcDbLine
 10
-641.693347716453
 20
887.5931888525934
 30
0.0
 11
-641.693347716453
 21
887.6078879496381
 31
0.0
  0
LINE
  5
10B
330
1F
100
AcDbEntity
  8
Make2D$Visible$Curves
 62
     9
420
 12500670
370
    -3
100
AcDbLine
 10
-641.693347716453
 20
887.6078879496381
 30
0.0
 11
-651.8696297677348
 21
887.6078879496381
 31
0.0
  0
LINE
  5
10C
330
1F
100
AcDbEntity
  8
Make2D$Visible$Curves
 62
     9
420
 12500670
370
    -3
100
AcDbLine
 10
-651.8696297677348
 20
887.6078879496381
 30
0.0
 11
-651.8696297677348
 21
887.5931888525934
 31
0.0
  0
LINE
  5
10D
330
1F
100
AcDbEntity
  8
Make2D$Visible$Curves
 62
     9
420
 12500670
370
    -3
100
AcDbLine
 10
-651.8696297677348
 20
887.5931888525934
 30
0.0
 11
-654.58330498141
 21
887.5931888525934
 31
0.0
  0
LINE
  5
10E
330
1F
100
AcDbEntity
  8
Make2D$Visible$Curves
 62
     9
420
 12500670
370
    -3
100
AcDbLine
 10
-654.58330498141
 20
887.5915997610209
 30
0.0
 11
-574.58330498141
 21
887.5915997610209
 31
0.0
  0
LINE
  5
10F
330
1F
100
AcDbEntity
  8
Make2D$Visible$Curves
 62
     9
420
 12500670
370
    -3
100
AcDbLine
 10
-574.58330498141
 20
887.5915997610209
 30
0.0
 11
-574.58330498141
 21
887.595572489952
 31
0.0
  0
LINE
  5
110
330
1F
100
AcDbEntity
  8
Make2D$Visible$Curves
 62
     9
420
 12500670
370
    -3
100
AcDbLine
 10
-574.58330498141
 20
887.595572489952
 30
0.0
 11
-601.0416383147435
 21
887.595572489952
 31
0.0
  0
LINE
  5
111
330
1F
100
AcDbEntity
  8
Make2D$Visible$Curves
 62
     9
420
 12500670
370
    -3
100
AcDbLine
 10
-601.0416383147435
 20
887.595572489952
 30
0.0
 11
-601.0416383147435
 21
887.6016495237386
 31
0.0
  0
LINE
  5
112
330
1F
100
AcDbEntity
  8
Make2D$Visible$Curves
 62
     9
420
 12500670
370
    -3
100
AcDbLine
 10
-586.7948434429486
 20
887.6005694380606
 30
0.0
 11
-586.7948434429486
 21
887.5983534002037
 31
0.0
  0
LINE
  5
113
330
1F
100
AcDbEntity
  8
Make2D$Visible$Curves
 62
     9
420
 12500670
370
    -3
100
AcDbLine
 10
-586.7948434429486
 20
887.5983534002037
 30
0.0
 11
-574.58330498141
 21
887.5983534002037
 31
0.0
  0
LINE
  5
114
330
1F
100
AcDbEntity
  8
Make2D$Visible$Curves
 62
     9
420
 12500670
370
    -3
100
AcDbLine
 10
-574.58330498141
 20
887.5983534002037
 30
0.0
 11
-574.5833049784083
 21
887.6304661114796
 31
0.0
  0
LINE
  5
115
330
1F
100
AcDbEntity
  8
Make2D$Visible$Curves
 62
     9
420
 12500670
370
    -3
100
AcDbLine
 10
-574.5833049784083
 20
887.6304661114796
 30
0.0
 11
-587.6958684162391
 21
887.6194088635377
 31
0.0
  0
LINE
  5
116
330
1F
100
AcDbEntity
  8
Make2D$Visible$Curves
 62
     9
420
 12500670
370
    -3
100
AcDbLine
 10
-574.5833049799471
 20
887.6409686118009
 30
0.0
 11
-574.58330498141
 21
887.6583416070612
 31
0.0
  0
LINE
  5
117
330
1F
100
AcDbEntity
  8
Make2D$Visible$Curves
 62
     9
420
 12500670
370
    -3
100
AcDbLine
 10
-574.58330498141
 20
887.6583416070612
 30
0.0
 11
-601.0416383147435
 21
887.6583416070612
 31
0.0
  0
LINE
  5
118
330
1F
100
AcDbEntity
  8
Make2D$Visible$Curves
 62
     9
420
 12500670
370
    -3
100
AcDbLine
 10
-601.0416383147435
 20
887.6583416070612
 30
0.0
 11
-601.0416383147435
 21
887.6611225173128
 31
0.0
  0
LINE
  5
119
330
1F
100
AcDbEntity
  8
Make2D$Visible$Curves
 62
     9
420
 12500670
370
    -3
100
AcDbLine
 10
-601.0416383147435
 20
887.6611225173128
 30
0.0
 11
-574.5837483639007
 21
887.6611225173128
 31
0.0
  0
LINE
  5
11A
330
1F
100
AcDbEntity
  8
Make2D$Visible$Curves
 62
     9
420
 12500670
370
    -3
100
AcDbLine
 10
-574.5833049791345
 20
887.6777537479645
 30
0.0
 11
-578.908224853205
 21
887.6700859869634
 31
0.0
  0
LINE
  5
11B
330
1F
100
AcDbEntity
  8
Make2D$Visible$Curves
 62
     9
420
 12500670
370
    -3
100
AcDbLine
 10
-584.7595870326923
 20
887.6960825319054
 30
0.0
 11
-584.7595870326923
 21
887.685753436685
 31
0.0
  0
LINE
  5
11C
330
1F
100
AcDbEntity
  8
Make2D$Visible$Curves
 62
     9
420
 12500670
370
    -3
100
AcDbLine
 10
-584.7595870326923
 20
887.685753436685
 30
0.0
 11
-587.4732622463671
 21
887.685753436685
 31
0.0
  0
LINE
  5
11D
330
1F
100
AcDbEntity
  8
Make2D$Visible$Curves
 62
     9
420
 12500670
370
    -3
100
AcDbLine
 10
-587.4732622463671
 20
887.685753436685
 30
0.0
 11
-587.4732622463671
 21
887.6988634421571
 31
0.0
  0
LINE
  5
11E
330
1F
100
AcDbEntity
  8
Make2D$Visible$Curves
 62
     9
420
 12500670
370
    -3
100
AcDbLine
 10
-587.4732622463671
 20
887.6988634421571
 30
0.0
 11
-574.5837180960671
 21
887.6889982789589
 31
0.0
  0
LINE
  5
11F
330
1F
100
AcDbEntity
  8
Make2D$Visible$Curves
 62
     9
420
 12500670
370
    -3
100
AcDbLine
 10
-574.58330498141
 20
887.7052198084466
 30
0.0
 11
-601.0416383147435
 21
887.7052198084466
 31
0.0
  0
LINE
  5
120
330
1F
100
AcDbEntity
  8
Make2D$Visible$Curves
 62
     9
420
 12500670
370
    -3
100
AcDbLine
 10
-580.2173611379271
 20
887.7262752717807
 30
0.0
 11
-601.0416383147435
 21
887.7262752717807
 31
0.0
  0
LINE
  5
121
330
1F
100
AcDbEntity
  8
Make2D$Visible$Curves
 62
     9
420
 12500670
370
    -3
100
AcDbLine
 10
-601.0416383147435
 20
887.7262752717807
 30
0.0
 11
-601.0416383147435
 21
887.7290561820325
 31
0.0
  0
LINE
  5
122
330
1F
100
AcDbEntity
  8
Make2D$Visible$Curves
 62
     9
420
 12500670
370
    -3
100
AcDbLine
 10
-601.0416383147435
 20
887.7290561820325
 30
0.0
 11
-574.58330498141
 21
887.7290561820325
 31
0.0
  0
LINE
  5
123
330
1F
100
AcDbEntity
  8
Make2D$Visible$Curves
 62
     9
420
 12500670
370
    -3
100
AcDbLine
 10
-574.58330498141
 20
887.7290561820325
 30
0.0
 11
-574.58330498141
 21
887.7370016398945
 31
0.0
  0
LINE
  5
124
330
1F
100
AcDbEntity
  8
Make2D$Visible$Curves
 62
     9
420
 12500670
370
    -3
100
AcDbLine
 10
-574.58330498141
 20
887.7370016398945
 30
0.0
 11
-601.0416383147435
 21
887.7370016398945
 31
0.0
  0
LINE
  5
125
330
1F
100
AcDbEntity
  8
Make2D$Visible$Curves
 62
     9
420
 12500670
370
    -3
100
AcDbLine
 10
-601.0416383147435
 20
887.7370016398945
 30
0.0
 11
-601.0416383147435
 21
887.7544816471907
 31
0.0
  0
LINE
  5
126
330
1F
100
AcDbEntity
  8
Make2D$Visible$Curves
 62
     9
420
 12500670
370
    -3
100
AcDbLine
 10
-601.0416383147435
 20
887.7544816471907
 30
0.0
 11
-598.3279631010682
 21
887.7544816471907
 31
0.0
  0
LINE
  5
127
330
1F
100
AcDbEntity
  8
Make2D$Visible$Curves
 62
     9
420
 12500670
370
    -3
100
AcDbLine
 10
-598.3279631010682
 20
887.7544816471907
 30
0.0
 11
-598.3279631010682
 21
887.7397825501462
 31
0.0
  0
LINE
  5
128
330
1F
100
AcDbEntity
  8
Make2D$Visible$Curves
 62
     9
420
 12500670
370
    -3
100
AcDbLine
 10
-598.3279631010682
 20
887.7397825501462
 30
0.0
 11
-590.1869374600424
 21
887.7397825501462
 31
0.0
  0
LINE
  5
129
330
1F
100
AcDbEntity
  8
Make2D$Visible$Curves
 62
     9
420
 12500670
370
    -3
100
AcDbLine
 10
-590.1869374600424
 20
887.7397825501462
 30
0.0
 11
-590.1869374600424
 21
887.7544816471907
 31
0.0
  0
LINE
  5
12A
330
1F
100
AcDbEntity
  8
Make2D$Visible$Curves
 62
     9
420
 12500670
370
    -3
100
AcDbLine
 10
-590.1869374600424
 20
887.7544816471907
 30
0.0
 11
-587.4732622463671
 21
887.7544816471907
 31
0.0
  0
LINE
  5
12B
330
1F
100
AcDbEntity
  8
Make2D$Visible$Curves
 62
     9
420
 12500670
370
    -3
100
AcDbLine
 10
-587.4732622463671
 20
887.7544816471907
 30
0.0
 11
-587.4732622463671
 21
887.7397825501462
 31
0.0
  0
LINE
  5
12C
330
1F
100
AcDbEntity
  8
Make2D$Visible$Curves
 62
     9
420
 12500670
370
    -3
100
AcDbLine
 10
-587.4732622463671
 20
887.7397825501462
 30
0.0
 11
-577.2969801950853
 21
887.7397825501462
 31
0.0
  0
LINE
  5
12D
330
1F
100
AcDbEntity
  8
Make2D$Visible$Curves
 62
     9
420
 12500670
370
    -3
100
AcDbLine
 10
-577.2969801950853
 20
887.7397825501462
 30
0.0
 11
-577.2969801950853
 21
887.7544816471907
 31
0.0
  0
LINE
  5
12E
330
1F
100
AcDbEntity
  8
Make2D$Visible$Curves
 62
     9
420
 12500670
370
    -3
100
AcDbLine
 10
-577.2969801950853
 20
887.7544816471907
 30
0.0
 11
-574.58330498141
 21
887.7544816471907
 31
0.0
  0
LINE
  5
12F
330
1F
100
AcDbEntity
  8
Make2D$Visible$Curves
 62
     9
420
 12500670
370
    -3
100
AcDbLine
 10
-574.58330498141
 20
887.7544816471907
 30
0.0
 11
-574.58330498141
 21
887.760043467694
 31
0.0
  0
LINE
  5
130
330
1F
100
AcDbEntity
  8
Make2D$Visible$Curves
 62
     9
420
 12500670
370
    -3
100
AcDbLine
 10
-574.58330498141
 20
887.760043467694
 30
0.0
 11
-601.0416383147435
 21
887.760043467694
 31
0.0
  0
LINE
  5
131
330
1F
100
AcDbEntity
  8
Make2D$Visible$Curves
 62
     9
420
 12500670
370
    -3
100
AcDbLine
 10
-601.0416383147435
 20
887.760043467694
 30
0.0
 11
-601.0416383147435
 21
887.7775234749902
 31
0.0
  0
LINE
  5
132
330
1F
100
AcDbEntity
  8
Make2D$Visible$Curves
 62
     9
420
 12500670
370
    -3
100
AcDbLine
 10
-601.0416383147435
 20
887.7775234749902
 30
0.0
 11
-598.3279631010682
 21
887.7775234749902
 31
0.0
  0
LINE
  5
133
330
1F
100
AcDbEntity
  8
Make2D$Visible$Curves
 62
     9
420
 12500670
370
    -3
100
AcDbLine
 10
-598.3279631010682
 20
887.7775234749902
 30
0.0
 11
-598.3279631010682
 21
887.7628243779457
 31
0.0
  0
LINE
  5
134
330
1F
100
AcDbEntity
  8
Make2D$Visible$Curves
 62
     9
420
 12500670
370
    -3
100
AcDbLine
 10
-598.3279631010682
 20
887.7628243779457
 30
0.0
 11
-590.1869374600424
 21
887.7628243779457
 31
0.0
  0
LINE
  5
135
330
1F
100
AcDbEntity
  8
Make2D$Visible$Curves
 62
     9
420
 12500670
370
    -3
100
AcDbLine
 10
-590.1869374600424
 20
887.7628243779457
 30
0.0
 11
-590.1869374600424
 21
887.7775234749902
 31
0.0
  0
LINE
  5
136
330
1F
100
AcDbEntity
  8
Make2D$Visible$Curves
 62
     9
420
 12500670
370
    -3
100
AcDbLine
 10
-590.1869374600424
 20
887.7775234749902
 30
0.0
 11
-587.4732622463671
 21
887.7775234749902
 31
0.0
  0
LINE
  5
137
330
1F
100
AcDbEntity
  8
Make2D$Visible$Curves
 62
     9
420
 12500670
370
    -3
100
AcDbLine
 10
-587.4732622463671
 20
887.7775234749902
 30
0.0
 11
-587.4732622463671
 21
887.7628243779457
 31
0.0
  0
LINE
  5
138
330
1F
100
AcDbEntity
  8
Make2D$Visible$Curves
 62
     9
420
 12500670
370
    -3
100
AcDbLine
 10
-587.4732622463671
 20
887.7628243779457
 30
0.0
 11
-577.2969801950853
 21
887.7628243779457
 31
0.0
  0
LINE
  5
139
330
1F
100
AcDbEntity
  8
Make2D$Visible$Curves
 62
     9
420
 12500670
370
    -3
100
AcDbLine
 10
-577.2969801950853
 20
887.7628243779457
 30
0.0
 11
-577.2969801950853
 21
887.7775234749902
 31
0.0
  0
LINE
  5
13A
330
1F
100
AcDbEntity
  8
Make2D$Visible$Curves
 62
     9
420
 12500670
370
    -3
100
AcDbLine
 10
-577.2969801950853
 20
887.7775234749902
 30
0.0
 11
-574.58330498141
 21
887.7775234749902
 31
0.0
  0
LINE
  5
13B
330
1F
100
AcDbEntity
  8
Make2D$Visible$Curves
 62
     9
420
 12500670
370
    -3
100
AcDbLine
 10
-654.58330498141
 20
910.7906833973191
 30
0.0
 11
-574.58330498141
 21
910.7906833973191
 31
0.0
  0
LINE
  5
13C
330
1F
100
AcDbEntity
  8
Make2D$Visible$Curves
 62
     9
420
 12500670
370
    -3
100
AcDbLine
 10
-574.58330498141
 20
887.728423028359
 30
0.0
 11
-574.58330498141
 21
887.7080007186983
 31
0.0
  0
LINE
  5
13D
330
1F
100
AcDbEntity
  8
Make2D$Visible$Curves
 62
     9
420
 12500670
370
    -3
100
AcDbLine
 10
-601.0416383147435
 20
887.6016495237386
 30
0.0
 11
-600.6441272971151
 21
887.6087073249801
 31
0.0
  0
LINE
  5
13E
330
1F
100
AcDbEntity
  8
Make2D$Visible$Curves
 62
     9
420
 12500670
370
    -3
100
AcDbLine
 10
-600.6441272971151
 20
887.6087073249801
 30
0.0
 11
-593.9447416133544
 21
887.6146415888206
 31
0.0
  0
LINE
  5
13F
330
1F
100
AcDbEntity
  8
Make2D$Visible$Curves
 62
     9
420
 12500670
370
    -3
100
AcDbLine
 10
-593.9447416133544
 20
887.6146415888206
 30
0.0
 11
-587.2294554888886
 21
887.6084590294217
 31
0.0
  0
LINE
  5
140
330
1F
100
AcDbEntity
  8
Make2D$Visible$Curves
 62
     9
420
 12500670
370
    -3
100
AcDbLine
 10
-587.2294554888886
 20
887.6084590294217
 30
0.0
 11
-586.7948434429486
 21
887.6005694380606
 31
0.0
  0
LINE
  5
141
330
1F
100
AcDbEntity
  8
Make2D$Visible$Curves
 62
     9
420
 12500670
370
    -3
100
AcDbLine
 10
-587.6958684162391
 20
887.6194088635377
 30
0.0
 11
-601.720057118162
 21
887.6354984157083
 31
0.0
  0
LINE
  5
142
330
1F
100
AcDbEntity
  8
Make2D$Visible$Curves
 62
     9
420
 12500670
370
    -3
100
AcDbLine
 10
-601.720057118162
 20
887.6354984157083
 30
0.0
 11
-587.8230719418802
 21
887.6519852407716
 31
0.0
  0
LINE
  5
143
330
1F
100
AcDbEntity
  8
Make2D$Visible$Curves
 62
     9
420
 12500670
370
    -3
100
AcDbLine
 10
-587.8230719418802
 20
887.6519852407716
 30
0.0
 11
-574.5833049799471
 21
887.6409686118009
 31
0.0
  0
LINE
  5
144
330
1F
100
AcDbEntity
  8
Make2D$Visible$Curves
 62
     9
420
 12500670
370
    -3
100
AcDbLine
 10
-601.720057118162
 20
887.6829539042665
 30
0.0
 11
-596.5259131544872
 21
887.6968770776916
 31
0.0
  0
LINE
  5
145
330
1F
100
AcDbEntity
  8
Make2D$Visible$Curves
 62
     9
420
 12500670
370
    -3
100
AcDbLine
 10
-596.5259131544872
 20
887.6968770776916
 30
0.0
 11
-594.5966596822645
 21
887.6944934403332
 31
0.0
  0
LINE
  5
146
330
1F
100
AcDbEntity
  8
Make2D$Visible$Curves
 62
     9
420
 12500670
370
    -3
100
AcDbLine
 10
-594.5966596822645
 20
887.6944934403332
 30
0.0
 11
-599.0063819044872
 21
887.6828607934322
 31
0.0
  0
LINE
  5
147
330
1F
100
AcDbEntity
  8
Make2D$Visible$Curves
 62
     9
420
 12500670
370
    -3
100
AcDbLine
 10
-599.0063819044872
 20
887.6828607934322
 30
0.0
 11
-587.9290748799144
 21
887.6690679751748
 31
0.0
  0
LINE
  5
148
330
1F
100
AcDbEntity
  8
Make2D$Visible$Curves
 62
     9
420
 12500670
370
    -3
100
AcDbLine
 10
-587.9290748799144
 20
887.6690679751748
 30
0.0
 11
-576.6185613916664
 21
887.6837546574416
 31
0.0
  0
LINE
  5
149
330
1F
100
AcDbEntity
  8
Make2D$Visible$Curves
 62
     9
420
 12500670
370
    -3
100
AcDbLine
 10
-576.6185613916664
 20
887.6837546574416
 30
0.0
 11
-584.7595870326923
 21
887.6960825319054
 31
0.0
  0
LINE
  5
14A
330
1F
100
AcDbEntity
  8
Make2D$Visible$Curves
 62
     9
420
 12500670
370
    -3
100
AcDbLine
 10
-578.908224853205
 20
887.6700859869634
 30
0.0
 11
-587.8230719418802
 21
887.6662870649232
 31
0.0
  0
LINE
  5
14B
330
1F
100
AcDbEntity
  8
Make2D$Visible$Curves
 62
     9
420
 12500670
370
    -3
100
AcDbLine
 10
-587.8230719418802
 20
887.6662870649232
 30
0.0
 11
-601.720057118162
 21
887.6829539042665
 31
0.0
  0
LINE
  5
14C
330
1F
100
AcDbEntity
  8
Make2D$Visible$Curves
 62
     9
420
 12500670
370
    -3
100
AcDbLine
 10
-601.0416383147435
 20
887.7058033030085
 30
0.0
 11
-601.0410910848066
 21
887.7058038409803
 31
0.0
  0
LINE
  5
14D
330
1F
100
AcDbEntity
  8
Make2D$Visible$Curves
 62
     9
420
 12500670
370
    -3
100
AcDbLine
 10
-627.4465528446581
 20
887.6877584233173
 30
0.0
 11
-632.6406968083329
 21
887.6738352498919
 31
0.0
  0
LINE
  5
14E
330
1F
100
AcDbEntity
  8
Make2D$Visible$Curves
 62
     9
420
 12500670
370
    -3
100
AcDbLine
 10
-632.6406968083329
 20
887.6738352498919
 30
0.0
 11
-634.5699502805555
 21
887.6762188872506
 31
0.0
  0
LINE
  5
14F
330
1F
100
AcDbEntity
  8
Make2D$Visible$Curves
 62
     9
420
 12500670
370
    -3
100
AcDbLine
 10
-634.5699502805555
 20
887.6762188872506
 30
0.0
 11
-630.1602280583329
 21
887.6878515341516
 31
0.0
  0
LINE
  5
150
330
1F
100
AcDbEntity
  8
Make2D$Visible$Curves
 62
     9
420
 12500670
370
    -3
100
AcDbLine
 10
-630.1602280583329
 20
887.6878515341516
 30
0.0
 11
-641.2375350829057
 21
887.701644352409
 31
0.0
  0
LINE
  5
151
330
1F
100
AcDbEntity
  8
Make2D$Visible$Curves
 62
     9
420
 12500670
370
    -3
100
AcDbLine
 10
-641.2375350829057
 20
887.701644352409
 30
0.0
 11
-652.5480485711537
 21
887.6869576701422
 31
0.0
  0
LINE
  5
152
330
1F
100
AcDbEntity
  8
Make2D$Visible$Curves
 62
     9
420
 12500670
370
    -3
100
AcDbLine
 10
-652.5480485711537
 20
887.6869576701422
 30
0.0
 11
-644.4070229301278
 21
887.6746297956784
 31
0.0
  0
LINE
  5
153
330
1F
100
AcDbEntity
  8
Make2D$Visible$Curves
 62
     9
420
 12500670
370
    -3
100
AcDbLine
 10
-650.2583851096151
 20
887.7006263406201
 30
0.0
 11
-641.3435380209398
 21
887.7044252626606
 31
0.0
  0
LINE
  5
154
330
1F
100
AcDbEntity
  8
Make2D$Visible$Curves
 62
     9
420
 12500670
370
    -3
100
AcDbLine
 10
-641.3435380209398
 20
887.7044252626606
 30
0.0
 11
-627.4465528446581
 21
887.6877584233173
 31
0.0
  0
LINE
  5
155
330
1F
100
AcDbEntity
  8
Make2D$Visible$Curves
 62
     9
420
 12500670
370
    -3
100
AcDbLine
 10
-627.4465528446581
 20
887.7352139118755
 30
0.0
 11
-641.3435380209398
 21
887.7187270868119
 31
0.0
  0
LINE
  5
156
330
1F
100
AcDbEntity
  8
Make2D$Visible$Curves
 62
     9
420
 12500670
370
    -3
100
AcDbLine
 10
-641.3435380209398
 20
887.7187270868119
 30
0.0
 11
-654.5833049823509
 21
887.7297589354689
 31
0.0
  0
LINE
  5
157
330
1F
100
AcDbEntity
  8
Make2D$Visible$Curves
 62
     9
420
 12500670
370
    -3
100
AcDbLine
 10
-630.1602280583329
 20
887.7350773493185
 30
0.0
 11
-641.3382378740384
 21
887.7215079970638
 31
0.0
  0
LINE
  5
158
330
1F
100
AcDbEntity
  8
Make2D$Visible$Curves
 62
     9
420
 12500670
370
    -3
100
AcDbLine
 10
-641.3382378740384
 20
887.7215079970638
 30
0.0
 11
-652.5480485711537
 21
887.7350773493185
 31
0.0
  0
LINE
  5
159
330
1F
100
AcDbEntity
  8
Make2D$Visible$Curves
 62
     9
420
 12500670
370
    -3
100
AcDbLine
 10
-652.5480485711537
 20
887.7350773493185
 30
0.0
 11
-652.5480485711537
 21
887.7448007383036
 31
0.0
  0
LINE
  5
15A
330
1F
100
AcDbEntity
  8
Make2D$Visible$Curves
 62
     9
420
 12500670
370
    -3
100
AcDbLine
 10
-652.5480485711537
 20
887.7350773493185
 30
0.0
 11
-641.4601412527777
 21
887.7485225537944
 31
0.0
  0
LINE
  5
15B
330
1F
100
AcDbEntity
  8
Make2D$Visible$Curves
 62
     9
420
 12500670
370
    -3
100
AcDbLine
 10
-628.1249716480766
 20
887.7690628038451
 30
0.0
 11
-628.522482665705
 21
887.7620050026037
 31
0.0
  0
LINE
  5
15C
330
1F
100
AcDbEntity
  8
Make2D$Visible$Curves
 62
     9
420
 12500670
370
    -3
100
AcDbLine
 10
-641.9371544739315
 20
887.7622532981618
 30
0.0
 11
-642.3717665198715
 21
887.7701428895232
 31
0.0
  0
LINE
  5
15D
330
1F
100
AcDbEntity
  8
Make2D$Visible$Curves
 62
     9
420
 12500670
370
    -3
100
AcDbLine
 10
-574.58330498141
 20
887.7542812107488
 30
0.0
 11
-574.58330498141
 21
887.7370016398945
 31
0.0
  0
LINE
  5
15E
330
1F
100
AcDbEntity
  8
Make2D$Visible$Curves
 62
     9
420
 12500670
370
    -3
100
AcDbLine
 10
-574.58330498141
 20
887.7081452855991
 30
0.0
 11
-574.58330498141
 21
887.7052198084466
 31
0.0
  0
LINE
  5
15F
330
1F
100
AcDbEntity
  8
Make2D$Visible$Curves
 62
     9
420
 12500670
370
    -3
100
AcDbLine
 10
-574.5833049784173
 20
887.6410618006353
 30
0.0
 11
-574.5833049784083
 21
887.6304661114796
 31
0.0
  0
LINE
  5
160
330
1F
100
AcDbEntity
  8
Make2D$Visible$Curves
 62
     9
420
 12500670
370
    -3
100
AcDbLine
 10
-574.58330498141
 20
887.5986452314592
 30
0.0
 11
-574.58330498141
 21
887.595572489952
 31
0.0
  0
LINE
  5
161
330
1F
100
AcDbEntity
  8
Make2D$Visible$Curves
 62
     9
420
 12500670
370
    -3
100
AcDbLine
 10
-630.1602280583329
 20
887.7448145034434
 30
0.0
 11
-630.1602280583329
 21
887.7350773493185
 31
0.0
  0
LINE
  5
162
330
1F
100
AcDbEntity
  8
Make2D$Visible$Curves
 62
     9
420
 12500670
370
    -3
100
AcDbLine
 10
-641.3382378740384
 20
887.7602862132624
 30
0.0
 11
-641.3382378740384
 21
887.7751398376317
 31
0.0
  0
LINE
  5
163
330
1F
100
AcDbEntity
  8
Make2D$Visible$Curves
 62
     9
420
 12500670
370
    -3
100
AcDbLine
 10
-654.58330498141
 20
887.7095898102707
 30
0.0
 11
-654.58330498141
 21
887.7119471243495
 31
0.0
  0
LINE
  5
164
330
1F
100
AcDbEntity
  8
Make2D$Visible$Curves
 62
     9
420
 12500670
370
    -3
100
AcDbLine
 10
-654.5833049842558
 20
887.7402463897756
 30
0.0
 11
-654.58330498141
 21
887.7723589273801
 31
0.0
  0
LINE
  5
165
330
1F
100
AcDbEntity
  8
Make2D$Visible$Curves
 62
     9
420
 12500670
370
    -3
100
AcDbLine
 10
-654.5833049837447
 20
887.6929585796188
 30
0.0
 11
-654.58330498141
 21
887.7095898102707
 31
0.0
  0
LINE
  5
166
330
1F
100
AcDbEntity
  8
Make2D$Visible$Curves
 62
     9
420
 12500670
370
    -3
100
AcDbLine
 10
-574.58330498141
 20
887.7906991712557
 30
0.0
 11
-654.58330498141
 21
887.7906991712557
 31
0.0
  0
LINE
  5
167
330
1F
100
AcDbEntity
  8
Make2D$Visible$Curves
 62
     9
420
 12500670
370
    -3
100
AcDbLine
 10
-654.5833049823509
 20
887.7297589354689
 30
0.0
 11
-654.5833049823509
 21
887.7402780045115
 31
0.0
  0
LINE
  5
168
330
1F
100
AcDbEntity
  8
Make2D$Visible$Curves
 62
     9
420
 12500670
370
    -3
100
AcDbLine
 10
-630.1602280583329
 20
887.7350773493185
 30
0.0
 11
-641.4601412527777
 21
887.7485225537944
 31
0.0
  0
LINE
  5
169
330
1F
100
AcDbEntity
  8
Make2D$Visible$Curves
 62
    18
420
        0
370
    -3
100
AcDbLine
 10
-747.8428596386739
 20
996.3888219832443
 30
0.0
 11
-747.8429071181504
 21
996.1915997610222
 31
0.0
  0
LINE
  5
16A
330
1F
100
AcDbEntity
  8
Make2D$Visible$Curves
 62
    18
420
        0
370
    -3
100
AcDbLine
 10
-747.042907666809
 20
996.1915997610222
 30
0.0
 11
-747.0428601873325
 21
996.3888219832443
 31
0.0
  0
LINE
  5
16B
330
1F
100
AcDbEntity
  8
Make2D$Visible$Curves
 62
    18
420
        0
370
    -3
100
AcDbLine
 10
-747.8423215316498
 20
982.4915997610219
 30
0.0
 11
-747.8428596386739
 21
981.7943775387998
 31
0.0
  0
LINE
  5
16C
330
1F
100
AcDbEntity
  8
Make2D$Visible$Curves
 62
    18
420
        0
370
    -3
100
AcDbLine
 10
-747.0244725229209
 20
976.3239081786469
 30
0.0
 11
-747.0247054594183
 21
970.652404890021
 31
0.0
  0
LINE
  5
16D
330
1F
100
AcDbEntity
  8
Make2D$Visible$Curves
 62
    18
420
        0
370
    -3
100
AcDbLine
 10
-747.0237261473007
 20
977.7628321216825
 30
0.0
 11
-747.0244725229209
 21
976.3239081786469
 31
0.0
  0
LINE
  5
16E
330
1F
100
AcDbEntity
  8
Make2D$Visible$Curves
 62
    18
420
        0
370
    -3
100
AcDbLine
 10
-747.0401282045673
 20
982.4915997609096
 30
0.0
 11
-747.0375133821206
 21
982.1414828710977
 31
0.0
  0
LINE
  5
16F
330
1F
100
AcDbEntity
  8
Make2D$Visible$Curves
 62
    18
420
        0
370
    -3
100
AcDbLine
 10
-747.0348857540953
 20
981.8904774665589
 30
0.0
 11
-747.0296155133537
 21
981.6915996692505
 31
0.0
  0
LINE
  5
170
330
1F
100
AcDbEntity
  8
Make2D$Visible$Curves
 62
    18
420
        0
370
    -3
100
AcDbLine
 10
-747.0296155133537
 20
981.6915996692505
 30
0.0
 11
-747.0284052145812
 21
981.2785794206739
 31
0.0
  0
LINE
  5
171
330
1F
100
AcDbEntity
  8
Make2D$Visible$Curves
 62
    18
420
        0
370
    -3
100
AcDbLine
 10
-747.0251712505806
 20
978.6132647741624
 30
0.0
 11
-747.0244054871135
 21
978.0920251612195
 31
0.0
  0
LINE
  5
172
330
1F
100
AcDbEntity
  8
Make2D$Visible$Curves
 62
    18
420
        0
370
    -3
100
AcDbLine
 10
-747.8241208517809
 20
966.7915997610216
 30
0.0
 11
-747.8241208517809
 21
970.0915997610218
 31
0.0
  0
LINE
  5
173
330
1F
100
AcDbEntity
  8
Make2D$Visible$Curves
 62
    18
420
        0
370
    -3
100
AcDbLine
 10
-747.8429071181504
 20
996.1915997610222
 30
0.0
 11
-747.8423215316498
 21
995.6915997610222
 31
0.0
  0
LINE
  5
174
330
1F
100
AcDbEntity
  8
Make2D$Visible$Curves
 62
    18
420
        0
370
    -3
100
AcDbLine
 10
-747.0423220803084
 20
995.6915997610222
 30
0.0
 11
-747.042907666809
 21
996.1915997610222
 31
0.0
  0
ARC
  5
175
330
1F
100
AcDbEntity
  8
Make2D$Visible$Curves
 62
    18
420
        0
370
    -3
100
AcDbCircle
 10
746.864277057817
 20
1007.112043387218
 30
0.0
 40
0.4484304595646046
210
0.0
220
0.0
230
-1.0
100
AcDbArc
 50
69.03759101701661
 51
94.93725261441615
  0
LINE
  5
176
330
1F
100
AcDbEntity
  8
Make2D$Visible$Curves
 62
    18
420
        0
370
    -3
100
AcDbLine
 10
-747.0418810358224
 20
982.4915997610215
 30
0.0
 11
-747.0401282045673
 21
982.4915997609096
 31
0.0
  0
LINE
  5
177
330
1F
100
AcDbEntity
  8
Make2D$Visible$Curves
 62
    18
420
        0
370
    -3
100
AcDbLine
 10
-747.8418805864872
 20
995.6915998267023
 30
0.0
 11
-747.8401276633517
 21
996.4915993775098
 31
0.0
  0
LINE
  5
178
330
1F
100
AcDbEntity
  8
Make2D$Visible$Curves
 62
    18
420
        0
370
    -3
100
AcDbLine
 10
-747.8241208517807
 20
1011.391599761022
 30
0.0
 11
-747.8241208512986
 21
1008.091599761022
 31
0.0
  0
LINE
  5
179
330
1F
100
AcDbEntity
  8
Make2D$Visible$Curves
 62
    18
420
        0
370
    -3
100
AcDbLine
 10
-747.8401276370989
 20
981.6915997610222
 30
0.0
 11
-747.8418805340132
 21
982.4915997610206
 31
0.0
  0
LINE
  5
17A
330
1F
100
AcDbEntity
  8
Make2D$Visible$Curves
 62
    18
420
        0
370
    -3
100
AcDbLine
 10
-747.0261776603961
 20
979.4427108721338
 30
0.0
 11
-747.0251712505806
 21
978.6132647741624
 31
0.0
  0
LINE
  5
17B
330
1F
100
AcDbEntity
  8
Make2D$Visible$Curves
 62
    18
420
        0
370
    -3
100
AcDbLine
 10
-747.8403702620525
 20
978.0915997610219
 30
0.0
 11
-747.8241208517809
 21
970.6186465591104
 31
0.0
  0
LINE
  5
17C
330
1F
100
AcDbEntity
  8
Make2D$Visible$Curves
 62
    18
420
        0
370
    -3
100
AcDbLine
 10
-747.0414364253136
 20
998.7406657591123
 30
0.0
 11
-747.0247054594179
 21
1007.530794632023
 31
0.0
  0
LINE
  5
17D
330
1F
100
AcDbEntity
  8
Make2D$Visible$Curves
 62
    18
420
        0
370
    -3
100
AcDbLine
 10
-747.0413461838739
 20
998.7404886499107
 30
0.0
 11
-746.8075027341451
 21
998.7404886499107
 31
0.0
  0
LINE
  5
17E
330
1F
100
AcDbEntity
  8
Make2D$Visible$Curves
 62
    18
420
        0
370
    -3
100
AcDbLine
 10
-747.8424219397225
 20
980.9788622613032
 30
0.0
 11
-747.8495800279895
 21
980.9788622613032
 31
0.0
  0
LINE
  5
17F
330
1F
100
AcDbEntity
  8
Make2D$Visible$Curves
 62
    18
420
        0
370
    -3
100
AcDbLine
 10
-747.8401370588981
 20
978.0915997610218
 30
0.0
 11
-747.8498866578111
 21
978.0915997610218
 31
0.0
  0
LINE
  5
180
330
1F
100
AcDbEntity
  8
Make2D$Visible$Curves
 62
    18
420
        0
370
    -3
100
AcDbLine
 10
-747.0423220803084
 20
995.6915997610604
 30
0.0
 11
-747.0418810357105
 21
995.691599761024
 31
0.0
  0
LINE
  5
181
330
1F
100
AcDbEntity
  8
Make2D$Visible$Curves
 62
    18
420
        0
370
    -3
100
AcDbLine
 10
-747.8407773228912
 20
995.4924460970424
 30
0.0
 11
-747.8407777508023
 21
995.4921508532707
 31
0.0
  0
LINE
  5
182
330
1F
100
AcDbEntity
  8
Make2D$Visible$Curves
 62
    18
420
        0
370
    -3
100
AcDbLine
 10
-747.2833866239262
 20
1782.591599761022
 30
0.0
 11
-747.441609927833
 21
1782.591599761022
 31
0.0
  0
LINE
  5
183
330
1F
100
AcDbEntity
  8
Make2D$Visible$Curves
 62
    18
420
        0
370
    -3
100
AcDbLine
 10
-747.2833866239262
 20
1795.591599761022
 30
0.0
 11
-747.2833866239262
 21
1795.098712277036
 31
0.0
  0
LINE
  5
184
330
1F
100
AcDbEntity
  8
Make2D$Visible$Curves
 62
    18
420
        0
370
    -3
100
AcDbLine
 10
-747.8081836140375
 20
1794.13143335953
 30
0.0
 11
-747.8081836140375
 21
1794.091599761022
 31
0.0
  0
LINE
  5
185
330
1F
100
AcDbEntity
  8
Make2D$Visible$Curves
 62
    18
420
        0
370
    -3
100
AcDbLine
 10
-747.2833866239259
 20
1783.084487245008
 30
0.0
 11
-747.2833866239262
 21
1782.591599761022
 31
0.0
  0
LINE
  5
186
330
1F
100
AcDbEntity
  8
Make2D$Visible$Curves
 62
    18
420
        0
370
    -3
100
AcDbLine
 10
-746.8249999173509
 20
1801.091599761022
 30
0.0
 11
-746.8249999173509
 21
1807.558840545055
 31
0.0
  0
LINE
  5
187
330
1F
100
AcDbEntity
  8
Make2D$Visible$Curves
 62
    18
420
        0
370
    -3
100
AcDbLine
 10
-746.8235945097492
 20
1799.891599761022
 30
0.0
 11
-745.3933147470384
 21
1799.891599761022
 31
0.0
  0
LINE
  5
188
330
1F
100
AcDbEntity
  8
Make2D$Visible$Curves
 62
    18
420
        0
370
    -3
100
AcDbLine
 10
-746.8093722973722
 20
1799.746921396453
 30
0.0
 11
-746.8076889295189
 21
1798.740488649911
 31
0.0
  0
LINE
  5
189
330
1F
100
AcDbEntity
  8
Make2D$Visible$Curves
 62
    18
420
        0
370
    -3
100
AcDbLine
 10
-747.8212514779234
 20
1755.391599761022
 30
0.0
 11
-747.8249992315277
 21
1758.591599761022
 31
0.0
  0
LINE
  5
18A
330
1F
100
AcDbEntity
  8
Make2D$Visible$Curves
 62
    18
420
        0
370
    -3
100
AcDbLine
 10
-747.8249992315275
 20
1819.591599761022
 30
0.0
 11
-747.8212514779229
 21
1822.791599761022
 31
0.0
  0
LINE
  5
18B
330
1F
100
AcDbEntity
  8
Make2D$Visible$Curves
 62
    18
420
        0
370
    -3
100
AcDbLine
 10
-746.8235945097495
 20
1778.291599761022
 30
0.0
 11
-746.8243709988246
 21
1778.091814459452
 31
0.0
  0
LINE
  5
18C
330
1F
100
AcDbEntity
  8
Make2D$Visible$Curves
 62
    18
420
        0
370
    -3
100
AcDbLine
 10
-746.8249999173509
 20
1801.091599761022
 30
0.0
 11
-746.8235945097492
 21
1799.891599761022
 31
0.0
  0
LINE
  5
18D
330
1F
100
AcDbEntity
  8
Make2D$Visible$Curves
 62
    18
420
        0
370
    -3
100
AcDbLine
 10
-747.8212514779234
 20
1755.391599761022
 30
0.0
 11
-747.442108136725
 21
1755.391599761022
 31
0.0
  0
LINE
  5
18E
330
1F
100
AcDbEntity
  8
Make2D$Visible$Curves
 62
    18
420
        0
370
    -3
100
AcDbLine
 10
-747.8248342296524
 20
1782.891599761022
 30
0.0
 11
-747.842116030497
 21
1782.892097753169
 31
0.0
  0
LINE
  5
18F
330
1F
100
AcDbEntity
  8
Make2D$Visible$Curves
 62
    18
420
        0
370
    -3
100
AcDbLine
 10
-745.4359385706314
 20
1789.091599761022
 30
0.0
 11
-745.5237098276729
 21
1789.091599761022
 31
0.0
  0
LINE
  5
190
330
1F
100
AcDbEntity
  8
Make2D$Visible$Curves
 62
    18
420
        0
370
    -3
100
AcDbLine
 10
-745.399965182778
 20
1791.033516165029
 30
0.0
 11
-745.4728589557844
 21
1791.033516165029
 31
0.0
  0
LINE
  5
191
330
1F
100
AcDbEntity
  8
Make2D$Visible$Curves
 62
    18
420
        0
370
    -3
100
AcDbLine
 10
-745.5237098276727
 20
1789.091599761022
 30
0.0
 11
-745.4728589570235
 21
1791.033516165055
 31
0.0
  0
LINE
  5
192
330
1F
100
AcDbEntity
  8
Make2D$Visible$Curves
 62
    18
420
        0
370
    -3
100
AcDbLine
 10
-745.399965182778
 20
1791.033516165029
 30
0.0
 11
-745.4359385706316
 21
1789.091599761022
 31
0.0
  0
LINE
  5
193
330
1F
100
AcDbEntity
  8
Make2D$Visible$Curves
 62
    18
420
        0
370
    -3
100
AcDbLine
 10
-745.4359385706316
 20
1789.091599761022
 30
0.0
 11
-745.3931917219368
 21
1789.091599761022
 31
0.0
  0
LINE
  5
194
330
1F
100
AcDbEntity
  8
Make2D$Visible$Curves
 62
    18
420
        0
370
    -3
100
AcDbLine
 10
-747.8249992315318
 20
1008.091599761022
 30
0.0
 11
-747.8249992315318
 21
1019.591599761022
 31
0.0
  0
LINE
  5
195
330
1F
100
AcDbEntity
  8
Make2D$Visible$Curves
 62
    18
420
        0
370
    -3
100
AcDbLine
 10
-746.8235945097535
 20
999.891599761022
 30
0.0
 11
-745.3930220052052
 21
999.891599761022
 31
0.0
  0
LINE
  5
196
330
1F
100
AcDbEntity
  8
Make2D$Visible$Curves
 62
    18
420
        0
370
    -3
100
AcDbLine
 10
-746.8093722973767
 20
999.7469213964532
 30
0.0
 11
-746.807689542756
 21
998.7408552824529
 31
0.0
  0
LINE
  5
197
330
1F
100
AcDbEntity
  8
Make2D$Visible$Curves
 62
    18
420
        0
370
    -3
100
AcDbLine
 10
-747.8212514779277
 20
955.391599761022
 30
0.0
 11
-747.824999231532
 21
958.5915997610218
 31
0.0
  0
LINE
  5
198
330
1F
100
AcDbEntity
  8
Make2D$Visible$Curves
 62
    18
420
        0
370
    -3
100
AcDbLine
 10
-747.8249992315316
 20
1019.591599761022
 30
0.0
 11
-747.8212514779273
 21
1022.791599761022
 31
0.0
  0
LINE
  5
199
330
1F
100
AcDbEntity
  8
Make2D$Visible$Curves
 62
    18
420
        0
370
    -3
100
AcDbLine
 10
-746.8235945097535
 20
978.2915997610219
 30
0.0
 11
-746.8243713780357
 21
978.091599761022
 31
0.0
  0
LINE
  5
19A
330
1F
100
AcDbEntity
  8
Make2D$Visible$Curves
 62
    18
420
        0
370
    -3
100
AcDbLine
 10
-746.8249999173552
 20
1001.091599761022
 30
0.0
 11
-746.8235945097535
 21
999.891599761022
 31
0.0
  0
LINE
  5
19B
330
1F
100
AcDbEntity
  8
Make2D$Visible$Curves
 62
    18
420
        0
370
    -3
100
AcDbLine
 10
-747.8212514779275
 20
955.391599761022
 30
0.0
 11
-747.4423184533307
 21
955.391599761022
 31
0.0
  0
LINE
  5
19C
330
1F
100
AcDbEntity
  8
Make2D$Visible$Curves
 62
    18
420
        0
370
    -3
100
AcDbLine
 10
-746.7843450720594
 20
1794.091599761022
 30
0.0
 11
-746.7843450720594
 21
1784.091599761021
 31
0.0
  0
LINE
  5
19D
330
1F
100
AcDbEntity
  8
Make2D$Visible$Curves
 62
     9
420
 12500670
370
    -3
100
AcDbLine
 10
-494.1152187387343
 20
909.7613723518602
 30
0.0
 11
-540.58330498141
 21
909.7613723518602
 31
0.0
  0
LINE
  5
19E
330
1F
100
AcDbEntity
  8
Make2D$Visible$Curves
 62
     9
420
 12500670
370
    -3
100
AcDbLine
 10
-488.58330498141
 20
909.7710837070042
 30
0.0
 11
-494.1152187387343
 21
909.7710837070042
 31
0.0
  0
LINE
  5
19F
330
1F
100
AcDbEntity
  8
Make2D$Visible$Curves
 62
     9
420
 12500670
370
    -3
100
AcDbLine
 10
-474.58330498141
 20
887.7906991712557
 30
0.0
 11
-554.58330498141
 21
887.7906991712557
 31
0.0
  0
LINE
  5
1A0
330
1F
100
AcDbEntity
  8
Make2D$Visible$Curves
 62
     9
420
 12500670
370
    -3
100
AcDbLine
 10
-554.58330498141
 20
887.5915997610209
 30
0.0
 11
-554.58330498141
 21
887.7906991712557
 31
0.0
  0
LINE
  5
1A1
330
1F
100
AcDbEntity
  8
Make2D$Visible$Curves
 62
     9
420
 12500670
370
    -3
100
AcDbLine
 10
-474.58330498141
 20
887.5915997610209
 30
0.0
 11
-554.58330498141
 21
887.5915997610209
 31
0.0
  0
LINE
  5
1A2
330
1F
100
AcDbEntity
  8
Make2D$Visible$Curves
 62
     9
420
 12500670
370
    -3
100
AcDbLine
 10
-474.58330498141
 20
887.7904211114967
 30
0.0
 11
-474.58330498141
 21
887.5915997610209
 31
0.0
  0
LINE
  5
1A3
330
1F
100
AcDbEntity
  8
Make2D$Visible$Curves
 62
     9
420
 12500670
370
    -3
100
AcDbLine
 10
-488.58330498141
 20
909.7710837070042
 30
0.0
 11
-488.58330498141
 21
907.7906854547891
 31
0.0
  0
LINE
  5
1A4
330
1F
100
AcDbEntity
  8
Make2D$Visible$Curves
 62
     9
420
 12500670
370
    -3
100
AcDbLine
 10
-540.58330498141
 20
907.7910011584959
 30
0.0
 11
-540.58330498141
 21
909.7613723518602
 31
0.0
  0
LINE
  5
1A5
330
1F
100
AcDbEntity
  8
Make2D$Visible$Curves
 62
     9
420
 12500670
370
    -3
100
AcDbLine
 10
-554.58330498141
 20
887.7906991712557
 30
0.0
 11
-554.58330498141
 21
907.7906854547891
 31
0.0
  0
LINE
  5
1A6
330
1F
100
AcDbEntity
  8
Make2D$Visible$Curves
 62
     9
420
 12500670
370
    -3
100
AcDbLine
 10
-474.58330498141
 20
907.7906854547891
 30
0.0
 11
-474.58330498141
 21
887.7906991712557
 31
0.0
  0
LINE
  5
1A7
330
1F
100
AcDbEntity
  8
Make2D$Visible$Curves
 62
    18
420
        0
370
    -3
100
AcDbLine
 10
-747.8081836140375
 20
1784.091599761022
 30
0.0
 11
-747.8081836140375
 21
1784.051766162514
 31
0.0
  0
LINE
  5
1A8
330
1F
100
AcDbEntity
  8
Make2D$Visible$Curves
 62
    18
420
        0
370
    -3
100
AcDbLine
 10
-746.9119634967874
 20
996.0285973131213
 30
0.0
 11
-746.9119634967874
 21
997.7262813941179
 31
0.0
  0
LINE
  5
1A9
330
1F
100
AcDbEntity
  8
Make2D$Visible$Curves
 62
    18
420
        0
370
    -3
100
AcDbLine
 10
-746.9119634967874
 20
982.1546022089224
 30
0.0
 11
-747.0364517245803
 21
982.0482799969193
 31
0.0
  0
ARC
  5
1AA
330
1F
100
AcDbEntity
  8
Make2D$Visible$Curves
 62
    18
420
        0
370
    -3
100
AcDbCircle
 10
746.1980900589278
 20
981.1979841440244
 30
0.0
 40
1.193621970043494
210
0.0
220
0.0
230
-1.0
100
AcDbArc
 50
53.26796737425507
 51
89.81306293612616
  0
LINE
  5
1AB
330
1F
100
AcDbEntity
  8
Make2D$Visible$Curves
 62
    18
420
        0
370
    -3
100
AcDbLine
 10
-746.2019844433394
 20
982.391599761022
 30
0.0
 11
-745.3931152839779
 21
982.3915997610221
 31
0.0
  0
LINE
  5
1AC
330
1F
100
AcDbEntity
  8
Make2D$Visible$Curves
 62
    18
420
        0
370
    -3
100
AcDbLine
 10
-747.4423184533312
 20
889.0915997610209
 30
0.0
 11
-747.8498866578116
 21
889.0915997610218
 31
0.0
  0
LINE
  5
1AD
330
1F
100
AcDbEntity
  8
Make2D$Visible$Curves
 62
    18
420
        0
370
    -3
100
AcDbLine
 10
-747.4423184533312
 20
889.0915997610209
 30
0.0
 11
-747.4423184533312
 21
891.592005564615
 31
0.0
  0
LINE
  5
1AE
330
1F
100
AcDbEntity
  8
Make2D$Visible$Curves
 62
    18
420
        0
370
    -3
100
AcDbLine
 10
-747.4423184533257
 20
1889.091599761021
 30
0.0
 11
-747.8498866578066
 21
1889.091599761022
 31
0.0
  0
LINE
  5
1AF
330
1F
100
AcDbEntity
  8
Make2D$Visible$Curves
 62
    18
420
        0
370
    -3
100
AcDbLine
 10
-763.8498756846329
 20
1889.091599761022
 30
0.0
 11
-763.8498756846384
 21
889.0915997610218
 31
0.0
  0
SPLINE
  5
1B0
330
1F
100
AcDbEntity
  8
Make2D$Visible$Curves
 62
    18
420
        0
370
    -3
100
AcDbSpline
210
0.0
220
0.0
230
1.0
 70
    12
 71
     2
 72
     8
 73
     5
 74
     0
 42
0.000000001
 43
0.0000000001
 40
0.0
 40
0.0
 40
0.0
 40
3.926990816987201
 40
3.926990816987201
 40
7.853981633974402
 40
7.853981633974402
 40
7.853981633974402
 10
-747.4920933058895
 20
929.0915997610209
 30
0.0
 41
1.0
 10
-747.4920933058896
 20
926.5915997610211
 30
0.0
 41
0.7071067811865476
 10
-747.4891653733862
 20
926.5915997610209
 30
0.0
 41
1.0
 10
-747.4862374408826
 20
926.5915997610211
 30
0.0
 41
0.7071067811865476
 10
-747.4862374408826
 20
929.0915997610209
 30
0.0
 41
1.0
  0
SPLINE
  5
1B1
330
1F
100
AcDbEntity
  8
Make2D$Visible$Curves
 62
    18
420
        0
370
    -3
100
AcDbSpline
210
0.0
220
0.0
230
1.0
 70
    12
 71
     2
 72
     8
 73
     5
 74
     0
 42
0.000000001
 43
0.0000000001
 40
0.0
 40
0.0
 40
0.0
 40
3.926990816987289
 40
3.926990816987289
 40
7.853981633974578
 40
7.853981633974578
 40
7.853981633974578
 10
-747.4920933058884
 20
1121.091599761021
 30
0.0
 41
1.0
 10
-747.4920933058886
 20
1118.591599761021
 30
0.0
 41
0.7071067811865476
 10
-747.489165373385
 20
1118.591599761021
 30
0.0
 41
1.0
 10
-747.4862374408816
 20
1118.591599761021
 30
0.0
 41
0.7071067811865476
 10
-747.4862374408817
 20
1121.091599761021
 30
0.0
 41
1.0
  0
LINE
  5
1B2
330
1F
100
AcDbEntity
  8
Make2D$Visible$Curves
 62
    18
420
        0
370
    -3
100
AcDbLine
 10
-747.489165373385
 20
1123.591599761021
 30
0.0
 11
-747.4862374408817
 21
1121.091599761021
 31
0.0
  0
LINE
  5
1B3
330
1F
100
AcDbEntity
  8
Make2D$Visible$Curves
 62
    18
420
        0
370
    -3
100
AcDbLine
 10
-747.4891653733862
 20
931.5915997610209
 30
0.0
 11
-747.4862374408826
 21
929.0915997610209
 31
0.0
  0
LINE
  5
1B4
330
1F
100
AcDbEntity
  8
Make2D$Visible$Curves
 62
    18
420
        0
370
    -3
100
AcDbLine
 10
-747.8498866578116
 20
889.0915997610218
 30
0.0
 11
-763.8498756846384
 21
889.0915997610218
 31
0.0
  0
LINE
  5
1B5
330
1F
100
AcDbEntity
  8
Make2D$Visible$Curves
 62
    18
420
        0
370
    -3
100
AcDbLine
 10
-747.8498866578066
 20
1889.091599761022
 30
0.0
 11
-763.8498756846329
 21
1889.091599761022
 31
0.0
  0
LINE
  5
1B6
330
1F
100
AcDbEntity
  8
Make2D$Visible$Curves
 62
    18
420
        0
370
    -3
100
AcDbLine
 10
-745.3933147470384
 20
1890.591599761021
 30
0.0
 11
-422.7933147470385
 21
1890.591599761021
 31
0.0
  0
LINE
  5
1B7
330
1F
100
AcDbEntity
  8
Make2D$Visible$Curves
 62
    18
420
        0
370
    -3
100
AcDbLine
 10
-422.7933147470385
 20
887.5915997610209
 30
0.0
 11
-422.7933147470385
 21
1830.378840881993
 31
0.0
  0
LINE
  5
1B8
330
1F
100
AcDbEntity
  8
Make2D$Visible$Curves
 62
    18
420
        0
370
    -3
100
AcDbLine
 10
-745.3933147470384
 20
887.5915997610209
 30
0.0
 11
-745.3933147470384
 21
955.3917086930114
 31
0.0
  0
LINE
  5
1B9
330
1F
100
AcDbEntity
  8
Make2D$Visible$Curves
 62
    18
420
        0
370
    -3
100
AcDbLine
 10
-745.3933147470384
 20
887.5915997610209
 30
0.0
 11
-654.5832415569521
 21
887.5915997610209
 31
0.0
  0
LINE
  5
1BA
330
1F
100
AcDbEntity
  8
Make2D$Visible$Curves
 62
    18
420
        0
370
    -3
100
AcDbLine
 10
-747.4557869428468
 20
896.0915997610209
 30
0.0
 11
-747.4505166643407
 21
891.5915997610209
 31
0.0
  0
ARC
  5
1BB
330
1F
100
AcDbEntity
  8
Make2D$Visible$Curves
 62
    18
420
        0
370
    -3
100
AcDbCircle
 10
762.625506256976
 20
896.09159976102
 30
0.0
 40
17.17500000000405
210
0.0
220
0.0
230
-1.0
100
AcDbArc
 50
179.999999999997
 51
192.4948535895877
  0
LINE
  5
1BC
330
1F
100
AcDbEntity
  8
Make2D$Visible$Curves
 62
    18
420
        0
370
    -3
100
AcDbLine
 10
-747.4505166643405
 20
900.5915997610209
 30
0.0
 11
-747.4557869428468
 21
896.0915997610209
 31
0.0
  0
ARC
  5
1BD
330
1F
100
AcDbEntity
  8
Make2D$Visible$Curves
 62
    18
420
        0
370
    -3
100
AcDbCircle
 10
762.6255062569355
 20
896.0915997610257
 30
0.0
 40
17.17499999996378
210
0.0
220
0.0
230
-1.0
100
AcDbArc
 50
167.5034817006295
 51
180.0000000000163
  0
ARC
  5
1BE
330
1F
100
AcDbEntity
  8
Make2D$Visible$Curves
 62
    18
420
        0
370
    -3
100
AcDbCircle
 10
746.8333934706577
 20
899.5925817926599
 30
0.0
 40
0.9990180241335291
210
0.0
220
0.0
230
-1.0
100
AcDbArc
 50
89.98085475337986
 51
167.5571957498884
  0
LINE
  5
1BF
330
1F
100
AcDbEntity
  8
Make2D$Visible$Curves
 62
    18
420
        0
370
    -3
100
AcDbLine
 10
-747.4423184533309
 20
900.5920997321628
 30
0.0
 11
-747.4423184533307
 21
955.391599761022
 31
0.0
  0
ARC
  5
1C0
330
1F
100
AcDbEntity
  8
Make2D$Visible$Curves
 62
    18
420
        0
370
    -3
100
AcDbCircle
 10
746.833393470658
 20
892.5906177293826
 30
0.0
 40
0.9990180241342184
210
0.0
220
0.0
230
-1.0
100
AcDbArc
 50
192.4428042501506
 51
270.0191452465875
  0
LINE
  5
1C1
330
1F
100
AcDbEntity
  8
Make2D$Visible$Curves
 62
    18
420
        0
370
    -3
100
AcDbLine
 10
-745.3933147470384
 20
1799.746921396453
 30
0.0
 11
-746.8093722973722
 21
1799.746921396453
 31
0.0
  0
LINE
  5
1C2
330
1F
100
AcDbEntity
  8
Make2D$Visible$Curves
 62
    18
420
        0
370
    -3
100
AcDbLine
 10
-747.4421081367252
 20
1755.391599761022
 30
0.0
 11
-745.3933147470384
 21
1755.391599761022
 31
0.0
  0
LINE
  5
1C3
330
1F
100
AcDbEntity
  8
Make2D$Visible$Curves
 62
    18
420
        0
370
    -3
100
AcDbLine
 10
-747.4420855120002
 20
1822.791599761022
 30
0.0
 11
-747.8212514779229
 21
1822.791599761022
 31
0.0
  0
LINE
  5
1C4
330
1F
100
AcDbEntity
  8
Make2D$Visible$Curves
 62
    18
420
        0
370
    -3
100
AcDbLine
 10
-745.3933147470384
 20
1822.791599761022
 30
0.0
 11
-747.4420855120002
 21
1822.791599761022
 31
0.0
  0
LINE
  5
1C5
330
1F
100
AcDbEntity
  8
Make2D$Visible$Curves
 62
    18
420
        0
370
    -3
100
AcDbLine
 10
-747.842116030497
 20
1782.892097753169
 30
0.0
 11
-747.849886657807
 21
1782.892637045816
 31
0.0
  0
LINE
  5
1C6
330
1F
100
AcDbEntity
  8
Make2D$Visible$Curves
 62
    18
420
        0
370
    -3
100
AcDbLine
 10
-747.8417874343902
 20
1795.291120345822
 30
0.0
 11
-747.8248342296524
 21
1795.291599761022
 31
0.0
  0
LINE
  5
1C7
330
1F
100
AcDbEntity
  8
Make2D$Visible$Curves
 62
    18
420
        0
370
    -3
100
AcDbLine
 10
-747.8494711006683
 20
1795.290596130272
 30
0.0
 11
-747.842116030497
 21
1795.291101768874
 31
0.0
  0
LINE
  5
1C8
330
1F
100
AcDbEntity
  8
Make2D$Visible$Curves
 62
    18
420
        0
370
    -3
100
AcDbLine
 10
-746.8065565058619
 20
980.3663488056786
 30
0.0
 11
-746.8073139433002
 21
979.4427168857219
 31
0.0
  0
LINE
  5
1C9
330
1F
100
AcDbEntity
  8
Make2D$Visible$Curves
 62
    18
420
        0
370
    -3
100
AcDbLine
 10
-745.3932001166777
 20
999.7469213964532
 30
0.0
 11
-746.8093722973767
 21
999.7469213964532
 31
0.0
  0
LINE
  5
1CA
330
1F
100
AcDbEntity
  8
Make2D$Visible$Curves
 62
    18
420
        0
370
    -3
100
AcDbLine
 10
-747.4423184533307
 20
955.391599761022
 30
0.0
 11
-745.3933147470384
 21
955.391599761022
 31
0.0
  0
LINE
  5
1CB
330
1F
100
AcDbEntity
  8
Make2D$Visible$Curves
 62
    18
420
        0
370
    -3
100
AcDbLine
 10
-747.4423184533305
 20
1022.791599761022
 30
0.0
 11
-747.8212514779273
 21
1022.791599761022
 31
0.0
  0
LINE
  5
1CC
330
1F
100
AcDbEntity
  8
Make2D$Visible$Curves
 62
    18
420
        0
370
    -3
100
AcDbLine
 10
-745.393236618693
 20
1022.791599761022
 30
0.0
 11
-747.4423184533302
 21
1022.791599761022
 31
0.0
  0
LINE
  5
1CD
330
1F
100
AcDbEntity
  8
Make2D$Visible$Curves
 62
    18
420
        0
370
    -3
100
AcDbLine
 10
-474.58330498141
 20
887.5915997610209
 30
0.0
 11
-422.7933147470385
 21
887.5915997610209
 31
0.0
  0
LINE
  5
1CE
330
1F
100
AcDbEntity
  8
Make2D$Visible$Curves
 62
    18
420
        0
370
    -3
100
AcDbLine
 10
-747.4423184533262
 20
1822.791599761022
 30
0.0
 11
-747.4423184533259
 21
1877.591599761021
 31
0.0
  0
LINE
  5
1CF
330
1F
100
AcDbEntity
  8
Make2D$Visible$Curves
 62
    18
420
        0
370
    -3
100
AcDbLine
 10
-747.4423184533302
 20
1022.791599761022
 30
0.0
 11
-747.4423184533266
 21
1755.391599761022
 31
0.0
  0
LINE
  5
1D0
330
1F
100
AcDbEntity
  8
Make2D$Visible$Curves
 62
    18
420
        0
370
    -3
100
AcDbLine
 10
-745.3933147470384
 20
1822.791599761022
 30
0.0
 11
-745.3933147470384
 21
1890.591599761021
 31
0.0
  0
LINE
  5
1D1
330
1F
100
AcDbEntity
  8
Make2D$Visible$Curves
 62
    18
420
        0
370
    -3
100
AcDbLine
 10
-745.3933147470384
 20
1799.891733990846
 30
0.0
 11
-745.3933147470384
 21
1822.791599761022
 31
0.0
  0
LINE
  5
1D2
330
1F
100
AcDbEntity
  8
Make2D$Visible$Curves
 62
    18
420
        0
370
    -3
100
AcDbLine
 10
-745.3933147470384
 20
1799.746921396453
 30
0.0
 11
-745.3933147470384
 21
1799.891733990846
 31
0.0
  0
LINE
  5
1D3
330
1F
100
AcDbEntity
  8
Make2D$Visible$Curves
 62
    18
420
        0
370
    -3
100
AcDbLine
 10
-745.3933147470384
 20
1022.791599761022
 30
0.0
 11
-745.3933147470384
 21
1755.391599761022
 31
0.0
  0
LINE
  5
1D4
330
1F
100
AcDbEntity
  8
Make2D$Visible$Curves
 62
    18
420
        0
370
    -3
100
AcDbLine
 10
-745.3933147470384
 20
999.891599761022
 30
0.0
 11
-745.3933147470384
 21
1022.791599761022
 31
0.0
  0
LINE
  5
1D5
330
1F
100
AcDbEntity
  8
Make2D$Visible$Curves
 62
    18
420
        0
370
    -3
100
AcDbLine
 10
-745.3933147470384
 20
999.7469213964532
 30
0.0
 11
-745.3933147470384
 21
999.891599761022
 31
0.0
  0
LINE
  5
1D6
330
1F
100
AcDbEntity
  8
Make2D$Visible$Curves
 62
    18
420
        0
370
    -3
100
AcDbLine
 10
-747.4419131313775
 20
1782.591599761022
 30
0.0
 11
-747.4427686725076
 21
1782.591599761022
 31
0.0
  0
SPLINE
  5
1D7
330
1F
100
AcDbEntity
  8
Make2D$Visible$Curves
 62
    18
420
        0
370
    -3
100
AcDbSpline
210
0.0
220
0.0
230
1.0
 70
    12
 71
     3
 72
     8
 73
     4
 74
     0
 42
0.000000001
 43
0.0000000001
 40
0.0
 40
0.0
 40
0.0
 40
0.0
 40
1.41471422541688
 40
1.41471422541688
 40
1.41471422541688
 40
1.41471422541688
 10
-747.2833866239262
 20
1795.098712277036
 30
0.0
 41
1.0
 10
-747.2833866239258
 20
1794.626935040351
 30
0.0
 41
0.8619343826934334
 10
-747.4863398110236
 20
1794.252862126787
 30
0.0
 41
0.8619343826934334
 10
-747.8081836140375
 20
1794.13143335953
 30
0.0
 41
1.0
  0
SPLINE
  5
1D8
330
1F
100
AcDbEntity
  8
Make2D$Visible$Curves
 62
    18
420
        0
370
    -3
100
AcDbSpline
210
0.0
220
0.0
230
1.0
 70
    12
 71
     3
 72
     8
 73
     4
 74
     0
 42
0.000000001
 43
0.0000000001
 40
0.0
 40
0.0
 40
0.0
 40
0.0
 40
1.414714225417482
 40
1.414714225417482
 40
1.414714225417482
 40
1.414714225417482
 10
-747.8081836140375
 20
1784.051766162514
 30
0.0
 41
1.0
 10
-747.4863398110242
 20
1783.930337395259
 30
0.0
 41
0.8619343826933357
 10
-747.283386623926
 20
1783.556264481694
 30
0.0
 41
0.8619343826933357
 10
-747.2833866239259
 20
1783.084487245008
 30
0.0
 41
1.0
  0
ARC
  5
1D9
330
1F
100
AcDbEntity
  8
Make2D$Visible$Curves
 62
    18
420
        0
370
    -3
100
AcDbCircle
 10
747.5149028069699
 20
996.7005947636526
 30
0.0
 40
1.189776817591693
210
0.0
220
0.0
230
-1.0
100
AcDbArc
 50
120.4487023823906
 51
165.8425195749659
  0
LINE
  5
1DA
330
1F
100
AcDbEntity
  8
Make2D$Visible$Curves
 62
    18
420
        0
370
    -3
100
AcDbLine
 10
-747.2833866239303
 20
995.5915997610218
 30
0.0
 11
-747.2833866239303
 21
995.0987122770357
 31
0.0
  0
LINE
  5
1DB
330
1F
100
AcDbEntity
  8
Make2D$Visible$Curves
 62
    18
420
        0
370
    -3
100
AcDbLine
 10
-747.2833866239303
 20
983.084487245008
 30
0.0
 11
-747.2833866239303
 21
982.5915997610218
 31
0.0
  0
LINE
  5
1DC
330
1F
100
AcDbEntity
  8
Make2D$Visible$Curves
 62
    18
420
        0
370
    -3
100
AcDbLine
 10
-745.4359385706357
 20
989.0915997610218
 30
0.0
 11
-745.5237098276767
 21
989.0915997610222
 31
0.0
  0
LINE
  5
1DD
330
1F
100
AcDbEntity
  8
Make2D$Visible$Curves
 62
    18
420
        0
370
    -3
100
AcDbLine
 10
-745.3999651827821
 20
991.0335161650291
 30
0.0
 11
-745.4728589557888
 21
991.0335161650291
 31
0.0
  0
LINE
  5
1DE
330
1F
100
AcDbEntity
  8
Make2D$Visible$Curves
 62
    18
420
        0
370
    -3
100
AcDbLine
 10
-745.5237098276766
 20
989.0915997610217
 30
0.0
 11
-745.4728589570273
 21
991.0335161650548
 31
0.0
  0
LINE
  5
1DF
330
1F
100
AcDbEntity
  8
Make2D$Visible$Curves
 62
    18
420
        0
370
    -3
100
AcDbLine
 10
-745.3999651827821
 20
991.0335161650291
 30
0.0
 11
-745.4359385706357
 21
989.0915997610218
 31
0.0
  0
LINE
  5
1E0
330
1F
100
AcDbEntity
  8
Make2D$Visible$Curves
 62
    18
420
        0
370
    -3
100
AcDbLine
 10
-745.4359385706357
 20
989.0915997610218
 30
0.0
 11
-745.3929675411877
 21
989.0915997610222
 31
0.0
  0
LINE
  5
1E1
330
1F
100
AcDbEntity
  8
Make2D$Visible$Curves
 62
    18
420
        0
370
    -3
100
AcDbLine
 10
-745.4728267662846
 20
987.1484540420992
 30
0.0
 11
-745.5237098276767
 21
989.0915997610218
 31
0.0
  0
LINE
  5
1E2
330
1F
100
AcDbEntity
  8
Make2D$Visible$Curves
 62
    18
420
        0
370
    -3
100
AcDbLine
 10
-746.7843450720637
 20
994.0915997610214
 30
0.0
 11
-746.7843450720635
 21
984.0915997610223
 31
0.0
  0
LINE
  5
1E3
330
1F
100
AcDbEntity
  8
Make2D$Visible$Curves
 62
    18
420
        0
370
    -3
100
AcDbLine
 10
-746.9119634967833
 20
1796.028597313122
 30
0.0
 11
-746.9119634967828
 21
1797.726281394118
 31
0.0
  0
LINE
  5
1E4
330
1F
100
AcDbEntity
  8
Make2D$Visible$Curves
 62
    18
420
        0
370
    -3
100
AcDbLine
 10
-746.9119634967833
 20
1782.154602208922
 30
0.0
 11
-747.0366013669675
 21
1782.04813339179
 31
0.0
  0
LINE
  5
1E5
330
1F
100
AcDbEntity
  8
Make2D$Visible$Curves
 62
    18
420
        0
370
    -3
100
AcDbLine
 10
-746.2019844433353
 20
1782.391599761022
 30
0.0
 11
-745.3933147470381
 21
1782.391599761022
 31
0.0
  0
ARC
  5
1E6
330
1F
100
AcDbEntity
  8
Make2D$Visible$Curves
 62
    18
420
        0
370
    -3
100
AcDbCircle
 10
746.198090058924
 20
1781.197984144027
 30
0.0
 40
1.19362197004108
210
0.0
220
0.0
230
-1.0
100
AcDbArc
 50
53.26796737418223
 51
89.8130629361367
  0
LINE
  5
1E7
330
1F
100
AcDbEntity
  8
Make2D$Visible$Curves
 62
    18
420
        0
370
    -3
100
AcDbLine
 10
-747.4557869428418
 20
1882.091599761021
 30
0.0
 11
-747.4505166643355
 21
1877.591599761021
 31
0.0
  0
ARC
  5
1E8
330
1F
100
AcDbEntity
  8
Make2D$Visible$Curves
 62
    18
420
        0
370
    -3
100
AcDbCircle
 10
746.8333934706544
 20
1878.590617729385
 30
0.0
 40
0.9990180241361156
210
0.0
220
0.0
230
-1.0
100
AcDbArc
 50
192.44280425022
 51
270.0191452464962
  0
ARC
  5
1E9
330
1F
100
AcDbEntity
  8
Make2D$Visible$Curves
 62
    18
420
        0
370
    -3
100
AcDbCircle
 10
762.6255062569352
 20
1882.091599761019
 30
0.0
 40
17.17499999996858
210
0.0
220
0.0
230
-1.0
100
AcDbArc
 50
179.9999999999939
 51
192.4965182993743
  0
LINE
  5
1EA
330
1F
100
AcDbEntity
  8
Make2D$Visible$Curves
 62
    18
420
        0
370
    -3
100
AcDbLine
 10
-747.4505166643355
 20
1886.591599761021
 30
0.0
 11
-747.4557869428418
 21
1882.091599761021
 31
0.0
  0
ARC
  5
1EB
330
1F
100
AcDbEntity
  8
Make2D$Visible$Curves
 62
    18
420
        0
370
    -3
100
AcDbCircle
 10
762.62550625696
 20
1882.091599761021
 30
0.0
 40
17.17499999999368
210
0.0
220
0.0
230
-1.0
100
AcDbArc
 50
167.5034817006334
 51
179.9999999999985
  0
ARC
  5
1EC
330
1F
100
AcDbEntity
  8
Make2D$Visible$Curves
 62
    18
420
        0
370
    -3
100
AcDbCircle
 10
746.8333934706523
 20
1885.592581792661
 30
0.0
 40
0.9990180241329609
210
0.0
220
0.0
230
-1.0
100
AcDbArc
 50
89.98085475335378
 51
167.5571957499132
  0
LINE
  5
1ED
330
1F
100
AcDbEntity
  8
Make2D$Visible$Curves
 62
    18
420
        0
370
    -3
100
AcDbLine
 10
-747.8081836140418
 20
994.1314333595301
 30
0.0
 11
-747.8081836140418
 21
994.0915997610218
 31
0.0
  0
LINE
  5
1EE
330
1F
100
AcDbEntity
  8
Make2D$Visible$Curves
 62
    18
420
        0
370
    -3
100
AcDbLine
 10
-747.8081836140418
 20
984.0917957068864
 30
0.0
 11
-747.8081836140418
 21
984.0517661625145
 31
0.0
  0
LINE
  5
1EF
330
1F
100
AcDbEntity
  8
Make2D$Visible$Curves
 62
    18
420
        0
370
    -3
100
AcDbLine
 10
-746.8065565198087
 20
1780.366331793297
 30
0.0
 11
-746.8073139482276
 21
1779.442710872133
 31
0.0
  0
LINE
  5
1F0
330
1F
100
AcDbEntity
  8
Make2D$Visible$Curves
 62
    18
420
        0
370
    -3
100
AcDbLine
 10
-747.4423184533257
 20
1886.591599761021
 30
0.0
 11
-747.4423184533257
 21
1889.091599761021
 31
0.0
  0
LINE
  5
1F1
330
1F
100
AcDbEntity
  8
Make2D$Visible$Curves
 62
    18
420
        0
370
    -3
100
AcDbLine
 10
-747.8421149549979
 20
995.2911018302418
 30
0.0
 11
-747.8248342296565
 21
995.2915997610216
 31
0.0
  0
LINE
  5
1F2
330
1F
100
AcDbEntity
  8
Make2D$Visible$Curves
 62
    18
420
        0
370
    -3
100
AcDbLine
 10
-747.8497947912706
 20
995.2905699625026
 30
0.0
 11
-747.8421149549979
 21
995.2911018302418
 31
0.0
  0
LINE
  5
1F3
330
1F
100
AcDbEntity
  8
Make2D$Visible$Curves
 62
    18
420
        0
370
    -3
100
AcDbLine
 10
-745.3930437138151
 20
1795.791599761022
 30
0.0
 11
-746.201984443335
 21
1795.791599761022
 31
0.0
  0
LINE
  5
1F4
330
1F
100
AcDbEntity
  8
Make2D$Visible$Curves
 62
    18
420
        0
370
    -3
100
AcDbLine
 10
-747.4419131313816
 20
982.8915997610217
 30
0.0
 11
-747.4419131313816
 21
982.5913209221177
 31
0.0
  0
SPLINE
  5
1F5
330
1F
100
AcDbEntity
  8
Make2D$Visible$Curves
 62
    18
420
        0
370
    -3
100
AcDbSpline
210
0.0
220
0.0
230
1.0
 70
    12
 71
     3
 72
     8
 73
     4
 74
     0
 42
0.000000001
 43
0.0000000001
 40
0.0
 40
0.0
 40
0.0
 40
0.0
 40
1.41471422541688
 40
1.41471422541688
 40
1.41471422541688
 40
1.41471422541688
 10
-747.2833866239303
 20
995.0987122770357
 30
0.0
 41
1.0
 10
-747.28338662393
 20
994.6269350403505
 30
0.0
 41
0.8619343826934334
 10
-747.4863398110278
 20
994.2528621267866
 30
0.0
 41
0.8619343826934334
 10
-747.8081836140418
 20
994.1314333595301
 30
0.0
 41
1.0
  0
SPLINE
  5
1F6
330
1F
100
AcDbEntity
  8
Make2D$Visible$Curves
 62
    18
420
        0
370
    -3
100
AcDbSpline
210
0.0
220
0.0
230
1.0
 70
    12
 71
     3
 72
     8
 73
     4
 74
     0
 42
0.000000001
 43
0.0000000001
 40
0.0
 40
0.0
 40
0.0
 40
0.0
 40
1.414714225417482
 40
1.414714225417482
 40
1.414714225417482
 40
1.414714225417482
 10
-747.8081836140418
 20
984.0517661625145
 30
0.0
 41
1.0
 10
-747.4863398110284
 20
983.9303373952584
 30
0.0
 41
0.8619343826933357
 10
-747.2833866239303
 20
983.556264481694
 30
0.0
 41
0.8619343826933357
 10
-747.2833866239303
 20
983.084487245008
 30
0.0
 41
1.0
  0
LINE
  5
1F7
330
1F
100
AcDbEntity
  8
Make2D$Visible$Curves
 62
    18
420
        0
370
    -3
100
AcDbLine
 10
-747.8498866578111
 20
995.1346006929125
 30
0.0
 11
-747.8419906176207
 21
995.1341004698636
 31
0.0
  0
ARC
  5
1F8
330
1F
100
AcDbEntity
  8
Make2D$Visible$Curves
 62
    18
420
        0
370
    -3
100
AcDbCircle
 10
747.5149028069682
 20
1796.700594763651
 30
0.0
 40
1.189776817594505
210
0.0
220
0.0
230
-1.0
100
AcDbArc
 50
120.4487023824698
 51
165.8425195748985
  0
LINE
  5
1F9
330
1F
100
AcDbEntity
  8
Make2D$Visible$Curves
 62
    18
420
        0
370
    -3
100
AcDbLine
 10
-747.8241208517809
 20
970.0919330943932
 30
0.0
 11
-747.8241208517809
 21
970.6186465591109
 31
0.0
  0
LINE
  5
1FA
330
1F
100
AcDbEntity
  8
Make2D$Visible$Curves
 62
    18
420
        0
370
    -3
100
AcDbLine
 10
-747.8493421263051
 20
981.6915997666736
 30
0.0
 11
-747.8426832963441
 21
981.6915997625897
 31
0.0
  0
LINE
  5
1FB
330
1F
100
AcDbEntity
  8
Make2D$Visible$Curves
 62
    18
420
        0
370
    -3
100
AcDbLine
 10
-746.8240372846399
 20
978.0915997610218
 30
0.0
 11
-747.0241887085074
 21
978.0915997610218
 31
0.0
  0
LINE
  5
1FC
330
1F
100
AcDbEntity
  8
Make2D$Visible$Curves
 62
    18
420
        0
370
    -3
100
AcDbLine
 10
-747.8412652131619
 20
996.4915993777536
 30
0.0
 11
-747.8427165294197
 21
996.4915993780651
 31
0.0
  0
LINE
  5
1FD
330
1F
100
AcDbEntity
  8
Make2D$Visible$Curves
 62
    18
420
        0
370
    -3
100
AcDbLine
 10
-747.8241208512986
 20
1008.091599761022
 30
0.0
 11
-747.8241208512216
 21
1007.564552988779
 31
0.0
  0
LINE
  5
1FE
330
1F
100
AcDbEntity
  8
Make2D$Visible$Curves
 62
    18
420
        0
370
    -3
100
AcDbLine
 10
-747.0272269096952
 20
980.307463703268
 30
0.0
 11
-747.0261776603959
 21
979.4427108721338
 31
0.0
  0
LINE
  5
1FF
330
1F
100
AcDbEntity
  8
Make2D$Visible$Curves
 62
    18
420
        0
370
    -3
100
AcDbLine
 10
-746.8249999173554
 20
970.6245920313318
 30
0.0
 11
-746.8249999173552
 21
977.0915997610218
 31
0.0
  0
LINE
  5
200
330
1F
100
AcDbEntity
  8
Make2D$Visible$Curves
 62
    18
420
        0
370
    -3
100
AcDbLine
 10
-746.807689542756
 20
998.7408552824529
 30
0.0
 11
-746.8061438496279
 21
997.8167339282745
 31
0.0
  0
LINE
  5
201
330
1F
100
AcDbEntity
  8
Make2D$Visible$Curves
 62
    18
420
        0
370
    -3
100
AcDbLine
 10
-746.8243713780355
 20
978.0915997610219
 30
0.0
 11
-746.8249999173552
 21
977.0915997610218
 31
0.0
  0
LINE
  5
202
330
1F
100
AcDbEntity
  8
Make2D$Visible$Curves
 62
    18
420
        0
370
    -3
100
AcDbLine
 10
-747.0420712051575
 20
997.7921956653463
 30
0.0
 11
-746.9119634967874
 21
997.7262813941179
 31
0.0
  0
LINE
  5
203
330
1F
100
AcDbEntity
  8
Make2D$Visible$Curves
 62
    18
420
        0
370
    -3
100
AcDbLine
 10
-746.8073139433002
 20
979.4427168857219
 30
0.0
 11
-746.8079781774563
 21
978.632738611941
 31
0.0
  0
LINE
  5
204
330
1F
100
AcDbEntity
  8
Make2D$Visible$Curves
 62
    18
420
        0
370
    -3
100
AcDbLine
 10
-747.0269711967708
 20
980.3971839600738
 30
0.0
 11
-746.9119634967874
 21
980.4569181279257
 31
0.0
  0
LINE
  5
205
330
1F
100
AcDbEntity
  8
Make2D$Visible$Curves
 62
    18
420
        0
370
    -3
100
AcDbLine
 10
-747.4537101609478
 20
982.5944539983589
 30
0.0
 11
-747.4537101609478
 21
982.891599761022
 31
0.0
  0
LINE
  5
206
330
1F
100
AcDbEntity
  8
Make2D$Visible$Curves
 62
    18
420
        0
370
    -3
100
AcDbLine
 10
-747.4537101609478
 20
982.5915997610218
 30
0.0
 11
-747.4537101609478
 21
982.5944539983589
 31
0.0
  0
LINE
  5
207
330
1F
100
AcDbEntity
  8
Make2D$Visible$Curves
 62
    18
420
        0
370
    -3
100
AcDbLine
 10
-747.4419131313823
 20
982.591320922118
 30
0.0
 11
-747.4419131313816
 21
982.5912183137324
 31
0.0
  0
LINE
  5
208
330
1F
100
AcDbEntity
  8
Make2D$Visible$Curves
 62
    18
420
        0
370
    -3
100
AcDbLine
 10
-747.0428601873327
 20
981.7943775387998
 30
0.0
 11
-747.0423220803086
 21
982.4915997610219
 31
0.0
  0
LINE
  5
209
330
1F
100
AcDbEntity
  8
Make2D$Visible$Curves
 62
    18
420
        0
370
    -3
100
AcDbLine
 10
-747.8241208517809
 20
970.6186465591109
 30
0.0
 11
-746.8249999173554
 21
970.6186395336422
 31
0.0
  0
LINE
  5
20A
330
1F
100
AcDbEntity
  8
Make2D$Visible$Curves
 62
    18
420
        0
370
    -3
100
AcDbLine
 10
-746.82460073516
 20
1007.564560208238
 30
0.0
 11
-747.8241208512216
 21
1007.564552988779
 31
0.0
  0
LINE
  5
20B
330
1F
100
AcDbEntity
  8
Make2D$Visible$Curves
 62
    18
420
        0
370
    -3
100
AcDbLine
 10
-745.3933147470386
 20
978.2915997610216
 30
0.0
 11
-746.8235945097535
 21
978.2915997610216
 31
0.0
  0
ARC
  5
20C
330
1F
100
AcDbEntity
  8
Make2D$Visible$Curves
 62
    18
420
        0
370
    -3
100
AcDbCircle
 10
746.1977610611227
 20
996.9862009643605
 30
0.0
 40
1.194608668969022
210
0.0
220
0.0
230
-1.0
100
AcDbArc
 50
270.2025621332368
 51
306.7164075563835
  0
ARC
  5
20D
330
1F
100
AcDbEntity
  8
Make2D$Visible$Curves
 62
    18
420
        0
370
    -3
100
AcDbCircle
 10
747.5149828819406
 20
981.4826647807597
 30
0.0
 40
1.189869141826332
210
0.0
220
0.0
230
-1.0
100
AcDbArc
 50
194.1593398028696
 51
239.5494382397729
  0
ARC
  5
20E
330
1F
100
AcDbEntity
  8
Make2D$Visible$Curves
 62
    18
420
        0
370
    -3
100
AcDbCircle
 10
-747.232300277694
 20
981.5096116023856
 30
0.0
 40
1.219978054690674
100
AcDbArc
 50
290.4250959595399
 51
344.890170848159
  0
LINE
  5
20F
330
1F
100
AcDbEntity
  8
Make2D$Visible$Curves
 62
    18
420
        0
370
    -3
100
AcDbLine
 10
-747.8248342296565
 20
995.2915997610216
 30
0.0
 11
-747.4419131313816
 21
995.2915997610216
 31
0.0
  0
LINE
  5
210
330
1F
100
AcDbEntity
  8
Make2D$Visible$Curves
 62
    18
420
        0
370
    -3
100
AcDbLine
 10
-747.2833866239303
 20
983.084487245008
 30
0.0
 11
-747.8417380154974
 21
983.0491150548096
 31
0.0
  0
LINE
  5
211
330
1F
100
AcDbEntity
  8
Make2D$Visible$Curves
 62
    18
420
        0
370
    -3
100
AcDbLine
 10
-745.3929326967232
 20
995.5915997610218
 30
0.0
 11
-747.2833866239303
 21
995.5915997610218
 31
0.0
  0
LINE
  5
212
330
1F
100
AcDbEntity
  8
Make2D$Visible$Curves
 62
    18
420
        0
370
    -3
100
AcDbLine
 10
-745.3930020022685
 20
982.5915997610218
 30
0.0
 11
-747.2833866239303
 21
982.5915997610218
 31
0.0
  0
LINE
  5
213
330
1F
100
AcDbEntity
  8
Make2D$Visible$Curves
 62
    18
420
        0
370
    -3
100
AcDbLine
 10
-747.8419906176207
 20
995.1341004698636
 30
0.0
 11
-747.2833866239303
 21
995.0987122770357
 31
0.0
  0
LINE
  5
214
330
1F
100
AcDbEntity
  8
Make2D$Visible$Curves
 62
     9
420
 12500670
370
    -3
100
AcDbLine
 10
-601.0410910848066
 20
887.7058038409803
 30
0.0
 11
-580.2173611379271
 21
887.7262752717807
 31
0.0
  0
LINE
  5
215
330
1F
100
AcDbEntity
  8
Make2D$Visible$Curves
 62
    18
420
        0
370
    -3
100
AcDbLine
 10
-574.58330498141
 20
887.5915997610209
 30
0.0
 11
-554.5830903826479
 21
887.5915997610209
 31
0.0
  0
LINE
  5
216
330
1F
100
AcDbEntity
  8
Make2D$Visible$Curves
 62
     9
420
 12500670
370
    -3
100
AcDbLine
 10
-654.58330498141
 20
887.7906991712557
 30
0.0
 11
-654.58330498141
 21
910.7906833973191
 31
0.0
  0
LINE
  5
217
330
1F
100
AcDbEntity
  8
Make2D$Visible$Curves
 62
     9
420
 12500670
370
    -3
100
AcDbLine
 10
-642.3717665198715
 20
887.7723589273801
 30
0.0
 11
-654.58330498141
 21
887.7723589273801
 31
0.0
  0
LINE
  5
218
330
1F
100
AcDbEntity
  8
Make2D$Visible$Curves
 62
     9
420
 12500670
370
    -3
100
AcDbLine
 10
-574.58330498141
 20
910.7906833973191
 30
0.0
 11
-574.58330498141
 21
887.7906991712557
 31
0.0
  0
LINE
  5
219
330
1F
100
AcDbEntity
  8
Make2D$Visible$Curves
 62
     9
420
 12500670
370
    -3
100
AcDbLine
 10
-707.2469418962405
 20
889.9033946156844
 30
0.0
 11
-707.2466283380777
 21
889.9029595879292
 31
0.0
  0
LINE
  5
21A
330
1F
100
AcDbEntity
  8
Make2D$Visible$Curves
 62
     9
420
 12500670
370
    -3
100
AcDbLine
 10
-697.5957628565895
 20
889.9212747839895
 30
0.0
 11
-697.5956953653856
 21
889.9213346917227
 31
0.0
  0
LINE
  5
21B
330
1F
100
AcDbEntity
  8
Make2D$Visible$Curves
 62
     9
420
 12500670
370
    -3
100
AcDbLine
 10
-707.175944006609
 20
889.9212975335844
 30
0.0
 11
-707.2073355810453
 21
889.8870209723043
 31
0.0
  0
LINE
  5
21C
330
1F
100
AcDbEntity
  8
Make2D$Visible$Curves
 62
     9
420
 12500670
370
    -3
100
AcDbLine
 10
-707.0825932080265
 20
889.867818608705
 30
0.0
 11
-697.7769264265303
 21
889.867818608705
 31
0.0
  0
LINE
  5
21D
330
1F
100
AcDbEntity
  8
Make2D$Visible$Curves
 62
     9
420
 12500670
370
    -3
100
AcDbLine
 10
-707.0484365411949
 20
889.8228552371243
 30
0.0
 11
-707.2073355810453
 21
889.8531880676378
 31
0.0
  0
ARC
  5
21E
330
1F
100
AcDbEntity
  8
Make2D$Visible$Curves
 62
     9
420
 12500670
370
    -3
100
AcDbCircle
 10
705.8298318950831
 20
888.8570108348871
 30
0.0
 40
0.9999986658615398
210
0.0
220
0.0
230
-1.0
100
AcDbArc
 50
359.7419675854143
 51
359.9999999994072
  0
LINE
  5
21F
330
1F
100
AcDbEntity
  8
Make2D$Visible$Curves
 62
     9
420
 12500670
370
    -3
100
AcDbLine
 10
-707.0827842512047
 20
889.8678186087047
 30
0.0
 11
-707.060996335616
 21
889.8424889209664
 31
0.0
  0
LINE
  5
220
330
1F
100
AcDbEntity
  8
Make2D$Visible$Curves
 62
     9
420
 12500670
370
    -3
100
AcDbLine
 10
-708.1298305609444
 20
889.8986204586413
 30
0.0
 11
-708.0350753880698
 21
889.8985767321801
 31
0.0
  0
LINE
  5
221
330
1F
100
AcDbEntity
  8
Make2D$Visible$Curves
 62
     9
420
 12500670
370
    -3
100
AcDbLine
 10
-697.5298305609444
 20
889.921224097568
 30
0.0
 11
-696.0298305609444
 21
889.9194673380659
 31
0.0
  0
LINE
  5
222
330
1F
100
AcDbEntity
  8
Make2D$Visible$Curves
 62
     9
420
 12500670
370
    -3
100
AcDbLine
 10
-707.8670938796569
 20
889.8674666930125
 30
0.0
 11
-708.8298305609446
 21
889.8691068990065
 31
0.0
  0
LINE
  5
223
330
1F
100
AcDbEntity
  8
Make2D$Visible$Curves
 62
     9
420
 12500670
370
    -3
100
AcDbLine
 10
-708.4298305609445
 20
889.8911039584327
 30
0.0
 11
-707.9730723397201
 21
889.8907696191222
 31
0.0
  0
LINE
  5
224
330
1F
100
AcDbEntity
  8
Make2D$Visible$Curves
 62
     9
420
 12500670
370
    -3
100
AcDbLine
 10
-697.612925750429
 20
889.9033550903332
 30
0.0
 11
-696.729639696297
 21
889.9040016408201
 31
0.0
  0
LINE
  5
225
330
1F
100
AcDbEntity
  8
Make2D$Visible$Curves
 62
    18
420
        0
370
    -3
100
AcDbLine
 10
-747.0418810357105
 20
995.691599761024
 30
0.0
 11
-747.040128204567
 21
995.691599761135
 31
0.0
  0
LINE
  5
226
330
1F
100
AcDbEntity
  8
Make2D$Visible$Curves
 62
    18
420
        0
370
    -3
100
AcDbLine
 10
-747.8495527263394
 20
1795.134579537978
 30
0.0
 11
-747.8421846768956
 21
1795.134112763738
 31
0.0
  0
LINE
  5
227
330
1F
100
AcDbEntity
  8
Make2D$Visible$Curves
 62
    18
420
        0
370
    -3
100
AcDbLine
 10
-747.4419131313776
 20
1782.891599761021
 30
0.0
 11
-747.4419131313776
 21
1782.592100131944
 31
0.0
  0
LINE
  5
228
330
1F
100
AcDbEntity
  8
Make2D$Visible$Curves
 62
    18
420
        0
370
    -3
100
AcDbLine
 10
-747.8249992315318
 20
958.5915997610218
 30
0.0
 11
-747.8249992315318
 21
970.0915997610218
 31
0.0
  0
LINE
  5
229
330
1F
100
AcDbEntity
  8
Make2D$Visible$Curves
 62
    18
420
        0
370
    -3
100
AcDbLine
 10
-745.3998042683024
 20
987.149690094453
 30
0.0
 11
-745.472765502635
 21
987.1484556463442
 31
0.0
  0
LINE
  5
22A
330
1F
100
AcDbEntity
  8
Make2D$Visible$Curves
 62
    18
420
        0
370
    -3
100
AcDbLine
 10
-745.472765502635
 20
987.1484556463442
 30
0.0
 11
-745.3931041184617
 21
987.1471633626265
 31
0.0
  0
LINE
  5
22B
330
1F
100
AcDbEntity
  8
Make2D$Visible$Curves
 62
     9
420
 12500670
370
    -3
100
AcDbLine
 10
-677.9977840556039
 20
888.07963612143
 30
0.0
 11
-677.9977840556039
 21
888.0341306064201
 31
0.0
  0
LINE
  5
22C
330
1F
100
AcDbEntity
  8
Make2D$Visible$Curves
 62
     9
420
 12500670
370
    -3
100
AcDbLine
 10
-686.8037532469139
 20
888.0796143063972
 30
0.0
 11
-686.8618770662856
 21
888.07963612143
 31
0.0
  0
LINE
  5
22D
330
1F
100
AcDbEntity
  8
Make2D$Visible$Curves
 62
     9
420
 12500670
370
    -3
100
AcDbLine
 10
-688.1298305609444
 20
889.9030709160465
 30
0.0
 11
-688.1298305609444
 21
889.8986204586413
 31
0.0
  0
LINE
  5
22E
330
1F
100
AcDbEntity
  8
Make2D$Visible$Curves
 62
     9
420
 12500670
370
    -3
100
AcDbLine
 10
-688.4298305609445
 20
889.9195844553662
 30
0.0
 11
-688.4298305609445
 21
889.9042210960483
 31
0.0
  0
LINE
  5
22F
330
1F
100
AcDbEntity
  8
Make2D$Visible$Curves
 62
     9
420
 12500670
370
    -3
100
AcDbLine
 10
-676.4298305609445
 20
889.9042210960481
 30
0.0
 11
-676.4298305609445
 21
889.919584455366
 31
0.0
  0
LINE
  5
230
330
1F
100
AcDbEntity
  8
Make2D$Visible$Curves
 62
     9
420
 12500670
370
    -3
100
AcDbLine
 10
-676.4298305609445
 20
889.8911039584327
 30
0.0
 11
-676.4298305609445
 21
889.8974702786397
 31
0.0
  0
LINE
  5
231
330
1F
100
AcDbEntity
  8
Make2D$Visible$Curves
 62
     9
420
 12500670
370
    -3
100
AcDbLine
 10
-676.7298305609447
 20
889.8855033210257
 30
0.0
 11
-676.7298305609447
 21
889.8899537784309
 31
0.0
  0
LINE
  5
232
330
1F
100
AcDbEntity
  8
Make2D$Visible$Curves
 62
     9
420
 12500670
370
    -3
100
AcDbLine
 10
-676.4298305609445
 20
889.8689897817062
 30
0.0
 11
-676.4298305609445
 21
889.8843531410243
 31
0.0
  0
LINE
  5
233
330
1F
100
AcDbEntity
  8
Make2D$Visible$Curves
 62
     9
420
 12500670
370
    -3
100
AcDbLine
 10
-688.4298305609445
 20
889.8843531410243
 30
0.0
 11
-688.4298305609445
 21
889.8689897817062
 31
0.0
  0
LINE
  5
234
330
1F
100
AcDbEntity
  8
Make2D$Visible$Curves
 62
     9
420
 12500670
370
    -3
100
AcDbLine
 10
-688.4298305609445
 20
889.89747027864
 30
0.0
 11
-688.4298305609445
 21
889.8911039584327
 31
0.0
  0
LINE
  5
235
330
1F
100
AcDbEntity
  8
Make2D$Visible$Curves
 62
     9
420
 12500670
370
    -3
100
AcDbLine
 10
-688.1298305609444
 20
889.8986204586413
 30
0.0
 11
-688.0351303662464
 21
889.8985767570855
 31
0.0
  0
LINE
  5
236
330
1F
100
AcDbEntity
  8
Make2D$Visible$Curves
 62
     9
420
 12500670
370
    -3
100
AcDbLine
 10
-688.8298305609446
 20
889.8691068990065
 30
0.0
 11
-688.8298305609446
 21
889.9194673380662
 31
0.0
  0
LINE
  5
237
330
1F
100
AcDbEntity
  8
Make2D$Visible$Curves
 62
     9
420
 12500670
370
    -3
100
AcDbLine
 10
-676.0298305609444
 20
889.9194673380659
 30
0.0
 11
-676.0298305609444
 21
889.8691068990063
 31
0.0
  0
LINE
  5
238
330
1F
100
AcDbEntity
  8
Make2D$Visible$Curves
 62
     9
420
 12500670
370
    -3
100
AcDbLine
 10
-688.8298305609446
 20
891.419466309331
 30
0.0
 11
-688.8298305609446
 21
889.9194673380662
 31
0.0
  0
LINE
  5
239
330
1F
100
AcDbEntity
  8
Make2D$Visible$Curves
 62
     9
420
 12500670
370
    -3
100
AcDbLine
 10
-676.4298305609445
 20
889.919584455366
 30
0.0
 11
-677.2298303428917
 21
889.9207319658157
 31
0.0
  0
LINE
  5
23A
330
1F
100
AcDbEntity
  8
Make2D$Visible$Curves
 62
     9
420
 12500670
370
    -3
100
AcDbLine
 10
-688.4298305609445
 20
889.8689897817062
 30
0.0
 11
-687.9434708185979
 21
889.8679849086603
 31
0.0
  0
ARC
  5
23B
330
1F
100
AcDbEntity
  8
Make2D$Visible$Curves
 62
     9
420
 12500670
370
    -3
100
AcDbCircle
 10
-687.3344265657012
 20
891.4175369822958
 30
0.0
 40
1.495802594260036
100
AcDbArc
 50
104.8608683823156
 51
170.9900457875429
  0
LINE
  5
23C
330
1F
100
AcDbEntity
  8
Make2D$Visible$Curves
 62
     9
420
 12500670
370
    -3
100
AcDbLine
 10
-688.8117726727378
 20
891.6517887293949
 30
0.0
 11
-688.7787193003783
 21
891.6101239645805
 31
0.0
  0
ARC
  5
23D
330
1F
100
AcDbEntity
  8
Make2D$Visible$Curves
 62
     9
420
 12500670
370
    -3
100
AcDbCircle
 10
-677.5252345561879
 20
891.4175369822956
 30
0.0
 40
1.495802594260129
100
AcDbArc
 50
9.009954212465063
 51
75.13913161768558
  0
LINE
  5
23E
330
1F
100
AcDbEntity
  8
Make2D$Visible$Curves
 62
     9
420
 12500670
370
    -3
100
AcDbLine
 10
-677.5298305609444
 20
890.162538295514
 30
0.0
 11
-676.0809418215108
 21
891.6101239645805
 31
0.0
  0
LINE
  5
23F
330
1F
100
AcDbEntity
  8
Make2D$Visible$Curves
 62
     9
420
 12500670
370
    -3
100
AcDbLine
 10
-688.7787193003783
 20
891.6101239645805
 30
0.0
 11
-687.3298305609446
 21
890.162538295514
 31
0.0
  0
LINE
  5
240
330
1F
100
AcDbEntity
  8
Make2D$Visible$Curves
 62
     9
420
 12500670
370
    -3
100
AcDbLine
 10
-688.8117726727378
 20
891.6517887293949
 30
0.0
 11
-688.8298305609446
 21
891.419466309331
 31
0.0
  0
LINE
  5
241
330
1F
100
AcDbEntity
  8
Make2D$Visible$Curves
 62
     9
420
 12500670
370
    -3
100
AcDbLine
 10
-676.0298305609444
 20
891.419466309331
 30
0.0
 11
-676.0478884491513
 21
891.6517887293949
 31
0.0
  0
ARC
  5
242
330
1F
100
AcDbEntity
  8
Make2D$Visible$Curves
 62
     9
420
 12500670
370
    -3
100
AcDbCircle
 10
-677.5280446463087
 20
891.4146418593783
 30
0.0
 40
1.499322889954014
100
AcDbArc
 50
75.06371247499959
 51
90.00111410467524
  0
LINE
  5
243
330
1F
100
AcDbEntity
  8
Make2D$Visible$Curves
 62
     9
420
 12500670
370
    -3
100
AcDbLine
 10
-676.4298305609445
 20
889.8843531410243
 30
0.0
 11
-676.7298312421169
 21
889.8845727364605
 31
0.0
  0
LINE
  5
244
330
1F
100
AcDbEntity
  8
Make2D$Visible$Curves
 62
     9
420
 12500670
370
    -3
100
AcDbLine
 10
-686.8298305609446
 20
888.8570108348765
 30
0.0
 11
-686.8298305609446
 21
889.203071396123
 31
0.0
  0
LINE
  5
245
330
1F
100
AcDbEntity
  8
Make2D$Visible$Curves
 62
     9
420
 12500670
370
    -3
100
AcDbLine
 10
-686.8618770662856
 20
888.07963612143
 30
0.0
 11
-686.8618770662856
 21
888.4764971440572
 31
0.0
  0
LINE
  5
246
330
1F
100
AcDbEntity
  8
Make2D$Visible$Curves
 62
     9
420
 12500670
370
    -3
100
AcDbLine
 10
-686.1717067415725
 20
887.7082117924442
 30
0.0
 11
-686.1717067415725
 21
887.9132563147614
 31
0.0
  0
LINE
  5
247
330
1F
100
AcDbEntity
  8
Make2D$Visible$Curves
 62
     9
420
 12500670
370
    -3
100
AcDbLine
 10
-686.1717067415725
 20
887.9132563147614
 30
0.0
 11
-686.1934669245811
 21
887.9250552609612
 31
0.0
  0
ARC
  5
248
330
1F
100
AcDbEntity
  8
Make2D$Visible$Curves
 62
     9
420
 12500670
370
    -3
100
AcDbCircle
 10
685.8286929548608
 20
888.8574334230991
 30
0.0
 40
1.001193830492929
210
0.0
220
0.0
230
-1.0
100
AcDbArc
 50
291.3669099591103
 51
329.3290234941941
  0
ARC
  5
249
330
1F
100
AcDbEntity
  8
Make2D$Visible$Curves
 62
     9
420
 12500670
370
    -3
100
AcDbCircle
 10
-687.0120988214115
 20
888.2013996956216
 30
0.0
 40
0.3535166118038031
100
AcDbArc
 50
24.27160294440528
 51
53.88899200167445
  0
LINE
  5
24A
330
1F
100
AcDbEntity
  8
Make2D$Visible$Curves
 62
     9
420
 12500670
370
    -3
100
AcDbLine
 10
-686.8037532469134
 20
888.486997518457
 30
0.0
 11
-686.8037532469134
 21
888.0796143063972
 31
0.0
  0
ARC
  5
24B
330
1F
100
AcDbEntity
  8
Make2D$Visible$Curves
 62
     9
420
 12500670
370
    -3
100
AcDbCircle
 10
687.829829439835
 20
889.2030713602953
 30
0.0
 40
0.9999988788903097
210
0.0
220
0.0
230
-1.0
100
AcDbArc
 50
141.7533578490336
 51
179.9999979472203
  0
ARC
  5
24C
330
1F
100
AcDbEntity
  8
Make2D$Visible$Curves
 62
     9
420
 12500670
370
    -3
100
AcDbCircle
 10
686.1289043374525
 20
888.6033754898216
 30
0.0
 40
1.000929846596712
210
0.0
220
0.0
230
-1.0
100
AcDbArc
 50
276.426771208881
 51
324.444708319794
  0
ARC
  5
24D
330
1F
100
AcDbEntity
  8
Make2D$Visible$Curves
 62
     9
420
 12500670
370
    -3
100
AcDbCircle
 10
686.1298316846726
 20
888.6030718496428
 30
0.0
 40
0.9999988783380537
210
0.0
220
0.0
230
-1.0
100
AcDbArc
 50
324.4279656906515
 51
356.5831113046178
  0
LINE
  5
24E
330
1F
100
AcDbEntity
  8
Make2D$Visible$Curves
 62
     9
420
 12500670
370
    -3
100
AcDbLine
 10
-687.0453035563505
 20
889.8222788999235
 30
0.0
 11
-687.2073355810453
 21
889.8531880676378
 31
0.0
  0
LINE
  5
24F
330
1F
100
AcDbEntity
  8
Make2D$Visible$Curves
 62
     9
420
 12500670
370
    -3
100
AcDbLine
 10
-686.9298305609445
 20
888.8571279521766
 30
0.0
 11
-686.8298305609446
 21
888.8570108348765
 31
0.0
  0
ARC
  5
250
330
1F
100
AcDbEntity
  8
Make2D$Visible$Curves
 62
     9
420
 12500670
370
    -3
100
AcDbCircle
 10
685.8298319888394
 20
888.8571279583023
 30
0.0
 40
1.099998572105368
210
0.0
220
0.0
230
-1.0
100
AcDbArc
 50
339.7554104405738
 51
359.9999996809311
  0
ARC
  5
251
330
1F
100
AcDbEntity
  8
Make2D$Visible$Curves
 62
     9
420
 12500670
370
    -3
100
AcDbCircle
 10
-686.2627366719622
 20
887.6977366312806
 30
0.0
 40
0.0916306565951147
100
AcDbArc
 50
283.7600976002561
 51
6.564370323668939
  0
LINE
  5
252
330
1F
100
AcDbEntity
  8
Make2D$Visible$Curves
 62
     9
420
 12500670
370
    -3
100
AcDbLine
 10
-677.9298305609445
 20
888.8571279521766
 30
0.0
 11
-677.9298305609445
 21
889.2031885134229
 31
0.0
  0
ARC
  5
253
330
1F
100
AcDbEntity
  8
Make2D$Visible$Curves
 62
     9
420
 12500670
370
    -3
100
AcDbCircle
 10
-679.0309681670194
 20
888.8574334230882
 30
0.0
 40
1.001193830479369
100
AcDbArc
 50
291.3669099588411
 51
329.3290234944625
  0
LINE
  5
254
330
1F
100
AcDbEntity
  8
Make2D$Visible$Curves
 62
     9
420
 12500670
370
    -3
100
AcDbLine
 10
-678.6879543803166
 20
887.9132563147614
 30
0.0
 11
-678.6661941973084
 21
887.9250552609612
 31
0.0
  0
LINE
  5
255
330
1F
100
AcDbEntity
  8
Make2D$Visible$Curves
 62
     9
420
 12500670
370
    -3
100
AcDbLine
 10
-678.6879543803166
 20
887.7082117924442
 30
0.0
 11
-678.6879543803166
 21
887.9132563147614
 31
0.0
  0
ARC
  5
256
330
1F
100
AcDbEntity
  8
Make2D$Visible$Curves
 62
     9
420
 12500670
370
    -3
100
AcDbCircle
 10
677.8467796621514
 20
888.2007641094544
 30
0.0
 40
0.354491429837307
210
0.0
220
0.0
230
-1.0
100
AcDbArc
 50
24.31325314328848
 51
53.84734180309361
  0
ARC
  5
257
330
1F
100
AcDbEntity
  8
Make2D$Visible$Curves
 62
     9
420
 12500670
370
    -3
100
AcDbCircle
 10
-676.7298305611946
 20
888.8986197821507
 30
0.0
 40
1.000000676490572
100
AcDbArc
 50
89.99999998568273
 51
97.17097683640719
  0
ARC
  5
258
330
1F
100
AcDbEntity
  8
Make2D$Visible$Curves
 62
     9
420
 12500670
370
    -3
100
AcDbCircle
 10
677.0298316820542
 20
889.2030713602956
 30
0.0
 40
0.9999988788902108
210
0.0
220
0.0
230
-1.0
100
AcDbArc
 50
0.0000020527666937
 51
38.24664215095218
  0
ARC
  5
259
330
1F
100
AcDbEntity
  8
Make2D$Visible$Curves
 62
     9
420
 12500670
370
    -3
100
AcDbCircle
 10
-678.7289052975477
 20
888.5983200105636
 30
0.0
 40
0.9990719184234649
100
AcDbArc
 50
276.3319295372446
 51
324.4111935823957
  0
ARC
  5
25A
330
1F
100
AcDbEntity
  8
Make2D$Visible$Curves
 62
     9
420
 12500670
370
    -3
100
AcDbCircle
 10
-678.7298294079419
 20
888.5986213792946
 30
0.0
 40
0.9999988469971388
100
AcDbArc
 50
324.4279653180932
 51
359.99999833367
  0
LINE
  5
25B
330
1F
100
AcDbEntity
  8
Make2D$Visible$Curves
 62
     9
420
 12500670
370
    -3
100
AcDbLine
 10
-678.6187194498334
 20
887.6087357593346
 30
0.0
 11
-678.6187194498334
 21
887.6053427816476
 31
0.0
  0
LINE
  5
25C
330
1F
100
AcDbEntity
  8
Make2D$Visible$Curves
 62
     9
420
 12500670
370
    -3
100
AcDbLine
 10
-676.4298305609445
 20
889.8974702786397
 30
0.0
 11
-676.7298312421171
 21
889.8976898740761
 31
0.0
  0
LINE
  5
25D
330
1F
100
AcDbEntity
  8
Make2D$Visible$Curves
 62
     9
420
 12500670
370
    -3
100
AcDbLine
 10
-677.6523255408438
 20
889.8531880676378
 30
0.0
 11
-677.8151840134433
 21
889.8221185906132
 31
0.0
  0
LINE
  5
25E
330
1F
100
AcDbEntity
  8
Make2D$Visible$Curves
 62
     9
420
 12500670
370
    -3
100
AcDbLine
 10
-678.0298305609447
 20
889.203071396123
 30
0.0
 11
-677.9298305609445
 21
889.2031885134231
 31
0.0
  0
LINE
  5
25F
330
1F
100
AcDbEntity
  8
Make2D$Visible$Curves
 62
     9
420
 12500670
370
    -3
100
AcDbLine
 10
-678.0298305609447
 20
888.8570108348765
 30
0.0
 11
-677.9298305609445
 21
888.8571279521766
 31
0.0
  0
LINE
  5
260
330
1F
100
AcDbEntity
  8
Make2D$Visible$Curves
 62
     9
420
 12500670
370
    -3
100
AcDbLine
 10
-678.0559078749757
 20
888.4869975184567
 30
0.0
 11
-677.9977840556039
 21
888.4764971440572
 31
0.0
  0
LINE
  5
261
330
1F
100
AcDbEntity
  8
Make2D$Visible$Curves
 62
     9
420
 12500670
370
    -3
100
AcDbLine
 10
-678.0559078749759
 20
888.0796143063972
 30
0.0
 11
-677.9977840556039
 21
888.07963612143
 31
0.0
  0
LINE
  5
262
330
1F
100
AcDbEntity
  8
Make2D$Visible$Curves
 62
     9
420
 12500670
370
    -3
100
AcDbLine
 10
-678.0559078749759
 20
888.0796143063972
 30
0.0
 11
-677.9977840556039
 21
888.0341306064201
 31
0.0
  0
ARC
  5
263
330
1F
100
AcDbEntity
  8
Make2D$Visible$Curves
 62
     9
420
 12500670
370
    -3
100
AcDbCircle
 10
-678.5969244499269
 20
887.6977366312808
 30
0.0
 40
0.0916306565954504
100
AcDbArc
 50
173.4356296764967
 51
256.2399023996565
  0
LINE
  5
264
330
1F
100
AcDbEntity
  8
Make2D$Visible$Curves
 62
     9
420
 12500670
370
    -3
100
AcDbLine
 10
-687.0451008573491
 20
889.8229097457875
 30
0.0
 11
-687.060996335676
 21
889.8424889210387
 31
0.0
  0
LINE
  5
265
330
1F
100
AcDbEntity
  8
Make2D$Visible$Curves
 62
     9
420
 12500670
370
    -3
100
AcDbLine
 10
-687.1062340370495
 20
889.8933387825268
 30
0.0
 11
-687.1339060569619
 21
889.9212240975603
 31
0.0
  0
LINE
  5
266
330
1F
100
AcDbEntity
  8
Make2D$Visible$Curves
 62
     9
420
 12500670
370
    -3
100
AcDbLine
 10
-687.2458929168752
 20
889.9029120297391
 30
0.0
 11
-687.2073355810453
 21
889.8870209723043
 31
0.0
  0
LINE
  5
267
330
1F
100
AcDbEntity
  8
Make2D$Visible$Curves
 62
     9
420
 12500670
370
    -3
100
AcDbLine
 10
-677.6523255408426
 20
889.8870209723068
 30
0.0
 11
-677.6836786823579
 21
889.9212240975676
 31
0.0
  0
LINE
  5
268
330
1F
100
AcDbEntity
  8
Make2D$Visible$Curves
 62
     9
420
 12500670
370
    -3
100
AcDbLine
 10
-677.7806580330885
 20
889.8635979087003
 30
0.0
 11
-677.7986197259952
 21
889.8425900786697
 31
0.0
  0
LINE
  5
269
330
1F
100
AcDbEntity
  8
Make2D$Visible$Curves
 62
     9
420
 12500670
370
    -3
100
AcDbLine
 10
-677.7852352586729
 20
889.8382480979358
 30
0.0
 11
-677.7534829150563
 21
889.8500719164281
 31
0.0
  0
LINE
  5
26A
330
1F
100
AcDbEntity
  8
Make2D$Visible$Curves
 62
     9
420
 12500670
370
    -3
100
AcDbLine
 10
-677.6523255408424
 20
889.8870209723068
 30
0.0
 11
-677.61347272946
 21
889.9030284498158
 31
0.0
  0
ARC
  5
26B
330
1F
100
AcDbEntity
  8
Make2D$Visible$Curves
 62
     9
420
 12500670
370
    -3
100
AcDbCircle
 10
-687.3316164755879
 20
891.4146418594291
 30
0.0
 40
1.499322889902968
100
AcDbArc
 50
89.9988858950467
 51
104.936287525225
  0
ARC
  5
26C
330
1F
100
AcDbEntity
  8
Make2D$Visible$Curves
 62
     9
420
 12500670
370
    -3
100
AcDbCircle
 10
688.1298291912917
 20
888.9030716018435
 30
0.0
 40
0.9999986303473628
210
0.0
220
0.0
230
-1.0
100
AcDbArc
 50
176.5831128669338
 51
179.9999999984888
  0
ARC
  5
26D
330
1F
100
AcDbEntity
  8
Make2D$Visible$Curves
 62
     9
420
 12500670
370
    -3
100
AcDbCircle
 10
686.129831930595
 20
888.6030718076395
 30
0.0
 40
0.9999986303494021
210
0.0
220
0.0
230
-1.0
100
AcDbArc
 50
356.5831128671626
 51
359.9999999987103
  0
ARC
  5
26E
330
1F
100
AcDbEntity
  8
Make2D$Visible$Curves
 62
     9
420
 12500670
370
    -3
100
AcDbCircle
 10
678.7307567844391
 20
888.6033754898257
 30
0.0
 40
1.000929846601074
210
0.0
220
0.0
230
-1.0
100
AcDbArc
 50
215.5552916803171
 51
263.573228791003
  0
LINE
  5
26F
330
1F
100
AcDbEntity
  8
Make2D$Visible$Curves
 62
     9
420
 12500670
370
    -3
100
AcDbLine
 10
-676.8241833883494
 20
889.8854597746756
 30
0.0
 11
-676.7298305609447
 21
889.8855033210257
 31
0.0
  0
LINE
  5
270
330
1F
100
AcDbEntity
  8
Make2D$Visible$Curves
 62
     9
420
 12500670
370
    -3
100
AcDbLine
 10
-677.7040897810662
 20
889.867818608705
 30
0.0
 11
-677.6522141098035
 21
889.867818608705
 31
0.0
  0
LINE
  5
271
330
1F
100
AcDbEntity
  8
Make2D$Visible$Curves
 62
     9
420
 12500670
370
    -3
100
AcDbLine
 10
-687.0827842512047
 20
889.867818608705
 30
0.0
 11
-677.7768036588357
 21
889.867818608705
 31
0.0
  0
LINE
  5
272
330
1F
100
AcDbEntity
  8
Make2D$Visible$Curves
 62
     9
420
 12500670
370
    -3
100
AcDbLine
 10
-687.2069007603952
 20
889.867818608705
 30
0.0
 11
-687.1552109517352
 21
889.867818608705
 31
0.0
  0
LINE
  5
273
330
1F
100
AcDbEntity
  8
Make2D$Visible$Curves
 62
     9
420
 12500670
370
    -3
100
AcDbLine
 10
-687.6298307793123
 20
889.9207319658158
 30
0.0
 11
-688.4298305609445
 21
889.9195844553662
 31
0.0
  0
LINE
  5
274
330
1F
100
AcDbEntity
  8
Make2D$Visible$Curves
 62
     9
420
 12500670
370
    -3
100
AcDbLine
 10
-676.9755072929572
 20
889.8679464575897
 30
0.0
 11
-676.9406960872151
 21
889.8679682747943
 31
0.0
  0
ARC
  5
275
330
1F
100
AcDbEntity
  8
Make2D$Visible$Curves
 62
     9
420
 12500670
370
    -3
100
AcDbCircle
 10
-677.3419166047377
 20
1503.424708167681
 30
0.0
 40
613.5568711180581
100
AcDbArc
 50
270.0326384596885
 51
270.033987884725
  0
LINE
  5
276
330
1F
100
AcDbEntity
  8
Make2D$Visible$Curves
 62
     9
420
 12500670
370
    -3
100
AcDbLine
 10
-688.1298298797722
 20
889.8845727364605
 30
0.0
 11
-688.4298305609445
 21
889.8843531410243
 31
0.0
  0
LINE
  5
277
330
1F
100
AcDbEntity
  8
Make2D$Visible$Curves
 62
     9
420
 12500670
370
    -3
100
AcDbLine
 10
-677.7256197235724
 20
889.9213656996633
 30
0.0
 11
-677.7637926776847
 21
889.8822928996731
 31
0.0
  0
ARC
  5
278
330
1F
100
AcDbEntity
  8
Make2D$Visible$Curves
 62
     9
420
 12500670
370
    -3
100
AcDbCircle
 10
687.2457349969541
 20
889.9577761580987
 30
0.0
 40
0.0787494279072831
210
0.0
220
0.0
230
-1.0
100
AcDbArc
 50
207.389538128519
 51
207.653610351098
  0
LINE
  5
279
330
1F
100
AcDbEntity
  8
Make2D$Visible$Curves
 62
     9
420
 12500670
370
    -3
100
AcDbLine
 10
-687.9290528151519
 20
889.8827179716434
 30
0.0
 11
-688.1271115125357
 21
889.8899531835632
 31
0.0
  0
LINE
  5
27A
330
1F
100
AcDbEntity
  8
Make2D$Visible$Curves
 62
     9
420
 12500670
370
    -3
100
AcDbLine
 10
-676.8934494614864
 20
889.8851231126303
 30
0.0
 11
-676.9303542984048
 21
889.8827389045555
 31
0.0
  0
LINE
  5
27B
330
1F
100
AcDbEntity
  8
Make2D$Visible$Curves
 62
     9
420
 12500670
370
    -3
100
AcDbLine
 10
-676.0298305609444
 20
889.9194673380659
 30
0.0
 11
-676.0298305609444
 21
891.419466309331
 31
0.0
  0
LINE
  5
27C
330
1F
100
AcDbEntity
  8
Make2D$Visible$Curves
 62
     9
420
 12500670
370
    -3
100
AcDbLine
 10
-676.0298305609444
 20
889.8691068990063
 30
0.0
 11
-676.9377161878624
 21
889.8674928031073
 31
0.0
  0
LINE
  5
27D
330
1F
100
AcDbEntity
  8
Make2D$Visible$Curves
 62
     9
420
 12500670
370
    -3
100
AcDbLine
 10
-678.0298305609444
 20
888.8570108348763
 30
0.0
 11
-678.0298305609444
 21
889.203071396123
 31
0.0
  0
LINE
  5
27E
330
1F
100
AcDbEntity
  8
Make2D$Visible$Curves
 62
     9
420
 12500670
370
    -3
100
AcDbLine
 10
-677.7298305609447
 20
888.603071807617
 30
0.0
 11
-677.7298305609447
 21
888.9030716018699
 31
0.0
  0
ARC
  5
27F
330
1F
100
AcDbEntity
  8
Make2D$Visible$Curves
 62
     9
420
 12500670
370
    -3
100
AcDbCircle
 10
679.0298293543351
 20
888.8570108538129
 30
0.0
 40
0.9999987933906598
210
0.0
220
0.0
230
-1.0
100
AcDbArc
 50
180.0000010849879
 51
210.6834360759311
  0
LINE
  5
280
330
1F
100
AcDbEntity
  8
Make2D$Visible$Curves
 62
     9
420
 12500670
370
    -3
100
AcDbLine
 10
-677.8151840134433
 20
889.8221185906132
 30
0.0
 11
-677.7852352586729
 21
889.8382480979358
 31
0.0
  0
LINE
  5
281
330
1F
100
AcDbEntity
  8
Make2D$Visible$Curves
 62
     9
420
 12500670
370
    -3
100
AcDbLine
 10
-677.7986197259952
 20
889.8425900786697
 30
0.0
 11
-677.8151823990252
 21
889.8221206408523
 31
0.0
  0
LINE
  5
282
330
1F
100
AcDbEntity
  8
Make2D$Visible$Curves
 62
     9
420
 12500670
370
    -3
100
AcDbLine
 10
-687.3315873226624
 20
892.9139647490485
 30
0.0
 11
-677.528073799227
 21
892.9139647490488
 31
0.0
  0
LINE
  5
283
330
1F
100
AcDbEntity
  8
Make2D$Visible$Curves
 62
    18
420
        0
370
    -3
100
AcDbLine
 10
-747.8428596386696
 20
1796.388821983244
 30
0.0
 11
-747.8429071181461
 21
1796.191599761022
 31
0.0
  0
LINE
  5
284
330
1F
100
AcDbEntity
  8
Make2D$Visible$Curves
 62
    18
420
        0
370
    -3
100
AcDbLine
 10
-747.0429076668047
 20
1796.191599761022
 30
0.0
 11
-747.0428601873282
 21
1796.388821983244
 31
0.0
  0
LINE
  5
285
330
1F
100
AcDbEntity
  8
Make2D$Visible$Curves
 62
    18
420
        0
370
    -3
100
AcDbLine
 10
-747.0237261472964
 20
1777.762832121683
 30
0.0
 11
-747.024472522522
 21
1776.323918943908
 31
0.0
  0
LINE
  5
286
330
1F
100
AcDbEntity
  8
Make2D$Visible$Curves
 62
    18
420
        0
370
    -3
100
AcDbLine
 10
-747.0401282045627
 20
1782.491599760909
 30
0.0
 11
-747.0375133821162
 21
1782.141482871098
 31
0.0
  0
LINE
  5
287
330
1F
100
AcDbEntity
  8
Make2D$Visible$Curves
 62
    18
420
        0
370
    -3
100
AcDbLine
 10
-747.0348857540912
 20
1781.890477466558
 30
0.0
 11
-747.0296155133492
 21
1781.691599669251
 31
0.0
  0
LINE
  5
288
330
1F
100
AcDbEntity
  8
Make2D$Visible$Curves
 62
    18
420
        0
370
    -3
100
AcDbLine
 10
-747.0296155133492
 20
1781.691599669251
 30
0.0
 11
-747.0284052145767
 21
1781.278579420674
 31
0.0
  0
LINE
  5
289
330
1F
100
AcDbEntity
  8
Make2D$Visible$Curves
 62
    18
420
        0
370
    -3
100
AcDbLine
 10
-747.0251712505765
 20
1778.613264774162
 30
0.0
 11
-747.0244054871093
 21
1778.092025161219
 31
0.0
  0
LINE
  5
28A
330
1F
100
AcDbEntity
  8
Make2D$Visible$Curves
 62
    18
420
        0
370
    -3
100
AcDbLine
 10
-747.8429071181461
 20
1796.191599761022
 30
0.0
 11
-747.8423215316454
 21
1795.691599761022
 31
0.0
  0
LINE
  5
28B
330
1F
100
AcDbEntity
  8
Make2D$Visible$Curves
 62
    18
420
        0
370
    -3
100
AcDbLine
 10
-747.0423220803041
 20
1795.691599761022
 30
0.0
 11
-747.0429076668049
 21
1796.191599761022
 31
0.0
  0
ARC
  5
28C
330
1F
100
AcDbEntity
  8
Make2D$Visible$Curves
 62
    18
420
        0
370
    -3
100
AcDbCircle
 10
746.8634087546142
 20
1807.108339466585
 30
0.0
 40
0.4522001700397605
210
0.0
220
0.0
230
-1.0
100
AcDbArc
 50
69.10275039953632
 51
94.93578754433902
  0
LINE
  5
28D
330
1F
100
AcDbEntity
  8
Make2D$Visible$Curves
 62
    18
420
        0
370
    -3
100
AcDbLine
 10
-747.0418810358183
 20
1782.491599761022
 30
0.0
 11
-747.0401282045627
 21
1782.491599760909
 31
0.0
  0
LINE
  5
28E
330
1F
100
AcDbEntity
  8
Make2D$Visible$Curves
 62
    18
420
        0
370
    -3
100
AcDbLine
 10
-747.8241208517766
 20
1811.391599761022
 30
0.0
 11
-747.8241208512943
 21
1808.091890381855
 31
0.0
  0
LINE
  5
28F
330
1F
100
AcDbEntity
  8
Make2D$Visible$Curves
 62
    18
420
        0
370
    -3
100
AcDbLine
 10
-747.0261776603918
 20
1779.442710872133
 30
0.0
 11
-747.0251712505765
 21
1778.613264774162
 31
0.0
  0
LINE
  5
290
330
1F
100
AcDbEntity
  8
Make2D$Visible$Curves
 62
    18
420
        0
370
    -3
100
AcDbLine
 10
-747.8403702620482
 20
1778.091599761022
 30
0.0
 11
-747.8241208517766
 21
1770.618646559111
 31
0.0
  0
LINE
  5
291
330
1F
100
AcDbEntity
  8
Make2D$Visible$Curves
 62
    18
420
        0
370
    -3
100
AcDbLine
 10
-747.0414364253096
 20
1798.740665759112
 30
0.0
 11
-747.0247054594138
 21
1807.530794632023
 31
0.0
  0
LINE
  5
292
330
1F
100
AcDbEntity
  8
Make2D$Visible$Curves
 62
    18
420
        0
370
    -3
100
AcDbLine
 10
-747.0413461838698
 20
1798.740488649911
 30
0.0
 11
-746.8071659193465
 21
1798.740488649911
 31
0.0
  0
LINE
  5
293
330
1F
100
AcDbEntity
  8
Make2D$Visible$Curves
 62
    18
420
        0
370
    -3
100
AcDbLine
 10
-747.8407773228869
 20
1795.492446097043
 30
0.0
 11
-747.840777750798
 21
1795.49215085327
 31
0.0
  0
LINE
  5
294
330
1F
100
AcDbEntity
  8
Make2D$Visible$Curves
 62
    18
420
        0
370
    -3
100
AcDbLine
 10
-747.8414254546954
 20
1779.442710872133
 30
0.0
 11
-747.8495809565961
 21
1779.442710872133
 31
0.0
  0
LINE
  5
295
330
1F
100
AcDbEntity
  8
Make2D$Visible$Curves
 62
     9
420
 12500670
370
    -3
100
AcDbLine
 10
-676.8546584940091
 20
889.8907929915542
 30
0.0
 11
-676.4298305609445
 21
889.8911039584327
 31
0.0
  0
LINE
  5
296
330
1F
100
AcDbEntity
  8
Make2D$Visible$Curves
 62
     9
420
 12500670
370
    -3
100
AcDbLine
 10
-687.1298305609444
 20
888.603071807617
 30
0.0
 11
-687.1298305609444
 21
888.9027160995256
 31
0.0
  0
LINE
  5
297
330
1F
100
AcDbEntity
  8
Make2D$Visible$Curves
 62
     9
420
 12500670
370
    -3
100
AcDbLine
 10
-676.7322073503501
 20
889.8899534178556
 30
0.0
 11
-676.8879423758078
 21
889.8854394262116
 31
0.0
  0
LINE
  5
298
330
1F
100
AcDbEntity
  8
Make2D$Visible$Curves
 62
    18
420
        0
370
    -3
100
AcDbLine
 10
-747.8423215316457
 20
1782.491599761021
 30
0.0
 11
-747.8428596386698
 21
1781.7943775388
 31
0.0
  0
LINE
  5
299
330
1F
100
AcDbEntity
  8
Make2D$Visible$Curves
 62
    18
420
        0
370
    -3
100
AcDbLine
 10
-747.0418810357064
 20
1795.691599761024
 30
0.0
 11
-747.0401282045627
 21
1795.691599761135
 31
0.0
  0
LINE
  5
29A
330
1F
100
AcDbEntity
  8
Make2D$Visible$Curves
 62
    18
420
        0
370
    -3
100
AcDbLine
 10
-421.1907769538034
 20
1830.378842365075
 30
0.0
 11
-422.793034534423
 21
1830.378840882252
 31
0.0
  0
ARC
  5
29B
330
1F
100
AcDbEntity
  8
Make2D$Visible$Curves
 62
    18
420
        0
370
    -3
100
AcDbCircle
 10
421.1907623267458
 20
1847.079344075802
 30
0.0
 40
1.299982937866425
210
0.0
220
0.0
230
-1.0
100
AcDbArc
 50
89.99928341276923
 51
175.1310463702893
  0
ARC
  5
29C
330
1F
100
AcDbEntity
  8
Make2D$Visible$Curves
 62
    18
420
        0
370
    -3
100
AcDbCircle
 10
421.190776951181
 20
1831.678843867116
 30
0.0
 40
1.299999952316129
210
0.0
220
0.0
230
-1.0
100
AcDbArc
 50
184.8696292198132
 51
269.9999943934175
  0
ARC
  5
29D
330
1F
100
AcDbEntity
  8
Make2D$Visible$Curves
 62
    18
420
        0
370
    -3
100
AcDbCircle
 10
511.5629465249056
 20
1839.37909697244
 30
0.0
 40
91.99962714961829
210
0.0
220
0.0
230
-1.0
100
AcDbArc
 50
175.1298396034534
 51
180.000002454293
  0
ARC
  5
29E
330
1F
100
AcDbEntity
  8
Make2D$Visible$Curves
 62
    18
420
        0
370
    -3
100
AcDbCircle
 10
511.5629465227395
 20
1839.379056269348
 30
0.0
 40
91.99962714745575
210
0.0
220
0.0
230
-1.0
100
AcDbArc
 50
179.9999873253786
 51
184.8701491834047
  0
LINE
  5
29F
330
1F
100
AcDbEntity
  8
Make2D$Visible$Curves
 62
     9
420
 12500670
370
    -3
100
AcDbLine
 10
-676.9374233173132
 20
889.8679704338023
 30
0.0
 11
-676.4298305609445
 21
889.8689897817062
 31
0.0
  0
ARC
  5
2A0
330
1F
100
AcDbEntity
  8
Make2D$Visible$Curves
 62
     9
420
 12500670
370
    -3
100
AcDbCircle
 10
-687.5556087167807
 20
1443.262084628288
 30
0.0
 40
553.3942356422647
100
AcDbArc
 50
269.9601581022205
 51
269.9621388818513
  0
LINE
  5
2A1
330
1F
100
AcDbEntity
  8
Make2D$Visible$Curves
 62
     9
420
 12500670
370
    -3
100
AcDbLine
 10
-687.9434066128505
 20
889.8675038354824
 30
0.0
 11
-688.8298305609446
 21
889.8691068990065
 31
0.0
  0
LINE
  5
2A2
330
1F
100
AcDbEntity
  8
Make2D$Visible$Curves
 62
     9
420
 12500670
370
    -3
100
AcDbLine
 10
-687.1298305609444
 20
888.9027160995256
 30
0.0
 11
-687.1298305609444
 21
888.9030716018701
 31
0.0
  0
LINE
  5
2A3
330
1F
100
AcDbEntity
  8
Make2D$Visible$Curves
 62
     9
420
 12500670
370
    -3
100
AcDbLine
 10
-677.5298305609444
 20
889.921224097568
 30
0.0
 11
-676.0298305609444
 21
889.9194673380659
 31
0.0
  0
LINE
  5
2A4
330
1F
100
AcDbEntity
  8
Make2D$Visible$Curves
 62
     9
420
 12500670
370
    -3
100
AcDbLine
 10
-676.0306772174528
 20
891.4194378173015
 30
0.0
 11
-676.0478884491513
 21
891.6008847470534
 31
0.0
  0
ARC
  5
2A5
330
1F
100
AcDbEntity
  8
Make2D$Visible$Curves
 62
     9
420
 12500670
370
    -3
100
AcDbCircle
 10
688.129830560347
 20
888.903071789635
 30
0.0
 40
0.9999991264115806
210
0.0
220
0.0
230
-1.0
100
AcDbArc
 50
89.9999999657766
 51
90.05733977427425
  0
LINE
  5
2A6
330
1F
100
AcDbEntity
  8
Make2D$Visible$Curves
 62
     9
420
 12500670
370
    -3
100
AcDbLine
 10
-688.4298305609445
 20
889.9042210960483
 30
0.0
 11
-688.129097896549
 21
889.9040009648124
 31
0.0
  0
LINE
  5
2A7
330
1F
100
AcDbEntity
  8
Make2D$Visible$Curves
 62
     9
420
 12500670
370
    -3
100
AcDbLine
 10
-677.612925750429
 20
889.9033550903332
 30
0.0
 11
-676.7297577980785
 21
889.9040015543715
 31
0.0
  0
LINE
  5
2A8
330
1F
100
AcDbEntity
  8
Make2D$Visible$Curves
 62
     9
420
 12500670
370
    -3
100
AcDbLine
 10
-687.1104295199029
 20
889.8516142053331
 30
0.0
 11
-687.045150254924
 21
889.8229131859798
 31
0.0
  0
ARC
  5
2A9
330
1F
100
AcDbEntity
  8
Make2D$Visible$Curves
 62
     9
420
 12500670
370
    -3
100
AcDbCircle
 10
676.7298311450479
 20
888.9030713864826
 30
0.0
 40
0.9999994158968324
210
0.0
220
0.0
230
-1.0
100
AcDbArc
 50
0.0000123407922399
 51
74.77219347864269
  0
ARC
  5
2AA
330
1F
100
AcDbEntity
  8
Make2D$Visible$Curves
 62
     9
420
 12500670
370
    -3
100
AcDbCircle
 10
678.7298291580844
 20
888.6030718075273
 30
0.0
 40
0.9999985971396654
210
0.0
220
0.0
230
-1.0
100
AcDbArc
 50
179.9999999948606
 51
180.2573637229922
  0
LINE
  5
2AB
330
1F
100
AcDbEntity
  8
Make2D$Visible$Curves
 62
    18
420
        0
370
    -3
100
AcDbLine
 10
-747.8401370588938
 20
1778.091599761022
 30
0.0
 11
-747.8493612003278
 21
1778.091599761022
 31
0.0
  0
LINE
  5
2AC
330
1F
100
AcDbEntity
  8
Make2D$Visible$Curves
 62
    18
420
        0
370
    -3
100
AcDbLine
 10
-747.8401276370948
 20
1781.691599761022
 30
0.0
 11
-747.8418805340091
 21
1782.491599761021
 31
0.0
  0
LINE
  5
2AD
330
1F
100
AcDbEntity
  8
Make2D$Visible$Curves
 62
     9
420
 12500670
370
    -3
100
AcDbLine
 10
-574.58330498141
 20
887.7773113810445
 30
0.0
 11
-574.58330498141
 21
887.760043467694
 31
0.0
  0
LINE
  5
2AE
330
1F
100
AcDbEntity
  8
Make2D$Visible$Curves
 62
     9
420
 12500670
370
    -3
100
AcDbLine
 10
-574.5833049791504
 20
887.6886670505569
 30
0.0
 11
-574.5833049791345
 21
887.6777537479645
 31
0.0
  0
LINE
  5
2AF
330
1F
100
AcDbEntity
  8
Make2D$Visible$Curves
 62
     9
420
 12500670
370
    -3
100
AcDbLine
 10
-574.58330498141
 20
887.6605894523304
 30
0.0
 11
-574.58330498141
 21
887.6583416070612
 31
0.0
  0
LINE
  5
2B0
330
1F
100
AcDbEntity
  8
Make2D$Visible$Curves
 62
     9
420
 12500670
370
    -3
100
AcDbLine
 10
-630.1602280583329
 20
887.7751398376317
 30
0.0
 11
-630.1602280583329
 21
887.7584527849262
 31
0.0
  0
LINE
  5
2B1
330
1F
100
AcDbEntity
  8
Make2D$Visible$Curves
 62
    18
420
        0
370
    -3
100
AcDbLine
 10
-746.8249999173511
 20
1776.321822298847
 30
0.0
 11
-746.8249999173509
 21
1777.091599761022
 31
0.0
  0
LINE
  5
2B2
330
1F
100
AcDbEntity
  8
Make2D$Visible$Curves
 62
    18
420
        0
370
    -3
100
AcDbLine
 10
-746.8076889295189
 20
1798.740488649911
 30
0.0
 11
-746.8061438496238
 21
1797.816733928275
 31
0.0
  0
LINE
  5
2B3
330
1F
100
AcDbEntity
  8
Make2D$Visible$Curves
 62
    18
420
        0
370
    -3
100
AcDbLine
 10
-746.8243709988246
 20
1778.091814459452
 30
0.0
 11
-746.8249999173511
 21
1777.091599761022
 31
0.0
  0
LINE
  5
2B4
330
1F
100
AcDbEntity
  8
Make2D$Visible$Curves
 62
    18
420
        0
370
    -3
100
AcDbLine
 10
-422.7933147470385
 20
1848.379329732745
 30
0.0
 11
-422.7933147470385
 21
1890.591599761021
 31
0.0
  0
LINE
  5
2B5
330
1F
100
AcDbEntity
  8
Make2D$Visible$Curves
 62
    18
420
        0
370
    -3
100
AcDbLine
 10
-422.7933147470385
 20
1830.378840881993
 30
0.0
 11
-422.7933147470385
 21
1848.379329732745
 31
0.0
  0
LINE
  5
2B6
330
1F
100
AcDbEntity
  8
Make2D$Visible$Curves
 62
    18
420
        0
370
    -3
100
AcDbLine
 10
-745.3933147470384
 20
995.7915997610216
 30
0.0
 11
-746.2019844433394
 21
995.7915997610216
 31
0.0
  0
LINE
  5
2B7
330
1F
100
AcDbEntity
  8
Make2D$Visible$Curves
 62
    18
420
        0
370
    -3
100
AcDbLine
 10
-747.8422736949015
 20
1796.591365276119
 30
0.0
 11
-747.8497051202726
 21
1796.591127476851
 31
0.0
  0
LINE
  5
2B8
330
1F
100
AcDbEntity
  8
Make2D$Visible$Curves
 62
    18
420
        0
370
    -3
100
AcDbLine
 10
-746.8073139482276
 20
1779.442710872133
 30
0.0
 11
-746.807978177452
 21
1778.632738611941
 31
0.0
  0
LINE
  5
2B9
330
1F
100
AcDbEntity
  8
Make2D$Visible$Curves
 62
    18
420
        0
370
    -3
100
AcDbLine
 10
-745.3933147470384
 20
1797.425126231618
 30
0.0
 11
-745.3933147470384
 21
1797.425524193062
 31
0.0
  0
LINE
  5
2BA
330
1F
100
AcDbEntity
  8
Make2D$Visible$Curves
 62
    18
420
        0
370
    -3
100
AcDbLine
 10
-747.0420712051532
 20
1797.792195665346
 30
0.0
 11
-746.9119634967828
 21
1797.726281394118
 31
0.0
  0
ARC
  5
2BB
330
1F
100
AcDbEntity
  8
Make2D$Visible$Curves
 62
    18
420
        0
370
    -3
100
AcDbCircle
 10
746.8639627874066
 20
971.0725786324583
 30
0.0
 40
0.4498712931930534
210
0.0
220
0.0
230
-1.0
100
AcDbArc
 50
265.0695623256519
 51
290.9349710186754
  0
LINE
  5
2BC
330
1F
100
AcDbEntity
  8
Make2D$Visible$Curves
 62
    18
420
        0
370
    -3
100
AcDbLine
 10
-747.4419131313817
 20
995.5915997610218
 30
0.0
 11
-747.4419131313817
 21
995.2915997610216
 31
0.0
  0
LINE
  5
2BD
330
1F
100
AcDbEntity
  8
Make2D$Visible$Curves
 62
    18
420
        0
370
    -3
100
AcDbLine
 10
-747.8421846768997
 20
983.049086758306
 30
0.0
 11
-747.8493943161329
 21
983.0486300195316
 31
0.0
  0
LINE
  5
2BE
330
1F
100
AcDbEntity
  8
Make2D$Visible$Curves
 62
    18
420
        0
370
    -3
100
AcDbLine
 10
-747.8419553485221
 20
1783.049101286517
 30
0.0
 11
-747.849886657807
 21
1783.048598829132
 31
0.0
  0
LINE
  5
2BF
330
1F
100
AcDbEntity
  8
Make2D$Visible$Curves
 62
    18
420
        0
370
    -3
100
AcDbLine
 10
-747.4419131313778
 20
1795.59187859992
 30
0.0
 11
-747.4419131313778
 21
1795.291599761022
 31
0.0
  0
LINE
  5
2C0
330
1F
100
AcDbEntity
  8
Make2D$Visible$Curves
 62
    18
420
        0
370
    -3
100
AcDbLine
 10
-747.027153377403
 20
1780.397101223969
 30
0.0
 11
-746.9119634967831
 21
1780.456918127926
 31
0.0
  0
LINE
  5
2C1
330
1F
100
AcDbEntity
  8
Make2D$Visible$Curves
 62
     9
420
 12500670
370
    -3
100
AcDbLine
 10
-687.175981140148
 20
889.9212265773021
 30
0.0
 11
-687.2073355810453
 21
889.8870209723043
 31
0.0
  0
ARC
  5
2C2
330
1F
100
AcDbEntity
  8
Make2D$Visible$Curves
 62
    18
420
        0
370
    -3
100
AcDbCircle
 10
746.8637435834119
 20
1771.073513814238
 30
0.0
 40
0.4508230823521284
210
0.0
220
0.0
230
-1.0
100
AcDbArc
 50
265.069928174526
 51
290.9185235393862
  0
LINE
  5
2C3
330
1F
100
AcDbEntity
  8
Make2D$Visible$Curves
 62
    18
420
        0
370
    -3
100
AcDbLine
 10
-747.8241208517766
 20
1770.091599761022
 30
0.0
 11
-747.8241208517766
 21
1770.618646559111
 31
0.0
  0
SPLINE
  5
2C4
330
1F
100
AcDbEntity
  8
Make2D$Visible$Curves
 62
    18
420
        0
370
    -3
100
AcDbSpline
210
0.0
220
0.0
230
1.0
 70
    27
 71
     2
 72
     6
 73
     3
 74
     0
 42
0.000000001
 43
0.0000000001
 40
-0.5270467980890275
 40
-0.5270467980890275
 40
-0.5270467980890275
 40
-0.5270467980890272
 40
-0.5270467980890272
 40
-0.5270467980890272
 10
-747.8241208517766
 20
1770.091599761022
 30
0.0
 10
-747.8241208517766
 20
1770.091599761022
 30
0.0
 10
-747.8241208517766
 20
1770.091599761022
 30
0.0
  0
LINE
  5
2C5
330
1F
100
AcDbEntity
  8
Make2D$Visible$Curves
 62
    18
420
        0
370
    -3
100
AcDbLine
 10
-747.8241208512943
 20
1808.091890381855
 30
0.0
 11
-747.8241208512172
 21
1807.564552988779
 31
0.0
  0
LINE
  5
2C6
330
1F
100
AcDbEntity
  8
Make2D$Visible$Curves
 62
    18
420
        0
370
    -3
100
AcDbLine
 10
-747.0272269096909
 20
1780.307463703268
 30
0.0
 11
-747.0261776603918
 21
1779.442710872133
 31
0.0
  0
LINE
  5
2C7
330
1F
100
AcDbEntity
  8
Make2D$Visible$Curves
 62
    18
420
        0
370
    -3
100
AcDbLine
 10
-747.841898682962
 20
1795.492166550927
 30
0.0
 11
-747.8408324168865
 21
1795.492432362549
 31
0.0
  0
LINE
  5
2C8
330
1F
100
AcDbEntity
  8
Make2D$Visible$Curves
 62
    18
420
        0
370
    -3
100
AcDbLine
 10
-422.7930631136228
 20
1848.379329732561
 30
0.0
 11
-421.1907787152077
 21
1848.379328563291
 31
0.0
  0
LINE
  5
2C9
330
1F
100
AcDbEntity
  8
Make2D$Visible$Curves
 62
     9
420
 12500670
370
    -3
100
AcDbLine
 10
-676.0547391275717
 20
891.6412323178695
 30
0.0
 11
-676.0478884491513
 21
891.6008847470534
 31
0.0
  0
LINE
  5
2CA
330
1F
100
AcDbEntity
  8
Make2D$Visible$Curves
 62
     9
420
 12500670
370
    -3
100
AcDbLine
 10
-688.129097896549
 20
889.9040009648124
 30
0.0
 11
-687.2467353714601
 21
889.9033550903332
 31
0.0
  0
LINE
  5
2CB
330
1F
100
AcDbEntity
  8
Make2D$Visible$Curves
 62
     9
420
 12500670
370
    -3
100
AcDbLine
 10
-676.7297577980785
 20
889.9040015543715
 30
0.0
 11
-676.4298305609445
 21
889.9042210960481
 31
0.0
  0
LINE
  5
2CC
330
1F
100
AcDbEntity
  8
Make2D$Visible$Curves
 62
     9
420
 12500670
370
    -3
100
AcDbLine
 10
-687.045150254924
 20
889.8229131859798
 30
0.0
 11
-687.0444771084458
 21
889.8221185906132
 31
0.0
  0
ARC
  5
2CD
330
1F
100
AcDbEntity
  8
Make2D$Visible$Curves
 62
     9
420
 12500670
370
    -3
100
AcDbCircle
 10
676.7298305610084
 20
888.8899532248219
 30
0.0
 40
1.000000553609084
210
0.0
220
0.0
230
-1.0
100
AcDbArc
 50
89.87863562515732
 51
90.00000000364773
  0
ARC
  5
2CE
330
1F
100
AcDbEntity
  8
Make2D$Visible$Curves
 62
     9
420
 12500670
370
    -3
100
AcDbCircle
 10
678.7298294100638
 20
888.6030718376087
 30
0.0
 40
0.9999988492516172
210
0.0
220
0.0
230
-1.0
100
AcDbArc
 50
180.2573653816652
 51
215.5720346535421
  0
LINE
  5
2CF
330
1F
100
AcDbEntity
  8
Make2D$Visible$Curves
 62
    18
420
        0
370
    -3
100
AcDbLine
 10
-747.8495664746954
 20
1781.691599766811
 30
0.0
 11
-747.8426832963398
 21
1781.691599762589
 31
0.0
  0
LINE
  5
2D0
330
1F
100
AcDbEntity
  8
Make2D$Visible$Curves
 62
    18
420
        0
370
    -3
100
AcDbLine
 10
-746.8242616329599
 20
1778.091599761022
 30
0.0
 11
-747.0241653471073
 21
1778.091599761022
 31
0.0
  0
LINE
  5
2D1
330
1F
100
AcDbEntity
  8
Make2D$Visible$Curves
 62
     9
420
 12500670
370
    -3
100
AcDbLine
 10
-696.4298305609445
 20
889.8689897817062
 30
0.0
 11
-696.4298305609445
 21
889.8843531410243
 31
0.0
  0
LINE
  5
2D2
330
1F
100
AcDbEntity
  8
Make2D$Visible$Curves
 62
     9
420
 12500670
370
    -3
100
AcDbLine
 10
-707.3298305609446
 20
889.921224097568
 30
0.0
 11
-697.5298305609444
 21
889.921224097568
 31
0.0
  0
LINE
  5
2D3
330
1F
100
AcDbEntity
  8
Make2D$Visible$Curves
 62
     9
420
 12500670
370
    -3
100
AcDbLine
 10
-708.8298305609446
 20
889.9194673380662
 30
0.0
 11
-707.3298305609446
 21
889.921224097568
 31
0.0
  0
LINE
  5
2D4
330
1F
100
AcDbEntity
  8
Make2D$Visible$Curves
 62
     9
420
 12500670
370
    -3
100
AcDbLine
 10
-696.8861978315308
 20
889.8907699052913
 30
0.0
 11
-696.4298305609445
 21
889.8911039584327
 31
0.0
  0
ARC
  5
2D5
330
1F
100
AcDbEntity
  8
Make2D$Visible$Curves
 62
     9
420
 12500670
370
    -3
100
AcDbCircle
 10
708.1298305604383
 20
888.903070245081
 30
0.0
 40
1.000000670965014
210
0.0
220
0.0
230
-1.0
100
AcDbArc
 50
90.04193950796827
 51
99.02076152178996
  0
ARC
  5
2D6
330
1F
100
AcDbEntity
  8
Make2D$Visible$Curves
 62
     9
420
 12500670
370
    -3
100
AcDbCircle
 10
708.1298300827532
 20
888.9030713076244
 30
0.0
 40
0.9999995377599212
210
0.0
220
0.0
230
-1.0
100
AcDbArc
 50
100.7846743920172
 51
176.5830990835983
  0
LINE
  5
2D7
330
1F
100
AcDbEntity
  8
Make2D$Visible$Curves
 62
     9
420
 12500670
370
    -3
100
AcDbLine
 10
-707.0958684442026
 20
889.8777646075343
 30
0.0
 11
-707.0790030888011
 21
889.8590891318663
 31
0.0
  0
ARC
  5
2D8
330
1F
100
AcDbEntity
  8
Make2D$Visible$Curves
 62
     9
420
 12500670
370
    -3
100
AcDbCircle
 10
706.1289043374527
 20
888.6033754898209
 30
0.0
 40
1.000929846596009
210
0.0
220
0.0
230
-1.0
100
AcDbArc
 50
276.4267712088724
 51
324.4447083198144
  0
LINE
  5
2D9
330
1F
100
AcDbEntity
  8
Make2D$Visible$Curves
 62
     9
420
 12500670
370
    -3
100
AcDbLine
 10
-708.4298305609445
 20
889.9042210960483
 30
0.0
 11
-708.128895188697
 21
889.9040008164338
 31
0.0
  0
ARC
  5
2DA
330
1F
100
AcDbEntity
  8
Make2D$Visible$Curves
 62
     9
420
 12500670
370
    -3
100
AcDbCircle
 10
-706.2627366719623
 20
887.6977366312807
 30
0.0
 40
0.0916306565952521
100
AcDbArc
 50
283.7600976003083
 51
6.56437032359019
  0
LINE
  5
2DB
330
1F
100
AcDbEntity
  8
Make2D$Visible$Curves
 62
     9
420
 12500670
370
    -3
100
AcDbLine
 10
-697.7637926776847
 20
889.8822928996731
 30
0.0
 11
-697.7806580330885
 21
889.8635979087003
 31
0.0
  0
ARC
  5
2DC
330
1F
100
AcDbEntity
  8
Make2D$Visible$Curves
 62
     9
420
 12500670
370
    -3
100
AcDbCircle
 10
698.7307567844396
 20
888.6033754898265
 30
0.0
 40
1.000929846601907
210
0.0
220
0.0
230
-1.0
100
AcDbArc
 50
215.555291680339
 51
263.5732287909821
  0
LINE
  5
2DD
330
1F
100
AcDbEntity
  8
Make2D$Visible$Curves
 62
     9
420
 12500670
370
    -3
100
AcDbLine
 10
-696.4298305609445
 20
889.8974702786397
 30
0.0
 11
-696.7298312421171
 21
889.8976898740761
 31
0.0
  0
ARC
  5
2DE
330
1F
100
AcDbEntity
  8
Make2D$Visible$Curves
 62
     9
420
 12500670
370
    -3
100
AcDbCircle
 10
-698.5969244499265
 20
887.697736631281
 30
0.0
 40
0.0916306565957632
100
AcDbArc
 50
173.4356296766623
 51
256.2399023994831
  0
LINE
  5
2DF
330
1F
100
AcDbEntity
  8
Make2D$Visible$Curves
 62
     9
420
 12500670
370
    -3
100
AcDbLine
 10
-707.0537155541806
 20
889.8292011059609
 30
0.0
 11
-707.0444771084458
 21
889.8221185906132
 31
0.0
  0
LINE
  5
2E0
330
1F
100
AcDbEntity
  8
Make2D$Visible$Curves
 62
     9
420
 12500670
370
    -3
100
AcDbLine
 10
-707.2073355810453
 20
889.8870209723043
 30
0.0
 11
-707.1104295199029
 21
889.8516142053331
 31
0.0
  0
LINE
  5
2E1
330
1F
100
AcDbEntity
  8
Make2D$Visible$Curves
 62
     9
420
 12500670
370
    -3
100
AcDbLine
 10
-707.2073355810453
 20
889.8531880676378
 30
0.0
 11
-707.2073355810453
 21
889.8870209723043
 31
0.0
  0
LINE
  5
2E2
330
1F
100
AcDbEntity
  8
Make2D$Visible$Curves
 62
     9
420
 12500670
370
    -3
100
AcDbLine
 10
-707.0790030888011
 20
889.8590891318663
 30
0.0
 11
-707.0444787228644
 21
889.8176701792117
 31
0.0
  0
LINE
  5
2E3
330
1F
100
AcDbEntity
  8
Make2D$Visible$Curves
 62
     9
420
 12500670
370
    -3
100
AcDbLine
 10
-697.6523255408426
 20
889.8870209723068
 30
0.0
 11
-697.652325540844
 21
889.8531880676378
 31
0.0
  0
LINE
  5
2E4
330
1F
100
AcDbEntity
  8
Make2D$Visible$Curves
 62
     9
420
 12500670
370
    -3
100
AcDbLine
 10
-697.7534829150563
 20
889.8500719164281
 30
0.0
 11
-697.6523255408424
 21
889.8870209723068
 31
0.0
  0
LINE
  5
2E5
330
1F
100
AcDbEntity
  8
Make2D$Visible$Curves
 62
     9
420
 12500670
370
    -3
100
AcDbLine
 10
-708.1298361986707
 20
889.8845726364632
 30
0.0
 11
-708.4297573626513
 21
889.8843530992318
 31
0.0
  0
ARC
  5
2E6
330
1F
100
AcDbEntity
  8
Make2D$Visible$Curves
 62
     9
420
 12500670
370
    -3
100
AcDbCircle
 10
696.7298310391077
 20
888.9030713076085
 30
0.0
 40
0.9999995377890675
210
0.0
220
0.0
230
-1.0
100
AcDbArc
 50
3.41690091721574
 51
79.21711220731439
  0
ARC
  5
2E7
330
1F
100
AcDbEntity
  8
Make2D$Visible$Curves
 62
     9
420
 12500670
370
    -3
100
AcDbCircle
 10
696.7298305617792
 20
888.9030702511697
 30
0.0
 40
1.000000664876907
210
0.0
220
0.0
230
-1.0
100
AcDbArc
 50
79.21709666564544
 51
90.0000000478111
  0
LINE
  5
2E8
330
1F
100
AcDbEntity
  8
Make2D$Visible$Curves
 62
     9
420
 12500670
370
    -3
100
AcDbLine
 10
-654.58330498141
 20
887.7751398376317
 30
0.0
 11
-654.58330498141
 21
887.7906991712557
 31
0.0
  0
LINE
  5
2E9
330
1F
100
AcDbEntity
  8
Make2D$Visible$Curves
 62
     9
420
 12500670
370
    -3
100
AcDbLine
 10
-654.58330498141
 20
887.6337106876892
 30
0.0
 11
-654.58330498141
 21
887.6416561455512
 31
0.0
  0
LINE
  5
2EA
330
1F
100
AcDbEntity
  8
Make2D$Visible$Curves
 62
     9
420
 12500670
370
    -3
100
AcDbLine
 10
-654.5828345219029
 20
887.7751398376317
 30
0.0
 11
-628.1249716480766
 21
887.7751398376317
 31
0.0
  0
LINE
  5
2EB
330
1F
100
AcDbEntity
  8
Make2D$Visible$Curves
 62
     9
420
 12500670
370
    -3
100
AcDbLine
 10
-654.5833049842558
 20
887.7402463897756
 30
0.0
 11
-641.4707415465809
 21
887.751303464046
 31
0.0
  0
LINE
  5
2EC
330
1F
100
AcDbEntity
  8
Make2D$Visible$Curves
 62
     9
420
 12500670
370
    -3
100
AcDbLine
 10
-654.58330498141
 20
887.7123707205224
 30
0.0
 11
-654.5833049823509
 21
887.7297589354689
 31
0.0
  0
LINE
  5
2ED
330
1F
100
AcDbEntity
  8
Make2D$Visible$Curves
 62
     9
420
 12500670
370
    -3
100
AcDbLine
 10
-654.58330498141
 20
887.6654925191369
 30
0.0
 11
-628.1249716480766
 21
887.6654925191369
 31
0.0
  0
LINE
  5
2EE
330
1F
100
AcDbEntity
  8
Make2D$Visible$Curves
 62
     9
420
 12500670
370
    -3
100
AcDbLine
 10
-574.58330498141
 20
887.6611225173128
 30
0.0
 11
-574.5833049791345
 21
887.6777537479645
 31
0.0
  0
LINE
  5
2EF
330
1F
100
AcDbEntity
  8
Make2D$Visible$Curves
 62
     9
420
 12500670
370
    -3
100
AcDbLine
 10
-574.583304988138
 20
887.688996773571
 30
0.0
 11
-574.58330498141
 21
887.7052198084466
 31
0.0
  0
LINE
  5
2F0
330
1F
100
AcDbEntity
  8
Make2D$Visible$Curves
 62
     9
420
 12500670
370
    -3
100
AcDbLine
 10
-574.58330498141
 20
887.7775234749902
 30
0.0
 11
-574.58330498141
 21
887.7906991712557
 31
0.0
  0
LINE
  5
2F1
330
1F
100
AcDbEntity
  8
Make2D$Visible$Curves
 62
     9
420
 12500670
370
    -3
100
AcDbLine
 10
-628.1249716480766
 20
887.6649090245753
 30
0.0
 11
-648.949248824893
 21
887.6444370558029
 31
0.0
  0
LINE
  5
2F2
330
1F
100
AcDbEntity
  8
Make2D$Visible$Curves
 62
     9
420
 12500670
370
    -3
100
AcDbLine
 10
-641.4707415465809
 20
887.751303464046
 30
0.0
 11
-627.4465528446581
 21
887.7352139118755
 31
0.0
  0
LINE
  5
2F3
330
1F
100
AcDbEntity
  8
Make2D$Visible$Curves
 62
     9
420
 12500670
370
    -3
100
AcDbLine
 10
-628.522482665705
 20
887.7620050026037
 30
0.0
 11
-635.2218683494657
 21
887.7560707387631
 31
0.0
  0
LINE
  5
2F4
330
1F
100
AcDbEntity
  8
Make2D$Visible$Curves
 62
     9
420
 12500670
370
    -3
100
AcDbLine
 10
-635.2218683494657
 20
887.7560707387631
 30
0.0
 11
-641.9371544739315
 21
887.7622532981618
 31
0.0
  0
LINE
  5
2F5
330
1F
100
AcDbEntity
  8
Make2D$Visible$Curves
 62
    18
420
        0
370
    -3
100
AcDbLine
 10
-747.0423220803086
 20
982.4915997610215
 30
0.0
 11
-747.8423215316498
 21
982.4915997610215
 31
0.0
  0
LINE
  5
2F6
330
1F
100
AcDbEntity
  8
Make2D$Visible$Curves
 62
    18
420
        0
370
    -3
100
AcDbLine
 10
-747.0284052145812
 20
981.2785794206739
 30
0.0
 11
-747.0272269096952
 21
980.307463703268
 31
0.0
  0
LINE
  5
2F7
330
1F
100
AcDbEntity
  8
Make2D$Visible$Curves
 62
    18
420
        0
370
    -3
100
AcDbLine
 10
-747.0375030888981
 20
982.1403226191419
 30
0.0
 11
-747.0349041443501
 21
981.8918834746655
 31
0.0
  0
LINE
  5
2F8
330
1F
100
AcDbEntity
  8
Make2D$Visible$Curves
 62
    18
420
        0
370
    -3
100
AcDbLine
 10
-747.0244054871139
 20
978.0920251612197
 30
0.0
 11
-747.0237261473007
 21
977.7628321216825
 31
0.0
  0
LINE
  5
2F9
330
1F
100
AcDbEntity
  8
Make2D$Visible$Curves
 62
    18
420
        0
370
    -3
100
AcDbLine
 10
-747.8428596386739
 20
981.7943775387998
 30
0.0
 11
-747.8403702620525
 21
978.0915997610219
 31
0.0
  0
ARC
  5
2FA
330
1F
100
AcDbEntity
  8
Make2D$Visible$Curves
 62
    18
420
        0
370
    -3
100
AcDbCircle
 10
-1732.591886398745
 20
980.2636927636374
 30
0.0
 40
2479.635219033817
210
0.0
220
0.0
230
-1.0
100
AcDbArc
 50
359.7779158782911
 51
0.0353688245264896
  0
LINE
  5
2FB
330
1F
100
AcDbEntity
  8
Make2D$Visible$Curves
 62
    18
420
        0
370
    -3
100
AcDbLine
 10
-747.0423220803084
 20
995.6915997610222
 30
0.0
 11
-747.8423215316498
 21
995.6915997610222
 31
0.0
  0
ARC
  5
2FC
330
1F
100
AcDbEntity
  8
Make2D$Visible$Curves
 62
    18
420
        0
370
    -3
100
AcDbCircle
 10
1537.800337615638
 20
998.1442754072939
 30
0.0
 40
2285.643871378837
100
AcDbArc
 50
179.7638548672833
 51
180.0440051416048
  0
LINE
  5
2FD
330
1F
100
AcDbEntity
  8
Make2D$Visible$Curves
 62
    18
420
        0
370
    -3
100
AcDbLine
 10
-747.0428601873325
 20
996.388821983244
 30
0.0
 11
-747.0414364253136
 21
998.7406657591121
 31
0.0
  0
LINE
  5
2FE
330
1F
100
AcDbEntity
  8
Make2D$Visible$Curves
 62
    18
420
        0
370
    -3
100
AcDbLine
 10
-747.0427073679361
 20
995.6909670817286
 30
0.0
 11
-747.0417813594722
 21
995.6911958711034
 31
0.0
  0
LINE
  5
2FF
330
1F
100
AcDbEntity
  8
Make2D$Visible$Curves
 62
    18
420
        0
370
    -3
100
AcDbLine
 10
-747.8424357833084
 20
995.4920326560924
 30
0.0
 11
-747.0428067594264
 21
995.6913689970363
 31
0.0
  0
LINE
  5
300
330
1F
100
AcDbEntity
  8
Make2D$Visible$Curves
 62
    18
420
        0
370
    -3
100
AcDbLine
 10
-747.0421935279575
 20
982.4916776589175
 30
0.0
 11
-747.8418848914705
 21
982.691029533007
 31
0.0
  0
LINE
  5
301
330
1F
100
AcDbEntity
  8
Make2D$Visible$Curves
 62
    18
420
        0
370
    -3
100
AcDbLine
 10
-746.8073108792239
 20
979.4427108721338
 30
0.0
 11
-747.0413418195985
 21
979.4427108721338
 31
0.0
  0
LINE
  5
302
330
1F
100
AcDbEntity
  8
Make2D$Visible$Curves
 62
    18
420
        0
370
    -3
100
AcDbLine
 10
-747.8408896858807
 20
979.4427108721338
 30
0.0
 11
-747.8493566082761
 21
979.4427108721338
 31
0.0
  0
LINE
  5
303
330
1F
100
AcDbEntity
  8
Make2D$Visible$Curves
 62
    18
420
        0
370
    -3
100
AcDbLine
 10
-747.2833866239259
 20
1783.084487245008
 30
0.0
 11
-747.8419553485221
 21
1783.049101286517
 31
0.0
  0
LINE
  5
304
330
1F
100
AcDbEntity
  8
Make2D$Visible$Curves
 62
    18
420
        0
370
    -3
100
AcDbLine
 10
-747.2833866239262
 20
1795.591599761022
 30
0.0
 11
-747.4426993669517
 21
1795.591599761022
 31
0.0
  0
LINE
  5
305
330
1F
100
AcDbEntity
  8
Make2D$Visible$Curves
 62
    18
420
        0
370
    -3
100
AcDbLine
 10
-745.3931570450454
 20
1795.591599761022
 30
0.0
 11
-747.2833866239262
 21
1795.591599761022
 31
0.0
  0
LINE
  5
306
330
1F
100
AcDbEntity
  8
Make2D$Visible$Curves
 62
    18
420
        0
370
    -3
100
AcDbLine
 10
-745.3932263505906
 20
1782.591599761022
 30
0.0
 11
-747.2833866239262
 21
1782.591599761022
 31
0.0
  0
LINE
  5
307
330
1F
100
AcDbEntity
  8
Make2D$Visible$Curves
 62
    18
420
        0
370
    -3
100
AcDbLine
 10
-747.8421846768956
 20
1795.134112763738
 30
0.0
 11
-747.2833866239262
 21
1795.098712277036
 31
0.0
  0
LINE
  5
308
330
1F
100
AcDbEntity
  8
Make2D$Visible$Curves
 62
    18
420
        0
370
    -3
100
AcDbLine
 10
-747.849886657807
 20
1784.0657056269
 30
0.0
 11
-747.8081836140375
 21
1784.051766162514
 31
0.0
  0
LINE
  5
309
330
1F
100
AcDbEntity
  8
Make2D$Visible$Curves
 62
    18
420
        0
370
    -3
100
AcDbLine
 10
-747.8081836140375
 20
1794.13143335953
 30
0.0
 11
-747.8497241210089
 21
1794.11754127046
 31
0.0
  0
LINE
  5
30A
330
1F
100
AcDbEntity
  8
Make2D$Visible$Curves
 62
    18
420
        0
370
    -3
100
AcDbLine
 10
-746.8249999173509
 20
1808.091599761022
 30
0.0
 11
-747.8249992315275
 21
1808.091599761022
 31
0.0
  0
LINE
  5
30B
330
1F
100
AcDbEntity
  8
Make2D$Visible$Curves
 62
    18
420
        0
370
    -3
100
AcDbLine
 10
-746.8249999173509
 20
1807.558840545055
 30
0.0
 11
-746.8249999173509
 21
1808.091599761022
 31
0.0
  0
LINE
  5
30C
330
1F
100
AcDbEntity
  8
Make2D$Visible$Curves
 62
    18
420
        0
370
    -3
100
AcDbLine
 10
-747.8249992315275
 20
1808.091599761022
 30
0.0
 11
-747.8249992315273
 21
1819.591599761022
 31
0.0
  0
LINE
  5
30D
330
1F
100
AcDbEntity
  8
Make2D$Visible$Curves
 62
    18
420
        0
370
    -3
100
AcDbLine
 10
-747.8249992315277
 20
1758.591599761022
 30
0.0
 11
-747.8249992315277
 21
1770.091599761022
 31
0.0
  0
LINE
  5
30E
330
1F
100
AcDbEntity
  8
Make2D$Visible$Curves
 62
    18
420
        0
370
    -3
100
AcDbLine
 10
-746.8249999173509
 20
1770.091599761022
 30
0.0
 11
-746.8249999173509
 21
1776.321822298847
 31
0.0
  0
LINE
  5
30F
330
1F
100
AcDbEntity
  8
Make2D$Visible$Curves
 62
    18
420
        0
370
    -3
100
AcDbLine
 10
-747.8249992315277
 20
1770.091599761022
 30
0.0
 11
-746.8249999173509
 21
1770.091599761022
 31
0.0
  0
LINE
  5
310
330
1F
100
AcDbEntity
  8
Make2D$Visible$Curves
 62
    18
420
        0
370
    -3
100
AcDbLine
 10
-745.3931370421087
 20
1778.291599761022
 30
0.0
 11
-746.8235945097495
 21
1778.291599761022
 31
0.0
  0
LINE
  5
311
330
1F
100
AcDbEntity
  8
Make2D$Visible$Curves
 62
    18
420
        0
370
    -3
100
AcDbLine
 10
-747.8248342296522
 20
1795.291599761022
 30
0.0
 11
-747.4419131313773
 21
1795.291599761022
 31
0.0
  0
LINE
  5
312
330
1F
100
AcDbEntity
  8
Make2D$Visible$Curves
 62
    18
420
        0
370
    -3
100
AcDbLine
 10
-747.4419131313775
 20
1782.891599761022
 30
0.0
 11
-747.8248342296524
 21
1782.891599761022
 31
0.0
  0
LINE
  5
313
330
1F
100
AcDbEntity
  8
Make2D$Visible$Curves
 62
    18
420
        0
370
    -3
100
AcDbLine
 10
-745.3998042682979
 20
1787.149690094453
 30
0.0
 11
-745.4727655026306
 21
1787.148455646345
 31
0.0
  0
LINE
  5
314
330
1F
100
AcDbEntity
  8
Make2D$Visible$Curves
 62
    18
420
        0
370
    -3
100
AcDbLine
 10
-745.4728267662804
 20
1787.1484540421
 30
0.0
 11
-745.5237098276727
 21
1789.091599761022
 31
0.0
  0
LINE
  5
315
330
1F
100
AcDbEntity
  8
Make2D$Visible$Curves
 62
    18
420
        0
370
    -3
100
AcDbLine
 10
-745.4727655026306
 20
1787.148455646345
 30
0.0
 11
-745.3933147470384
 21
1787.147165178304
 31
0.0
  0
LINE
  5
316
330
1F
100
AcDbEntity
  8
Make2D$Visible$Curves
 62
    18
420
        0
370
    -3
100
AcDbLine
 10
-746.824999917355
 20
1008.091599761022
 30
0.0
 11
-747.8249992315318
 21
1008.091599761022
 31
0.0
  0
LINE
  5
317
330
1F
100
AcDbEntity
  8
Make2D$Visible$Curves
 62
    18
420
        0
370
    -3
100
AcDbLine
 10
-746.824999917355
 20
1001.091599761022
 30
0.0
 11
-746.824999917355
 21
1007.559179783361
 31
0.0
  0
LINE
  5
318
330
1F
100
AcDbEntity
  8
Make2D$Visible$Curves
 62
    18
420
        0
370
    -3
100
AcDbLine
 10
-746.824999917355
 20
1007.559179783361
 30
0.0
 11
-746.824999917355
 21
1008.091599761022
 31
0.0
  0
LINE
  5
319
330
1F
100
AcDbEntity
  8
Make2D$Visible$Curves
 62
    18
420
        0
370
    -3
100
AcDbLine
 10
-746.8249999173554
 20
970.0915997610218
 30
0.0
 11
-746.8249999173554
 21
970.6245920313318
 31
0.0
  0
LINE
  5
31A
330
1F
100
AcDbEntity
  8
Make2D$Visible$Curves
 62
    18
420
        0
370
    -3
100
AcDbLine
 10
-747.8249992315318
 20
970.0915997610218
 30
0.0
 11
-746.8249999173554
 21
970.0915997610218
 31
0.0
  0
LINE
  5
31B
330
1F
100
AcDbEntity
  8
Make2D$Visible$Curves
 62
    18
420
        0
370
    -3
100
AcDbLine
 10
-747.842590847109
 20
1784.091599761022
 30
0.0
 11
-746.7843450720595
 21
1784.091599761022
 31
0.0
  0
LINE
  5
31C
330
1F
100
AcDbEntity
  8
Make2D$Visible$Curves
 62
    18
420
        0
370
    -3
100
AcDbLine
 10
-746.7843450720595
 20
1794.091599761022
 30
0.0
 11
-747.8425908471088
 21
1794.091599761022
 31
0.0
  0
LINE
  5
31D
330
1F
100
AcDbEntity
  8
Make2D$Visible$Curves
 62
     9
420
 12500670
370
    -3
100
AcDbLine
 10
-554.58330498141
 20
907.7906854547891
 30
0.0
 11
-474.58330498141
 21
907.7906854547891
 31
0.0
  0
LINE
  5
31E
330
1F
100
AcDbEntity
  8
Make2D$Visible$Curves
 62
     9
420
 12500670
370
    -3
100
AcDbLine
 10
-494.1152187387343
 20
907.7906854547891
 30
0.0
 11
-494.1152187387343
 21
909.7710837070042
 31
0.0
  0
ARC
  5
31F
330
1F
100
AcDbEntity
  8
Make2D$Visible$Curves
 62
    18
420
        0
370
    -3
100
AcDbCircle
 10
-747.231557786931
 20
996.6737820654146
 30
0.0
 40
1.219210625369205
100
AcDbArc
 50
15.11011635012457
 51
81.05642443960403
  0
LINE
  5
320
330
1F
100
AcDbEntity
  8
Make2D$Visible$Curves
 62
    18
420
        0
370
    -3
100
AcDbLine
 10
-747.0416996988627
 20
980.3051509620718
 30
0.0
 11
-746.8065492251515
 21
980.3663345164673
 31
0.0
  0
LINE
  5
321
330
1F
100
AcDbEntity
  8
Make2D$Visible$Curves
 62
    18
420
        0
370
    -3
100
AcDbLine
 10
-746.3612629293716
 20
996.9915997610215
 30
0.0
 11
-745.3932619297595
 21
996.9915997610215
 31
0.0
  0
LINE
  5
322
330
1F
100
AcDbEntity
  8
Make2D$Visible$Curves
 62
    18
420
        0
370
    -3
100
AcDbLine
 10
-745.3932339283217
 20
981.1915997610223
 30
0.0
 11
-746.3612629293718
 21
981.1915997610222
 31
0.0
  0
LINE
  5
323
330
1F
100
AcDbEntity
  8
Make2D$Visible$Curves
 62
    18
420
        0
370
    -3
100
AcDbLine
 10
-747.8434452062993
 20
1789.091599761022
 30
0.0
 11
-747.8414675623582
 21
1796.591577276824
 31
0.0
  0
LINE
  5
324
330
1F
100
AcDbEntity
  8
Make2D$Visible$Curves
 62
    18
420
        0
370
    -3
100
AcDbLine
 10
-747.8434452063036
 20
989.0915997610218
 30
0.0
 11
-747.8414678283298
 21
996.5910984983761
 31
0.0
  0
LINE
  5
325
330
1F
100
AcDbEntity
  8
Make2D$Visible$Curves
 62
    18
420
        0
370
    -3
100
AcDbLine
 10
-747.8498866578116
 20
889.0915997610218
 30
0.0
 11
-747.8498866578066
 21
1889.091599761022
 31
0.0
  0
LINE
  5
326
330
1F
100
AcDbEntity
  8
Make2D$Visible$Curves
 62
    18
420
        0
370
    -3
100
AcDbLine
 10
-747.8400482976591
 20
979.4426288840085
 30
0.0
 11
-747.8434452063036
 21
989.0915997610218
 31
0.0
  0
LINE
  5
327
330
1F
100
AcDbEntity
  8
Make2D$Visible$Curves
 62
    18
420
        0
370
    -3
100
AcDbLine
 10
-747.8434452062993
 20
1789.091599761022
 30
0.0
 11
-747.8406654398328
 21
1780.291675277306
 31
0.0
  0
LINE
  5
328
330
1F
100
AcDbEntity
  8
Make2D$Visible$Curves
 62
    18
420
        0
370
    -3
100
AcDbLine
 10
-745.3933147470384
 20
955.3917086930114
 30
0.0
 11
-745.3933147470384
 21
999.7469213964532
 31
0.0
  0
LINE
  5
329
330
1F
100
AcDbEntity
  8
Make2D$Visible$Curves
 62
    18
420
        0
370
    -3
100
AcDbLine
 10
-745.3933147470384
 20
1755.391599761022
 30
0.0
 11
-745.3933147470384
 21
1797.425126231618
 31
0.0
  0
LINE
  5
32A
330
1F
100
AcDbEntity
  8
Make2D$Visible$Curves
 62
    18
420
        0
370
    -3
100
AcDbLine
 10
-745.3933147470384
 20
1797.425524193062
 30
0.0
 11
-745.3933147470384
 21
1799.746921396454
 31
0.0
  0
LINE
  5
32B
330
1F
100
AcDbEntity
  8
Make2D$Visible$Curves
 62
    18
420
        0
370
    -3
100
AcDbLine
 10
-746.8337272901163
 20
891.5915997610209
 30
0.0
 11
-747.4505166643407
 21
891.5915997610209
 31
0.0
  0
LINE
  5
32C
330
1F
100
AcDbEntity
  8
Make2D$Visible$Curves
 62
    18
420
        0
370
    -3
100
AcDbLine
 10
-747.4505166643407
 20
900.5915997610209
 30
0.0
 11
-746.8337272901163
 21
900.5915997610209
 31
0.0
  0
LINE
  5
32D
330
1F
100
AcDbEntity
  8
Make2D$Visible$Curves
 62
    18
420
        0
370
    -3
100
AcDbLine
 10
-747.8498866578111
 20
981.5920788516578
 30
0.0
 11
-747.8248342296565
 21
981.5915997610218
 31
0.0
  0
LINE
  5
32E
330
1F
100
AcDbEntity
  8
Make2D$Visible$Curves
 62
    18
420
        0
370
    -3
100
AcDbLine
 10
-747.8248342296565
 20
982.891599761022
 30
0.0
 11
-747.8494706522592
 21
982.8926033557477
 31
0.0
  0
LINE
  5
32F
330
1F
100
AcDbEntity
  8
Make2D$Visible$Curves
 62
    18
420
        0
370
    -3
100
AcDbLine
 10
-747.4419131313816
 20
982.891599761022
 30
0.0
 11
-747.8248342296565
 21
982.891599761022
 31
0.0
  0
LINE
  5
330
330
1F
100
AcDbEntity
  8
Make2D$Visible$Curves
 62
    18
420
        0
370
    -3
100
AcDbLine
 10
-747.2833866239303
 20
982.5915997610218
 30
0.0
 11
-747.4534951953715
 21
982.5915997610218
 31
0.0
  0
LINE
  5
331
330
1F
100
AcDbEntity
  8
Make2D$Visible$Curves
 62
    18
420
        0
370
    -3
100
AcDbLine
 10
-747.2833866239303
 20
995.5915997610218
 30
0.0
 11
-747.4430316809335
 21
995.5915997610218
 31
0.0
  0
LINE
  5
332
330
1F
100
AcDbEntity
  8
Make2D$Visible$Curves
 62
    18
420
        0
370
    -3
100
AcDbLine
 10
-747.8498866578111
 20
984.0657056268994
 30
0.0
 11
-747.8081836140418
 21
984.0517661625145
 31
0.0
  0
LINE
  5
333
330
1F
100
AcDbEntity
  8
Make2D$Visible$Curves
 62
    18
420
        0
370
    -3
100
AcDbLine
 10
-747.8081836140418
 20
994.1314333595301
 30
0.0
 11
-747.8495288652327
 21
994.1175982544728
 31
0.0
  0
LINE
  5
334
330
1F
100
AcDbEntity
  8
Make2D$Visible$Curves
 62
    18
420
        0
370
    -3
100
AcDbLine
 10
-747.8420899502173
 20
984.0915997610217
 30
0.0
 11
-746.7843450720638
 21
984.0915997610218
 31
0.0
  0
LINE
  5
335
330
1F
100
AcDbEntity
  8
Make2D$Visible$Curves
 62
    18
420
        0
370
    -3
100
AcDbLine
 10
-746.7843450720638
 20
994.0915997610218
 30
0.0
 11
-747.8420366314045
 21
994.0915997610218
 31
0.0
  0
ARC
  5
336
330
1F
100
AcDbEntity
  8
Make2D$Visible$Curves
 62
    18
420
        0
370
    -3
100
AcDbCircle
 10
746.1977610611156
 20
1796.986200964368
 30
0.0
 40
1.194608668976308
210
0.0
220
0.0
230
-1.0
100
AcDbArc
 50
270.2025621333719
 51
306.7164075563124
  0
ARC
  5
337
330
1F
100
AcDbEntity
  8
Make2D$Visible$Curves
 62
    18
420
        0
370
    -3
100
AcDbCircle
 10
-747.2315591961363
 20
1796.673781225244
 30
0.0
 40
1.219212204868923
100
AcDbArc
 50
15.11013720503154
 51
81.05043988275189
  0
ARC
  5
338
330
1F
100
AcDbEntity
  8
Make2D$Visible$Curves
 62
    18
420
        0
370
    -3
100
AcDbCircle
 10
747.5149828819387
 20
1781.482664780761
 30
0.0
 40
1.189869141829037
210
0.0
220
0.0
230
-1.0
100
AcDbArc
 50
194.1593398029383
 51
239.5494382397106
  0
LINE
  5
339
330
1F
100
AcDbEntity
  8
Make2D$Visible$Curves
 62
    18
420
        0
370
    -3
100
AcDbLine
 10
-747.0419077619738
 20
1780.30511904676
 30
0.0
 11
-746.8062662640989
 21
1780.366440190704
 31
0.0
  0
ARC
  5
33A
330
1F
100
AcDbEntity
  8
Make2D$Visible$Curves
 62
    18
420
        0
370
    -3
100
AcDbCircle
 10
-747.2322978972392
 20
1781.509609795231
 30
0.0
 40
1.219975285466671
100
AcDbArc
 50
290.4392064775087
 51
344.8902236442243
  0
LINE
  5
33B
330
1F
100
AcDbEntity
  8
Make2D$Visible$Curves
 62
    18
420
        0
370
    -3
100
AcDbLine
 10
-746.3612629293675
 20
1796.991599761022
 30
0.0
 11
-745.3933147470384
 21
1796.991599761022
 31
0.0
  0
LINE
  5
33C
330
1F
100
AcDbEntity
  8
Make2D$Visible$Curves
 62
    18
420
        0
370
    -3
100
AcDbLine
 10
-745.3933147470386
 20
1781.191599761022
 30
0.0
 11
-746.3612629293675
 21
1781.191599761022
 31
0.0
  0
LINE
  5
33D
330
1F
100
AcDbEntity
  8
Make2D$Visible$Curves
 62
    18
420
        0
370
    -3
100
AcDbLine
 10
-746.833727290111
 20
1877.591599761021
 30
0.0
 11
-747.4505166643355
 21
1877.591599761021
 31
0.0
  0
LINE
  5
33E
330
1F
100
AcDbEntity
  8
Make2D$Visible$Curves
 62
    18
420
        0
370
    -3
100
AcDbLine
 10
-747.4505166643355
 20
1886.591599761021
 30
0.0
 11
-746.833727290111
 21
1886.591599761021
 31
0.0
  0
LINE
  5
33F
330
1F
100
AcDbEntity
  8
Make2D$Visible$Curves
 62
     9
420
 12500670
370
    -3
100
AcDbLine
 10
-676.9163686602164
 20
889.8854195396539
 30
0.0
 11
-676.891438457912
 21
889.8854300629557
 31
0.0
  0
LINE
  5
340
330
1F
100
AcDbEntity
  8
Make2D$Visible$Curves
 62
     9
420
 12500670
370
    -3
100
AcDbLine
 10
-687.3298305609446
 20
889.921224097568
 30
0.0
 11
-677.5298305609444
 21
889.921224097568
 31
0.0
  0
LINE
  5
341
330
1F
100
AcDbEntity
  8
Make2D$Visible$Curves
 62
     9
420
 12500670
370
    -3
100
AcDbLine
 10
-676.0809418215108
 20
891.6101239645805
 30
0.0
 11
-676.0478884491513
 21
891.6517887293949
 31
0.0
  0
LINE
  5
342
330
1F
100
AcDbEntity
  8
Make2D$Visible$Curves
 62
     9
420
 12500670
370
    -3
100
AcDbLine
 10
-688.8298305609446
 20
889.9194673380662
 30
0.0
 11
-687.3298305609446
 21
889.921224097568
 31
0.0
  0
ARC
  5
343
330
1F
100
AcDbEntity
  8
Make2D$Visible$Curves
 62
     9
420
 12500670
370
    -3
100
AcDbCircle
 10
-688.1298302272348
 20
888.8855036486028
 30
0.0
 40
0.99999967242307
100
AcDbArc
 50
1.006466381337788
 51
90.00001912015348
  0
LINE
  5
344
330
1F
100
AcDbEntity
  8
Make2D$Visible$Curves
 62
     9
420
 12500670
370
    -3
100
AcDbLine
 10
-688.4298305609445
 20
889.8911039584327
 30
0.0
 11
-687.9734632901532
 21
889.8907699052911
 31
0.0
  0
ARC
  5
345
330
1F
100
AcDbEntity
  8
Make2D$Visible$Curves
 62
     9
420
 12500670
370
    -3
100
AcDbCircle
 10
688.1298302458359
 20
888.9030712093203
 30
0.0
 40
0.9999997064115042
210
0.0
220
0.0
230
-1.0
100
AcDbArc
 50
90.05732172080442
 51
176.5830940181058
  0
LINE
  5
346
330
1F
100
AcDbEntity
  8
Make2D$Visible$Curves
 62
     9
420
 12500670
370
    -3
100
AcDbLine
 10
-688.1298298797724
 20
889.8976898740761
 30
0.0
 11
-688.4298305609445
 21
889.89747027864
 31
0.0
  0
ARC
  5
347
330
1F
100
AcDbEntity
  8
Make2D$Visible$Curves
 62
     9
420
 12500670
370
    -3
100
AcDbCircle
 10
-676.7298310128339
 20
888.8986208613425
 30
0.0
 40
0.9999995493618183
100
AcDbArc
 50
97.1709588804546
 51
179.7449929204973
  0
LINE
  5
348
330
1F
100
AcDbEntity
  8
Make2D$Visible$Curves
 62
     9
420
 12500670
370
    -3
100
AcDbLine
 10
-677.7637926776847
 20
889.8822928996731
 30
0.0
 11
-677.7806580330885
 21
889.8635979087003
 31
0.0
  0
LINE
  5
349
330
1F
100
AcDbEntity
  8
Make2D$Visible$Curves
 62
     9
420
 12500670
370
    -3
100
AcDbLine
 10
-687.2073355810453
 20
889.8870209723043
 30
0.0
 11
-687.1104295199029
 21
889.8516142053331
 31
0.0
  0
LINE
  5
34A
330
1F
100
AcDbEntity
  8
Make2D$Visible$Curves
 62
     9
420
 12500670
370
    -3
100
AcDbLine
 10
-687.2073355810453
 20
889.8531880676378
 30
0.0
 11
-687.2073355810453
 21
889.8870209723043
 31
0.0
  0
LINE
  5
34B
330
1F
100
AcDbEntity
  8
Make2D$Visible$Curves
 62
     9
420
 12500670
370
    -3
100
AcDbLine
 10
-677.6523255408426
 20
889.8870209723068
 30
0.0
 11
-677.652325540844
 21
889.8531880676378
 31
0.0
  0
LINE
  5
34C
330
1F
100
AcDbEntity
  8
Make2D$Visible$Curves
 62
     9
420
 12500670
370
    -3
100
AcDbLine
 10
-677.7534829150563
 20
889.8500719164281
 30
0.0
 11
-677.6523255408424
 21
889.8870209723068
 31
0.0
  0
ARC
  5
34D
330
1F
100
AcDbEntity
  8
Make2D$Visible$Curves
 62
     9
420
 12500670
370
    -3
100
AcDbCircle
 10
688.1298302554846
 20
888.8899540571236
 30
0.0
 40
0.9999997213075642
210
0.0
220
0.0
230
-1.0
100
AcDbArc
 50
89.99998249844309
 51
175.8335012471401
  0
ARC
  5
34E
330
1F
100
AcDbEntity
  8
Make2D$Visible$Curves
 62
     9
420
 12500670
370
    -3
100
AcDbCircle
 10
676.7298308769864
 20
888.8899540723204
 30
0.0
 40
0.9999997054435218
210
0.0
220
0.0
230
-1.0
100
AcDbArc
 50
3.416905949864108
 51
89.87865362645955
  0
ARC
  5
34F
330
1F
100
AcDbEntity
  8
Make2D$Visible$Curves
 62
     9
420
 12500670
370
    -3
100
AcDbCircle
 10
676.729830563264
 20
888.9030702716506
 30
0.0
 40
1.000000644395991
210
0.0
220
0.0
230
-1.0
100
AcDbArc
 50
74.77217809255906
 51
90.00000013288746
  0
LINE
  5
350
330
1F
100
AcDbEntity
  8
Make2D$Visible$Curves
 62
     9
420
 12500670
370
    -3
100
AcDbLine
 10
-687.060996335676
 20
889.8424889210387
 30
0.0
 11
-687.1062340370495
 21
889.8933387825268
 31
0.0
  0
LINE
  5
351
330
1F
100
AcDbEntity
  8
Make2D$Visible$Curves
 62
    18
420
        0
370
    -3
100
AcDbLine
 10
-747.0423220803041
 20
1782.491599761022
 30
0.0
 11
-747.8419816232508
 21
1782.491599761022
 31
0.0
  0
LINE
  5
352
330
1F
100
AcDbEntity
  8
Make2D$Visible$Curves
 62
    18
420
        0
370
    -3
100
AcDbLine
 10
-747.0428601873284
 20
1781.7943775388
 30
0.0
 11
-747.0423220803041
 21
1782.491599761021
 31
0.0
  0
LINE
  5
353
330
1F
100
AcDbEntity
  8
Make2D$Visible$Curves
 62
    18
420
        0
370
    -3
100
AcDbLine
 10
-747.0284052145767
 20
1781.278579420674
 30
0.0
 11
-747.0272269096909
 21
1780.307463703268
 31
0.0
  0
LINE
  5
354
330
1F
100
AcDbEntity
  8
Make2D$Visible$Curves
 62
    18
420
        0
370
    -3
100
AcDbLine
 10
-747.0375030888936
 20
1782.140322619142
 30
0.0
 11
-747.034904144346
 21
1781.891883474666
 31
0.0
  0
LINE
  5
355
330
1F
100
AcDbEntity
  8
Make2D$Visible$Curves
 62
    18
420
        0
370
    -3
100
AcDbLine
 10
-747.0244054871093
 20
1778.092025161219
 30
0.0
 11
-747.0237261472964
 21
1777.762832121683
 31
0.0
  0
LINE
  5
356
330
1F
100
AcDbEntity
  8
Make2D$Visible$Curves
 62
    18
420
        0
370
    -3
100
AcDbLine
 10
-746.8249999173511
 20
1776.321342653866
 30
0.0
 11
-747.0244725229168
 21
1776.323908178646
 31
0.0
  0
LINE
  5
357
330
1F
100
AcDbEntity
  8
Make2D$Visible$Curves
 62
    18
420
        0
370
    -3
100
AcDbLine
 10
-747.8428596386698
 20
1781.7943775388
 30
0.0
 11
-747.8403702620482
 21
1778.091599761022
 31
0.0
  0
ARC
  5
358
330
1F
100
AcDbEntity
  8
Make2D$Visible$Curves
 62
    18
420
        0
370
    -3
100
AcDbCircle
 10
-1732.591886399276
 20
1780.263692763638
 30
0.0
 40
2479.635219034343
210
0.0
220
0.0
230
-1.0
100
AcDbArc
 50
359.7779158782912
 51
0.0353688245264611
  0
LINE
  5
359
330
1F
100
AcDbEntity
  8
Make2D$Visible$Curves
 62
    18
420
        0
370
    -3
100
AcDbLine
 10
-747.8241208517766
 20
1770.618646559111
 30
0.0
 11
-746.8247706544903
 21
1770.618639532031
 31
0.0
  0
LINE
  5
35A
330
1F
100
AcDbEntity
  8
Make2D$Visible$Curves
 62
    18
420
        0
370
    -3
100
AcDbLine
 10
-747.0423220803041
 20
1795.691599761022
 30
0.0
 11
-747.8398580709936
 21
1795.691599761022
 31
0.0
  0
LINE
  5
35B
330
1F
100
AcDbEntity
  8
Make2D$Visible$Curves
 62
    18
420
        0
370
    -3
100
AcDbLine
 10
-747.8398580709936
 20
1795.691599761022
 30
0.0
 11
-747.8423215316454
 21
1795.691599761022
 31
0.0
  0
ARC
  5
35C
330
1F
100
AcDbEntity
  8
Make2D$Visible$Curves
 62
    18
420
        0
370
    -3
100
AcDbCircle
 10
1537.800337642917
 20
1798.144275407201
 30
0.0
 40
2285.643871406112
100
AcDbArc
 50
179.7638548672838
 51
180.044005141602
  0
LINE
  5
35D
330
1F
100
AcDbEntity
  8
Make2D$Visible$Curves
 62
    18
420
        0
370
    -3
100
AcDbLine
 10
-747.0428601873282
 20
1796.388821983243
 30
0.0
 11
-747.0414364253096
 21
1798.740665759112
 31
0.0
  0
LINE
  5
35E
330
1F
100
AcDbEntity
  8
Make2D$Visible$Curves
 62
    18
420
        0
370
    -3
100
AcDbLine
 10
-746.8249999173509
 20
1807.564560205355
 30
0.0
 11
-747.8241208512172
 21
1807.564552988779
 31
0.0
  0
LINE
  5
35F
330
1F
100
AcDbEntity
  8
Make2D$Visible$Curves
 62
    18
420
        0
370
    -3
100
AcDbLine
 10
-747.8401176305852
 20
1795.691598280694
 30
0.0
 11
-747.8407773228869
 21
1795.492446097043
 31
0.0
  0
LINE
  5
360
330
1F
100
AcDbEntity
  8
Make2D$Visible$Curves
 62
    18
420
        0
370
    -3
100
AcDbLine
 10
-747.8408324168865
 20
1795.492432362549
 30
0.0
 11
-747.0418810357064
 21
1795.691599761024
 31
0.0
  0
LINE
  5
361
330
1F
100
AcDbEntity
  8
Make2D$Visible$Curves
 62
    18
420
        0
370
    -3
100
AcDbLine
 10
-747.0418810358183
 20
1782.491599761022
 30
0.0
 11
-747.8420251767311
 21
1782.691064505005
 31
0.0
  0
LINE
  5
362
330
1F
100
AcDbEntity
  8
Make2D$Visible$Curves
 62
    18
420
        0
370
    -3
100
AcDbLine
 10
-746.8073139482274
 20
1779.442710872133
 30
0.0
 11
-747.0413418195942
 21
1779.442710872133
 31
0.0
  0
LINE
  5
363
330
1F
100
AcDbEntity
  8
Make2D$Visible$Curves
 62
    18
420
        0
370
    -3
100
AcDbLine
 10
-747.0247058848654
 20
1770.652428750635
 30
0.0
 11
-747.0244727321433
 21
1776.323918943916
 31
0.0
  0
ENDSEC
  0
SECTION
  2
OBJECTS
  0
DICTIONARY
  5
C
330
0
100
AcDbDictionary
281
     1
  3
ACAD_DETAILVIEWSTYLE
350
3A9
  3
ACAD_GROUP
350
D
  3
ACAD_LAYOUT
350
1A
  3
ACAD_MATERIAL
350
43
  3
ACAD_MLEADERSTYLE
350
6B
  3
ACAD_MLINESTYLE
350
17
  3
ACAD_PLOTSETTINGS
350
19
  3
ACAD_PLOTSTYLENAME
350
E
  3
ACAD_SCALELIST
350
47
  3
ACAD_SECTIONVIEWSTYLE
350
3AA
  3
ACAD_TABLESTYLE
350
69
  3
ACAD_VISUALSTYLE
350
2A
  3
ACDB_RECOMPOSE_DATA
350
3A6
  3
AcDbVariableDictionary
350
366
  0
DICTIONARY
  5
364
330
8
100
AcDbDictionary
280
     1
281
     1
  3
ACAD_XREC_ROUNDTRIP
360
365
  0
DICTIONARY
  5
3A9
102
{ACAD_REACTORS
330
C
102
}
330
C
100
AcDbDictionary
281
     1
  0
DICTIONARY
  5
D
102
{ACAD_REACTORS
330
C
102
}
330
C
100
AcDbDictionary
281
     1
  0
DICTIONARY
  5
1A
102
{ACAD_REACTORS
330
C
102
}
330
C
100
AcDbDictionary
281
     1
  3
Layout1
350
1E
  3
Layout2
350
26
  3
Model
350
22
  0
DICTIONARY
  5
43
102
{ACAD_REACTORS
330
C
102
}
330
C
100
AcDbDictionary
281
     1
  3
ByBlock
350
45
  3
ByLayer
350
44
  3
Global
350
46
  0
DICTIONARY
  5
6B
102
{ACAD_REACTORS
330
C
102
}
330
C
100
AcDbDictionary
281
     1
  3
Standard
350
6C
  0
DICTIONARY
  5
17
102
{ACAD_REACTORS
330
C
102
}
330
C
100
AcDbDictionary
281
     1
  3
Standard
350
18
  0
DICTIONARY
  5
19
102
{ACAD_REACTORS
330
C
102
}
330
C
100
AcDbDictionary
281
     1
  0
ACDBDICTIONARYWDFLT
  5
E
102
{ACAD_REACTORS
330
C
102
}
330
C
100
AcDbDictionary
281
     1
  3
Normal
350
F
100
AcDbDictionaryWithDefault
340
F
  0
DICTIONARY
  5
47
102
{ACAD_REACTORS
330
C
102
}
330
C
100
AcDbDictionary
281
     1
  3
A0
350
48
  3
A1
350
49
  3
A2
350
4A
  3
A3
350
4B
  3
A4
350
4C
  3
A5
350
4D
  3
A6
350
4E
  3
A7
350
4F
  3
A8
350
50
  3
A9
350
51
  3
B0
350
52
  3
B1
350
53
  3
B2
350
54
  3
B3
350
55
  3
B4
350
56
  3
B5
350
57
  3
B6
350
58
  3
B7
350
59
  3
B8
350
5A
  3
B9
350
5B
  3
C0
350
5C
  3
C1
350
5D
  3
C2
350
5E
  3
C3
350
5F
  3
C4
350
60
  3
C5
350
61
  3
C6
350
62
  3
C7
350
63
  3
C8
350
64
  3
C9
350
65
  3
D0
350
66
  3
D1
350
67
  3
D2
350
68
  0
DICTIONARY
  5
3AA
102
{ACAD_REACTORS
330
C
102
}
330
C
100
AcDbDictionary
281
     1
  0
DICTIONARY
  5
69
102
{ACAD_REACTORS
330
C
102
}
330
C
100
AcDbDictionary
281
     1
  3
Standard
350
6A
  0
DICTIONARY
  5
2A
102
{ACAD_REACTORS
330
C
102
}
330
C
100
AcDbDictionary
281
     1
  3
2dWireframe
350
2F
  3
Basic
350
32
  3
Brighten
350
36
  3
ColorChange
350
3A
  3
Conceptual
350
34
  3
Dim
350
35
  3
EdgeColorOff
350
3D
  3
Facepattern
350
39
  3
Flat
350
2B
  3
FlatWithEdges
350
2C
  3
Gouraud
350
2D
  3
GouraudWithEdges
350
2E
  3
Hidden
350
31
  3
JitterOff
350
3B
  3
Linepattern
350
38
  3
OverhangOff
350
3C
  3
Realistic
350
33
  3
Shaded
350
42
  3
Shaded with edges
350
41
  3
Shades of Gray
350
3E
  3
Sketchy
350
3F
  3
Thicken
350
37
  3
Wireframe
350
30
  3
X-Ray
350
40
  0
XRECORD
  5
3A6
102
{ACAD_REACTORS
330
C
102
}
330
C
100
AcDbXrecord
280
     1
 90
        1
330
6A
  0
DICTIONARY
  5
366
102
{ACAD_REACTORS
330
C
102
}
330
C
100
AcDbDictionary
281
     1
  3
CANNOSCALE
350
367
  3
CMLEADERSTYLE
350
3A8
  3
CTABLESTYLE
350
3A7
  3
MSLTSCALE
350
368
  3
XCLIPFRAME
350
369
  0
XRECORD
  5
365
102
{ACAD_REACTORS
330
364
102
}
330
364
100
AcDbXrecord
280
     1
102
VTR_0.000_0.000_1.000_1.000_VISUALSTYLE
340
2F
102
VTR_0.000_0.000_1.000_1.000_GRIDDISPLAY
 70
     3
102
VTR_0.000_0.000_1.000_1.000_GRIDMAJOR
 70
     5
102
VTR_0.000_0.000_1.000_1.000_DEFAULTLIGHTING
280
     1
102
VTR_0.000_0.000_1.000_1.000_DEFAULTLIGHTINGTYPE
 70
     1
102
VTR_0.000_0.000_1.000_1.000_BRIGHTNESS
141
0.0
102
VTR_0.000_0.000_1.000_1.000_CONTRAST
142
0.0
  0
LAYOUT
  5
1E
102
{ACAD_REACTORS
330
1A
102
}
330
1A
100
AcDbPlotSettings
  1

  2
none_device
  4

  6

 40
0.0
 41
0.0
 42
0.0
 43
0.0
 44
0.0
 45
0.0
 46
0.0
 47
0.0
 48
0.0
 49
0.0
140
0.0
141
0.0
142
1.0
143
1.0
 70
   688
 72
     0
 73
     0
 74
     5
  7

 75
    16
 76
     0
 77
     2
 78
   300
147
1.0
148
0.0
149
0.0
100
AcDbLayout
  1
Layout1
 70
     1
 71
     1
 10
0.0
 20
0.0
 11
12.0
 21
9.0
 12
0.0
 22
0.0
 32
0.0
 14
1.000000000000000E+20
 24
1.000000000000000E+20
 34
1.000000000000000E+20
 15
-1.000000000000000E+20
 25
-1.000000000000000E+20
 35
-1.000000000000000E+20
146
0.0
 13
0.0
 23
0.0
 33
0.0
 16
1.0
 26
0.0
 36
0.0
 17
0.0
 27
1.0
 37
0.0
 76
     0
330
1B
  0
LAYOUT
  5
26
102
{ACAD_REACTORS
330
1A
102
}
330
1A
100
AcDbPlotSettings
  1

  2
none_device
  4

  6

 40
0.0
 41
0.0
 42
0.0
 43
0.0
 44
0.0
 45
0.0
 46
0.0
 47
0.0
 48
0.0
 49
0.0
140
0.0
141
0.0
142
1.0
143
1.0
 70
   688
 72
     0
 73
     0
 74
     5
  7

 75
    16
 76
     0
 77
     2
 78
   300
147
1.0
148
0.0
149
0.0
100
AcDbLayout
  1
Layout2
 70
     1
 71
     2
 10
0.0
 20
0.0
 11
0.0
 21
0.0
 12
0.0
 22
0.0
 32
0.0
 14
0.0
 24
0.0
 34
0.0
 15
0.0
 25
0.0
 35
0.0
146
0.0
 13
0.0
 23
0.0
 33
0.0
 16
1.0
 26
0.0
 36
0.0
 17
0.0
 27
1.0
 37
0.0
 76
     0
330
23
  0
LAYOUT
  5
22
102
{ACAD_REACTORS
330
1A
102
}
330
1A
100
AcDbPlotSettings
  1

  2
none_device
  4
Letter_(8.50_x_11.00_Inches)
  6

 40
6.35
 41
6.35
 42
6.35000508
 43
6.35000508
 44
215.9
 45
279.4
 46
0.0
 47
0.0
 48
0.0
 49
0.0
140
0.0
141
0.0
142
1.0
143
1.0
 70
  1712
 72
     0
 73
     0
 74
     0
  7

 75
     0
 76
     0
 77
     2
 78
   300
147
1.0
148
0.0
149
0.0
100
AcDbLayout
  1
Model
 70
     1
 71
     0
 10
0.0
 20
0.0
 11
12.0
 21
9.0
 12
0.0
 22
0.0
 32
0.0
 14
1.000000000000000E+20
 24
1.000000000000000E+20
 34
1.000000000000000E+20
 15
-1.000000000000000E+20
 25
-1.000000000000000E+20
 35
-1.000000000000000E+20
146
0.0
 13
0.0
 23
0.0
 33
0.0
 16
1.0
 26
0.0
 36
0.0
 17
0.0
 27
1.0
 37
0.0
 76
     0
330
1F
331
29
  0
MATERIAL
  5
45
102
{ACAD_REACTORS
330
43
102
}
102
{ACAD_XDICTIONARY
360
39C
102
}
330
43
100
AcDbMaterial
  1
ByBlock
  0
MATERIAL
  5
44
102
{ACAD_REACTORS
330
43
102
}
102
{ACAD_XDICTIONARY
360
39A
102
}
330
43
100
AcDbMaterial
  1
ByLayer
  0
MATERIAL
  5
46
102
{ACAD_REACTORS
330
43
102
}
102
{ACAD_XDICTIONARY
360
39E
102
}
330
43
100
AcDbMaterial
  1
Global
  0
MLEADERSTYLE
  5
6C
102
{ACAD_REACTORS
330
6B
102
}
102
{ACAD_XDICTIONARY
360
3A4
102
}
330
6B
100
AcDbMLeaderStyle
170
     2
171
     1
172
     0
 90
        2
 40
0.0
 41
0.0
173
     1
 91
-1056964608
340
14
 92
       -2
290
     1
 42
0.09
291
     1
 43
0.36
  3
Standard
341
0
 44
0.18
300

342
11
174
     1
178
     6
175
     1
176
     0
 93
-1056964608
 45
0.18
292
     0
297
     0
 46
0.18
343
0
 94
-1056964608
 47
1.0
 49
1.0
140
1.0
293
     1
141
0.0
294
     1
177
     0
142
1.0
295
     0
296
     0
143
0.125
1001
ACAD_MLEADERVER
1070
     2
  0
MLINESTYLE
  5
18
102
{ACAD_REACTORS
330
17
102
}
330
17
100
AcDbMlineStyle
  2
Standard
 70
     0
  3

 62
   256
 51
90.0
 52
90.0
 71
     2
 49
0.5
 62
   256
  6
BYLAYER
 49
-0.5
 62
   256
  6
BYLAYER
  0
ACDBPLACEHOLDER
  5
F
102
{ACAD_REACTORS
330
E
102
}
330
E
  0
SCALE
  5
48
102
{ACAD_REACTORS
330
47
102
}
330
47
100
AcDbScale
 70
     0
300
1:1
140
1.0
141
1.0
290
     1
  0
SCALE
  5
49
102
{ACAD_REACTORS
330
47
102
}
330
47
100
AcDbScale
 70
     0
300
1:2
140
1.0
141
2.0
290
     0
  0
SCALE
  5
4A
102
{ACAD_REACTORS
330
47
102
}
330
47
100
AcDbScale
 70
     0
300
1:4
140
1.0
141
4.0
290
     0
  0
SCALE
  5
4B
102
{ACAD_REACTORS
330
47
102
}
330
47
100
AcDbScale
 70
     0
300
1:5
140
1.0
141
5.0
290
     0
  0
SCALE
  5
4C
102
{ACAD_REACTORS
330
47
102
}
330
47
100
AcDbScale
 70
     0
300
1:8
140
1.0
141
8.0
290
     0
  0
SCALE
  5
4D
102
{ACAD_REACTORS
330
47
102
}
330
47
100
AcDbScale
 70
     0
300
1:10
140
1.0
141
10.0
290
     0
  0
SCALE
  5
4E
102
{ACAD_REACTORS
330
47
102
}
330
47
100
AcDbScale
 70
     0
300
1:16
140
1.0
141
16.0
290
     0
  0
SCALE
  5
4F
102
{ACAD_REACTORS
330
47
102
}
330
47
100
AcDbScale
 70
     0
300
1:20
140
1.0
141
20.0
290
     0
  0
SCALE
  5
50
102
{ACAD_REACTORS
330
47
102
}
330
47
100
AcDbScale
 70
     0
300
1:30
140
1.0
141
30.0
290
     0
  0
SCALE
  5
51
102
{ACAD_REACTORS
330
47
102
}
330
47
100
AcDbScale
 70
     0
300
1:40
140
1.0
141
40.0
290
     0
  0
SCALE
  5
52
102
{ACAD_REACTORS
330
47
102
}
330
47
100
AcDbScale
 70
     0
300
1:50
140
1.0
141
50.0
290
     0
  0
SCALE
  5
53
102
{ACAD_REACTORS
330
47
102
}
330
47
100
AcDbScale
 70
     0
300
1:100
140
1.0
141
100.0
290
     0
  0
SCALE
  5
54
102
{ACAD_REACTORS
330
47
102
}
330
47
100
AcDbScale
 70
     0
300
2:1
140
2.0
141
1.0
290
     0
  0
SCALE
  5
55
102
{ACAD_REACTORS
330
47
102
}
330
47
100
AcDbScale
 70
     0
300
4:1
140
4.0
141
1.0
290
     0
  0
SCALE
  5
56
102
{ACAD_REACTORS
330
47
102
}
330
47
100
AcDbScale
 70
     0
300
8:1
140
8.0
141
1.0
290
     0
  0
SCALE
  5
57
102
{ACAD_REACTORS
330
47
102
}
330
47
100
AcDbScale
 70
     0
300
10:1
140
10.0
141
1.0
290
     0
  0
SCALE
  5
58
102
{ACAD_REACTORS
330
47
102
}
330
47
100
AcDbScale
 70
     0
300
100:1
140
100.0
141
1.0
290
     0
  0
SCALE
  5
59
102
{ACAD_REACTORS
330
47
102
}
330
47
100
AcDbScale
 70
     0
300
1/128" = 1'-0"
140
0.0078125
141
12.0
290
     0
  0
SCALE
  5
5A
102
{ACAD_REACTORS
330
47
102
}
330
47
100
AcDbScale
 70
     0
300
1/64" = 1'-0"
140
0.015625
141
12.0
290
     0
  0
SCALE
  5
5B
102
{ACAD_REACTORS
330
47
102
}
330
47
100
AcDbScale
 70
     0
300
1/32" = 1'-0"
140
0.03125
141
12.0
290
     0
  0
SCALE
  5
5C
102
{ACAD_REACTORS
330
47
102
}
330
47
100
AcDbScale
 70
     0
300
1/16" = 1'-0"
140
0.0625
141
12.0
290
     0
  0
SCALE
  5
5D
102
{ACAD_REACTORS
330
47
102
}
330
47
100
AcDbScale
 70
     0
300
3/32" = 1'-0"
140
0.09375
141
12.0
290
     0
  0
SCALE
  5
5E
102
{ACAD_REACTORS
330
47
102
}
330
47
100
AcDbScale
 70
     0
300
1/8" = 1'-0"
140
0.125
141
12.0
290
     0
  0
SCALE
  5
5F
102
{ACAD_REACTORS
330
47
102
}
330
47
100
AcDbScale
 70
     0
300
3/16" = 1'-0"
140
0.1875
141
12.0
290
     0
  0
SCALE
  5
60
102
{ACAD_REACTORS
330
47
102
}
330
47
100
AcDbScale
 70
     0
300
1/4" = 1'-0"
140
0.25
141
12.0
290
     0
  0
SCALE
  5
61
102
{ACAD_REACTORS
330
47
102
}
330
47
100
AcDbScale
 70
     0
300
3/8" = 1'-0"
140
0.375
141
12.0
290
     0
  0
SCALE
  5
62
102
{ACAD_REACTORS
330
47
102
}
330
47
100
AcDbScale
 70
     0
300
1/2" = 1'-0"
140
0.5
141
12.0
290
     0
  0
SCALE
  5
63
102
{ACAD_REACTORS
330
47
102
}
330
47
100
AcDbScale
 70
     0
300
3/4" = 1'-0"
140
0.75
141
12.0
290
     0
  0
SCALE
  5
64
102
{ACAD_REACTORS
330
47
102
}
330
47
100
AcDbScale
 70
     0
300
1" = 1'-0"
140
1.0
141
12.0
290
     0
  0
SCALE
  5
65
102
{ACAD_REACTORS
330
47
102
}
330
47
100
AcDbScale
 70
     0
300
1-1/2" = 1'-0"
140
1.5
141
12.0
290
     0
  0
SCALE
  5
66
102
{ACAD_REACTORS
330
47
102
}
330
47
100
AcDbScale
 70
     0
300
3" = 1'-0"
140
3.0
141
12.0
290
     0
  0
SCALE
  5
67
102
{ACAD_REACTORS
330
47
102
}
330
47
100
AcDbScale
 70
     0
300
6" = 1'-0"
140
6.0
141
12.0
290
     0
  0
SCALE
  5
68
102
{ACAD_REACTORS
330
47
102
}
330
47
100
AcDbScale
 70
     0
300
1'-0" = 1'-0"
140
12.0
141
12.0
290
     0
  0
TABLESTYLE
  5
6A
102
{ACAD_REACTORS
330
69
102
}
102
{ACAD_XDICTIONARY
360
3A0
102
}
330
69
100
AcDbTableStyle
  3
Standard
 70
     0
 71
     0
 40
0.06
 41
0.06
280
     0
281
     0
  7
Standard
140
0.18
170
     2
 62
     0
 63
   257
283
     0
274
    -2
284
     1
 64
     0
275
    -2
285
     1
 65
     0
276
    -2
286
     1
 66
     0
277
    -2
287
     1
 67
     0
278
    -2
288
     1
 68
     0
279
    -2
289
     1
 69
     0
  7
Standard
140
0.25
170
     5
 62
     0
 63
   257
283
     0
274
    -2
284
     1
 64
     0
275
    -2
285
     1
 65
     0
276
    -2
286
     1
 66
     0
277
    -2
287
     1
 67
     0
278
    -2
288
     1
 68
     0
279
    -2
289
     1
 69
     0
  7
Standard
140
0.18
170
     5
 62
     0
 63
   257
283
     0
274
    -2
284
     1
 64
     0
275
    -2
285
     1
 65
     0
276
    -2
286
     1
 66
     0
277
    -2
287
     1
 67
     0
278
    -2
288
     1
 68
     0
279
    -2
289
     1
 69
     0
  0
VISUALSTYLE
  5
2F
102
{ACAD_REACTORS
330
2A
102
}
102
{ACAD_XDICTIONARY
360
372
102
}
330
2A
100
AcDbVisualStyle
  2
2dWireframe
 70
     4
 71
     0
 72
     2
 73
     0
 90
        0
 40
0.6
 41
30.0
 62
     5
 63
     7
421
 16777215
 74
     1
 91
        4
 64
     7
 65
   257
 75
     1
175
     1
 42
1.0
 92
        0
 66
   257
 43
1.0
 76
     1
 77
     6
 78
     2
 67
     7
 79
     5
170
     0
171
     0
290
     0
174
     0
 93
        1
 44
0.0
173
     0
291
     0
 45
0.0
1001
ACAD
1000
AcDbSavedByObjectVersion
1070
     0
  0
VISUALSTYLE
  5
32
102
{ACAD_REACTORS
330
2A
102
}
102
{ACAD_XDICTIONARY
360
378
102
}
330
2A
100
AcDbVisualStyle
  2
Basic
 70
     7
 71
     1
 72
     0
 73
     1
 90
        0
 40
0.6
 41
30.0
 62
     5
 63
     7
421
 16777215
 74
     0
 91
        4
 64
     7
 65
   257
 75
     1
175
     1
 42
1.0
 92
        8
 66
     7
 43
1.0
 76
     1
 77
     6
 78
     2
 67
     7
 79
     5
170
     0
171
     0
290
     0
174
     0
 93
        1
 44
0.0
173
     0
291
     1
 45
0.0
1001
ACAD
1000
AcDbSavedByObjectVersion
1070
     0
  0
VISUALSTYLE
  5
36
102
{ACAD_REACTORS
330
2A
102
}
102
{ACAD_XDICTIONARY
360
380
102
}
330
2A
100
AcDbVisualStyle
  2
Brighten
 70
    12
 71
     2
 72
     2
 73
     0
 90
        0
 40
0.6
 41
30.0
 62
     5
 63
     7
421
 16777215
 74
     1
 91
        4
 64
     7
 65
   257
 75
     1
175
     1
 42
1.0
 92
        8
 66
     7
 43
1.0
 76
     1
 77
     6
 78
     2
 67
     7
 79
     5
170
     0
171
     0
290
     0
174
     0
 93
        1
 44
50.0
173
     0
291
     1
 45
0.0
1001
ACAD
1000
AcDbSavedByObjectVersion
1070
     0
  0
VISUALSTYLE
  5
3A
102
{ACAD_REACTORS
330
2A
102
}
102
{ACAD_XDICTIONARY
360
388
102
}
330
2A
100
AcDbVisualStyle
  2
ColorChange
 70
    16
 71
     2
 72
     2
 73
     3
 90
        0
 40
0.6
 41
30.0
 62
     5
 63
     8
421
  8421504
 74
     1
 91
        4
 64
     7
 65
   257
 75
     1
175
     1
 42
1.0
 92
        8
 66
     8
424
  8421504
 43
1.0
 76
     1
 77
     6
 78
     2
 67
     7
 79
     5
170
     0
171
     0
290
     0
174
     0
 93
        1
 44
0.0
173
     0
291
     1
 45
0.0
1001
ACAD
1000
AcDbSavedByObjectVersion
1070
     0
  0
VISUALSTYLE
  5
34
102
{ACAD_REACTORS
330
2A
102
}
102
{ACAD_XDICTIONARY
360
37C
102
}
330
2A
100
AcDbVisualStyle
  2
Conceptual
 70
     9
 71
     3
 72
     2
 73
     0
 90
        0
 40
0.6
 41
30.0
 62
     5
 63
     7
421
 16777215
 74
     2
 91
        2
 64
     7
 65
   257
 75
     1
175
     1
 42
179.0
 92
        8
 66
     7
 43
1.0
 76
     1
 77
     6
 78
     2
 67
     7
 79
     3
170
     0
171
     0
290
     0
174
     0
 93
        1
 44
0.0
173
     0
291
     0
 45
0.0
1001
ACAD
1000
AcDbSavedByObjectVersion
1070
     0
  0
VISUALSTYLE
  5
35
102
{ACAD_REACTORS
330
2A
102
}
102
{ACAD_XDICTIONARY
360
37E
102
}
330
2A
100
AcDbVisualStyle
  2
Dim
 70
    11
 71
     2
 72
     2
 73
     0
 90
        0
 40
0.6
 41
30.0
 62
     5
 63
     7
421
 16777215
 74
     1
 91
        4
 64
     7
 65
   257
 75
     1
175
     1
 42
1.0
 92
        8
 66
     7
 43
1.0
 76
     1
 77
     6
 78
     2
 67
     7
 79
     5
170
     0
171
     0
290
     0
174
     0
 93
        1
 44
-50.0
173
     0
291
     1
 45
0.0
1001
ACAD
1000
AcDbSavedByObjectVersion
1070
     0
  0
VISUALSTYLE
  5
3D
102
{ACAD_REACTORS
330
2A
102
}
102
{ACAD_XDICTIONARY
360
38E
102
}
330
2A
100
AcDbVisualStyle
  2
EdgeColorOff
 70
    22
 71
     2
 72
     2
 73
     0
 90
        0
 40
0.6
 41
30.0
 62
     5
 63
     7
421
 16777215
 74
     1
 91
        4
 64
     7
 65
   257
 75
     1
175
     1
 42
1.0
 92
        8
 66
     7
 43
1.0
 76
     1
 77
     6
 78
     2
 67
     7
 79
     5
170
     0
171
     0
290
     0
174
     0
 93
        1
 44
0.0
173
     0
291
     1
 45
0.0
1001
ACAD
1000
AcDbSavedByObjectVersion
1070
     0
  0
VISUALSTYLE
  5
39
102
{ACAD_REACTORS
330
2A
102
}
102
{ACAD_XDICTIONARY
360
386
102
}
330
2A
100
AcDbVisualStyle
  2
Facepattern
 70
    15
 71
     2
 72
     2
 73
     0
 90
        0
 40
0.6
 41
30.0
 62
     5
 63
     7
421
 16777215
 74
     1
 91
        4
 64
     7
 65
   257
 75
     1
175
     1
 42
1.0
 92
        8
 66
     7
 43
1.0
 76
     1
 77
     6
 78
     2
 67
     7
 79
     5
170
     0
171
     0
290
     0
174
     0
 93
        1
 44
0.0
173
     0
291
     1
 45
0.0
1001
ACAD
1000
AcDbSavedByObjectVersion
1070
     0
  0
VISUALSTYLE
  5
2B
102
{ACAD_REACTORS
330
2A
102
}
102
{ACAD_XDICTIONARY
360
36A
102
}
330
2A
100
AcDbVisualStyle
  2
Flat
 70
     0
 71
     2
 72
     1
 73
     1
 90
        2
 40
0.6
 41
30.0
 62
     5
 63
     7
421
 16777215
 74
     0
 91
        0
 64
     7
 65
   257
 75
     1
175
     1
 42
1.0
 92
        8
 66
     7
 43
1.0
 76
     1
 77
     6
 78
     2
 67
     7
 79
     5
170
     0
171
     0
290
     0
174
     0
 93
       13
 44
0.0
173
     0
291
     1
 45
0.0
1001
ACAD
1000
AcDbSavedByObjectVersion
1070
     0
  0
VISUALSTYLE
  5
2C
102
{ACAD_REACTORS
330
2A
102
}
102
{ACAD_XDICTIONARY
360
36C
102
}
330
2A
100
AcDbVisualStyle
  2
FlatWithEdges
 70
     1
 71
     2
 72
     1
 73
     1
 90
        2
 40
0.6
 41
30.0
 62
     5
 63
     7
421
 16777215
 74
     1
 91
        0
 64
     7
 65
   257
 75
     1
175
     1
 42
1.0
 92
        0
 66
   257
 43
1.0
 76
     1
 77
     6
 78
     2
 67
     7
 79
     5
170
     0
171
     0
290
     0
174
     0
 93
       13
 44
0.0
173
     0
291
     1
 45
0.0
1001
ACAD
1000
AcDbSavedByObjectVersion
1070
     0
  0
VISUALSTYLE
  5
2D
102
{ACAD_REACTORS
330
2A
102
}
102
{ACAD_XDICTIONARY
360
36E
102
}
330
2A
100
AcDbVisualStyle
  2
Gouraud
 70
     2
 71
     2
 72
     2
 73
     1
 90
        2
 40
0.6
 41
30.0
 62
     5
 63
     7
421
 16777215
 74
     0
 91
        0
 64
     7
 65
   257
 75
     1
175
     1
 42
1.0
 92
        0
 66
     7
 43
1.0
 76
     1
 77
     6
 78
     2
 67
     7
 79
     5
170
     0
171
     0
290
     0
174
     0
 93
       13
 44
0.0
173
     0
291
     1
 45
0.0
1001
ACAD
1000
AcDbSavedByObjectVersion
1070
     0
  0
VISUALSTYLE
  5
2E
102
{ACAD_REACTORS
330
2A
102
}
102
{ACAD_XDICTIONARY
360
370
102
}
330
2A
100
AcDbVisualStyle
  2
GouraudWithEdges
 70
     3
 71
     2
 72
     2
 73
     1
 90
        2
 40
0.6
 41
30.0
 62
     5
 63
     7
421
 16777215
 74
     1
 91
        0
 64
     7
 65
   257
 75
     1
175
     1
 42
1.0
 92
        0
 66
   257
 43
1.0
 76
     1
 77
     6
 78
     2
 67
     7
 79
     5
170
     0
171
     0
290
     0
174
     0
 93
       13
 44
0.0
173
     0
291
     1
 45
0.0
1001
ACAD
1000
AcDbSavedByObjectVersion
1070
     0
  0
VISUALSTYLE
  5
31
102
{ACAD_REACTORS
330
2A
102
}
102
{ACAD_XDICTIONARY
360
376
102
}
330
2A
100
AcDbVisualStyle
  2
Hidden
 70
     6
 71
     1
 72
     2
 73
     2
 90
        0
 40
0.6
 41
30.0
 62
     5
 63
     7
421
 16777215
 74
     2
 91
        2
 64
     7
 65
   257
 75
     2
175
     1
 42
40.0
 92
        0
 66
   257
 43
1.0
 76
     1
 77
     6
 78
     2
 67
     7
 79
     3
170
     0
171
     0
290
     0
174
     0
 93
        1
 44
0.0
173
     0
291
     0
 45
0.0
1001
ACAD
1000
AcDbSavedByObjectVersion
1070
     0
  0
VISUALSTYLE
  5
3B
102
{ACAD_REACTORS
330
2A
102
}
102
{ACAD_XDICTIONARY
360
38A
102
}
330
2A
100
AcDbVisualStyle
  2
JitterOff
 70
    20
 71
     2
 72
     2
 73
     0
 90
        0
 40
0.6
 41
30.0
 62
     5
 63
     7
421
 16777215
 74
     1
 91
        4
 64
     7
 65
   257
 75
     1
175
     1
 42
1.0
 92
       10
 66
     7
 43
1.0
 76
     1
 77
     6
 78
     2
 67
     7
 79
     5
170
     0
171
     0
290
     0
174
     0
 93
        1
 44
0.0
173
     0
291
     1
 45
0.0
1001
ACAD
1000
AcDbSavedByObjectVersion
1070
     0
  0
VISUALSTYLE
  5
38
102
{ACAD_REACTORS
330
2A
102
}
102
{ACAD_XDICTIONARY
360
384
102
}
330
2A
100
AcDbVisualStyle
  2
Linepattern
 70
    14
 71
     2
 72
     2
 73
     0
 90
        0
 40
0.6
 41
30.0
 62
     5
 63
     7
421
 16777215
 74
     1
 91
        4
 64
     7
 65
   257
 75
     7
175
     7
 42
1.0
 92
        8
 66
     7
 43
1.0
 76
     1
 77
     6
 78
     2
 67
     7
 79
     5
170
     0
171
     0
290
     0
174
     0
 93
        1
 44
0.0
173
     0
291
     1
 45
0.0
1001
ACAD
1000
AcDbSavedByObjectVersion
1070
     0
  0
VISUALSTYLE
  5
3C
102
{ACAD_REACTORS
330
2A
102
}
102
{ACAD_XDICTIONARY
360
38C
102
}
330
2A
100
AcDbVisualStyle
  2
OverhangOff
 70
    21
 71
     2
 72
     2
 73
     0
 90
        0
 40
0.6
 41
30.0
 62
     5
 63
     7
421
 16777215
 74
     1
 91
        4
 64
     7
 65
   257
 75
     1
175
     1
 42
1.0
 92
        9
 66
     7
 43
1.0
 76
     1
 77
     6
 78
     2
 67
     7
 79
     5
170
     0
171
     0
290
     0
174
     0
 93
        1
 44
0.0
173
     0
291
     1
 45
0.0
1001
ACAD
1000
AcDbSavedByObjectVersion
1070
     0
  0
VISUALSTYLE
  5
33
102
{ACAD_REACTORS
330
2A
102
}
102
{ACAD_XDICTIONARY
360
37A
102
}
330
2A
100
AcDbVisualStyle
  2
Realistic
 70
     8
 71
     2
 72
     3
 73
     0
 90
        2
 40
0.6
 41
30.0
 62
     5
 63
     7
421
 16777215
 74
     0
 91
        0
 64
     7
 65
   257
 75
     1
175
     1
 42
1.0
 92
        8
 66
   257
 43
1.0
 76
     1
 77
     6
 78
     2
 67
     7
 79
     3
170
     0
171
     0
290
     0
174
     0
 93
       13
 44
0.0
173
     0
291
     0
 45
0.0
1001
ACAD
1000
AcDbSavedByObjectVersion
1070
     0
  0
VISUALSTYLE
  5
42
102
{ACAD_REACTORS
330
2A
102
}
102
{ACAD_XDICTIONARY
360
398
102
}
330
2A
100
AcDbVisualStyle
  2
Shaded
 70
    27
 71
     2
 72
     2
 73
     1
 90
        2
 40
0.6
 41
30.0
 62
     5
 63
     7
421
 16777215
 74
     0
 91
        4
 64
     7
 65
   257
 75
     1
175
     1
 42
1.0
 92
        8
 66
   257
 43
1.0
 76
     1
 77
     6
 78
     2
 67
     8
425
  7895160
 79
     3
170
     0
171
     0
290
     0
174
     0
 93
        5
 44
0.0
173
     0
291
     0
 45
0.0
1001
ACAD
1000
AcDbSavedByObjectVersion
1070
     0
  0
VISUALSTYLE
  5
41
102
{ACAD_REACTORS
330
2A
102
}
102
{ACAD_XDICTIONARY
360
396
102
}
330
2A
100
AcDbVisualStyle
  2
Shaded with edges
 70
    26
 71
     2
 72
     2
 73
     1
 90
        2
 40
0.6
 41
30.0
 62
     5
 63
     7
421
 16777215
 74
     1
 91
       10
 64
     7
 65
   257
 75
     2
175
     1
 42
1.0
 92
        8
 66
   257
 43
1.0
 76
     1
 77
     6
 78
     2
 67
     7
 79
     3
170
     0
171
     0
290
     0
174
     0
 93
        5
 44
0.0
173
     0
291
     0
 45
0.0
1001
ACAD
1000
AcDbSavedByObjectVersion
1070
     0
  0
VISUALSTYLE
  5
3E
102
{ACAD_REACTORS
330
2A
102
}
102
{ACAD_XDICTIONARY
360
390
102
}
330
2A
100
AcDbVisualStyle
  2
Shades of Gray
 70
    23
 71
     2
 72
     2
 73
     3
 90
        0
 40
0.6
 41
30.0
 62
     5
 63
     7
421
 16777215
 74
     2
 91
        2
 64
     7
 65
     7
 75
     1
175
     1
 42
40.0
 92
        8
 66
     7
 43
1.0
 76
     1
 77
     6
 78
     2
 67
     7
 79
     3
170
     0
171
     0
290
     0
174
     0
 93
        1
 44
0.0
173
     0
291
     0
 45
0.0
1001
ACAD
1000
AcDbSavedByObjectVersion
1070
     0
  0
VISUALSTYLE
  5
3F
102
{ACAD_REACTORS
330
2A
102
}
102
{ACAD_XDICTIONARY
360
392
102
}
330
2A
100
AcDbVisualStyle
  2
Sketchy
 70
    24
 71
     1
 72
     2
 73
     2
 90
        0
 40
0.6
 41
30.0
 62
     5
 63
     7
421
 16777215
 74
     2
 91
        2
 64
     7
 65
     7
 75
     1
175
     1
 42
40.0
 92
       11
 66
     7
 43
1.0
 76
     1
 77
     6
 78
     2
 67
     7
 79
     6
170
     0
171
     0
290
     0
174
     0
 93
        1
 44
0.0
173
     0
291
     0
 45
0.0
1001
ACAD
1000
AcDbSavedByObjectVersion
1070
     0
  0
VISUALSTYLE
  5
37
102
{ACAD_REACTORS
330
2A
102
}
102
{ACAD_XDICTIONARY
360
382
102
}
330
2A
100
AcDbVisualStyle
  2
Thicken
 70
    13
 71
     2
 72
     2
 73
     0
 90
        0
 40
0.6
 41
30.0
 62
     5
 63
     7
421
 16777215
 74
     1
 91
        4
 64
     7
 65
   257
 75
     1
175
     1
 42
1.0
 92
       12
 66
     7
 43
1.0
 76
     1
 77
     6
 78
     2
 67
     7
 79
     5
170
     0
171
     0
290
     0
174
     0
 93
        1
 44
0.0
173
     0
291
     1
 45
0.0
1001
ACAD
1000
AcDbSavedByObjectVersion
1070
     0
  0
VISUALSTYLE
  5
30
102
{ACAD_REACTORS
330
2A
102
}
102
{ACAD_XDICTIONARY
360
374
102
}
330
2A
100
AcDbVisualStyle
  2
Wireframe
 70
     5
 71
     0
 72
     2
 73
     0
 90
        0
 40
0.6
 41
30.0
 62
     5
 63
     7
421
 16777215
 74
     1
 91
        4
 64
     7
 65
   257
 75
     1
175
     1
 42
1.0
 92
        0
 66
   257
 43
1.0
 76
     1
 77
     6
 78
     2
 67
     7
 79
     3
170
     0
171
     0
290
     0
174
     0
 93
        1
 44
0.0
173
     0
291
     0
 45
0.0
1001
ACAD
1000
AcDbSavedByObjectVersion
1070
     0
  0
VISUALSTYLE
  5
40
102
{ACAD_REACTORS
330
2A
102
}
102
{ACAD_XDICTIONARY
360
394
102
}
330
2A
100
AcDbVisualStyle
  2
X-Ray
 70
    25
 71
     2
 72
     2
 73
     1
 90
        1
 40
0.5
 41
30.0
 62
     5
 63
     7
421
 16777215
 74
     1
 91
        0
 64
     7
 65
   257
 75
     1
175
     1
 42
1.0
 92
        8
 66
     7
 43
1.0
 76
     1
 77
     6
 78
     2
 67
     7
 79
     3
170
     0
171
     0
290
     0
174
     0
 93
       13
 44
0.0
173
     0
291
     0
 45
0.0
1001
ACAD
1000
AcDbSavedByObjectVersion
1070
     0
  0
DICTIONARYVAR
  5
367
102
{ACAD_REACTORS
330
366
102
}
330
366
100
DictionaryVariables
280
     0
  1
1:1
  0
DICTIONARYVAR
  5
3A8
102
{ACAD_REACTORS
330
366
102
}
330
366
100
DictionaryVariables
280
     0
  1
Standard
  0
DICTIONARYVAR
  5
3A7
102
{ACAD_REACTORS
330
366
102
}
330
366
100
DictionaryVariables
280
     0
  1
Standard
  0
DICTIONARYVAR
  5
368
102
{ACAD_REACTORS
330
366
102
}
330
366
100
DictionaryVariables
280
     0
  1
1
  0
DICTIONARYVAR
  5
369
102
{ACAD_REACTORS
330
366
102
}
330
366
100
DictionaryVariables
280
     0
  1
2
  0
DICTIONARY
  5
39C
330
45
100
AcDbDictionary
280
     1
281
     1
  3
ACAD_XREC_ROUNDTRIP
360
39D
  0
DICTIONARY
  5
39A
330
44
100
AcDbDictionary
280
     1
281
     1
  3
ACAD_XREC_ROUNDTRIP
360
39B
  0
DICTIONARY
  5
39E
330
46
100
AcDbDictionary
280
     1
281
     1
  3
ACAD_XREC_ROUNDTRIP
360
39F
  0
DICTIONARY
  5
3A4
330
6C
100
AcDbDictionary
280
     1
281
     1
  3
ACAD_XREC_ROUNDTRIP
360
3A5
  0
DICTIONARY
  5
3A0
330
6A
100
AcDbDictionary
280
     1
281
     1
  3
ACAD_ROUNDTRIP_2008_TABLESTYLE_CELLSTYLEMAP
360
3A2
  3
ACAD_XREC_ROUNDTRIP
360
3A1
  0
DICTIONARY
  5
372
330
2F
100
AcDbDictionary
280
     1
281
     1
  3
ACAD_XREC_ROUNDTRIP
360
373
  0
DICTIONARY
  5
378
330
32
100
AcDbDictionary
280
     1
281
     1
  3
ACAD_XREC_ROUNDTRIP
360
379
  0
DICTIONARY
  5
380
330
36
100
AcDbDictionary
280
     1
281
     1
  3
ACAD_XREC_ROUNDTRIP
360
381
  0
DICTIONARY
  5
388
330
3A
100
AcDbDictionary
280
     1
281
     1
  3
ACAD_XREC_ROUNDTRIP
360
389
  0
DICTIONARY
  5
37C
330
34
100
AcDbDictionary
280
     1
281
     1
  3
ACAD_XREC_ROUNDTRIP
360
37D
  0
DICTIONARY
  5
37E
330
35
100
AcDbDictionary
280
     1
281
     1
  3
ACAD_XREC_ROUNDTRIP
360
37F
  0
DICTIONARY
  5
38E
330
3D
100
AcDbDictionary
280
     1
281
     1
  3
ACAD_XREC_ROUNDTRIP
360
38F
  0
DICTIONARY
  5
386
330
39
100
AcDbDictionary
280
     1
281
     1
  3
ACAD_XREC_ROUNDTRIP
360
387
  0
DICTIONARY
  5
36A
330
2B
100
AcDbDictionary
280
     1
281
     1
  3
ACAD_XREC_ROUNDTRIP
360
36B
  0
DICTIONARY
  5
36C
330
2C
100
AcDbDictionary
280
     1
281
     1
  3
ACAD_XREC_ROUNDTRIP
360
36D
  0
DICTIONARY
  5
36E
330
2D
100
AcDbDictionary
280
     1
281
     1
  3
ACAD_XREC_ROUNDTRIP
360
36F
  0
DICTIONARY
  5
370
330
2E
100
AcDbDictionary
280
     1
281
     1
  3
ACAD_XREC_ROUNDTRIP
360
371
  0
DICTIONARY
  5
376
330
31
100
AcDbDictionary
280
     1
281
     1
  3
ACAD_XREC_ROUNDTRIP
360
377
  0
DICTIONARY
  5
38A
330
3B
100
AcDbDictionary
280
     1
281
     1
  3
ACAD_XREC_ROUNDTRIP
360
38B
  0
DICTIONARY
  5
384
330
38
100
AcDbDictionary
280
     1
281
     1
  3
ACAD_XREC_ROUNDTRIP
360
385
  0
DICTIONARY
  5
38C
330
3C
100
AcDbDictionary
280
     1
281
     1
  3
ACAD_XREC_ROUNDTRIP
360
38D
  0
DICTIONARY
  5
37A
330
33
100
AcDbDictionary
280
     1
281
     1
  3
ACAD_XREC_ROUNDTRIP
360
37B
  0
DICTIONARY
  5
398
330
42
100
AcDbDictionary
280
     1
281
     1
  3
ACAD_XREC_ROUNDTRIP
360
399
  0
DICTIONARY
  5
396
330
41
100
AcDbDictionary
280
     1
281
     1
  3
ACAD_XREC_ROUNDTRIP
360
397
  0
DICTIONARY
  5
390
330
3E
100
AcDbDictionary
280
     1
281
     1
  3
ACAD_XREC_ROUNDTRIP
360
391
  0
DICTIONARY
  5
392
330
3F
100
AcDbDictionary
280
     1
281
     1
  3
ACAD_XREC_ROUNDTRIP
360
393
  0
DICTIONARY
  5
382
330
37
100
AcDbDictionary
280
     1
281
     1
  3
ACAD_XREC_ROUNDTRIP
360
383
  0
DICTIONARY
  5
374
330
30
100
AcDbDictionary
280
     1
281
     1
  3
ACAD_XREC_ROUNDTRIP
360
375
  0
DICTIONARY
  5
394
330
40
100
AcDbDictionary
280
     1
281
     1
  3
ACAD_XREC_ROUNDTRIP
360
395
  0
XRECORD
  5
39D
102
{ACAD_REACTORS
330
39C
102
}
330
39C
100
AcDbXrecord
280
     1
102
MATERIAL
148
0.0
149
0.0
149
0.0
 93
        0
 94
      127
282
     0
 72
     1
 77
     1
171
     1
175
     1
179
     1
273
     0
  0
XRECORD
  5
39B
102
{ACAD_REACTORS
330
39A
102
}
330
39A
100
AcDbXrecord
280
     1
102
MATERIAL
148
0.0
149
0.0
149
0.0
 93
        0
 94
      127
282
     0
 72
     1
 77
     1
171
     1
175
     1
179
     1
273
     0
  0
XRECORD
  5
39F
102
{ACAD_REACTORS
330
39E
102
}
330
39E
100
AcDbXrecord
280
     1
102
MATERIAL
148
0.0
149
0.0
149
0.0
 93
        0
 94
      127
282
     0
 72
     1
 77
     1
171
     1
175
     1
179
     1
273
     0
  0
XRECORD
  5
3A5
102
{ACAD_REACTORS
330
3A4
102
}
330
3A4
100
AcDbXrecord
280
     1
102
ACAD_ROUNDTRIP_2010_MLEADER_STYLE
  0
CELLSTYLEMAP
  5
3A2
102
{ACAD_REACTORS
330
3A0
102
}
330
3A0
100
AcDbCellStyleMap
 90
        3
300
CELLSTYLE
  1
TABLEFORMAT_BEGIN
 90
        5
170
     1
 91
        0
 92
    32768
 62
   257
 93
        1
300
CONTENTFORMAT
  1
CONTENTFORMAT_BEGIN
 90
        0
 91
        0
 92
        4
 93
        0
300

 40
0.0
140
1.0
 94
        5
 62
     0
340
11
144
0.25
309
CONTENTFORMAT_END
171
     1
301
MARGIN
  1
CELLMARGIN_BEGIN
 40
0.06
 40
0.06
 40
0.06
 40
0.06
 40
0.06
 40
0.06
309
CELLMARGIN_END
 94
        6
 95
        1
302
GRIDFORMAT
  1
GRIDFORMAT_BEGIN
 90
        0
 91
        1
 62
     0
 92
       -2
340
14
 93
        0
 40
0.045
309
GRIDFORMAT_END
 95
        2
302
GRIDFORMAT
  1
GRIDFORMAT_BEGIN
 90
        0
 91
        1
 62
     0
 92
       -2
340
14
 93
        0
 40
0.045
309
GRIDFORMAT_END
 95
        4
302
GRIDFORMAT
  1
GRIDFORMAT_BEGIN
 90
        0
 91
        1
 62
     0
 92
       -2
340
14
 93
        0
 40
0.045
309
GRIDFORMAT_END
 95
        8
302
GRIDFORMAT
  1
GRIDFORMAT_BEGIN
 90
        0
 91
        1
 62
     0
 92
       -2
340
14
 93
        0
 40
0.045
309
GRIDFORMAT_END
 95
       16
302
GRIDFORMAT
  1
GRIDFORMAT_BEGIN
 90
        0
 91
        1
 62
     0
 92
       -2
340
14
 93
        0
 40
0.045
309
GRIDFORMAT_END
 95
       32
302
GRIDFORMAT
  1
GRIDFORMAT_BEGIN
 90
        0
 91
        1
 62
     0
 92
       -2
340
14
 93
        0
 40
0.045
309
GRIDFORMAT_END
309
TABLEFORMAT_END
  1
CELLSTYLE_BEGIN
 90
        1
 91
        1
300
_TITLE
309
CELLSTYLE_END
300
CELLSTYLE
  1
TABLEFORMAT_BEGIN
 90
        5
170
     1
 91
        0
 92
        0
 62
   257
 93
        1
300
CONTENTFORMAT
  1
CONTENTFORMAT_BEGIN
 90
        0
 91
        0
 92
        4
 93
        0
300

 40
0.0
140
1.0
 94
        5
 62
     0
340
11
144
0.18
309
CONTENTFORMAT_END
171
     1
301
MARGIN
  1
CELLMARGIN_BEGIN
 40
0.06
 40
0.06
 40
0.06
 40
0.06
 40
0.06
 40
0.06
309
CELLMARGIN_END
 94
        6
 95
        1
302
GRIDFORMAT
  1
GRIDFORMAT_BEGIN
 90
        0
 91
        1
 62
     0
 92
       -2
340
14
 93
        0
 40
0.045
309
GRIDFORMAT_END
 95
        2
302
GRIDFORMAT
  1
GRIDFORMAT_BEGIN
 90
        0
 91
        1
 62
     0
 92
       -2
340
14
 93
        0
 40
0.045
309
GRIDFORMAT_END
 95
        4
302
GRIDFORMAT
  1
GRIDFORMAT_BEGIN
 90
        0
 91
        1
 62
     0
 92
       -2
340
14
 93
        0
 40
0.045
309
GRIDFORMAT_END
 95
        8
302
GRIDFORMAT
  1
GRIDFORMAT_BEGIN
 90
        0
 91
        1
 62
     0
 92
       -2
340
14
 93
        0
 40
0.045
309
GRIDFORMAT_END
 95
       16
302
GRIDFORMAT
  1
GRIDFORMAT_BEGIN
 90
        0
 91
        1
 62
     0
 92
       -2
340
14
 93
        0
 40
0.045
309
GRIDFORMAT_END
 95
       32
302
GRIDFORMAT
  1
GRIDFORMAT_BEGIN
 90
        0
 91
        1
 62
     0
 92
       -2
340
14
 93
        0
 40
0.045
309
GRIDFORMAT_END
309
TABLEFORMAT_END
  1
CELLSTYLE_BEGIN
 90
        2
 91
        1
300
_HEADER
309
CELLSTYLE_END
300
CELLSTYLE
  1
TABLEFORMAT_BEGIN
 90
        5
170
     1
 91
        0
 92
        0
 62
   257
 93
        1
300
CONTENTFORMAT
  1
CONTENTFORMAT_BEGIN
 90
        0
 91
        0
 92
        4
 93
        0
300

 40
0.0
140
1.0
 94
        2
 62
     0
340
11
144
0.18
309
CONTENTFORMAT_END
171
     1
301
MARGIN
  1
CELLMARGIN_BEGIN
 40
0.06
 40
0.06
 40
0.06
 40
0.06
 40
0.06
 40
0.06
309
CELLMARGIN_END
 94
        6
 95
        1
302
GRIDFORMAT
  1
GRIDFORMAT_BEGIN
 90
        0
 91
        1
 62
     0
 92
       -2
340
14
 93
        0
 40
0.045
309
GRIDFORMAT_END
 95
        2
302
GRIDFORMAT
  1
GRIDFORMAT_BEGIN
 90
        0
 91
        1
 62
     0
 92
       -2
340
14
 93
        0
 40
0.045
309
GRIDFORMAT_END
 95
        4
302
GRIDFORMAT
  1
GRIDFORMAT_BEGIN
 90
        0
 91
        1
 62
     0
 92
       -2
340
14
 93
        0
 40
0.045
309
GRIDFORMAT_END
 95
        8
302
GRIDFORMAT
  1
GRIDFORMAT_BEGIN
 90
        0
 91
        1
 62
     0
 92
       -2
340
14
 93
        0
 40
0.045
309
GRIDFORMAT_END
 95
       16
302
GRIDFORMAT
  1
GRIDFORMAT_BEGIN
 90
        0
 91
        1
 62
     0
 92
       -2
340
14
 93
        0
 40
0.045
309
GRIDFORMAT_END
 95
       32
302
GRIDFORMAT
  1
GRIDFORMAT_BEGIN
 90
        0
 91
        1
 62
     0
 92
       -2
340
14
 93
        0
 40
0.045
309
GRIDFORMAT_END
309
TABLEFORMAT_END
  1
CELLSTYLE_BEGIN
 90
        3
 91
        2
300
_DATA
309
CELLSTYLE_END
  0
XRECORD
  5
3A1
102
{ACAD_REACTORS
330
3A0
102
}
330
3A0
100
AcDbXrecord
280
     1
102
ACAD_ROUNDTRIP_PRE2007_TABLESTYLE
 90
        4
 91
        0
  1

 92
        4
 93
        0
  2

 94
        4
 95
        0
  3

  0
XRECORD
  5
373
102
{ACAD_REACTORS
330
372
102
}
330
372
100
AcDbXrecord
280
     1
102
RTVSPropertyOp0
 70
     1
102
RTVSPropertyOp1
 70
     1
102
RTVSPropertyOp2
 70
     1
102
RTVSPropertyOp3
 70
     1
102
RTVSPropertyOp4
 70
     1
102
RTVSPropertyOp5
 70
     1
102
RTVSPropertyOp6
 70
     1
102
RTVSPropertyOp7
 70
     1
102
RTVSPropertyOp8
 70
     1
102
RTVSPropertyOp9
 70
     1
102
RTVSPropertyOp10
 70
     1
102
RTVSPropertyOp11
 70
     1
102
RTVSPropertyOp12
 70
     1
102
RTVSPropertyOp13
 70
     1
102
RTVSPropertyOp14
 70
     1
102
RTVSPropertyOp15
 70
     1
102
RTVSPropertyOp16
 70
     1
102
RTVSPropertyOp17
 70
     1
102
RTVSPropertyOp18
 70
     1
102
RTVSPropertyOp19
 70
     1
102
RTVSPropertyOp20
 70
     1
102
RTVSPropertyOp21
 70
     1
102
RTVSPropertyOp22
 70
     1
102
RTVSPropertyOp23
 70
     1
102
RTVSPropertyOp24
 70
     1
102
RTVSPropertyOp25
 70
     1
102
RTVSPropertyOp26
 70
     1
102
RTVSPropertyOp27
 70
     1
102
RTVSPropertyOp28
 70
     1
102
RTVSPropertyOp29
 70
     1
102
RTVSPropertyOp30
 70
     1
102
RTVSPropertyOp31
 70
     1
102
RTVSPropertyOp32
 70
     1
102
RTVSPropertyOp33
 70
     1
102
RTVSPropertyOp34
 70
     1
102
RTVSPropertyOp35
 70
     1
102
RTVSPropertyOp36
 70
     1
102
RTVSPropertyOp37
 70
     1
102
RTVSPropertyOp38
 70
     1
102
RTVSPropertyOp39
 70
     1
102
RTVSPropertyOp40
 70
     1
102
RTVSPropertyOp41
 70
     1
102
RTVSPropertyOp42
 70
     1
102
RTVSPropertyOp43
 70
     1
102
RTVSPropertyOp44
 70
     1
102
RTVSPropertyOp45
 70
     1
102
RTVSPropertyOp46
 70
     1
102
RTVSPropertyOp47
 70
     1
102
RTVSPropertyOp48
 70
     1
102
RTVSPropertyOp49
 70
     1
102
RTVSPropertyOp50
 70
     1
102
RTVSPropertyOp51
 70
     0
102
RTVSPropertyOp52
 70
     0
102
RTVSPropertyOp53
 70
     1
102
RTVSPropertyOp54
 70
     1
102
RTVSPropertyOp55
 70
     1
102
RTVSPropertyOp56
 70
     1
102
RTVSPropertyOp57
 70
     1
102
RTVSPost2010Prop28
280
     1
102
RTVSPost2010PropOp28
 70
     1
102
RTVSPost2010Prop29
280
     1
102
RTVSPost2010PropOp29
 70
     1
102
RTVSPost2010Prop30
280
     0
102
RTVSPost2010PropOp30
 70
     1
102
RTVSPost2010Prop31
280
     0
102
RTVSPost2010PropOp31
 70
     1
102
RTVSPost2010Prop32
280
     0
102
RTVSPost2010PropOp32
 70
     1
102
RTVSPost2010Prop33
280
     0
102
RTVSPost2010PropOp33
 70
     1
102
RTVSPost2010Prop34
280
     0
102
RTVSPost2010PropOp34
 70
     1
102
RTVSPost2010Prop35
280
     0
102
RTVSPost2010PropOp35
 70
     1
102
RTVSPost2010Prop36
280
     0
102
RTVSPost2010PropOp36
 70
     1
102
RTVSPost2010Prop37
 90
       50
102
RTVSPost2010PropOp37
 70
     1
102
RTVSPost2010Prop38
140
0.0
102
RTVSPost2010PropOp38
 70
     1
102
RTVSPost2010Prop39
140
1.0
102
RTVSPost2010PropOp39
 70
     1
102
RTVSPost2010Prop40
 90
        0
102
RTVSPost2010PropOp40
 70
     1
102
RTVSPost2010Prop41ColorIndex
 90
       18
102
RTVSPost2010Prop41ColorRGB
 90
        0
102
RTVSPost2010PropOp41
 70
     1
102
RTVSPost2010Prop42
 90
       50
102
RTVSPost2010PropOp42
 70
     1
102
RTVSPost2010Prop43
 90
        3
102
RTVSPost2010PropOp43
 70
     1
102
RTVSPost2010Prop44ColorIndex
 90
        5
102
RTVSPost2010Prop44ColorRGB
 90
      255
102
RTVSPost2010PropOp44
 70
     1
102
RTVSPost2010Prop45
280
     0
102
RTVSPost2010PropOp45
 70
     1
102
RTVSPost2010Prop46
 90
       50
102
RTVSPost2010PropOp46
 70
     1
102
RTVSPost2010Prop47
 90
       50
102
RTVSPost2010PropOp47
 70
     1
102
RTVSPost2010Prop48
 90
       50
102
RTVSPost2010PropOp48
 70
     1
102
RTVSPost2010Prop49
280
     0
102
RTVSPost2010PropOp49
 70
     1
102
RTVSPost2010Prop50
 90
       50
102
RTVSPost2010PropOp50
 70
     1
102
RTVSPost2010Prop51ColorIndex
 90
      256
102
RTVSPost2010Prop51ColorRGB
 90
-16777216
102
RTVSPost2010PropOp51
 70
     0
102
RTVSPost2010Prop52
140
1.0
102
RTVSPost2010PropOp52
 70
     0
102
RTVSPost2010Prop53
 90
        2
102
RTVSPost2010PropOp53
 70
     1
102
RTVSPost2010Prop54
  1
strokes_ogs.tif
102
RTVSPost2010PropOp54
 70
     1
102
RTVSPost2010Prop55
280
     0
102
RTVSPost2010PropOp55
 70
     1
102
RTVSPost2010Prop56
140
1.0
102
RTVSPost2010PropOp56
 70
     1
102
RTVSPost2010Prop57
140
1.0
102
RTVSPost2010PropOp57
 70
     1
  0
XRECORD
  5
379
102
{ACAD_REACTORS
330
378
102
}
330
378
100
AcDbXrecord
280
     1
102
RTVSPropertyOp0
 70
     1
102
RTVSPropertyOp1
 70
     1
102
RTVSPropertyOp2
 70
     1
102
RTVSPropertyOp3
 70
     1
102
RTVSPropertyOp4
 70
     1
102
RTVSPropertyOp5
 70
     1
102
RTVSPropertyOp6
 70
     1
102
RTVSPropertyOp7
 70
     1
102
RTVSPropertyOp8
 70
     1
102
RTVSPropertyOp9
 70
     1
102
RTVSPropertyOp10
 70
     1
102
RTVSPropertyOp11
 70
     1
102
RTVSPropertyOp12
 70
     1
102
RTVSPropertyOp13
 70
     1
102
RTVSPropertyOp14
 70
     1
102
RTVSPropertyOp15
 70
     1
102
RTVSPropertyOp16
 70
     1
102
RTVSPropertyOp17
 70
     1
102
RTVSPropertyOp18
 70
     1
102
RTVSPropertyOp19
 70
     1
102
RTVSPropertyOp20
 70
     1
102
RTVSPropertyOp21
 70
     1
102
RTVSPropertyOp22
 70
     1
102
RTVSPropertyOp23
 70
     1
102
RTVSPropertyOp24
 70
     1
102
RTVSPropertyOp25
 70
     1
102
RTVSPropertyOp26
 70
     1
102
RTVSPropertyOp27
 70
     1
102
RTVSPropertyOp28
 70
     1
102
RTVSPropertyOp29
 70
     1
102
RTVSPropertyOp30
 70
     1
102
RTVSPropertyOp31
 70
     1
102
RTVSPropertyOp32
 70
     1
102
RTVSPropertyOp33
 70
     1
102
RTVSPropertyOp34
 70
     1
102
RTVSPropertyOp35
 70
     1
102
RTVSPropertyOp36
 70
     1
102
RTVSPropertyOp37
 70
     1
102
RTVSPropertyOp38
 70
     1
102
RTVSPropertyOp39
 70
     1
102
RTVSPropertyOp40
 70
     1
102
RTVSPropertyOp41
 70
     1
102
RTVSPropertyOp42
 70
     1
102
RTVSPropertyOp43
 70
     1
102
RTVSPropertyOp44
 70
     1
102
RTVSPropertyOp45
 70
     1
102
RTVSPropertyOp46
 70
     1
102
RTVSPropertyOp47
 70
     1
102
RTVSPropertyOp48
 70
     1
102
RTVSPropertyOp49
 70
     1
102
RTVSPropertyOp50
 70
     1
102
RTVSPropertyOp51
 70
     0
102
RTVSPropertyOp52
 70
     0
102
RTVSPropertyOp53
 70
     1
102
RTVSPropertyOp54
 70
     1
102
RTVSPropertyOp55
 70
     1
102
RTVSPropertyOp56
 70
     1
102
RTVSPropertyOp57
 70
     1
102
RTVSPost2010Prop28
280
     0
102
RTVSPost2010PropOp28
 70
     1
102
RTVSPost2010Prop29
280
     1
102
RTVSPost2010PropOp29
 70
     1
102
RTVSPost2010Prop30
280
     1
102
RTVSPost2010PropOp30
 70
     1
102
RTVSPost2010Prop31
280
     0
102
RTVSPost2010PropOp31
 70
     1
102
RTVSPost2010Prop32
280
     0
102
RTVSPost2010PropOp32
 70
     1
102
RTVSPost2010Prop33
280
     0
102
RTVSPost2010PropOp33
 70
     1
102
RTVSPost2010Prop34
280
     0
102
RTVSPost2010PropOp34
 70
     1
102
RTVSPost2010Prop35
280
     0
102
RTVSPost2010PropOp35
 70
     1
102
RTVSPost2010Prop36
280
     0
102
RTVSPost2010PropOp36
 70
     1
102
RTVSPost2010Prop37
 90
       50
102
RTVSPost2010PropOp37
 70
     1
102
RTVSPost2010Prop38
140
0.0
102
RTVSPost2010PropOp38
 70
     1
102
RTVSPost2010Prop39
140
1.0
102
RTVSPost2010PropOp39
 70
     1
102
RTVSPost2010Prop40
 90
        0
102
RTVSPost2010PropOp40
 70
     1
102
RTVSPost2010Prop41ColorIndex
 90
       18
102
RTVSPost2010Prop41ColorRGB
 90
        0
102
RTVSPost2010PropOp41
 70
     1
102
RTVSPost2010Prop42
 90
       50
102
RTVSPost2010PropOp42
 70
     1
102
RTVSPost2010Prop43
 90
        3
102
RTVSPost2010PropOp43
 70
     1
102
RTVSPost2010Prop44ColorIndex
 90
        5
102
RTVSPost2010Prop44ColorRGB
 90
      255
102
RTVSPost2010PropOp44
 70
     1
102
RTVSPost2010Prop45
280
     0
102
RTVSPost2010PropOp45
 70
     1
102
RTVSPost2010Prop46
 90
       50
102
RTVSPost2010PropOp46
 70
     1
102
RTVSPost2010Prop47
 90
       50
102
RTVSPost2010PropOp47
 70
     1
102
RTVSPost2010Prop48
 90
       50
102
RTVSPost2010PropOp48
 70
     1
102
RTVSPost2010Prop49
280
     0
102
RTVSPost2010PropOp49
 70
     1
102
RTVSPost2010Prop50
 90
       50
102
RTVSPost2010PropOp50
 70
     1
102
RTVSPost2010Prop51ColorIndex
 90
      256
102
RTVSPost2010Prop51ColorRGB
 90
-16777216
102
RTVSPost2010PropOp51
 70
     0
102
RTVSPost2010Prop52
140
1.0
102
RTVSPost2010PropOp52
 70
     0
102
RTVSPost2010Prop53
 90
        2
102
RTVSPost2010PropOp53
 70
     1
102
RTVSPost2010Prop54
  1
strokes_ogs.tif
102
RTVSPost2010PropOp54
 70
     1
102
RTVSPost2010Prop55
280
     0
102
RTVSPost2010PropOp55
 70
     1
102
RTVSPost2010Prop56
140
1.0
102
RTVSPost2010PropOp56
 70
     1
102
RTVSPost2010Prop57
140
1.0
102
RTVSPost2010PropOp57
 70
     1
  0
XRECORD
  5
381
102
{ACAD_REACTORS
330
380
102
}
330
380
100
AcDbXrecord
280
     1
102
RTVSPropertyOp0
 70
     1
102
RTVSPropertyOp1
 70
     1
102
RTVSPropertyOp2
 70
     1
102
RTVSPropertyOp3
 70
     1
102
RTVSPropertyOp4
 70
     1
102
RTVSPropertyOp5
 70
     1
102
RTVSPropertyOp6
 70
     1
102
RTVSPropertyOp7
 70
     1
102
RTVSPropertyOp8
 70
     1
102
RTVSPropertyOp9
 70
     1
102
RTVSPropertyOp10
 70
     1
102
RTVSPropertyOp11
 70
     1
102
RTVSPropertyOp12
 70
     1
102
RTVSPropertyOp13
 70
     1
102
RTVSPropertyOp14
 70
     1
102
RTVSPropertyOp15
 70
     1
102
RTVSPropertyOp16
 70
     1
102
RTVSPropertyOp17
 70
     1
102
RTVSPropertyOp18
 70
     1
102
RTVSPropertyOp19
 70
     1
102
RTVSPropertyOp20
 70
     1
102
RTVSPropertyOp21
 70
     1
102
RTVSPropertyOp22
 70
     1
102
RTVSPropertyOp23
 70
     1
102
RTVSPropertyOp24
 70
     1
102
RTVSPropertyOp25
 70
     1
102
RTVSPropertyOp26
 70
     1
102
RTVSPropertyOp27
 70
     1
102
RTVSPropertyOp28
 70
     1
102
RTVSPropertyOp29
 70
     1
102
RTVSPropertyOp30
 70
     1
102
RTVSPropertyOp31
 70
     1
102
RTVSPropertyOp32
 70
     1
102
RTVSPropertyOp33
 70
     1
102
RTVSPropertyOp34
 70
     1
102
RTVSPropertyOp35
 70
     1
102
RTVSPropertyOp36
 70
     1
102
RTVSPropertyOp37
 70
     1
102
RTVSPropertyOp38
 70
     1
102
RTVSPropertyOp39
 70
     1
102
RTVSPropertyOp40
 70
     1
102
RTVSPropertyOp41
 70
     1
102
RTVSPropertyOp42
 70
     1
102
RTVSPropertyOp43
 70
     1
102
RTVSPropertyOp44
 70
     1
102
RTVSPropertyOp45
 70
     1
102
RTVSPropertyOp46
 70
     1
102
RTVSPropertyOp47
 70
     1
102
RTVSPropertyOp48
 70
     1
102
RTVSPropertyOp49
 70
     1
102
RTVSPropertyOp50
 70
     1
102
RTVSPropertyOp51
 70
     0
102
RTVSPropertyOp52
 70
     0
102
RTVSPropertyOp53
 70
     1
102
RTVSPropertyOp54
 70
     1
102
RTVSPropertyOp55
 70
     1
102
RTVSPropertyOp56
 70
     1
102
RTVSPropertyOp57
 70
     1
102
RTVSPost2010Prop28
280
     0
102
RTVSPost2010PropOp28
 70
     1
102
RTVSPost2010Prop29
280
     1
102
RTVSPost2010PropOp29
 70
     1
102
RTVSPost2010Prop30
280
     1
102
RTVSPost2010PropOp30
 70
     1
102
RTVSPost2010Prop31
280
     0
102
RTVSPost2010PropOp31
 70
     1
102
RTVSPost2010Prop32
280
     0
102
RTVSPost2010PropOp32
 70
     1
102
RTVSPost2010Prop33
280
     0
102
RTVSPost2010PropOp33
 70
     1
102
RTVSPost2010Prop34
280
     0
102
RTVSPost2010PropOp34
 70
     1
102
RTVSPost2010Prop35
280
     0
102
RTVSPost2010PropOp35
 70
     1
102
RTVSPost2010Prop36
280
     0
102
RTVSPost2010PropOp36
 70
     1
102
RTVSPost2010Prop37
 90
       50
102
RTVSPost2010PropOp37
 70
     1
102
RTVSPost2010Prop38
140
0.0
102
RTVSPost2010PropOp38
 70
     1
102
RTVSPost2010Prop39
140
1.0
102
RTVSPost2010PropOp39
 70
     1
102
RTVSPost2010Prop40
 90
        0
102
RTVSPost2010PropOp40
 70
     1
102
RTVSPost2010Prop41ColorIndex
 90
       18
102
RTVSPost2010Prop41ColorRGB
 90
        0
102
RTVSPost2010PropOp41
 70
     1
102
RTVSPost2010Prop42
 90
       50
102
RTVSPost2010PropOp42
 70
     1
102
RTVSPost2010Prop43
 90
        3
102
RTVSPost2010PropOp43
 70
     1
102
RTVSPost2010Prop44ColorIndex
 90
        5
102
RTVSPost2010Prop44ColorRGB
 90
      255
102
RTVSPost2010PropOp44
 70
     1
102
RTVSPost2010Prop45
280
     0
102
RTVSPost2010PropOp45
 70
     1
102
RTVSPost2010Prop46
 90
       50
102
RTVSPost2010PropOp46
 70
     1
102
RTVSPost2010Prop47
 90
       50
102
RTVSPost2010PropOp47
 70
     1
102
RTVSPost2010Prop48
 90
       50
102
RTVSPost2010PropOp48
 70
     1
102
RTVSPost2010Prop49
280
     0
102
RTVSPost2010PropOp49
 70
     1
102
RTVSPost2010Prop50
 90
       50
102
RTVSPost2010PropOp50
 70
     1
102
RTVSPost2010Prop51ColorIndex
 90
      256
102
RTVSPost2010Prop51ColorRGB
 90
-16777216
102
RTVSPost2010PropOp51
 70
     0
102
RTVSPost2010Prop52
140
1.0
102
RTVSPost2010PropOp52
 70
     0
102
RTVSPost2010Prop53
 90
        2
102
RTVSPost2010PropOp53
 70
     1
102
RTVSPost2010Prop54
  1
strokes_ogs.tif
102
RTVSPost2010PropOp54
 70
     1
102
RTVSPost2010Prop55
280
     0
102
RTVSPost2010PropOp55
 70
     1
102
RTVSPost2010Prop56
140
1.0
102
RTVSPost2010PropOp56
 70
     1
102
RTVSPost2010Prop57
140
1.0
102
RTVSPost2010PropOp57
 70
     1
  0
XRECORD
  5
389
102
{ACAD_REACTORS
330
388
102
}
330
388
100
AcDbXrecord
280
     1
102
RTVSPropertyOp0
 70
     1
102
RTVSPropertyOp1
 70
     1
102
RTVSPropertyOp2
 70
     1
102
RTVSPropertyOp3
 70
     1
102
RTVSPropertyOp4
 70
     1
102
RTVSPropertyOp5
 70
     1
102
RTVSPropertyOp6
 70
     1
102
RTVSPropertyOp7
 70
     1
102
RTVSPropertyOp8
 70
     1
102
RTVSPropertyOp9
 70
     1
102
RTVSPropertyOp10
 70
     1
102
RTVSPropertyOp11
 70
     1
102
RTVSPropertyOp12
 70
     1
102
RTVSPropertyOp13
 70
     1
102
RTVSPropertyOp14
 70
     1
102
RTVSPropertyOp15
 70
     1
102
RTVSPropertyOp16
 70
     1
102
RTVSPropertyOp17
 70
     1
102
RTVSPropertyOp18
 70
     1
102
RTVSPropertyOp19
 70
     1
102
RTVSPropertyOp20
 70
     1
102
RTVSPropertyOp21
 70
     1
102
RTVSPropertyOp22
 70
     1
102
RTVSPropertyOp23
 70
     1
102
RTVSPropertyOp24
 70
     1
102
RTVSPropertyOp25
 70
     1
102
RTVSPropertyOp26
 70
     1
102
RTVSPropertyOp27
 70
     1
102
RTVSPropertyOp28
 70
     1
102
RTVSPropertyOp29
 70
     1
102
RTVSPropertyOp30
 70
     1
102
RTVSPropertyOp31
 70
     1
102
RTVSPropertyOp32
 70
     1
102
RTVSPropertyOp33
 70
     1
102
RTVSPropertyOp34
 70
     1
102
RTVSPropertyOp35
 70
     1
102
RTVSPropertyOp36
 70
     1
102
RTVSPropertyOp37
 70
     1
102
RTVSPropertyOp38
 70
     1
102
RTVSPropertyOp39
 70
     1
102
RTVSPropertyOp40
 70
     1
102
RTVSPropertyOp41
 70
     1
102
RTVSPropertyOp42
 70
     1
102
RTVSPropertyOp43
 70
     1
102
RTVSPropertyOp44
 70
     1
102
RTVSPropertyOp45
 70
     1
102
RTVSPropertyOp46
 70
     1
102
RTVSPropertyOp47
 70
     1
102
RTVSPropertyOp48
 70
     1
102
RTVSPropertyOp49
 70
     1
102
RTVSPropertyOp50
 70
     1
102
RTVSPropertyOp51
 70
     0
102
RTVSPropertyOp52
 70
     0
102
RTVSPropertyOp53
 70
     1
102
RTVSPropertyOp54
 70
     1
102
RTVSPropertyOp55
 70
     1
102
RTVSPropertyOp56
 70
     1
102
RTVSPropertyOp57
 70
     1
102
RTVSPost2010Prop28
280
     0
102
RTVSPost2010PropOp28
 70
     1
102
RTVSPost2010Prop29
280
     1
102
RTVSPost2010PropOp29
 70
     1
102
RTVSPost2010Prop30
280
     1
102
RTVSPost2010PropOp30
 70
     1
102
RTVSPost2010Prop31
280
     0
102
RTVSPost2010PropOp31
 70
     1
102
RTVSPost2010Prop32
280
     0
102
RTVSPost2010PropOp32
 70
     1
102
RTVSPost2010Prop33
280
     0
102
RTVSPost2010PropOp33
 70
     1
102
RTVSPost2010Prop34
280
     0
102
RTVSPost2010PropOp34
 70
     1
102
RTVSPost2010Prop35
280
     0
102
RTVSPost2010PropOp35
 70
     1
102
RTVSPost2010Prop36
280
     0
102
RTVSPost2010PropOp36
 70
     1
102
RTVSPost2010Prop37
 90
       50
102
RTVSPost2010PropOp37
 70
     1
102
RTVSPost2010Prop38
140
0.0
102
RTVSPost2010PropOp38
 70
     1
102
RTVSPost2010Prop39
140
1.0
102
RTVSPost2010PropOp39
 70
     1
102
RTVSPost2010Prop40
 90
        0
102
RTVSPost2010PropOp40
 70
     1
102
RTVSPost2010Prop41ColorIndex
 90
       18
102
RTVSPost2010Prop41ColorRGB
 90
        0
102
RTVSPost2010PropOp41
 70
     1
102
RTVSPost2010Prop42
 90
       50
102
RTVSPost2010PropOp42
 70
     1
102
RTVSPost2010Prop43
 90
        3
102
RTVSPost2010PropOp43
 70
     1
102
RTVSPost2010Prop44ColorIndex
 90
        5
102
RTVSPost2010Prop44ColorRGB
 90
      255
102
RTVSPost2010PropOp44
 70
     1
102
RTVSPost2010Prop45
280
     0
102
RTVSPost2010PropOp45
 70
     1
102
RTVSPost2010Prop46
 90
       50
102
RTVSPost2010PropOp46
 70
     1
102
RTVSPost2010Prop47
 90
       50
102
RTVSPost2010PropOp47
 70
     1
102
RTVSPost2010Prop48
 90
       50
102
RTVSPost2010PropOp48
 70
     1
102
RTVSPost2010Prop49
280
     0
102
RTVSPost2010PropOp49
 70
     1
102
RTVSPost2010Prop50
 90
       50
102
RTVSPost2010PropOp50
 70
     1
102
RTVSPost2010Prop51ColorIndex
 90
      256
102
RTVSPost2010Prop51ColorRGB
 90
-16777216
102
RTVSPost2010PropOp51
 70
     0
102
RTVSPost2010Prop52
140
1.0
102
RTVSPost2010PropOp52
 70
     0
102
RTVSPost2010Prop53
 90
        2
102
RTVSPost2010PropOp53
 70
     1
102
RTVSPost2010Prop54
  1
strokes_ogs.tif
102
RTVSPost2010PropOp54
 70
     1
102
RTVSPost2010Prop55
280
     0
102
RTVSPost2010PropOp55
 70
     1
102
RTVSPost2010Prop56
140
1.0
102
RTVSPost2010PropOp56
 70
     1
102
RTVSPost2010Prop57
140
1.0
102
RTVSPost2010PropOp57
 70
     1
  0
XRECORD
  5
37D
102
{ACAD_REACTORS
330
37C
102
}
330
37C
100
AcDbXrecord
280
     1
102
RTVSPropertyOp0
 70
     1
102
RTVSPropertyOp1
 70
     1
102
RTVSPropertyOp2
 70
     1
102
RTVSPropertyOp3
 70
     1
102
RTVSPropertyOp4
 70
     1
102
RTVSPropertyOp5
 70
     1
102
RTVSPropertyOp6
 70
     1
102
RTVSPropertyOp7
 70
     1
102
RTVSPropertyOp8
 70
     1
102
RTVSPropertyOp9
 70
     1
102
RTVSPropertyOp10
 70
     1
102
RTVSPropertyOp11
 70
     1
102
RTVSPropertyOp12
 70
     1
102
RTVSPropertyOp13
 70
     1
102
RTVSPropertyOp14
 70
     1
102
RTVSPropertyOp15
 70
     1
102
RTVSPropertyOp16
 70
     1
102
RTVSPropertyOp17
 70
     1
102
RTVSPropertyOp18
 70
     1
102
RTVSPropertyOp19
 70
     1
102
RTVSPropertyOp20
 70
     1
102
RTVSPropertyOp21
 70
     1
102
RTVSPropertyOp22
 70
     1
102
RTVSPropertyOp23
 70
     1
102
RTVSPropertyOp24
 70
     1
102
RTVSPropertyOp25
 70
     1
102
RTVSPropertyOp26
 70
     1
102
RTVSPropertyOp27
 70
     1
102
RTVSPropertyOp28
 70
     1
102
RTVSPropertyOp29
 70
     1
102
RTVSPropertyOp30
 70
     1
102
RTVSPropertyOp31
 70
     1
102
RTVSPropertyOp32
 70
     1
102
RTVSPropertyOp33
 70
     1
102
RTVSPropertyOp34
 70
     1
102
RTVSPropertyOp35
 70
     1
102
RTVSPropertyOp36
 70
     1
102
RTVSPropertyOp37
 70
     1
102
RTVSPropertyOp38
 70
     1
102
RTVSPropertyOp39
 70
     1
102
RTVSPropertyOp40
 70
     1
102
RTVSPropertyOp41
 70
     1
102
RTVSPropertyOp42
 70
     1
102
RTVSPropertyOp43
 70
     1
102
RTVSPropertyOp44
 70
     1
102
RTVSPropertyOp45
 70
     1
102
RTVSPropertyOp46
 70
     1
102
RTVSPropertyOp47
 70
     1
102
RTVSPropertyOp48
 70
     1
102
RTVSPropertyOp49
 70
     1
102
RTVSPropertyOp50
 70
     1
102
RTVSPropertyOp51
 70
     0
102
RTVSPropertyOp52
 70
     0
102
RTVSPropertyOp53
 70
     1
102
RTVSPropertyOp54
 70
     1
102
RTVSPropertyOp55
 70
     1
102
RTVSPropertyOp56
 70
     1
102
RTVSPropertyOp57
 70
     1
102
RTVSPost2010Prop28
280
     0
102
RTVSPost2010PropOp28
 70
     1
102
RTVSPost2010Prop29
280
     1
102
RTVSPost2010PropOp29
 70
     1
102
RTVSPost2010Prop30
280
     1
102
RTVSPost2010PropOp30
 70
     1
102
RTVSPost2010Prop31
280
     0
102
RTVSPost2010PropOp31
 70
     1
102
RTVSPost2010Prop32
280
     0
102
RTVSPost2010PropOp32
 70
     1
102
RTVSPost2010Prop33
280
     0
102
RTVSPost2010PropOp33
 70
     1
102
RTVSPost2010Prop34
280
     0
102
RTVSPost2010PropOp34
 70
     1
102
RTVSPost2010Prop35
280
     0
102
RTVSPost2010PropOp35
 70
     1
102
RTVSPost2010Prop36
280
     0
102
RTVSPost2010PropOp36
 70
     1
102
RTVSPost2010Prop37
 90
       50
102
RTVSPost2010PropOp37
 70
     1
102
RTVSPost2010Prop38
140
0.0
102
RTVSPost2010PropOp38
 70
     1
102
RTVSPost2010Prop39
140
1.0
102
RTVSPost2010PropOp39
 70
     1
102
RTVSPost2010Prop40
 90
        0
102
RTVSPost2010PropOp40
 70
     1
102
RTVSPost2010Prop41ColorIndex
 90
       18
102
RTVSPost2010Prop41ColorRGB
 90
        0
102
RTVSPost2010PropOp41
 70
     1
102
RTVSPost2010Prop42
 90
       50
102
RTVSPost2010PropOp42
 70
     1
102
RTVSPost2010Prop43
 90
        3
102
RTVSPost2010PropOp43
 70
     1
102
RTVSPost2010Prop44ColorIndex
 90
        5
102
RTVSPost2010Prop44ColorRGB
 90
      255
102
RTVSPost2010PropOp44
 70
     1
102
RTVSPost2010Prop45
280
     0
102
RTVSPost2010PropOp45
 70
     1
102
RTVSPost2010Prop46
 90
       50
102
RTVSPost2010PropOp46
 70
     1
102
RTVSPost2010Prop47
 90
       50
102
RTVSPost2010PropOp47
 70
     1
102
RTVSPost2010Prop48
 90
       50
102
RTVSPost2010PropOp48
 70
     1
102
RTVSPost2010Prop49
280
     0
102
RTVSPost2010PropOp49
 70
     1
102
RTVSPost2010Prop50
 90
       50
102
RTVSPost2010PropOp50
 70
     1
102
RTVSPost2010Prop51ColorIndex
 90
      256
102
RTVSPost2010Prop51ColorRGB
 90
-16777216
102
RTVSPost2010PropOp51
 70
     0
102
RTVSPost2010Prop52
140
1.0
102
RTVSPost2010PropOp52
 70
     0
102
RTVSPost2010Prop53
 90
        2
102
RTVSPost2010PropOp53
 70
     1
102
RTVSPost2010Prop54
  1
strokes_ogs.tif
102
RTVSPost2010PropOp54
 70
     1
102
RTVSPost2010Prop55
280
     0
102
RTVSPost2010PropOp55
 70
     1
102
RTVSPost2010Prop56
140
1.0
102
RTVSPost2010PropOp56
 70
     1
102
RTVSPost2010Prop57
140
1.0
102
RTVSPost2010PropOp57
 70
     1
  0
XRECORD
  5
37F
102
{ACAD_REACTORS
330
37E
102
}
330
37E
100
AcDbXrecord
280
     1
102
RTVSPropertyOp0
 70
     1
102
RTVSPropertyOp1
 70
     1
102
RTVSPropertyOp2
 70
     1
102
RTVSPropertyOp3
 70
     1
102
RTVSPropertyOp4
 70
     1
102
RTVSPropertyOp5
 70
     1
102
RTVSPropertyOp6
 70
     1
102
RTVSPropertyOp7
 70
     1
102
RTVSPropertyOp8
 70
     1
102
RTVSPropertyOp9
 70
     1
102
RTVSPropertyOp10
 70
     1
102
RTVSPropertyOp11
 70
     1
102
RTVSPropertyOp12
 70
     1
102
RTVSPropertyOp13
 70
     1
102
RTVSPropertyOp14
 70
     1
102
RTVSPropertyOp15
 70
     1
102
RTVSPropertyOp16
 70
     1
102
RTVSPropertyOp17
 70
     1
102
RTVSPropertyOp18
 70
     1
102
RTVSPropertyOp19
 70
     1
102
RTVSPropertyOp20
 70
     1
102
RTVSPropertyOp21
 70
     1
102
RTVSPropertyOp22
 70
     1
102
RTVSPropertyOp23
 70
     1
102
RTVSPropertyOp24
 70
     1
102
RTVSPropertyOp25
 70
     1
102
RTVSPropertyOp26
 70
     1
102
RTVSPropertyOp27
 70
     1
102
RTVSPropertyOp28
 70
     1
102
RTVSPropertyOp29
 70
     1
102
RTVSPropertyOp30
 70
     1
102
RTVSPropertyOp31
 70
     1
102
RTVSPropertyOp32
 70
     1
102
RTVSPropertyOp33
 70
     1
102
RTVSPropertyOp34
 70
     1
102
RTVSPropertyOp35
 70
     1
102
RTVSPropertyOp36
 70
     1
102
RTVSPropertyOp37
 70
     1
102
RTVSPropertyOp38
 70
     1
102
RTVSPropertyOp39
 70
     1
102
RTVSPropertyOp40
 70
     1
102
RTVSPropertyOp41
 70
     1
102
RTVSPropertyOp42
 70
     1
102
RTVSPropertyOp43
 70
     1
102
RTVSPropertyOp44
 70
     1
102
RTVSPropertyOp45
 70
     1
102
RTVSPropertyOp46
 70
     1
102
RTVSPropertyOp47
 70
     1
102
RTVSPropertyOp48
 70
     1
102
RTVSPropertyOp49
 70
     1
102
RTVSPropertyOp50
 70
     1
102
RTVSPropertyOp51
 70
     0
102
RTVSPropertyOp52
 70
     0
102
RTVSPropertyOp53
 70
     1
102
RTVSPropertyOp54
 70
     1
102
RTVSPropertyOp55
 70
     1
102
RTVSPropertyOp56
 70
     1
102
RTVSPropertyOp57
 70
     1
102
RTVSPost2010Prop28
280
     0
102
RTVSPost2010PropOp28
 70
     1
102
RTVSPost2010Prop29
280
     1
102
RTVSPost2010PropOp29
 70
     1
102
RTVSPost2010Prop30
280
     1
102
RTVSPost2010PropOp30
 70
     1
102
RTVSPost2010Prop31
280
     0
102
RTVSPost2010PropOp31
 70
     1
102
RTVSPost2010Prop32
280
     0
102
RTVSPost2010PropOp32
 70
     1
102
RTVSPost2010Prop33
280
     0
102
RTVSPost2010PropOp33
 70
     1
102
RTVSPost2010Prop34
280
     0
102
RTVSPost2010PropOp34
 70
     1
102
RTVSPost2010Prop35
280
     0
102
RTVSPost2010PropOp35
 70
     1
102
RTVSPost2010Prop36
280
     0
102
RTVSPost2010PropOp36
 70
     1
102
RTVSPost2010Prop37
 90
       50
102
RTVSPost2010PropOp37
 70
     1
102
RTVSPost2010Prop38
140
0.0
102
RTVSPost2010PropOp38
 70
     1
102
RTVSPost2010Prop39
140
1.0
102
RTVSPost2010PropOp39
 70
     1
102
RTVSPost2010Prop40
 90
        0
102
RTVSPost2010PropOp40
 70
     1
102
RTVSPost2010Prop41ColorIndex
 90
       18
102
RTVSPost2010Prop41ColorRGB
 90
        0
102
RTVSPost2010PropOp41
 70
     1
102
RTVSPost2010Prop42
 90
       50
102
RTVSPost2010PropOp42
 70
     1
102
RTVSPost2010Prop43
 90
        3
102
RTVSPost2010PropOp43
 70
     1
102
RTVSPost2010Prop44ColorIndex
 90
        5
102
RTVSPost2010Prop44ColorRGB
 90
      255
102
RTVSPost2010PropOp44
 70
     1
102
RTVSPost2010Prop45
280
     0
102
RTVSPost2010PropOp45
 70
     1
102
RTVSPost2010Prop46
 90
       50
102
RTVSPost2010PropOp46
 70
     1
102
RTVSPost2010Prop47
 90
       50
102
RTVSPost2010PropOp47
 70
     1
102
RTVSPost2010Prop48
 90
       50
102
RTVSPost2010PropOp48
 70
     1
102
RTVSPost2010Prop49
280
     0
102
RTVSPost2010PropOp49
 70
     1
102
RTVSPost2010Prop50
 90
       50
102
RTVSPost2010PropOp50
 70
     1
102
RTVSPost2010Prop51ColorIndex
 90
      256
102
RTVSPost2010Prop51ColorRGB
 90
-16777216
102
RTVSPost2010PropOp51
 70
     0
102
RTVSPost2010Prop52
140
1.0
102
RTVSPost2010PropOp52
 70
     0
102
RTVSPost2010Prop53
 90
        2
102
RTVSPost2010PropOp53
 70
     1
102
RTVSPost2010Prop54
  1
strokes_ogs.tif
102
RTVSPost2010PropOp54
 70
     1
102
RTVSPost2010Prop55
280
     0
102
RTVSPost2010PropOp55
 70
     1
102
RTVSPost2010Prop56
140
1.0
102
RTVSPost2010PropOp56
 70
     1
102
RTVSPost2010Prop57
140
1.0
102
RTVSPost2010PropOp57
 70
     1
  0
XRECORD
  5
38F
102
{ACAD_REACTORS
330
38E
102
}
330
38E
100
AcDbXrecord
280
     1
102
RTVSPropertyOp0
 70
     0
102
RTVSPropertyOp1
 70
     0
102
RTVSPropertyOp2
 70
     0
102
RTVSPropertyOp3
 70
     0
102
RTVSPropertyOp4
 70
     0
102
RTVSPropertyOp5
 70
     0
102
RTVSPropertyOp6
 70
     0
102
RTVSPropertyOp7
 70
     0
102
RTVSPropertyOp8
 70
     0
102
RTVSPropertyOp9
 70
     0
102
RTVSPropertyOp10
 70
     0
102
RTVSPropertyOp11
 70
     0
102
RTVSPropertyOp12
 70
     0
102
RTVSPropertyOp13
 70
     0
102
RTVSPropertyOp14
 70
     2
102
RTVSPropertyOp15
 70
     0
102
RTVSPropertyOp16
 70
     0
102
RTVSPropertyOp17
 70
     0
102
RTVSPropertyOp18
 70
     0
102
RTVSPropertyOp19
 70
     0
102
RTVSPropertyOp20
 70
     0
102
RTVSPropertyOp21
 70
     0
102
RTVSPropertyOp22
 70
     0
102
RTVSPropertyOp23
 70
     0
102
RTVSPropertyOp24
 70
     0
102
RTVSPropertyOp25
 70
     0
102
RTVSPropertyOp26
 70
     0
102
RTVSPropertyOp27
 70
     0
102
RTVSPropertyOp28
 70
     0
102
RTVSPropertyOp29
 70
     0
102
RTVSPropertyOp30
 70
     0
102
RTVSPropertyOp31
 70
     0
102
RTVSPropertyOp32
 70
     0
102
RTVSPropertyOp33
 70
     0
102
RTVSPropertyOp34
 70
     0
102
RTVSPropertyOp35
 70
     0
102
RTVSPropertyOp36
 70
     0
102
RTVSPropertyOp37
 70
     0
102
RTVSPropertyOp38
 70
     0
102
RTVSPropertyOp39
 70
     0
102
RTVSPropertyOp40
 70
     0
102
RTVSPropertyOp41
 70
     0
102
RTVSPropertyOp42
 70
     0
102
RTVSPropertyOp43
 70
     0
102
RTVSPropertyOp44
 70
     0
102
RTVSPropertyOp45
 70
     0
102
RTVSPropertyOp46
 70
     0
102
RTVSPropertyOp47
 70
     0
102
RTVSPropertyOp48
 70
     0
102
RTVSPropertyOp49
 70
     0
102
RTVSPropertyOp50
 70
     0
102
RTVSPropertyOp51
 70
     0
102
RTVSPropertyOp52
 70
     0
102
RTVSPropertyOp53
 70
     0
102
RTVSPropertyOp54
 70
     0
102
RTVSPropertyOp55
 70
     0
102
RTVSPropertyOp56
 70
     0
102
RTVSPropertyOp57
 70
     0
102
RTVSPost2010Prop28
280
     0
102
RTVSPost2010PropOp28
 70
     0
102
RTVSPost2010Prop29
280
     1
102
RTVSPost2010PropOp29
 70
     0
102
RTVSPost2010Prop30
280
     1
102
RTVSPost2010PropOp30
 70
     0
102
RTVSPost2010Prop31
280
     0
102
RTVSPost2010PropOp31
 70
     0
102
RTVSPost2010Prop32
280
     0
102
RTVSPost2010PropOp32
 70
     0
102
RTVSPost2010Prop33
280
     0
102
RTVSPost2010PropOp33
 70
     0
102
RTVSPost2010Prop34
280
     0
102
RTVSPost2010PropOp34
 70
     0
102
RTVSPost2010Prop35
280
     0
102
RTVSPost2010PropOp35
 70
     0
102
RTVSPost2010Prop36
280
     0
102
RTVSPost2010PropOp36
 70
     0
102
RTVSPost2010Prop37
 90
       50
102
RTVSPost2010PropOp37
 70
     0
102
RTVSPost2010Prop38
140
0.0
102
RTVSPost2010PropOp38
 70
     0
102
RTVSPost2010Prop39
140
1.0
102
RTVSPost2010PropOp39
 70
     0
102
RTVSPost2010Prop40
 90
        0
102
RTVSPost2010PropOp40
 70
     0
102
RTVSPost2010Prop41ColorIndex
 90
       18
102
RTVSPost2010Prop41ColorRGB
 90
        0
102
RTVSPost2010PropOp41
 70
     0
102
RTVSPost2010Prop42
 90
       50
102
RTVSPost2010PropOp42
 70
     0
102
RTVSPost2010Prop43
 90
        3
102
RTVSPost2010PropOp43
 70
     0
102
RTVSPost2010Prop44ColorIndex
 90
        5
102
RTVSPost2010Prop44ColorRGB
 90
      255
102
RTVSPost2010PropOp44
 70
     0
102
RTVSPost2010Prop45
280
     0
102
RTVSPost2010PropOp45
 70
     0
102
RTVSPost2010Prop46
 90
       50
102
RTVSPost2010PropOp46
 70
     0
102
RTVSPost2010Prop47
 90
       50
102
RTVSPost2010PropOp47
 70
     0
102
RTVSPost2010Prop48
 90
       50
102
RTVSPost2010PropOp48
 70
     0
102
RTVSPost2010Prop49
280
     0
102
RTVSPost2010PropOp49
 70
     0
102
RTVSPost2010Prop50
 90
       50
102
RTVSPost2010PropOp50
 70
     0
102
RTVSPost2010Prop51ColorIndex
 90
      256
102
RTVSPost2010Prop51ColorRGB
 90
-16777216
102
RTVSPost2010PropOp51
 70
     0
102
RTVSPost2010Prop52
140
1.0
102
RTVSPost2010PropOp52
 70
     0
102
RTVSPost2010Prop53
 90
        2
102
RTVSPost2010PropOp53
 70
     0
102
RTVSPost2010Prop54
  1
strokes_ogs.tif
102
RTVSPost2010PropOp54
 70
     0
102
RTVSPost2010Prop55
280
     0
102
RTVSPost2010PropOp55
 70
     0
102
RTVSPost2010Prop56
140
1.0
102
RTVSPost2010PropOp56
 70
     0
102
RTVSPost2010Prop57
140
1.0
102
RTVSPost2010PropOp57
 70
     0
  0
XRECORD
  5
387
102
{ACAD_REACTORS
330
386
102
}
330
386
100
AcDbXrecord
280
     1
102
RTVSPropertyOp0
 70
     1
102
RTVSPropertyOp1
 70
     1
102
RTVSPropertyOp2
 70
     1
102
RTVSPropertyOp3
 70
     1
102
RTVSPropertyOp4
 70
     1
102
RTVSPropertyOp5
 70
     1
102
RTVSPropertyOp6
 70
     1
102
RTVSPropertyOp7
 70
     1
102
RTVSPropertyOp8
 70
     1
102
RTVSPropertyOp9
 70
     1
102
RTVSPropertyOp10
 70
     1
102
RTVSPropertyOp11
 70
     1
102
RTVSPropertyOp12
 70
     1
102
RTVSPropertyOp13
 70
     1
102
RTVSPropertyOp14
 70
     1
102
RTVSPropertyOp15
 70
     1
102
RTVSPropertyOp16
 70
     1
102
RTVSPropertyOp17
 70
     1
102
RTVSPropertyOp18
 70
     1
102
RTVSPropertyOp19
 70
     1
102
RTVSPropertyOp20
 70
     1
102
RTVSPropertyOp21
 70
     1
102
RTVSPropertyOp22
 70
     1
102
RTVSPropertyOp23
 70
     1
102
RTVSPropertyOp24
 70
     1
102
RTVSPropertyOp25
 70
     1
102
RTVSPropertyOp26
 70
     1
102
RTVSPropertyOp27
 70
     1
102
RTVSPropertyOp28
 70
     1
102
RTVSPropertyOp29
 70
     1
102
RTVSPropertyOp30
 70
     1
102
RTVSPropertyOp31
 70
     1
102
RTVSPropertyOp32
 70
     1
102
RTVSPropertyOp33
 70
     1
102
RTVSPropertyOp34
 70
     1
102
RTVSPropertyOp35
 70
     1
102
RTVSPropertyOp36
 70
     1
102
RTVSPropertyOp37
 70
     1
102
RTVSPropertyOp38
 70
     1
102
RTVSPropertyOp39
 70
     1
102
RTVSPropertyOp40
 70
     1
102
RTVSPropertyOp41
 70
     1
102
RTVSPropertyOp42
 70
     1
102
RTVSPropertyOp43
 70
     1
102
RTVSPropertyOp44
 70
     1
102
RTVSPropertyOp45
 70
     1
102
RTVSPropertyOp46
 70
     1
102
RTVSPropertyOp47
 70
     1
102
RTVSPropertyOp48
 70
     1
102
RTVSPropertyOp49
 70
     1
102
RTVSPropertyOp50
 70
     1
102
RTVSPropertyOp51
 70
     0
102
RTVSPropertyOp52
 70
     0
102
RTVSPropertyOp53
 70
     1
102
RTVSPropertyOp54
 70
     1
102
RTVSPropertyOp55
 70
     1
102
RTVSPropertyOp56
 70
     1
102
RTVSPropertyOp57
 70
     1
102
RTVSPost2010Prop28
280
     0
102
RTVSPost2010PropOp28
 70
     1
102
RTVSPost2010Prop29
280
     1
102
RTVSPost2010PropOp29
 70
     1
102
RTVSPost2010Prop30
280
     1
102
RTVSPost2010PropOp30
 70
     1
102
RTVSPost2010Prop31
280
     0
102
RTVSPost2010PropOp31
 70
     1
102
RTVSPost2010Prop32
280
     0
102
RTVSPost2010PropOp32
 70
     1
102
RTVSPost2010Prop33
280
     0
102
RTVSPost2010PropOp33
 70
     1
102
RTVSPost2010Prop34
280
     0
102
RTVSPost2010PropOp34
 70
     1
102
RTVSPost2010Prop35
280
     0
102
RTVSPost2010PropOp35
 70
     1
102
RTVSPost2010Prop36
280
     0
102
RTVSPost2010PropOp36
 70
     1
102
RTVSPost2010Prop37
 90
       50
102
RTVSPost2010PropOp37
 70
     1
102
RTVSPost2010Prop38
140
0.0
102
RTVSPost2010PropOp38
 70
     1
102
RTVSPost2010Prop39
140
1.0
102
RTVSPost2010PropOp39
 70
     1
102
RTVSPost2010Prop40
 90
        0
102
RTVSPost2010PropOp40
 70
     1
102
RTVSPost2010Prop41ColorIndex
 90
       18
102
RTVSPost2010Prop41ColorRGB
 90
        0
102
RTVSPost2010PropOp41
 70
     1
102
RTVSPost2010Prop42
 90
       50
102
RTVSPost2010PropOp42
 70
     1
102
RTVSPost2010Prop43
 90
        3
102
RTVSPost2010PropOp43
 70
     1
102
RTVSPost2010Prop44ColorIndex
 90
        5
102
RTVSPost2010Prop44ColorRGB
 90
      255
102
RTVSPost2010PropOp44
 70
     1
102
RTVSPost2010Prop45
280
     0
102
RTVSPost2010PropOp45
 70
     1
102
RTVSPost2010Prop46
 90
       50
102
RTVSPost2010PropOp46
 70
     1
102
RTVSPost2010Prop47
 90
       50
102
RTVSPost2010PropOp47
 70
     1
102
RTVSPost2010Prop48
 90
       50
102
RTVSPost2010PropOp48
 70
     1
102
RTVSPost2010Prop49
280
     0
102
RTVSPost2010PropOp49
 70
     1
102
RTVSPost2010Prop50
 90
       50
102
RTVSPost2010PropOp50
 70
     1
102
RTVSPost2010Prop51ColorIndex
 90
      256
102
RTVSPost2010Prop51ColorRGB
 90
-16777216
102
RTVSPost2010PropOp51
 70
     0
102
RTVSPost2010Prop52
140
1.0
102
RTVSPost2010PropOp52
 70
     0
102
RTVSPost2010Prop53
 90
        2
102
RTVSPost2010PropOp53
 70
     1
102
RTVSPost2010Prop54
  1
strokes_ogs.tif
102
RTVSPost2010PropOp54
 70
     1
102
RTVSPost2010Prop55
280
     0
102
RTVSPost2010PropOp55
 70
     1
102
RTVSPost2010Prop56
140
1.0
102
RTVSPost2010PropOp56
 70
     1
102
RTVSPost2010Prop57
140
1.0
102
RTVSPost2010PropOp57
 70
     1
  0
XRECORD
  5
36B
102
{ACAD_REACTORS
330
36A
102
}
330
36A
100
AcDbXrecord
280
     1
102
RTVSPropertyOp0
 70
     1
102
RTVSPropertyOp1
 70
     1
102
RTVSPropertyOp2
 70
     1
102
RTVSPropertyOp3
 70
     1
102
RTVSPropertyOp4
 70
     1
102
RTVSPropertyOp5
 70
     1
102
RTVSPropertyOp6
 70
     1
102
RTVSPropertyOp7
 70
     1
102
RTVSPropertyOp8
 70
     1
102
RTVSPropertyOp9
 70
     1
102
RTVSPropertyOp10
 70
     1
102
RTVSPropertyOp11
 70
     1
102
RTVSPropertyOp12
 70
     1
102
RTVSPropertyOp13
 70
     1
102
RTVSPropertyOp14
 70
     1
102
RTVSPropertyOp15
 70
     1
102
RTVSPropertyOp16
 70
     1
102
RTVSPropertyOp17
 70
     1
102
RTVSPropertyOp18
 70
     1
102
RTVSPropertyOp19
 70
     1
102
RTVSPropertyOp20
 70
     1
102
RTVSPropertyOp21
 70
     1
102
RTVSPropertyOp22
 70
     1
102
RTVSPropertyOp23
 70
     1
102
RTVSPropertyOp24
 70
     1
102
RTVSPropertyOp25
 70
     1
102
RTVSPropertyOp26
 70
     1
102
RTVSPropertyOp27
 70
     1
102
RTVSPropertyOp28
 70
     1
102
RTVSPropertyOp29
 70
     1
102
RTVSPropertyOp30
 70
     1
102
RTVSPropertyOp31
 70
     1
102
RTVSPropertyOp32
 70
     1
102
RTVSPropertyOp33
 70
     1
102
RTVSPropertyOp34
 70
     1
102
RTVSPropertyOp35
 70
     1
102
RTVSPropertyOp36
 70
     1
102
RTVSPropertyOp37
 70
     1
102
RTVSPropertyOp38
 70
     1
102
RTVSPropertyOp39
 70
     1
102
RTVSPropertyOp40
 70
     1
102
RTVSPropertyOp41
 70
     1
102
RTVSPropertyOp42
 70
     1
102
RTVSPropertyOp43
 70
     1
102
RTVSPropertyOp44
 70
     1
102
RTVSPropertyOp45
 70
     1
102
RTVSPropertyOp46
 70
     1
102
RTVSPropertyOp47
 70
     1
102
RTVSPropertyOp48
 70
     1
102
RTVSPropertyOp49
 70
     1
102
RTVSPropertyOp50
 70
     1
102
RTVSPropertyOp51
 70
     0
102
RTVSPropertyOp52
 70
     0
102
RTVSPropertyOp53
 70
     1
102
RTVSPropertyOp54
 70
     1
102
RTVSPropertyOp55
 70
     1
102
RTVSPropertyOp56
 70
     1
102
RTVSPropertyOp57
 70
     1
102
RTVSPost2010Prop28
280
     0
102
RTVSPost2010PropOp28
 70
     1
102
RTVSPost2010Prop29
280
     1
102
RTVSPost2010PropOp29
 70
     1
102
RTVSPost2010Prop30
280
     1
102
RTVSPost2010PropOp30
 70
     1
102
RTVSPost2010Prop31
280
     0
102
RTVSPost2010PropOp31
 70
     1
102
RTVSPost2010Prop32
280
     0
102
RTVSPost2010PropOp32
 70
     1
102
RTVSPost2010Prop33
280
     0
102
RTVSPost2010PropOp33
 70
     1
102
RTVSPost2010Prop34
280
     0
102
RTVSPost2010PropOp34
 70
     1
102
RTVSPost2010Prop35
280
     0
102
RTVSPost2010PropOp35
 70
     1
102
RTVSPost2010Prop36
280
     0
102
RTVSPost2010PropOp36
 70
     1
102
RTVSPost2010Prop37
 90
       50
102
RTVSPost2010PropOp37
 70
     1
102
RTVSPost2010Prop38
140
0.0
102
RTVSPost2010PropOp38
 70
     1
102
RTVSPost2010Prop39
140
1.0
102
RTVSPost2010PropOp39
 70
     1
102
RTVSPost2010Prop40
 90
        0
102
RTVSPost2010PropOp40
 70
     1
102
RTVSPost2010Prop41ColorIndex
 90
       18
102
RTVSPost2010Prop41ColorRGB
 90
        0
102
RTVSPost2010PropOp41
 70
     1
102
RTVSPost2010Prop42
 90
       50
102
RTVSPost2010PropOp42
 70
     1
102
RTVSPost2010Prop43
 90
        3
102
RTVSPost2010PropOp43
 70
     1
102
RTVSPost2010Prop44ColorIndex
 90
        5
102
RTVSPost2010Prop44ColorRGB
 90
      255
102
RTVSPost2010PropOp44
 70
     1
102
RTVSPost2010Prop45
280
     0
102
RTVSPost2010PropOp45
 70
     1
102
RTVSPost2010Prop46
 90
       50
102
RTVSPost2010PropOp46
 70
     1
102
RTVSPost2010Prop47
 90
       50
102
RTVSPost2010PropOp47
 70
     1
102
RTVSPost2010Prop48
 90
       50
102
RTVSPost2010PropOp48
 70
     1
102
RTVSPost2010Prop49
280
     0
102
RTVSPost2010PropOp49
 70
     1
102
RTVSPost2010Prop50
 90
       50
102
RTVSPost2010PropOp50
 70
     1
102
RTVSPost2010Prop51ColorIndex
 90
      256
102
RTVSPost2010Prop51ColorRGB
 90
-16777216
102
RTVSPost2010PropOp51
 70
     0
102
RTVSPost2010Prop52
140
1.0
102
RTVSPost2010PropOp52
 70
     0
102
RTVSPost2010Prop53
 90
        2
102
RTVSPost2010PropOp53
 70
     1
102
RTVSPost2010Prop54
  1
strokes_ogs.tif
102
RTVSPost2010PropOp54
 70
     1
102
RTVSPost2010Prop55
280
     0
102
RTVSPost2010PropOp55
 70
     1
102
RTVSPost2010Prop56
140
1.0
102
RTVSPost2010PropOp56
 70
     1
102
RTVSPost2010Prop57
140
1.0
102
RTVSPost2010PropOp57
 70
     1
  0
XRECORD
  5
36D
102
{ACAD_REACTORS
330
36C
102
}
330
36C
100
AcDbXrecord
280
     1
102
RTVSPropertyOp0
 70
     1
102
RTVSPropertyOp1
 70
     1
102
RTVSPropertyOp2
 70
     1
102
RTVSPropertyOp3
 70
     1
102
RTVSPropertyOp4
 70
     1
102
RTVSPropertyOp5
 70
     1
102
RTVSPropertyOp6
 70
     1
102
RTVSPropertyOp7
 70
     1
102
RTVSPropertyOp8
 70
     1
102
RTVSPropertyOp9
 70
     1
102
RTVSPropertyOp10
 70
     1
102
RTVSPropertyOp11
 70
     1
102
RTVSPropertyOp12
 70
     1
102
RTVSPropertyOp13
 70
     1
102
RTVSPropertyOp14
 70
     1
102
RTVSPropertyOp15
 70
     1
102
RTVSPropertyOp16
 70
     1
102
RTVSPropertyOp17
 70
     1
102
RTVSPropertyOp18
 70
     1
102
RTVSPropertyOp19
 70
     1
102
RTVSPropertyOp20
 70
     1
102
RTVSPropertyOp21
 70
     1
102
RTVSPropertyOp22
 70
     1
102
RTVSPropertyOp23
 70
     1
102
RTVSPropertyOp24
 70
     1
102
RTVSPropertyOp25
 70
     1
102
RTVSPropertyOp26
 70
     1
102
RTVSPropertyOp27
 70
     1
102
RTVSPropertyOp28
 70
     1
102
RTVSPropertyOp29
 70
     1
102
RTVSPropertyOp30
 70
     1
102
RTVSPropertyOp31
 70
     1
102
RTVSPropertyOp32
 70
     1
102
RTVSPropertyOp33
 70
     1
102
RTVSPropertyOp34
 70
     1
102
RTVSPropertyOp35
 70
     1
102
RTVSPropertyOp36
 70
     1
102
RTVSPropertyOp37
 70
     1
102
RTVSPropertyOp38
 70
     1
102
RTVSPropertyOp39
 70
     1
102
RTVSPropertyOp40
 70
     1
102
RTVSPropertyOp41
 70
     1
102
RTVSPropertyOp42
 70
     1
102
RTVSPropertyOp43
 70
     1
102
RTVSPropertyOp44
 70
     1
102
RTVSPropertyOp45
 70
     1
102
RTVSPropertyOp46
 70
     1
102
RTVSPropertyOp47
 70
     1
102
RTVSPropertyOp48
 70
     1
102
RTVSPropertyOp49
 70
     1
102
RTVSPropertyOp50
 70
     1
102
RTVSPropertyOp51
 70
     0
102
RTVSPropertyOp52
 70
     0
102
RTVSPropertyOp53
 70
     1
102
RTVSPropertyOp54
 70
     1
102
RTVSPropertyOp55
 70
     1
102
RTVSPropertyOp56
 70
     1
102
RTVSPropertyOp57
 70
     1
102
RTVSPost2010Prop28
280
     0
102
RTVSPost2010PropOp28
 70
     1
102
RTVSPost2010Prop29
280
     1
102
RTVSPost2010PropOp29
 70
     1
102
RTVSPost2010Prop30
280
     1
102
RTVSPost2010PropOp30
 70
     1
102
RTVSPost2010Prop31
280
     0
102
RTVSPost2010PropOp31
 70
     1
102
RTVSPost2010Prop32
280
     0
102
RTVSPost2010PropOp32
 70
     1
102
RTVSPost2010Prop33
280
     0
102
RTVSPost2010PropOp33
 70
     1
102
RTVSPost2010Prop34
280
     0
102
RTVSPost2010PropOp34
 70
     1
102
RTVSPost2010Prop35
280
     0
102
RTVSPost2010PropOp35
 70
     1
102
RTVSPost2010Prop36
280
     0
102
RTVSPost2010PropOp36
 70
     1
102
RTVSPost2010Prop37
 90
       50
102
RTVSPost2010PropOp37
 70
     1
102
RTVSPost2010Prop38
140
0.0
102
RTVSPost2010PropOp38
 70
     1
102
RTVSPost2010Prop39
140
1.0
102
RTVSPost2010PropOp39
 70
     1
102
RTVSPost2010Prop40
 90
        0
102
RTVSPost2010PropOp40
 70
     1
102
RTVSPost2010Prop41ColorIndex
 90
       18
102
RTVSPost2010Prop41ColorRGB
 90
        0
102
RTVSPost2010PropOp41
 70
     1
102
RTVSPost2010Prop42
 90
       50
102
RTVSPost2010PropOp42
 70
     1
102
RTVSPost2010Prop43
 90
        3
102
RTVSPost2010PropOp43
 70
     1
102
RTVSPost2010Prop44ColorIndex
 90
        5
102
RTVSPost2010Prop44ColorRGB
 90
      255
102
RTVSPost2010PropOp44
 70
     1
102
RTVSPost2010Prop45
280
     0
102
RTVSPost2010PropOp45
 70
     1
102
RTVSPost2010Prop46
 90
       50
102
RTVSPost2010PropOp46
 70
     1
102
RTVSPost2010Prop47
 90
       50
102
RTVSPost2010PropOp47
 70
     1
102
RTVSPost2010Prop48
 90
       50
102
RTVSPost2010PropOp48
 70
     1
102
RTVSPost2010Prop49
280
     0
102
RTVSPost2010PropOp49
 70
     1
102
RTVSPost2010Prop50
 90
       50
102
RTVSPost2010PropOp50
 70
     1
102
RTVSPost2010Prop51ColorIndex
 90
      256
102
RTVSPost2010Prop51ColorRGB
 90
-16777216
102
RTVSPost2010PropOp51
 70
     0
102
RTVSPost2010Prop52
140
1.0
102
RTVSPost2010PropOp52
 70
     0
102
RTVSPost2010Prop53
 90
        2
102
RTVSPost2010PropOp53
 70
     1
102
RTVSPost2010Prop54
  1
strokes_ogs.tif
102
RTVSPost2010PropOp54
 70
     1
102
RTVSPost2010Prop55
280
     0
102
RTVSPost2010PropOp55
 70
     1
102
RTVSPost2010Prop56
140
1.0
102
RTVSPost2010PropOp56
 70
     1
102
RTVSPost2010Prop57
140
1.0
102
RTVSPost2010PropOp57
 70
     1
  0
XRECORD
  5
36F
102
{ACAD_REACTORS
330
36E
102
}
330
36E
100
AcDbXrecord
280
     1
102
RTVSPropertyOp0
 70
     1
102
RTVSPropertyOp1
 70
     1
102
RTVSPropertyOp2
 70
     1
102
RTVSPropertyOp3
 70
     1
102
RTVSPropertyOp4
 70
     1
102
RTVSPropertyOp5
 70
     1
102
RTVSPropertyOp6
 70
     1
102
RTVSPropertyOp7
 70
     1
102
RTVSPropertyOp8
 70
     1
102
RTVSPropertyOp9
 70
     1
102
RTVSPropertyOp10
 70
     1
102
RTVSPropertyOp11
 70
     1
102
RTVSPropertyOp12
 70
     1
102
RTVSPropertyOp13
 70
     1
102
RTVSPropertyOp14
 70
     1
102
RTVSPropertyOp15
 70
     1
102
RTVSPropertyOp16
 70
     1
102
RTVSPropertyOp17
 70
     1
102
RTVSPropertyOp18
 70
     1
102
RTVSPropertyOp19
 70
     1
102
RTVSPropertyOp20
 70
     1
102
RTVSPropertyOp21
 70
     1
102
RTVSPropertyOp22
 70
     1
102
RTVSPropertyOp23
 70
     1
102
RTVSPropertyOp24
 70
     1
102
RTVSPropertyOp25
 70
     1
102
RTVSPropertyOp26
 70
     1
102
RTVSPropertyOp27
 70
     1
102
RTVSPropertyOp28
 70
     1
102
RTVSPropertyOp29
 70
     1
102
RTVSPropertyOp30
 70
     1
102
RTVSPropertyOp31
 70
     1
102
RTVSPropertyOp32
 70
     1
102
RTVSPropertyOp33
 70
     1
102
RTVSPropertyOp34
 70
     1
102
RTVSPropertyOp35
 70
     1
102
RTVSPropertyOp36
 70
     1
102
RTVSPropertyOp37
 70
     1
102
RTVSPropertyOp38
 70
     1
102
RTVSPropertyOp39
 70
     1
102
RTVSPropertyOp40
 70
     1
102
RTVSPropertyOp41
 70
     1
102
RTVSPropertyOp42
 70
     1
102
RTVSPropertyOp43
 70
     1
102
RTVSPropertyOp44
 70
     1
102
RTVSPropertyOp45
 70
     1
102
RTVSPropertyOp46
 70
     1
102
RTVSPropertyOp47
 70
     1
102
RTVSPropertyOp48
 70
     1
102
RTVSPropertyOp49
 70
     1
102
RTVSPropertyOp50
 70
     1
102
RTVSPropertyOp51
 70
     0
102
RTVSPropertyOp52
 70
     0
102
RTVSPropertyOp53
 70
     1
102
RTVSPropertyOp54
 70
     1
102
RTVSPropertyOp55
 70
     1
102
RTVSPropertyOp56
 70
     1
102
RTVSPropertyOp57
 70
     1
102
RTVSPost2010Prop28
280
     0
102
RTVSPost2010PropOp28
 70
     1
102
RTVSPost2010Prop29
280
     1
102
RTVSPost2010PropOp29
 70
     1
102
RTVSPost2010Prop30
280
     1
102
RTVSPost2010PropOp30
 70
     1
102
RTVSPost2010Prop31
280
     0
102
RTVSPost2010PropOp31
 70
     1
102
RTVSPost2010Prop32
280
     0
102
RTVSPost2010PropOp32
 70
     1
102
RTVSPost2010Prop33
280
     0
102
RTVSPost2010PropOp33
 70
     1
102
RTVSPost2010Prop34
280
     0
102
RTVSPost2010PropOp34
 70
     1
102
RTVSPost2010Prop35
280
     0
102
RTVSPost2010PropOp35
 70
     1
102
RTVSPost2010Prop36
280
     0
102
RTVSPost2010PropOp36
 70
     1
102
RTVSPost2010Prop37
 90
       50
102
RTVSPost2010PropOp37
 70
     1
102
RTVSPost2010Prop38
140
0.0
102
RTVSPost2010PropOp38
 70
     1
102
RTVSPost2010Prop39
140
1.0
102
RTVSPost2010PropOp39
 70
     1
102
RTVSPost2010Prop40
 90
        0
102
RTVSPost2010PropOp40
 70
     1
102
RTVSPost2010Prop41ColorIndex
 90
       18
102
RTVSPost2010Prop41ColorRGB
 90
        0
102
RTVSPost2010PropOp41
 70
     1
102
RTVSPost2010Prop42
 90
       50
102
RTVSPost2010PropOp42
 70
     1
102
RTVSPost2010Prop43
 90
        3
102
RTVSPost2010PropOp43
 70
     1
102
RTVSPost2010Prop44ColorIndex
 90
        5
102
RTVSPost2010Prop44ColorRGB
 90
      255
102
RTVSPost2010PropOp44
 70
     1
102
RTVSPost2010Prop45
280
     0
102
RTVSPost2010PropOp45
 70
     1
102
RTVSPost2010Prop46
 90
       50
102
RTVSPost2010PropOp46
 70
     1
102
RTVSPost2010Prop47
 90
       50
102
RTVSPost2010PropOp47
 70
     1
102
RTVSPost2010Prop48
 90
       50
102
RTVSPost2010PropOp48
 70
     1
102
RTVSPost2010Prop49
280
     0
102
RTVSPost2010PropOp49
 70
     1
102
RTVSPost2010Prop50
 90
       50
102
RTVSPost2010PropOp50
 70
     1
102
RTVSPost2010Prop51ColorIndex
 90
      256
102
RTVSPost2010Prop51ColorRGB
 90
-16777216
102
RTVSPost2010PropOp51
 70
     0
102
RTVSPost2010Prop52
140
1.0
102
RTVSPost2010PropOp52
 70
     0
102
RTVSPost2010Prop53
 90
        2
102
RTVSPost2010PropOp53
 70
     1
102
RTVSPost2010Prop54
  1
strokes_ogs.tif
102
RTVSPost2010PropOp54
 70
     1
102
RTVSPost2010Prop55
280
     0
102
RTVSPost2010PropOp55
 70
     1
102
RTVSPost2010Prop56
140
1.0
102
RTVSPost2010PropOp56
 70
     1
102
RTVSPost2010Prop57
140
1.0
102
RTVSPost2010PropOp57
 70
     1
  0
XRECORD
  5
371
102
{ACAD_REACTORS
330
370
102
}
330
370
100
AcDbXrecord
280
     1
102
RTVSPropertyOp0
 70
     1
102
RTVSPropertyOp1
 70
     1
102
RTVSPropertyOp2
 70
     1
102
RTVSPropertyOp3
 70
     1
102
RTVSPropertyOp4
 70
     1
102
RTVSPropertyOp5
 70
     1
102
RTVSPropertyOp6
 70
     1
102
RTVSPropertyOp7
 70
     1
102
RTVSPropertyOp8
 70
     1
102
RTVSPropertyOp9
 70
     1
102
RTVSPropertyOp10
 70
     1
102
RTVSPropertyOp11
 70
     1
102
RTVSPropertyOp12
 70
     1
102
RTVSPropertyOp13
 70
     1
102
RTVSPropertyOp14
 70
     1
102
RTVSPropertyOp15
 70
     1
102
RTVSPropertyOp16
 70
     1
102
RTVSPropertyOp17
 70
     1
102
RTVSPropertyOp18
 70
     1
102
RTVSPropertyOp19
 70
     1
102
RTVSPropertyOp20
 70
     1
102
RTVSPropertyOp21
 70
     1
102
RTVSPropertyOp22
 70
     1
102
RTVSPropertyOp23
 70
     1
102
RTVSPropertyOp24
 70
     1
102
RTVSPropertyOp25
 70
     1
102
RTVSPropertyOp26
 70
     1
102
RTVSPropertyOp27
 70
     1
102
RTVSPropertyOp28
 70
     1
102
RTVSPropertyOp29
 70
     1
102
RTVSPropertyOp30
 70
     1
102
RTVSPropertyOp31
 70
     1
102
RTVSPropertyOp32
 70
     1
102
RTVSPropertyOp33
 70
     1
102
RTVSPropertyOp34
 70
     1
102
RTVSPropertyOp35
 70
     1
102
RTVSPropertyOp36
 70
     1
102
RTVSPropertyOp37
 70
     1
102
RTVSPropertyOp38
 70
     1
102
RTVSPropertyOp39
 70
     1
102
RTVSPropertyOp40
 70
     1
102
RTVSPropertyOp41
 70
     1
102
RTVSPropertyOp42
 70
     1
102
RTVSPropertyOp43
 70
     1
102
RTVSPropertyOp44
 70
     1
102
RTVSPropertyOp45
 70
     1
102
RTVSPropertyOp46
 70
     1
102
RTVSPropertyOp47
 70
     1
102
RTVSPropertyOp48
 70
     1
102
RTVSPropertyOp49
 70
     1
102
RTVSPropertyOp50
 70
     1
102
RTVSPropertyOp51
 70
     0
102
RTVSPropertyOp52
 70
     0
102
RTVSPropertyOp53
 70
     1
102
RTVSPropertyOp54
 70
     1
102
RTVSPropertyOp55
 70
     1
102
RTVSPropertyOp56
 70
     1
102
RTVSPropertyOp57
 70
     1
102
RTVSPost2010Prop28
280
     0
102
RTVSPost2010PropOp28
 70
     1
102
RTVSPost2010Prop29
280
     1
102
RTVSPost2010PropOp29
 70
     1
102
RTVSPost2010Prop30
280
     1
102
RTVSPost2010PropOp30
 70
     1
102
RTVSPost2010Prop31
280
     0
102
RTVSPost2010PropOp31
 70
     1
102
RTVSPost2010Prop32
280
     0
102
RTVSPost2010PropOp32
 70
     1
102
RTVSPost2010Prop33
280
     0
102
RTVSPost2010PropOp33
 70
     1
102
RTVSPost2010Prop34
280
     0
102
RTVSPost2010PropOp34
 70
     1
102
RTVSPost2010Prop35
280
     0
102
RTVSPost2010PropOp35
 70
     1
102
RTVSPost2010Prop36
280
     0
102
RTVSPost2010PropOp36
 70
     1
102
RTVSPost2010Prop37
 90
       50
102
RTVSPost2010PropOp37
 70
     1
102
RTVSPost2010Prop38
140
0.0
102
RTVSPost2010PropOp38
 70
     1
102
RTVSPost2010Prop39
140
1.0
102
RTVSPost2010PropOp39
 70
     1
102
RTVSPost2010Prop40
 90
        0
102
RTVSPost2010PropOp40
 70
     1
102
RTVSPost2010Prop41ColorIndex
 90
       18
102
RTVSPost2010Prop41ColorRGB
 90
        0
102
RTVSPost2010PropOp41
 70
     1
102
RTVSPost2010Prop42
 90
       50
102
RTVSPost2010PropOp42
 70
     1
102
RTVSPost2010Prop43
 90
        3
102
RTVSPost2010PropOp43
 70
     1
102
RTVSPost2010Prop44ColorIndex
 90
        5
102
RTVSPost2010Prop44ColorRGB
 90
      255
102
RTVSPost2010PropOp44
 70
     1
102
RTVSPost2010Prop45
280
     0
102
RTVSPost2010PropOp45
 70
     1
102
RTVSPost2010Prop46
 90
       50
102
RTVSPost2010PropOp46
 70
     1
102
RTVSPost2010Prop47
 90
       50
102
RTVSPost2010PropOp47
 70
     1
102
RTVSPost2010Prop48
 90
       50
102
RTVSPost2010PropOp48
 70
     1
102
RTVSPost2010Prop49
280
     0
102
RTVSPost2010PropOp49
 70
     1
102
RTVSPost2010Prop50
 90
       50
102
RTVSPost2010PropOp50
 70
     1
102
RTVSPost2010Prop51ColorIndex
 90
      256
102
RTVSPost2010Prop51ColorRGB
 90
-16777216
102
RTVSPost2010PropOp51
 70
     0
102
RTVSPost2010Prop52
140
1.0
102
RTVSPost2010PropOp52
 70
     0
102
RTVSPost2010Prop53
 90
        2
102
RTVSPost2010PropOp53
 70
     1
102
RTVSPost2010Prop54
  1
strokes_ogs.tif
102
RTVSPost2010PropOp54
 70
     1
102
RTVSPost2010Prop55
280
     0
102
RTVSPost2010PropOp55
 70
     1
102
RTVSPost2010Prop56
140
1.0
102
RTVSPost2010PropOp56
 70
     1
102
RTVSPost2010Prop57
140
1.0
102
RTVSPost2010PropOp57
 70
     1
  0
XRECORD
  5
377
102
{ACAD_REACTORS
330
376
102
}
330
376
100
AcDbXrecord
280
     1
102
RTVSPropertyOp0
 70
     1
102
RTVSPropertyOp1
 70
     1
102
RTVSPropertyOp2
 70
     1
102
RTVSPropertyOp3
 70
     1
102
RTVSPropertyOp4
 70
     1
102
RTVSPropertyOp5
 70
     1
102
RTVSPropertyOp6
 70
     1
102
RTVSPropertyOp7
 70
     1
102
RTVSPropertyOp8
 70
     1
102
RTVSPropertyOp9
 70
     1
102
RTVSPropertyOp10
 70
     1
102
RTVSPropertyOp11
 70
     1
102
RTVSPropertyOp12
 70
     1
102
RTVSPropertyOp13
 70
     1
102
RTVSPropertyOp14
 70
     1
102
RTVSPropertyOp15
 70
     1
102
RTVSPropertyOp16
 70
     1
102
RTVSPropertyOp17
 70
     1
102
RTVSPropertyOp18
 70
     1
102
RTVSPropertyOp19
 70
     1
102
RTVSPropertyOp20
 70
     1
102
RTVSPropertyOp21
 70
     1
102
RTVSPropertyOp22
 70
     1
102
RTVSPropertyOp23
 70
     1
102
RTVSPropertyOp24
 70
     1
102
RTVSPropertyOp25
 70
     1
102
RTVSPropertyOp26
 70
     1
102
RTVSPropertyOp27
 70
     1
102
RTVSPropertyOp28
 70
     1
102
RTVSPropertyOp29
 70
     1
102
RTVSPropertyOp30
 70
     1
102
RTVSPropertyOp31
 70
     1
102
RTVSPropertyOp32
 70
     1
102
RTVSPropertyOp33
 70
     1
102
RTVSPropertyOp34
 70
     1
102
RTVSPropertyOp35
 70
     1
102
RTVSPropertyOp36
 70
     1
102
RTVSPropertyOp37
 70
     1
102
RTVSPropertyOp38
 70
     1
102
RTVSPropertyOp39
 70
     1
102
RTVSPropertyOp40
 70
     1
102
RTVSPropertyOp41
 70
     1
102
RTVSPropertyOp42
 70
     1
102
RTVSPropertyOp43
 70
     1
102
RTVSPropertyOp44
 70
     1
102
RTVSPropertyOp45
 70
     1
102
RTVSPropertyOp46
 70
     1
102
RTVSPropertyOp47
 70
     1
102
RTVSPropertyOp48
 70
     1
102
RTVSPropertyOp49
 70
     1
102
RTVSPropertyOp50
 70
     1
102
RTVSPropertyOp51
 70
     0
102
RTVSPropertyOp52
 70
     0
102
RTVSPropertyOp53
 70
     1
102
RTVSPropertyOp54
 70
     1
102
RTVSPropertyOp55
 70
     1
102
RTVSPropertyOp56
 70
     1
102
RTVSPropertyOp57
 70
     1
102
RTVSPost2010Prop28
280
     0
102
RTVSPost2010PropOp28
 70
     1
102
RTVSPost2010Prop29
280
     1
102
RTVSPost2010PropOp29
 70
     1
102
RTVSPost2010Prop30
280
     1
102
RTVSPost2010PropOp30
 70
     1
102
RTVSPost2010Prop31
280
     0
102
RTVSPost2010PropOp31
 70
     1
102
RTVSPost2010Prop32
280
     0
102
RTVSPost2010PropOp32
 70
     1
102
RTVSPost2010Prop33
280
     0
102
RTVSPost2010PropOp33
 70
     1
102
RTVSPost2010Prop34
280
     0
102
RTVSPost2010PropOp34
 70
     1
102
RTVSPost2010Prop35
280
     0
102
RTVSPost2010PropOp35
 70
     1
102
RTVSPost2010Prop36
280
     0
102
RTVSPost2010PropOp36
 70
     1
102
RTVSPost2010Prop37
 90
       50
102
RTVSPost2010PropOp37
 70
     1
102
RTVSPost2010Prop38
140
0.0
102
RTVSPost2010PropOp38
 70
     1
102
RTVSPost2010Prop39
140
1.0
102
RTVSPost2010PropOp39
 70
     1
102
RTVSPost2010Prop40
 90
        0
102
RTVSPost2010PropOp40
 70
     1
102
RTVSPost2010Prop41ColorIndex
 90
       18
102
RTVSPost2010Prop41ColorRGB
 90
        0
102
RTVSPost2010PropOp41
 70
     1
102
RTVSPost2010Prop42
 90
       50
102
RTVSPost2010PropOp42
 70
     1
102
RTVSPost2010Prop43
 90
        3
102
RTVSPost2010PropOp43
 70
     1
102
RTVSPost2010Prop44ColorIndex
 90
        5
102
RTVSPost2010Prop44ColorRGB
 90
      255
102
RTVSPost2010PropOp44
 70
     1
102
RTVSPost2010Prop45
280
     0
102
RTVSPost2010PropOp45
 70
     1
102
RTVSPost2010Prop46
 90
       50
102
RTVSPost2010PropOp46
 70
     1
102
RTVSPost2010Prop47
 90
       50
102
RTVSPost2010PropOp47
 70
     1
102
RTVSPost2010Prop48
 90
       50
102
RTVSPost2010PropOp48
 70
     1
102
RTVSPost2010Prop49
280
     0
102
RTVSPost2010PropOp49
 70
     1
102
RTVSPost2010Prop50
 90
       50
102
RTVSPost2010PropOp50
 70
     1
102
RTVSPost2010Prop51ColorIndex
 90
      256
102
RTVSPost2010Prop51ColorRGB
 90
-16777216
102
RTVSPost2010PropOp51
 70
     0
102
RTVSPost2010Prop52
140
1.0
102
RTVSPost2010PropOp52
 70
     0
102
RTVSPost2010Prop53
 90
        2
102
RTVSPost2010PropOp53
 70
     1
102
RTVSPost2010Prop54
  1
strokes_ogs.tif
102
RTVSPost2010PropOp54
 70
     1
102
RTVSPost2010Prop55
280
     0
102
RTVSPost2010PropOp55
 70
     1
102
RTVSPost2010Prop56
140
1.0
102
RTVSPost2010PropOp56
 70
     1
102
RTVSPost2010Prop57
140
1.0
102
RTVSPost2010PropOp57
 70
     1
  0
XRECORD
  5
38B
102
{ACAD_REACTORS
330
38A
102
}
330
38A
100
AcDbXrecord
280
     1
102
RTVSPropertyOp0
 70
     0
102
RTVSPropertyOp1
 70
     0
102
RTVSPropertyOp2
 70
     0
102
RTVSPropertyOp3
 70
     0
102
RTVSPropertyOp4
 70
     0
102
RTVSPropertyOp5
 70
     0
102
RTVSPropertyOp6
 70
     0
102
RTVSPropertyOp7
 70
     0
102
RTVSPropertyOp8
 70
     0
102
RTVSPropertyOp9
 70
     0
102
RTVSPropertyOp10
 70
     0
102
RTVSPropertyOp11
 70
     0
102
RTVSPropertyOp12
 70
     0
102
RTVSPropertyOp13
 70
     0
102
RTVSPropertyOp14
 70
     2
102
RTVSPropertyOp15
 70
     0
102
RTVSPropertyOp16
 70
     0
102
RTVSPropertyOp17
 70
     0
102
RTVSPropertyOp18
 70
     0
102
RTVSPropertyOp19
 70
     0
102
RTVSPropertyOp20
 70
     0
102
RTVSPropertyOp21
 70
     0
102
RTVSPropertyOp22
 70
     0
102
RTVSPropertyOp23
 70
     0
102
RTVSPropertyOp24
 70
     0
102
RTVSPropertyOp25
 70
     0
102
RTVSPropertyOp26
 70
     0
102
RTVSPropertyOp27
 70
     0
102
RTVSPropertyOp28
 70
     0
102
RTVSPropertyOp29
 70
     0
102
RTVSPropertyOp30
 70
     0
102
RTVSPropertyOp31
 70
     0
102
RTVSPropertyOp32
 70
     0
102
RTVSPropertyOp33
 70
     0
102
RTVSPropertyOp34
 70
     0
102
RTVSPropertyOp35
 70
     0
102
RTVSPropertyOp36
 70
     0
102
RTVSPropertyOp37
 70
     0
102
RTVSPropertyOp38
 70
     0
102
RTVSPropertyOp39
 70
     0
102
RTVSPropertyOp40
 70
     0
102
RTVSPropertyOp41
 70
     0
102
RTVSPropertyOp42
 70
     0
102
RTVSPropertyOp43
 70
     0
102
RTVSPropertyOp44
 70
     0
102
RTVSPropertyOp45
 70
     0
102
RTVSPropertyOp46
 70
     0
102
RTVSPropertyOp47
 70
     0
102
RTVSPropertyOp48
 70
     0
102
RTVSPropertyOp49
 70
     0
102
RTVSPropertyOp50
 70
     0
102
RTVSPropertyOp51
 70
     0
102
RTVSPropertyOp52
 70
     0
102
RTVSPropertyOp53
 70
     0
102
RTVSPropertyOp54
 70
     0
102
RTVSPropertyOp55
 70
     0
102
RTVSPropertyOp56
 70
     0
102
RTVSPropertyOp57
 70
     0
102
RTVSPost2010Prop28
280
     0
102
RTVSPost2010PropOp28
 70
     0
102
RTVSPost2010Prop29
280
     1
102
RTVSPost2010PropOp29
 70
     0
102
RTVSPost2010Prop30
280
     1
102
RTVSPost2010PropOp30
 70
     0
102
RTVSPost2010Prop31
280
     0
102
RTVSPost2010PropOp31
 70
     0
102
RTVSPost2010Prop32
280
     0
102
RTVSPost2010PropOp32
 70
     0
102
RTVSPost2010Prop33
280
     0
102
RTVSPost2010PropOp33
 70
     0
102
RTVSPost2010Prop34
280
     0
102
RTVSPost2010PropOp34
 70
     0
102
RTVSPost2010Prop35
280
     0
102
RTVSPost2010PropOp35
 70
     0
102
RTVSPost2010Prop36
280
     0
102
RTVSPost2010PropOp36
 70
     0
102
RTVSPost2010Prop37
 90
       50
102
RTVSPost2010PropOp37
 70
     0
102
RTVSPost2010Prop38
140
0.0
102
RTVSPost2010PropOp38
 70
     0
102
RTVSPost2010Prop39
140
1.0
102
RTVSPost2010PropOp39
 70
     0
102
RTVSPost2010Prop40
 90
        0
102
RTVSPost2010PropOp40
 70
     0
102
RTVSPost2010Prop41ColorIndex
 90
       18
102
RTVSPost2010Prop41ColorRGB
 90
        0
102
RTVSPost2010PropOp41
 70
     0
102
RTVSPost2010Prop42
 90
       50
102
RTVSPost2010PropOp42
 70
     0
102
RTVSPost2010Prop43
 90
        3
102
RTVSPost2010PropOp43
 70
     0
102
RTVSPost2010Prop44ColorIndex
 90
        5
102
RTVSPost2010Prop44ColorRGB
 90
      255
102
RTVSPost2010PropOp44
 70
     0
102
RTVSPost2010Prop45
280
     0
102
RTVSPost2010PropOp45
 70
     0
102
RTVSPost2010Prop46
 90
       50
102
RTVSPost2010PropOp46
 70
     0
102
RTVSPost2010Prop47
 90
       50
102
RTVSPost2010PropOp47
 70
     0
102
RTVSPost2010Prop48
 90
       50
102
RTVSPost2010PropOp48
 70
     0
102
RTVSPost2010Prop49
280
     0
102
RTVSPost2010PropOp49
 70
     0
102
RTVSPost2010Prop50
 90
       50
102
RTVSPost2010PropOp50
 70
     0
102
RTVSPost2010Prop51ColorIndex
 90
      256
102
RTVSPost2010Prop51ColorRGB
 90
-16777216
102
RTVSPost2010PropOp51
 70
     0
102
RTVSPost2010Prop52
140
1.0
102
RTVSPost2010PropOp52
 70
     0
102
RTVSPost2010Prop53
 90
        2
102
RTVSPost2010PropOp53
 70
     0
102
RTVSPost2010Prop54
  1
strokes_ogs.tif
102
RTVSPost2010PropOp54
 70
     0
102
RTVSPost2010Prop55
280
     0
102
RTVSPost2010PropOp55
 70
     0
102
RTVSPost2010Prop56
140
1.0
102
RTVSPost2010PropOp56
 70
     0
102
RTVSPost2010Prop57
140
1.0
102
RTVSPost2010PropOp57
 70
     0
  0
XRECORD
  5
385
102
{ACAD_REACTORS
330
384
102
}
330
384
100
AcDbXrecord
280
     1
102
RTVSPropertyOp0
 70
     1
102
RTVSPropertyOp1
 70
     1
102
RTVSPropertyOp2
 70
     1
102
RTVSPropertyOp3
 70
     1
102
RTVSPropertyOp4
 70
     1
102
RTVSPropertyOp5
 70
     1
102
RTVSPropertyOp6
 70
     1
102
RTVSPropertyOp7
 70
     1
102
RTVSPropertyOp8
 70
     1
102
RTVSPropertyOp9
 70
     1
102
RTVSPropertyOp10
 70
     1
102
RTVSPropertyOp11
 70
     1
102
RTVSPropertyOp12
 70
     1
102
RTVSPropertyOp13
 70
     1
102
RTVSPropertyOp14
 70
     1
102
RTVSPropertyOp15
 70
     1
102
RTVSPropertyOp16
 70
     1
102
RTVSPropertyOp17
 70
     1
102
RTVSPropertyOp18
 70
     1
102
RTVSPropertyOp19
 70
     1
102
RTVSPropertyOp20
 70
     1
102
RTVSPropertyOp21
 70
     1
102
RTVSPropertyOp22
 70
     1
102
RTVSPropertyOp23
 70
     1
102
RTVSPropertyOp24
 70
     1
102
RTVSPropertyOp25
 70
     1
102
RTVSPropertyOp26
 70
     1
102
RTVSPropertyOp27
 70
     1
102
RTVSPropertyOp28
 70
     1
102
RTVSPropertyOp29
 70
     1
102
RTVSPropertyOp30
 70
     1
102
RTVSPropertyOp31
 70
     1
102
RTVSPropertyOp32
 70
     1
102
RTVSPropertyOp33
 70
     1
102
RTVSPropertyOp34
 70
     1
102
RTVSPropertyOp35
 70
     1
102
RTVSPropertyOp36
 70
     1
102
RTVSPropertyOp37
 70
     1
102
RTVSPropertyOp38
 70
     1
102
RTVSPropertyOp39
 70
     1
102
RTVSPropertyOp40
 70
     1
102
RTVSPropertyOp41
 70
     1
102
RTVSPropertyOp42
 70
     1
102
RTVSPropertyOp43
 70
     1
102
RTVSPropertyOp44
 70
     1
102
RTVSPropertyOp45
 70
     1
102
RTVSPropertyOp46
 70
     1
102
RTVSPropertyOp47
 70
     1
102
RTVSPropertyOp48
 70
     1
102
RTVSPropertyOp49
 70
     1
102
RTVSPropertyOp50
 70
     1
102
RTVSPropertyOp51
 70
     0
102
RTVSPropertyOp52
 70
     0
102
RTVSPropertyOp53
 70
     1
102
RTVSPropertyOp54
 70
     1
102
RTVSPropertyOp55
 70
     1
102
RTVSPropertyOp56
 70
     1
102
RTVSPropertyOp57
 70
     1
102
RTVSPost2010Prop28
280
     0
102
RTVSPost2010PropOp28
 70
     1
102
RTVSPost2010Prop29
280
     1
102
RTVSPost2010PropOp29
 70
     1
102
RTVSPost2010Prop30
280
     1
102
RTVSPost2010PropOp30
 70
     1
102
RTVSPost2010Prop31
280
     0
102
RTVSPost2010PropOp31
 70
     1
102
RTVSPost2010Prop32
280
     0
102
RTVSPost2010PropOp32
 70
     1
102
RTVSPost2010Prop33
280
     0
102
RTVSPost2010PropOp33
 70
     1
102
RTVSPost2010Prop34
280
     0
102
RTVSPost2010PropOp34
 70
     1
102
RTVSPost2010Prop35
280
     0
102
RTVSPost2010PropOp35
 70
     1
102
RTVSPost2010Prop36
280
     0
102
RTVSPost2010PropOp36
 70
     1
102
RTVSPost2010Prop37
 90
       50
102
RTVSPost2010PropOp37
 70
     1
102
RTVSPost2010Prop38
140
0.0
102
RTVSPost2010PropOp38
 70
     1
102
RTVSPost2010Prop39
140
1.0
102
RTVSPost2010PropOp39
 70
     1
102
RTVSPost2010Prop40
 90
        0
102
RTVSPost2010PropOp40
 70
     1
102
RTVSPost2010Prop41ColorIndex
 90
       18
102
RTVSPost2010Prop41ColorRGB
 90
        0
102
RTVSPost2010PropOp41
 70
     1
102
RTVSPost2010Prop42
 90
       50
102
RTVSPost2010PropOp42
 70
     1
102
RTVSPost2010Prop43
 90
        3
102
RTVSPost2010PropOp43
 70
     1
102
RTVSPost2010Prop44ColorIndex
 90
        5
102
RTVSPost2010Prop44ColorRGB
 90
      255
102
RTVSPost2010PropOp44
 70
     1
102
RTVSPost2010Prop45
280
     0
102
RTVSPost2010PropOp45
 70
     1
102
RTVSPost2010Prop46
 90
       50
102
RTVSPost2010PropOp46
 70
     1
102
RTVSPost2010Prop47
 90
       50
102
RTVSPost2010PropOp47
 70
     1
102
RTVSPost2010Prop48
 90
       50
102
RTVSPost2010PropOp48
 70
     1
102
RTVSPost2010Prop49
280
     0
102
RTVSPost2010PropOp49
 70
     1
102
RTVSPost2010Prop50
 90
       50
102
RTVSPost2010PropOp50
 70
     1
102
RTVSPost2010Prop51ColorIndex
 90
      256
102
RTVSPost2010Prop51ColorRGB
 90
-16777216
102
RTVSPost2010PropOp51
 70
     0
102
RTVSPost2010Prop52
140
1.0
102
RTVSPost2010PropOp52
 70
     0
102
RTVSPost2010Prop53
 90
        2
102
RTVSPost2010PropOp53
 70
     1
102
RTVSPost2010Prop54
  1
strokes_ogs.tif
102
RTVSPost2010PropOp54
 70
     1
102
RTVSPost2010Prop55
280
     0
102
RTVSPost2010PropOp55
 70
     1
102
RTVSPost2010Prop56
140
1.0
102
RTVSPost2010PropOp56
 70
     1
102
RTVSPost2010Prop57
140
1.0
102
RTVSPost2010PropOp57
 70
     1
  0
XRECORD
  5
38D
102
{ACAD_REACTORS
330
38C
102
}
330
38C
100
AcDbXrecord
280
     1
102
RTVSPropertyOp0
 70
     0
102
RTVSPropertyOp1
 70
     0
102
RTVSPropertyOp2
 70
     0
102
RTVSPropertyOp3
 70
     0
102
RTVSPropertyOp4
 70
     0
102
RTVSPropertyOp5
 70
     0
102
RTVSPropertyOp6
 70
     0
102
RTVSPropertyOp7
 70
     0
102
RTVSPropertyOp8
 70
     0
102
RTVSPropertyOp9
 70
     0
102
RTVSPropertyOp10
 70
     0
102
RTVSPropertyOp11
 70
     0
102
RTVSPropertyOp12
 70
     0
102
RTVSPropertyOp13
 70
     0
102
RTVSPropertyOp14
 70
     2
102
RTVSPropertyOp15
 70
     0
102
RTVSPropertyOp16
 70
     0
102
RTVSPropertyOp17
 70
     0
102
RTVSPropertyOp18
 70
     0
102
RTVSPropertyOp19
 70
     0
102
RTVSPropertyOp20
 70
     0
102
RTVSPropertyOp21
 70
     0
102
RTVSPropertyOp22
 70
     0
102
RTVSPropertyOp23
 70
     0
102
RTVSPropertyOp24
 70
     0
102
RTVSPropertyOp25
 70
     0
102
RTVSPropertyOp26
 70
     0
102
RTVSPropertyOp27
 70
     0
102
RTVSPropertyOp28
 70
     0
102
RTVSPropertyOp29
 70
     0
102
RTVSPropertyOp30
 70
     0
102
RTVSPropertyOp31
 70
     0
102
RTVSPropertyOp32
 70
     0
102
RTVSPropertyOp33
 70
     0
102
RTVSPropertyOp34
 70
     0
102
RTVSPropertyOp35
 70
     0
102
RTVSPropertyOp36
 70
     0
102
RTVSPropertyOp37
 70
     0
102
RTVSPropertyOp38
 70
     0
102
RTVSPropertyOp39
 70
     0
102
RTVSPropertyOp40
 70
     0
102
RTVSPropertyOp41
 70
     0
102
RTVSPropertyOp42
 70
     0
102
RTVSPropertyOp43
 70
     0
102
RTVSPropertyOp44
 70
     0
102
RTVSPropertyOp45
 70
     0
102
RTVSPropertyOp46
 70
     0
102
RTVSPropertyOp47
 70
     0
102
RTVSPropertyOp48
 70
     0
102
RTVSPropertyOp49
 70
     0
102
RTVSPropertyOp50
 70
     0
102
RTVSPropertyOp51
 70
     0
102
RTVSPropertyOp52
 70
     0
102
RTVSPropertyOp53
 70
     0
102
RTVSPropertyOp54
 70
     0
102
RTVSPropertyOp55
 70
     0
102
RTVSPropertyOp56
 70
     0
102
RTVSPropertyOp57
 70
     0
102
RTVSPost2010Prop28
280
     0
102
RTVSPost2010PropOp28
 70
     0
102
RTVSPost2010Prop29
280
     1
102
RTVSPost2010PropOp29
 70
     0
102
RTVSPost2010Prop30
280
     1
102
RTVSPost2010PropOp30
 70
     0
102
RTVSPost2010Prop31
280
     0
102
RTVSPost2010PropOp31
 70
     0
102
RTVSPost2010Prop32
280
     0
102
RTVSPost2010PropOp32
 70
     0
102
RTVSPost2010Prop33
280
     0
102
RTVSPost2010PropOp33
 70
     0
102
RTVSPost2010Prop34
280
     0
102
RTVSPost2010PropOp34
 70
     0
102
RTVSPost2010Prop35
280
     0
102
RTVSPost2010PropOp35
 70
     0
102
RTVSPost2010Prop36
280
     0
102
RTVSPost2010PropOp36
 70
     0
102
RTVSPost2010Prop37
 90
       50
102
RTVSPost2010PropOp37
 70
     0
102
RTVSPost2010Prop38
140
0.0
102
RTVSPost2010PropOp38
 70
     0
102
RTVSPost2010Prop39
140
1.0
102
RTVSPost2010PropOp39
 70
     0
102
RTVSPost2010Prop40
 90
        0
102
RTVSPost2010PropOp40
 70
     0
102
RTVSPost2010Prop41ColorIndex
 90
       18
102
RTVSPost2010Prop41ColorRGB
 90
        0
102
RTVSPost2010PropOp41
 70
     0
102
RTVSPost2010Prop42
 90
       50
102
RTVSPost2010PropOp42
 70
     0
102
RTVSPost2010Prop43
 90
        3
102
RTVSPost2010PropOp43
 70
     0
102
RTVSPost2010Prop44ColorIndex
 90
        5
102
RTVSPost2010Prop44ColorRGB
 90
      255
102
RTVSPost2010PropOp44
 70
     0
102
RTVSPost2010Prop45
280
     0
102
RTVSPost2010PropOp45
 70
     0
102
RTVSPost2010Prop46
 90
       50
102
RTVSPost2010PropOp46
 70
     0
102
RTVSPost2010Prop47
 90
       50
102
RTVSPost2010PropOp47
 70
     0
102
RTVSPost2010Prop48
 90
       50
102
RTVSPost2010PropOp48
 70
     0
102
RTVSPost2010Prop49
280
     0
102
RTVSPost2010PropOp49
 70
     0
102
RTVSPost2010Prop50
 90
       50
102
RTVSPost2010PropOp50
 70
     0
102
RTVSPost2010Prop51ColorIndex
 90
      256
102
RTVSPost2010Prop51ColorRGB
 90
-16777216
102
RTVSPost2010PropOp51
 70
     0
102
RTVSPost2010Prop52
140
1.0
102
RTVSPost2010PropOp52
 70
     0
102
RTVSPost2010Prop53
 90
        2
102
RTVSPost2010PropOp53
 70
     0
102
RTVSPost2010Prop54
  1
strokes_ogs.tif
102
RTVSPost2010PropOp54
 70
     0
102
RTVSPost2010Prop55
280
     0
102
RTVSPost2010PropOp55
 70
     0
102
RTVSPost2010Prop56
140
1.0
102
RTVSPost2010PropOp56
 70
     0
102
RTVSPost2010Prop57
140
1.0
102
RTVSPost2010PropOp57
 70
     0
  0
XRECORD
  5
37B
102
{ACAD_REACTORS
330
37A
102
}
330
37A
100
AcDbXrecord
280
     1
102
RTVSPropertyOp0
 70
     1
102
RTVSPropertyOp1
 70
     1
102
RTVSPropertyOp2
 70
     1
102
RTVSPropertyOp3
 70
     1
102
RTVSPropertyOp4
 70
     1
102
RTVSPropertyOp5
 70
     1
102
RTVSPropertyOp6
 70
     1
102
RTVSPropertyOp7
 70
     1
102
RTVSPropertyOp8
 70
     1
102
RTVSPropertyOp9
 70
     1
102
RTVSPropertyOp10
 70
     1
102
RTVSPropertyOp11
 70
     1
102
RTVSPropertyOp12
 70
     1
102
RTVSPropertyOp13
 70
     1
102
RTVSPropertyOp14
 70
     1
102
RTVSPropertyOp15
 70
     1
102
RTVSPropertyOp16
 70
     1
102
RTVSPropertyOp17
 70
     1
102
RTVSPropertyOp18
 70
     1
102
RTVSPropertyOp19
 70
     1
102
RTVSPropertyOp20
 70
     1
102
RTVSPropertyOp21
 70
     1
102
RTVSPropertyOp22
 70
     1
102
RTVSPropertyOp23
 70
     1
102
RTVSPropertyOp24
 70
     1
102
RTVSPropertyOp25
 70
     1
102
RTVSPropertyOp26
 70
     1
102
RTVSPropertyOp27
 70
     1
102
RTVSPropertyOp28
 70
     1
102
RTVSPropertyOp29
 70
     1
102
RTVSPropertyOp30
 70
     1
102
RTVSPropertyOp31
 70
     1
102
RTVSPropertyOp32
 70
     1
102
RTVSPropertyOp33
 70
     1
102
RTVSPropertyOp34
 70
     1
102
RTVSPropertyOp35
 70
     1
102
RTVSPropertyOp36
 70
     1
102
RTVSPropertyOp37
 70
     1
102
RTVSPropertyOp38
 70
     1
102
RTVSPropertyOp39
 70
     1
102
RTVSPropertyOp40
 70
     1
102
RTVSPropertyOp41
 70
     1
102
RTVSPropertyOp42
 70
     1
102
RTVSPropertyOp43
 70
     1
102
RTVSPropertyOp44
 70
     1
102
RTVSPropertyOp45
 70
     1
102
RTVSPropertyOp46
 70
     1
102
RTVSPropertyOp47
 70
     1
102
RTVSPropertyOp48
 70
     1
102
RTVSPropertyOp49
 70
     1
102
RTVSPropertyOp50
 70
     1
102
RTVSPropertyOp51
 70
     0
102
RTVSPropertyOp52
 70
     0
102
RTVSPropertyOp53
 70
     1
102
RTVSPropertyOp54
 70
     1
102
RTVSPropertyOp55
 70
     1
102
RTVSPropertyOp56
 70
     1
102
RTVSPropertyOp57
 70
     1
102
RTVSPost2010Prop28
280
     0
102
RTVSPost2010PropOp28
 70
     1
102
RTVSPost2010Prop29
280
     1
102
RTVSPost2010PropOp29
 70
     1
102
RTVSPost2010Prop30
280
     1
102
RTVSPost2010PropOp30
 70
     1
102
RTVSPost2010Prop31
280
     0
102
RTVSPost2010PropOp31
 70
     1
102
RTVSPost2010Prop32
280
     0
102
RTVSPost2010PropOp32
 70
     1
102
RTVSPost2010Prop33
280
     0
102
RTVSPost2010PropOp33
 70
     1
102
RTVSPost2010Prop34
280
     0
102
RTVSPost2010PropOp34
 70
     1
102
RTVSPost2010Prop35
280
     0
102
RTVSPost2010PropOp35
 70
     1
102
RTVSPost2010Prop36
280
     0
102
RTVSPost2010PropOp36
 70
     1
102
RTVSPost2010Prop37
 90
       50
102
RTVSPost2010PropOp37
 70
     1
102
RTVSPost2010Prop38
140
0.0
102
RTVSPost2010PropOp38
 70
     1
102
RTVSPost2010Prop39
140
1.0
102
RTVSPost2010PropOp39
 70
     1
102
RTVSPost2010Prop40
 90
        0
102
RTVSPost2010PropOp40
 70
     1
102
RTVSPost2010Prop41ColorIndex
 90
       18
102
RTVSPost2010Prop41ColorRGB
 90
        0
102
RTVSPost2010PropOp41
 70
     1
102
RTVSPost2010Prop42
 90
       50
102
RTVSPost2010PropOp42
 70
     1
102
RTVSPost2010Prop43
 90
        3
102
RTVSPost2010PropOp43
 70
     1
102
RTVSPost2010Prop44ColorIndex
 90
        5
102
RTVSPost2010Prop44ColorRGB
 90
      255
102
RTVSPost2010PropOp44
 70
     1
102
RTVSPost2010Prop45
280
     0
102
RTVSPost2010PropOp45
 70
     1
102
RTVSPost2010Prop46
 90
       50
102
RTVSPost2010PropOp46
 70
     1
102
RTVSPost2010Prop47
 90
       50
102
RTVSPost2010PropOp47
 70
     1
102
RTVSPost2010Prop48
 90
       50
102
RTVSPost2010PropOp48
 70
     1
102
RTVSPost2010Prop49
280
     0
102
RTVSPost2010PropOp49
 70
     1
102
RTVSPost2010Prop50
 90
       50
102
RTVSPost2010PropOp50
 70
     1
102
RTVSPost2010Prop51ColorIndex
 90
      256
102
RTVSPost2010Prop51ColorRGB
 90
-16777216
102
RTVSPost2010PropOp51
 70
     0
102
RTVSPost2010Prop52
140
1.0
102
RTVSPost2010PropOp52
 70
     0
102
RTVSPost2010Prop53
 90
        2
102
RTVSPost2010PropOp53
 70
     1
102
RTVSPost2010Prop54
  1
strokes_ogs.tif
102
RTVSPost2010PropOp54
 70
     1
102
RTVSPost2010Prop55
280
     0
102
RTVSPost2010PropOp55
 70
     1
102
RTVSPost2010Prop56
140
1.0
102
RTVSPost2010PropOp56
 70
     1
102
RTVSPost2010Prop57
140
1.0
102
RTVSPost2010PropOp57
 70
     1
  0
XRECORD
  5
399
102
{ACAD_REACTORS
330
398
102
}
330
398
100
AcDbXrecord
280
     1
102
RTVSPropertyOp0
 70
     1
102
RTVSPropertyOp1
 70
     1
102
RTVSPropertyOp2
 70
     1
102
RTVSPropertyOp3
 70
     1
102
RTVSPropertyOp4
 70
     1
102
RTVSPropertyOp5
 70
     1
102
RTVSPropertyOp6
 70
     1
102
RTVSPropertyOp7
 70
     1
102
RTVSPropertyOp8
 70
     1
102
RTVSPropertyOp9
 70
     1
102
RTVSPropertyOp10
 70
     1
102
RTVSPropertyOp11
 70
     1
102
RTVSPropertyOp12
 70
     1
102
RTVSPropertyOp13
 70
     1
102
RTVSPropertyOp14
 70
     1
102
RTVSPropertyOp15
 70
     1
102
RTVSPropertyOp16
 70
     1
102
RTVSPropertyOp17
 70
     1
102
RTVSPropertyOp18
 70
     1
102
RTVSPropertyOp19
 70
     1
102
RTVSPropertyOp20
 70
     1
102
RTVSPropertyOp21
 70
     1
102
RTVSPropertyOp22
 70
     1
102
RTVSPropertyOp23
 70
     1
102
RTVSPropertyOp24
 70
     1
102
RTVSPropertyOp25
 70
     1
102
RTVSPropertyOp26
 70
     1
102
RTVSPropertyOp27
 70
     1
102
RTVSPropertyOp28
 70
     1
102
RTVSPropertyOp29
 70
     1
102
RTVSPropertyOp30
 70
     1
102
RTVSPropertyOp31
 70
     1
102
RTVSPropertyOp32
 70
     1
102
RTVSPropertyOp33
 70
     1
102
RTVSPropertyOp34
 70
     1
102
RTVSPropertyOp35
 70
     1
102
RTVSPropertyOp36
 70
     1
102
RTVSPropertyOp37
 70
     1
102
RTVSPropertyOp38
 70
     1
102
RTVSPropertyOp39
 70
     1
102
RTVSPropertyOp40
 70
     1
102
RTVSPropertyOp41
 70
     1
102
RTVSPropertyOp42
 70
     1
102
RTVSPropertyOp43
 70
     1
102
RTVSPropertyOp44
 70
     1
102
RTVSPropertyOp45
 70
     1
102
RTVSPropertyOp46
 70
     1
102
RTVSPropertyOp47
 70
     1
102
RTVSPropertyOp48
 70
     1
102
RTVSPropertyOp49
 70
     1
102
RTVSPropertyOp50
 70
     1
102
RTVSPropertyOp51
 70
     0
102
RTVSPropertyOp52
 70
     0
102
RTVSPropertyOp53
 70
     1
102
RTVSPropertyOp54
 70
     1
102
RTVSPropertyOp55
 70
     1
102
RTVSPropertyOp56
 70
     1
102
RTVSPropertyOp57
 70
     1
102
RTVSPost2010Prop28
280
     0
102
RTVSPost2010PropOp28
 70
     1
102
RTVSPost2010Prop29
280
     1
102
RTVSPost2010PropOp29
 70
     1
102
RTVSPost2010Prop30
280
     1
102
RTVSPost2010PropOp30
 70
     1
102
RTVSPost2010Prop31
280
     0
102
RTVSPost2010PropOp31
 70
     1
102
RTVSPost2010Prop32
280
     0
102
RTVSPost2010PropOp32
 70
     1
102
RTVSPost2010Prop33
280
     0
102
RTVSPost2010PropOp33
 70
     1
102
RTVSPost2010Prop34
280
     0
102
RTVSPost2010PropOp34
 70
     1
102
RTVSPost2010Prop35
280
     0
102
RTVSPost2010PropOp35
 70
     1
102
RTVSPost2010Prop36
280
     0
102
RTVSPost2010PropOp36
 70
     1
102
RTVSPost2010Prop37
 90
       50
102
RTVSPost2010PropOp37
 70
     1
102
RTVSPost2010Prop38
140
0.0
102
RTVSPost2010PropOp38
 70
     1
102
RTVSPost2010Prop39
140
1.0
102
RTVSPost2010PropOp39
 70
     1
102
RTVSPost2010Prop40
 90
        0
102
RTVSPost2010PropOp40
 70
     1
102
RTVSPost2010Prop41ColorIndex
 90
       18
102
RTVSPost2010Prop41ColorRGB
 90
        0
102
RTVSPost2010PropOp41
 70
     1
102
RTVSPost2010Prop42
 90
       50
102
RTVSPost2010PropOp42
 70
     1
102
RTVSPost2010Prop43
 90
        3
102
RTVSPost2010PropOp43
 70
     1
102
RTVSPost2010Prop44ColorIndex
 90
        5
102
RTVSPost2010Prop44ColorRGB
 90
      255
102
RTVSPost2010PropOp44
 70
     1
102
RTVSPost2010Prop45
280
     0
102
RTVSPost2010PropOp45
 70
     1
102
RTVSPost2010Prop46
 90
       50
102
RTVSPost2010PropOp46
 70
     1
102
RTVSPost2010Prop47
 90
       50
102
RTVSPost2010PropOp47
 70
     1
102
RTVSPost2010Prop48
 90
       50
102
RTVSPost2010PropOp48
 70
     1
102
RTVSPost2010Prop49
280
     0
102
RTVSPost2010PropOp49
 70
     1
102
RTVSPost2010Prop50
 90
       50
102
RTVSPost2010PropOp50
 70
     1
102
RTVSPost2010Prop51ColorIndex
 90
      256
102
RTVSPost2010Prop51ColorRGB
 90
-16777216
102
RTVSPost2010PropOp51
 70
     0
102
RTVSPost2010Prop52
140
1.0
102
RTVSPost2010PropOp52
 70
     0
102
RTVSPost2010Prop53
 90
        2
102
RTVSPost2010PropOp53
 70
     1
102
RTVSPost2010Prop54
  1
strokes_ogs.tif
102
RTVSPost2010PropOp54
 70
     1
102
RTVSPost2010Prop55
280
     0
102
RTVSPost2010PropOp55
 70
     1
102
RTVSPost2010Prop56
140
1.0
102
RTVSPost2010PropOp56
 70
     1
102
RTVSPost2010Prop57
140
1.0
102
RTVSPost2010PropOp57
 70
     1
  0
XRECORD
  5
397
102
{ACAD_REACTORS
330
396
102
}
330
396
100
AcDbXrecord
280
     1
102
RTVSPropertyOp0
 70
     1
102
RTVSPropertyOp1
 70
     1
102
RTVSPropertyOp2
 70
     1
102
RTVSPropertyOp3
 70
     1
102
RTVSPropertyOp4
 70
     1
102
RTVSPropertyOp5
 70
     1
102
RTVSPropertyOp6
 70
     1
102
RTVSPropertyOp7
 70
     1
102
RTVSPropertyOp8
 70
     1
102
RTVSPropertyOp9
 70
     1
102
RTVSPropertyOp10
 70
     1
102
RTVSPropertyOp11
 70
     1
102
RTVSPropertyOp12
 70
     1
102
RTVSPropertyOp13
 70
     1
102
RTVSPropertyOp14
 70
     1
102
RTVSPropertyOp15
 70
     1
102
RTVSPropertyOp16
 70
     1
102
RTVSPropertyOp17
 70
     1
102
RTVSPropertyOp18
 70
     1
102
RTVSPropertyOp19
 70
     1
102
RTVSPropertyOp20
 70
     1
102
RTVSPropertyOp21
 70
     1
102
RTVSPropertyOp22
 70
     1
102
RTVSPropertyOp23
 70
     1
102
RTVSPropertyOp24
 70
     1
102
RTVSPropertyOp25
 70
     1
102
RTVSPropertyOp26
 70
     1
102
RTVSPropertyOp27
 70
     1
102
RTVSPropertyOp28
 70
     1
102
RTVSPropertyOp29
 70
     1
102
RTVSPropertyOp30
 70
     1
102
RTVSPropertyOp31
 70
     1
102
RTVSPropertyOp32
 70
     1
102
RTVSPropertyOp33
 70
     1
102
RTVSPropertyOp34
 70
     1
102
RTVSPropertyOp35
 70
     1
102
RTVSPropertyOp36
 70
     1
102
RTVSPropertyOp37
 70
     1
102
RTVSPropertyOp38
 70
     1
102
RTVSPropertyOp39
 70
     1
102
RTVSPropertyOp40
 70
     1
102
RTVSPropertyOp41
 70
     1
102
RTVSPropertyOp42
 70
     1
102
RTVSPropertyOp43
 70
     1
102
RTVSPropertyOp44
 70
     1
102
RTVSPropertyOp45
 70
     1
102
RTVSPropertyOp46
 70
     1
102
RTVSPropertyOp47
 70
     1
102
RTVSPropertyOp48
 70
     1
102
RTVSPropertyOp49
 70
     1
102
RTVSPropertyOp50
 70
     1
102
RTVSPropertyOp51
 70
     0
102
RTVSPropertyOp52
 70
     0
102
RTVSPropertyOp53
 70
     1
102
RTVSPropertyOp54
 70
     1
102
RTVSPropertyOp55
 70
     1
102
RTVSPropertyOp56
 70
     1
102
RTVSPropertyOp57
 70
     1
102
RTVSPost2010Prop28
280
     0
102
RTVSPost2010PropOp28
 70
     1
102
RTVSPost2010Prop29
280
     1
102
RTVSPost2010PropOp29
 70
     1
102
RTVSPost2010Prop30
280
     1
102
RTVSPost2010PropOp30
 70
     1
102
RTVSPost2010Prop31
280
     0
102
RTVSPost2010PropOp31
 70
     1
102
RTVSPost2010Prop32
280
     0
102
RTVSPost2010PropOp32
 70
     1
102
RTVSPost2010Prop33
280
     0
102
RTVSPost2010PropOp33
 70
     1
102
RTVSPost2010Prop34
280
     0
102
RTVSPost2010PropOp34
 70
     1
102
RTVSPost2010Prop35
280
     0
102
RTVSPost2010PropOp35
 70
     1
102
RTVSPost2010Prop36
280
     0
102
RTVSPost2010PropOp36
 70
     1
102
RTVSPost2010Prop37
 90
       50
102
RTVSPost2010PropOp37
 70
     1
102
RTVSPost2010Prop38
140
0.0
102
RTVSPost2010PropOp38
 70
     1
102
RTVSPost2010Prop39
140
1.0
102
RTVSPost2010PropOp39
 70
     1
102
RTVSPost2010Prop40
 90
        0
102
RTVSPost2010PropOp40
 70
     1
102
RTVSPost2010Prop41ColorIndex
 90
       18
102
RTVSPost2010Prop41ColorRGB
 90
        0
102
RTVSPost2010PropOp41
 70
     1
102
RTVSPost2010Prop42
 90
       50
102
RTVSPost2010PropOp42
 70
     1
102
RTVSPost2010Prop43
 90
        3
102
RTVSPost2010PropOp43
 70
     1
102
RTVSPost2010Prop44ColorIndex
 90
        5
102
RTVSPost2010Prop44ColorRGB
 90
      255
102
RTVSPost2010PropOp44
 70
     1
102
RTVSPost2010Prop45
280
     0
102
RTVSPost2010PropOp45
 70
     1
102
RTVSPost2010Prop46
 90
       50
102
RTVSPost2010PropOp46
 70
     1
102
RTVSPost2010Prop47
 90
       50
102
RTVSPost2010PropOp47
 70
     1
102
RTVSPost2010Prop48
 90
       50
102
RTVSPost2010PropOp48
 70
     1
102
RTVSPost2010Prop49
280
     0
102
RTVSPost2010PropOp49
 70
     1
102
RTVSPost2010Prop50
 90
       50
102
RTVSPost2010PropOp50
 70
     1
102
RTVSPost2010Prop51ColorIndex
 90
      256
102
RTVSPost2010Prop51ColorRGB
 90
-16777216
102
RTVSPost2010PropOp51
 70
     0
102
RTVSPost2010Prop52
140
1.0
102
RTVSPost2010PropOp52
 70
     0
102
RTVSPost2010Prop53
 90
        2
102
RTVSPost2010PropOp53
 70
     1
102
RTVSPost2010Prop54
  1
strokes_ogs.tif
102
RTVSPost2010PropOp54
 70
     1
102
RTVSPost2010Prop55
280
     0
102
RTVSPost2010PropOp55
 70
     1
102
RTVSPost2010Prop56
140
1.0
102
RTVSPost2010PropOp56
 70
     1
102
RTVSPost2010Prop57
140
1.0
102
RTVSPost2010PropOp57
 70
     1
  0
XRECORD
  5
391
102
{ACAD_REACTORS
330
390
102
}
330
390
100
AcDbXrecord
280
     1
102
RTVSPropertyOp0
 70
     1
102
RTVSPropertyOp1
 70
     1
102
RTVSPropertyOp2
 70
     1
102
RTVSPropertyOp3
 70
     1
102
RTVSPropertyOp4
 70
     1
102
RTVSPropertyOp5
 70
     1
102
RTVSPropertyOp6
 70
     1
102
RTVSPropertyOp7
 70
     1
102
RTVSPropertyOp8
 70
     1
102
RTVSPropertyOp9
 70
     1
102
RTVSPropertyOp10
 70
     1
102
RTVSPropertyOp11
 70
     1
102
RTVSPropertyOp12
 70
     1
102
RTVSPropertyOp13
 70
     1
102
RTVSPropertyOp14
 70
     1
102
RTVSPropertyOp15
 70
     1
102
RTVSPropertyOp16
 70
     1
102
RTVSPropertyOp17
 70
     1
102
RTVSPropertyOp18
 70
     1
102
RTVSPropertyOp19
 70
     1
102
RTVSPropertyOp20
 70
     1
102
RTVSPropertyOp21
 70
     1
102
RTVSPropertyOp22
 70
     1
102
RTVSPropertyOp23
 70
     1
102
RTVSPropertyOp24
 70
     1
102
RTVSPropertyOp25
 70
     1
102
RTVSPropertyOp26
 70
     1
102
RTVSPropertyOp27
 70
     1
102
RTVSPropertyOp28
 70
     1
102
RTVSPropertyOp29
 70
     1
102
RTVSPropertyOp30
 70
     1
102
RTVSPropertyOp31
 70
     1
102
RTVSPropertyOp32
 70
     1
102
RTVSPropertyOp33
 70
     1
102
RTVSPropertyOp34
 70
     1
102
RTVSPropertyOp35
 70
     1
102
RTVSPropertyOp36
 70
     1
102
RTVSPropertyOp37
 70
     1
102
RTVSPropertyOp38
 70
     1
102
RTVSPropertyOp39
 70
     1
102
RTVSPropertyOp40
 70
     1
102
RTVSPropertyOp41
 70
     1
102
RTVSPropertyOp42
 70
     1
102
RTVSPropertyOp43
 70
     1
102
RTVSPropertyOp44
 70
     1
102
RTVSPropertyOp45
 70
     1
102
RTVSPropertyOp46
 70
     1
102
RTVSPropertyOp47
 70
     1
102
RTVSPropertyOp48
 70
     1
102
RTVSPropertyOp49
 70
     1
102
RTVSPropertyOp50
 70
     1
102
RTVSPropertyOp51
 70
     0
102
RTVSPropertyOp52
 70
     0
102
RTVSPropertyOp53
 70
     1
102
RTVSPropertyOp54
 70
     1
102
RTVSPropertyOp55
 70
     1
102
RTVSPropertyOp56
 70
     1
102
RTVSPropertyOp57
 70
     1
102
RTVSPost2010Prop28
280
     0
102
RTVSPost2010PropOp28
 70
     1
102
RTVSPost2010Prop29
280
     1
102
RTVSPost2010PropOp29
 70
     1
102
RTVSPost2010Prop30
280
     1
102
RTVSPost2010PropOp30
 70
     1
102
RTVSPost2010Prop31
280
     0
102
RTVSPost2010PropOp31
 70
     1
102
RTVSPost2010Prop32
280
     0
102
RTVSPost2010PropOp32
 70
     1
102
RTVSPost2010Prop33
280
     0
102
RTVSPost2010PropOp33
 70
     1
102
RTVSPost2010Prop34
280
     0
102
RTVSPost2010PropOp34
 70
     1
102
RTVSPost2010Prop35
280
     0
102
RTVSPost2010PropOp35
 70
     1
102
RTVSPost2010Prop36
280
     0
102
RTVSPost2010PropOp36
 70
     1
102
RTVSPost2010Prop37
 90
       50
102
RTVSPost2010PropOp37
 70
     1
102
RTVSPost2010Prop38
140
0.0
102
RTVSPost2010PropOp38
 70
     1
102
RTVSPost2010Prop39
140
1.0
102
RTVSPost2010PropOp39
 70
     1
102
RTVSPost2010Prop40
 90
        0
102
RTVSPost2010PropOp40
 70
     1
102
RTVSPost2010Prop41ColorIndex
 90
       18
102
RTVSPost2010Prop41ColorRGB
 90
        0
102
RTVSPost2010PropOp41
 70
     1
102
RTVSPost2010Prop42
 90
       50
102
RTVSPost2010PropOp42
 70
     1
102
RTVSPost2010Prop43
 90
        3
102
RTVSPost2010PropOp43
 70
     1
102
RTVSPost2010Prop44ColorIndex
 90
        5
102
RTVSPost2010Prop44ColorRGB
 90
      255
102
RTVSPost2010PropOp44
 70
     1
102
RTVSPost2010Prop45
280
     0
102
RTVSPost2010PropOp45
 70
     1
102
RTVSPost2010Prop46
 90
       50
102
RTVSPost2010PropOp46
 70
     1
102
RTVSPost2010Prop47
 90
       50
102
RTVSPost2010PropOp47
 70
     1
102
RTVSPost2010Prop48
 90
       50
102
RTVSPost2010PropOp48
 70
     1
102
RTVSPost2010Prop49
280
     0
102
RTVSPost2010PropOp49
 70
     1
102
RTVSPost2010Prop50
 90
       50
102
RTVSPost2010PropOp50
 70
     1
102
RTVSPost2010Prop51ColorIndex
 90
      256
102
RTVSPost2010Prop51ColorRGB
 90
-16777216
102
RTVSPost2010PropOp51
 70
     0
102
RTVSPost2010Prop52
140
1.0
102
RTVSPost2010PropOp52
 70
     0
102
RTVSPost2010Prop53
 90
        2
102
RTVSPost2010PropOp53
 70
     1
102
RTVSPost2010Prop54
  1
strokes_ogs.tif
102
RTVSPost2010PropOp54
 70
     1
102
RTVSPost2010Prop55
280
     0
102
RTVSPost2010PropOp55
 70
     1
102
RTVSPost2010Prop56
140
1.0
102
RTVSPost2010PropOp56
 70
     1
102
RTVSPost2010Prop57
140
1.0
102
RTVSPost2010PropOp57
 70
     1
  0
XRECORD
  5
393
102
{ACAD_REACTORS
330
392
102
}
330
392
100
AcDbXrecord
280
     1
102
RTVSPropertyOp0
 70
     1
102
RTVSPropertyOp1
 70
     1
102
RTVSPropertyOp2
 70
     1
102
RTVSPropertyOp3
 70
     1
102
RTVSPropertyOp4
 70
     1
102
RTVSPropertyOp5
 70
     1
102
RTVSPropertyOp6
 70
     1
102
RTVSPropertyOp7
 70
     1
102
RTVSPropertyOp8
 70
     1
102
RTVSPropertyOp9
 70
     1
102
RTVSPropertyOp10
 70
     1
102
RTVSPropertyOp11
 70
     1
102
RTVSPropertyOp12
 70
     1
102
RTVSPropertyOp13
 70
     1
102
RTVSPropertyOp14
 70
     1
102
RTVSPropertyOp15
 70
     1
102
RTVSPropertyOp16
 70
     1
102
RTVSPropertyOp17
 70
     1
102
RTVSPropertyOp18
 70
     1
102
RTVSPropertyOp19
 70
     1
102
RTVSPropertyOp20
 70
     1
102
RTVSPropertyOp21
 70
     1
102
RTVSPropertyOp22
 70
     1
102
RTVSPropertyOp23
 70
     1
102
RTVSPropertyOp24
 70
     1
102
RTVSPropertyOp25
 70
     1
102
RTVSPropertyOp26
 70
     1
102
RTVSPropertyOp27
 70
     1
102
RTVSPropertyOp28
 70
     1
102
RTVSPropertyOp29
 70
     1
102
RTVSPropertyOp30
 70
     1
102
RTVSPropertyOp31
 70
     1
102
RTVSPropertyOp32
 70
     1
102
RTVSPropertyOp33
 70
     1
102
RTVSPropertyOp34
 70
     1
102
RTVSPropertyOp35
 70
     1
102
RTVSPropertyOp36
 70
     1
102
RTVSPropertyOp37
 70
     1
102
RTVSPropertyOp38
 70
     1
102
RTVSPropertyOp39
 70
     1
102
RTVSPropertyOp40
 70
     1
102
RTVSPropertyOp41
 70
     1
102
RTVSPropertyOp42
 70
     1
102
RTVSPropertyOp43
 70
     1
102
RTVSPropertyOp44
 70
     1
102
RTVSPropertyOp45
 70
     1
102
RTVSPropertyOp46
 70
     1
102
RTVSPropertyOp47
 70
     1
102
RTVSPropertyOp48
 70
     1
102
RTVSPropertyOp49
 70
     1
102
RTVSPropertyOp50
 70
     1
102
RTVSPropertyOp51
 70
     0
102
RTVSPropertyOp52
 70
     0
102
RTVSPropertyOp53
 70
     1
102
RTVSPropertyOp54
 70
     1
102
RTVSPropertyOp55
 70
     1
102
RTVSPropertyOp56
 70
     1
102
RTVSPropertyOp57
 70
     1
102
RTVSPost2010Prop28
280
     0
102
RTVSPost2010PropOp28
 70
     1
102
RTVSPost2010Prop29
280
     1
102
RTVSPost2010PropOp29
 70
     1
102
RTVSPost2010Prop30
280
     1
102
RTVSPost2010PropOp30
 70
     1
102
RTVSPost2010Prop31
280
     0
102
RTVSPost2010PropOp31
 70
     1
102
RTVSPost2010Prop32
280
     0
102
RTVSPost2010PropOp32
 70
     1
102
RTVSPost2010Prop33
280
     0
102
RTVSPost2010PropOp33
 70
     1
102
RTVSPost2010Prop34
280
     0
102
RTVSPost2010PropOp34
 70
     1
102
RTVSPost2010Prop35
280
     0
102
RTVSPost2010PropOp35
 70
     1
102
RTVSPost2010Prop36
280
     0
102
RTVSPost2010PropOp36
 70
     1
102
RTVSPost2010Prop37
 90
       50
102
RTVSPost2010PropOp37
 70
     1
102
RTVSPost2010Prop38
140
0.0
102
RTVSPost2010PropOp38
 70
     1
102
RTVSPost2010Prop39
140
1.0
102
RTVSPost2010PropOp39
 70
     1
102
RTVSPost2010Prop40
 90
        0
102
RTVSPost2010PropOp40
 70
     1
102
RTVSPost2010Prop41ColorIndex
 90
       18
102
RTVSPost2010Prop41ColorRGB
 90
        0
102
RTVSPost2010PropOp41
 70
     1
102
RTVSPost2010Prop42
 90
       50
102
RTVSPost2010PropOp42
 70
     1
102
RTVSPost2010Prop43
 90
        3
102
RTVSPost2010PropOp43
 70
     1
102
RTVSPost2010Prop44ColorIndex
 90
        5
102
RTVSPost2010Prop44ColorRGB
 90
      255
102
RTVSPost2010PropOp44
 70
     1
102
RTVSPost2010Prop45
280
     0
102
RTVSPost2010PropOp45
 70
     1
102
RTVSPost2010Prop46
 90
       50
102
RTVSPost2010PropOp46
 70
     1
102
RTVSPost2010Prop47
 90
       50
102
RTVSPost2010PropOp47
 70
     1
102
RTVSPost2010Prop48
 90
       50
102
RTVSPost2010PropOp48
 70
     1
102
RTVSPost2010Prop49
280
     0
102
RTVSPost2010PropOp49
 70
     1
102
RTVSPost2010Prop50
 90
       50
102
RTVSPost2010PropOp50
 70
     1
102
RTVSPost2010Prop51ColorIndex
 90
      256
102
RTVSPost2010Prop51ColorRGB
 90
-16777216
102
RTVSPost2010PropOp51
 70
     0
102
RTVSPost2010Prop52
140
1.0
102
RTVSPost2010PropOp52
 70
     0
102
RTVSPost2010Prop53
 90
        2
102
RTVSPost2010PropOp53
 70
     1
102
RTVSPost2010Prop54
  1
strokes_ogs.tif
102
RTVSPost2010PropOp54
 70
     1
102
RTVSPost2010Prop55
280
     0
102
RTVSPost2010PropOp55
 70
     1
102
RTVSPost2010Prop56
140
1.0
102
RTVSPost2010PropOp56
 70
     1
102
RTVSPost2010Prop57
140
1.0
102
RTVSPost2010PropOp57
 70
     1
  0
XRECORD
  5
383
102
{ACAD_REACTORS
330
382
102
}
330
382
100
AcDbXrecord
280
     1
102
RTVSPropertyOp0
 70
     1
102
RTVSPropertyOp1
 70
     1
102
RTVSPropertyOp2
 70
     1
102
RTVSPropertyOp3
 70
     1
102
RTVSPropertyOp4
 70
     1
102
RTVSPropertyOp5
 70
     1
102
RTVSPropertyOp6
 70
     1
102
RTVSPropertyOp7
 70
     1
102
RTVSPropertyOp8
 70
     1
102
RTVSPropertyOp9
 70
     1
102
RTVSPropertyOp10
 70
     1
102
RTVSPropertyOp11
 70
     1
102
RTVSPropertyOp12
 70
     1
102
RTVSPropertyOp13
 70
     1
102
RTVSPropertyOp14
 70
     1
102
RTVSPropertyOp15
 70
     1
102
RTVSPropertyOp16
 70
     1
102
RTVSPropertyOp17
 70
     1
102
RTVSPropertyOp18
 70
     1
102
RTVSPropertyOp19
 70
     1
102
RTVSPropertyOp20
 70
     1
102
RTVSPropertyOp21
 70
     1
102
RTVSPropertyOp22
 70
     1
102
RTVSPropertyOp23
 70
     1
102
RTVSPropertyOp24
 70
     1
102
RTVSPropertyOp25
 70
     1
102
RTVSPropertyOp26
 70
     1
102
RTVSPropertyOp27
 70
     1
102
RTVSPropertyOp28
 70
     1
102
RTVSPropertyOp29
 70
     1
102
RTVSPropertyOp30
 70
     1
102
RTVSPropertyOp31
 70
     1
102
RTVSPropertyOp32
 70
     1
102
RTVSPropertyOp33
 70
     1
102
RTVSPropertyOp34
 70
     1
102
RTVSPropertyOp35
 70
     1
102
RTVSPropertyOp36
 70
     1
102
RTVSPropertyOp37
 70
     1
102
RTVSPropertyOp38
 70
     1
102
RTVSPropertyOp39
 70
     1
102
RTVSPropertyOp40
 70
     1
102
RTVSPropertyOp41
 70
     1
102
RTVSPropertyOp42
 70
     1
102
RTVSPropertyOp43
 70
     1
102
RTVSPropertyOp44
 70
     1
102
RTVSPropertyOp45
 70
     1
102
RTVSPropertyOp46
 70
     1
102
RTVSPropertyOp47
 70
     1
102
RTVSPropertyOp48
 70
     1
102
RTVSPropertyOp49
 70
     1
102
RTVSPropertyOp50
 70
     1
102
RTVSPropertyOp51
 70
     0
102
RTVSPropertyOp52
 70
     0
102
RTVSPropertyOp53
 70
     1
102
RTVSPropertyOp54
 70
     1
102
RTVSPropertyOp55
 70
     1
102
RTVSPropertyOp56
 70
     1
102
RTVSPropertyOp57
 70
     1
102
RTVSPost2010Prop28
280
     0
102
RTVSPost2010PropOp28
 70
     1
102
RTVSPost2010Prop29
280
     1
102
RTVSPost2010PropOp29
 70
     1
102
RTVSPost2010Prop30
280
     1
102
RTVSPost2010PropOp30
 70
     1
102
RTVSPost2010Prop31
280
     0
102
RTVSPost2010PropOp31
 70
     1
102
RTVSPost2010Prop32
280
     0
102
RTVSPost2010PropOp32
 70
     1
102
RTVSPost2010Prop33
280
     0
102
RTVSPost2010PropOp33
 70
     1
102
RTVSPost2010Prop34
280
     0
102
RTVSPost2010PropOp34
 70
     1
102
RTVSPost2010Prop35
280
     0
102
RTVSPost2010PropOp35
 70
     1
102
RTVSPost2010Prop36
280
     0
102
RTVSPost2010PropOp36
 70
     1
102
RTVSPost2010Prop37
 90
       50
102
RTVSPost2010PropOp37
 70
     1
102
RTVSPost2010Prop38
140
0.0
102
RTVSPost2010PropOp38
 70
     1
102
RTVSPost2010Prop39
140
1.0
102
RTVSPost2010PropOp39
 70
     1
102
RTVSPost2010Prop40
 90
        0
102
RTVSPost2010PropOp40
 70
     1
102
RTVSPost2010Prop41ColorIndex
 90
       18
102
RTVSPost2010Prop41ColorRGB
 90
        0
102
RTVSPost2010PropOp41
 70
     1
102
RTVSPost2010Prop42
 90
       50
102
RTVSPost2010PropOp42
 70
     1
102
RTVSPost2010Prop43
 90
        3
102
RTVSPost2010PropOp43
 70
     1
102
RTVSPost2010Prop44ColorIndex
 90
        5
102
RTVSPost2010Prop44ColorRGB
 90
      255
102
RTVSPost2010PropOp44
 70
     1
102
RTVSPost2010Prop45
280
     0
102
RTVSPost2010PropOp45
 70
     1
102
RTVSPost2010Prop46
 90
       50
102
RTVSPost2010PropOp46
 70
     1
102
RTVSPost2010Prop47
 90
       50
102
RTVSPost2010PropOp47
 70
     1
102
RTVSPost2010Prop48
 90
       50
102
RTVSPost2010PropOp48
 70
     1
102
RTVSPost2010Prop49
280
     0
102
RTVSPost2010PropOp49
 70
     1
102
RTVSPost2010Prop50
 90
       50
102
RTVSPost2010PropOp50
 70
     1
102
RTVSPost2010Prop51ColorIndex
 90
      256
102
RTVSPost2010Prop51ColorRGB
 90
-16777216
102
RTVSPost2010PropOp51
 70
     0
102
RTVSPost2010Prop52
140
1.0
102
RTVSPost2010PropOp52
 70
     0
102
RTVSPost2010Prop53
 90
        2
102
RTVSPost2010PropOp53
 70
     1
102
RTVSPost2010Prop54
  1
strokes_ogs.tif
102
RTVSPost2010PropOp54
 70
     1
102
RTVSPost2010Prop55
280
     0
102
RTVSPost2010PropOp55
 70
     1
102
RTVSPost2010Prop56
140
1.0
102
RTVSPost2010PropOp56
 70
     1
102
RTVSPost2010Prop57
140
1.0
102
RTVSPost2010PropOp57
 70
     1
  0
XRECORD
  5
375
102
{ACAD_REACTORS
330
374
102
}
330
374
100
AcDbXrecord
280
     1
102
RTVSPropertyOp0
 70
     1
102
RTVSPropertyOp1
 70
     1
102
RTVSPropertyOp2
 70
     1
102
RTVSPropertyOp3
 70
     1
102
RTVSPropertyOp4
 70
     1
102
RTVSPropertyOp5
 70
     1
102
RTVSPropertyOp6
 70
     1
102
RTVSPropertyOp7
 70
     1
102
RTVSPropertyOp8
 70
     1
102
RTVSPropertyOp9
 70
     1
102
RTVSPropertyOp10
 70
     1
102
RTVSPropertyOp11
 70
     1
102
RTVSPropertyOp12
 70
     1
102
RTVSPropertyOp13
 70
     1
102
RTVSPropertyOp14
 70
     1
102
RTVSPropertyOp15
 70
     1
102
RTVSPropertyOp16
 70
     1
102
RTVSPropertyOp17
 70
     1
102
RTVSPropertyOp18
 70
     1
102
RTVSPropertyOp19
 70
     1
102
RTVSPropertyOp20
 70
     1
102
RTVSPropertyOp21
 70
     1
102
RTVSPropertyOp22
 70
     1
102
RTVSPropertyOp23
 70
     1
102
RTVSPropertyOp24
 70
     1
102
RTVSPropertyOp25
 70
     1
102
RTVSPropertyOp26
 70
     1
102
RTVSPropertyOp27
 70
     1
102
RTVSPropertyOp28
 70
     1
102
RTVSPropertyOp29
 70
     1
102
RTVSPropertyOp30
 70
     1
102
RTVSPropertyOp31
 70
     1
102
RTVSPropertyOp32
 70
     1
102
RTVSPropertyOp33
 70
     1
102
RTVSPropertyOp34
 70
     1
102
RTVSPropertyOp35
 70
     1
102
RTVSPropertyOp36
 70
     1
102
RTVSPropertyOp37
 70
     1
102
RTVSPropertyOp38
 70
     1
102
RTVSPropertyOp39
 70
     1
102
RTVSPropertyOp40
 70
     1
102
RTVSPropertyOp41
 70
     1
102
RTVSPropertyOp42
 70
     1
102
RTVSPropertyOp43
 70
     1
102
RTVSPropertyOp44
 70
     1
102
RTVSPropertyOp45
 70
     1
102
RTVSPropertyOp46
 70
     1
102
RTVSPropertyOp47
 70
     1
102
RTVSPropertyOp48
 70
     1
102
RTVSPropertyOp49
 70
     1
102
RTVSPropertyOp50
 70
     1
102
RTVSPropertyOp51
 70
     0
102
RTVSPropertyOp52
 70
     0
102
RTVSPropertyOp53
 70
     1
102
RTVSPropertyOp54
 70
     1
102
RTVSPropertyOp55
 70
     1
102
RTVSPropertyOp56
 70
     1
102
RTVSPropertyOp57
 70
     1
102
RTVSPost2010Prop28
280
     0
102
RTVSPost2010PropOp28
 70
     1
102
RTVSPost2010Prop29
280
     1
102
RTVSPost2010PropOp29
 70
     1
102
RTVSPost2010Prop30
280
     1
102
RTVSPost2010PropOp30
 70
     1
102
RTVSPost2010Prop31
280
     0
102
RTVSPost2010PropOp31
 70
     1
102
RTVSPost2010Prop32
280
     0
102
RTVSPost2010PropOp32
 70
     1
102
RTVSPost2010Prop33
280
     0
102
RTVSPost2010PropOp33
 70
     1
102
RTVSPost2010Prop34
280
     0
102
RTVSPost2010PropOp34
 70
     1
102
RTVSPost2010Prop35
280
     0
102
RTVSPost2010PropOp35
 70
     1
102
RTVSPost2010Prop36
280
     0
102
RTVSPost2010PropOp36
 70
     1
102
RTVSPost2010Prop37
 90
       50
102
RTVSPost2010PropOp37
 70
     1
102
RTVSPost2010Prop38
140
0.0
102
RTVSPost2010PropOp38
 70
     1
102
RTVSPost2010Prop39
140
1.0
102
RTVSPost2010PropOp39
 70
     1
102
RTVSPost2010Prop40
 90
        0
102
RTVSPost2010PropOp40
 70
     1
102
RTVSPost2010Prop41ColorIndex
 90
       18
102
RTVSPost2010Prop41ColorRGB
 90
        0
102
RTVSPost2010PropOp41
 70
     1
102
RTVSPost2010Prop42
 90
       50
102
RTVSPost2010PropOp42
 70
     1
102
RTVSPost2010Prop43
 90
        3
102
RTVSPost2010PropOp43
 70
     1
102
RTVSPost2010Prop44ColorIndex
 90
        5
102
RTVSPost2010Prop44ColorRGB
 90
      255
102
RTVSPost2010PropOp44
 70
     1
102
RTVSPost2010Prop45
280
     0
102
RTVSPost2010PropOp45
 70
     1
102
RTVSPost2010Prop46
 90
       50
102
RTVSPost2010PropOp46
 70
     1
102
RTVSPost2010Prop47
 90
       50
102
RTVSPost2010PropOp47
 70
     1
102
RTVSPost2010Prop48
 90
       50
102
RTVSPost2010PropOp48
 70
     1
102
RTVSPost2010Prop49
280
     0
102
RTVSPost2010PropOp49
 70
     1
102
RTVSPost2010Prop50
 90
       50
102
RTVSPost2010PropOp50
 70
     1
102
RTVSPost2010Prop51ColorIndex
 90
      256
102
RTVSPost2010Prop51ColorRGB
 90
-16777216
102
RTVSPost2010PropOp51
 70
     0
102
RTVSPost2010Prop52
140
1.0
102
RTVSPost2010PropOp52
 70
     0
102
RTVSPost2010Prop53
 90
        2
102
RTVSPost2010PropOp53
 70
     1
102
RTVSPost2010Prop54
  1
strokes_ogs.tif
102
RTVSPost2010PropOp54
 70
     1
102
RTVSPost2010Prop55
280
     0
102
RTVSPost2010PropOp55
 70
     1
102
RTVSPost2010Prop56
140
1.0
102
RTVSPost2010PropOp56
 70
     1
102
RTVSPost2010Prop57
140
1.0
102
RTVSPost2010PropOp57
 70
     1
  0
XRECORD
  5
395
102
{ACAD_REACTORS
330
394
102
}
330
394
100
AcDbXrecord
280
     1
102
RTVSPropertyOp0
 70
     1
102
RTVSPropertyOp1
 70
     1
102
RTVSPropertyOp2
 70
     1
102
RTVSPropertyOp3
 70
     1
102
RTVSPropertyOp4
 70
     1
102
RTVSPropertyOp5
 70
     1
102
RTVSPropertyOp6
 70
     1
102
RTVSPropertyOp7
 70
     1
102
RTVSPropertyOp8
 70
     1
102
RTVSPropertyOp9
 70
     1
102
RTVSPropertyOp10
 70
     1
102
RTVSPropertyOp11
 70
     1
102
RTVSPropertyOp12
 70
     1
102
RTVSPropertyOp13
 70
     1
102
RTVSPropertyOp14
 70
     1
102
RTVSPropertyOp15
 70
     1
102
RTVSPropertyOp16
 70
     1
102
RTVSPropertyOp17
 70
     1
102
RTVSPropertyOp18
 70
     1
102
RTVSPropertyOp19
 70
     1
102
RTVSPropertyOp20
 70
     1
102
RTVSPropertyOp21
 70
     1
102
RTVSPropertyOp22
 70
     1
102
RTVSPropertyOp23
 70
     1
102
RTVSPropertyOp24
 70
     1
102
RTVSPropertyOp25
 70
     1
102
RTVSPropertyOp26
 70
     1
102
RTVSPropertyOp27
 70
     1
102
RTVSPropertyOp28
 70
     1
102
RTVSPropertyOp29
 70
     1
102
RTVSPropertyOp30
 70
     1
102
RTVSPropertyOp31
 70
     1
102
RTVSPropertyOp32
 70
     1
102
RTVSPropertyOp33
 70
     1
102
RTVSPropertyOp34
 70
     1
102
RTVSPropertyOp35
 70
     1
102
RTVSPropertyOp36
 70
     1
102
RTVSPropertyOp37
 70
     1
102
RTVSPropertyOp38
 70
     1
102
RTVSPropertyOp39
 70
     1
102
RTVSPropertyOp40
 70
     1
102
RTVSPropertyOp41
 70
     1
102
RTVSPropertyOp42
 70
     1
102
RTVSPropertyOp43
 70
     1
102
RTVSPropertyOp44
 70
     1
102
RTVSPropertyOp45
 70
     1
102
RTVSPropertyOp46
 70
     1
102
RTVSPropertyOp47
 70
     1
102
RTVSPropertyOp48
 70
     1
102
RTVSPropertyOp49
 70
     1
102
RTVSPropertyOp50
 70
     1
102
RTVSPropertyOp51
 70
     0
102
RTVSPropertyOp52
 70
     0
102
RTVSPropertyOp53
 70
     1
102
RTVSPropertyOp54
 70
     1
102
RTVSPropertyOp55
 70
     1
102
RTVSPropertyOp56
 70
     1
102
RTVSPropertyOp57
 70
     1
102
RTVSPost2010Prop28
280
     0
102
RTVSPost2010PropOp28
 70
     1
102
RTVSPost2010Prop29
280
     1
102
RTVSPost2010PropOp29
 70
     1
102
RTVSPost2010Prop30
280
     1
102
RTVSPost2010PropOp30
 70
     1
102
RTVSPost2010Prop31
280
     0
102
RTVSPost2010PropOp31
 70
     1
102
RTVSPost2010Prop32
280
     0
102
RTVSPost2010PropOp32
 70
     1
102
RTVSPost2010Prop33
280
     0
102
RTVSPost2010PropOp33
 70
     1
102
RTVSPost2010Prop34
280
     0
102
RTVSPost2010PropOp34
 70
     1
102
RTVSPost2010Prop35
280
     0
102
RTVSPost2010PropOp35
 70
     1
102
RTVSPost2010Prop36
280
     0
102
RTVSPost2010PropOp36
 70
     1
102
RTVSPost2010Prop37
 90
       50
102
RTVSPost2010PropOp37
 70
     1
102
RTVSPost2010Prop38
140
0.0
102
RTVSPost2010PropOp38
 70
     1
102
RTVSPost2010Prop39
140
1.0
102
RTVSPost2010PropOp39
 70
     1
102
RTVSPost2010Prop40
 90
        0
102
RTVSPost2010PropOp40
 70
     1
102
RTVSPost2010Prop41ColorIndex
 90
       18
102
RTVSPost2010Prop41ColorRGB
 90
        0
102
RTVSPost2010PropOp41
 70
     1
102
RTVSPost2010Prop42
 90
       50
102
RTVSPost2010PropOp42
 70
     1
102
RTVSPost2010Prop43
 90
        3
102
RTVSPost2010PropOp43
 70
     1
102
RTVSPost2010Prop44ColorIndex
 90
        5
102
RTVSPost2010Prop44ColorRGB
 90
      255
102
RTVSPost2010PropOp44
 70
     1
102
RTVSPost2010Prop45
280
     0
102
RTVSPost2010PropOp45
 70
     1
102
RTVSPost2010Prop46
 90
       50
102
RTVSPost2010PropOp46
 70
     1
102
RTVSPost2010Prop47
 90
       50
102
RTVSPost2010PropOp47
 70
     1
102
RTVSPost2010Prop48
 90
       50
102
RTVSPost2010PropOp48
 70
     1
102
RTVSPost2010Prop49
280
     0
102
RTVSPost2010PropOp49
 70
     1
102
RTVSPost2010Prop50
 90
       50
102
RTVSPost2010PropOp50
 70
     1
102
RTVSPost2010Prop51ColorIndex
 90
      256
102
RTVSPost2010Prop51ColorRGB
 90
-16777216
102
RTVSPost2010PropOp51
 70
     0
102
RTVSPost2010Prop52
140
1.0
102
RTVSPost2010PropOp52
 70
     0
102
RTVSPost2010Prop53
 90
        2
102
RTVSPost2010PropOp53
 70
     1
102
RTVSPost2010Prop54
  1
strokes_ogs.tif
102
RTVSPost2010PropOp54
 70
     1
102
RTVSPost2010Prop55
280
     0
102
RTVSPost2010PropOp55
 70
     1
102
RTVSPost2010Prop56
140
1.0
102
RTVSPost2010PropOp56
 70
     1
102
RTVSPost2010Prop57
140
1.0
102
RTVSPost2010PropOp57
 70
     1
  0
ENDSEC
  0
EOF
