  0
SECTION
  2
HEADER
  9
$ACADVER
  1
AC1018
  9
$ACADMAINTVER
 70
     0
  9
$DWGCODEPAGE
  3
ANSI_936
  9
$INSBASE
 10
0.0
 20
0.0
 30
0.0
  9
$EXTMIN
 10
1.000000000000000E+20
 20
1.000000000000000E+20
 30
1.000000000000000E+20
  9
$EXTMAX
 10
-1.000000000000000E+20
 20
-1.000000000000000E+20
 30
-1.000000000000000E+20
  9
$LIMMIN
 10
0.0
 20
0.0
  9
$LIMMAX
 10
12.0
 20
9.0
  9
$ORTHOMODE
 70
     0
  9
$REGENMODE
 70
     1
  9
$FILLMODE
 70
     1
  9
$QTEXTMODE
 70
     0
  9
$MIRRTEXT
 70
     1
  9
$LTSCALE
 40
1.0
  9
$ATTMODE
 70
     1
  9
$TEXTSIZE
 40
0.2
  9
$TRACEWID
 40
0.05
  9
$TEXTSTYLE
  7
Standard
  9
$CLAYER
  8
0
  9
$CELTYPE
  6
ByLayer
  9
$CECOLOR
 62
   256
  9
$CELTSCALE
 40
1.0
  9
$DISPSILH
 70
     0
  9
$DIMSCALE
 40
1.0
  9
$DIMASZ
 40
0.18
  9
$DIMEXO
 40
0.0625
  9
$DIMDLI
 40
0.38
  9
$DIMRND
 40
0.0
  9
$DIMDLE
 40
0.0
  9
$DIMEXE
 40
0.18
  9
$DIMTP
 40
0.0
  9
$DIMTM
 40
0.0
  9
$DIMTXT
 40
0.18
  9
$DIMCEN
 40
0.09
  9
$DIMTSZ
 40
0.0
  9
$DIMTOL
 70
     0
  9
$DIMLIM
 70
     0
  9
$DIMTIH
 70
     1
  9
$DIMTOH
 70
     1
  9
$DIMSE1
 70
     0
  9
$DIMSE2
 70
     0
  9
$DIMTAD
 70
     0
  9
$DIMZIN
 70
     0
  9
$DIMBLK
  1

  9
$DIMASO
 70
     1
  9
$DIMSHO
 70
     1
  9
$DIMPOST
  1

  9
$DIMAPOST
  1

  9
$DIMALT
 70
     0
  9
$DIMALTD
 70
     2
  9
$DIMALTF
 40
25.4
  9
$DIMLFAC
 40
1.0
  9
$DIMTOFL
 70
     0
  9
$DIMTVP
 40
0.0
  9
$DIMTIX
 70
     0
  9
$DIMSOXD
 70
     0
  9
$DIMSAH
 70
     0
  9
$DIMBLK1
  1

  9
$DIMBLK2
  1

  9
$DIMSTYLE
  2
STANDARD_ACAD
  9
$DIMCLRD
 70
     0
  9
$DIMCLRE
 70
     0
  9
$DIMCLRT
 70
     0
  9
$DIMTFAC
 40
1.0
  9
$DIMGAP
 40
0.09
  9
$DIMJUST
 70
     0
  9
$DIMSD1
 70
     0
  9
$DIMSD2
 70
     0
  9
$DIMTOLJ
 70
     1
  9
$DIMTZIN
 70
     0
  9
$DIMALTZ
 70
     0
  9
$DIMALTTZ
 70
     0
  9
$DIMUPT
 70
     0
  9
$DIMDEC
 70
     4
  9
$DIMTDEC
 70
     4
  9
$DIMALTU
 70
     2
  9
$DIMALTTD
 70
     2
  9
$DIMTXSTY
  7
Standard
  9
$DIMAUNIT
 70
     0
  9
$DIMADEC
 70
     0
  9
$DIMALTRND
 40
0.0
  9
$DIMAZIN
 70
     0
  9
$DIMDSEP
 70
    46
  9
$DIMATFIT
 70
     3
  9
$DIMFRAC
 70
     0
  9
$DIMLDRBLK
  1

  9
$DIMLUNIT
 70
     2
  9
$DIMLWD
 70
    -2
  9
$DIMLWE
 70
    -2
  9
$DIMTMOVE
 70
     2
  9
$LUNITS
 70
     2
  9
$LUPREC
 70
     3
  9
$SKETCHINC
 40
0.1
  9
$FILLETRAD
 40
0.5
  9
$AUNITS
 70
     0
  9
$AUPREC
 70
     0
  9
$MENU
  1
.
  9
$ELEVATION
 40
0.0
  9
$PELEVATION
 40
0.0
  9
$THICKNESS
 40
0.0
  9
$LIMCHECK
 70
     0
  9
$CHAMFERA
 40
0.0
  9
$CHAMFERB
 40
0.0
  9
$CHAMFERC
 40
0.0
  9
$CHAMFERD
 40
0.0
  9
$SKPOLY
 70
     0
  9
$TDCREATE
 40
2458580.763576667
  9
$TDUCREATE
 40
2458580.430243333
  9
$TDUPDATE
 40
2458580.763576713
  9
$TDUUPDATE
 40
2458580.430243379
  9
$TDINDWG
 40
0.0000000116
  9
$TDUSRTIMER
 40
0.0000000116
  9
$USRTIMER
 70
     1
  9
$ANGBASE
 50
0.0
  9
$ANGDIR
 70
     0
  9
$PDMODE
 70
     0
  9
$PDSIZE
 40
0.0
  9
$PLINEWID
 40
0.0
  9
$SPLFRAME
 70
     0
  9
$SPLINETYPE
 70
     6
  9
$SPLINESEGS
 70
     8
  9
$HANDSEED
  5
27E
  9
$SURFTAB1
 70
     6
  9
$SURFTAB2
 70
     6
  9
$SURFTYPE
 70
     6
  9
$SURFU
 70
     6
  9
$SURFV
 70
     6
  9
$UCSBASE
  2

  9
$UCSNAME
  2

  9
$UCSORG
 10
0.0
 20
0.0
 30
0.0
  9
$UCSXDIR
 10
1.0
 20
0.0
 30
0.0
  9
$UCSYDIR
 10
0.0
 20
1.0
 30
0.0
  9
$UCSORTHOREF
  2

  9
$UCSORTHOVIEW
 70
     0
  9
$UCSORGTOP
 10
0.0
 20
0.0
 30
0.0
  9
$UCSORGBOTTOM
 10
0.0
 20
0.0
 30
0.0
  9
$UCSORGLEFT
 10
0.0
 20
0.0
 30
0.0
  9
$UCSORGRIGHT
 10
0.0
 20
0.0
 30
0.0
  9
$UCSORGFRONT
 10
0.0
 20
0.0
 30
0.0
  9
$UCSORGBACK
 10
0.0
 20
0.0
 30
0.0
  9
$PUCSBASE
  2

  9
$PUCSNAME
  2

  9
$PUCSORG
 10
0.0
 20
0.0
 30
0.0
  9
$PUCSXDIR
 10
1.0
 20
0.0
 30
0.0
  9
$PUCSYDIR
 10
0.0
 20
1.0
 30
0.0
  9
$PUCSORTHOREF
  2

  9
$PUCSORTHOVIEW
 70
     0
  9
$PUCSORGTOP
 10
0.0
 20
0.0
 30
0.0
  9
$PUCSORGBOTTOM
 10
0.0
 20
0.0
 30
0.0
  9
$PUCSORGLEFT
 10
0.0
 20
0.0
 30
0.0
  9
$PUCSORGRIGHT
 10
0.0
 20
0.0
 30
0.0
  9
$PUCSORGFRONT
 10
0.0
 20
0.0
 30
0.0
  9
$PUCSORGBACK
 10
0.0
 20
0.0
 30
0.0
  9
$USERI1
 70
     0
  9
$USERI2
 70
     0
  9
$USERI3
 70
     0
  9
$USERI4
 70
     0
  9
$USERI5
 70
     0
  9
$USERR1
 40
0.0
  9
$USERR2
 40
0.0
  9
$USERR3
 40
0.0
  9
$USERR4
 40
0.0
  9
$USERR5
 40
0.0
  9
$WORLDVIEW
 70
     1
  9
$SHADEDGE
 70
     3
  9
$SHADEDIF
 70
    70
  9
$TILEMODE
 70
     1
  9
$MAXACTVP
 70
    64
  9
$PINSBASE
 10
0.0
 20
0.0
 30
0.0
  9
$PLIMCHECK
 70
     0
  9
$PEXTMIN
 10
1.000000000000000E+20
 20
1.000000000000000E+20
 30
1.000000000000000E+20
  9
$PEXTMAX
 10
-1.000000000000000E+20
 20
-1.000000000000000E+20
 30
-1.000000000000000E+20
  9
$PLIMMIN
 10
0.0
 20
0.0
  9
$PLIMMAX
 10
12.0
 20
9.0
  9
$UNITMODE
 70
     0
  9
$VISRETAIN
 70
     1
  9
$PLINEGEN
 70
     0
  9
$PSLTSCALE
 70
     1
  9
$TREEDEPTH
 70
  3020
  9
$CMLSTYLE
  2
Standard
  9
$CMLJUST
 70
     0
  9
$CMLSCALE
 40
1.0
  9
$PROXYGRAPHICS
 70
     1
  9
$MEASUREMENT
 70
     0
  9
$CELWEIGHT
370
    -1
  9
$ENDCAPS
280
     0
  9
$JOINSTYLE
280
     0
  9
$LWDISPLAY
290
     0
  9
$INSUNITS
 70
     4
  9
$HYPERLINKBASE
  1

  9
$STYLESHEET
  1

  9
$XEDIT
290
     1
  9
$CEPSNTYPE
380
     0
  9
$PSTYLEMODE
290
     1
  9
$FINGERPRINTGUID
  2
{b1e54173-d2fa-458d-ac41-e2bc6d09ac61}
  9
$VERSIONGUID
  2
{FAEB1C32-E019-11D5-929B-00C0DF256EC4}
  9
$EXTNAMES
290
     1
  9
$PSVPSCALE
 40
0.0
  9
$OLESTARTUP
290
     0
  9
$SORTENTS
280
   127
  9
$INDEXCTL
280
     0
  9
$HIDETEXT
280
     1
  9
$XCLIPFRAME
290
     0
  9
$HALOGAP
280
     0
  9
$OBSCOLOR
 70
   257
  9
$OBSLTYPE
280
     0
  9
$INTERSECTIONDISPLAY
280
     0
  9
$INTERSECTIONCOLOR
 70
   257
  9
$DIMASSOC
280
     2
  9
$PROJECTNAME
  1

  0
ENDSEC
  0
SECTION
  2
CLASSES
  0
CLASS
  1
ACDBDICTIONARYWDFLT
  2
AcDbDictionaryWithDefault
  3
ObjectDBX Classes
 90
        0
 91
        3
280
     0
281
     0
  0
CLASS
  1
VISUALSTYLE
  2
AcDbVisualStyle
  3
ObjectDBX Classes
 90
     4095
 91
        3
280
     0
281
     0
  0
CLASS
  1
MATERIAL
  2
AcDbMaterial
  3
ObjectDBX Classes
 90
     1153
 91
        3
280
     0
281
     0
  0
CLASS
  1
SCALE
  2
AcDbScale
  3
ObjectDBX Classes
 90
     1153
 91
        3
280
     0
281
     0
  0
CLASS
  1
TABLESTYLE
  2
AcDbTableStyle
  3
ObjectDBX Classes
 90
     4095
 91
        3
280
     0
281
     0
  0
CLASS
  1
MLEADERSTYLE
  2
AcDbMLeaderStyle
  3
ACDB_MLEADERSTYLE_CLASS
 90
     4095
 91
        3
280
     0
281
     0
  0
CLASS
  1
SUN
  2
AcDbSun
  3
SCENEOE
 90
     1153
 91
        3
280
     0
281
     0
  0
CLASS
  1
DICTIONARYVAR
  2
AcDbDictionaryVar
  3
ObjectDBX Classes
 90
        0
 91
        3
280
     0
281
     0
  0
CLASS
  1
CELLSTYLEMAP
  2
AcDbCellStyleMap
  3
ObjectDBX Classes
 90
     1152
 91
        3
280
     0
281
     0
  0
ENDSEC
  0
SECTION
  2
TABLES
  0
TABLE
  2
VPORT
  5
8
102
{ACAD_XDICTIONARY
360
237
102
}
330
0
100
AcDbSymbolTable
 70
     1
  0
VPORT
  5
29
330
8
100
AcDbSymbolTableRecord
100
AcDbViewportTableRecord
  2
*Active
 70
     0
 10
0.0
 20
0.0
 11
1.0
 21
1.0
 12
10.42990654205607
 22
4.5
 13
0.0
 23
0.0
 14
0.5
 24
0.5
 15
0.5
 25
0.5
 16
0.0
 26
0.0
 36
1.0
 17
0.0
 27
0.0
 37
0.0
 40
9.0
 41
1.972972972850329
 42
50.0
 43
0.0
 44
0.0
 50
0.0
 51
0.0
 71
     0
 72
   100
 73
     1
 74
     3
 75
     0
 76
     0
 77
     0
 78
     0
281
     0
 65
     1
110
0.0
120
0.0
130
0.0
111
1.0
121
0.0
131
0.0
112
0.0
122
1.0
132
0.0
 79
     0
146
0.0
  0
ENDTAB
  0
TABLE
  2
LTYPE
  5
5
330
0
100
AcDbSymbolTable
 70
     1
  0
LTYPE
  5
14
330
5
100
AcDbSymbolTableRecord
100
AcDbLinetypeTableRecord
  2
ByBlock
 70
     0
  3

 72
    65
 73
     0
 40
0.0
  0
LTYPE
  5
15
330
5
100
AcDbSymbolTableRecord
100
AcDbLinetypeTableRecord
  2
ByLayer
 70
     0
  3

 72
    65
 73
     0
 40
0.0
  0
LTYPE
  5
16
330
5
100
AcDbSymbolTableRecord
100
AcDbLinetypeTableRecord
  2
Continuous
 70
     0
  3
Solid line
 72
    65
 73
     0
 40
0.0
  0
ENDTAB
  0
TABLE
  2
LAYER
  5
2
330
0
100
AcDbSymbolTable
 70
     2
  0
LAYER
  5
10
330
2
100
AcDbSymbolTableRecord
100
AcDbLayerTableRecord
  2
0
 70
     0
 62
     7
  6
Continuous
370
    -3
390
F
  0
LAYER
  5
6E
330
2
100
AcDbSymbolTableRecord
100
AcDbLayerTableRecord
  2
Make2D$Visible$Curves
 70
     0
 62
    18
420
        0
  6
Continuous
370
    -3
390
F
  0
ENDTAB
  0
TABLE
  2
STYLE
  5
3
330
0
100
AcDbSymbolTable
 70
     1
  0
STYLE
  5
11
330
3
100
AcDbSymbolTableRecord
100
AcDbTextStyleTableRecord
  2
Standard
 70
     0
 40
0.0
 41
1.0
 50
0.0
 71
     0
 42
0.2
  3
txt
  4

  0
ENDTAB
  0
TABLE
  2
VIEW
  5
6
330
0
100
AcDbSymbolTable
 70
     0
  0
ENDTAB
  0
TABLE
  2
UCS
  5
7
330
0
100
AcDbSymbolTable
 70
     0
  0
ENDTAB
  0
TABLE
  2
APPID
  5
9
330
0
100
AcDbSymbolTable
 70
     2
  0
APPID
  5
12
330
9
100
AcDbSymbolTableRecord
100
AcDbRegAppTableRecord
  2
ACAD
 70
     0
  0
APPID
  5
276
330
9
100
AcDbSymbolTableRecord
100
AcDbRegAppTableRecord
  2
ACAD_MLEADERVER
 70
     0
  0
ENDTAB
  0
TABLE
  2
DIMSTYLE
  5
A
330
0
100
AcDbSymbolTable
 70
     1
100
AcDbDimStyleTable
  0
DIMSTYLE
105
27
330
A
100
AcDbSymbolTableRecord
100
AcDbDimStyleTableRecord
  2
STANDARD_ACAD
 70
     0
178
     0
340
11
  0
ENDTAB
  0
TABLE
  2
BLOCK_RECORD
  5
1
330
0
100
AcDbSymbolTable
 70
     1
  0
BLOCK_RECORD
  5
1F
330
1
100
AcDbSymbolTableRecord
100
AcDbBlockTableRecord
  2
*Model_Space
340
22
  0
BLOCK_RECORD
  5
1B
330
1
100
AcDbSymbolTableRecord
100
AcDbBlockTableRecord
  2
*Paper_Space
340
1E
  0
BLOCK_RECORD
  5
23
330
1
100
AcDbSymbolTableRecord
100
AcDbBlockTableRecord
  2
*Paper_Space0
340
26
  0
ENDTAB
  0
ENDSEC
  0
SECTION
  2
BLOCKS
  0
BLOCK
  5
20
330
1F
100
AcDbEntity
  8
0
100
AcDbBlockBegin
  2
*Model_Space
 70
     0
 10
0.0
 20
0.0
 30
0.0
  3
*Model_Space
  1

  0
ENDBLK
  5
21
330
1F
100
AcDbEntity
  8
0
100
AcDbBlockEnd
  0
BLOCK
  5
1C
330
1B
100
AcDbEntity
 67
     1
  8
0
100
AcDbBlockBegin
  2
*Paper_Space
 70
     0
 10
0.0
 20
0.0
 30
0.0
  3
*Paper_Space
  1

  0
ENDBLK
  5
1D
330
1B
100
AcDbEntity
 67
     1
  8
0
100
AcDbBlockEnd
  0
BLOCK
  5
24
330
23
100
AcDbEntity
  8
0
100
AcDbBlockBegin
  2
*Paper_Space0
 70
     0
 10
0.0
 20
0.0
 30
0.0
  3
*Paper_Space0
  1

  0
ENDBLK
  5
25
330
23
100
AcDbEntity
  8
0
100
AcDbBlockEnd
  0
ENDSEC
  0
SECTION
  2
ENTITIES
  0
LINE
  5
6F
330
1F
100
AcDbEntity
  8
Make2D$Visible$Curves
 62
    18
420
        0
370
    -3
100
AcDbLine
 10
452.9755212289901
 20
493.9025071158677
 30
0.0
 11
444.0208626991971
 21
493.9025071148491
 31
0.0
  0
LINE
  5
70
330
1F
100
AcDbEntity
  8
Make2D$Visible$Curves
 62
    18
420
        0
370
    -3
100
AcDbLine
 10
528.7916604159327
 20
573.9025071182714
 30
0.0
 11
537.7591659074583
 21
573.9025071189641
 31
0.0
  0
LINE
  5
71
330
1F
100
AcDbEntity
  8
Make2D$Visible$Curves
 62
    18
420
        0
370
    -3
100
AcDbLine
 10
493.9971135981605
 20
493.9025071235367
 30
0.0
 11
484.3973144280901
 21
493.9025071159831
 31
0.0
  0
LINE
  5
72
330
1F
100
AcDbEntity
  8
Make2D$Visible$Curves
 62
    18
420
        0
370
    -3
100
AcDbLine
 10
527.6610170022036
 20
493.9025071168087
 30
0.0
 11
510.2235336955796
 21
493.9025071168087
 31
0.0
  0
LINE
  5
73
330
1F
100
AcDbEntity
  8
Make2D$Visible$Curves
 62
    18
420
        0
370
    -3
100
AcDbLine
 10
549.9110336955796
 20
493.9025071168087
 30
0.0
 11
534.9858200203662
 21
493.9025071168086
 31
0.0
  0
LINE
  5
74
330
1F
100
AcDbEntity
  8
Make2D$Visible$Curves
 62
    18
420
        0
370
    -3
100
AcDbLine
 10
569.5851789947251
 20
493.9025071168087
 30
0.0
 11
554.6599653195112
 21
493.9025071168086
 31
0.0
  0
LINE
  5
75
330
1F
100
AcDbEntity
  8
Make2D$Visible$Curves
 62
    18
420
        0
370
    -3
100
AcDbLine
 10
497.3883592368745
 20
573.9025071190842
 30
0.0
 11
511.587731384016
 21
573.9025071168087
 31
0.0
  0
LINE
  5
76
330
1F
100
AcDbEntity
  8
Make2D$Visible$Curves
 62
    18
420
        0
370
    -3
100
AcDbLine
 10
513.9621971959818
 20
573.9025071168087
 30
0.0
 11
528.7916604159327
 21
573.9025071182714
 31
0.0
  0
LINE
  5
77
330
1F
100
AcDbEntity
  8
Make2D$Visible$Curves
 62
    18
420
        0
370
    -3
100
AcDbLine
 10
537.7591659074583
 20
573.9025071198106
 30
0.0
 11
565.1754567725029
 21
573.9025071168087
 31
0.0
  0
LINE
  5
78
330
1F
100
AcDbEntity
  8
Make2D$Visible$Curves
 62
    18
420
        0
370
    -3
100
AcDbLine
 10
528.2016319861777
 20
493.9025071168087
 30
0.0
 11
534.9858200203662
 21
493.9025071168087
 31
0.0
  0
LINE
  5
79
330
1F
100
AcDbEntity
  8
Make2D$Visible$Curves
 62
    18
420
        0
370
    -3
100
AcDbLine
 10
493.9971135981605
 20
493.9025071235367
 30
0.0
 11
507.8490678836138
 21
493.9025071168087
 31
0.0
  0
LINE
  5
7A
330
1F
100
AcDbEntity
  8
Make2D$Visible$Curves
 62
    18
420
        0
370
    -3
100
AcDbLine
 10
470.1968242938701
 20
493.9025071168087
 30
0.0
 11
484.3973144280901
 21
493.902507114533
 31
0.0
  0
LINE
  5
7B
330
1F
100
AcDbEntity
  8
Make2D$Visible$Curves
 62
    18
420
        0
370
    -3
100
AcDbLine
 10
452.9755212289901
 20
493.9025071158677
 30
0.0
 11
467.8223584819045
 21
493.9025071168087
 31
0.0
  0
LINE
  5
7C
330
1F
100
AcDbEntity
  8
Make2D$Visible$Curves
 62
    18
420
        0
370
    -3
100
AcDbLine
 10
416.6017388237847
 20
493.9025071168087
 30
0.0
 11
444.0208626991971
 21
493.9025071140019
 31
0.0
  0
LINE
  5
7D
330
1F
100
AcDbEntity
  8
Make2D$Visible$Curves
 62
    18
420
        0
370
    -3
100
AcDbLine
 10
400.9420166015625
 20
493.9025071168087
 30
0.0
 11
414.2272730118189
 21
493.9025071168087
 31
0.0
  0
LINE
  5
7E
330
1F
100
AcDbEntity
  8
Make2D$Visible$Curves
 62
    18
420
        0
370
    -3
100
AcDbLine
 10
567.5499225844687
 20
573.9025071168087
 30
0.0
 11
570.9420166015625
 21
573.9025071168087
 31
0.0
  0
LINE
  5
7F
330
1F
100
AcDbEntity
  8
Make2D$Visible$Curves
 62
    18
420
        0
370
    -3
100
AcDbLine
 10
487.7885600668037
 20
573.9025071100806
 30
0.0
 11
497.3883592368745
 21
573.9025071176342
 31
0.0
  0
LINE
  5
80
330
1F
100
AcDbEntity
  8
Make2D$Visible$Curves
 62
    18
420
        0
370
    -3
100
AcDbLine
 10
473.9409845640739
 20
573.9025071168087
 30
0.0
 11
487.7885600668037
 21
573.9025071100806
 31
0.0
  0
LINE
  5
81
330
1F
100
AcDbEntity
  8
Make2D$Visible$Curves
 62
    18
420
        0
370
    -3
100
AcDbLine
 10
454.1290354454841
 20
573.9025071168087
 30
0.0
 11
471.5665187521081
 21
573.9025071168087
 31
0.0
  0
LINE
  5
82
330
1F
100
AcDbEntity
  8
Make2D$Visible$Curves
 62
    18
420
        0
370
    -3
100
AcDbLine
 10
446.807959050916
 20
573.9025071168087
 30
0.0
 11
453.5884204615097
 21
573.9025071168087
 31
0.0
  0
LINE
  5
83
330
1F
100
AcDbEntity
  8
Make2D$Visible$Curves
 62
    18
420
        0
370
    -3
100
AcDbLine
 10
431.8827453757021
 20
573.9025071168087
 30
0.0
 11
446.807959050916
 21
573.9025071168087
 31
0.0
  0
LINE
  5
84
330
1F
100
AcDbEntity
  8
Make2D$Visible$Curves
 62
    18
420
        0
370
    -3
100
AcDbLine
 10
412.2113018786627
 20
573.9025071168087
 30
0.0
 11
427.1365155538765
 21
573.9025071168087
 31
0.0
  0
LINE
  5
85
330
1F
100
AcDbEntity
  8
Make2D$Visible$Curves
 62
    18
420
        0
370
    -3
100
AcDbLine
 10
416.6017388237847
 20
508.8277207920223
 30
0.0
 11
416.6017388237847
 21
517.6471652364668
 31
0.0
  0
LINE
  5
86
330
1F
100
AcDbEntity
  8
Make2D$Visible$Curves
 62
    18
420
        0
370
    -3
100
AcDbLine
 10
421.2340672158789
 20
508.7694191761035
 30
0.0
 11
416.6017388237847
 21
508.8277207920223
 31
0.0
  0
SPLINE
  5
87
330
1F
100
AcDbEntity
  8
Make2D$Visible$Curves
 62
    18
420
        0
370
    -3
100
AcDbSpline
210
0.0
220
0.0
230
1.0
 70
     8
 71
     3
 72
    23
 73
    19
 74
     0
 42
0.000000001
 43
0.0000000001
 40
-1.0
 40
-1.0
 40
-1.0
 40
-1.0
 40
-0.9295377253736503
 40
-0.8616100315349609
 40
-0.7934109797841586
 40
-0.7243019277193715
 40
-0.6549956230439079
 40
-0.5864091069189453
 40
-0.5165994550425494
 40
-0.4443189648693388
 40
-0.4048898764882258
 40
-0.3617272313157957
 40
-0.3132640246592708
 40
-0.2606047435747227
 40
-0.2025187514244029
 40
-0.1400497848722063
 40
-0.0725466358671724
 40
0.0
 40
0.0
 40
0.0
 40
0.0
 10
428.1348584819043
 20
513.2533434549497
 30
0.0
 10
428.1257235068415
 20
513.0335079036578
 30
0.0
 10
428.1077821486101
 20
512.6017444504894
 30
0.0
 10
427.9641253435657
 20
511.9703841263362
 30
0.0
 10
427.7308248645656
 20
511.3721900992271
 30
0.0
 10
427.4001180282116
 20
510.8160245516342
 30
0.0
 10
426.9914262731054
 20
510.3147319105635
 30
0.0
 10
426.5182743694684
 20
509.8676327912204
 30
0.0
 10
425.9556183051304
 20
509.5225030315509
 30
0.0
 10
425.4405653273686
 20
509.285418271225
 30
0.0
 10
424.9823465719194
 20
509.1312270923564
 30
0.0
 10
424.5840015717374
 20
509.038938597873
 30
0.0
 10
424.142233652406
 20
508.9540490016476
 30
0.0
 10
423.6504354587955
 20
508.8857878280566
 30
0.0
 10
423.1128549256857
 20
508.8337135190061
 30
0.0
 10
422.5276057869687
 20
508.7992829021449
 30
0.0
 10
421.896888824936
 20
508.7690541941482
 30
0.0
 10
421.4602491889805
 20
508.7692946292607
 30
0.0
 10
421.2340672158789
 20
508.7694191761035
 30
0.0
  0
SPLINE
  5
88
330
1F
100
AcDbEntity
  8
Make2D$Visible$Curves
 62
    18
420
        0
370
    -3
100
AcDbSpline
210
0.0
220
0.0
230
1.0
 70
     8
 71
     3
 72
    23
 73
    19
 74
     0
 42
0.000000001
 43
0.0000000001
 40
-1.0
 40
-1.0
 40
-1.0
 40
-1.0
 40
-0.9266681484102283
 40
-0.8585366487549836
 40
-0.7961316210116778
 40
-0.7382223685571462
 40
-0.6859574095254516
 40
-0.6381180465595571
 40
-0.5954902100367271
 40
-0.5575765146860606
 40
-0.4875402944044496
 40
-0.4182943975547195
 40
-0.3499370785383945
 40
-0.2791337038703995
 40
-0.2081678701726041
 40
-0.1392185309890248
 40
-0.0700338021960794
 40
0.0
 40
0.0
 40
0.0
 40
0.0
 10
421.4407729450454
 20
517.6471652364668
 30
0.0
 10
421.6633960633276
 20
517.6466149494601
 30
0.0
 10
422.0928549095731
 20
517.6455533992275
 30
0.0
 10
422.7114921986345
 20
517.6244524052589
 30
0.0
 10
423.2824791703474
 20
517.5880152354667
 30
0.0
 10
423.8039143839549
 20
517.5355452376953
 30
0.0
 10
424.2791119561425
 20
517.4705427272222
 30
0.0
 10
424.7074685542304
 20
517.4026106650239
 30
0.0
 10
425.084914140336
 20
517.3040968556122
 30
0.0
 10
425.5216153121964
 20
517.1677009290908
 30
0.0
 10
426.0092838458436
 20
516.9347305571337
 30
0.0
 10
426.5379353814303
 20
516.5871707263508
 30
0.0
 10
427.0010554666947
 20
516.1519179213018
 30
0.0
 10
427.3998289064111
 20
515.6517283275851
 30
0.0
 10
427.7283196502444
 20
515.1000416610115
 30
0.0
 10
427.9653108550688
 20
514.5086286884327
 30
0.0
 10
428.1063389021419
 20
513.888905229296
 30
0.0
 10
428.1253133811288
 20
513.4660570094915
 30
0.0
 10
428.1348584819043
 20
513.2533434549497
 30
0.0
  0
LINE
  5
89
330
1F
100
AcDbEntity
  8
Make2D$Visible$Curves
 62
    18
420
        0
370
    -3
100
AcDbLine
 10
416.6017388237847
 20
517.6471652364668
 30
0.0
 11
421.4407729450454
 21
517.6471652364668
 31
0.0
  0
SPLINE
  5
8A
330
1F
100
AcDbEntity
  8
Make2D$Visible$Curves
 62
    18
420
        0
370
    -3
100
AcDbSpline
210
0.0
220
0.0
230
1.0
 70
     8
 71
     3
 72
    15
 73
    11
 74
     0
 42
0.000000001
 43
0.0000000001
 40
0.0
 40
0.0
 40
0.0
 40
0.0
 40
0.0751715905611812
 40
0.1647429114078659
 40
0.2680114373901289
 40
0.3859639562109172
 40
0.5177992732835657
 40
0.6636978076578757
 40
0.8244167868186478
 40
1.0
 40
1.0
 40
1.0
 40
1.0
 10
425.2303779797676
 20
506.5486576242873
 30
0.0
 10
425.064615888989
 20
506.513433978469
 30
0.0
 10
424.7013386291617
 20
506.4362393106539
 30
0.0
 10
424.1030948494408
 20
506.3494746656912
 30
0.0
 10
423.4062078829693
 20
506.2783181765967
 30
0.0
 10
422.6130488484359
 20
506.2119143712838
 30
0.0
 10
421.7217681162904
 20
506.176728656255
 30
0.0
 10
420.7344098581016
 20
506.1354148874477
 30
0.0
 10
419.6476325208514
 20
506.1159211774676
 30
0.0
 10
418.8896392109323
 20
506.1146889327321
 30
0.0
 10
418.4938912676951
 20
506.1140455783471
 30
0.0
  0
SPLINE
  5
8B
330
1F
100
AcDbEntity
  8
Make2D$Visible$Curves
 62
    18
420
        0
370
    -3
100
AcDbSpline
210
0.0
220
0.0
230
1.0
 70
     8
 71
     3
 72
    23
 73
    19
 74
     0
 42
0.000000001
 43
0.0000000001
 40
0.0
 40
0.0
 40
0.0
 40
0.0
 40
0.0701188944197145
 40
0.1371923527859707
 40
0.2020161807247509
 40
0.2646314069747427
 40
0.3261165471458178
 40
0.386010304667641
 40
0.4458118469576798
 40
0.5052976967309604
 40
0.5646332777264886
 40
0.6242826253338402
 40
0.6839020319037513
 40
0.7439527709382701
 40
0.8053877310076346
 40
0.8683880308962799
 40
0.9330840282524772
 40
1.0
 40
1.0
 40
1.0
 40
1.0
 10
430.5093242938701
 20
513.2639437487531
 30
0.0
 10
430.5061385235977
 20
513.046397459943
 30
0.0
 10
430.4999053488916
 20
512.6207534527362
 30
0.0
 10
430.4250941443224
 20
511.9980543991669
 30
0.0
 10
430.3243242433953
 20
511.4029808547197
 30
0.0
 10
430.1693762883028
 20
510.8368522708139
 30
0.0
 10
429.9664357833326
 20
510.3030306726123
 30
0.0
 10
429.7283708600348
 20
509.7933582638841
 30
0.0
 10
429.4412334578346
 20
509.3165059822697
 30
0.0
 10
429.1112993284755
 20
508.8707426532346
 30
0.0
 10
428.7442723946722
 20
508.4556498637168
 30
0.0
 10
428.3417055408208
 20
508.0742356434446
 30
0.0
 10
427.90522398442
 20
507.7287326089408
 30
0.0
 10
427.4362148888429
 20
507.418366201357
 30
0.0
 10
426.9301059125191
 20
507.1503336122971
 30
0.0
 10
426.3945729658815
 20
506.9102635095862
 30
0.0
 10
425.824961210787
 20
506.7086429916643
 30
0.0
 10
425.430788634902
 20
506.6025824082624
 30
0.0
 10
425.2303779797676
 20
506.5486576242873
 30
0.0
  0
SPLINE
  5
8C
330
1F
100
AcDbEntity
  8
Make2D$Visible$Curves
 62
    18
420
        0
370
    -3
100
AcDbSpline
210
0.0
220
0.0
230
1.0
 70
     8
 71
     3
 72
    23
 73
    19
 74
     0
 42
0.000000001
 43
0.0000000001
 40
0.0
 40
0.0
 40
0.0
 40
0.0
 40
0.0624718514428974
 40
0.1234716318564938
 40
0.1833832449898873
 40
0.2431163005141077
 40
0.3020808603235955
 40
0.3612864676158197
 40
0.4214099579157638
 40
0.4824902917959343
 40
0.5441012883206997
 40
0.6057205401879422
 40
0.6671855095049088
 40
0.7300253868203679
 40
0.7945821167592376
 40
0.8603668248909617
 40
0.9289181510021453
 40
1.0
 40
1.0
 40
1.0
 40
1.0
 10
425.4423838558359
 20
519.9633294325138
 30
0.0
 10
425.6252738553942
 20
519.913268686465
 30
0.0
 10
425.9867442804596
 20
519.8143268132238
 30
0.0
 10
426.507626437409
 20
519.6161918873864
 30
0.0
 10
427.0030966096651
 20
519.3811203104434
 30
0.0
 10
427.475366219981
 20
519.1137211351563
 30
0.0
 10
427.9158336235987
 20
518.8008317402405
 30
0.0
 10
428.3391820469587
 20
518.4632673297178
 30
0.0
 10
428.7304673175972
 20
518.0792130558932
 30
0.0
 10
429.0949893451539
 20
517.6607821085398
 30
0.0
 10
429.4319069426431
 20
517.2132814874822
 30
0.0
 10
429.7149786448581
 20
516.728580678716
 30
0.0
 10
429.9624877245853
 20
516.2211506367256
 30
0.0
 10
430.1651359684588
 20
515.6840949665735
 30
0.0
 10
430.3158336220702
 20
515.1168922604118
 30
0.0
 10
430.4277114470678
 20
514.523573414253
 30
0.0
 10
430.4990488790745
 20
513.9034712706202
 30
0.0
 10
430.5058580223692
 20
513.4796796647468
 30
0.0
 10
430.5093242938701
 20
513.2639437487531
 30
0.0
  0
SPLINE
  5
8D
330
1F
100
AcDbEntity
  8
Make2D$Visible$Curves
 62
    18
420
        0
370
    -3
100
AcDbSpline
210
0.0
220
0.0
230
1.0
 70
     8
 71
     3
 72
    15
 73
    11
 74
     0
 42
0.000000001
 43
0.0000000001
 40
0.0
 40
0.0
 40
0.0
 40
0.0
 40
0.1769557521312508
 40
0.3390550796425808
 40
0.4863182249420772
 40
0.6187809228353777
 40
0.735618827767381
 40
0.8387424767201106
 40
0.9264570678763171
 40
1.0
 40
1.0
 40
1.0
 40
1.0
 10
419.4161168285925
 20
520.360840450142
 30
0.0
 10
419.7730087977152
 20
520.3604481392737
 30
0.0
 10
420.4568296600341
 20
520.3596964542277
 30
0.0
 10
421.437413712119
 20
520.336906411379
 30
0.0
 10
422.3279991833419
 20
520.3064665366302
 30
0.0
 10
423.1266657534429
 20
520.2642700821345
 30
0.0
 10
423.8358707806451
 20
520.2144030010968
 30
0.0
 10
424.4524051284077
 20
520.1444619891365
 30
0.0
 10
424.9811148697408
 20
520.0714347548941
 30
0.0
 10
425.2979076721044
 20
519.9971895984677
 30
0.0
 10
425.4423838558359
 20
519.9633294325138
 30
0.0
  0
SPLINE
  5
8E
330
1F
100
AcDbEntity
  8
Make2D$Visible$Curves
 62
    18
420
        0
370
    -3
100
AcDbSpline
210
0.0
220
0.0
230
1.0
 70
     8
 71
     3
 72
    31
 73
    27
 74
     0
 42
0.000000001
 43
0.0000000001
 40
0.0
 40
0.0
 40
0.0
 40
0.0
 40
0.0420169393675496
 40
0.0836321939327532
 40
0.124964793084855
 40
0.1662221851798714
 40
0.2075844058555152
 40
0.2495075456631035
 40
0.291611842753466
 40
0.3346064099566156
 40
0.3774695339454724
 40
0.4193916303568061
 40
0.4608731801016696
 40
0.501919046217504
 40
0.5427072740300423
 40
0.5838361794619092
 40
0.6246544238464966
 40
0.6660092411303702
 40
0.7074369769502054
 40
0.7485882104911059
 40
0.7894032398702892
 40
0.8307654605459326
 40
0.8720895925056577
 40
0.9140064715461342
 40
0.9565047440209875
 40
1.0
 40
1.0
 40
1.0
 40
1.0
 10
448.4344211154514
 20
518.3255840398856
 30
0.0
 10
448.1833310914894
 20
518.3225339370393
 30
0.0
 10
447.6835514812974
 20
518.3164628905379
 30
0.0
 10
446.9406146632477
 20
518.2360553060626
 30
0.0
 10
446.2072230782492
 20
518.1222748226219
 30
0.0
 10
445.4847959364383
 20
517.9570256613326
 30
0.0
 10
444.7718181731229
 20
517.7432830511556
 30
0.0
 10
444.0679732548424
 20
517.4854925923083
 30
0.0
 10
443.3756744331854
 20
517.1739141905514
 30
0.0
 10
442.6957865851773
 20
516.8235064197567
 30
0.0
 10
442.0440128923667
 20
516.42549924729
 30
0.0
 10
441.4187836982092
 20
516.0028545034559
 30
0.0
 10
440.8363617403752
 20
515.53986864602
 30
0.0
 10
440.288746173218
 20
515.0465544515348
 30
0.0
 10
439.7772988615411
 20
514.5186307139692
 30
0.0
 10
439.3022454006
 20
513.9595643724892
 30
0.0
 10
438.8639753520151
 20
513.366937312693
 30
0.0
 10
438.4677631062514
 20
512.7431884459863
 30
0.0
 10
438.1151651357677
 20
512.0918003010676
 30
0.0
 10
437.7994693897415
 20
511.4252246088743
 30
0.0
 10
437.5377696624687
 20
510.7356277184075
 30
0.0
 10
437.3304644876127
 20
510.027312924452
 30
0.0
 10
437.1545098945053
 20
509.3034016119719
 30
0.0
 10
437.0441381510873
 20
508.5599496505283
 30
0.0
 10
436.9629383027316
 20
507.799519983761
 30
0.0
 10
436.9572035474944
 20
507.2856066113669
 30
0.0
 10
436.9543029263489
 20
507.0256708454411
 30
0.0
  0
SPLINE
  5
8F
330
1F
100
AcDbEntity
  8
Make2D$Visible$Curves
 62
    18
420
        0
370
    -3
100
AcDbSpline
210
0.0
220
0.0
230
1.0
 70
     8
 71
     3
 72
    23
 73
    19
 74
     0
 42
0.000000001
 43
0.0000000001
 40
-1.0
 40
-1.0
 40
-1.0
 40
-1.0
 40
-0.9343195342120171
 40
-0.8704914148329131
 40
-0.808335087300985
 40
-0.746642892898242
 40
-0.6852449183118441
 40
-0.6234914544587009
 40
-0.5606573899254015
 40
-0.4961718604630166
 40
-0.4318217004817563
 40
-0.3695802522422905
 40
-0.3085857736451377
 40
-0.248419711615723
 40
-0.187738962986418
 40
-0.1268942001610428
 40
-0.0645013960313463
 40
0.0
 40
0.0
 40
0.0
 40
0.0
 10
448.4344211154514
 20
495.937763527065
 30
0.0
 10
448.0451895305191
 20
495.945685796143
 30
0.0
 10
447.2777036233747
 20
495.9613069073409
 30
0.0
 10
446.1514362995249
 20
496.1221440518586
 30
0.0
 10
445.0668586376237
 20
496.3703003405293
 30
0.0
 10
444.02394666637
 20
496.7183458520293
 30
0.0
 10
443.0293871321333
 20
497.1803377997181
 30
0.0
 10
442.0746886613795
 20
497.7329746018598
 30
0.0
 10
441.1653538871301
 20
498.3896030325265
 30
0.0
 10
440.3085771281771
 20
499.1366161243751
 30
0.0
 10
439.5250404009362
 20
499.9553716402291
 30
0.0
 10
438.8348480906307
 20
500.8283744525894
 30
0.0
 10
438.2545372545794
 20
501.7491259272542
 30
0.0
 10
437.7787934680416
 20
502.7173544516072
 30
0.0
 10
437.4058650489746
 20
503.729292033672
 30
0.0
 10
437.1486395264944
 20
504.7894511759955
 30
0.0
 10
436.9829653519596
 20
505.8915129184322
 30
0.0
 10
436.9639623255321
 20
506.6434532235761
 30
0.0
 10
436.9543029263489
 20
507.0256708454411
 30
0.0
  0
SPLINE
  5
90
330
1F
100
AcDbEntity
  8
Make2D$Visible$Curves
 62
    18
420
        0
370
    -3
100
AcDbSpline
210
0.0
220
0.0
230
1.0
 70
     8
 71
     3
 72
    31
 73
    27
 74
     0
 42
0.000000001
 43
0.0000000001
 40
-1.0
 40
-1.0
 40
-1.0
 40
-1.0
 40
-0.9569503497023838
 40
-0.9145995823187453
 40
-0.8731193420045337
 40
-0.8320051480921697
 40
-0.7910688376969734
 40
-0.7503954711262045
 40
-0.7095111892114297
 40
-0.6684858406459682
 40
-0.6272745596928764
 40
-0.5867724321377239
 40
-0.5462017222452861
 40
-0.5055550642169675
 40
-0.4648486033910949
 40
-0.4241069427366407
 40
-0.3824960062755333
 40
-0.3400837421014418
 40
-0.2975069004894527
 40
-0.2553978602689808
 40
-0.2134438421978277
 40
-0.1714587739055219
 40
-0.1291942523556783
 40
-0.0865491091497462
 40
-0.0436389322024257
 40
0.0
 40
0.0
 40
0.0
 40
0.0
 10
460.0205422425884
 20
507.1475742241805
 30
0.0
 10
460.0175125498508
 20
506.8894230649315
 30
0.0
 10
460.0115023494564
 20
506.3773116616484
 30
0.0
 10
459.9317596717951
 20
505.6201555452966
 30
0.0
 10
459.8177682267533
 20
504.8796360937725
 30
0.0
 10
459.6523040438076
 20
504.1572527347652
 30
0.0
 10
459.4412538038446
 20
503.4519715849406
 30
0.0
 10
459.179441669065
 20
502.7653791118883
 30
0.0
 10
458.8728775107929
 20
502.0969708606646
 30
0.0
 10
458.5159773061991
 20
501.4503317288306
 30
0.0
 10
458.1211082288337
 20
500.829137589064
 30
0.0
 10
457.6904159917212
 20
500.2352527438975
 30
0.0
 10
457.2167151056503
 20
499.6795840543248
 30
0.0
 10
456.7088521745709
 20
499.1532831505129
 30
0.0
 10
456.1614935409198
 20
498.6665943733818
 30
0.0
 10
455.5800750053313
 20
498.2117777335726
 30
0.0
 10
454.9586383104329
 20
497.7948306294356
 30
0.0
 10
454.3051598175425
 20
497.4080384726714
 30
0.0
 10
453.6231346725485
 20
497.0675443407592
 30
0.0
 10
452.9278340805099
 20
496.7620223660039
 30
0.0
 10
452.215839091253
 20
496.5071574267953
 30
0.0
 10
451.4873861885617
 20
496.3016869590257
 30
0.0
 10
450.7446733738425
 20
496.1353127661738
 30
0.0
 10
449.986727531593
 20
496.0203265788222
 30
0.0
 10
449.2149490872398
 20
495.9484786066716
 30
0.0
 10
448.6960534964996
 20
495.9413552135798
 30
0.0
 10
448.4344211154514
 20
495.937763527065
 30
0.0
  0
SPLINE
  5
91
330
1F
100
AcDbEntity
  8
Make2D$Visible$Curves
 62
    18
420
        0
370
    -3
100
AcDbSpline
210
0.0
220
0.0
230
1.0
 70
     8
 71
     3
 72
    31
 73
    27
 74
     0
 42
0.000000001
 43
0.0000000001
 40
-1.0
 40
-1.0
 40
-1.0
 40
-1.0
 40
-0.957384165015043
 40
-0.9151727501235826
 40
-0.8732484202868831
 40
-0.8311179398215786
 40
-0.7891810871599361
 40
-0.7469727822613499
 40
-0.7040489965584021
 40
-0.6607840408957081
 40
-0.6175565226132284
 40
-0.5752157277368524
 40
-0.5334419646149945
 40
-0.4923653600154857
 40
-0.4517817353956144
 40
-0.4110947347866952
 40
-0.3705067975771913
 40
-0.3296427304945533
 40
-0.2887262276005485
 40
-0.2482289512159934
 40
-0.2079592198575888
 40
-0.1674392592498103
 40
-0.1264629118774679
 40
-0.0851229657858836
 40
-0.0429115508944228
 40
0.0
 40
0.0
 40
0.0
 40
0.0
 10
448.4344211154514
 20
518.3255840398856
 30
0.0
 10
448.6890398772687
 20
518.3225247738859
 30
0.0
 10
449.1958610938311
 20
518.3164352740208
 30
0.0
 10
449.9494093089966
 20
518.2361571281925
 30
0.0
 10
450.6949867385524
 20
518.1216418387526
 30
0.0
 10
451.4299908946109
 20
517.9576637271398
 30
0.0
 10
452.153994340181
 20
517.7446441989871
 30
0.0
 10
452.8666548571218
 20
517.4826562548384
 30
0.0
 10
453.5708217936813
 20
517.1776141755217
 30
0.0
 10
454.2564386135359
 20
516.8200676316272
 30
0.0
 10
454.9231645171699
 20
516.4348310595702
 30
0.0
 10
455.5474627183537
 20
515.9995409461204
 30
0.0
 10
456.1434512603958
 20
515.5476184921259
 30
0.0
 10
456.6962908060714
 20
515.0587015801226
 30
0.0
 10
457.2060778333803
 20
514.5346793028345
 30
0.0
 10
457.6850687327083
 20
513.9860331907552
 30
0.0
 10
458.1197034492438
 20
513.3994041432321
 30
0.0
 10
458.5174525057364
 20
512.785759557896
 30
0.0
 10
458.8713007986294
 20
512.1462675514664
 30
0.0
 10
459.1796181334066
 20
511.4876197282971
 30
0.0
 10
459.4410819096181
 20
510.8114449513646
 30
0.0
 10
459.653127706923
 20
510.1152239469749
 30
0.0
 10
459.8176434186062
 20
509.3996106774051
 30
0.0
 10
459.931798958331
 20
508.6644227088784
 30
0.0
 10
460.0114950464194
 20
507.9125462845875
 30
0.0
 10
460.0175100194901
 20
507.4039592862254
 30
0.0
 10
460.0205422425884
 20
507.1475742241805
 30
0.0
  0
SPLINE
  5
92
330
1F
100
AcDbEntity
  8
Make2D$Visible$Curves
 62
    18
420
        0
370
    -3
100
AcDbSpline
210
0.0
220
0.0
230
1.0
 70
     8
 71
     3
 72
    20
 73
    16
 74
     0
 42
0.000000001
 43
0.0000000001
 40
0.0
 40
0.0
 40
0.0
 40
0.0
 40
0.0652342872258439
 40
0.1285843375588971
 40
0.1903430886116884
 40
0.2514079850000838
 40
0.312205576544564
 40
0.3736140793532896
 40
0.4362640098418411
 40
0.5004072585291455
 40
0.564534949905739
 40
0.6271370835563654
 40
0.6883383114031626
 40
0.7492395926887592
 40
0.7936570269637475
 40
0.7936570269637475
 40
0.7936570269637475
 40
0.7936570269637475
 10
462.3950080545542
 20
507.1422740772788
 30
0.0
 10
462.3832860566804
 20
506.6663482297623
 30
0.0
 10
462.3601806408697
 20
505.728243247973
 30
0.0
 10
462.1624323533142
 20
504.351290174325
 30
0.0
 10
461.8519058116794
 20
503.0278177462305
 30
0.0
 10
461.4104880934256
 20
501.7607758164955
 30
0.0
 10
460.8389528104287
 20
500.5500177428856
 30
0.0
 10
460.1402824487548
 20
499.3944152212317
 30
0.0
 10
459.314862907861
 20
498.295192252682
 30
0.0
 10
458.376432843133
 20
497.2640593404253
 30
0.0
 10
457.3504041101155
 20
496.3208114642127
 30
0.0
 10
456.2583227253631
 20
495.4888300971569
 30
0.0
 10
455.1036251601117
 20
494.790883077939
 30
0.0
 10
454.0064575255196
 20
494.2652384715664
 30
0.0
 10
453.2838938185394
 20
494.0022010457511
 30
0.0
 10
452.9755212289901
 20
493.9025071158677
 30
0.0
  0
SPLINE
  5
93
330
1F
100
AcDbEntity
  8
Make2D$Visible$Curves
 62
    18
420
        0
370
    -3
100
AcDbSpline
210
0.0
220
0.0
230
1.0
 70
     8
 71
     3
 72
    23
 73
    19
 74
     0
 42
0.000000001
 43
0.0000000001
 40
0.0
 40
0.0
 40
0.0
 40
0.0
 40
0.0665665108701526
 40
0.1307421193777698
 40
0.1933478019441159
 40
0.2549983247511645
 40
0.3161192457075412
 40
0.3772642104378199
 40
0.4393999469254533
 40
0.50280522594698
 40
0.5663562482448943
 40
0.6282507846700166
 40
0.6891070707377751
 40
0.7493579391685857
 40
0.8101796433571201
 40
0.871616621538582
 40
0.9348726322227678
 40
1.0
 40
1.0
 40
1.0
 40
1.0
 10
448.3178178836138
 20
521.0392592535608
 30
0.0
 10
448.8077897196313
 20
521.0270593475069
 30
0.0
 10
449.7701348303922
 20
521.0030977254714
 30
0.0
 10
451.1831725269781
 20
520.8136198744846
 30
0.0
 10
452.5362194798588
 20
520.5017591575394
 30
0.0
 10
453.83005354136
 20
520.0613452359962
 30
0.0
 10
455.0597539401219
 20
519.4904039272701
 30
0.0
 10
456.2287936745679
 20
518.7968737453643
 30
0.0
 10
457.3336692496955
 20
517.9765399724869
 30
0.0
 10
458.3667753613267
 20
517.0414484268128
 30
0.0
 10
459.3092074751803
 20
516.0173705755618
 30
0.0
 10
460.1361965481676
 20
514.9210758141003
 30
0.0
 10
460.8338398743863
 20
513.7663474595066
 30
0.0
 10
461.4049369216059
 20
512.5531252842426
 30
0.0
 10
461.8532859536213
 20
511.2842418245884
 30
0.0
 10
462.1625926840256
 20
509.9525856407162
 30
0.0
 10
462.3601905965397
 20
508.5668786714018
 30
0.0
 10
462.383290000455
 20
507.621734516257
 30
0.0
 10
462.3950080545542
 20
507.1422740772788
 30
0.0
  0
SPLINE
  5
94
330
1F
100
AcDbEntity
  8
Make2D$Visible$Curves
 62
    18
420
        0
370
    -3
100
AcDbSpline
210
0.0
220
0.0
230
1.0
 70
     8
 71
     3
 72
    31
 73
    27
 74
     0
 42
0.000000001
 43
0.0000000001
 40
0.0
 40
0.0
 40
0.0
 40
0.0
 40
0.0432089861713366
 40
0.085872871630619
 40
0.128120006696703
 40
0.1701519644541992
 40
0.2119176209878613
 40
0.2537530026191243
 40
0.2960064088559507
 40
0.3384433571447844
 40
0.381015368162034
 40
0.4228204794407608
 40
0.4640890557943133
 40
0.5051258486836864
 40
0.545974970685241
 40
0.5869852111338598
 40
0.6283385916346628
 40
0.670083801591206
 40
0.7119916023637222
 40
0.7530391548630186
 40
0.7940493953116375
 40
0.8348855427015816
 40
0.8754983129295132
 40
0.9165472998303792
 40
0.9580037786449604
 40
1.0
 40
1.0
 40
1.0
 40
1.0
 10
434.5798371143831
 20
507.0150705516377
 30
0.0
 10
434.5838787042135
 20
507.3297937052303
 30
0.0
 10
434.5919108974083
 20
507.9552696388815
 30
0.0
 10
434.6886100011905
 20
508.8840826281282
 30
0.0
 10
434.8289276234079
 20
509.7979584338669
 30
0.0
 10
435.0300254147041
 20
510.694298338121
 30
0.0
 10
435.2930338496612
 20
511.5709081629539
 30
0.0
 10
435.6033676281472
 20
512.4338335724905
 30
0.0
 10
435.9824009829333
 20
513.2743295793755
 30
0.0
 10
436.4108796913222
 20
514.0963778381441
 30
0.0
 10
436.8891088353043
 20
514.887163792978
 30
0.0
 10
437.4173362269948
 20
515.6346463560847
 30
0.0
 10
437.9770083576745
 20
516.3450979389029
 30
0.0
 10
438.5905649642677
 20
517.000108027448
 30
0.0
 10
439.2377845202095
 20
517.6187315013481
 30
0.0
 10
439.9291663072956
 20
518.1914615645367
 30
0.0
 10
440.6604916069639
 20
518.7234626818868
 30
0.0
 10
441.4349072159062
 20
519.2028902602924
 30
0.0
 10
442.2333310795789
 20
519.6364980041145
 30
0.0
 10
443.0563876735064
 20
520.0085917585674
 30
0.0
 10
443.8928986604835
 20
520.327951866415
 30
0.0
 10
444.7467820108727
 20
520.5867961997496
 30
0.0
 10
445.6157702283847
 20
520.7911455194511
 30
0.0
 10
446.5017599093821
 20
520.9302963480835
 30
0.0
 10
447.4040452151849
 20
521.0272420844948
 30
0.0
 10
448.0119164953426
 20
521.0352362959617
 30
0.0
 10
448.3178178836138
 20
521.0392592535608
 30
0.0
  0
SPLINE
  5
95
330
1F
100
AcDbEntity
  8
Make2D$Visible$Curves
 62
    18
420
        0
370
    -3
100
AcDbSpline
210
0.0
220
0.0
230
1.0
 70
     8
 71
     3
 72
    31
 73
    27
 74
     0
 42
0.000000001
 43
0.0000000001
 40
0.0
 40
0.0
 40
0.0
 40
0.0
 40
0.0420398545876708
 40
0.083545408302753
 40
0.1246444646699434
 40
0.1653049307531931
 40
0.2061730760884771
 40
0.2469735097666685
 40
0.2883325230572412
 40
0.3299902604286031
 40
0.3718016728048965
 40
0.4127422918034052
 40
0.4534644028985403
 40
0.4938328879852714
 40
0.5343754078586228
 40
0.5749467438528499
 40
0.6158873628513586
 40
0.6572456869341675
 40
0.6990032067341148
 40
0.740483342223824
 40
0.7823226968026875
 40
0.8245654737365566
 40
0.8670397417983549
 40
0.9104985204644477
 40
0.9546186635416556
 40
1.0
 40
1.0
 40
1.0
 40
1.0
 10
474.6065465160925
 20
507.1422740772788
 30
0.0
 10
474.6105699821774
 20
507.4534713453821
 30
0.0
 10
474.6185657785504
 20
508.0719107544002
 30
0.0
 10
474.7155205849276
 20
508.9900701508335
 30
0.0
 10
474.8546264993224
 20
509.8919266153689
 30
0.0
 10
475.0590895116695
 20
510.7767426904051
 30
0.0
 10
475.3168404410467
 20
511.6451102396801
 30
0.0
 10
475.6385267635903
 20
512.4974289990847
 30
0.0
 10
476.0130541273202
 20
513.334215014963
 30
0.0
 10
476.4484049680918
 20
514.1496592335486
 30
0.0
 10
476.9327341123808
 20
514.9331253672584
 30
0.0
 10
477.4589348444244
 20
515.6807794270889
 30
0.0
 10
478.0310674628845
 20
516.3805042110259
 30
0.0
 10
478.6507979393145
 20
517.0339206375995
 30
0.0
 10
479.30563360524
 20
517.6507131788187
 30
0.0
 10
480.0093217137121
 20
518.2179979883019
 30
0.0
 10
480.7512007994615
 20
518.7446521383587
 30
0.0
 10
481.5370219186891
 20
519.2205559894659
 30
0.0
 10
482.3543850805513
 20
519.6481820289955
 30
0.0
 10
483.2015135277466
 20
520.0230442934785
 30
0.0
 10
484.0780994135646
 20
520.3328609553641
 30
0.0
 10
484.9775886849122
 20
520.5957335425488
 30
0.0
 10
485.9067862944357
 20
520.7901279305643
 30
0.0
 10
486.8589502192749
 20
520.9311035184652
 30
0.0
 10
487.8390433158356
 20
521.027567588102
 30
0.0
 10
488.501529967763
 20
521.0353255915888
 30
0.0
 10
488.8374409471821
 20
521.0392592535608
 30
0.0
  0
SPLINE
  5
96
330
1F
100
AcDbEntity
  8
Make2D$Visible$Curves
 62
    18
420
        0
370
    -3
100
AcDbSpline
210
0.0
220
0.0
230
1.0
 70
     8
 71
     3
 72
    15
 73
    11
 74
     0
 42
0.000000001
 43
0.0000000001
 40
0.0
 40
0.0
 40
0.0
 40
0.0
 40
0.1278956773735373
 40
0.2536684183228705
 40
0.3767384322070105
 40
0.4993444727460728
 40
0.6219993068560801
 40
0.745698547513128
 40
0.8713451527522131
 40
0.9999999999999999
 40
0.9999999999999999
 40
0.9999999999999999
 40
0.9999999999999999
 10
477.8502364199387
 20
498.2274269886035
 30
0.0
 10
477.5918070535204
 20
498.5499968060035
 30
0.0
 10
477.0792379818065
 20
499.1897821143026
 30
0.0
 10
476.4194566787917
 20
500.2148531227798
 30
0.0
 10
475.8570175026307
 20
501.2762243276323
 30
0.0
 10
475.4006655138699
 20
502.3768503872381
 30
0.0
 10
475.044324027831
 20
503.5157018176822
 30
0.0
 10
474.788764855276
 20
504.6913233644619
 30
0.0
 10
474.6390311810512
 20
505.9052289048361
 30
0.0
 10
474.6174597968275
 20
506.7266865603493
 30
0.0
 10
474.6065465160925
 20
507.1422740772788
 30
0.0
  0
SPLINE
  5
97
330
1F
100
AcDbEntity
  8
Make2D$Visible$Curves
 62
    18
420
        0
370
    -3
100
AcDbSpline
210
0.0
220
0.0
230
1.0
 70
     8
 71
     3
 72
    23
 73
    19
 74
     0
 42
0.000000001
 43
0.0000000001
 40
0.0
 40
0.0
 40
0.0
 40
0.0
 40
0.0706374792296332
 40
0.1387081667012168
 40
0.2049392183045753
 40
0.2694691577684971
 40
0.3326712405379709
 40
0.3954982646253777
 40
0.4579670562026967
 40
0.5208667449751174
 40
0.5830679029606418
 40
0.6432777681337658
 40
0.7025490215363128
 40
0.7608824489591566
 40
0.8194706705316755
 40
0.8782563018337151
 40
0.938484855992891
 40
0.9999999999999999
 40
0.9999999999999999
 40
0.9999999999999999
 40
0.9999999999999999
 10
489.5211598975029
 20
495.937763527065
 30
0.0
 10
489.8641999908223
 20
495.9449313385895
 30
0.0
 10
490.5378149466264
 20
495.9590065010481
 30
0.0
 10
491.5279902558555
 20
496.0686639811061
 30
0.0
 10
492.4790737381782
 20
496.2397093216547
 30
0.0
 10
493.3879691744323
 20
496.4909807197357
 30
0.0
 10
494.2579750795567
 20
496.8090283970153
 30
0.0
 10
495.0858826974786
 20
497.2023396844882
 30
0.0
 10
495.8739781262648
 20
497.666776301592
 30
0.0
 10
496.6188502148766
 20
498.1929334737217
 30
0.0
 10
497.3027907318215
 20
498.7791629527884
 30
0.0
 10
497.9252576331585
 20
499.4061098465093
 30
0.0
 10
498.4648460270937
 20
500.0818967393971
 30
0.0
 10
498.9376739632723
 20
500.796452033826
 30
0.0
 10
499.3284805047142
 20
501.5566105896993
 30
0.0
 10
499.6493511326144
 20
502.3581435927316
 30
0.0
 10
499.8952810116352
 20
503.2015469983901
 30
0.0
 10
499.9962391242893
 20
503.7843221848977
 30
0.0
 10
500.0472516442976
 20
504.0787891680907
 30
0.0
  0
SPLINE
  5
98
330
1F
100
AcDbEntity
  8
Make2D$Visible$Curves
 62
    18
420
        0
370
    -3
100
AcDbSpline
210
0.0
220
0.0
230
1.0
 70
     8
 71
     3
 72
    31
 73
    27
 74
     0
 42
0.000000001
 43
0.0000000001
 40
0.0
 40
0.0
 40
0.0
 40
0.0
 40
0.0389964650736889
 40
0.0778864437760533
 40
0.116658332627585
 40
0.1554250789777543
 40
0.1943611692579151
 40
0.2340066397810482
 40
0.2742946202688762
 40
0.3154172065216973
 40
0.3567718524747779
 40
0.3980608805984718
 40
0.4388671158475721
 40
0.4798031071839682
 40
0.5212463648332953
 40
0.562815471860777
 40
0.6052691674359563
 40
0.6483882664791558
 40
0.691709411725157
 40
0.7351335232101108
 40
0.7783560698163641
 40
0.821650514248758
 40
0.8655158990908846
 40
0.9097262617752134
 40
0.9545199270306817
 40
1.0
 40
1.0
 40
1.0
 40
1.0
 10
476.9810123280583
 20
507.248277015313
 30
0.0
 10
476.9867288038897
 20
507.0043261833127
 30
0.0
 10
476.9981461457589
 20
506.5170906678679
 30
0.0
 10
477.071119719018
 20
505.789891677474
 30
0.0
 10
477.206852557053
 20
505.0735770363191
 30
0.0
 10
477.3868580463736
 20
504.3670200740427
 30
0.0
 10
477.6157050578481
 20
503.6688146239127
 30
0.0
 10
477.8968627492304
 20
502.9796893152695
 30
0.0
 10
478.2317960148398
 20
502.2997111447968
 30
0.0
 10
478.6186264388207
 20
501.6356302826105
 30
0.0
 10
479.0458111091325
 20
500.9892899954953
 30
0.0
 10
479.5156444644192
 20
500.3753623295054
 30
0.0
 10
480.0289175061303
 20
499.8009918393572
 30
0.0
 10
480.5762190435812
 20
499.2577890846198
 30
0.0
 10
481.1625356798716
 20
498.7491822197702
 30
0.0
 10
481.7935558284885
 20
498.281301731431
 30
0.0
 10
482.4604463807591
 20
497.8469127499046
 30
0.0
 10
483.1635031789247
 20
497.450787384838
 30
0.0
 10
483.8952951682686
 20
497.0969459774336
 30
0.0
 10
484.6456265244519
 20
496.7822867701428
 30
0.0
 10
485.4169088751789
 20
496.5231519375394
 30
0.0
 10
486.2050849855514
 20
496.3119530047836
 30
0.0
 10
487.0092163129134
 20
496.1388377090041
 30
0.0
 10
487.8333843324056
 20
496.0274671604968
 30
0.0
 10
488.6715292147196
 20
495.9466495730748
 30
0.0
 10
489.2365176829671
 20
495.9407405191464
 30
0.0
 10
489.5211598975029
 20
495.937763527065
 30
0.0
  0
SPLINE
  5
99
330
1F
100
AcDbEntity
  8
Make2D$Visible$Curves
 62
    18
420
        0
370
    -3
100
AcDbSpline
210
0.0
220
0.0
230
1.0
 70
     8
 71
     3
 72
    31
 73
    27
 74
     0
 42
0.000000001
 43
0.0000000001
 40
0.0
 40
0.0
 40
0.0
 40
0.0
 40
0.0428395880398782
 40
0.085568069709906
 40
0.1277138699986309
 40
0.1700619977179556
 40
0.2127792507652067
 40
0.2554719947482091
 40
0.2988658624753134
 40
0.3428476916325029
 40
0.3865130648460078
 40
0.4295162389818075
 40
0.4718684857681312
 40
0.5137100027646955
 40
0.5550608530828189
 40
0.5965128264791572
 40
0.637859457968486
 40
0.6795600290030626
 40
0.7210677252148125
 40
0.761889979569626
 40
0.801924772702277
 40
0.8418122361614909
 40
0.8810648804379854
 40
0.9206362073294806
 40
0.9601026976366275
 40
1.0
 40
1.0
 40
1.0
 40
1.0
 10
488.7579387436567
 20
518.3255840398856
 30
0.0
 10
488.5015597619563
 20
518.3224573762866
 30
0.0
 10
487.9894667288054
 20
518.3162121582293
 30
0.0
 10
487.2288127471647
 20
518.236502911753
 30
0.0
 10
486.4761363832413
 20
518.1218637615361
 30
0.0
 10
485.7328584930647
 20
517.9559936127391
 30
0.0
 10
484.9975338791701
 20
517.7457703717753
 30
0.0
 10
484.2727200242366
 20
517.4828088101161
 30
0.0
 10
483.557064659004
 20
517.1762305672908
 30
0.0
 10
482.8573096348293
 20
516.8219722341523
 30
0.0
 10
482.1789124256736
 20
516.4328103931613
 30
0.0
 10
481.5381974499535
 20
516.0015459027209
 30
0.0
 10
480.9310432457703
 20
515.5420287209006
 30
0.0
 10
480.3689986477364
 20
515.0426520513554
 30
0.0
 10
479.8483249961423
 20
514.5083123842209
 30
0.0
 10
479.3594452982884
 20
513.9486327039109
 30
0.0
 10
478.9114711045167
 20
513.3526090689559
 30
0.0
 10
478.5124368021366
 20
512.7226924564976
 30
0.0
 10
478.1520924923793
 20
512.0735376032045
 30
0.0
 10
477.8406990751755
 20
511.4106499716353
 30
0.0
 10
477.5699928723325
 20
510.7401833193858
 30
0.0
 10
477.3638147185634
 20
510.0570891372197
 30
0.0
 10
477.1891831059629
 20
509.3684098535776
 30
0.0
 10
477.0676166201915
 20
508.6705364538384
 30
0.0
 10
476.9988527994778
 20
507.9616465167601
 30
0.0
 10
476.9869806338359
 20
507.4869258277187
 30
0.0
 10
476.9810123280583
 20
507.248277015313
 30
0.0
  0
SPLINE
  5
9A
330
1F
100
AcDbEntity
  8
Make2D$Visible$Curves
 62
    18
420
        0
370
    -3
100
AcDbSpline
210
0.0
220
0.0
230
1.0
 70
     8
 71
     3
 72
    15
 73
    11
 74
     0
 42
0.000000001
 43
0.0000000001
 40
0.0
 40
0.0
 40
0.0
 40
0.0
 40
0.1361333832231102
 40
0.2690205881869097
 40
0.3987332086914579
 40
0.5273056382623484
 40
0.65231091479657
 40
0.7716990330660392
 40
0.8875041110927091
 40
0.9999999999999999
 40
0.9999999999999999
 40
0.9999999999999999
 40
0.9999999999999999
 10
498.69041403746
 20
513.9158618176634
 30
0.0
 10
498.3221965846706
 20
514.2624374256031
 30
0.0
 10
497.594542034517
 20
514.9473243482059
 30
0.0
 10
496.4061853254759
 20
515.8345307718142
 30
0.0
 10
495.1712928632192
 20
516.602071363506
 30
0.0
 10
493.8878679092707
 20
517.2219189764887
 30
0.0
 10
492.5895650499683
 20
517.7081601067101
 30
0.0
 10
491.2987086758515
 20
518.0616129273221
 30
0.0
 10
490.0236566582284
 20
518.2854516341956
 30
0.0
 10
489.1757479442554
 20
518.3123364685695
 30
0.0
 10
488.7579387436567
 20
518.3255840398856
 30
0.0
  0
LINE
  5
9B
330
1F
100
AcDbEntity
  8
Make2D$Visible$Curves
 62
    18
420
        0
370
    -3
100
AcDbLine
 10
500.7256704477163
 20
515.8451152898856
 30
0.0
 11
498.69041403746
 21
513.9158618176634
 31
0.0
  0
SPLINE
  5
9C
330
1F
100
AcDbEntity
  8
Make2D$Visible$Curves
 62
    18
420
        0
370
    -3
100
AcDbSpline
210
0.0
220
0.0
230
1.0
 70
     8
 71
     3
 72
    23
 73
    19
 74
     0
 42
0.000000001
 43
0.0000000001
 40
0.0
 40
0.0
 40
0.0
 40
0.0
 40
0.061616944820497
 40
0.1221791608191562
 40
0.182216270448319
 40
0.241864128661122
 40
0.3009600556026186
 40
0.3599690678733914
 40
0.4190329181378677
 40
0.478068687013023
 40
0.5379925810732207
 40
0.5989602303291965
 40
0.6613210788822625
 40
0.7252475688866924
 40
0.7912201541522479
 40
0.8587459718448142
 40
0.9283175814122132
 40
0.9999999999999999
 40
0.9999999999999999
 40
0.9999999999999999
 40
0.9999999999999999
 10
488.8374409471821
 20
521.0392592535608
 30
0.0
 10
489.1113848129671
 20
521.0348785719257
 30
0.0
 10
489.6545833069958
 20
521.0261921950278
 30
0.0
 10
490.4628909262437
 20
520.9659832483044
 30
0.0
 10
491.2587047869483
 20
520.870552718456
 30
0.0
 10
492.0432048770972
 20
520.7403264150405
 30
0.0
 10
492.8137196694017
 20
520.5629520880019
 30
0.0
 10
493.5724441687366
 20
520.3506936266618
 30
0.0
 10
494.3204782225116
 20
520.1035590155604
 30
0.0
 10
495.0554774870316
 20
519.8088219033453
 30
0.0
 10
495.7823840308392
 20
519.4742855720615
 30
0.0
 10
496.5052396106103
 20
519.0977198193566
 30
0.0
 10
497.2215743867489
 20
518.6726855581617
 30
0.0
 10
497.9326306153894
 20
518.197920736022
 30
0.0
 10
498.6428921603488
 20
517.6815794224925
 30
0.0
 10
499.3411248733814
 20
517.1088939104047
 30
0.0
 10
500.0441828447715
 20
516.5024480774952
 30
0.0
 10
500.4962560831777
 20
516.0663982348846
 30
0.0
 10
500.7256704477163
 20
515.8451152898856
 30
0.0
  0
LINE
  5
9D
330
1F
100
AcDbEntity
  8
Make2D$Visible$Curves
 62
    18
420
        0
370
    -3
100
AcDbLine
 10
527.6610170022036
 20
493.9025071168087
 30
0.0
 11
510.2235336955796
 21
514.6790829715095
 31
0.0
  0
LINE
  5
9E
330
1F
100
AcDbEntity
  8
Make2D$Visible$Curves
 62
    18
420
        0
370
    -3
100
AcDbLine
 10
508.3472816923745
 20
520.360840450142
 30
0.0
 11
525.8271661742119
 21
499.5365632733258
 31
0.0
  0
LINE
  5
9F
330
1F
100
AcDbEntity
  8
Make2D$Visible$Curves
 62
    18
420
        0
370
    -3
100
AcDbLine
 10
454.1290354454841
 20
573.9025071168087
 30
0.0
 11
471.5665187521081
 21
553.1259312621078
 31
0.0
  0
LINE
  5
A0
330
1F
100
AcDbEntity
  8
Make2D$Visible$Curves
 62
    18
420
        0
370
    -3
100
AcDbLine
 10
473.4427707553132
 20
547.4441737834753
 30
0.0
 11
455.9628862734755
 21
568.2684509602916
 31
0.0
  0
SPLINE
  5
A1
330
1F
100
AcDbEntity
  8
Make2D$Visible$Curves
 62
    18
420
        0
370
    -3
100
AcDbSpline
210
0.0
220
0.0
230
1.0
 70
     8
 71
     3
 72
    31
 73
    27
 74
     0
 42
0.000000001
 43
0.0000000001
 40
0.0
 40
0.0
 40
0.0
 40
0.0
 40
0.0420422557645222
 40
0.0835501801389653
 40
0.1246515839477379
 40
0.1653143724217496
 40
0.2062538482388173
 40
0.2470566123022552
 40
0.2884179878822863
 40
0.330078104605234
 40
0.3717669519748103
 40
0.4128482364323989
 40
0.4534218897265737
 40
0.4939667252539917
 40
0.5343488129285681
 40
0.574922466222743
 40
0.6158654236134178
 40
0.6572261099463199
 40
0.6989860147970937
 40
0.740468519494359
 40
0.7823102637981798
 40
0.8245554534991512
 40
0.8670321475500555
 40
0.9104934084372304
 40
0.9546160715104586
 40
1.0
 40
1.0
 40
1.0
 40
1.0
 10
507.1791271488719
 20
560.6627401563385
 30
0.0
 10
507.1750927801318
 20
560.3515461613326
 30
0.0
 10
507.1670753170133
 20
559.7331132569107
 30
0.0
 10
507.0702809051941
 20
558.8149057082611
 30
0.0
 10
506.9305749946086
 20
557.9132293692029
 30
0.0
 10
506.7282165828099
 20
557.0272491236487
 30
0.0
 10
506.4619628245946
 20
556.160899256791
 30
0.0
 10
506.1422052545126
 20
555.3075193218041
 30
0.0
 10
505.7676670975568
 20
554.4705333029518
 30
0.0
 10
505.3306366488814
 20
553.6573102809914
 30
0.0
 10
504.854780356578
 20
552.8683132435507
 30
0.0
 10
504.3202570263838
 20
552.1276976847666
 30
0.0
 10
503.7533871472244
 20
551.4226503120462
 30
0.0
 10
503.1381437014852
 20
550.7659421706377
 30
0.0
 10
502.4780120403957
 20
550.1547134308954
 30
0.0
 10
501.7766473987235
 20
549.5866993857455
 30
0.0
 10
501.0343925192524
 20
549.0604482644794
 30
0.0
 10
500.2486736039746
 20
548.5844348023493
 30
0.0
 10
499.431282749184
 20
548.1568384627501
 30
0.0
 10
498.5841617108711
 20
547.7819682524374
 30
0.0
 10
497.7075738237643
 20
547.472153736881
 30
0.0
 10
496.8080850957076
 20
547.2092805670313
 30
0.0
 10
495.8788873386939
 20
547.0148863371952
 30
0.0
 10
494.9267234543986
 20
546.873910705812
 30
0.0
 10
493.9466303468648
 20
546.7774466479435
 30
0.0
 10
493.28414369644
 20
546.7696886428454
 30
0.0
 10
492.9482327177823
 20
546.7657549800565
 30
0.0
  0
SPLINE
  5
A2
330
1F
100
AcDbEntity
  8
Make2D$Visible$Curves
 62
    18
420
        0
370
    -3
100
AcDbSpline
210
0.0
220
0.0
230
1.0
 70
     8
 71
     3
 72
    15
 73
    11
 74
     0
 42
0.000000001
 43
0.0000000001
 40
0.0
 40
0.0
 40
0.0
 40
0.0
 40
0.1278956773735374
 40
0.2536684183228696
 40
0.3767384322070105
 40
0.4993444727460727
 40
0.6219993068560802
 40
0.7456985475131271
 40
0.8713451527522132
 40
1.0
 40
1.0
 40
1.0
 40
1.0
 10
503.9354372450257
 20
569.5775872450138
 30
0.0
 10
504.1938666114443
 20
569.2550174276138
 30
0.0
 10
504.7064356831579
 20
568.6152321193147
 30
0.0
 10
505.3662169861727
 20
567.5901611108375
 30
0.0
 10
505.9286561623339
 20
566.5287899059849
 30
0.0
 10
506.3850081510946
 20
565.4281638463792
 30
0.0
 10
506.7413496371337
 20
564.2893124159351
 30
0.0
 10
506.9969088096886
 20
563.1136908691553
 30
0.0
 10
507.1466424839132
 20
561.8997853287813
 30
0.0
 10
507.1682138681372
 20
561.078327673268
 30
0.0
 10
507.1791271488719
 20
560.6627401563385
 30
0.0
  0
SPLINE
  5
A3
330
1F
100
AcDbEntity
  8
Make2D$Visible$Curves
 62
    18
420
        0
370
    -3
100
AcDbSpline
210
0.0
220
0.0
230
1.0
 70
     8
 71
     3
 72
    23
 73
    19
 74
     0
 42
0.000000001
 43
0.0000000001
 40
0.0
 40
0.0
 40
0.0
 40
0.0
 40
0.0706322443877265
 40
0.1386978872386459
 40
0.2049240305541063
 40
0.2694491877971018
 40
0.3326465867511976
 40
0.3953138779979163
 40
0.4577780401030125
 40
0.520673067470039
 40
0.5828696158172808
 40
0.6433350250634065
 40
0.702601885958682
 40
0.7607320598415797
 40
0.8194840493004201
 40
0.8782653240839432
 40
0.9384894147916658
 40
1.0
 40
1.0
 40
1.0
 40
1.0
 10
492.2645137674617
 20
571.8672507065522
 30
0.0
 10
491.921475069697
 20
571.8600799222086
 30
0.0
 10
491.2478628542913
 20
571.8459989221365
 30
0.0
 10
490.2576677419565
 20
571.7363836267753
 30
0.0
 10
489.3066563605876
 20
571.5651846963358
 30
0.0
 10
488.3975013960157
 20
571.3144661470558
 30
0.0
 10
487.5291453467221
 20
570.9946711024382
 30
0.0
 10
486.6984105471277
 20
570.6091680777636
 30
0.0
 10
485.9118164997908
 20
570.1431840454561
 30
0.0
 10
485.1670770651444
 20
569.6172082885287
 30
0.0
 10
484.4808170402218
 20
569.0313446215067
 30
0.0
 10
483.8626828314168
 20
568.3986308502929
 30
0.0
 10
483.3193535519608
 20
567.7252574249056
 30
0.0
 10
482.8553487703562
 20
567.0052766981715
 30
0.0
 10
482.4556116797507
 20
566.25020169782
 30
0.0
 10
482.1368388075141
 20
565.4465860233396
 30
0.0
 10
481.8902590319922
 20
564.6035408993885
 30
0.0
 10
481.7893896875282
 20
564.0207167758292
 30
0.0
 10
481.7384220206668
 20
563.7262250655266
 30
0.0
  0
SPLINE
  5
A4
330
1F
100
AcDbEntity
  8
Make2D$Visible$Curves
 62
    18
420
        0
370
    -3
100
AcDbSpline
210
0.0
220
0.0
230
1.0
 70
     8
 71
     3
 72
    31
 73
    27
 74
     0
 42
0.000000001
 43
0.0000000001
 40
0.0
 40
0.0
 40
0.0
 40
0.0
 40
0.0389934464609046
 40
0.0778804147933123
 40
0.1166493024159089
 40
0.1553440778236206
 40
0.1946339249847589
 40
0.2342763266573202
 40
0.2745611885595866
 40
0.31568059162223
 40
0.3570320364220087
 40
0.398094195092609
 40
0.4391087510790841
 40
0.4798433742437605
 40
0.5212834238805891
 40
0.5628493131539065
 40
0.6052997225012715
 40
0.6484154838095413
 40
0.6917332756807535
 40
0.7351540258205748
 40
0.7783732266842974
 40
0.8216643198087409
 40
0.8655263091479365
 40
0.9097332496255158
 40
0.954523447522332
 40
1.0
 40
1.0
 40
1.0
 40
1.0
 10
504.8046613369061
 20
560.5567372183043
 30
0.0
 10
504.7988975605044
 20
560.8006756090721
 30
0.0
 10
504.7873857466566
 20
561.2878862760248
 30
0.0
 10
504.7151185149792
 20
562.0152710519127
 30
0.0
 10
504.5767930739607
 20
562.7304582592461
 30
0.0
 10
504.4063973168563
 20
563.4414043883787
 30
0.0
 10
504.1690767109444
 20
564.1388990440631
 30
0.0
 10
503.8892637531214
 20
564.8307528538037
 30
0.0
 10
503.553837489168
 20
565.5106363562771
 30
0.0
 10
503.1667334688827
 20
566.1744132548577
 30
0.0
 10
502.7419329622253
 20
566.8209079720493
 30
0.0
 10
502.2661291215018
 20
567.429904557443
 30
0.0
 10
501.7606907158859
 20
568.0094826815529
 30
0.0
 10
501.2072296272877
 20
568.5467819634882
 30
0.0
 10
500.6234863517075
 20
569.0561720357953
 30
0.0
 10
499.9920222058333
 20
569.5236191622507
 30
0.0
 10
499.3252535829415
 20
569.9581271524974
 30
0.0
 10
498.6221633565517
 20
570.3542198900685
 30
0.0
 10
497.8903804161591
 20
570.7080701296687
 30
0.0
 10
497.1400466283828
 20
571.0227269636123
 30
0.0
 10
496.3687649269311
 20
571.2818624299383
 30
0.0
 10
495.5805886421108
 20
571.493061192425
 30
0.0
 10
494.7764573621812
 20
571.6661765345008
 30
0.0
 10
493.9522893298101
 20
571.7775470704374
 30
0.0
 10
493.1141444509483
 20
571.8583646612291
 30
0.0
 10
492.5491559822331
 20
571.864273714701
 30
0.0
 10
492.2645137674617
 20
571.8672507065522
 30
0.0
  0
SPLINE
  5
A5
330
1F
100
AcDbEntity
  8
Make2D$Visible$Curves
 62
    18
420
        0
370
    -3
100
AcDbSpline
210
0.0
220
0.0
230
1.0
 70
     8
 71
     3
 72
    31
 73
    27
 74
     0
 42
0.000000001
 43
0.0000000001
 40
0.0
 40
0.0
 40
0.0
 40
0.0
 40
0.042847713574337
 40
0.0855842997048899
 40
0.1277380939349253
 40
0.1700942539717113
 40
0.2125358189146095
 40
0.2555146790367426
 40
0.298645533715992
 40
0.342635705060507
 40
0.3865653378499366
 40
0.4295766685481422
 40
0.4717025096739231
 40
0.5135519628973209
 40
0.5551179430498615
 40
0.5963847622346318
 40
0.637975924989666
 40
0.6796844055173628
 40
0.7211999746389918
 40
0.7617630397424136
 40
0.8020801350554235
 40
0.8417822321351949
 40
0.8810423215979828
 40
0.9206211541214169
 40
0.9600951301757809
 40
1.0
 40
1.0
 40
1.0
 40
1.0
 10
493.0277349213079
 20
549.4794301937317
 30
0.0
 10
493.2841124639924
 20
549.4825614748538
 30
0.0
 10
493.7962026228442
 20
549.4888159159816
 30
0.0
 10
494.5568780211565
 20
549.5684564405012
 30
0.0
 10
495.3094739867192
 20
549.6833535735067
 30
0.0
 10
496.0513952149361
 20
549.8478873530747
 30
0.0
 10
496.7855914848633
 20
550.0615889230392
 30
0.0
 10
497.5104295473127
 20
550.3196016616181
 30
0.0
 10
498.2245102640018
 20
550.6301940864339
 30
0.0
 10
498.9240777753748
 20
550.9842974248727
 30
0.0
 10
499.6057403272966
 20
551.3708611581914
 30
0.0
 10
500.2468555927981
 20
551.801988027979
 30
0.0
 10
500.8500594816269
 20
552.2644386663187
 30
0.0
 10
501.4112240284194
 20
552.7641758137967
 30
0.0
 10
501.937526619
 20
553.2932569561304
 30
0.0
 10
502.4221291004783
 20
553.8588810422713
 30
0.0
 10
502.8674621208177
 20
554.456942604095
 30
0.0
 10
503.2683938627183
 20
555.0873864066899
 30
0.0
 10
503.626375031826
 20
555.7358812485379
 30
0.0
 10
503.9430226439436
 20
556.3965118378845
 30
0.0
 10
504.2062451401803
 20
557.0685896337445
 30
0.0
 10
504.4246798738818
 20
557.7482218724977
 30
0.0
 10
504.5958080166954
 20
558.4368255839095
 30
0.0
 10
504.7182390709595
 20
559.1344187872498
 30
0.0
 10
504.7867748298524
 20
559.8433826364605
 30
0.0
 10
504.7986776304851
 20
560.3180933970647
 30
0.0
 10
504.8046613369061
 20
560.5567372183043
 30
0.0
  0
SPLINE
  5
A6
330
1F
100
AcDbEntity
  8
Make2D$Visible$Curves
 62
    18
420
        0
370
    -3
100
AcDbSpline
210
0.0
220
0.0
230
1.0
 70
     8
 71
     3
 72
    15
 73
    11
 74
     0
 42
0.000000001
 43
0.0000000001
 40
0.0
 40
0.0
 40
0.0
 40
0.0
 40
0.1365056850436488
 40
0.2690316383389071
 40
0.3989195614459561
 40
0.5270819905998567
 40
0.6522723430909018
 40
0.7721365248474612
 40
0.8874883294200518
 40
1.0
 40
1.0
 40
1.0
 40
1.0
 10
483.0952596275044
 20
553.889152415954
 30
0.0
 10
483.4657818271894
 20
553.5432851434415
 30
0.0
 10
484.196023900186
 20
552.8616341269136
 30
0.0
 10
485.3788378452959
 20
551.9659220620339
 30
0.0
 10
486.6195690077811
 20
551.2120805679128
 30
0.0
 10
487.8997633014919
 20
550.5880434863492
 30
0.0
 10
489.1965674330645
 20
550.0946388183099
 30
0.0
 10
490.4891811422353
 20
549.7452464226056
 30
0.0
 10
491.7636485862345
 20
549.5189618349797
 30
0.0
 10
492.6098887092694
 20
549.4924974551147
 30
0.0
 10
493.0277349213079
 20
549.4794301937317
 30
0.0
  0
LINE
  5
A7
330
1F
100
AcDbEntity
  8
Make2D$Visible$Curves
 62
    18
420
        0
370
    -3
100
AcDbLine
 10
481.0600032172481
 20
551.9598989437317
 30
0.0
 11
483.0952596275044
 21
553.889152415954
 31
0.0
  0
SPLINE
  5
A8
330
1F
100
AcDbEntity
  8
Make2D$Visible$Curves
 62
    18
420
        0
370
    -3
100
AcDbSpline
210
0.0
220
0.0
230
1.0
 70
     8
 71
     3
 72
    23
 73
    19
 74
     0
 42
0.000000001
 43
0.0000000001
 40
0.0
 40
0.0
 40
0.0
 40
0.0
 40
0.0616172070006672
 40
0.1221796806916243
 40
0.1822170457787566
 40
0.2414733477827196
 40
0.3009570811868615
 40
0.3599663445410485
 40
0.4190304461222746
 40
0.4780664661946936
 40
0.5379906152311288
 40
0.5989585239045215
 40
0.6613196378030688
 40
0.7252463998147862
 40
0.791219265793767
 40
0.8587453708087642
 40
0.9283172764034407
 40
0.9999999999999999
 40
0.9999999999999999
 40
0.9999999999999999
 40
0.9999999999999999
 10
492.9482327177823
 20
546.7657549800565
 30
0.0
 10
492.6742868481178
 20
546.7701247133559
 30
0.0
 10
492.1310843806318
 20
546.7787893809904
 30
0.0
 10
491.3228060868619
 20
546.8391585495181
 30
0.0
 10
490.5286124791
 20
546.9337826687212
 30
0.0
 10
489.7445195724667
 20
547.0660986535726
 30
0.0
 10
488.9735128660354
 20
547.2411312471338
 30
0.0
 10
488.2132564479352
 20
547.4544453312375
 30
0.0
 10
487.4651882256762
 20
547.701421821016
 30
0.0
 10
486.7301981424459
 20
547.9962014214395
 30
0.0
 10
486.003289094579
 20
548.3307261647005
 30
0.0
 10
485.2804342035524
 20
548.7072951047038
 30
0.0
 10
484.5640992367739
 20
549.1323284836761
 30
0.0
 10
483.8530430611859
 20
549.6070935513254
 30
0.0
 10
483.1427815013851
 20
550.123434796175
 30
0.0
 10
482.4445487924818
 20
550.6961203273705
 30
0.0
 10
481.7414908199576
 20
551.3025661550325
 30
0.0
 10
481.2894175817078
 20
551.738615998366
 30
0.0
 10
481.0600032172481
 20
551.9598989437317
 30
0.0
  0
SPLINE
  5
A9
330
1F
100
AcDbEntity
  8
Make2D$Visible$Curves
 62
    18
420
        0
370
    -3
100
AcDbSpline
210
0.0
220
0.0
230
1.0
 70
     8
 71
     3
 72
    31
 73
    27
 74
     0
 42
0.000000001
 43
0.0000000001
 40
0.0
 40
0.0
 40
0.0
 40
0.0
 40
0.0420244161872696
 40
0.0836470760932866
 40
0.1249870302883069
 40
0.166251764043317
 40
0.2077069318956681
 40
0.2493600680441959
 40
0.2917421894082891
 40
0.3344820936149057
 40
0.3772004924353357
 40
0.4195412956113344
 40
0.4610302269045388
 40
0.5020833970397944
 40
0.542878883025599
 40
0.583790046425028
 40
0.6248538739084384
 40
0.6662160501888975
 40
0.7073916132892885
 40
0.7485501695995062
 40
0.7896491467244457
 40
0.8307353456408303
 40
0.8720668311367566
 40
0.9139911691914427
 40
0.9564970041381569
 40
1.0
 40
1.0
 40
1.0
 40
1.0
 10
533.3457557797115
 20
549.4794301937317
 30
0.0
 10
533.5968431659212
 20
549.4824895141803
 30
0.0
 10
534.096617525825
 20
549.4885789077655
 30
0.0
 10
534.8395933442698
 20
549.5688502057126
 30
0.0
 10
535.572838082137
 20
549.6831438451306
 30
0.0
 10
536.296311843344
 20
549.8465925097546
 30
0.0
 10
537.0061213357767
 20
550.0672422779462
 30
0.0
 10
537.7093549689102
 20
550.3272309607952
 30
0.0
 10
538.40263606298
 20
550.6330682472418
 30
0.0
 10
539.0782142294015
 20
550.9896821380221
 30
0.0
 10
539.7349602381073
 20
551.3792440855059
 30
0.0
 10
540.3589235887694
 20
551.8068018238145
 30
0.0
 10
540.943879823813
 20
552.2702821512024
 30
0.0
 10
541.4917027698957
 20
552.7635627996748
 30
0.0
 10
542.0007960794255
 20
553.2916627096009
 30
0.0
 10
542.4814794201247
 20
553.84615336617
 30
0.0
 10
542.9144066070248
 20
554.4429971429014
 30
0.0
 10
543.3111735407442
 20
555.0659792055433
 30
0.0
 10
543.6662277892806
 20
555.7142962870125
 30
0.0
 10
543.9819540517829
 20
556.3811207431017
 30
0.0
 10
544.2402176713017
 20
557.0718925681667
 30
0.0
 10
544.450843973164
 20
557.7791174428205
 30
0.0
 10
544.6254675419173
 20
558.5016753243174
 30
0.0
 10
544.7360930399
 20
559.2450475144299
 30
0.0
 10
544.8172245665864
 20
560.0054986590789
 30
0.0
 10
544.8229686363902
 20
560.5194091033072
 30
0.0
 10
544.825873968814
 20
560.7793433881761
 30
0.0
  0
SPLINE
  5
AA
330
1F
100
AcDbEntity
  8
Make2D$Visible$Curves
 62
    18
420
        0
370
    -3
100
AcDbSpline
210
0.0
220
0.0
230
1.0
 70
     8
 71
     3
 72
    23
 73
    19
 74
     0
 42
0.000000001
 43
0.0000000001
 40
-1.0
 40
-1.0
 40
-1.0
 40
-1.0
 40
-0.934316883359245
 40
-0.870486187887767
 40
-0.8083273517367071
 40
-0.7465368217511666
 40
-0.6852604113304273
 40
-0.623504455117664
 40
-0.5606678546118788
 40
-0.4961797225241575
 40
-0.431826965381049
 40
-0.3695830050869934
 40
-0.3085860647627414
 40
-0.2481497329298259
 40
-0.1877465401000115
 40
-0.12689932159004
 40
-0.0645039992970556
 40
0.0
 40
0.0
 40
0.0
 40
0.0
 10
533.3457557797115
 20
571.8672507065522
 30
0.0
 10
533.7350063817757
 20
571.8593808028573
 30
0.0
 10
534.5025297868551
 20
571.8438629455964
 30
0.0
 10
535.6285243325174
 20
571.6822746818034
 30
0.0
 10
536.7146582004789
 20
571.436751696494
 30
0.0
 10
537.7536961443311
 20
571.0785078452753
 30
0.0
 10
538.7523334505509
 20
570.6264099766629
 30
0.0
 10
539.7052386976275
 20
570.0714634452592
 30
0.0
 10
540.6148968345906
 20
569.4155733918112
 30
0.0
 10
541.4715625332897
 20
568.668346181191
 30
0.0
 10
542.2552094308153
 20
567.8496855169556
 30
0.0
 10
542.9450846610098
 20
566.9765236690872
 30
0.0
 10
543.5273712720145
 20
566.0549564491287
 30
0.0
 10
543.9987122280577
 20
565.084734787247
 30
0.0
 10
544.3756101767158
 20
564.0744655919925
 30
0.0
 10
544.6312881978774
 20
563.0154648559397
 30
0.0
 10
544.7972769719636
 20
561.9135271015715
 30
0.0
 10
544.816236619492
 20
561.1615697001989
 30
0.0
 10
544.825873968814
 20
560.7793433881761
 30
0.0
  0
SPLINE
  5
AB
330
1F
100
AcDbEntity
  8
Make2D$Visible$Curves
 62
    18
420
        0
370
    -3
100
AcDbSpline
210
0.0
220
0.0
230
1.0
 70
     8
 71
     3
 72
    31
 73
    27
 74
     0
 42
0.000000001
 43
0.0000000001
 40
-1.0
 40
-1.0
 40
-1.0
 40
-1.0
 40
-0.9569547959553378
 40
-0.9146084026426461
 40
-0.8731324464896245
 40
-0.832022498932455
 40
-0.7910904165202923
 40
-0.7504212507751983
 40
-0.7095411914698526
 40
-0.6682615089576025
 40
-0.6270544843870469
 40
-0.5863821151262472
 40
-0.5460055332517059
 40
-0.5055741320279581
 40
-0.4648718754458014
 40
-0.4237207477132887
 40
-0.3823580338401735
 40
-0.3399501500885386
 40
-0.2973777058968887
 40
-0.2552730147813032
 40
-0.2134217972960112
 40
-0.1714410653045265
 40
-0.1291809089179891
 40
-0.0865401701867204
 40
-0.043634425087271
 40
0.0
 40
0.0
 40
0.0
 40
0.0
 10
521.7596346525747
 20
560.6574400094369
 30
0.0
 10
521.7626644345278
 20
560.9155911231518
 30
0.0
 10
521.7686748119056
 20
561.4277024361062
 30
0.0
 10
521.8484161876404
 20
562.1848592169356
 30
0.0
 10
521.9624124512732
 20
562.925376209146
 30
0.0
 10
522.1278588827568
 20
563.6477686281487
 30
0.0
 10
522.3389748502559
 20
564.3530162319387
 30
0.0
 10
522.6005429870438
 20
565.0397332367409
 30
0.0
 10
522.9086708406849
 20
565.7090835379595
 30
0.0
 10
523.2630191800934
 20
566.3587668088289
 30
0.0
 10
523.6581974149844
 20
566.983201978308
 30
0.0
 10
524.0963109993797
 20
567.5712386894509
 30
0.0
 10
524.5609795793453
 20
568.1327500840049
 30
0.0
 10
525.0736003369561
 20
568.6513374485733
 30
0.0
 10
525.6202534676172
 20
569.1403345201682
 30
0.0
 10
526.2026957387698
 20
569.5955260106465
 30
0.0
 10
526.8221886853912
 20
570.0171073469311
 30
0.0
 10
527.4751408528214
 20
570.4021551919762
 30
0.0
 10
528.1571656383585
 20
570.7423615650414
 30
0.0
 10
528.8511956302586
 20
571.0497804161658
 30
0.0
 10
529.5655104634238
 20
571.2963089685297
 30
0.0
 10
530.2926274429628
 20
571.5037888145041
 30
0.0
 10
531.0355478041993
 20
571.6695762814797
 30
0.0
 10
531.7934374345418
 20
571.7847213776903
 30
0.0
 10
532.5652308571753
 20
571.8565270068293
 30
0.0
 10
533.0841244207704
 20
571.8636561305811
 30
0.0
 10
533.3457557797115
 20
571.8672507065522
 30
0.0
  0
SPLINE
  5
AC
330
1F
100
AcDbEntity
  8
Make2D$Visible$Curves
 62
    18
420
        0
370
    -3
100
AcDbSpline
210
0.0
220
0.0
230
1.0
 70
     8
 71
     3
 72
    31
 73
    27
 74
     0
 42
0.000000001
 43
0.0000000001
 40
-1.0
 40
-1.0
 40
-1.0
 40
-1.0
 40
-0.9573804296037476
 40
-0.915165314749677
 40
-0.8732373101142711
 40
-0.8313918481998429
 40
-0.7890835317031488
 40
-0.7468715271145532
 40
-0.7039439790074652
 40
-0.6606752310360147
 40
-0.6174439237262843
 40
-0.5752661471954434
 40
-0.5334887224725231
 40
-0.4924085173800778
 40
-0.4518213354785081
 40
-0.4111307685266613
 40
-0.3705392736574468
 40
-0.3296716247114507
 40
-0.288751535357925
 40
-0.2482507092603643
 40
-0.2079774481339874
 40
-0.1674539358248601
 40
-0.1264739967474414
 40
-0.0851304270802143
 40
-0.042915312226144
 40
0.0
 40
0.0
 40
0.0
 40
0.0
 10
533.3457557797115
 20
549.4794301937317
 30
0.0
 10
533.0911369361033
 20
549.4824865683844
 30
0.0
 10
532.5843155567354
 20
549.488570312994
 30
0.0
 10
531.8307685509903
 20
549.5688912124223
 30
0.0
 10
531.0868912030319
 20
549.6829837102827
 30
0.0
 10
530.3514120328632
 20
549.8474956719301
 30
0.0
 10
529.6286140487118
 20
550.0661178667511
 30
0.0
 10
528.9134054284445
 20
550.3273058563028
 30
0.0
 10
528.2094480069882
 20
550.6328856942149
 30
0.0
 10
527.5234832845676
 20
550.9898599618992
 30
0.0
 10
526.8587908861305
 20
551.3763295991865
 30
0.0
 10
526.2310213673677
 20
551.8047565506125
 30
0.0
 10
525.6369612259514
 20
552.2577412265597
 30
0.0
 10
525.0838242545842
 20
552.7462219756577
 30
0.0
 10
524.5741155935011
 20
553.2703591738881
 30
0.0
 10
524.0951037410555
 20
553.8189745590568
 30
0.0
 10
523.6604746383557
 20
554.4056118390458
 30
0.0
 10
523.2627240684274
 20
555.0192542049888
 30
0.0
 10
522.9088761816256
 20
555.6587468069345
 30
0.0
 10
522.6005587392028
 20
556.3173944722462
 30
0.0
 10
522.3390949916129
 20
556.9935692911514
 30
0.0
 10
522.1270491865898
 20
557.6897902842227
 30
0.0
 10
521.9625334770049
 20
558.4054035568695
 30
0.0
 10
521.8483779367091
 20
559.140591524559
 30
0.0
 10
521.768681848775
 20
559.892467949076
 30
0.0
 10
521.7626668756834
 20
560.4010549474075
 30
0.0
 10
521.7596346525747
 20
560.6574400094369
 30
0.0
  0
SPLINE
  5
AD
330
1F
100
AcDbEntity
  8
Make2D$Visible$Curves
 62
    18
420
        0
370
    -3
100
AcDbSpline
210
0.0
220
0.0
230
1.0
 70
     8
 71
     3
 72
    20
 73
    16
 74
     0
 42
0.000000001
 43
0.0000000001
 40
0.0
 40
0.0
 40
0.0
 40
0.0
 40
0.0652224643677754
 40
0.1285610333359569
 40
0.1903085914259791
 40
0.2513624206036525
 40
0.3123681819484213
 40
0.3737655552722731
 40
0.4362592488909652
 40
0.5003908724566114
 40
0.5645069415311041
 40
0.626951796535382
 40
0.6884747030765455
 40
0.7492612758557975
 40
0.7931063803639233
 40
0.7931063803639233
 40
0.7931063803639233
 40
0.7931063803639233
 10
519.3851688406089
 20
560.6627401563385
 30
0.0
 10
519.3968850416582
 20
561.1386688815255
 30
0.0
 10
519.4199790312564
 20
562.076779535537
 30
0.0
 10
519.617810424131
 20
563.4536913538851
 30
0.0
 10
519.9280318509352
 20
564.7773152476611
 30
0.0
 10
520.3710982967409
 20
566.0453130763938
 30
0.0
 10
520.9393696065627
 20
567.2594992238897
 30
0.0
 10
521.6407516615841
 20
568.4139832213025
 30
0.0
 10
522.4592818949893
 20
569.517023782851
 30
0.0
 10
523.3991285143936
 20
570.5455372780106
 30
0.0
 10
524.4224290778329
 20
571.490496381477
 30
0.0
 10
525.5209737006926
 20
572.3157630082814
 30
0.0
 10
526.6722054330126
 20
573.0210142741759
 30
0.0
 10
527.7718480577901
 20
573.5353054011798
 30
0.0
 10
528.4878297981959
 20
573.8024411987279
 30
0.0
 10
528.7916604159327
 20
573.9025071182714
 30
0.0
  0
SPLINE
  5
AE
330
1F
100
AcDbEntity
  8
Make2D$Visible$Curves
 62
    18
420
        0
370
    -3
100
AcDbSpline
210
0.0
220
0.0
230
1.0
 70
     8
 71
     3
 72
    23
 73
    19
 74
     0
 42
0.000000001
 43
0.0000000001
 40
0.0
 40
0.0
 40
0.0
 40
0.0
 40
0.0665678093466578
 40
0.1307446696927567
 40
0.1934063329837529
 40
0.2549808729384354
 40
0.3161029861471737
 40
0.3772491435988235
 40
0.4393860921342701
 40
0.5031317117549494
 40
0.566683973707883
 40
0.6282435331614806
 40
0.689101006319513
 40
0.7493530500310471
 40
0.8101759406352859
 40
0.8716141172342656
 40
0.9348713618188403
 40
1.0
 40
1.0
 40
1.0
 40
1.0
 10
533.4623590115489
 20
546.7657549800565
 30
0.0
 10
532.9724406904261
 20
546.7781638954935
 30
0.0
 10
532.0102006873321
 20
546.8025360292017
 30
0.0
 10
530.5960021431988
 20
546.9890966932584
 30
0.0
 10
529.2459133995371
 20
547.3118593972821
 30
0.0
 10
527.9489061313939
 20
547.7416949919863
 30
0.0
 10
526.7206057453586
 20
548.3151973443662
 30
0.0
 10
525.5513501864029
 20
549.0079960739946
 30
0.0
 10
524.4444453861834
 20
549.8299444114043
 30
0.0
 10
523.4100374620243
 20
550.7672504422958
 30
0.0
 10
522.4669310791046
 20
551.7907950946354
 30
0.0
 10
521.642945529072
 20
552.8862506127862
 30
0.0
 10
520.9462719719127
 20
554.0386164429611
 30
0.0
 10
520.3752575052913
 20
555.2519025144438
 30
0.0
 10
519.9268861786597
 20
556.5207687237788
 30
0.0
 10
519.6175855276022
 20
557.8524296115077
 30
0.0
 10
519.4199859540072
 20
559.2381352955708
 30
0.0
 10
519.396886778725
 20
560.1832796276192
 30
0.0
 10
519.3851688406089
 20
560.6627401563385
 30
0.0
  0
SPLINE
  5
AF
330
1F
100
AcDbEntity
  8
Make2D$Visible$Curves
 62
    18
420
        0
370
    -3
100
AcDbSpline
210
0.0
220
0.0
230
1.0
 70
     8
 71
     3
 72
    31
 73
    27
 74
     0
 42
0.000000001
 43
0.0000000001
 40
0.0
 40
0.0
 40
0.0
 40
0.0
 40
0.0432131612190012
 40
0.0858811690558518
 40
0.1281323862311966
 40
0.1701684053065486
 40
0.2119380974268381
 40
0.2538611869549927
 40
0.2960203108790405
 40
0.3385742985220559
 40
0.3811504230395504
 40
0.4228205986731563
 40
0.4642448467902094
 40
0.505120973852986
 40
0.5461502507660227
 40
0.58716445380955
 40
0.6285218300610057
 40
0.6702710736285354
 40
0.7119695050210305
 40
0.7532420689310754
 40
0.7940294954327627
 40
0.8348695885959567
 40
0.8754862830134267
 40
0.9165392362530584
 40
0.9579997207801184
 40
1.0
 40
1.0
 40
1.0
 40
1.0
 10
547.2003397807798
 20
560.7899436819796
 30
0.0
 10
547.1963018969823
 20
560.4752190899667
 30
0.0
 10
547.1882770690995
 20
559.8497402976212
 30
0.0
 10
547.0915234369704
 20
558.9209484724297
 30
0.0
 10
546.9514101803093
 20
558.0069933464075
 30
0.0
 10
546.7495555473106
 20
557.1109471946804
 30
0.0
 10
546.489180194335
 20
556.2326636947113
 30
0.0
 10
546.1683117429629
 20
555.373938985523
 30
0.0
 10
545.8005963740507
 20
554.5276996985424
 30
0.0
 10
545.3627804341436
 20
553.7100512682316
 30
0.0
 10
544.8851101407499
 20
552.9197103378963
 30
0.0
 10
544.3642586790074
 20
552.1665594624717
 30
0.0
 10
543.7965944307866
 20
551.4640519508575
 30
0.0
 10
543.1902263456022
 20
550.800899634
 30
0.0
 10
542.5367609302539
 20
550.1884210136398
 30
0.0
 10
541.8460328195338
 20
549.6132626452146
 30
0.0
 10
541.1144278103002
 20
549.0813783560857
 30
0.0
 10
540.3407888512638
 20
548.6039391809207
 30
0.0
 10
539.5448401606409
 20
548.1654054983949
 30
0.0
 10
538.7208070923352
 20
547.799265961778
 30
0.0
 10
537.8860759152003
 20
547.47564771279
 30
0.0
 10
537.033293990396
 20
547.2184671709063
 30
0.0
 10
536.1644339422323
 20
547.013801362956
 30
0.0
 10
535.2784096017062
 20
546.874736119011
 30
0.0
 10
534.3761335617596
 20
546.777767502444
 30
0.0
 10
533.7682610297798
 20
546.7697763820987
 30
0.0
 10
533.4623590115489
 20
546.7657549800565
 30
0.0
  0
LINE
  5
B0
330
1F
100
AcDbEntity
  8
Make2D$Visible$Curves
 62
    18
420
        0
370
    -3
100
AcDbLine
 10
565.1754567725029
 20
558.977293441595
 30
0.0
 11
565.1754567725029
 21
550.1578489971505
 31
0.0
  0
LINE
  5
B1
330
1F
100
AcDbEntity
  8
Make2D$Visible$Curves
 62
    18
420
        0
370
    -3
100
AcDbLine
 10
560.5431283804087
 20
559.0355950575138
 30
0.0
 11
565.1754567725029
 21
558.977293441595
 31
0.0
  0
SPLINE
  5
B2
330
1F
100
AcDbEntity
  8
Make2D$Visible$Curves
 62
    18
420
        0
370
    -3
100
AcDbSpline
210
0.0
220
0.0
230
1.0
 70
     8
 71
     3
 72
    23
 73
    19
 74
     0
 42
0.000000001
 43
0.0000000001
 40
-1.0
 40
-1.0
 40
-1.0
 40
-1.0
 40
-0.9301257456238032
 40
-0.8616669889341402
 40
-0.7940171675347635
 40
-0.7247264870580016
 40
-0.6554427559182064
 40
-0.586460835181863
 40
-0.5168443183619366
 40
-0.4445873704368752
 40
-0.4053466078384468
 40
-0.3615116154160382
 40
-0.3137246436943871
 40
-0.2605214593354683
 40
-0.2030182249496287
 40
-0.1400041697030118
 40
-0.072523006933558
 40
0.0
 40
0.0
 40
0.0
 40
0.0
 10
553.6423371143828
 20
554.5516707786676
 30
0.0
 10
553.6518606029099
 20
554.769641742838
 30
0.0
 10
553.6707146551717
 20
555.2011680620494
 30
0.0
 10
553.8104385472293
 20
555.8320842996519
 30
0.0
 10
554.0503102548855
 20
556.428071214869
 30
0.0
 10
554.3692345179506
 20
556.989503823747
 30
0.0
 10
554.7807511028482
 20
557.4923526417908
 30
0.0
 10
555.2594953063826
 20
557.9335269337736
 30
0.0
 10
555.8153964630947
 20
558.289404200193
 30
0.0
 10
556.3298001082267
 20
558.5284201283833
 30
0.0
 10
556.7930085810767
 20
558.671348380268
 30
0.0
 10
557.1882994116663
 20
558.7738543342414
 30
0.0
 10
557.6338678164284
 20
558.8495155963772
 30
0.0
 10
558.1231909082062
 20
558.9190264744643
 30
0.0
 10
558.6625538733524
 20
558.9717823929067
 30
0.0
 10
559.2478348722689
 20
559.0054697930374
 30
0.0
 10
559.8803049241596
 20
559.0360095527667
 30
0.0
 10
560.3169457769695
 20
559.0357365003287
 30
0.0
 10
560.5431283804087
 20
559.0355950575138
 30
0.0
  0
SPLINE
  5
B3
330
1F
100
AcDbEntity
  8
Make2D$Visible$Curves
 62
    18
420
        0
370
    -3
100
AcDbSpline
210
0.0
220
0.0
230
1.0
 70
     8
 71
     3
 72
    23
 73
    19
 74
     0
 42
0.000000001
 43
0.0000000001
 40
-1.0
 40
-1.0
 40
-1.0
 40
-1.0
 40
-0.9266674904409159
 40
-0.8585353794764671
 40
-0.7961297918046669
 40
-0.7382200197599431
 40
-0.685954591781421
 40
-0.6380122489940296
 40
-0.5953840299933618
 40
-0.557469994462438
 40
-0.4876777977030796
 40
-0.4184312795452252
 40
-0.3496460828027855
 40
-0.2788420728522148
 40
-0.2081697379567556
 40
-0.1392197801259145
 40
-0.0700344305736756
 40
0.0
 40
0.0
 40
0.0
 40
0.0
 10
560.3364226512422
 20
550.1578489971505
 30
0.0
 10
560.113798485555
 20
550.1583935203375
 30
0.0
 10
559.6843376187762
 20
550.1594439516738
 30
0.0
 10
559.0657142695727
 20
550.1806216560129
 30
0.0
 10
558.494680494066
 20
550.2168012667653
 30
0.0
 10
557.9733999491605
 20
550.2701223990052
 30
0.0
 10
557.4973926045063
 20
550.3324080657052
 30
0.0
 10
557.0703529731
 20
550.4093342068898
 30
0.0
 10
556.6921258079592
 20
550.5056683810603
 30
0.0
 10
556.256726937756
 20
550.6434115392274
 30
0.0
 10
555.7662409470549
 20
550.8686338625942
 30
0.0
 10
555.2392310132282
 20
551.2200005390984
 30
0.0
 10
554.7710962304618
 20
551.6512182065682
 30
0.0
 10
554.3713955971994
 20
552.1520091112276
 30
0.0
 10
554.0498420013273
 20
552.7065297819184
 30
0.0
 10
553.8115406758984
 20
553.2961935001438
 30
0.0
 10
553.670944066841
 20
553.9161577726563
 30
0.0
 10
553.6519114575667
 20
554.3389735461992
 30
0.0
 10
553.6423371143828
 20
554.5516707786676
 30
0.0
  0
LINE
  5
B4
330
1F
100
AcDbEntity
  8
Make2D$Visible$Curves
 62
    18
420
        0
370
    -3
100
AcDbLine
 10
565.1754567725029
 20
550.1578489971505
 30
0.0
 11
560.3364226512422
 21
550.1578489971505
 31
0.0
  0
SPLINE
  5
B5
330
1F
100
AcDbEntity
  8
Make2D$Visible$Curves
 62
    18
420
        0
370
    -3
100
AcDbSpline
210
0.0
220
0.0
230
1.0
 70
     8
 71
     3
 72
    15
 73
    11
 74
     0
 42
0.000000001
 43
0.0000000001
 40
0.0
 40
0.0
 40
0.0
 40
0.0
 40
0.0751731173762233
 40
0.1647462575118032
 40
0.268016880987779
 40
0.3859118756529554
 40
0.5177894792733981
 40
0.6636909770022801
 40
0.8244132205366409
 40
1.0
 40
1.0
 40
1.0
 40
1.0
 10
556.54681761652
 20
561.2563566093299
 30
0.0
 10
556.7125778199074
 20
561.2916065258116
 30
0.0
 10
557.0758509434072
 20
561.3688587673131
 30
0.0
 10
557.6741322360604
 20
561.4551012684619
 30
0.0
 10
558.3707074749345
 20
561.5287128926911
 30
0.0
 10
559.164625900487
 20
561.5839060160718
 30
0.0
 10
560.0551748841203
 20
561.6311558252787
 30
0.0
 10
561.0428361746485
 20
561.6687122493331
 30
0.0
 10
562.1295485438018
 20
561.6893486443965
 30
0.0
 10
562.8875514008196
 20
561.6904129709089
 30
0.0
 10
563.2833043285927
 20
561.6909686552701
 30
0.0
  0
SPLINE
  5
B6
330
1F
100
AcDbEntity
  8
Make2D$Visible$Curves
 62
    18
420
        0
370
    -3
100
AcDbSpline
210
0.0
220
0.0
230
1.0
 70
     8
 71
     3
 72
    23
 73
    19
 74
     0
 42
0.000000001
 43
0.0000000001
 40
0.0
 40
0.0
 40
0.0
 40
0.0
 40
0.0701188944197145
 40
0.137192352785971
 40
0.2020161807247509
 40
0.2646314069747432
 40
0.3261165471458174
 40
0.3860103046676402
 40
0.4458118469576802
 40
0.5052976967309596
 40
0.5646332777264874
 40
0.6242826253338402
 40
0.6839020319037503
 40
0.7439527709382692
 40
0.8053877310076335
 40
0.8683880308962806
 40
0.9330840282524763
 40
1.0
 40
1.0
 40
1.0
 40
1.0
 10
551.267871302417
 20
554.5410704848642
 30
0.0
 10
551.2710570726899
 20
554.7586167736744
 30
0.0
 10
551.2772902473962
 20
555.1842607808811
 30
0.0
 10
551.3521014519652
 20
555.8069598344505
 30
0.0
 10
551.4528713528925
 20
556.4020333788976
 30
0.0
 10
551.6078193079848
 20
556.9681619628034
 30
0.0
 10
551.810759812955
 20
557.501983561005
 30
0.0
 10
552.0488247362528
 20
558.0116559697332
 30
0.0
 10
552.3359621384529
 20
558.4885082513476
 30
0.0
 10
552.6658962678121
 20
558.9342715803828
 30
0.0
 10
553.0329232016156
 20
559.3493643699005
 30
0.0
 10
553.4354900554667
 20
559.7307785901728
 30
0.0
 10
553.8719716118676
 20
560.0762816246764
 30
0.0
 10
554.3409807074449
 20
560.3866480322603
 30
0.0
 10
554.8470896837689
 20
560.6546806213202
 30
0.0
 10
555.3826226304063
 20
560.894750724031
 30
0.0
 10
555.9522343855006
 20
561.096371241953
 30
0.0
 10
556.3464069613856
 20
561.202431825355
 30
0.0
 10
556.54681761652
 20
561.2563566093299
 30
0.0
  0
SPLINE
  5
B7
330
1F
100
AcDbEntity
  8
Make2D$Visible$Curves
 62
    18
420
        0
370
    -3
100
AcDbSpline
210
0.0
220
0.0
230
1.0
 70
     8
 71
     3
 72
    23
 73
    19
 74
     0
 42
0.000000001
 43
0.0000000001
 40
0.0
 40
0.0
 40
0.0
 40
0.0
 40
0.0624679520043991
 40
0.1234639248648872
 40
0.1833717983676246
 40
0.2431011254066008
 40
0.3020620046996776
 40
0.3616321745127559
 40
0.4221706153210528
 40
0.483247136620038
 40
0.5448542874401182
 40
0.6059696561964943
 40
0.6679553912811645
 40
0.7300422384003339
 40
0.7945949387644073
 40
0.8603755406720072
 40
0.9289225878691838
 40
1.0
 40
1.0
 40
1.0
 40
1.0
 10
556.3348117404516
 20
547.8416848011035
 30
0.0
 10
556.1519197140633
 20
547.8917431419623
 30
0.0
 10
555.7904452830976
 20
547.9906802614986
 30
0.0
 10
555.2695924538912
 20
548.1888499898565
 30
0.0
 10
554.7740134090036
 20
548.4237923702917
 30
0.0
 10
554.3021462830629
 20
548.6916691640146
 30
0.0
 10
553.8592790828679
 20
549.003440532544
 30
0.0
 10
553.4397428169054
 20
549.3492442545279
 30
0.0
 10
553.0411311441826
 20
549.7288900836749
 30
0.0
 10
552.676984782061
 20
550.1497377307471
 30
0.0
 10
552.3417413043826
 20
550.5962706685846
 30
0.0
 10
552.0541532566726
 20
551.0784334293414
 30
0.0
 10
551.810891735367
 20
551.5857319237053
 30
0.0
 10
551.6122211623497
 20
552.1233615086524
 30
0.0
 10
551.461154890962
 20
552.6880546136038
 30
0.0
 10
551.3495423598151
 20
553.2814597539833
 30
0.0
 10
551.2781312775151
 20
553.9015379408048
 30
0.0
 10
551.2713323655462
 20
554.3253328747022
 30
0.0
 10
551.267871302417
 20
554.5410704848642
 30
0.0
  0
SPLINE
  5
B8
330
1F
100
AcDbEntity
  8
Make2D$Visible$Curves
 62
    18
420
        0
370
    -3
100
AcDbSpline
210
0.0
220
0.0
230
1.0
 70
     8
 71
     3
 72
    15
 73
    11
 74
     0
 42
0.000000001
 43
0.0000000001
 40
0.0
 40
0.0
 40
0.0
 40
0.0
 40
0.1769557521312527
 40
0.3390550796425825
 40
0.4863182249420798
 40
0.6187809228353793
 40
0.7356188277673809
 40
0.838742476720109
 40
0.9264570678763177
 40
0.9999999999999999
 40
0.9999999999999999
 40
0.9999999999999999
 40
0.9999999999999999
 10
562.3610787676953
 20
547.4441737834753
 30
0.0
 10
562.0041867985724
 20
547.4445660943436
 30
0.0
 10
561.3203659362534
 20
547.4453177793896
 30
0.0
 10
560.3397818841686
 20
547.4681078222383
 30
0.0
 10
559.4491964129456
 20
547.4985476969872
 30
0.0
 10
558.6505298428447
 20
547.5407441514827
 30
0.0
 10
557.9413248156425
 20
547.5906112325205
 30
0.0
 10
557.3247904678801
 20
547.6605522444808
 30
0.0
 10
556.7960807265467
 20
547.7335794787232
 30
0.0
 10
556.4792879241832
 20
547.8078246351496
 30
0.0
 10
556.3348117404516
 20
547.8416848011035
 30
0.0
  0
LINE
  5
B9
330
1F
100
AcDbEntity
  8
Make2D$Visible$Curves
 62
    18
420
        0
370
    -3
100
AcDbLine
 10
471.5665187521081
 20
553.1259312621078
 30
0.0
 11
471.5665187521081
 21
573.9025071168087
 31
0.0
  0
LINE
  5
BA
330
1F
100
AcDbEntity
  8
Make2D$Visible$Curves
 62
    18
420
        0
370
    -3
100
AcDbLine
 10
510.2235336955796
 20
514.6790829715095
 30
0.0
 11
510.2235336955796
 21
493.9025071168087
 31
0.0
  0
LINE
  5
BB
330
1F
100
AcDbEntity
  8
Make2D$Visible$Curves
 62
    18
420
        0
370
    -3
100
AcDbLine
 10
470.1968242938701
 20
493.9025071168087
 30
0.0
 11
467.8223584819045
 21
493.9025071168086
 31
0.0
  0
LINE
  5
BC
330
1F
100
AcDbEntity
  8
Make2D$Visible$Curves
 62
    18
420
        0
370
    -3
100
AcDbLine
 10
510.2235336955796
 20
493.9025071168087
 30
0.0
 11
507.8490678836138
 21
493.9025071168087
 31
0.0
  0
LINE
  5
BD
330
1F
100
AcDbEntity
  8
Make2D$Visible$Curves
 62
    18
420
        0
370
    -3
100
AcDbLine
 10
528.2016319861777
 20
493.9025071168087
 30
0.0
 11
527.6610170022036
 21
493.9025071168086
 31
0.0
  0
LINE
  5
BE
330
1F
100
AcDbEntity
  8
Make2D$Visible$Curves
 62
    18
420
        0
370
    -3
100
AcDbLine
 10
416.6017388237847
 20
493.9025071168087
 30
0.0
 11
414.2272730118189
 21
493.9025071168086
 31
0.0
  0
LINE
  5
BF
330
1F
100
AcDbEntity
  8
Make2D$Visible$Curves
 62
    18
420
        0
370
    -3
100
AcDbLine
 10
400.9420166015625
 20
573.9025071168087
 30
0.0
 11
400.9420166015625
 21
493.9025071168087
 31
0.0
  0
LINE
  5
C0
330
1F
100
AcDbEntity
  8
Make2D$Visible$Curves
 62
    18
420
        0
370
    -3
100
AcDbLine
 10
412.2113018786627
 20
571.1888319031334
 30
0.0
 11
412.2113018786627
 21
573.9025071168087
 31
0.0
  0
LINE
  5
C1
330
1F
100
AcDbEntity
  8
Make2D$Visible$Curves
 62
    18
420
        0
370
    -3
100
AcDbLine
 10
424.7620497419107
 20
571.1888319031334
 30
0.0
 11
412.2113018786627
 21
571.1888319031334
 31
0.0
  0
LINE
  5
C2
330
1F
100
AcDbEntity
  8
Make2D$Visible$Curves
 62
    18
420
        0
370
    -3
100
AcDbLine
 10
424.7620497419107
 20
561.0125498518514
 30
0.0
 11
424.7620497419107
 21
571.1888319031334
 31
0.0
  0
LINE
  5
C3
330
1F
100
AcDbEntity
  8
Make2D$Visible$Curves
 62
    18
420
        0
370
    -3
100
AcDbLine
 10
412.2113018786627
 20
561.0125498518514
 30
0.0
 11
424.7620497419107
 21
561.0125498518514
 31
0.0
  0
LINE
  5
C4
330
1F
100
AcDbEntity
  8
Make2D$Visible$Curves
 62
    18
420
        0
370
    -3
100
AcDbLine
 10
412.2113018786627
 20
558.2988746381761
 30
0.0
 11
412.2113018786627
 21
561.0125498518514
 31
0.0
  0
LINE
  5
C5
330
1F
100
AcDbEntity
  8
Make2D$Visible$Curves
 62
    18
420
        0
370
    -3
100
AcDbLine
 10
424.7620497419107
 20
558.2988746381761
 30
0.0
 11
412.2113018786627
 21
558.2988746381761
 31
0.0
  0
LINE
  5
C6
330
1F
100
AcDbEntity
  8
Make2D$Visible$Curves
 62
    18
420
        0
370
    -3
100
AcDbLine
 10
424.7620497419107
 20
550.1578489971505
 30
0.0
 11
424.7620497419107
 21
558.2988746381761
 31
0.0
  0
LINE
  5
C7
330
1F
100
AcDbEntity
  8
Make2D$Visible$Curves
 62
    18
420
        0
370
    -3
100
AcDbLine
 10
412.2113018786627
 20
550.1578489971505
 30
0.0
 11
424.7620497419107
 21
550.1578489971505
 31
0.0
  0
LINE
  5
C8
330
1F
100
AcDbEntity
  8
Make2D$Visible$Curves
 62
    18
420
        0
370
    -3
100
AcDbLine
 10
412.2113018786627
 20
547.4441737834753
 30
0.0
 11
412.2113018786627
 21
550.1578489971505
 31
0.0
  0
LINE
  5
C9
330
1F
100
AcDbEntity
  8
Make2D$Visible$Curves
 62
    18
420
        0
370
    -3
100
AcDbLine
 10
427.1365155538765
 20
547.4441737834753
 30
0.0
 11
412.2113018786627
 21
547.4441737834753
 31
0.0
  0
LINE
  5
CA
330
1F
100
AcDbEntity
  8
Make2D$Visible$Curves
 62
    18
420
        0
370
    -3
100
AcDbLine
 10
427.1365155538765
 20
573.9025071168087
 30
0.0
 11
427.1365155538765
 21
547.4441737834753
 31
0.0
  0
LINE
  5
CB
330
1F
100
AcDbEntity
  8
Make2D$Visible$Curves
 62
    18
420
        0
370
    -3
100
AcDbLine
 10
431.8827453757021
 20
571.1888319031334
 30
0.0
 11
431.8827453757021
 21
573.9025071168087
 31
0.0
  0
LINE
  5
CC
330
1F
100
AcDbEntity
  8
Make2D$Visible$Curves
 62
    18
420
        0
370
    -3
100
AcDbLine
 10
444.4334932389502
 20
571.1888319031334
 30
0.0
 11
431.8827453757021
 21
571.1888319031334
 31
0.0
  0
LINE
  5
CD
330
1F
100
AcDbEntity
  8
Make2D$Visible$Curves
 62
    18
420
        0
370
    -3
100
AcDbLine
 10
444.4334932389502
 20
561.0125498518514
 30
0.0
 11
444.4334932389502
 21
571.1888319031334
 31
0.0
  0
LINE
  5
CE
330
1F
100
AcDbEntity
  8
Make2D$Visible$Curves
 62
    18
420
        0
370
    -3
100
AcDbLine
 10
431.8827453757021
 20
561.0125498518514
 30
0.0
 11
444.4334932389502
 21
561.0125498518514
 31
0.0
  0
LINE
  5
CF
330
1F
100
AcDbEntity
  8
Make2D$Visible$Curves
 62
    18
420
        0
370
    -3
100
AcDbLine
 10
431.8827453757021
 20
558.2988746381761
 30
0.0
 11
431.8827453757021
 21
561.0125498518514
 31
0.0
  0
LINE
  5
D0
330
1F
100
AcDbEntity
  8
Make2D$Visible$Curves
 62
    18
420
        0
370
    -3
100
AcDbLine
 10
444.4334932389502
 20
558.2988746381761
 30
0.0
 11
431.8827453757021
 21
558.2988746381761
 31
0.0
  0
LINE
  5
D1
330
1F
100
AcDbEntity
  8
Make2D$Visible$Curves
 62
    18
420
        0
370
    -3
100
AcDbLine
 10
444.4334932389502
 20
550.1578489971505
 30
0.0
 11
444.4334932389502
 21
558.2988746381761
 31
0.0
  0
LINE
  5
D2
330
1F
100
AcDbEntity
  8
Make2D$Visible$Curves
 62
    18
420
        0
370
    -3
100
AcDbLine
 10
431.8827453757021
 20
550.1578489971505
 30
0.0
 11
444.4334932389502
 21
550.1578489971505
 31
0.0
  0
LINE
  5
D3
330
1F
100
AcDbEntity
  8
Make2D$Visible$Curves
 62
    18
420
        0
370
    -3
100
AcDbLine
 10
431.8827453757021
 20
547.4441737834753
 30
0.0
 11
431.8827453757021
 21
550.1578489971505
 31
0.0
  0
LINE
  5
D4
330
1F
100
AcDbEntity
  8
Make2D$Visible$Curves
 62
    18
420
        0
370
    -3
100
AcDbLine
 10
446.807959050916
 20
547.4441737834753
 30
0.0
 11
431.8827453757021
 21
547.4441737834753
 31
0.0
  0
LINE
  5
D5
330
1F
100
AcDbEntity
  8
Make2D$Visible$Curves
 62
    18
420
        0
370
    -3
100
AcDbLine
 10
446.807959050916
 20
573.9025071168087
 30
0.0
 11
446.807959050916
 21
547.4441737834753
 31
0.0
  0
LINE
  5
D6
330
1F
100
AcDbEntity
  8
Make2D$Visible$Curves
 62
    18
420
        0
370
    -3
100
AcDbLine
 10
453.5884204615097
 20
547.4441737834753
 30
0.0
 11
453.5884204615097
 21
573.9025071168087
 31
0.0
  0
LINE
  5
D7
330
1F
100
AcDbEntity
  8
Make2D$Visible$Curves
 62
    18
420
        0
370
    -3
100
AcDbLine
 10
455.9628862734755
 20
547.4441737834753
 30
0.0
 11
453.5884204615097
 21
547.4441737834753
 31
0.0
  0
LINE
  5
D8
330
1F
100
AcDbEntity
  8
Make2D$Visible$Curves
 62
    18
420
        0
370
    -3
100
AcDbLine
 10
455.9628862734755
 20
568.2684509602916
 30
0.0
 11
455.9628862734755
 21
547.4441737834753
 31
0.0
  0
LINE
  5
D9
330
1F
100
AcDbEntity
  8
Make2D$Visible$Curves
 62
    18
420
        0
370
    -3
100
AcDbLine
 10
473.9409845640739
 20
547.4441737834753
 30
0.0
 11
473.4427707553132
 21
547.4441737834753
 31
0.0
  0
LINE
  5
DA
330
1F
100
AcDbEntity
  8
Make2D$Visible$Curves
 62
    18
420
        0
370
    -3
100
AcDbLine
 10
473.9409845640739
 20
573.9025071168087
 30
0.0
 11
473.9409845640739
 21
547.4441737834753
 31
0.0
  0
SPLINE
  5
DB
330
1F
100
AcDbEntity
  8
Make2D$Visible$Curves
 62
    18
420
        0
370
    -3
100
AcDbSpline
210
0.0
220
0.0
230
1.0
 70
     8
 71
     3
 72
    20
 73
    16
 74
     0
 42
0.000000001
 43
0.0000000001
 40
0.0
 40
0.0
 40
0.0
 40
0.0
 40
1.519609600345148
 40
2.974150489419436
 40
4.363070131171944
 40
5.701407928830722
 40
7.002850167782268
 40
8.28108873905196
 40
9.546219097597032
 40
10.81819189121094
 40
12.08415731571587
 40
13.33594091015686
 40
14.58511023383139
 40
15.84693947086401
 40
16.56449539378677
 40
16.56449539378677
 40
16.56449539378677
 40
16.56449539378677
 10
479.363956208701
 20
561.0125498518514
 30
0.0
 10
479.3768516095404
 20
561.5183386064364
 30
0.0
 10
479.402090238402
 20
562.5082585645953
 30
0.0
 10
479.5791260870719
 20
563.9519028732996
 30
0.0
 10
479.8650009101432
 20
565.3154269828774
 30
0.0
 10
480.2555282658859
 20
566.6002668692961
 30
0.0
 10
480.7610735378146
 20
567.8046017663443
 30
0.0
 10
481.3762111022982
 20
568.929654444343
 30
0.0
 10
482.1107860633592
 20
569.9681567336632
 30
0.0
 10
482.9386328515998
 20
570.9285867008875
 30
0.0
 10
483.8676980069738
 20
571.785301578078
 30
0.0
 10
484.8728774539775
 20
572.5382750370203
 30
0.0
 10
485.955831915561
 20
573.1725388548949
 30
0.0
 10
486.9393270814708
 20
573.6101512384736
 30
0.0
 10
487.5611077895983
 20
573.8294188694352
 30
0.0
 10
487.7885600668037
 20
573.9025071100806
 30
0.0
  0
LINE
  5
DC
330
1F
100
AcDbEntity
  8
Make2D$Visible$Curves
 62
    18
420
        0
370
    -3
100
AcDbLine
 10
490.5578664651111
 20
561.0125498518514
 30
0.0
 11
479.363956208701
 21
561.0125498518514
 31
0.0
  0
LINE
  5
DD
330
1F
100
AcDbEntity
  8
Make2D$Visible$Curves
 62
    18
420
        0
370
    -3
100
AcDbLine
 10
490.5578664651111
 20
563.7262250655266
 30
0.0
 11
490.5578664651111
 21
561.0125498518514
 31
0.0
  0
LINE
  5
DE
330
1F
100
AcDbEntity
  8
Make2D$Visible$Curves
 62
    18
420
        0
370
    -3
100
AcDbLine
 10
481.7384220206668
 20
563.7262250655266
 30
0.0
 11
490.5578664651111
 21
563.7262250655266
 31
0.0
  0
ARC
  5
DF
330
1F
100
AcDbEntity
  8
Make2D$Visible$Curves
 62
    18
420
        0
370
    -3
100
AcDbCircle
 10
-493.5581785659801
 20
560.9864128456297
 30
0.0
 40
13.4720367893076
210
0.0
220
0.0
230
-1.0
100
AcDbArc
 50
106.5173683656965
 51
140.3791605204544
  0
LINE
  5
E0
330
1F
100
AcDbEntity
  8
Make2D$Visible$Curves
 62
    18
420
        0
370
    -3
100
AcDbLine
 10
511.587731384016
 20
547.4441737834753
 30
0.0
 11
511.587731384016
 21
573.9025071168087
 31
0.0
  0
LINE
  5
E1
330
1F
100
AcDbEntity
  8
Make2D$Visible$Curves
 62
    18
420
        0
370
    -3
100
AcDbLine
 10
513.9621971959818
 20
547.4441737834753
 30
0.0
 11
511.587731384016
 21
547.4441737834753
 31
0.0
  0
LINE
  5
E2
330
1F
100
AcDbEntity
  8
Make2D$Visible$Curves
 62
    18
420
        0
370
    -3
100
AcDbLine
 10
513.9621971959818
 20
573.9025071168087
 30
0.0
 11
513.9621971959818
 21
547.4441737834753
 31
0.0
  0
SPLINE
  5
E3
330
1F
100
AcDbEntity
  8
Make2D$Visible$Curves
 62
    18
420
        0
370
    -3
100
AcDbSpline
210
0.0
220
0.0
230
1.0
 70
     8
 71
     3
 72
    20
 73
    16
 74
     0
 42
0.000000001
 43
0.0000000001
 40
0.0
 40
0.0
 40
0.0
 40
0.0
 40
0.9618399045473925
 40
2.298833155585484
 40
3.644408916890103
 40
5.017186692882957
 40
6.422685878456795
 40
7.827844174100918
 40
9.192138271858482
 40
10.53317224901368
 40
11.85576596600252
 40
13.18056309372864
 40
14.51832544321156
 40
15.88541549279975
 40
17.29360881009373
 40
17.29360881009373
 40
17.29360881009373
 40
17.29360881009373
 10
537.7591659074583
 20
573.9025071198106
 30
0.0
 10
538.0639823247125
 20
573.8043240511431
 30
0.0
 10
538.7838026167678
 20
573.5422027943702
 30
0.0
 10
539.8839330950013
 20
573.026305201221
 30
0.0
 10
541.0405250757312
 20
572.3260286533495
 30
0.0
 10
542.1398901518814
 20
571.5008489184281
 30
0.0
 10
543.1708410088213
 20
570.5622535849154
 30
0.0
 10
544.1129907258874
 20
569.5384612335112
 30
0.0
 10
544.9416658058872
 20
568.4471373954694
 30
0.0
 10
545.6379051115491
 20
567.2986611857839
 30
0.0
 10
546.2080083089904
 20
566.097766841239
 30
0.0
 10
546.6589382312163
 20
564.8475584660159
 30
0.0
 10
546.9666757709465
 20
563.5401717821517
 30
0.0
 10
547.165755297493
 20
562.182932794358
 30
0.0
 10
547.1886983538225
 20
561.258835493074
 30
0.0
 10
547.2003397807798
 20
560.7899436819796
 30
0.0
  0
LINE
  5
E4
330
1F
100
AcDbEntity
  8
Make2D$Visible$Curves
 62
    18
420
        0
370
    -3
100
AcDbLine
 10
565.1754567725029
 20
561.6909686552701
 30
0.0
 11
565.1754567725029
 21
573.9025071168087
 31
0.0
  0
LINE
  5
E5
330
1F
100
AcDbEntity
  8
Make2D$Visible$Curves
 62
    18
420
        0
370
    -3
100
AcDbLine
 10
563.2833043285927
 20
561.6909686552701
 30
0.0
 11
565.1754567725029
 21
561.6909686552701
 31
0.0
  0
LINE
  5
E6
330
1F
100
AcDbEntity
  8
Make2D$Visible$Curves
 62
    18
420
        0
370
    -3
100
AcDbLine
 10
567.5499225844687
 20
547.4441737834753
 30
0.0
 11
562.3610787676953
 21
547.4441737834753
 31
0.0
  0
LINE
  5
E7
330
1F
100
AcDbEntity
  8
Make2D$Visible$Curves
 62
    18
420
        0
370
    -3
100
AcDbLine
 10
567.5499225844687
 20
573.9025071168087
 30
0.0
 11
567.5499225844687
 21
547.4441737834753
 31
0.0
  0
LINE
  5
E8
330
1F
100
AcDbEntity
  8
Make2D$Visible$Curves
 62
    18
420
        0
370
    -3
100
AcDbLine
 10
570.9420166015625
 20
493.9025071168087
 30
0.0
 11
570.9420166015625
 21
573.9025071168087
 31
0.0
  0
LINE
  5
E9
330
1F
100
AcDbEntity
  8
Make2D$Visible$Curves
 62
    18
420
        0
370
    -3
100
AcDbLine
 10
569.5851789947251
 20
493.9025071168087
 30
0.0
 11
570.9420166015625
 21
493.9025071168087
 31
0.0
  0
LINE
  5
EA
330
1F
100
AcDbEntity
  8
Make2D$Visible$Curves
 62
    18
420
        0
370
    -3
100
AcDbLine
 10
569.5851789947251
 20
496.6161823304839
 30
0.0
 11
569.5851789947251
 21
493.9025071168087
 31
0.0
  0
LINE
  5
EB
330
1F
100
AcDbEntity
  8
Make2D$Visible$Curves
 62
    18
420
        0
370
    -3
100
AcDbLine
 10
557.034431131477
 20
496.6161823304839
 30
0.0
 11
569.5851789947251
 21
496.6161823304839
 31
0.0
  0
LINE
  5
EC
330
1F
100
AcDbEntity
  8
Make2D$Visible$Curves
 62
    18
420
        0
370
    -3
100
AcDbLine
 10
557.034431131477
 20
506.792464381766
 30
0.0
 11
557.034431131477
 21
496.6161823304839
 31
0.0
  0
LINE
  5
ED
330
1F
100
AcDbEntity
  8
Make2D$Visible$Curves
 62
    18
420
        0
370
    -3
100
AcDbLine
 10
569.5851789947251
 20
506.792464381766
 30
0.0
 11
557.034431131477
 21
506.792464381766
 31
0.0
  0
LINE
  5
EE
330
1F
100
AcDbEntity
  8
Make2D$Visible$Curves
 62
    18
420
        0
370
    -3
100
AcDbLine
 10
569.5851789947251
 20
509.5061395954411
 30
0.0
 11
569.5851789947251
 21
506.792464381766
 31
0.0
  0
LINE
  5
EF
330
1F
100
AcDbEntity
  8
Make2D$Visible$Curves
 62
    18
420
        0
370
    -3
100
AcDbLine
 10
557.034431131477
 20
509.5061395954411
 30
0.0
 11
569.5851789947251
 21
509.5061395954411
 31
0.0
  0
LINE
  5
F0
330
1F
100
AcDbEntity
  8
Make2D$Visible$Curves
 62
    18
420
        0
370
    -3
100
AcDbLine
 10
557.034431131477
 20
517.6471652364668
 30
0.0
 11
557.034431131477
 21
509.5061395954411
 31
0.0
  0
LINE
  5
F1
330
1F
100
AcDbEntity
  8
Make2D$Visible$Curves
 62
    18
420
        0
370
    -3
100
AcDbLine
 10
569.5851789947251
 20
517.6471652364668
 30
0.0
 11
557.034431131477
 21
517.6471652364668
 31
0.0
  0
LINE
  5
F2
330
1F
100
AcDbEntity
  8
Make2D$Visible$Curves
 62
    18
420
        0
370
    -3
100
AcDbLine
 10
569.5851789947251
 20
520.360840450142
 30
0.0
 11
569.5851789947251
 21
517.6471652364668
 31
0.0
  0
LINE
  5
F3
330
1F
100
AcDbEntity
  8
Make2D$Visible$Curves
 62
    18
420
        0
370
    -3
100
AcDbLine
 10
554.6599653195112
 20
520.360840450142
 30
0.0
 11
569.5851789947251
 21
520.360840450142
 31
0.0
  0
LINE
  5
F4
330
1F
100
AcDbEntity
  8
Make2D$Visible$Curves
 62
    18
420
        0
370
    -3
100
AcDbLine
 10
554.6599653195112
 20
493.9025071168087
 30
0.0
 11
554.6599653195112
 21
520.360840450142
 31
0.0
  0
LINE
  5
F5
330
1F
100
AcDbEntity
  8
Make2D$Visible$Curves
 62
    18
420
        0
370
    -3
100
AcDbLine
 10
549.9110336955796
 20
493.9025071168087
 30
0.0
 11
554.6599653195112
 21
493.9025071168087
 31
0.0
  0
LINE
  5
F6
330
1F
100
AcDbEntity
  8
Make2D$Visible$Curves
 62
    18
420
        0
370
    -3
100
AcDbLine
 10
549.9110336955796
 20
496.6161823304839
 30
0.0
 11
549.9110336955796
 21
493.9025071168087
 31
0.0
  0
LINE
  5
F7
330
1F
100
AcDbEntity
  8
Make2D$Visible$Curves
 62
    18
420
        0
370
    -3
100
AcDbLine
 10
537.360285832332
 20
496.6161823304839
 30
0.0
 11
549.9110336955796
 21
496.6161823304839
 31
0.0
  0
LINE
  5
F8
330
1F
100
AcDbEntity
  8
Make2D$Visible$Curves
 62
    18
420
        0
370
    -3
100
AcDbLine
 10
537.360285832332
 20
506.792464381766
 30
0.0
 11
537.360285832332
 21
496.6161823304839
 31
0.0
  0
LINE
  5
F9
330
1F
100
AcDbEntity
  8
Make2D$Visible$Curves
 62
    18
420
        0
370
    -3
100
AcDbLine
 10
549.9110336955796
 20
506.792464381766
 30
0.0
 11
537.360285832332
 21
506.792464381766
 31
0.0
  0
LINE
  5
FA
330
1F
100
AcDbEntity
  8
Make2D$Visible$Curves
 62
    18
420
        0
370
    -3
100
AcDbLine
 10
549.9110336955796
 20
509.5061395954411
 30
0.0
 11
549.9110336955796
 21
506.792464381766
 31
0.0
  0
LINE
  5
FB
330
1F
100
AcDbEntity
  8
Make2D$Visible$Curves
 62
    18
420
        0
370
    -3
100
AcDbLine
 10
537.360285832332
 20
509.5061395954411
 30
0.0
 11
549.9110336955796
 21
509.5061395954411
 31
0.0
  0
LINE
  5
FC
330
1F
100
AcDbEntity
  8
Make2D$Visible$Curves
 62
    18
420
        0
370
    -3
100
AcDbLine
 10
537.360285832332
 20
517.6471652364668
 30
0.0
 11
537.360285832332
 21
509.5061395954411
 31
0.0
  0
LINE
  5
FD
330
1F
100
AcDbEntity
  8
Make2D$Visible$Curves
 62
    18
420
        0
370
    -3
100
AcDbLine
 10
549.9110336955796
 20
517.6471652364668
 30
0.0
 11
537.360285832332
 21
517.6471652364668
 31
0.0
  0
LINE
  5
FE
330
1F
100
AcDbEntity
  8
Make2D$Visible$Curves
 62
    18
420
        0
370
    -3
100
AcDbLine
 10
549.9110336955796
 20
520.360840450142
 30
0.0
 11
549.9110336955796
 21
517.6471652364668
 31
0.0
  0
LINE
  5
FF
330
1F
100
AcDbEntity
  8
Make2D$Visible$Curves
 62
    18
420
        0
370
    -3
100
AcDbLine
 10
534.9858200203662
 20
520.360840450142
 30
0.0
 11
549.9110336955796
 21
520.360840450142
 31
0.0
  0
LINE
  5
100
330
1F
100
AcDbEntity
  8
Make2D$Visible$Curves
 62
    18
420
        0
370
    -3
100
AcDbLine
 10
534.9858200203662
 20
493.9025071168087
 30
0.0
 11
534.9858200203662
 21
520.360840450142
 31
0.0
  0
LINE
  5
101
330
1F
100
AcDbEntity
  8
Make2D$Visible$Curves
 62
    18
420
        0
370
    -3
100
AcDbLine
 10
528.2016319861777
 20
520.360840450142
 30
0.0
 11
528.2016319861777
 21
493.9025071168087
 31
0.0
  0
LINE
  5
102
330
1F
100
AcDbEntity
  8
Make2D$Visible$Curves
 62
    18
420
        0
370
    -3
100
AcDbLine
 10
525.8271661742119
 20
520.360840450142
 30
0.0
 11
528.2016319861777
 21
520.360840450142
 31
0.0
  0
LINE
  5
103
330
1F
100
AcDbEntity
  8
Make2D$Visible$Curves
 62
    18
420
        0
370
    -3
100
AcDbLine
 10
525.8271661742119
 20
499.5365632733258
 30
0.0
 11
525.8271661742119
 21
520.360840450142
 31
0.0
  0
LINE
  5
104
330
1F
100
AcDbEntity
  8
Make2D$Visible$Curves
 62
    18
420
        0
370
    -3
100
AcDbLine
 10
507.8490678836138
 20
520.360840450142
 30
0.0
 11
508.3472816923745
 21
520.360840450142
 31
0.0
  0
LINE
  5
105
330
1F
100
AcDbEntity
  8
Make2D$Visible$Curves
 62
    18
420
        0
370
    -3
100
AcDbLine
 10
507.8490678836138
 20
493.9025071168087
 30
0.0
 11
507.8490678836138
 21
520.360840450142
 31
0.0
  0
SPLINE
  5
106
330
1F
100
AcDbEntity
  8
Make2D$Visible$Curves
 62
    18
420
        0
370
    -3
100
AcDbSpline
210
0.0
220
0.0
230
1.0
 70
     8
 71
     3
 72
    20
 73
    16
 74
     0
 42
0.000000001
 43
0.0000000001
 40
0.0
 40
0.0
 40
0.0
 40
0.0
 40
1.519609600345141
 40
2.974150489419431
 40
4.363070131171941
 40
5.701407928830727
 40
7.002850167782273
 40
8.281088739051969
 40
9.546219097597046
 40
10.81819189121095
 40
12.08415731571588
 40
13.33594091015688
 40
14.5851102338314
 40
15.84693947086403
 40
16.56449539378682
 40
16.56449539378682
 40
16.56449539378682
 40
16.56449539378682
 10
502.4217174562634
 20
506.792464381766
 30
0.0
 10
502.408822055424
 20
506.286675627181
 30
0.0
 10
502.3835834265624
 20
505.296755669022
 30
0.0
 10
502.2065475778925
 20
503.8531113603177
 30
0.0
 10
501.9206727548212
 20
502.48958725074
 30
0.0
 10
501.5301453990787
 20
501.2047473643212
 30
0.0
 10
501.0246001271498
 20
500.000412467273
 30
0.0
 10
500.4094625626662
 20
498.8753597892743
 30
0.0
 10
499.6748876016054
 20
497.836857499954
 30
0.0
 10
498.8470408133649
 20
496.8764275327297
 30
0.0
 10
497.9179756579906
 20
496.0197126555393
 30
0.0
 10
496.9127962109869
 20
495.266739196597
 30
0.0
 10
495.8298417494034
 20
494.6324753787223
 30
0.0
 10
494.8463465834936
 20
494.1948629951437
 30
0.0
 10
494.2245658753664
 20
493.975595364182
 30
0.0
 10
493.9971135981605
 20
493.9025071235367
 30
0.0
  0
LINE
  5
107
330
1F
100
AcDbEntity
  8
Make2D$Visible$Curves
 62
    18
420
        0
370
    -3
100
AcDbLine
 10
491.227807199853
 20
506.792464381766
 30
0.0
 11
502.4217174562634
 21
506.792464381766
 31
0.0
  0
LINE
  5
108
330
1F
100
AcDbEntity
  8
Make2D$Visible$Curves
 62
    18
420
        0
370
    -3
100
AcDbLine
 10
491.227807199853
 20
504.0787891680907
 30
0.0
 11
491.227807199853
 21
506.792464381766
 31
0.0
  0
LINE
  5
109
330
1F
100
AcDbEntity
  8
Make2D$Visible$Curves
 62
    18
420
        0
370
    -3
100
AcDbLine
 10
500.0472516442976
 20
504.0787891680907
 30
0.0
 11
491.227807199853
 21
504.0787891680907
 31
0.0
  0
ARC
  5
10A
330
1F
100
AcDbEntity
  8
Make2D$Visible$Curves
 62
    18
420
        0
370
    -3
100
AcDbCircle
 10
-488.2274950989867
 20
506.8186013879914
 30
0.0
 40
13.47203678931192
210
0.0
220
0.0
230
-1.0
100
AcDbArc
 50
286.5173683657006
 51
320.3791605204484
  0
LINE
  5
10B
330
1F
100
AcDbEntity
  8
Make2D$Visible$Curves
 62
    18
420
        0
370
    -3
100
AcDbLine
 10
470.1968242938701
 20
520.360840450142
 30
0.0
 11
470.1968242938701
 21
493.9025071168087
 31
0.0
  0
LINE
  5
10C
330
1F
100
AcDbEntity
  8
Make2D$Visible$Curves
 62
    18
420
        0
370
    -3
100
AcDbLine
 10
467.8223584819045
 20
520.360840450142
 30
0.0
 11
470.1968242938701
 21
520.360840450142
 31
0.0
  0
LINE
  5
10D
330
1F
100
AcDbEntity
  8
Make2D$Visible$Curves
 62
    18
420
        0
370
    -3
100
AcDbLine
 10
467.8223584819045
 20
493.9025071168087
 30
0.0
 11
467.8223584819045
 21
520.360840450142
 31
0.0
  0
SPLINE
  5
10E
330
1F
100
AcDbEntity
  8
Make2D$Visible$Curves
 62
    18
420
        0
370
    -3
100
AcDbSpline
210
0.0
220
0.0
230
1.0
 70
     8
 71
     3
 72
    20
 73
    16
 74
     0
 42
0.000000001
 43
0.0000000001
 40
0.0
 40
0.0
 40
0.0
 40
0.0
 40
0.961708363324232
 40
2.29870063471165
 40
3.648822784720842
 40
5.021599554842775
 40
6.427097710569821
 40
7.832254976616949
 40
9.193353065068075
 40
10.53438605961187
 40
11.85697880750097
 40
13.18177496451287
 40
14.51953633378159
 40
15.88662538166641
 40
17.29481766713953
 40
17.29481766713953
 40
17.29481766713953
 40
17.29481766713953
 10
444.0208626991971
 20
493.9025071140019
 30
0.0
 10
443.716067892552
 20
494.0006450065939
 30
0.0
 10
442.9962565182116
 20
494.2626987424967
 30
0.0
 10
441.8953997424796
 20
494.7802390902456
 30
0.0
 10
440.7350878074571
 20
495.4772602892482
 30
0.0
 10
439.6350323487545
 20
496.3043261780599
 30
0.0
 10
438.6043536695699
 20
497.2429663550815
 30
0.0
 10
437.6613091352833
 20
498.2647989210465
 30
0.0
 10
436.8391400448197
 20
499.3596769208748
 30
0.0
 10
436.1419621044524
 20
500.5061199563424
 30
0.0
 10
435.5722511977033
 20
501.7073095732711
 30
0.0
 10
435.121216296327
 20
502.9574389319118
 30
0.0
 10
434.8135072540761
 20
504.2648470654323
 30
0.0
 10
434.6144199970056
 20
505.6220802345051
 30
0.0
 10
434.5914780025435
 20
506.546178335013
 30
0.0
 10
434.5798371143831
 20
507.0150705516377
 30
0.0
  0
LINE
  5
10F
330
1F
100
AcDbEntity
  8
Make2D$Visible$Curves
 62
    18
420
        0
370
    -3
100
AcDbLine
 10
416.6017388237847
 20
506.1140455783471
 30
0.0
 11
416.6017388237847
 21
493.9025071168087
 31
0.0
  0
LINE
  5
110
330
1F
100
AcDbEntity
  8
Make2D$Visible$Curves
 62
    18
420
        0
370
    -3
100
AcDbLine
 10
418.4938912676951
 20
506.1140455783471
 30
0.0
 11
416.6017388237847
 21
506.1140455783471
 31
0.0
  0
LINE
  5
111
330
1F
100
AcDbEntity
  8
Make2D$Visible$Curves
 62
    18
420
        0
370
    -3
100
AcDbLine
 10
414.2272730118189
 20
520.360840450142
 30
0.0
 11
419.4161168285925
 21
520.360840450142
 31
0.0
  0
LINE
  5
112
330
1F
100
AcDbEntity
  8
Make2D$Visible$Curves
 62
    18
420
        0
370
    -3
100
AcDbLine
 10
414.2272730118189
 20
493.9025071168087
 30
0.0
 11
414.2272730118189
 21
520.360840450142
 31
0.0
  0
LINE
  5
113
330
1F
100
AcDbEntity
  8
Make2D$Visible$Curves
 62
    18
420
        0
370
    -3
100
AcDbLine
 10
565.1754567725029
 20
573.9025071168087
 30
0.0
 11
567.5499225844687
 21
573.9025071168087
 31
0.0
  0
LINE
  5
114
330
1F
100
AcDbEntity
  8
Make2D$Visible$Curves
 62
    18
420
        0
370
    -3
100
AcDbLine
 10
511.587731384016
 20
573.9025071168087
 30
0.0
 11
513.9621971959818
 21
573.9025071168087
 31
0.0
  0
LINE
  5
115
330
1F
100
AcDbEntity
  8
Make2D$Visible$Curves
 62
    18
420
        0
370
    -3
100
AcDbLine
 10
471.5665187521081
 20
573.9025071168087
 30
0.0
 11
473.9409845640739
 21
573.9025071168087
 31
0.0
  0
LINE
  5
116
330
1F
100
AcDbEntity
  8
Make2D$Visible$Curves
 62
    18
420
        0
370
    -3
100
AcDbLine
 10
453.5884204615097
 20
573.9025071168087
 30
0.0
 11
454.1290354454841
 21
573.9025071168087
 31
0.0
  0
LINE
  5
117
330
1F
100
AcDbEntity
  8
Make2D$Visible$Curves
 62
    18
420
        0
370
    -3
100
AcDbLine
 10
427.1365155538765
 20
573.9025071168087
 30
0.0
 11
431.8827453757021
 21
573.9025071168087
 31
0.0
  0
LINE
  5
118
330
1F
100
AcDbEntity
  8
Make2D$Visible$Curves
 62
    18
420
        0
370
    -3
100
AcDbLine
 10
400.9420166015625
 20
573.9025071168087
 30
0.0
 11
412.2113018786627
 21
573.9025071168087
 31
0.0
  0
LINE
  5
119
330
1F
100
AcDbEntity
  8
Make2D$Visible$Curves
 62
    18
420
        0
370
    -3
100
AcDbLine
 10
300.5000070300835
 20
900.0
 30
0.0
 11
300.5000070300835
 21
385.0
 31
0.0
  0
LINE
  5
11A
330
1F
100
AcDbEntity
  8
Make2D$Visible$Curves
 62
    18
420
        0
370
    -3
100
AcDbLine
 10
-300.4999929699165
 20
385.0
 30
0.0
 11
300.5000070300835
 21
385.0
 31
0.0
  0
LINE
  5
11B
330
1F
100
AcDbEntity
  8
Make2D$Visible$Curves
 62
    18
420
        0
370
    -3
100
AcDbLine
 10
-300.4999929699165
 20
900.0
 30
0.0
 11
-300.4999929699165
 21
385.0
 31
0.0
  0
LINE
  5
11C
330
1F
100
AcDbEntity
  8
Make2D$Visible$Curves
 62
    18
420
        0
370
    -3
100
AcDbLine
 10
-300.4999929699165
 20
900.0
 30
0.0
 11
300.5000070300835
 21
900.0
 31
0.0
  0
LINE
  5
11D
330
1F
100
AcDbEntity
  8
Make2D$Visible$Curves
 62
    18
420
        0
370
    -3
100
AcDbLine
 10
443.3009796142578
 20
633.2375094454437
 30
0.0
 11
447.9652252197266
 21
663.1098486941008
 31
0.0
  0
LINE
  5
11E
330
1F
100
AcDbEntity
  8
Make2D$Visible$Curves
 62
    18
420
        0
370
    -3
100
AcDbLine
 10
447.9652252197266
 20
663.1098486941008
 30
0.0
 11
452.6294708251953
 21
633.2375094454436
 31
0.0
  0
LINE
  5
11F
330
1F
100
AcDbEntity
  8
Make2D$Visible$Curves
 62
    18
420
        0
370
    -3
100
AcDbLine
 10
452.6294708251953
 20
633.2375094454436
 30
0.0
 11
443.3009796142578
 21
633.2375094454437
 31
0.0
  0
LINE
  5
120
330
1F
100
AcDbEntity
  8
Make2D$Visible$Curves
 62
    18
420
        0
370
    -3
100
AcDbLine
 10
428.7899932861328
 20
655.3651701967864
 30
0.0
 11
428.2717437744141
 21
657.5779349367766
 31
0.0
  0
LINE
  5
121
330
1F
100
AcDbEntity
  8
Make2D$Visible$Curves
 62
    18
420
        0
370
    -3
100
AcDbLine
 10
428.2717437744141
 20
657.5779349367766
 30
0.0
 11
427.2352447509766
 21
659.790699676767
 31
0.0
  0
LINE
  5
122
330
1F
100
AcDbEntity
  8
Make2D$Visible$Curves
 62
    18
420
        0
370
    -3
100
AcDbLine
 10
427.2352447509766
 20
659.790699676767
 30
0.0
 11
425.6804962158203
 21
660.8970839541106
 31
0.0
  0
LINE
  5
123
330
1F
100
AcDbEntity
  8
Make2D$Visible$Curves
 62
    18
420
        0
370
    -3
100
AcDbLine
 10
425.6804962158203
 20
660.8970839541106
 30
0.0
 11
422.5709991455078
 21
660.8970839541106
 31
0.0
  0
LINE
  5
124
330
1F
100
AcDbEntity
  8
Make2D$Visible$Curves
 62
    18
420
        0
370
    -3
100
AcDbLine
 10
422.5709991455078
 20
660.8970839541106
 30
0.0
 11
421.0162506103516
 21
659.7906996767668
 31
0.0
  0
LINE
  5
125
330
1F
100
AcDbEntity
  8
Make2D$Visible$Curves
 62
    18
420
        0
370
    -3
100
AcDbLine
 10
421.0162506103516
 20
659.7906996767668
 30
0.0
 11
419.4615173339844
 21
657.5779349367766
 31
0.0
  0
LINE
  5
126
330
1F
100
AcDbEntity
  8
Make2D$Visible$Curves
 62
    18
420
        0
370
    -3
100
AcDbLine
 10
419.4615173339844
 20
657.5779349367766
 30
0.0
 11
418.9432678222656
 21
654.2587859194427
 31
0.0
  0
LINE
  5
127
330
1F
100
AcDbEntity
  8
Make2D$Visible$Curves
 62
    18
420
        0
370
    -3
100
AcDbLine
 10
418.9432678222656
 20
654.2587859194427
 30
0.0
 11
418.9432678222656
 21
652.0460211794524
 31
0.0
  0
LINE
  5
128
330
1F
100
AcDbEntity
  8
Make2D$Visible$Curves
 62
    18
420
        0
370
    -3
100
AcDbLine
 10
418.9432678222656
 20
652.0460211794524
 30
0.0
 11
419.4615173339844
 21
648.7268721621184
 31
0.0
  0
LINE
  5
129
330
1F
100
AcDbEntity
  8
Make2D$Visible$Curves
 62
    18
420
        0
370
    -3
100
AcDbLine
 10
419.4615173339844
 20
648.7268721621184
 30
0.0
 11
421.0162506103516
 21
646.514103607431
 31
0.0
  0
LINE
  5
12A
330
1F
100
AcDbEntity
  8
Make2D$Visible$Curves
 62
    18
420
        0
370
    -3
100
AcDbLine
 10
421.0162506103516
 20
646.514103607431
 30
0.0
 11
422.5709991455078
 21
645.4077231447845
 31
0.0
  0
LINE
  5
12B
330
1F
100
AcDbEntity
  8
Make2D$Visible$Curves
 62
    18
420
        0
370
    -3
100
AcDbLine
 10
422.5709991455078
 20
645.4077231447845
 30
0.0
 11
425.6804962158203
 21
645.4077231447844
 31
0.0
  0
LINE
  5
12C
330
1F
100
AcDbEntity
  8
Make2D$Visible$Curves
 62
    18
420
        0
370
    -3
100
AcDbLine
 10
425.6804962158203
 20
645.4077231447844
 30
0.0
 11
428.2717437744141
 21
644.3013388674408
 31
0.0
  0
LINE
  5
12D
330
1F
100
AcDbEntity
  8
Make2D$Visible$Curves
 62
    18
420
        0
370
    -3
100
AcDbLine
 10
428.2717437744141
 20
644.3013388674408
 30
0.0
 11
430.3447418212891
 21
642.0885741274506
 31
0.0
  0
LINE
  5
12E
330
1F
100
AcDbEntity
  8
Make2D$Visible$Curves
 62
    18
420
        0
370
    -3
100
AcDbLine
 10
430.3447418212891
 20
642.0885741274506
 30
0.0
 11
432.4177398681641
 21
637.6630408327727
 31
0.0
  0
LINE
  5
12F
330
1F
100
AcDbEntity
  8
Make2D$Visible$Curves
 62
    18
420
        0
370
    -3
100
AcDbLine
 10
432.4177398681641
 20
637.6630408327727
 30
0.0
 11
433.4542388916016
 21
633.2375094454437
 31
0.0
  0
LINE
  5
130
330
1F
100
AcDbEntity
  8
Make2D$Visible$Curves
 62
    18
420
        0
370
    -3
100
AcDbLine
 10
433.4542388916016
 20
633.2375094454437
 30
0.0
 11
433.4542388916016
 21
627.7055956881195
 31
0.0
  0
LINE
  5
131
330
1F
100
AcDbEntity
  8
Make2D$Visible$Curves
 62
    18
420
        0
370
    -3
100
AcDbLine
 10
433.4542388916016
 20
627.7055956881195
 30
0.0
 11
432.4177398681641
 21
623.2800623934417
 31
0.0
  0
LINE
  5
132
330
1F
100
AcDbEntity
  8
Make2D$Visible$Curves
 62
    18
420
        0
370
    -3
100
AcDbLine
 10
432.4177398681641
 20
623.2800623934417
 30
0.0
 11
430.3447418212891
 21
618.8545310061127
 31
0.0
  0
LINE
  5
133
330
1F
100
AcDbEntity
  8
Make2D$Visible$Curves
 62
    18
420
        0
370
    -3
100
AcDbLine
 10
430.3447418212891
 20
618.8545310061127
 30
0.0
 11
428.2717437744141
 21
616.6417653124481
 31
0.0
  0
LINE
  5
134
330
1F
100
AcDbEntity
  8
Make2D$Visible$Curves
 62
    18
420
        0
370
    -3
100
AcDbLine
 10
428.2717437744141
 20
616.6417653124481
 30
0.0
 11
425.6804962158203
 21
615.5353819887787
 31
0.0
  0
LINE
  5
135
330
1F
100
AcDbEntity
  8
Make2D$Visible$Curves
 62
    18
420
        0
370
    -3
100
AcDbLine
 10
425.6804962158203
 20
615.5353819887787
 30
0.0
 11
421.5345001220703
 21
615.5353819887787
 31
0.0
  0
LINE
  5
136
330
1F
100
AcDbEntity
  8
Make2D$Visible$Curves
 62
    18
420
        0
370
    -3
100
AcDbLine
 10
421.5345001220703
 20
615.5353819887787
 30
0.0
 11
418.9432678222656
 21
616.6417653124481
 31
0.0
  0
LINE
  5
137
330
1F
100
AcDbEntity
  8
Make2D$Visible$Curves
 62
    18
420
        0
370
    -3
100
AcDbLine
 10
418.9432678222656
 20
616.6417653124481
 30
0.0
 11
416.3520202636719
 21
619.9609133761078
 31
0.0
  0
LINE
  5
138
330
1F
100
AcDbEntity
  8
Make2D$Visible$Curves
 62
    18
420
        0
370
    -3
100
AcDbLine
 10
416.3520202636719
 20
619.9609133761078
 30
0.0
 11
414.7972717285156
 21
625.4928290407805
 31
0.0
  0
LINE
  5
139
330
1F
100
AcDbEntity
  8
Make2D$Visible$Curves
 62
    18
420
        0
370
    -3
100
AcDbLine
 10
414.7972717285156
 20
625.4928290407805
 30
0.0
 11
414.2790222167969
 21
629.9183604281097
 31
0.0
  0
LINE
  5
13A
330
1F
100
AcDbEntity
  8
Make2D$Visible$Curves
 62
    18
420
        0
370
    -3
100
AcDbLine
 10
414.2790222167969
 20
629.9183604281097
 30
0.0
 11
417.3885192871094
 21
629.9183604281097
 31
0.0
  0
LINE
  5
13B
330
1F
100
AcDbEntity
  8
Make2D$Visible$Curves
 62
    18
420
        0
370
    -3
100
AcDbLine
 10
417.3885192871094
 20
629.9183604281097
 30
0.0
 11
417.9067687988281
 21
626.5992114107758
 31
0.0
  0
LINE
  5
13C
330
1F
100
AcDbEntity
  8
Make2D$Visible$Curves
 62
    18
420
        0
370
    -3
100
AcDbLine
 10
417.9067687988281
 20
626.5992114107758
 30
0.0
 11
419.4615173339844
 21
623.2800623934417
 31
0.0
  0
LINE
  5
13D
330
1F
100
AcDbEntity
  8
Make2D$Visible$Curves
 62
    18
420
        0
370
    -3
100
AcDbLine
 10
419.4615173339844
 20
623.2800623934417
 30
0.0
 11
421.5345001220703
 21
622.1736800234467
 31
0.0
  0
LINE
  5
13E
330
1F
100
AcDbEntity
  8
Make2D$Visible$Curves
 62
    18
420
        0
370
    -3
100
AcDbLine
 10
421.5345001220703
 20
622.1736800234467
 30
0.0
 11
425.6804962158203
 21
622.1736800234467
 31
0.0
  0
LINE
  5
13F
330
1F
100
AcDbEntity
  8
Make2D$Visible$Curves
 62
    18
420
        0
370
    -3
100
AcDbLine
 10
425.6804962158203
 20
622.1736800234467
 30
0.0
 11
427.7534942626953
 21
623.2800623934417
 31
0.0
  0
LINE
  5
140
330
1F
100
AcDbEntity
  8
Make2D$Visible$Curves
 62
    18
420
        0
370
    -3
100
AcDbLine
 10
427.7534942626953
 20
623.2800623934417
 30
0.0
 11
429.3082427978516
 21
625.4928290407805
 31
0.0
  0
LINE
  5
141
330
1F
100
AcDbEntity
  8
Make2D$Visible$Curves
 62
    18
420
        0
370
    -3
100
AcDbLine
 10
429.3082427978516
 20
625.4928290407805
 30
0.0
 11
430.3447418212891
 21
628.8119780581146
 31
0.0
  0
LINE
  5
142
330
1F
100
AcDbEntity
  8
Make2D$Visible$Curves
 62
    18
420
        0
370
    -3
100
AcDbLine
 10
430.3447418212891
 20
628.8119780581146
 30
0.0
 11
430.3447418212891
 21
632.1311270754486
 31
0.0
  0
LINE
  5
143
330
1F
100
AcDbEntity
  8
Make2D$Visible$Curves
 62
    18
420
        0
370
    -3
100
AcDbLine
 10
430.3447418212891
 20
632.1311270754486
 30
0.0
 11
429.3082427978516
 21
635.4502760927825
 31
0.0
  0
LINE
  5
144
330
1F
100
AcDbEntity
  8
Make2D$Visible$Curves
 62
    18
420
        0
370
    -3
100
AcDbLine
 10
429.3082427978516
 20
635.4502760927825
 30
0.0
 11
427.7534942626953
 21
637.6630408327728
 31
0.0
  0
LINE
  5
145
330
1F
100
AcDbEntity
  8
Make2D$Visible$Curves
 62
    18
420
        0
370
    -3
100
AcDbLine
 10
427.7534942626953
 20
637.6630408327728
 30
0.0
 11
425.6804962158203
 21
638.7694251101166
 31
0.0
  0
LINE
  5
146
330
1F
100
AcDbEntity
  8
Make2D$Visible$Curves
 62
    18
420
        0
370
    -3
100
AcDbLine
 10
425.6804962158203
 20
638.7694251101166
 30
0.0
 11
422.5709991455078
 21
638.7694251101166
 31
0.0
  0
LINE
  5
147
330
1F
100
AcDbEntity
  8
Make2D$Visible$Curves
 62
    18
420
        0
370
    -3
100
AcDbLine
 10
422.5709991455078
 20
638.7694251101166
 30
0.0
 11
420.4980010986328
 21
639.8758093874603
 31
0.0
  0
LINE
  5
148
330
1F
100
AcDbEntity
  8
Make2D$Visible$Curves
 62
    18
420
        0
370
    -3
100
AcDbLine
 10
420.4980010986328
 20
639.8758093874603
 30
0.0
 11
418.4250183105469
 21
642.0885741274504
 31
0.0
  0
LINE
  5
149
330
1F
100
AcDbEntity
  8
Make2D$Visible$Curves
 62
    18
420
        0
370
    -3
100
AcDbLine
 10
418.4250183105469
 20
642.0885741274504
 30
0.0
 11
416.3520202636719
 21
646.514103607431
 31
0.0
  0
LINE
  5
14A
330
1F
100
AcDbEntity
  8
Make2D$Visible$Curves
 62
    18
420
        0
370
    -3
100
AcDbLine
 10
416.3520202636719
 20
646.514103607431
 30
0.0
 11
415.8337707519531
 21
650.9396369021088
 31
0.0
  0
LINE
  5
14B
330
1F
100
AcDbEntity
  8
Make2D$Visible$Curves
 62
    18
420
        0
370
    -3
100
AcDbLine
 10
415.8337707519531
 20
650.9396369021088
 30
0.0
 11
415.8337707519531
 21
655.3651701967864
 31
0.0
  0
LINE
  5
14C
330
1F
100
AcDbEntity
  8
Make2D$Visible$Curves
 62
    18
420
        0
370
    -3
100
AcDbLine
 10
415.8337707519531
 20
655.3651701967864
 30
0.0
 11
416.3520202636719
 21
659.7906996767668
 31
0.0
  0
LINE
  5
14D
330
1F
100
AcDbEntity
  8
Make2D$Visible$Curves
 62
    18
420
        0
370
    -3
100
AcDbLine
 10
416.3520202636719
 20
659.7906996767668
 30
0.0
 11
418.4250183105469
 21
664.2162329714447
 31
0.0
  0
LINE
  5
14E
330
1F
100
AcDbEntity
  8
Make2D$Visible$Curves
 62
    18
420
        0
370
    -3
100
AcDbLine
 10
418.4250183105469
 20
664.2162329714447
 30
0.0
 11
420.4980010986328
 21
666.4289977114348
 31
0.0
  0
LINE
  5
14F
330
1F
100
AcDbEntity
  8
Make2D$Visible$Curves
 62
    18
420
        0
370
    -3
100
AcDbLine
 10
420.4980010986328
 20
666.4289977114348
 30
0.0
 11
422.5709991455078
 21
667.5353819887786
 31
0.0
  0
LINE
  5
150
330
1F
100
AcDbEntity
  8
Make2D$Visible$Curves
 62
    18
420
        0
370
    -3
100
AcDbLine
 10
422.5709991455078
 20
667.5353819887786
 30
0.0
 11
425.1622467041016
 21
667.5353819887786
 31
0.0
  0
LINE
  5
151
330
1F
100
AcDbEntity
  8
Make2D$Visible$Curves
 62
    18
420
        0
370
    -3
100
AcDbLine
 10
425.1622467041016
 20
667.5353819887786
 30
0.0
 11
427.7534942626953
 21
666.4289977114348
 31
0.0
  0
LINE
  5
152
330
1F
100
AcDbEntity
  8
Make2D$Visible$Curves
 62
    18
420
        0
370
    -3
100
AcDbLine
 10
427.7534942626953
 20
666.4289977114348
 30
0.0
 11
429.8264923095703
 21
663.1098486941008
 31
0.0
  0
LINE
  5
153
330
1F
100
AcDbEntity
  8
Make2D$Visible$Curves
 62
    18
420
        0
370
    -3
100
AcDbLine
 10
429.8264923095703
 20
663.1098486941008
 30
0.0
 11
431.3812408447266
 21
658.6843192141204
 31
0.0
  0
LINE
  5
154
330
1F
100
AcDbEntity
  8
Make2D$Visible$Curves
 62
    18
420
        0
370
    -3
100
AcDbLine
 10
431.3812408447266
 20
658.6843192141204
 30
0.0
 11
431.8994903564453
 21
655.3651701967864
 31
0.0
  0
LINE
  5
155
330
1F
100
AcDbEntity
  8
Make2D$Visible$Curves
 62
    18
420
        0
370
    -3
100
AcDbLine
 10
431.8994903564453
 20
655.3651701967864
 30
0.0
 11
428.7899932861328
 21
655.3651701967864
 31
0.0
  0
LINE
  5
156
330
1F
100
AcDbEntity
  8
Make2D$Visible$Curves
 62
    18
420
        0
370
    -3
100
AcDbLine
 10
450.0382232666016
 20
667.5353819887786
 30
0.0
 11
458.330207824707
 21
615.5353819887787
 31
0.0
  0
LINE
  5
157
330
1F
100
AcDbEntity
  8
Make2D$Visible$Curves
 62
    18
420
        0
370
    -3
100
AcDbLine
 10
458.330207824707
 20
615.5353819887787
 30
0.0
 11
455.2207107543945
 21
615.5353819887787
 31
0.0
  0
LINE
  5
158
330
1F
100
AcDbEntity
  8
Make2D$Visible$Curves
 62
    18
420
        0
370
    -3
100
AcDbLine
 10
455.2207107543945
 20
615.5353819887787
 30
0.0
 11
453.1477203369141
 21
628.8119780581146
 31
0.0
  0
LINE
  5
159
330
1F
100
AcDbEntity
  8
Make2D$Visible$Curves
 62
    18
420
        0
370
    -3
100
AcDbLine
 10
453.1477203369141
 20
628.8119780581146
 30
0.0
 11
442.7827301025391
 21
628.8119780581146
 31
0.0
  0
LINE
  5
15A
330
1F
100
AcDbEntity
  8
Make2D$Visible$Curves
 62
    18
420
        0
370
    -3
100
AcDbLine
 10
442.7827301025391
 20
628.8119780581146
 30
0.0
 11
440.7097320556641
 21
615.5353819887787
 31
0.0
  0
LINE
  5
15B
330
1F
100
AcDbEntity
  8
Make2D$Visible$Curves
 62
    18
420
        0
370
    -3
100
AcDbLine
 10
440.7097320556641
 20
615.5353819887787
 30
0.0
 11
437.6002349853516
 21
615.5353819887787
 31
0.0
  0
LINE
  5
15C
330
1F
100
AcDbEntity
  8
Make2D$Visible$Curves
 62
    18
420
        0
370
    -3
100
AcDbLine
 10
437.6002349853516
 20
615.5353819887787
 30
0.0
 11
445.8922271728516
 21
667.5353819887786
 31
0.0
  0
LINE
  5
15D
330
1F
100
AcDbEntity
  8
Make2D$Visible$Curves
 62
    18
420
        0
370
    -3
100
AcDbLine
 10
445.8922271728516
 20
667.5353819887786
 30
0.0
 11
450.0382232666016
 21
667.5353819887786
 31
0.0
  0
LINE
  5
15E
330
1F
100
AcDbEntity
  8
Make2D$Visible$Curves
 62
    18
420
        0
370
    -3
100
AcDbLine
 10
482.6879272460938
 20
628.8119780581146
 30
0.0
 11
482.169677734375
 21
623.2800623934417
 31
0.0
  0
LINE
  5
15F
330
1F
100
AcDbEntity
  8
Make2D$Visible$Curves
 62
    18
420
        0
370
    -3
100
AcDbLine
 10
482.169677734375
 20
623.2800623934417
 30
0.0
 11
480.0966796875
 21
618.8545310061127
 31
0.0
  0
LINE
  5
160
330
1F
100
AcDbEntity
  8
Make2D$Visible$Curves
 62
    18
420
        0
370
    -3
100
AcDbLine
 10
480.0966796875
 20
618.8545310061127
 30
0.0
 11
478.023681640625
 21
616.6417653124481
 31
0.0
  0
LINE
  5
161
330
1F
100
AcDbEntity
  8
Make2D$Visible$Curves
 62
    18
420
        0
370
    -3
100
AcDbLine
 10
478.023681640625
 20
616.6417653124481
 30
0.0
 11
475.4324417114258
 21
615.5353819887787
 31
0.0
  0
LINE
  5
162
330
1F
100
AcDbEntity
  8
Make2D$Visible$Curves
 62
    18
420
        0
370
    -3
100
AcDbLine
 10
475.4324417114258
 20
615.5353819887787
 30
0.0
 11
470.768196105957
 21
615.5353819887787
 31
0.0
  0
LINE
  5
163
330
1F
100
AcDbEntity
  8
Make2D$Visible$Curves
 62
    18
420
        0
370
    -3
100
AcDbLine
 10
470.768196105957
 20
615.5353819887787
 30
0.0
 11
468.1769485473633
 21
616.6417653124481
 31
0.0
  0
LINE
  5
164
330
1F
100
AcDbEntity
  8
Make2D$Visible$Curves
 62
    18
420
        0
370
    -3
100
AcDbLine
 10
468.1769485473633
 20
616.6417653124481
 30
0.0
 11
466.1039505004883
 21
618.8545310061127
 31
0.0
  0
LINE
  5
165
330
1F
100
AcDbEntity
  8
Make2D$Visible$Curves
 62
    18
420
        0
370
    -3
100
AcDbLine
 10
466.1039505004883
 20
618.8545310061127
 30
0.0
 11
464.0309524536133
 21
623.2800623934417
 31
0.0
  0
LINE
  5
166
330
1F
100
AcDbEntity
  8
Make2D$Visible$Curves
 62
    18
420
        0
370
    -3
100
AcDbLine
 10
464.0309524536133
 20
623.2800623934417
 30
0.0
 11
462.9944534301758
 21
627.7055956881195
 31
0.0
  0
LINE
  5
167
330
1F
100
AcDbEntity
  8
Make2D$Visible$Curves
 62
    18
420
        0
370
    -3
100
AcDbLine
 10
462.9944534301758
 20
627.7055956881195
 30
0.0
 11
462.476203918457
 21
633.2375094454437
 31
0.0
  0
LINE
  5
168
330
1F
100
AcDbEntity
  8
Make2D$Visible$Curves
 62
    18
420
        0
370
    -3
100
AcDbLine
 10
462.476203918457
 20
633.2375094454437
 30
0.0
 11
462.476203918457
 21
649.8332526247649
 31
0.0
  0
LINE
  5
169
330
1F
100
AcDbEntity
  8
Make2D$Visible$Curves
 62
    18
420
        0
370
    -3
100
AcDbLine
 10
462.476203918457
 20
649.8332526247649
 30
0.0
 11
462.9944534301758
 21
655.3651701967864
 31
0.0
  0
LINE
  5
16A
330
1F
100
AcDbEntity
  8
Make2D$Visible$Curves
 62
    18
420
        0
370
    -3
100
AcDbLine
 10
462.9944534301758
 20
655.3651701967864
 30
0.0
 11
464.0309524536133
 21
659.790699676767
 31
0.0
  0
LINE
  5
16B
330
1F
100
AcDbEntity
  8
Make2D$Visible$Curves
 62
    18
420
        0
370
    -3
100
AcDbLine
 10
464.0309524536133
 20
659.790699676767
 30
0.0
 11
466.1039505004883
 21
664.2162329714446
 31
0.0
  0
LINE
  5
16C
330
1F
100
AcDbEntity
  8
Make2D$Visible$Curves
 62
    18
420
        0
370
    -3
100
AcDbLine
 10
466.1039505004883
 20
664.2162329714446
 30
0.0
 11
468.1769485473633
 21
666.4289977114348
 31
0.0
  0
LINE
  5
16D
330
1F
100
AcDbEntity
  8
Make2D$Visible$Curves
 62
    18
420
        0
370
    -3
100
AcDbLine
 10
468.1769485473633
 20
666.4289977114348
 30
0.0
 11
470.768196105957
 21
667.5353819887786
 31
0.0
  0
LINE
  5
16E
330
1F
100
AcDbEntity
  8
Make2D$Visible$Curves
 62
    18
420
        0
370
    -3
100
AcDbLine
 10
470.768196105957
 20
667.5353819887786
 30
0.0
 11
475.4324417114258
 21
667.5353819887786
 31
0.0
  0
LINE
  5
16F
330
1F
100
AcDbEntity
  8
Make2D$Visible$Curves
 62
    18
420
        0
370
    -3
100
AcDbLine
 10
475.4324417114258
 20
667.5353819887786
 30
0.0
 11
478.023681640625
 21
666.4289977114348
 31
0.0
  0
LINE
  5
170
330
1F
100
AcDbEntity
  8
Make2D$Visible$Curves
 62
    18
420
        0
370
    -3
100
AcDbLine
 10
478.023681640625
 20
666.4289977114348
 30
0.0
 11
480.0966796875
 21
664.2162329714447
 31
0.0
  0
LINE
  5
171
330
1F
100
AcDbEntity
  8
Make2D$Visible$Curves
 62
    18
420
        0
370
    -3
100
AcDbLine
 10
480.0966796875
 20
664.2162329714447
 30
0.0
 11
482.169677734375
 21
659.790699676767
 31
0.0
  0
LINE
  5
172
330
1F
100
AcDbEntity
  8
Make2D$Visible$Curves
 62
    18
420
        0
370
    -3
100
AcDbLine
 10
482.169677734375
 20
659.790699676767
 30
0.0
 11
482.6879272460938
 21
654.2587859194427
 31
0.0
  0
LINE
  5
173
330
1F
100
AcDbEntity
  8
Make2D$Visible$Curves
 62
    18
420
        0
370
    -3
100
AcDbLine
 10
482.6879272460938
 20
654.2587859194427
 30
0.0
 11
479.5784301757812
 21
654.2587859194427
 31
0.0
  0
LINE
  5
174
330
1F
100
AcDbEntity
  8
Make2D$Visible$Curves
 62
    18
420
        0
370
    -3
100
AcDbLine
 10
479.5784301757812
 20
654.2587859194427
 30
0.0
 11
479.0601806640625
 21
657.5779349367766
 31
0.0
  0
LINE
  5
175
330
1F
100
AcDbEntity
  8
Make2D$Visible$Curves
 62
    18
420
        0
370
    -3
100
AcDbLine
 10
479.0601806640625
 20
657.5779349367766
 30
0.0
 11
477.5054321289062
 21
659.790699676767
 31
0.0
  0
LINE
  5
176
330
1F
100
AcDbEntity
  8
Make2D$Visible$Curves
 62
    18
420
        0
370
    -3
100
AcDbLine
 10
477.5054321289062
 20
659.790699676767
 30
0.0
 11
475.4324417114258
 21
660.8970839541106
 31
0.0
  0
LINE
  5
177
330
1F
100
AcDbEntity
  8
Make2D$Visible$Curves
 62
    18
420
        0
370
    -3
100
AcDbLine
 10
475.4324417114258
 20
660.8970839541106
 30
0.0
 11
470.768196105957
 21
660.8970839541106
 31
0.0
  0
LINE
  5
178
330
1F
100
AcDbEntity
  8
Make2D$Visible$Curves
 62
    18
420
        0
370
    -3
100
AcDbLine
 10
470.768196105957
 20
660.8970839541106
 30
0.0
 11
468.695198059082
 21
659.790699676767
 31
0.0
  0
LINE
  5
179
330
1F
100
AcDbEntity
  8
Make2D$Visible$Curves
 62
    18
420
        0
370
    -3
100
AcDbLine
 10
468.695198059082
 20
659.790699676767
 30
0.0
 11
467.1404495239258
 21
657.5779349367766
 31
0.0
  0
LINE
  5
17A
330
1F
100
AcDbEntity
  8
Make2D$Visible$Curves
 62
    18
420
        0
370
    -3
100
AcDbLine
 10
467.1404495239258
 20
657.5779349367766
 30
0.0
 11
466.1039505004883
 21
654.2587859194427
 31
0.0
  0
LINE
  5
17B
330
1F
100
AcDbEntity
  8
Make2D$Visible$Curves
 62
    18
420
        0
370
    -3
100
AcDbLine
 10
466.1039505004883
 20
654.2587859194427
 30
0.0
 11
465.5857009887695
 21
649.8332526247649
 31
0.0
  0
LINE
  5
17C
330
1F
100
AcDbEntity
  8
Make2D$Visible$Curves
 62
    18
420
        0
370
    -3
100
AcDbLine
 10
465.5857009887695
 20
649.8332526247649
 30
0.0
 11
465.5857009887695
 21
633.2375094454437
 31
0.0
  0
LINE
  5
17D
330
1F
100
AcDbEntity
  8
Make2D$Visible$Curves
 62
    18
420
        0
370
    -3
100
AcDbLine
 10
465.5857009887695
 20
633.2375094454437
 30
0.0
 11
466.1039505004883
 21
628.8119780581146
 31
0.0
  0
LINE
  5
17E
330
1F
100
AcDbEntity
  8
Make2D$Visible$Curves
 62
    18
420
        0
370
    -3
100
AcDbLine
 10
466.1039505004883
 20
628.8119780581146
 30
0.0
 11
467.1404495239258
 21
625.4928290407805
 31
0.0
  0
LINE
  5
17F
330
1F
100
AcDbEntity
  8
Make2D$Visible$Curves
 62
    18
420
        0
370
    -3
100
AcDbLine
 10
467.1404495239258
 20
625.4928290407805
 30
0.0
 11
468.695198059082
 21
623.2800623934417
 31
0.0
  0
LINE
  5
180
330
1F
100
AcDbEntity
  8
Make2D$Visible$Curves
 62
    18
420
        0
370
    -3
100
AcDbLine
 10
468.695198059082
 20
623.2800623934417
 30
0.0
 11
470.768196105957
 21
622.1736800234467
 31
0.0
  0
LINE
  5
181
330
1F
100
AcDbEntity
  8
Make2D$Visible$Curves
 62
    18
420
        0
370
    -3
100
AcDbLine
 10
470.768196105957
 20
622.1736800234467
 30
0.0
 11
475.4324417114258
 21
622.1736800234467
 31
0.0
  0
LINE
  5
182
330
1F
100
AcDbEntity
  8
Make2D$Visible$Curves
 62
    18
420
        0
370
    -3
100
AcDbLine
 10
475.4324417114258
 20
622.1736800234467
 30
0.0
 11
477.5054321289062
 21
623.2800623934417
 31
0.0
  0
LINE
  5
183
330
1F
100
AcDbEntity
  8
Make2D$Visible$Curves
 62
    18
420
        0
370
    -3
100
AcDbLine
 10
477.5054321289062
 20
623.2800623934417
 30
0.0
 11
479.0601806640625
 21
625.4928290407805
 31
0.0
  0
LINE
  5
184
330
1F
100
AcDbEntity
  8
Make2D$Visible$Curves
 62
    18
420
        0
370
    -3
100
AcDbLine
 10
479.0601806640625
 20
625.4928290407805
 30
0.0
 11
479.5784301757812
 21
628.8119780581146
 31
0.0
  0
LINE
  5
185
330
1F
100
AcDbEntity
  8
Make2D$Visible$Curves
 62
    18
420
        0
370
    -3
100
AcDbLine
 10
479.5784301757812
 20
628.8119780581146
 30
0.0
 11
482.6879272460938
 21
628.8119780581146
 31
0.0
  0
LINE
  5
186
330
1F
100
AcDbEntity
  8
Make2D$Visible$Curves
 62
    18
420
        0
370
    -3
100
AcDbLine
 10
489.9434204101562
 20
615.5353819887787
 30
0.0
 11
486.8339233398438
 21
615.5353819887787
 31
0.0
  0
LINE
  5
187
330
1F
100
AcDbEntity
  8
Make2D$Visible$Curves
 62
    18
420
        0
370
    -3
100
AcDbLine
 10
486.8339233398438
 20
615.5353819887787
 30
0.0
 11
486.8339233398438
 21
667.5353819887786
 31
0.0
  0
LINE
  5
188
330
1F
100
AcDbEntity
  8
Make2D$Visible$Curves
 62
    18
420
        0
370
    -3
100
AcDbLine
 10
486.8339233398438
 20
667.5353819887786
 30
0.0
 11
489.9434204101562
 21
667.5353819887786
 31
0.0
  0
LINE
  5
189
330
1F
100
AcDbEntity
  8
Make2D$Visible$Curves
 62
    18
420
        0
370
    -3
100
AcDbLine
 10
489.9434204101562
 20
667.5353819887786
 30
0.0
 11
489.9434204101562
 21
646.514103607431
 31
0.0
  0
LINE
  5
18A
330
1F
100
AcDbEntity
  8
Make2D$Visible$Curves
 62
    18
420
        0
370
    -3
100
AcDbLine
 10
489.9434204101562
 20
646.514103607431
 30
0.0
 11
504.4543991088867
 21
646.514103607431
 31
0.0
  0
LINE
  5
18B
330
1F
100
AcDbEntity
  8
Make2D$Visible$Curves
 62
    18
420
        0
370
    -3
100
AcDbLine
 10
504.4543991088867
 20
646.514103607431
 30
0.0
 11
504.4543991088867
 21
667.5353819887786
 31
0.0
  0
LINE
  5
18C
330
1F
100
AcDbEntity
  8
Make2D$Visible$Curves
 62
    18
420
        0
370
    -3
100
AcDbLine
 10
504.4543991088867
 20
667.5353819887786
 30
0.0
 11
507.5638961791992
 21
667.5353819887786
 31
0.0
  0
LINE
  5
18D
330
1F
100
AcDbEntity
  8
Make2D$Visible$Curves
 62
    18
420
        0
370
    -3
100
AcDbLine
 10
507.5638961791992
 20
667.5353819887786
 30
0.0
 11
507.5638961791992
 21
615.5353819887787
 31
0.0
  0
LINE
  5
18E
330
1F
100
AcDbEntity
  8
Make2D$Visible$Curves
 62
    18
420
        0
370
    -3
100
AcDbLine
 10
507.5638961791992
 20
615.5353819887787
 30
0.0
 11
504.4543991088867
 21
615.5353819887787
 31
0.0
  0
LINE
  5
18F
330
1F
100
AcDbEntity
  8
Make2D$Visible$Curves
 62
    18
420
        0
370
    -3
100
AcDbLine
 10
504.4543991088867
 20
615.5353819887787
 30
0.0
 11
504.4543991088867
 21
639.8758093874603
 31
0.0
  0
LINE
  5
190
330
1F
100
AcDbEntity
  8
Make2D$Visible$Curves
 62
    18
420
        0
370
    -3
100
AcDbLine
 10
504.4543991088867
 20
639.8758093874603
 30
0.0
 11
489.9434204101562
 21
639.8758093874603
 31
0.0
  0
LINE
  5
191
330
1F
100
AcDbEntity
  8
Make2D$Visible$Curves
 62
    18
420
        0
370
    -3
100
AcDbLine
 10
489.9434204101562
 20
639.8758093874603
 30
0.0
 11
489.9434204101562
 21
615.5353819887787
 31
0.0
  0
LINE
  5
192
330
1F
100
AcDbEntity
  8
Make2D$Visible$Curves
 62
    18
420
        0
370
    -3
100
AcDbLine
 10
530.3668670654297
 20
622.1736800234467
 30
0.0
 11
530.3668670654297
 21
615.5353819887787
 31
0.0
  0
LINE
  5
193
330
1F
100
AcDbEntity
  8
Make2D$Visible$Curves
 62
    18
420
        0
370
    -3
100
AcDbLine
 10
530.3668670654297
 20
615.5353819887787
 30
0.0
 11
511.7098922729492
 21
615.5353819887787
 31
0.0
  0
LINE
  5
194
330
1F
100
AcDbEntity
  8
Make2D$Visible$Curves
 62
    18
420
        0
370
    -3
100
AcDbLine
 10
511.7098922729492
 20
615.5353819887787
 30
0.0
 11
511.7098922729492
 21
667.5353819887786
 31
0.0
  0
LINE
  5
195
330
1F
100
AcDbEntity
  8
Make2D$Visible$Curves
 62
    18
420
        0
370
    -3
100
AcDbLine
 10
511.7098922729492
 20
667.5353819887786
 30
0.0
 11
530.3668670654297
 21
667.5353819887786
 31
0.0
  0
LINE
  5
196
330
1F
100
AcDbEntity
  8
Make2D$Visible$Curves
 62
    18
420
        0
370
    -3
100
AcDbLine
 10
530.3668670654297
 20
667.5353819887786
 30
0.0
 11
530.3668670654297
 21
660.8970839541106
 31
0.0
  0
LINE
  5
197
330
1F
100
AcDbEntity
  8
Make2D$Visible$Curves
 62
    18
420
        0
370
    -3
100
AcDbLine
 10
530.3668670654297
 20
660.8970839541106
 30
0.0
 11
514.8193855285645
 21
660.8970839541106
 31
0.0
  0
LINE
  5
198
330
1F
100
AcDbEntity
  8
Make2D$Visible$Curves
 62
    18
420
        0
370
    -3
100
AcDbLine
 10
514.8193855285645
 20
660.8970839541106
 30
0.0
 11
514.8193855285645
 21
646.514103607431
 31
0.0
  0
LINE
  5
199
330
1F
100
AcDbEntity
  8
Make2D$Visible$Curves
 62
    18
420
        0
370
    -3
100
AcDbLine
 10
514.8193855285645
 20
646.514103607431
 30
0.0
 11
528.2938690185547
 21
646.514103607431
 31
0.0
  0
LINE
  5
19A
330
1F
100
AcDbEntity
  8
Make2D$Visible$Curves
 62
    18
420
        0
370
    -3
100
AcDbLine
 10
528.2938690185547
 20
646.514103607431
 30
0.0
 11
528.2938690185547
 21
639.8758093874603
 31
0.0
  0
LINE
  5
19B
330
1F
100
AcDbEntity
  8
Make2D$Visible$Curves
 62
    18
420
        0
370
    -3
100
AcDbLine
 10
528.2938690185547
 20
639.8758093874603
 30
0.0
 11
514.8193855285645
 21
639.8758093874603
 31
0.0
  0
LINE
  5
19C
330
1F
100
AcDbEntity
  8
Make2D$Visible$Curves
 62
    18
420
        0
370
    -3
100
AcDbLine
 10
514.8193855285645
 20
639.8758093874603
 30
0.0
 11
514.8193855285645
 21
622.1736800234467
 31
0.0
  0
LINE
  5
19D
330
1F
100
AcDbEntity
  8
Make2D$Visible$Curves
 62
    18
420
        0
370
    -3
100
AcDbLine
 10
514.8193855285645
 20
622.1736800234467
 30
0.0
 11
530.3668670654297
 21
622.1736800234467
 31
0.0
  0
LINE
  5
19E
330
1F
100
AcDbEntity
  8
Make2D$Visible$Curves
 62
    18
420
        0
370
    -3
100
AcDbLine
 10
554.2063369750977
 20
667.5353819887786
 30
0.0
 11
554.2063369750977
 21
662.0034682314543
 31
0.0
  0
LINE
  5
19F
330
1F
100
AcDbEntity
  8
Make2D$Visible$Curves
 62
    18
420
        0
370
    -3
100
AcDbLine
 10
554.2063369750977
 20
662.0034682314543
 30
0.0
 11
545.9143466949463
 21
662.0034682314545
 31
0.0
  0
LINE
  5
1A0
330
1F
100
AcDbEntity
  8
Make2D$Visible$Curves
 62
    18
420
        0
370
    -3
100
AcDbLine
 10
545.9143466949463
 20
662.0034682314545
 30
0.0
 11
545.9143466949463
 21
615.5353819887787
 31
0.0
  0
LINE
  5
1A1
330
1F
100
AcDbEntity
  8
Make2D$Visible$Curves
 62
    18
420
        0
370
    -3
100
AcDbLine
 10
545.9143466949463
 20
615.5353819887787
 30
0.0
 11
542.8048515319824
 21
615.5353819887787
 31
0.0
  0
LINE
  5
1A2
330
1F
100
AcDbEntity
  8
Make2D$Visible$Curves
 62
    18
420
        0
370
    -3
100
AcDbLine
 10
542.8048515319824
 20
615.5353819887787
 30
0.0
 11
542.8048515319824
 21
662.0034682314543
 31
0.0
  0
LINE
  5
1A3
330
1F
100
AcDbEntity
  8
Make2D$Visible$Curves
 62
    18
420
        0
370
    -3
100
AcDbLine
 10
542.8048515319824
 20
662.0034682314543
 30
0.0
 11
534.5128631591797
 21
662.0034682314543
 31
0.0
  0
LINE
  5
1A4
330
1F
100
AcDbEntity
  8
Make2D$Visible$Curves
 62
    18
420
        0
370
    -3
100
AcDbLine
 10
534.5128631591797
 20
662.0034682314543
 30
0.0
 11
534.5128631591797
 21
667.5353819887786
 31
0.0
  0
LINE
  5
1A5
330
1F
100
AcDbEntity
  8
Make2D$Visible$Curves
 62
    18
420
        0
370
    -3
100
AcDbLine
 10
534.5128631591797
 20
667.5353819887786
 30
0.0
 11
554.2063369750977
 21
667.5353819887786
 31
0.0
  0
LINE
  5
1A6
330
1F
100
AcDbEntity
  8
Make2D$Visible$Curves
 62
    18
420
        0
370
    -3
100
AcDbLine
 10
400.9420166015625
 20
681.5353819887786
 30
0.0
 11
400.9420166015625
 21
601.5353819887787
 31
0.0
  0
LINE
  5
1A7
330
1F
100
AcDbEntity
  8
Make2D$Visible$Curves
 62
    18
420
        0
370
    -3
100
AcDbLine
 10
570.9420166015625
 20
681.5353819887786
 30
0.0
 11
400.9420166015625
 21
681.5353819887786
 31
0.0
  0
LINE
  5
1A8
330
1F
100
AcDbEntity
  8
Make2D$Visible$Curves
 62
    18
420
        0
370
    -3
100
AcDbLine
 10
570.9420166015625
 20
601.5353819887787
 30
0.0
 11
570.9420166015625
 21
681.5353819887786
 31
0.0
  0
LINE
  5
1A9
330
1F
100
AcDbEntity
  8
Make2D$Visible$Curves
 62
    18
420
        0
370
    -3
100
AcDbLine
 10
400.9420166015625
 20
601.5353819887787
 30
0.0
 11
570.9420166015625
 21
601.5353819887787
 31
0.0
  0
LINE
  5
1AA
330
1F
100
AcDbEntity
  8
Make2D$Visible$Curves
 62
    18
420
        0
370
    -3
100
AcDbLine
 10
443.0542782927207
 20
742.7996150406893
 30
0.0
 11
447.7185238981895
 21
772.6719542893466
 31
0.0
  0
LINE
  5
1AB
330
1F
100
AcDbEntity
  8
Make2D$Visible$Curves
 62
    18
420
        0
370
    -3
100
AcDbLine
 10
447.7185238981895
 20
772.6719542893466
 30
0.0
 11
452.3827695036582
 21
742.7996150406893
 31
0.0
  0
LINE
  5
1AC
330
1F
100
AcDbEntity
  8
Make2D$Visible$Curves
 62
    18
420
        0
370
    -3
100
AcDbLine
 10
452.3827695036582
 20
742.7996150406893
 30
0.0
 11
443.0542782927207
 21
742.7996150406893
 31
0.0
  0
LINE
  5
1AD
330
1F
100
AcDbEntity
  8
Make2D$Visible$Curves
 62
    18
420
        0
370
    -3
100
AcDbLine
 10
428.5432919645957
 20
764.9272757920321
 30
0.0
 11
428.025042452877
 21
767.1400405320223
 31
0.0
  0
LINE
  5
1AE
330
1F
100
AcDbEntity
  8
Make2D$Visible$Curves
 62
    18
420
        0
370
    -3
100
AcDbLine
 10
428.025042452877
 20
767.1400405320223
 30
0.0
 11
426.9885434294395
 21
769.3528052720126
 31
0.0
  0
LINE
  5
1AF
330
1F
100
AcDbEntity
  8
Make2D$Visible$Curves
 62
    18
420
        0
370
    -3
100
AcDbLine
 10
426.9885434294395
 20
769.3528052720126
 30
0.0
 11
425.4337948942832
 21
770.4591895493563
 31
0.0
  0
LINE
  5
1B0
330
1F
100
AcDbEntity
  8
Make2D$Visible$Curves
 62
    18
420
        0
370
    -3
100
AcDbLine
 10
425.4337948942832
 20
770.4591895493563
 30
0.0
 11
422.3242978239707
 21
770.4591895493563
 31
0.0
  0
LINE
  5
1B1
330
1F
100
AcDbEntity
  8
Make2D$Visible$Curves
 62
    18
420
        0
370
    -3
100
AcDbLine
 10
422.3242978239707
 20
770.4591895493563
 30
0.0
 11
420.7695492888145
 21
769.3528052720126
 31
0.0
  0
LINE
  5
1B2
330
1F
100
AcDbEntity
  8
Make2D$Visible$Curves
 62
    18
420
        0
370
    -3
100
AcDbLine
 10
420.7695492888145
 20
769.3528052720126
 30
0.0
 11
419.2148160124473
 21
767.1400405320223
 31
0.0
  0
LINE
  5
1B3
330
1F
100
AcDbEntity
  8
Make2D$Visible$Curves
 62
    18
420
        0
370
    -3
100
AcDbLine
 10
419.2148160124473
 20
767.1400405320223
 30
0.0
 11
418.6965665007285
 21
763.8208915146884
 31
0.0
  0
LINE
  5
1B4
330
1F
100
AcDbEntity
  8
Make2D$Visible$Curves
 62
    18
420
        0
370
    -3
100
AcDbLine
 10
418.6965665007285
 20
763.8208915146884
 30
0.0
 11
418.6965665007285
 21
761.6081267746981
 31
0.0
  0
LINE
  5
1B5
330
1F
100
AcDbEntity
  8
Make2D$Visible$Curves
 62
    18
420
        0
370
    -3
100
AcDbLine
 10
418.6965665007285
 20
761.6081267746981
 30
0.0
 11
419.2148160124473
 21
758.2889777573641
 31
0.0
  0
LINE
  5
1B6
330
1F
100
AcDbEntity
  8
Make2D$Visible$Curves
 62
    18
420
        0
370
    -3
100
AcDbLine
 10
419.2148160124473
 20
758.2889777573641
 30
0.0
 11
420.7695492888145
 21
756.0762092026766
 31
0.0
  0
LINE
  5
1B7
330
1F
100
AcDbEntity
  8
Make2D$Visible$Curves
 62
    18
420
        0
370
    -3
100
AcDbLine
 10
420.7695492888145
 20
756.0762092026766
 30
0.0
 11
422.3242978239707
 21
754.9698287400302
 31
0.0
  0
LINE
  5
1B8
330
1F
100
AcDbEntity
  8
Make2D$Visible$Curves
 62
    18
420
        0
370
    -3
100
AcDbLine
 10
422.3242978239707
 20
754.9698287400302
 30
0.0
 11
425.4337948942832
 21
754.9698287400302
 31
0.0
  0
LINE
  5
1B9
330
1F
100
AcDbEntity
  8
Make2D$Visible$Curves
 62
    18
420
        0
370
    -3
100
AcDbLine
 10
425.4337948942832
 20
754.9698287400302
 30
0.0
 11
428.025042452877
 21
753.8634444626864
 31
0.0
  0
LINE
  5
1BA
330
1F
100
AcDbEntity
  8
Make2D$Visible$Curves
 62
    18
420
        0
370
    -3
100
AcDbLine
 10
428.025042452877
 20
753.8634444626864
 30
0.0
 11
430.098040499752
 21
751.6506797226962
 31
0.0
  0
LINE
  5
1BB
330
1F
100
AcDbEntity
  8
Make2D$Visible$Curves
 62
    18
420
        0
370
    -3
100
AcDbLine
 10
430.098040499752
 20
751.6506797226962
 30
0.0
 11
432.171038546627
 21
747.2251464280184
 31
0.0
  0
LINE
  5
1BC
330
1F
100
AcDbEntity
  8
Make2D$Visible$Curves
 62
    18
420
        0
370
    -3
100
AcDbLine
 10
432.171038546627
 20
747.2251464280184
 30
0.0
 11
433.2075375700645
 21
742.7996150406893
 31
0.0
  0
LINE
  5
1BD
330
1F
100
AcDbEntity
  8
Make2D$Visible$Curves
 62
    18
420
        0
370
    -3
100
AcDbLine
 10
433.2075375700645
 20
742.7996150406893
 30
0.0
 11
433.2075375700645
 21
737.2677012833651
 31
0.0
  0
LINE
  5
1BE
330
1F
100
AcDbEntity
  8
Make2D$Visible$Curves
 62
    18
420
        0
370
    -3
100
AcDbLine
 10
433.2075375700645
 20
737.2677012833651
 30
0.0
 11
432.171038546627
 21
732.8421679886874
 31
0.0
  0
LINE
  5
1BF
330
1F
100
AcDbEntity
  8
Make2D$Visible$Curves
 62
    18
420
        0
370
    -3
100
AcDbLine
 10
432.171038546627
 20
732.8421679886874
 30
0.0
 11
430.098040499752
 21
728.4166366013583
 31
0.0
  0
LINE
  5
1C0
330
1F
100
AcDbEntity
  8
Make2D$Visible$Curves
 62
    18
420
        0
370
    -3
100
AcDbLine
 10
430.098040499752
 20
728.4166366013583
 30
0.0
 11
428.025042452877
 21
726.2038709076937
 31
0.0
  0
LINE
  5
1C1
330
1F
100
AcDbEntity
  8
Make2D$Visible$Curves
 62
    18
420
        0
370
    -3
100
AcDbLine
 10
428.025042452877
 20
726.2038709076937
 30
0.0
 11
425.4337948942832
 21
725.0974875840243
 31
0.0
  0
LINE
  5
1C2
330
1F
100
AcDbEntity
  8
Make2D$Visible$Curves
 62
    18
420
        0
370
    -3
100
AcDbLine
 10
425.4337948942832
 20
725.0974875840243
 30
0.0
 11
421.2877988005332
 21
725.0974875840243
 31
0.0
  0
LINE
  5
1C3
330
1F
100
AcDbEntity
  8
Make2D$Visible$Curves
 62
    18
420
        0
370
    -3
100
AcDbLine
 10
421.2877988005332
 20
725.0974875840243
 30
0.0
 11
418.6965665007285
 21
726.2038709076937
 31
0.0
  0
LINE
  5
1C4
330
1F
100
AcDbEntity
  8
Make2D$Visible$Curves
 62
    18
420
        0
370
    -3
100
AcDbLine
 10
418.6965665007285
 20
726.2038709076937
 30
0.0
 11
416.1053189421348
 21
729.5230189713534
 31
0.0
  0
LINE
  5
1C5
330
1F
100
AcDbEntity
  8
Make2D$Visible$Curves
 62
    18
420
        0
370
    -3
100
AcDbLine
 10
416.1053189421348
 20
729.5230189713534
 30
0.0
 11
414.5505704069785
 21
735.0549346360262
 31
0.0
  0
LINE
  5
1C6
330
1F
100
AcDbEntity
  8
Make2D$Visible$Curves
 62
    18
420
        0
370
    -3
100
AcDbLine
 10
414.5505704069785
 20
735.0549346360262
 30
0.0
 11
414.0323208952598
 21
739.4804660233553
 31
0.0
  0
LINE
  5
1C7
330
1F
100
AcDbEntity
  8
Make2D$Visible$Curves
 62
    18
420
        0
370
    -3
100
AcDbLine
 10
414.0323208952598
 20
739.4804660233553
 30
0.0
 11
417.1418179655723
 21
739.4804660233553
 31
0.0
  0
LINE
  5
1C8
330
1F
100
AcDbEntity
  8
Make2D$Visible$Curves
 62
    18
420
        0
370
    -3
100
AcDbLine
 10
417.1418179655723
 20
739.4804660233553
 30
0.0
 11
417.660067477291
 21
736.1613170060214
 31
0.0
  0
LINE
  5
1C9
330
1F
100
AcDbEntity
  8
Make2D$Visible$Curves
 62
    18
420
        0
370
    -3
100
AcDbLine
 10
417.660067477291
 20
736.1613170060214
 30
0.0
 11
419.2148160124473
 21
732.8421679886874
 31
0.0
  0
LINE
  5
1CA
330
1F
100
AcDbEntity
  8
Make2D$Visible$Curves
 62
    18
420
        0
370
    -3
100
AcDbLine
 10
419.2148160124473
 20
732.8421679886874
 30
0.0
 11
421.2877988005332
 21
731.7357856186923
 31
0.0
  0
LINE
  5
1CB
330
1F
100
AcDbEntity
  8
Make2D$Visible$Curves
 62
    18
420
        0
370
    -3
100
AcDbLine
 10
421.2877988005332
 20
731.7357856186923
 30
0.0
 11
425.4337948942832
 21
731.7357856186923
 31
0.0
  0
LINE
  5
1CC
330
1F
100
AcDbEntity
  8
Make2D$Visible$Curves
 62
    18
420
        0
370
    -3
100
AcDbLine
 10
425.4337948942832
 20
731.7357856186923
 30
0.0
 11
427.5067929411582
 21
732.8421679886874
 31
0.0
  0
LINE
  5
1CD
330
1F
100
AcDbEntity
  8
Make2D$Visible$Curves
 62
    18
420
        0
370
    -3
100
AcDbLine
 10
427.5067929411582
 20
732.8421679886874
 30
0.0
 11
429.0615414763145
 21
735.0549346360262
 31
0.0
  0
LINE
  5
1CE
330
1F
100
AcDbEntity
  8
Make2D$Visible$Curves
 62
    18
420
        0
370
    -3
100
AcDbLine
 10
429.0615414763145
 20
735.0549346360262
 30
0.0
 11
430.098040499752
 21
738.3740836533602
 31
0.0
  0
LINE
  5
1CF
330
1F
100
AcDbEntity
  8
Make2D$Visible$Curves
 62
    18
420
        0
370
    -3
100
AcDbLine
 10
430.098040499752
 20
738.3740836533602
 30
0.0
 11
430.098040499752
 21
741.6932326706942
 31
0.0
  0
LINE
  5
1D0
330
1F
100
AcDbEntity
  8
Make2D$Visible$Curves
 62
    18
420
        0
370
    -3
100
AcDbLine
 10
430.098040499752
 20
741.6932326706942
 30
0.0
 11
429.0615414763145
 21
745.0123816880282
 31
0.0
  0
LINE
  5
1D1
330
1F
100
AcDbEntity
  8
Make2D$Visible$Curves
 62
    18
420
        0
370
    -3
100
AcDbLine
 10
429.0615414763145
 20
745.0123816880282
 30
0.0
 11
427.5067929411582
 21
747.2251464280184
 31
0.0
  0
LINE
  5
1D2
330
1F
100
AcDbEntity
  8
Make2D$Visible$Curves
 62
    18
420
        0
370
    -3
100
AcDbLine
 10
427.5067929411582
 20
747.2251464280184
 30
0.0
 11
425.4337948942832
 21
748.3315307053622
 31
0.0
  0
LINE
  5
1D3
330
1F
100
AcDbEntity
  8
Make2D$Visible$Curves
 62
    18
420
        0
370
    -3
100
AcDbLine
 10
425.4337948942832
 20
748.3315307053622
 30
0.0
 11
422.3242978239707
 21
748.3315307053622
 31
0.0
  0
LINE
  5
1D4
330
1F
100
AcDbEntity
  8
Make2D$Visible$Curves
 62
    18
420
        0
370
    -3
100
AcDbLine
 10
422.3242978239707
 20
748.3315307053622
 30
0.0
 11
420.2512997770957
 21
749.4379149827059
 31
0.0
  0
LINE
  5
1D5
330
1F
100
AcDbEntity
  8
Make2D$Visible$Curves
 62
    18
420
        0
370
    -3
100
AcDbLine
 10
420.2512997770957
 20
749.4379149827059
 30
0.0
 11
418.1783169890098
 21
751.6506797226962
 31
0.0
  0
LINE
  5
1D6
330
1F
100
AcDbEntity
  8
Make2D$Visible$Curves
 62
    18
420
        0
370
    -3
100
AcDbLine
 10
418.1783169890098
 20
751.6506797226962
 30
0.0
 11
416.1053189421348
 21
756.0762092026766
 31
0.0
  0
LINE
  5
1D7
330
1F
100
AcDbEntity
  8
Make2D$Visible$Curves
 62
    18
420
        0
370
    -3
100
AcDbLine
 10
416.1053189421348
 20
756.0762092026766
 30
0.0
 11
415.587069430416
 21
760.5017424973544
 31
0.0
  0
LINE
  5
1D8
330
1F
100
AcDbEntity
  8
Make2D$Visible$Curves
 62
    18
420
        0
370
    -3
100
AcDbLine
 10
415.587069430416
 20
760.5017424973544
 30
0.0
 11
415.587069430416
 21
764.9272757920321
 31
0.0
  0
LINE
  5
1D9
330
1F
100
AcDbEntity
  8
Make2D$Visible$Curves
 62
    18
420
        0
370
    -3
100
AcDbLine
 10
415.587069430416
 20
764.9272757920321
 30
0.0
 11
416.1053189421348
 21
769.3528052720126
 31
0.0
  0
LINE
  5
1DA
330
1F
100
AcDbEntity
  8
Make2D$Visible$Curves
 62
    18
420
        0
370
    -3
100
AcDbLine
 10
416.1053189421348
 20
769.3528052720126
 30
0.0
 11
418.1783169890098
 21
773.7783385666903
 31
0.0
  0
LINE
  5
1DB
330
1F
100
AcDbEntity
  8
Make2D$Visible$Curves
 62
    18
420
        0
370
    -3
100
AcDbLine
 10
418.1783169890098
 20
773.7783385666903
 30
0.0
 11
420.2512997770957
 21
775.9911033066805
 31
0.0
  0
LINE
  5
1DC
330
1F
100
AcDbEntity
  8
Make2D$Visible$Curves
 62
    18
420
        0
370
    -3
100
AcDbLine
 10
420.2512997770957
 20
775.9911033066805
 30
0.0
 11
422.3242978239707
 21
777.0974875840243
 31
0.0
  0
LINE
  5
1DD
330
1F
100
AcDbEntity
  8
Make2D$Visible$Curves
 62
    18
420
        0
370
    -3
100
AcDbLine
 10
422.3242978239707
 20
777.0974875840243
 30
0.0
 11
424.9155453825645
 21
777.0974875840243
 31
0.0
  0
LINE
  5
1DE
330
1F
100
AcDbEntity
  8
Make2D$Visible$Curves
 62
    18
420
        0
370
    -3
100
AcDbLine
 10
424.9155453825645
 20
777.0974875840243
 30
0.0
 11
427.5067929411582
 21
775.9911033066805
 31
0.0
  0
LINE
  5
1DF
330
1F
100
AcDbEntity
  8
Make2D$Visible$Curves
 62
    18
420
        0
370
    -3
100
AcDbLine
 10
427.5067929411582
 20
775.9911033066805
 30
0.0
 11
429.5797909880332
 21
772.6719542893466
 31
0.0
  0
LINE
  5
1E0
330
1F
100
AcDbEntity
  8
Make2D$Visible$Curves
 62
    18
420
        0
370
    -3
100
AcDbLine
 10
429.5797909880332
 20
772.6719542893466
 30
0.0
 11
431.1345395231895
 21
768.2464248093661
 31
0.0
  0
LINE
  5
1E1
330
1F
100
AcDbEntity
  8
Make2D$Visible$Curves
 62
    18
420
        0
370
    -3
100
AcDbLine
 10
431.1345395231895
 20
768.2464248093661
 30
0.0
 11
431.6527890349082
 21
764.9272757920321
 31
0.0
  0
LINE
  5
1E2
330
1F
100
AcDbEntity
  8
Make2D$Visible$Curves
 62
    18
420
        0
370
    -3
100
AcDbLine
 10
431.6527890349082
 20
764.9272757920321
 30
0.0
 11
428.5432919645957
 21
764.9272757920321
 31
0.0
  0
LINE
  5
1E3
330
1F
100
AcDbEntity
  8
Make2D$Visible$Curves
 62
    18
420
        0
370
    -3
100
AcDbLine
 10
449.7915219450645
 20
777.0974875840243
 30
0.0
 11
458.0835065031699
 21
725.0974875840243
 31
0.0
  0
LINE
  5
1E4
330
1F
100
AcDbEntity
  8
Make2D$Visible$Curves
 62
    18
420
        0
370
    -3
100
AcDbLine
 10
458.0835065031699
 20
725.0974875840243
 30
0.0
 11
454.9740094328574
 21
725.0974875840243
 31
0.0
  0
LINE
  5
1E5
330
1F
100
AcDbEntity
  8
Make2D$Visible$Curves
 62
    18
420
        0
370
    -3
100
AcDbLine
 10
454.9740094328574
 20
725.0974875840243
 30
0.0
 11
452.901019015377
 21
738.3740836533602
 31
0.0
  0
LINE
  5
1E6
330
1F
100
AcDbEntity
  8
Make2D$Visible$Curves
 62
    18
420
        0
370
    -3
100
AcDbLine
 10
452.901019015377
 20
738.3740836533602
 30
0.0
 11
442.536028781002
 21
738.3740836533602
 31
0.0
  0
LINE
  5
1E7
330
1F
100
AcDbEntity
  8
Make2D$Visible$Curves
 62
    18
420
        0
370
    -3
100
AcDbLine
 10
442.536028781002
 20
738.3740836533602
 30
0.0
 11
440.463030734127
 21
725.0974875840243
 31
0.0
  0
LINE
  5
1E8
330
1F
100
AcDbEntity
  8
Make2D$Visible$Curves
 62
    18
420
        0
370
    -3
100
AcDbLine
 10
440.463030734127
 20
725.0974875840243
 30
0.0
 11
437.3535336638145
 21
725.0974875840243
 31
0.0
  0
LINE
  5
1E9
330
1F
100
AcDbEntity
  8
Make2D$Visible$Curves
 62
    18
420
        0
370
    -3
100
AcDbLine
 10
437.3535336638145
 20
725.0974875840243
 30
0.0
 11
445.6455258513145
 21
777.0974875840243
 31
0.0
  0
LINE
  5
1EA
330
1F
100
AcDbEntity
  8
Make2D$Visible$Curves
 62
    18
420
        0
370
    -3
100
AcDbLine
 10
445.6455258513145
 20
777.0974875840243
 30
0.0
 11
449.7915219450645
 21
777.0974875840243
 31
0.0
  0
LINE
  5
1EB
330
1F
100
AcDbEntity
  8
Make2D$Visible$Curves
 62
    18
420
        0
370
    -3
100
AcDbLine
 10
482.4412259245566
 20
738.3740836533602
 30
0.0
 11
481.9229764128379
 21
732.8421679886874
 31
0.0
  0
LINE
  5
1EC
330
1F
100
AcDbEntity
  8
Make2D$Visible$Curves
 62
    18
420
        0
370
    -3
100
AcDbLine
 10
481.9229764128379
 20
732.8421679886874
 30
0.0
 11
479.8499783659629
 21
728.4166366013583
 31
0.0
  0
LINE
  5
1ED
330
1F
100
AcDbEntity
  8
Make2D$Visible$Curves
 62
    18
420
        0
370
    -3
100
AcDbLine
 10
479.8499783659629
 20
728.4166366013583
 30
0.0
 11
477.7769803190879
 21
726.2038709076937
 31
0.0
  0
LINE
  5
1EE
330
1F
100
AcDbEntity
  8
Make2D$Visible$Curves
 62
    18
420
        0
370
    -3
100
AcDbLine
 10
477.7769803190879
 20
726.2038709076937
 30
0.0
 11
475.1857403898887
 21
725.0974875840243
 31
0.0
  0
LINE
  5
1EF
330
1F
100
AcDbEntity
  8
Make2D$Visible$Curves
 62
    18
420
        0
370
    -3
100
AcDbLine
 10
475.1857403898887
 20
725.0974875840243
 30
0.0
 11
470.5214947844199
 21
725.0974875840243
 31
0.0
  0
LINE
  5
1F0
330
1F
100
AcDbEntity
  8
Make2D$Visible$Curves
 62
    18
420
        0
370
    -3
100
AcDbLine
 10
470.5214947844199
 20
725.0974875840243
 30
0.0
 11
467.9302472258262
 21
726.2038709076937
 31
0.0
  0
LINE
  5
1F1
330
1F
100
AcDbEntity
  8
Make2D$Visible$Curves
 62
    18
420
        0
370
    -3
100
AcDbLine
 10
467.9302472258262
 20
726.2038709076937
 30
0.0
 11
465.8572491789512
 21
728.4166366013583
 31
0.0
  0
LINE
  5
1F2
330
1F
100
AcDbEntity
  8
Make2D$Visible$Curves
 62
    18
420
        0
370
    -3
100
AcDbLine
 10
465.8572491789512
 20
728.4166366013583
 30
0.0
 11
463.7842511320762
 21
732.8421679886874
 31
0.0
  0
LINE
  5
1F3
330
1F
100
AcDbEntity
  8
Make2D$Visible$Curves
 62
    18
420
        0
370
    -3
100
AcDbLine
 10
463.7842511320762
 20
732.8421679886874
 30
0.0
 11
462.7477521086387
 21
737.2677012833651
 31
0.0
  0
LINE
  5
1F4
330
1F
100
AcDbEntity
  8
Make2D$Visible$Curves
 62
    18
420
        0
370
    -3
100
AcDbLine
 10
462.7477521086387
 20
737.2677012833651
 30
0.0
 11
462.2295025969199
 21
742.7996150406893
 31
0.0
  0
LINE
  5
1F5
330
1F
100
AcDbEntity
  8
Make2D$Visible$Curves
 62
    18
420
        0
370
    -3
100
AcDbLine
 10
462.2295025969199
 20
742.7996150406893
 30
0.0
 11
462.2295025969199
 21
759.3953582200106
 31
0.0
  0
LINE
  5
1F6
330
1F
100
AcDbEntity
  8
Make2D$Visible$Curves
 62
    18
420
        0
370
    -3
100
AcDbLine
 10
462.2295025969199
 20
759.3953582200106
 30
0.0
 11
462.7477521086387
 21
764.9272757920321
 31
0.0
  0
LINE
  5
1F7
330
1F
100
AcDbEntity
  8
Make2D$Visible$Curves
 62
    18
420
        0
370
    -3
100
AcDbLine
 10
462.7477521086387
 20
764.9272757920321
 30
0.0
 11
463.7842511320762
 21
769.3528052720126
 31
0.0
  0
LINE
  5
1F8
330
1F
100
AcDbEntity
  8
Make2D$Visible$Curves
 62
    18
420
        0
370
    -3
100
AcDbLine
 10
463.7842511320762
 20
769.3528052720126
 30
0.0
 11
465.8572491789512
 21
773.7783385666903
 31
0.0
  0
LINE
  5
1F9
330
1F
100
AcDbEntity
  8
Make2D$Visible$Curves
 62
    18
420
        0
370
    -3
100
AcDbLine
 10
465.8572491789512
 20
773.7783385666903
 30
0.0
 11
467.9302472258262
 21
775.9911033066805
 31
0.0
  0
LINE
  5
1FA
330
1F
100
AcDbEntity
  8
Make2D$Visible$Curves
 62
    18
420
        0
370
    -3
100
AcDbLine
 10
467.9302472258262
 20
775.9911033066805
 30
0.0
 11
470.5214947844199
 21
777.0974875840243
 31
0.0
  0
LINE
  5
1FB
330
1F
100
AcDbEntity
  8
Make2D$Visible$Curves
 62
    18
420
        0
370
    -3
100
AcDbLine
 10
470.5214947844199
 20
777.0974875840243
 30
0.0
 11
475.1857403898887
 21
777.0974875840243
 31
0.0
  0
LINE
  5
1FC
330
1F
100
AcDbEntity
  8
Make2D$Visible$Curves
 62
    18
420
        0
370
    -3
100
AcDbLine
 10
475.1857403898887
 20
777.0974875840243
 30
0.0
 11
477.7769803190879
 21
775.9911033066805
 31
0.0
  0
LINE
  5
1FD
330
1F
100
AcDbEntity
  8
Make2D$Visible$Curves
 62
    18
420
        0
370
    -3
100
AcDbLine
 10
477.7769803190879
 20
775.9911033066805
 30
0.0
 11
479.8499783659629
 21
773.7783385666903
 31
0.0
  0
LINE
  5
1FE
330
1F
100
AcDbEntity
  8
Make2D$Visible$Curves
 62
    18
420
        0
370
    -3
100
AcDbLine
 10
479.8499783659629
 20
773.7783385666903
 30
0.0
 11
481.9229764128379
 21
769.3528052720126
 31
0.0
  0
LINE
  5
1FF
330
1F
100
AcDbEntity
  8
Make2D$Visible$Curves
 62
    18
420
        0
370
    -3
100
AcDbLine
 10
481.9229764128379
 20
769.3528052720126
 30
0.0
 11
482.4412259245566
 21
763.8208915146884
 31
0.0
  0
LINE
  5
200
330
1F
100
AcDbEntity
  8
Make2D$Visible$Curves
 62
    18
420
        0
370
    -3
100
AcDbLine
 10
482.4412259245566
 20
763.8208915146884
 30
0.0
 11
479.3317288542441
 21
763.8208915146884
 31
0.0
  0
LINE
  5
201
330
1F
100
AcDbEntity
  8
Make2D$Visible$Curves
 62
    18
420
        0
370
    -3
100
AcDbLine
 10
479.3317288542441
 20
763.8208915146884
 30
0.0
 11
478.8134793425254
 21
767.1400405320223
 31
0.0
  0
LINE
  5
202
330
1F
100
AcDbEntity
  8
Make2D$Visible$Curves
 62
    18
420
        0
370
    -3
100
AcDbLine
 10
478.8134793425254
 20
767.1400405320223
 30
0.0
 11
477.2587308073691
 21
769.3528052720126
 31
0.0
  0
LINE
  5
203
330
1F
100
AcDbEntity
  8
Make2D$Visible$Curves
 62
    18
420
        0
370
    -3
100
AcDbLine
 10
477.2587308073691
 20
769.3528052720126
 30
0.0
 11
475.1857403898887
 21
770.4591895493563
 31
0.0
  0
LINE
  5
204
330
1F
100
AcDbEntity
  8
Make2D$Visible$Curves
 62
    18
420
        0
370
    -3
100
AcDbLine
 10
475.1857403898887
 20
770.4591895493563
 30
0.0
 11
470.5214947844199
 21
770.4591895493563
 31
0.0
  0
LINE
  5
205
330
1F
100
AcDbEntity
  8
Make2D$Visible$Curves
 62
    18
420
        0
370
    -3
100
AcDbLine
 10
470.5214947844199
 20
770.4591895493563
 30
0.0
 11
468.4484967375449
 21
769.3528052720126
 31
0.0
  0
LINE
  5
206
330
1F
100
AcDbEntity
  8
Make2D$Visible$Curves
 62
    18
420
        0
370
    -3
100
AcDbLine
 10
468.4484967375449
 20
769.3528052720126
 30
0.0
 11
466.8937482023887
 21
767.1400405320223
 31
0.0
  0
LINE
  5
207
330
1F
100
AcDbEntity
  8
Make2D$Visible$Curves
 62
    18
420
        0
370
    -3
100
AcDbLine
 10
466.8937482023887
 20
767.1400405320223
 30
0.0
 11
465.8572491789512
 21
763.8208915146884
 31
0.0
  0
LINE
  5
208
330
1F
100
AcDbEntity
  8
Make2D$Visible$Curves
 62
    18
420
        0
370
    -3
100
AcDbLine
 10
465.8572491789512
 20
763.8208915146884
 30
0.0
 11
465.3389996672324
 21
759.3953582200106
 31
0.0
  0
LINE
  5
209
330
1F
100
AcDbEntity
  8
Make2D$Visible$Curves
 62
    18
420
        0
370
    -3
100
AcDbLine
 10
465.3389996672324
 20
759.3953582200106
 30
0.0
 11
465.3389996672324
 21
742.7996150406893
 31
0.0
  0
LINE
  5
20A
330
1F
100
AcDbEntity
  8
Make2D$Visible$Curves
 62
    18
420
        0
370
    -3
100
AcDbLine
 10
465.3389996672324
 20
742.7996150406893
 30
0.0
 11
465.8572491789512
 21
738.3740836533602
 31
0.0
  0
LINE
  5
20B
330
1F
100
AcDbEntity
  8
Make2D$Visible$Curves
 62
    18
420
        0
370
    -3
100
AcDbLine
 10
465.8572491789512
 20
738.3740836533602
 30
0.0
 11
466.8937482023887
 21
735.0549346360262
 31
0.0
  0
LINE
  5
20C
330
1F
100
AcDbEntity
  8
Make2D$Visible$Curves
 62
    18
420
        0
370
    -3
100
AcDbLine
 10
466.8937482023887
 20
735.0549346360262
 30
0.0
 11
468.4484967375449
 21
732.8421679886874
 31
0.0
  0
LINE
  5
20D
330
1F
100
AcDbEntity
  8
Make2D$Visible$Curves
 62
    18
420
        0
370
    -3
100
AcDbLine
 10
468.4484967375449
 20
732.8421679886874
 30
0.0
 11
470.5214947844199
 21
731.7357856186923
 31
0.0
  0
LINE
  5
20E
330
1F
100
AcDbEntity
  8
Make2D$Visible$Curves
 62
    18
420
        0
370
    -3
100
AcDbLine
 10
470.5214947844199
 20
731.7357856186923
 30
0.0
 11
475.1857403898887
 21
731.7357856186923
 31
0.0
  0
LINE
  5
20F
330
1F
100
AcDbEntity
  8
Make2D$Visible$Curves
 62
    18
420
        0
370
    -3
100
AcDbLine
 10
475.1857403898887
 20
731.7357856186923
 30
0.0
 11
477.2587308073691
 21
732.8421679886874
 31
0.0
  0
LINE
  5
210
330
1F
100
AcDbEntity
  8
Make2D$Visible$Curves
 62
    18
420
        0
370
    -3
100
AcDbLine
 10
477.2587308073691
 20
732.8421679886874
 30
0.0
 11
478.8134793425254
 21
735.0549346360262
 31
0.0
  0
LINE
  5
211
330
1F
100
AcDbEntity
  8
Make2D$Visible$Curves
 62
    18
420
        0
370
    -3
100
AcDbLine
 10
478.8134793425254
 20
735.0549346360262
 30
0.0
 11
479.3317288542441
 21
738.3740836533602
 31
0.0
  0
LINE
  5
212
330
1F
100
AcDbEntity
  8
Make2D$Visible$Curves
 62
    18
420
        0
370
    -3
100
AcDbLine
 10
479.3317288542441
 20
738.3740836533602
 30
0.0
 11
482.4412259245566
 21
738.3740836533602
 31
0.0
  0
LINE
  5
213
330
1F
100
AcDbEntity
  8
Make2D$Visible$Curves
 62
    18
420
        0
370
    -3
100
AcDbLine
 10
489.6967190886191
 20
725.0974875840243
 30
0.0
 11
486.5872220183066
 21
725.0974875840243
 31
0.0
  0
LINE
  5
214
330
1F
100
AcDbEntity
  8
Make2D$Visible$Curves
 62
    18
420
        0
370
    -3
100
AcDbLine
 10
486.5872220183066
 20
725.0974875840243
 30
0.0
 11
486.5872220183066
 21
777.0974875840243
 31
0.0
  0
LINE
  5
215
330
1F
100
AcDbEntity
  8
Make2D$Visible$Curves
 62
    18
420
        0
370
    -3
100
AcDbLine
 10
486.5872220183066
 20
777.0974875840243
 30
0.0
 11
489.6967190886191
 21
777.0974875840243
 31
0.0
  0
LINE
  5
216
330
1F
100
AcDbEntity
  8
Make2D$Visible$Curves
 62
    18
420
        0
370
    -3
100
AcDbLine
 10
489.6967190886191
 20
777.0974875840243
 30
0.0
 11
489.6967190886191
 21
756.0762092026766
 31
0.0
  0
LINE
  5
217
330
1F
100
AcDbEntity
  8
Make2D$Visible$Curves
 62
    18
420
        0
370
    -3
100
AcDbLine
 10
489.6967190886191
 20
756.0762092026766
 30
0.0
 11
504.2076977873496
 21
756.0762092026766
 31
0.0
  0
LINE
  5
218
330
1F
100
AcDbEntity
  8
Make2D$Visible$Curves
 62
    18
420
        0
370
    -3
100
AcDbLine
 10
504.2076977873496
 20
756.0762092026766
 30
0.0
 11
504.2076977873496
 21
777.0974875840243
 31
0.0
  0
LINE
  5
219
330
1F
100
AcDbEntity
  8
Make2D$Visible$Curves
 62
    18
420
        0
370
    -3
100
AcDbLine
 10
504.2076977873496
 20
777.0974875840243
 30
0.0
 11
507.3171948576621
 21
777.0974875840243
 31
0.0
  0
LINE
  5
21A
330
1F
100
AcDbEntity
  8
Make2D$Visible$Curves
 62
    18
420
        0
370
    -3
100
AcDbLine
 10
507.3171948576621
 20
777.0974875840243
 30
0.0
 11
507.3171948576621
 21
725.0974875840243
 31
0.0
  0
LINE
  5
21B
330
1F
100
AcDbEntity
  8
Make2D$Visible$Curves
 62
    18
420
        0
370
    -3
100
AcDbLine
 10
507.3171948576621
 20
725.0974875840243
 30
0.0
 11
504.2076977873496
 21
725.0974875840243
 31
0.0
  0
LINE
  5
21C
330
1F
100
AcDbEntity
  8
Make2D$Visible$Curves
 62
    18
420
        0
370
    -3
100
AcDbLine
 10
504.2076977873496
 20
725.0974875840243
 30
0.0
 11
504.2076977873496
 21
749.4379149827059
 31
0.0
  0
LINE
  5
21D
330
1F
100
AcDbEntity
  8
Make2D$Visible$Curves
 62
    18
420
        0
370
    -3
100
AcDbLine
 10
504.2076977873496
 20
749.4379149827059
 30
0.0
 11
489.6967190886191
 21
749.4379149827059
 31
0.0
  0
LINE
  5
21E
330
1F
100
AcDbEntity
  8
Make2D$Visible$Curves
 62
    18
420
        0
370
    -3
100
AcDbLine
 10
489.6967190886191
 20
749.4379149827059
 30
0.0
 11
489.6967190886191
 21
725.0974875840243
 31
0.0
  0
LINE
  5
21F
330
1F
100
AcDbEntity
  8
Make2D$Visible$Curves
 62
    18
420
        0
370
    -3
100
AcDbLine
 10
530.1201657438924
 20
731.7357856186923
 30
0.0
 11
530.1201657438924
 21
725.0974875840243
 31
0.0
  0
LINE
  5
220
330
1F
100
AcDbEntity
  8
Make2D$Visible$Curves
 62
    18
420
        0
370
    -3
100
AcDbLine
 10
530.1201657438924
 20
725.0974875840243
 30
0.0
 11
511.4631909514121
 21
725.0974875840243
 31
0.0
  0
LINE
  5
221
330
1F
100
AcDbEntity
  8
Make2D$Visible$Curves
 62
    18
420
        0
370
    -3
100
AcDbLine
 10
511.4631909514121
 20
725.0974875840243
 30
0.0
 11
511.4631909514121
 21
777.0974875840243
 31
0.0
  0
LINE
  5
222
330
1F
100
AcDbEntity
  8
Make2D$Visible$Curves
 62
    18
420
        0
370
    -3
100
AcDbLine
 10
511.4631909514121
 20
777.0974875840243
 30
0.0
 11
530.1201657438924
 21
777.0974875840243
 31
0.0
  0
LINE
  5
223
330
1F
100
AcDbEntity
  8
Make2D$Visible$Curves
 62
    18
420
        0
370
    -3
100
AcDbLine
 10
530.1201657438924
 20
777.0974875840243
 30
0.0
 11
530.1201657438924
 21
770.4591895493563
 31
0.0
  0
LINE
  5
224
330
1F
100
AcDbEntity
  8
Make2D$Visible$Curves
 62
    18
420
        0
370
    -3
100
AcDbLine
 10
530.1201657438924
 20
770.4591895493563
 30
0.0
 11
514.5726842070274
 21
770.4591895493563
 31
0.0
  0
LINE
  5
225
330
1F
100
AcDbEntity
  8
Make2D$Visible$Curves
 62
    18
420
        0
370
    -3
100
AcDbLine
 10
514.5726842070274
 20
770.4591895493563
 30
0.0
 11
514.5726842070274
 21
756.0762092026766
 31
0.0
  0
LINE
  5
226
330
1F
100
AcDbEntity
  8
Make2D$Visible$Curves
 62
    18
420
        0
370
    -3
100
AcDbLine
 10
514.5726842070274
 20
756.0762092026766
 30
0.0
 11
528.0471676970174
 21
756.0762092026766
 31
0.0
  0
LINE
  5
227
330
1F
100
AcDbEntity
  8
Make2D$Visible$Curves
 62
    18
420
        0
370
    -3
100
AcDbLine
 10
528.0471676970174
 20
756.0762092026766
 30
0.0
 11
528.0471676970174
 21
749.4379149827059
 31
0.0
  0
LINE
  5
228
330
1F
100
AcDbEntity
  8
Make2D$Visible$Curves
 62
    18
420
        0
370
    -3
100
AcDbLine
 10
528.0471676970174
 20
749.4379149827059
 30
0.0
 11
514.5726842070274
 21
749.4379149827059
 31
0.0
  0
LINE
  5
229
330
1F
100
AcDbEntity
  8
Make2D$Visible$Curves
 62
    18
420
        0
370
    -3
100
AcDbLine
 10
514.5726842070274
 20
749.4379149827059
 30
0.0
 11
514.5726842070274
 21
731.7357856186923
 31
0.0
  0
LINE
  5
22A
330
1F
100
AcDbEntity
  8
Make2D$Visible$Curves
 62
    18
420
        0
370
    -3
100
AcDbLine
 10
514.5726842070274
 20
731.7357856186923
 30
0.0
 11
530.1201657438924
 21
731.7357856186923
 31
0.0
  0
LINE
  5
22B
330
1F
100
AcDbEntity
  8
Make2D$Visible$Curves
 62
    18
420
        0
370
    -3
100
AcDbLine
 10
553.9596356535603
 20
777.0974875840243
 30
0.0
 11
553.9596356535603
 21
771.5655738267001
 31
0.0
  0
LINE
  5
22C
330
1F
100
AcDbEntity
  8
Make2D$Visible$Curves
 62
    18
420
        0
370
    -3
100
AcDbLine
 10
553.9596356535603
 20
771.5655738267001
 30
0.0
 11
545.667645373409
 21
771.5655738267001
 31
0.0
  0
LINE
  5
22D
330
1F
100
AcDbEntity
  8
Make2D$Visible$Curves
 62
    18
420
        0
370
    -3
100
AcDbLine
 10
545.667645373409
 20
771.5655738267001
 30
0.0
 11
545.667645373409
 21
725.0974875840243
 31
0.0
  0
LINE
  5
22E
330
1F
100
AcDbEntity
  8
Make2D$Visible$Curves
 62
    18
420
        0
370
    -3
100
AcDbLine
 10
545.667645373409
 20
725.0974875840243
 30
0.0
 11
542.5581502104451
 21
725.0974875840243
 31
0.0
  0
LINE
  5
22F
330
1F
100
AcDbEntity
  8
Make2D$Visible$Curves
 62
    18
420
        0
370
    -3
100
AcDbLine
 10
542.5581502104451
 20
725.0974875840243
 30
0.0
 11
542.5581502104451
 21
771.5655738267001
 31
0.0
  0
LINE
  5
230
330
1F
100
AcDbEntity
  8
Make2D$Visible$Curves
 62
    18
420
        0
370
    -3
100
AcDbLine
 10
542.5581502104451
 20
771.5655738267001
 30
0.0
 11
534.2661618376424
 21
771.5655738267001
 31
0.0
  0
LINE
  5
231
330
1F
100
AcDbEntity
  8
Make2D$Visible$Curves
 62
    18
420
        0
370
    -3
100
AcDbLine
 10
534.2661618376424
 20
771.5655738267001
 30
0.0
 11
534.2661618376424
 21
777.0974875840243
 31
0.0
  0
LINE
  5
232
330
1F
100
AcDbEntity
  8
Make2D$Visible$Curves
 62
    18
420
        0
370
    -3
100
AcDbLine
 10
534.2661618376424
 20
777.0974875840243
 30
0.0
 11
553.9596356535603
 21
777.0974875840243
 31
0.0
  0
LINE
  5
233
330
1F
100
AcDbEntity
  8
Make2D$Visible$Curves
 62
    18
420
        0
370
    -3
100
AcDbLine
 10
400.6953152800254
 20
791.0974875840243
 30
0.0
 11
400.6953152800254
 21
711.0974875840243
 31
0.0
  0
LINE
  5
234
330
1F
100
AcDbEntity
  8
Make2D$Visible$Curves
 62
    18
420
        0
370
    -3
100
AcDbLine
 10
570.6953152800252
 20
791.0974875840243
 30
0.0
 11
400.6953152800254
 21
791.0974875840243
 31
0.0
  0
LINE
  5
235
330
1F
100
AcDbEntity
  8
Make2D$Visible$Curves
 62
    18
420
        0
370
    -3
100
AcDbLine
 10
570.6953152800252
 20
711.0974875840243
 30
0.0
 11
570.6953152800252
 21
791.0974875840243
 31
0.0
  0
LINE
  5
236
330
1F
100
AcDbEntity
  8
Make2D$Visible$Curves
 62
    18
420
        0
370
    -3
100
AcDbLine
 10
400.6953152800254
 20
711.0974875840243
 30
0.0
 11
570.6953152800252
 21
711.0974875840243
 31
0.0
  0
ENDSEC
  0
SECTION
  2
OBJECTS
  0
DICTIONARY
  5
C
330
0
100
AcDbDictionary
281
     1
  3
ACAD_DETAILVIEWSTYLE
350
27C
  3
ACAD_GROUP
350
D
  3
ACAD_LAYOUT
350
1A
  3
ACAD_MATERIAL
350
43
  3
ACAD_MLEADERSTYLE
350
6B
  3
ACAD_MLINESTYLE
350
17
  3
ACAD_PLOTSETTINGS
350
19
  3
ACAD_PLOTSTYLENAME
350
E
  3
ACAD_SCALELIST
350
47
  3
ACAD_SECTIONVIEWSTYLE
350
27D
  3
ACAD_TABLESTYLE
350
69
  3
ACAD_VISUALSTYLE
350
2A
  3
ACDB_RECOMPOSE_DATA
350
279
  3
AcDbVariableDictionary
350
239
  0
DICTIONARY
  5
237
330
8
100
AcDbDictionary
280
     1
281
     1
  3
ACAD_XREC_ROUNDTRIP
360
238
  0
DICTIONARY
  5
27C
102
{ACAD_REACTORS
330
C
102
}
330
C
100
AcDbDictionary
281
     1
  0
DICTIONARY
  5
D
102
{ACAD_REACTORS
330
C
102
}
330
C
100
AcDbDictionary
281
     1
  0
DICTIONARY
  5
1A
102
{ACAD_REACTORS
330
C
102
}
330
C
100
AcDbDictionary
281
     1
  3
Layout1
350
1E
  3
Layout2
350
26
  3
Model
350
22
  0
DICTIONARY
  5
43
102
{ACAD_REACTORS
330
C
102
}
330
C
100
AcDbDictionary
281
     1
  3
ByBlock
350
45
  3
ByLayer
350
44
  3
Global
350
46
  0
DICTIONARY
  5
6B
102
{ACAD_REACTORS
330
C
102
}
330
C
100
AcDbDictionary
281
     1
  3
Standard
350
6C
  0
DICTIONARY
  5
17
102
{ACAD_REACTORS
330
C
102
}
330
C
100
AcDbDictionary
281
     1
  3
Standard
350
18
  0
DICTIONARY
  5
19
102
{ACAD_REACTORS
330
C
102
}
330
C
100
AcDbDictionary
281
     1
  0
ACDBDICTIONARYWDFLT
  5
E
102
{ACAD_REACTORS
330
C
102
}
330
C
100
AcDbDictionary
281
     1
  3
Normal
350
F
100
AcDbDictionaryWithDefault
340
F
  0
DICTIONARY
  5
47
102
{ACAD_REACTORS
330
C
102
}
330
C
100
AcDbDictionary
281
     1
  3
A0
350
48
  3
A1
350
49
  3
A2
350
4A
  3
A3
350
4B
  3
A4
350
4C
  3
A5
350
4D
  3
A6
350
4E
  3
A7
350
4F
  3
A8
350
50
  3
A9
350
51
  3
B0
350
52
  3
B1
350
53
  3
B2
350
54
  3
B3
350
55
  3
B4
350
56
  3
B5
350
57
  3
B6
350
58
  3
B7
350
59
  3
B8
350
5A
  3
B9
350
5B
  3
C0
350
5C
  3
C1
350
5D
  3
C2
350
5E
  3
C3
350
5F
  3
C4
350
60
  3
C5
350
61
  3
C6
350
62
  3
C7
350
63
  3
C8
350
64
  3
C9
350
65
  3
D0
350
66
  3
D1
350
67
  3
D2
350
68
  0
DICTIONARY
  5
27D
102
{ACAD_REACTORS
330
C
102
}
330
C
100
AcDbDictionary
281
     1
  0
DICTIONARY
  5
69
102
{ACAD_REACTORS
330
C
102
}
330
C
100
AcDbDictionary
281
     1
  3
Standard
350
6A
  0
DICTIONARY
  5
2A
102
{ACAD_REACTORS
330
C
102
}
330
C
100
AcDbDictionary
281
     1
  3
2dWireframe
350
2F
  3
Basic
350
32
  3
Brighten
350
36
  3
ColorChange
350
3A
  3
Conceptual
350
34
  3
Dim
350
35
  3
EdgeColorOff
350
3D
  3
Facepattern
350
39
  3
Flat
350
2B
  3
FlatWithEdges
350
2C
  3
Gouraud
350
2D
  3
GouraudWithEdges
350
2E
  3
Hidden
350
31
  3
JitterOff
350
3B
  3
Linepattern
350
38
  3
OverhangOff
350
3C
  3
Realistic
350
33
  3
Shaded
350
42
  3
Shaded with edges
350
41
  3
Shades of Gray
350
3E
  3
Sketchy
350
3F
  3
Thicken
350
37
  3
Wireframe
350
30
  3
X-Ray
350
40
  0
XRECORD
  5
279
102
{ACAD_REACTORS
330
C
102
}
330
C
100
AcDbXrecord
280
     1
 90
        1
330
6A
  0
DICTIONARY
  5
239
102
{ACAD_REACTORS
330
C
102
}
330
C
100
AcDbDictionary
281
     1
  3
CANNOSCALE
350
23A
  3
CMLEADERSTYLE
350
27B
  3
CTABLESTYLE
350
27A
  3
MSLTSCALE
350
23B
  3
XCLIPFRAME
350
23C
  0
XRECORD
  5
238
102
{ACAD_REACTORS
330
237
102
}
330
237
100
AcDbXrecord
280
     1
102
VTR_0.000_0.000_1.000_1.000_VISUALSTYLE
340
2F
102
VTR_0.000_0.000_1.000_1.000_GRIDDISPLAY
 70
     3
102
VTR_0.000_0.000_1.000_1.000_GRIDMAJOR
 70
     5
102
VTR_0.000_0.000_1.000_1.000_DEFAULTLIGHTING
280
     1
102
VTR_0.000_0.000_1.000_1.000_DEFAULTLIGHTINGTYPE
 70
     1
102
VTR_0.000_0.000_1.000_1.000_BRIGHTNESS
141
0.0
102
VTR_0.000_0.000_1.000_1.000_CONTRAST
142
0.0
  0
LAYOUT
  5
1E
102
{ACAD_REACTORS
330
1A
102
}
330
1A
100
AcDbPlotSettings
  1

  2
none_device
  4

  6

 40
0.0
 41
0.0
 42
0.0
 43
0.0
 44
0.0
 45
0.0
 46
0.0
 47
0.0
 48
0.0
 49
0.0
140
0.0
141
0.0
142
1.0
143
1.0
 70
   688
 72
     0
 73
     0
 74
     5
  7

 75
    16
 76
     0
 77
     2
 78
   300
147
1.0
148
0.0
149
0.0
100
AcDbLayout
  1
Layout1
 70
     1
 71
     1
 10
0.0
 20
0.0
 11
12.0
 21
9.0
 12
0.0
 22
0.0
 32
0.0
 14
1.000000000000000E+20
 24
1.000000000000000E+20
 34
1.000000000000000E+20
 15
-1.000000000000000E+20
 25
-1.000000000000000E+20
 35
-1.000000000000000E+20
146
0.0
 13
0.0
 23
0.0
 33
0.0
 16
1.0
 26
0.0
 36
0.0
 17
0.0
 27
1.0
 37
0.0
 76
     0
330
1B
  0
LAYOUT
  5
26
102
{ACAD_REACTORS
330
1A
102
}
330
1A
100
AcDbPlotSettings
  1

  2
none_device
  4

  6

 40
0.0
 41
0.0
 42
0.0
 43
0.0
 44
0.0
 45
0.0
 46
0.0
 47
0.0
 48
0.0
 49
0.0
140
0.0
141
0.0
142
1.0
143
1.0
 70
   688
 72
     0
 73
     0
 74
     5
  7

 75
    16
 76
     0
 77
     2
 78
   300
147
1.0
148
0.0
149
0.0
100
AcDbLayout
  1
Layout2
 70
     1
 71
     2
 10
0.0
 20
0.0
 11
0.0
 21
0.0
 12
0.0
 22
0.0
 32
0.0
 14
0.0
 24
0.0
 34
0.0
 15
0.0
 25
0.0
 35
0.0
146
0.0
 13
0.0
 23
0.0
 33
0.0
 16
1.0
 26
0.0
 36
0.0
 17
0.0
 27
1.0
 37
0.0
 76
     0
330
23
  0
LAYOUT
  5
22
102
{ACAD_REACTORS
330
1A
102
}
330
1A
100
AcDbPlotSettings
  1

  2
none_device
  4
Letter_(8.50_x_11.00_Inches)
  6

 40
6.35
 41
6.35
 42
6.35000508
 43
6.35000508
 44
215.9
 45
279.4
 46
0.0
 47
0.0
 48
0.0
 49
0.0
140
0.0
141
0.0
142
1.0
143
1.0
 70
  1712
 72
     0
 73
     0
 74
     0
  7

 75
     0
 76
     0
 77
     2
 78
   300
147
1.0
148
0.0
149
0.0
100
AcDbLayout
  1
Model
 70
     1
 71
     0
 10
0.0
 20
0.0
 11
12.0
 21
9.0
 12
0.0
 22
0.0
 32
0.0
 14
1.000000000000000E+20
 24
1.000000000000000E+20
 34
1.000000000000000E+20
 15
-1.000000000000000E+20
 25
-1.000000000000000E+20
 35
-1.000000000000000E+20
146
0.0
 13
0.0
 23
0.0
 33
0.0
 16
1.0
 26
0.0
 36
0.0
 17
0.0
 27
1.0
 37
0.0
 76
     0
330
1F
331
29
  0
MATERIAL
  5
45
102
{ACAD_REACTORS
330
43
102
}
102
{ACAD_XDICTIONARY
360
26F
102
}
330
43
100
AcDbMaterial
  1
ByBlock
  0
MATERIAL
  5
44
102
{ACAD_REACTORS
330
43
102
}
102
{ACAD_XDICTIONARY
360
26D
102
}
330
43
100
AcDbMaterial
  1
ByLayer
  0
MATERIAL
  5
46
102
{ACAD_REACTORS
330
43
102
}
102
{ACAD_XDICTIONARY
360
271
102
}
330
43
100
AcDbMaterial
  1
Global
  0
MLEADERSTYLE
  5
6C
102
{ACAD_REACTORS
330
6B
102
}
102
{ACAD_XDICTIONARY
360
277
102
}
330
6B
100
AcDbMLeaderStyle
170
     2
171
     1
172
     0
 90
        2
 40
0.0
 41
0.0
173
     1
 91
-1056964608
340
14
 92
       -2
290
     1
 42
0.09
291
     1
 43
0.36
  3
Standard
341
0
 44
0.18
300

342
11
174
     1
178
     6
175
     1
176
     0
 93
-1056964608
 45
0.18
292
     0
297
     0
 46
0.18
343
0
 94
-1056964608
 47
1.0
 49
1.0
140
1.0
293
     1
141
0.0
294
     1
177
     0
142
1.0
295
     0
296
     0
143
0.125
1001
ACAD_MLEADERVER
1070
     2
  0
MLINESTYLE
  5
18
102
{ACAD_REACTORS
330
17
102
}
330
17
100
AcDbMlineStyle
  2
Standard
 70
     0
  3

 62
   256
 51
90.0
 52
90.0
 71
     2
 49
0.5
 62
   256
  6
BYLAYER
 49
-0.5
 62
   256
  6
BYLAYER
  0
ACDBPLACEHOLDER
  5
F
102
{ACAD_REACTORS
330
E
102
}
330
E
  0
SCALE
  5
48
102
{ACAD_REACTORS
330
47
102
}
330
47
100
AcDbScale
 70
     0
300
1:1
140
1.0
141
1.0
290
     1
  0
SCALE
  5
49
102
{ACAD_REACTORS
330
47
102
}
330
47
100
AcDbScale
 70
     0
300
1:2
140
1.0
141
2.0
290
     0
  0
SCALE
  5
4A
102
{ACAD_REACTORS
330
47
102
}
330
47
100
AcDbScale
 70
     0
300
1:4
140
1.0
141
4.0
290
     0
  0
SCALE
  5
4B
102
{ACAD_REACTORS
330
47
102
}
330
47
100
AcDbScale
 70
     0
300
1:5
140
1.0
141
5.0
290
     0
  0
SCALE
  5
4C
102
{ACAD_REACTORS
330
47
102
}
330
47
100
AcDbScale
 70
     0
300
1:8
140
1.0
141
8.0
290
     0
  0
SCALE
  5
4D
102
{ACAD_REACTORS
330
47
102
}
330
47
100
AcDbScale
 70
     0
300
1:10
140
1.0
141
10.0
290
     0
  0
SCALE
  5
4E
102
{ACAD_REACTORS
330
47
102
}
330
47
100
AcDbScale
 70
     0
300
1:16
140
1.0
141
16.0
290
     0
  0
SCALE
  5
4F
102
{ACAD_REACTORS
330
47
102
}
330
47
100
AcDbScale
 70
     0
300
1:20
140
1.0
141
20.0
290
     0
  0
SCALE
  5
50
102
{ACAD_REACTORS
330
47
102
}
330
47
100
AcDbScale
 70
     0
300
1:30
140
1.0
141
30.0
290
     0
  0
SCALE
  5
51
102
{ACAD_REACTORS
330
47
102
}
330
47
100
AcDbScale
 70
     0
300
1:40
140
1.0
141
40.0
290
     0
  0
SCALE
  5
52
102
{ACAD_REACTORS
330
47
102
}
330
47
100
AcDbScale
 70
     0
300
1:50
140
1.0
141
50.0
290
     0
  0
SCALE
  5
53
102
{ACAD_REACTORS
330
47
102
}
330
47
100
AcDbScale
 70
     0
300
1:100
140
1.0
141
100.0
290
     0
  0
SCALE
  5
54
102
{ACAD_REACTORS
330
47
102
}
330
47
100
AcDbScale
 70
     0
300
2:1
140
2.0
141
1.0
290
     0
  0
SCALE
  5
55
102
{ACAD_REACTORS
330
47
102
}
330
47
100
AcDbScale
 70
     0
300
4:1
140
4.0
141
1.0
290
     0
  0
SCALE
  5
56
102
{ACAD_REACTORS
330
47
102
}
330
47
100
AcDbScale
 70
     0
300
8:1
140
8.0
141
1.0
290
     0
  0
SCALE
  5
57
102
{ACAD_REACTORS
330
47
102
}
330
47
100
AcDbScale
 70
     0
300
10:1
140
10.0
141
1.0
290
     0
  0
SCALE
  5
58
102
{ACAD_REACTORS
330
47
102
}
330
47
100
AcDbScale
 70
     0
300
100:1
140
100.0
141
1.0
290
     0
  0
SCALE
  5
59
102
{ACAD_REACTORS
330
47
102
}
330
47
100
AcDbScale
 70
     0
300
1/128" = 1'-0"
140
0.0078125
141
12.0
290
     0
  0
SCALE
  5
5A
102
{ACAD_REACTORS
330
47
102
}
330
47
100
AcDbScale
 70
     0
300
1/64" = 1'-0"
140
0.015625
141
12.0
290
     0
  0
SCALE
  5
5B
102
{ACAD_REACTORS
330
47
102
}
330
47
100
AcDbScale
 70
     0
300
1/32" = 1'-0"
140
0.03125
141
12.0
290
     0
  0
SCALE
  5
5C
102
{ACAD_REACTORS
330
47
102
}
330
47
100
AcDbScale
 70
     0
300
1/16" = 1'-0"
140
0.0625
141
12.0
290
     0
  0
SCALE
  5
5D
102
{ACAD_REACTORS
330
47
102
}
330
47
100
AcDbScale
 70
     0
300
3/32" = 1'-0"
140
0.09375
141
12.0
290
     0
  0
SCALE
  5
5E
102
{ACAD_REACTORS
330
47
102
}
330
47
100
AcDbScale
 70
     0
300
1/8" = 1'-0"
140
0.125
141
12.0
290
     0
  0
SCALE
  5
5F
102
{ACAD_REACTORS
330
47
102
}
330
47
100
AcDbScale
 70
     0
300
3/16" = 1'-0"
140
0.1875
141
12.0
290
     0
  0
SCALE
  5
60
102
{ACAD_REACTORS
330
47
102
}
330
47
100
AcDbScale
 70
     0
300
1/4" = 1'-0"
140
0.25
141
12.0
290
     0
  0
SCALE
  5
61
102
{ACAD_REACTORS
330
47
102
}
330
47
100
AcDbScale
 70
     0
300
3/8" = 1'-0"
140
0.375
141
12.0
290
     0
  0
SCALE
  5
62
102
{ACAD_REACTORS
330
47
102
}
330
47
100
AcDbScale
 70
     0
300
1/2" = 1'-0"
140
0.5
141
12.0
290
     0
  0
SCALE
  5
63
102
{ACAD_REACTORS
330
47
102
}
330
47
100
AcDbScale
 70
     0
300
3/4" = 1'-0"
140
0.75
141
12.0
290
     0
  0
SCALE
  5
64
102
{ACAD_REACTORS
330
47
102
}
330
47
100
AcDbScale
 70
     0
300
1" = 1'-0"
140
1.0
141
12.0
290
     0
  0
SCALE
  5
65
102
{ACAD_REACTORS
330
47
102
}
330
47
100
AcDbScale
 70
     0
300
1-1/2" = 1'-0"
140
1.5
141
12.0
290
     0
  0
SCALE
  5
66
102
{ACAD_REACTORS
330
47
102
}
330
47
100
AcDbScale
 70
     0
300
3" = 1'-0"
140
3.0
141
12.0
290
     0
  0
SCALE
  5
67
102
{ACAD_REACTORS
330
47
102
}
330
47
100
AcDbScale
 70
     0
300
6" = 1'-0"
140
6.0
141
12.0
290
     0
  0
SCALE
  5
68
102
{ACAD_REACTORS
330
47
102
}
330
47
100
AcDbScale
 70
     0
300
1'-0" = 1'-0"
140
12.0
141
12.0
290
     0
  0
TABLESTYLE
  5
6A
102
{ACAD_REACTORS
330
69
102
}
102
{ACAD_XDICTIONARY
360
273
102
}
330
69
100
AcDbTableStyle
  3
Standard
 70
     0
 71
     0
 40
0.06
 41
0.06
280
     0
281
     0
  7
Standard
140
0.18
170
     2
 62
     0
 63
   257
283
     0
274
    -2
284
     1
 64
     0
275
    -2
285
     1
 65
     0
276
    -2
286
     1
 66
     0
277
    -2
287
     1
 67
     0
278
    -2
288
     1
 68
     0
279
    -2
289
     1
 69
     0
  7
Standard
140
0.25
170
     5
 62
     0
 63
   257
283
     0
274
    -2
284
     1
 64
     0
275
    -2
285
     1
 65
     0
276
    -2
286
     1
 66
     0
277
    -2
287
     1
 67
     0
278
    -2
288
     1
 68
     0
279
    -2
289
     1
 69
     0
  7
Standard
140
0.18
170
     5
 62
     0
 63
   257
283
     0
274
    -2
284
     1
 64
     0
275
    -2
285
     1
 65
     0
276
    -2
286
     1
 66
     0
277
    -2
287
     1
 67
     0
278
    -2
288
     1
 68
     0
279
    -2
289
     1
 69
     0
  0
VISUALSTYLE
  5
2F
102
{ACAD_REACTORS
330
2A
102
}
102
{ACAD_XDICTIONARY
360
245
102
}
330
2A
100
AcDbVisualStyle
  2
2dWireframe
 70
     4
 71
     0
 72
     2
 73
     0
 90
        0
 40
0.6
 41
30.0
 62
     5
 63
     7
421
 16777215
 74
     1
 91
        4
 64
     7
 65
   257
 75
     1
175
     1
 42
1.0
 92
        0
 66
   257
 43
1.0
 76
     1
 77
     6
 78
     2
 67
     7
 79
     5
170
     0
171
     0
290
     0
174
     0
 93
        1
 44
0.0
173
     0
291
     0
 45
0.0
1001
ACAD
1000
AcDbSavedByObjectVersion
1070
     0
  0
VISUALSTYLE
  5
32
102
{ACAD_REACTORS
330
2A
102
}
102
{ACAD_XDICTIONARY
360
24B
102
}
330
2A
100
AcDbVisualStyle
  2
Basic
 70
     7
 71
     1
 72
     0
 73
     1
 90
        0
 40
0.6
 41
30.0
 62
     5
 63
     7
421
 16777215
 74
     0
 91
        4
 64
     7
 65
   257
 75
     1
175
     1
 42
1.0
 92
        8
 66
     7
 43
1.0
 76
     1
 77
     6
 78
     2
 67
     7
 79
     5
170
     0
171
     0
290
     0
174
     0
 93
        1
 44
0.0
173
     0
291
     1
 45
0.0
1001
ACAD
1000
AcDbSavedByObjectVersion
1070
     0
  0
VISUALSTYLE
  5
36
102
{ACAD_REACTORS
330
2A
102
}
102
{ACAD_XDICTIONARY
360
253
102
}
330
2A
100
AcDbVisualStyle
  2
Brighten
 70
    12
 71
     2
 72
     2
 73
     0
 90
        0
 40
0.6
 41
30.0
 62
     5
 63
     7
421
 16777215
 74
     1
 91
        4
 64
     7
 65
   257
 75
     1
175
     1
 42
1.0
 92
        8
 66
     7
 43
1.0
 76
     1
 77
     6
 78
     2
 67
     7
 79
     5
170
     0
171
     0
290
     0
174
     0
 93
        1
 44
50.0
173
     0
291
     1
 45
0.0
1001
ACAD
1000
AcDbSavedByObjectVersion
1070
     0
  0
VISUALSTYLE
  5
3A
102
{ACAD_REACTORS
330
2A
102
}
102
{ACAD_XDICTIONARY
360
25B
102
}
330
2A
100
AcDbVisualStyle
  2
ColorChange
 70
    16
 71
     2
 72
     2
 73
     3
 90
        0
 40
0.6
 41
30.0
 62
     5
 63
     8
421
  8421504
 74
     1
 91
        4
 64
     7
 65
   257
 75
     1
175
     1
 42
1.0
 92
        8
 66
     8
424
  8421504
 43
1.0
 76
     1
 77
     6
 78
     2
 67
     7
 79
     5
170
     0
171
     0
290
     0
174
     0
 93
        1
 44
0.0
173
     0
291
     1
 45
0.0
1001
ACAD
1000
AcDbSavedByObjectVersion
1070
     0
  0
VISUALSTYLE
  5
34
102
{ACAD_REACTORS
330
2A
102
}
102
{ACAD_XDICTIONARY
360
24F
102
}
330
2A
100
AcDbVisualStyle
  2
Conceptual
 70
     9
 71
     3
 72
     2
 73
     0
 90
        0
 40
0.6
 41
30.0
 62
     5
 63
     7
421
 16777215
 74
     2
 91
        2
 64
     7
 65
   257
 75
     1
175
     1
 42
179.0
 92
        8
 66
     7
 43
1.0
 76
     1
 77
     6
 78
     2
 67
     7
 79
     3
170
     0
171
     0
290
     0
174
     0
 93
        1
 44
0.0
173
     0
291
     0
 45
0.0
1001
ACAD
1000
AcDbSavedByObjectVersion
1070
     0
  0
VISUALSTYLE
  5
35
102
{ACAD_REACTORS
330
2A
102
}
102
{ACAD_XDICTIONARY
360
251
102
}
330
2A
100
AcDbVisualStyle
  2
Dim
 70
    11
 71
     2
 72
     2
 73
     0
 90
        0
 40
0.6
 41
30.0
 62
     5
 63
     7
421
 16777215
 74
     1
 91
        4
 64
     7
 65
   257
 75
     1
175
     1
 42
1.0
 92
        8
 66
     7
 43
1.0
 76
     1
 77
     6
 78
     2
 67
     7
 79
     5
170
     0
171
     0
290
     0
174
     0
 93
        1
 44
-50.0
173
     0
291
     1
 45
0.0
1001
ACAD
1000
AcDbSavedByObjectVersion
1070
     0
  0
VISUALSTYLE
  5
3D
102
{ACAD_REACTORS
330
2A
102
}
102
{ACAD_XDICTIONARY
360
261
102
}
330
2A
100
AcDbVisualStyle
  2
EdgeColorOff
 70
    22
 71
     2
 72
     2
 73
     0
 90
        0
 40
0.6
 41
30.0
 62
     5
 63
     7
421
 16777215
 74
     1
 91
        4
 64
     7
 65
   257
 75
     1
175
     1
 42
1.0
 92
        8
 66
     7
 43
1.0
 76
     1
 77
     6
 78
     2
 67
     7
 79
     5
170
     0
171
     0
290
     0
174
     0
 93
        1
 44
0.0
173
     0
291
     1
 45
0.0
1001
ACAD
1000
AcDbSavedByObjectVersion
1070
     0
  0
VISUALSTYLE
  5
39
102
{ACAD_REACTORS
330
2A
102
}
102
{ACAD_XDICTIONARY
360
259
102
}
330
2A
100
AcDbVisualStyle
  2
Facepattern
 70
    15
 71
     2
 72
     2
 73
     0
 90
        0
 40
0.6
 41
30.0
 62
     5
 63
     7
421
 16777215
 74
     1
 91
        4
 64
     7
 65
   257
 75
     1
175
     1
 42
1.0
 92
        8
 66
     7
 43
1.0
 76
     1
 77
     6
 78
     2
 67
     7
 79
     5
170
     0
171
     0
290
     0
174
     0
 93
        1
 44
0.0
173
     0
291
     1
 45
0.0
1001
ACAD
1000
AcDbSavedByObjectVersion
1070
     0
  0
VISUALSTYLE
  5
2B
102
{ACAD_REACTORS
330
2A
102
}
102
{ACAD_XDICTIONARY
360
23D
102
}
330
2A
100
AcDbVisualStyle
  2
Flat
 70
     0
 71
     2
 72
     1
 73
     1
 90
        2
 40
0.6
 41
30.0
 62
     5
 63
     7
421
 16777215
 74
     0
 91
        0
 64
     7
 65
   257
 75
     1
175
     1
 42
1.0
 92
        8
 66
     7
 43
1.0
 76
     1
 77
     6
 78
     2
 67
     7
 79
     5
170
     0
171
     0
290
     0
174
     0
 93
       13
 44
0.0
173
     0
291
     1
 45
0.0
1001
ACAD
1000
AcDbSavedByObjectVersion
1070
     0
  0
VISUALSTYLE
  5
2C
102
{ACAD_REACTORS
330
2A
102
}
102
{ACAD_XDICTIONARY
360
23F
102
}
330
2A
100
AcDbVisualStyle
  2
FlatWithEdges
 70
     1
 71
     2
 72
     1
 73
     1
 90
        2
 40
0.6
 41
30.0
 62
     5
 63
     7
421
 16777215
 74
     1
 91
        0
 64
     7
 65
   257
 75
     1
175
     1
 42
1.0
 92
        0
 66
   257
 43
1.0
 76
     1
 77
     6
 78
     2
 67
     7
 79
     5
170
     0
171
     0
290
     0
174
     0
 93
       13
 44
0.0
173
     0
291
     1
 45
0.0
1001
ACAD
1000
AcDbSavedByObjectVersion
1070
     0
  0
VISUALSTYLE
  5
2D
102
{ACAD_REACTORS
330
2A
102
}
102
{ACAD_XDICTIONARY
360
241
102
}
330
2A
100
AcDbVisualStyle
  2
Gouraud
 70
     2
 71
     2
 72
     2
 73
     1
 90
        2
 40
0.6
 41
30.0
 62
     5
 63
     7
421
 16777215
 74
     0
 91
        0
 64
     7
 65
   257
 75
     1
175
     1
 42
1.0
 92
        0
 66
     7
 43
1.0
 76
     1
 77
     6
 78
     2
 67
     7
 79
     5
170
     0
171
     0
290
     0
174
     0
 93
       13
 44
0.0
173
     0
291
     1
 45
0.0
1001
ACAD
1000
AcDbSavedByObjectVersion
1070
     0
  0
VISUALSTYLE
  5
2E
102
{ACAD_REACTORS
330
2A
102
}
102
{ACAD_XDICTIONARY
360
243
102
}
330
2A
100
AcDbVisualStyle
  2
GouraudWithEdges
 70
     3
 71
     2
 72
     2
 73
     1
 90
        2
 40
0.6
 41
30.0
 62
     5
 63
     7
421
 16777215
 74
     1
 91
        0
 64
     7
 65
   257
 75
     1
175
     1
 42
1.0
 92
        0
 66
   257
 43
1.0
 76
     1
 77
     6
 78
     2
 67
     7
 79
     5
170
     0
171
     0
290
     0
174
     0
 93
       13
 44
0.0
173
     0
291
     1
 45
0.0
1001
ACAD
1000
AcDbSavedByObjectVersion
1070
     0
  0
VISUALSTYLE
  5
31
102
{ACAD_REACTORS
330
2A
102
}
102
{ACAD_XDICTIONARY
360
249
102
}
330
2A
100
AcDbVisualStyle
  2
Hidden
 70
     6
 71
     1
 72
     2
 73
     2
 90
        0
 40
0.6
 41
30.0
 62
     5
 63
     7
421
 16777215
 74
     2
 91
        2
 64
     7
 65
   257
 75
     2
175
     1
 42
40.0
 92
        0
 66
   257
 43
1.0
 76
     1
 77
     6
 78
     2
 67
     7
 79
     3
170
     0
171
     0
290
     0
174
     0
 93
        1
 44
0.0
173
     0
291
     0
 45
0.0
1001
ACAD
1000
AcDbSavedByObjectVersion
1070
     0
  0
VISUALSTYLE
  5
3B
102
{ACAD_REACTORS
330
2A
102
}
102
{ACAD_XDICTIONARY
360
25D
102
}
330
2A
100
AcDbVisualStyle
  2
JitterOff
 70
    20
 71
     2
 72
     2
 73
     0
 90
        0
 40
0.6
 41
30.0
 62
     5
 63
     7
421
 16777215
 74
     1
 91
        4
 64
     7
 65
   257
 75
     1
175
     1
 42
1.0
 92
       10
 66
     7
 43
1.0
 76
     1
 77
     6
 78
     2
 67
     7
 79
     5
170
     0
171
     0
290
     0
174
     0
 93
        1
 44
0.0
173
     0
291
     1
 45
0.0
1001
ACAD
1000
AcDbSavedByObjectVersion
1070
     0
  0
VISUALSTYLE
  5
38
102
{ACAD_REACTORS
330
2A
102
}
102
{ACAD_XDICTIONARY
360
257
102
}
330
2A
100
AcDbVisualStyle
  2
Linepattern
 70
    14
 71
     2
 72
     2
 73
     0
 90
        0
 40
0.6
 41
30.0
 62
     5
 63
     7
421
 16777215
 74
     1
 91
        4
 64
     7
 65
   257
 75
     7
175
     7
 42
1.0
 92
        8
 66
     7
 43
1.0
 76
     1
 77
     6
 78
     2
 67
     7
 79
     5
170
     0
171
     0
290
     0
174
     0
 93
        1
 44
0.0
173
     0
291
     1
 45
0.0
1001
ACAD
1000
AcDbSavedByObjectVersion
1070
     0
  0
VISUALSTYLE
  5
3C
102
{ACAD_REACTORS
330
2A
102
}
102
{ACAD_XDICTIONARY
360
25F
102
}
330
2A
100
AcDbVisualStyle
  2
OverhangOff
 70
    21
 71
     2
 72
     2
 73
     0
 90
        0
 40
0.6
 41
30.0
 62
     5
 63
     7
421
 16777215
 74
     1
 91
        4
 64
     7
 65
   257
 75
     1
175
     1
 42
1.0
 92
        9
 66
     7
 43
1.0
 76
     1
 77
     6
 78
     2
 67
     7
 79
     5
170
     0
171
     0
290
     0
174
     0
 93
        1
 44
0.0
173
     0
291
     1
 45
0.0
1001
ACAD
1000
AcDbSavedByObjectVersion
1070
     0
  0
VISUALSTYLE
  5
33
102
{ACAD_REACTORS
330
2A
102
}
102
{ACAD_XDICTIONARY
360
24D
102
}
330
2A
100
AcDbVisualStyle
  2
Realistic
 70
     8
 71
     2
 72
     3
 73
     0
 90
        2
 40
0.6
 41
30.0
 62
     5
 63
     7
421
 16777215
 74
     0
 91
        0
 64
     7
 65
   257
 75
     1
175
     1
 42
1.0
 92
        8
 66
   257
 43
1.0
 76
     1
 77
     6
 78
     2
 67
     7
 79
     3
170
     0
171
     0
290
     0
174
     0
 93
       13
 44
0.0
173
     0
291
     0
 45
0.0
1001
ACAD
1000
AcDbSavedByObjectVersion
1070
     0
  0
VISUALSTYLE
  5
42
102
{ACAD_REACTORS
330
2A
102
}
102
{ACAD_XDICTIONARY
360
26B
102
}
330
2A
100
AcDbVisualStyle
  2
Shaded
 70
    27
 71
     2
 72
     2
 73
     1
 90
        2
 40
0.6
 41
30.0
 62
     5
 63
     7
421
 16777215
 74
     0
 91
        4
 64
     7
 65
   257
 75
     1
175
     1
 42
1.0
 92
        8
 66
   257
 43
1.0
 76
     1
 77
     6
 78
     2
 67
     8
425
  7895160
 79
     3
170
     0
171
     0
290
     0
174
     0
 93
        5
 44
0.0
173
     0
291
     0
 45
0.0
1001
ACAD
1000
AcDbSavedByObjectVersion
1070
     0
  0
VISUALSTYLE
  5
41
102
{ACAD_REACTORS
330
2A
102
}
102
{ACAD_XDICTIONARY
360
269
102
}
330
2A
100
AcDbVisualStyle
  2
Shaded with edges
 70
    26
 71
     2
 72
     2
 73
     1
 90
        2
 40
0.6
 41
30.0
 62
     5
 63
     7
421
 16777215
 74
     1
 91
       10
 64
     7
 65
   257
 75
     2
175
     1
 42
1.0
 92
        8
 66
   257
 43
1.0
 76
     1
 77
     6
 78
     2
 67
     7
 79
     3
170
     0
171
     0
290
     0
174
     0
 93
        5
 44
0.0
173
     0
291
     0
 45
0.0
1001
ACAD
1000
AcDbSavedByObjectVersion
1070
     0
  0
VISUALSTYLE
  5
3E
102
{ACAD_REACTORS
330
2A
102
}
102
{ACAD_XDICTIONARY
360
263
102
}
330
2A
100
AcDbVisualStyle
  2
Shades of Gray
 70
    23
 71
     2
 72
     2
 73
     3
 90
        0
 40
0.6
 41
30.0
 62
     5
 63
     7
421
 16777215
 74
     2
 91
        2
 64
     7
 65
     7
 75
     1
175
     1
 42
40.0
 92
        8
 66
     7
 43
1.0
 76
     1
 77
     6
 78
     2
 67
     7
 79
     3
170
     0
171
     0
290
     0
174
     0
 93
        1
 44
0.0
173
     0
291
     0
 45
0.0
1001
ACAD
1000
AcDbSavedByObjectVersion
1070
     0
  0
VISUALSTYLE
  5
3F
102
{ACAD_REACTORS
330
2A
102
}
102
{ACAD_XDICTIONARY
360
265
102
}
330
2A
100
AcDbVisualStyle
  2
Sketchy
 70
    24
 71
     1
 72
     2
 73
     2
 90
        0
 40
0.6
 41
30.0
 62
     5
 63
     7
421
 16777215
 74
     2
 91
        2
 64
     7
 65
     7
 75
     1
175
     1
 42
40.0
 92
       11
 66
     7
 43
1.0
 76
     1
 77
     6
 78
     2
 67
     7
 79
     6
170
     0
171
     0
290
     0
174
     0
 93
        1
 44
0.0
173
     0
291
     0
 45
0.0
1001
ACAD
1000
AcDbSavedByObjectVersion
1070
     0
  0
VISUALSTYLE
  5
37
102
{ACAD_REACTORS
330
2A
102
}
102
{ACAD_XDICTIONARY
360
255
102
}
330
2A
100
AcDbVisualStyle
  2
Thicken
 70
    13
 71
     2
 72
     2
 73
     0
 90
        0
 40
0.6
 41
30.0
 62
     5
 63
     7
421
 16777215
 74
     1
 91
        4
 64
     7
 65
   257
 75
     1
175
     1
 42
1.0
 92
       12
 66
     7
 43
1.0
 76
     1
 77
     6
 78
     2
 67
     7
 79
     5
170
     0
171
     0
290
     0
174
     0
 93
        1
 44
0.0
173
     0
291
     1
 45
0.0
1001
ACAD
1000
AcDbSavedByObjectVersion
1070
     0
  0
VISUALSTYLE
  5
30
102
{ACAD_REACTORS
330
2A
102
}
102
{ACAD_XDICTIONARY
360
247
102
}
330
2A
100
AcDbVisualStyle
  2
Wireframe
 70
     5
 71
     0
 72
     2
 73
     0
 90
        0
 40
0.6
 41
30.0
 62
     5
 63
     7
421
 16777215
 74
     1
 91
        4
 64
     7
 65
   257
 75
     1
175
     1
 42
1.0
 92
        0
 66
   257
 43
1.0
 76
     1
 77
     6
 78
     2
 67
     7
 79
     3
170
     0
171
     0
290
     0
174
     0
 93
        1
 44
0.0
173
     0
291
     0
 45
0.0
1001
ACAD
1000
AcDbSavedByObjectVersion
1070
     0
  0
VISUALSTYLE
  5
40
102
{ACAD_REACTORS
330
2A
102
}
102
{ACAD_XDICTIONARY
360
267
102
}
330
2A
100
AcDbVisualStyle
  2
X-Ray
 70
    25
 71
     2
 72
     2
 73
     1
 90
        1
 40
0.5
 41
30.0
 62
     5
 63
     7
421
 16777215
 74
     1
 91
        0
 64
     7
 65
   257
 75
     1
175
     1
 42
1.0
 92
        8
 66
     7
 43
1.0
 76
     1
 77
     6
 78
     2
 67
     7
 79
     3
170
     0
171
     0
290
     0
174
     0
 93
       13
 44
0.0
173
     0
291
     0
 45
0.0
1001
ACAD
1000
AcDbSavedByObjectVersion
1070
     0
  0
DICTIONARYVAR
  5
23A
102
{ACAD_REACTORS
330
239
102
}
330
239
100
DictionaryVariables
280
     0
  1
1:1
  0
DICTIONARYVAR
  5
27B
102
{ACAD_REACTORS
330
239
102
}
330
239
100
DictionaryVariables
280
     0
  1
Standard
  0
DICTIONARYVAR
  5
27A
102
{ACAD_REACTORS
330
239
102
}
330
239
100
DictionaryVariables
280
     0
  1
Standard
  0
DICTIONARYVAR
  5
23B
102
{ACAD_REACTORS
330
239
102
}
330
239
100
DictionaryVariables
280
     0
  1
1
  0
DICTIONARYVAR
  5
23C
102
{ACAD_REACTORS
330
239
102
}
330
239
100
DictionaryVariables
280
     0
  1
2
  0
DICTIONARY
  5
26F
330
45
100
AcDbDictionary
280
     1
281
     1
  3
ACAD_XREC_ROUNDTRIP
360
270
  0
DICTIONARY
  5
26D
330
44
100
AcDbDictionary
280
     1
281
     1
  3
ACAD_XREC_ROUNDTRIP
360
26E
  0
DICTIONARY
  5
271
330
46
100
AcDbDictionary
280
     1
281
     1
  3
ACAD_XREC_ROUNDTRIP
360
272
  0
DICTIONARY
  5
277
330
6C
100
AcDbDictionary
280
     1
281
     1
  3
ACAD_XREC_ROUNDTRIP
360
278
  0
DICTIONARY
  5
273
330
6A
100
AcDbDictionary
280
     1
281
     1
  3
ACAD_ROUNDTRIP_2008_TABLESTYLE_CELLSTYLEMAP
360
275
  3
ACAD_XREC_ROUNDTRIP
360
274
  0
DICTIONARY
  5
245
330
2F
100
AcDbDictionary
280
     1
281
     1
  3
ACAD_XREC_ROUNDTRIP
360
246
  0
DICTIONARY
  5
24B
330
32
100
AcDbDictionary
280
     1
281
     1
  3
ACAD_XREC_ROUNDTRIP
360
24C
  0
DICTIONARY
  5
253
330
36
100
AcDbDictionary
280
     1
281
     1
  3
ACAD_XREC_ROUNDTRIP
360
254
  0
DICTIONARY
  5
25B
330
3A
100
AcDbDictionary
280
     1
281
     1
  3
ACAD_XREC_ROUNDTRIP
360
25C
  0
DICTIONARY
  5
24F
330
34
100
AcDbDictionary
280
     1
281
     1
  3
ACAD_XREC_ROUNDTRIP
360
250
  0
DICTIONARY
  5
251
330
35
100
AcDbDictionary
280
     1
281
     1
  3
ACAD_XREC_ROUNDTRIP
360
252
  0
DICTIONARY
  5
261
330
3D
100
AcDbDictionary
280
     1
281
     1
  3
ACAD_XREC_ROUNDTRIP
360
262
  0
DICTIONARY
  5
259
330
39
100
AcDbDictionary
280
     1
281
     1
  3
ACAD_XREC_ROUNDTRIP
360
25A
  0
DICTIONARY
  5
23D
330
2B
100
AcDbDictionary
280
     1
281
     1
  3
ACAD_XREC_ROUNDTRIP
360
23E
  0
DICTIONARY
  5
23F
330
2C
100
AcDbDictionary
280
     1
281
     1
  3
ACAD_XREC_ROUNDTRIP
360
240
  0
DICTIONARY
  5
241
330
2D
100
AcDbDictionary
280
     1
281
     1
  3
ACAD_XREC_ROUNDTRIP
360
242
  0
DICTIONARY
  5
243
330
2E
100
AcDbDictionary
280
     1
281
     1
  3
ACAD_XREC_ROUNDTRIP
360
244
  0
DICTIONARY
  5
249
330
31
100
AcDbDictionary
280
     1
281
     1
  3
ACAD_XREC_ROUNDTRIP
360
24A
  0
DICTIONARY
  5
25D
330
3B
100
AcDbDictionary
280
     1
281
     1
  3
ACAD_XREC_ROUNDTRIP
360
25E
  0
DICTIONARY
  5
257
330
38
100
AcDbDictionary
280
     1
281
     1
  3
ACAD_XREC_ROUNDTRIP
360
258
  0
DICTIONARY
  5
25F
330
3C
100
AcDbDictionary
280
     1
281
     1
  3
ACAD_XREC_ROUNDTRIP
360
260
  0
DICTIONARY
  5
24D
330
33
100
AcDbDictionary
280
     1
281
     1
  3
ACAD_XREC_ROUNDTRIP
360
24E
  0
DICTIONARY
  5
26B
330
42
100
AcDbDictionary
280
     1
281
     1
  3
ACAD_XREC_ROUNDTRIP
360
26C
  0
DICTIONARY
  5
269
330
41
100
AcDbDictionary
280
     1
281
     1
  3
ACAD_XREC_ROUNDTRIP
360
26A
  0
DICTIONARY
  5
263
330
3E
100
AcDbDictionary
280
     1
281
     1
  3
ACAD_XREC_ROUNDTRIP
360
264
  0
DICTIONARY
  5
265
330
3F
100
AcDbDictionary
280
     1
281
     1
  3
ACAD_XREC_ROUNDTRIP
360
266
  0
DICTIONARY
  5
255
330
37
100
AcDbDictionary
280
     1
281
     1
  3
ACAD_XREC_ROUNDTRIP
360
256
  0
DICTIONARY
  5
247
330
30
100
AcDbDictionary
280
     1
281
     1
  3
ACAD_XREC_ROUNDTRIP
360
248
  0
DICTIONARY
  5
267
330
40
100
AcDbDictionary
280
     1
281
     1
  3
ACAD_XREC_ROUNDTRIP
360
268
  0
XRECORD
  5
270
102
{ACAD_REACTORS
330
26F
102
}
330
26F
100
AcDbXrecord
280
     1
102
MATERIAL
148
0.0
149
0.0
149
0.0
 93
        0
 94
      127
282
     0
 72
     1
 77
     1
171
     1
175
     1
179
     1
273
     0
  0
XRECORD
  5
26E
102
{ACAD_REACTORS
330
26D
102
}
330
26D
100
AcDbXrecord
280
     1
102
MATERIAL
148
0.0
149
0.0
149
0.0
 93
        0
 94
      127
282
     0
 72
     1
 77
     1
171
     1
175
     1
179
     1
273
     0
  0
XRECORD
  5
272
102
{ACAD_REACTORS
330
271
102
}
330
271
100
AcDbXrecord
280
     1
102
MATERIAL
148
0.0
149
0.0
149
0.0
 93
        0
 94
      127
282
     0
 72
     1
 77
     1
171
     1
175
     1
179
     1
273
     0
  0
XRECORD
  5
278
102
{ACAD_REACTORS
330
277
102
}
330
277
100
AcDbXrecord
280
     1
102
ACAD_ROUNDTRIP_2010_MLEADER_STYLE
  0
CELLSTYLEMAP
  5
275
102
{ACAD_REACTORS
330
273
102
}
330
273
100
AcDbCellStyleMap
 90
        3
300
CELLSTYLE
  1
TABLEFORMAT_BEGIN
 90
        5
170
     1
 91
        0
 92
    32768
 62
   257
 93
        1
300
CONTENTFORMAT
  1
CONTENTFORMAT_BEGIN
 90
        0
 91
        0
 92
        4
 93
        0
300

 40
0.0
140
1.0
 94
        5
 62
     0
340
11
144
0.25
309
CONTENTFORMAT_END
171
     1
301
MARGIN
  1
CELLMARGIN_BEGIN
 40
0.06
 40
0.06
 40
0.06
 40
0.06
 40
0.06
 40
0.06
309
CELLMARGIN_END
 94
        6
 95
        1
302
GRIDFORMAT
  1
GRIDFORMAT_BEGIN
 90
        0
 91
        1
 62
     0
 92
       -2
340
14
 93
        0
 40
0.045
309
GRIDFORMAT_END
 95
        2
302
GRIDFORMAT
  1
GRIDFORMAT_BEGIN
 90
        0
 91
        1
 62
     0
 92
       -2
340
14
 93
        0
 40
0.045
309
GRIDFORMAT_END
 95
        4
302
GRIDFORMAT
  1
GRIDFORMAT_BEGIN
 90
        0
 91
        1
 62
     0
 92
       -2
340
14
 93
        0
 40
0.045
309
GRIDFORMAT_END
 95
        8
302
GRIDFORMAT
  1
GRIDFORMAT_BEGIN
 90
        0
 91
        1
 62
     0
 92
       -2
340
14
 93
        0
 40
0.045
309
GRIDFORMAT_END
 95
       16
302
GRIDFORMAT
  1
GRIDFORMAT_BEGIN
 90
        0
 91
        1
 62
     0
 92
       -2
340
14
 93
        0
 40
0.045
309
GRIDFORMAT_END
 95
       32
302
GRIDFORMAT
  1
GRIDFORMAT_BEGIN
 90
        0
 91
        1
 62
     0
 92
       -2
340
14
 93
        0
 40
0.045
309
GRIDFORMAT_END
309
TABLEFORMAT_END
  1
CELLSTYLE_BEGIN
 90
        1
 91
        1
300
_TITLE
309
CELLSTYLE_END
300
CELLSTYLE
  1
TABLEFORMAT_BEGIN
 90
        5
170
     1
 91
        0
 92
        0
 62
   257
 93
        1
300
CONTENTFORMAT
  1
CONTENTFORMAT_BEGIN
 90
        0
 91
        0
 92
        4
 93
        0
300

 40
0.0
140
1.0
 94
        5
 62
     0
340
11
144
0.18
309
CONTENTFORMAT_END
171
     1
301
MARGIN
  1
CELLMARGIN_BEGIN
 40
0.06
 40
0.06
 40
0.06
 40
0.06
 40
0.06
 40
0.06
309
CELLMARGIN_END
 94
        6
 95
        1
302
GRIDFORMAT
  1
GRIDFORMAT_BEGIN
 90
        0
 91
        1
 62
     0
 92
       -2
340
14
 93
        0
 40
0.045
309
GRIDFORMAT_END
 95
        2
302
GRIDFORMAT
  1
GRIDFORMAT_BEGIN
 90
        0
 91
        1
 62
     0
 92
       -2
340
14
 93
        0
 40
0.045
309
GRIDFORMAT_END
 95
        4
302
GRIDFORMAT
  1
GRIDFORMAT_BEGIN
 90
        0
 91
        1
 62
     0
 92
       -2
340
14
 93
        0
 40
0.045
309
GRIDFORMAT_END
 95
        8
302
GRIDFORMAT
  1
GRIDFORMAT_BEGIN
 90
        0
 91
        1
 62
     0
 92
       -2
340
14
 93
        0
 40
0.045
309
GRIDFORMAT_END
 95
       16
302
GRIDFORMAT
  1
GRIDFORMAT_BEGIN
 90
        0
 91
        1
 62
     0
 92
       -2
340
14
 93
        0
 40
0.045
309
GRIDFORMAT_END
 95
       32
302
GRIDFORMAT
  1
GRIDFORMAT_BEGIN
 90
        0
 91
        1
 62
     0
 92
       -2
340
14
 93
        0
 40
0.045
309
GRIDFORMAT_END
309
TABLEFORMAT_END
  1
CELLSTYLE_BEGIN
 90
        2
 91
        1
300
_HEADER
309
CELLSTYLE_END
300
CELLSTYLE
  1
TABLEFORMAT_BEGIN
 90
        5
170
     1
 91
        0
 92
        0
 62
   257
 93
        1
300
CONTENTFORMAT
  1
CONTENTFORMAT_BEGIN
 90
        0
 91
        0
 92
        4
 93
        0
300

 40
0.0
140
1.0
 94
        2
 62
     0
340
11
144
0.18
309
CONTENTFORMAT_END
171
     1
301
MARGIN
  1
CELLMARGIN_BEGIN
 40
0.06
 40
0.06
 40
0.06
 40
0.06
 40
0.06
 40
0.06
309
CELLMARGIN_END
 94
        6
 95
        1
302
GRIDFORMAT
  1
GRIDFORMAT_BEGIN
 90
        0
 91
        1
 62
     0
 92
       -2
340
14
 93
        0
 40
0.045
309
GRIDFORMAT_END
 95
        2
302
GRIDFORMAT
  1
GRIDFORMAT_BEGIN
 90
        0
 91
        1
 62
     0
 92
       -2
340
14
 93
        0
 40
0.045
309
GRIDFORMAT_END
 95
        4
302
GRIDFORMAT
  1
GRIDFORMAT_BEGIN
 90
        0
 91
        1
 62
     0
 92
       -2
340
14
 93
        0
 40
0.045
309
GRIDFORMAT_END
 95
        8
302
GRIDFORMAT
  1
GRIDFORMAT_BEGIN
 90
        0
 91
        1
 62
     0
 92
       -2
340
14
 93
        0
 40
0.045
309
GRIDFORMAT_END
 95
       16
302
GRIDFORMAT
  1
GRIDFORMAT_BEGIN
 90
        0
 91
        1
 62
     0
 92
       -2
340
14
 93
        0
 40
0.045
309
GRIDFORMAT_END
 95
       32
302
GRIDFORMAT
  1
GRIDFORMAT_BEGIN
 90
        0
 91
        1
 62
     0
 92
       -2
340
14
 93
        0
 40
0.045
309
GRIDFORMAT_END
309
TABLEFORMAT_END
  1
CELLSTYLE_BEGIN
 90
        3
 91
        2
300
_DATA
309
CELLSTYLE_END
  0
XRECORD
  5
274
102
{ACAD_REACTORS
330
273
102
}
330
273
100
AcDbXrecord
280
     1
102
ACAD_ROUNDTRIP_PRE2007_TABLESTYLE
 90
        4
 91
        0
  1

 92
        4
 93
        0
  2

 94
        4
 95
        0
  3

  0
XRECORD
  5
246
102
{ACAD_REACTORS
330
245
102
}
330
245
100
AcDbXrecord
280
     1
102
RTVSPropertyOp0
 70
     1
102
RTVSPropertyOp1
 70
     1
102
RTVSPropertyOp2
 70
     1
102
RTVSPropertyOp3
 70
     1
102
RTVSPropertyOp4
 70
     1
102
RTVSPropertyOp5
 70
     1
102
RTVSPropertyOp6
 70
     1
102
RTVSPropertyOp7
 70
     1
102
RTVSPropertyOp8
 70
     1
102
RTVSPropertyOp9
 70
     1
102
RTVSPropertyOp10
 70
     1
102
RTVSPropertyOp11
 70
     1
102
RTVSPropertyOp12
 70
     1
102
RTVSPropertyOp13
 70
     1
102
RTVSPropertyOp14
 70
     1
102
RTVSPropertyOp15
 70
     1
102
RTVSPropertyOp16
 70
     1
102
RTVSPropertyOp17
 70
     1
102
RTVSPropertyOp18
 70
     1
102
RTVSPropertyOp19
 70
     1
102
RTVSPropertyOp20
 70
     1
102
RTVSPropertyOp21
 70
     1
102
RTVSPropertyOp22
 70
     1
102
RTVSPropertyOp23
 70
     1
102
RTVSPropertyOp24
 70
     1
102
RTVSPropertyOp25
 70
     1
102
RTVSPropertyOp26
 70
     1
102
RTVSPropertyOp27
 70
     1
102
RTVSPropertyOp28
 70
     1
102
RTVSPropertyOp29
 70
     1
102
RTVSPropertyOp30
 70
     1
102
RTVSPropertyOp31
 70
     1
102
RTVSPropertyOp32
 70
     1
102
RTVSPropertyOp33
 70
     1
102
RTVSPropertyOp34
 70
     1
102
RTVSPropertyOp35
 70
     1
102
RTVSPropertyOp36
 70
     1
102
RTVSPropertyOp37
 70
     1
102
RTVSPropertyOp38
 70
     1
102
RTVSPropertyOp39
 70
     1
102
RTVSPropertyOp40
 70
     1
102
RTVSPropertyOp41
 70
     1
102
RTVSPropertyOp42
 70
     1
102
RTVSPropertyOp43
 70
     1
102
RTVSPropertyOp44
 70
     1
102
RTVSPropertyOp45
 70
     1
102
RTVSPropertyOp46
 70
     1
102
RTVSPropertyOp47
 70
     1
102
RTVSPropertyOp48
 70
     1
102
RTVSPropertyOp49
 70
     1
102
RTVSPropertyOp50
 70
     1
102
RTVSPropertyOp51
 70
     0
102
RTVSPropertyOp52
 70
     0
102
RTVSPropertyOp53
 70
     1
102
RTVSPropertyOp54
 70
     1
102
RTVSPropertyOp55
 70
     1
102
RTVSPropertyOp56
 70
     1
102
RTVSPropertyOp57
 70
     1
102
RTVSPost2010Prop28
280
     1
102
RTVSPost2010PropOp28
 70
     1
102
RTVSPost2010Prop29
280
     1
102
RTVSPost2010PropOp29
 70
     1
102
RTVSPost2010Prop30
280
     0
102
RTVSPost2010PropOp30
 70
     1
102
RTVSPost2010Prop31
280
     0
102
RTVSPost2010PropOp31
 70
     1
102
RTVSPost2010Prop32
280
     0
102
RTVSPost2010PropOp32
 70
     1
102
RTVSPost2010Prop33
280
     0
102
RTVSPost2010PropOp33
 70
     1
102
RTVSPost2010Prop34
280
     0
102
RTVSPost2010PropOp34
 70
     1
102
RTVSPost2010Prop35
280
     0
102
RTVSPost2010PropOp35
 70
     1
102
RTVSPost2010Prop36
280
     0
102
RTVSPost2010PropOp36
 70
     1
102
RTVSPost2010Prop37
 90
       50
102
RTVSPost2010PropOp37
 70
     1
102
RTVSPost2010Prop38
140
0.0
102
RTVSPost2010PropOp38
 70
     1
102
RTVSPost2010Prop39
140
1.0
102
RTVSPost2010PropOp39
 70
     1
102
RTVSPost2010Prop40
 90
        0
102
RTVSPost2010PropOp40
 70
     1
102
RTVSPost2010Prop41ColorIndex
 90
       18
102
RTVSPost2010Prop41ColorRGB
 90
        0
102
RTVSPost2010PropOp41
 70
     1
102
RTVSPost2010Prop42
 90
       50
102
RTVSPost2010PropOp42
 70
     1
102
RTVSPost2010Prop43
 90
        3
102
RTVSPost2010PropOp43
 70
     1
102
RTVSPost2010Prop44ColorIndex
 90
        5
102
RTVSPost2010Prop44ColorRGB
 90
      255
102
RTVSPost2010PropOp44
 70
     1
102
RTVSPost2010Prop45
280
     0
102
RTVSPost2010PropOp45
 70
     1
102
RTVSPost2010Prop46
 90
       50
102
RTVSPost2010PropOp46
 70
     1
102
RTVSPost2010Prop47
 90
       50
102
RTVSPost2010PropOp47
 70
     1
102
RTVSPost2010Prop48
 90
       50
102
RTVSPost2010PropOp48
 70
     1
102
RTVSPost2010Prop49
280
     0
102
RTVSPost2010PropOp49
 70
     1
102
RTVSPost2010Prop50
 90
       50
102
RTVSPost2010PropOp50
 70
     1
102
RTVSPost2010Prop51ColorIndex
 90
      256
102
RTVSPost2010Prop51ColorRGB
 90
-16777216
102
RTVSPost2010PropOp51
 70
     0
102
RTVSPost2010Prop52
140
1.0
102
RTVSPost2010PropOp52
 70
     0
102
RTVSPost2010Prop53
 90
        2
102
RTVSPost2010PropOp53
 70
     1
102
RTVSPost2010Prop54
  1
strokes_ogs.tif
102
RTVSPost2010PropOp54
 70
     1
102
RTVSPost2010Prop55
280
     0
102
RTVSPost2010PropOp55
 70
     1
102
RTVSPost2010Prop56
140
1.0
102
RTVSPost2010PropOp56
 70
     1
102
RTVSPost2010Prop57
140
1.0
102
RTVSPost2010PropOp57
 70
     1
  0
XRECORD
  5
24C
102
{ACAD_REACTORS
330
24B
102
}
330
24B
100
AcDbXrecord
280
     1
102
RTVSPropertyOp0
 70
     1
102
RTVSPropertyOp1
 70
     1
102
RTVSPropertyOp2
 70
     1
102
RTVSPropertyOp3
 70
     1
102
RTVSPropertyOp4
 70
     1
102
RTVSPropertyOp5
 70
     1
102
RTVSPropertyOp6
 70
     1
102
RTVSPropertyOp7
 70
     1
102
RTVSPropertyOp8
 70
     1
102
RTVSPropertyOp9
 70
     1
102
RTVSPropertyOp10
 70
     1
102
RTVSPropertyOp11
 70
     1
102
RTVSPropertyOp12
 70
     1
102
RTVSPropertyOp13
 70
     1
102
RTVSPropertyOp14
 70
     1
102
RTVSPropertyOp15
 70
     1
102
RTVSPropertyOp16
 70
     1
102
RTVSPropertyOp17
 70
     1
102
RTVSPropertyOp18
 70
     1
102
RTVSPropertyOp19
 70
     1
102
RTVSPropertyOp20
 70
     1
102
RTVSPropertyOp21
 70
     1
102
RTVSPropertyOp22
 70
     1
102
RTVSPropertyOp23
 70
     1
102
RTVSPropertyOp24
 70
     1
102
RTVSPropertyOp25
 70
     1
102
RTVSPropertyOp26
 70
     1
102
RTVSPropertyOp27
 70
     1
102
RTVSPropertyOp28
 70
     1
102
RTVSPropertyOp29
 70
     1
102
RTVSPropertyOp30
 70
     1
102
RTVSPropertyOp31
 70
     1
102
RTVSPropertyOp32
 70
     1
102
RTVSPropertyOp33
 70
     1
102
RTVSPropertyOp34
 70
     1
102
RTVSPropertyOp35
 70
     1
102
RTVSPropertyOp36
 70
     1
102
RTVSPropertyOp37
 70
     1
102
RTVSPropertyOp38
 70
     1
102
RTVSPropertyOp39
 70
     1
102
RTVSPropertyOp40
 70
     1
102
RTVSPropertyOp41
 70
     1
102
RTVSPropertyOp42
 70
     1
102
RTVSPropertyOp43
 70
     1
102
RTVSPropertyOp44
 70
     1
102
RTVSPropertyOp45
 70
     1
102
RTVSPropertyOp46
 70
     1
102
RTVSPropertyOp47
 70
     1
102
RTVSPropertyOp48
 70
     1
102
RTVSPropertyOp49
 70
     1
102
RTVSPropertyOp50
 70
     1
102
RTVSPropertyOp51
 70
     0
102
RTVSPropertyOp52
 70
     0
102
RTVSPropertyOp53
 70
     1
102
RTVSPropertyOp54
 70
     1
102
RTVSPropertyOp55
 70
     1
102
RTVSPropertyOp56
 70
     1
102
RTVSPropertyOp57
 70
     1
102
RTVSPost2010Prop28
280
     0
102
RTVSPost2010PropOp28
 70
     1
102
RTVSPost2010Prop29
280
     1
102
RTVSPost2010PropOp29
 70
     1
102
RTVSPost2010Prop30
280
     1
102
RTVSPost2010PropOp30
 70
     1
102
RTVSPost2010Prop31
280
     0
102
RTVSPost2010PropOp31
 70
     1
102
RTVSPost2010Prop32
280
     0
102
RTVSPost2010PropOp32
 70
     1
102
RTVSPost2010Prop33
280
     0
102
RTVSPost2010PropOp33
 70
     1
102
RTVSPost2010Prop34
280
     0
102
RTVSPost2010PropOp34
 70
     1
102
RTVSPost2010Prop35
280
     0
102
RTVSPost2010PropOp35
 70
     1
102
RTVSPost2010Prop36
280
     0
102
RTVSPost2010PropOp36
 70
     1
102
RTVSPost2010Prop37
 90
       50
102
RTVSPost2010PropOp37
 70
     1
102
RTVSPost2010Prop38
140
0.0
102
RTVSPost2010PropOp38
 70
     1
102
RTVSPost2010Prop39
140
1.0
102
RTVSPost2010PropOp39
 70
     1
102
RTVSPost2010Prop40
 90
        0
102
RTVSPost2010PropOp40
 70
     1
102
RTVSPost2010Prop41ColorIndex
 90
       18
102
RTVSPost2010Prop41ColorRGB
 90
        0
102
RTVSPost2010PropOp41
 70
     1
102
RTVSPost2010Prop42
 90
       50
102
RTVSPost2010PropOp42
 70
     1
102
RTVSPost2010Prop43
 90
        3
102
RTVSPost2010PropOp43
 70
     1
102
RTVSPost2010Prop44ColorIndex
 90
        5
102
RTVSPost2010Prop44ColorRGB
 90
      255
102
RTVSPost2010PropOp44
 70
     1
102
RTVSPost2010Prop45
280
     0
102
RTVSPost2010PropOp45
 70
     1
102
RTVSPost2010Prop46
 90
       50
102
RTVSPost2010PropOp46
 70
     1
102
RTVSPost2010Prop47
 90
       50
102
RTVSPost2010PropOp47
 70
     1
102
RTVSPost2010Prop48
 90
       50
102
RTVSPost2010PropOp48
 70
     1
102
RTVSPost2010Prop49
280
     0
102
RTVSPost2010PropOp49
 70
     1
102
RTVSPost2010Prop50
 90
       50
102
RTVSPost2010PropOp50
 70
     1
102
RTVSPost2010Prop51ColorIndex
 90
      256
102
RTVSPost2010Prop51ColorRGB
 90
-16777216
102
RTVSPost2010PropOp51
 70
     0
102
RTVSPost2010Prop52
140
1.0
102
RTVSPost2010PropOp52
 70
     0
102
RTVSPost2010Prop53
 90
        2
102
RTVSPost2010PropOp53
 70
     1
102
RTVSPost2010Prop54
  1
strokes_ogs.tif
102
RTVSPost2010PropOp54
 70
     1
102
RTVSPost2010Prop55
280
     0
102
RTVSPost2010PropOp55
 70
     1
102
RTVSPost2010Prop56
140
1.0
102
RTVSPost2010PropOp56
 70
     1
102
RTVSPost2010Prop57
140
1.0
102
RTVSPost2010PropOp57
 70
     1
  0
XRECORD
  5
254
102
{ACAD_REACTORS
330
253
102
}
330
253
100
AcDbXrecord
280
     1
102
RTVSPropertyOp0
 70
     1
102
RTVSPropertyOp1
 70
     1
102
RTVSPropertyOp2
 70
     1
102
RTVSPropertyOp3
 70
     1
102
RTVSPropertyOp4
 70
     1
102
RTVSPropertyOp5
 70
     1
102
RTVSPropertyOp6
 70
     1
102
RTVSPropertyOp7
 70
     1
102
RTVSPropertyOp8
 70
     1
102
RTVSPropertyOp9
 70
     1
102
RTVSPropertyOp10
 70
     1
102
RTVSPropertyOp11
 70
     1
102
RTVSPropertyOp12
 70
     1
102
RTVSPropertyOp13
 70
     1
102
RTVSPropertyOp14
 70
     1
102
RTVSPropertyOp15
 70
     1
102
RTVSPropertyOp16
 70
     1
102
RTVSPropertyOp17
 70
     1
102
RTVSPropertyOp18
 70
     1
102
RTVSPropertyOp19
 70
     1
102
RTVSPropertyOp20
 70
     1
102
RTVSPropertyOp21
 70
     1
102
RTVSPropertyOp22
 70
     1
102
RTVSPropertyOp23
 70
     1
102
RTVSPropertyOp24
 70
     1
102
RTVSPropertyOp25
 70
     1
102
RTVSPropertyOp26
 70
     1
102
RTVSPropertyOp27
 70
     1
102
RTVSPropertyOp28
 70
     1
102
RTVSPropertyOp29
 70
     1
102
RTVSPropertyOp30
 70
     1
102
RTVSPropertyOp31
 70
     1
102
RTVSPropertyOp32
 70
     1
102
RTVSPropertyOp33
 70
     1
102
RTVSPropertyOp34
 70
     1
102
RTVSPropertyOp35
 70
     1
102
RTVSPropertyOp36
 70
     1
102
RTVSPropertyOp37
 70
     1
102
RTVSPropertyOp38
 70
     1
102
RTVSPropertyOp39
 70
     1
102
RTVSPropertyOp40
 70
     1
102
RTVSPropertyOp41
 70
     1
102
RTVSPropertyOp42
 70
     1
102
RTVSPropertyOp43
 70
     1
102
RTVSPropertyOp44
 70
     1
102
RTVSPropertyOp45
 70
     1
102
RTVSPropertyOp46
 70
     1
102
RTVSPropertyOp47
 70
     1
102
RTVSPropertyOp48
 70
     1
102
RTVSPropertyOp49
 70
     1
102
RTVSPropertyOp50
 70
     1
102
RTVSPropertyOp51
 70
     0
102
RTVSPropertyOp52
 70
     0
102
RTVSPropertyOp53
 70
     1
102
RTVSPropertyOp54
 70
     1
102
RTVSPropertyOp55
 70
     1
102
RTVSPropertyOp56
 70
     1
102
RTVSPropertyOp57
 70
     1
102
RTVSPost2010Prop28
280
     0
102
RTVSPost2010PropOp28
 70
     1
102
RTVSPost2010Prop29
280
     1
102
RTVSPost2010PropOp29
 70
     1
102
RTVSPost2010Prop30
280
     1
102
RTVSPost2010PropOp30
 70
     1
102
RTVSPost2010Prop31
280
     0
102
RTVSPost2010PropOp31
 70
     1
102
RTVSPost2010Prop32
280
     0
102
RTVSPost2010PropOp32
 70
     1
102
RTVSPost2010Prop33
280
     0
102
RTVSPost2010PropOp33
 70
     1
102
RTVSPost2010Prop34
280
     0
102
RTVSPost2010PropOp34
 70
     1
102
RTVSPost2010Prop35
280
     0
102
RTVSPost2010PropOp35
 70
     1
102
RTVSPost2010Prop36
280
     0
102
RTVSPost2010PropOp36
 70
     1
102
RTVSPost2010Prop37
 90
       50
102
RTVSPost2010PropOp37
 70
     1
102
RTVSPost2010Prop38
140
0.0
102
RTVSPost2010PropOp38
 70
     1
102
RTVSPost2010Prop39
140
1.0
102
RTVSPost2010PropOp39
 70
     1
102
RTVSPost2010Prop40
 90
        0
102
RTVSPost2010PropOp40
 70
     1
102
RTVSPost2010Prop41ColorIndex
 90
       18
102
RTVSPost2010Prop41ColorRGB
 90
        0
102
RTVSPost2010PropOp41
 70
     1
102
RTVSPost2010Prop42
 90
       50
102
RTVSPost2010PropOp42
 70
     1
102
RTVSPost2010Prop43
 90
        3
102
RTVSPost2010PropOp43
 70
     1
102
RTVSPost2010Prop44ColorIndex
 90
        5
102
RTVSPost2010Prop44ColorRGB
 90
      255
102
RTVSPost2010PropOp44
 70
     1
102
RTVSPost2010Prop45
280
     0
102
RTVSPost2010PropOp45
 70
     1
102
RTVSPost2010Prop46
 90
       50
102
RTVSPost2010PropOp46
 70
     1
102
RTVSPost2010Prop47
 90
       50
102
RTVSPost2010PropOp47
 70
     1
102
RTVSPost2010Prop48
 90
       50
102
RTVSPost2010PropOp48
 70
     1
102
RTVSPost2010Prop49
280
     0
102
RTVSPost2010PropOp49
 70
     1
102
RTVSPost2010Prop50
 90
       50
102
RTVSPost2010PropOp50
 70
     1
102
RTVSPost2010Prop51ColorIndex
 90
      256
102
RTVSPost2010Prop51ColorRGB
 90
-16777216
102
RTVSPost2010PropOp51
 70
     0
102
RTVSPost2010Prop52
140
1.0
102
RTVSPost2010PropOp52
 70
     0
102
RTVSPost2010Prop53
 90
        2
102
RTVSPost2010PropOp53
 70
     1
102
RTVSPost2010Prop54
  1
strokes_ogs.tif
102
RTVSPost2010PropOp54
 70
     1
102
RTVSPost2010Prop55
280
     0
102
RTVSPost2010PropOp55
 70
     1
102
RTVSPost2010Prop56
140
1.0
102
RTVSPost2010PropOp56
 70
     1
102
RTVSPost2010Prop57
140
1.0
102
RTVSPost2010PropOp57
 70
     1
  0
XRECORD
  5
25C
102
{ACAD_REACTORS
330
25B
102
}
330
25B
100
AcDbXrecord
280
     1
102
RTVSPropertyOp0
 70
     1
102
RTVSPropertyOp1
 70
     1
102
RTVSPropertyOp2
 70
     1
102
RTVSPropertyOp3
 70
     1
102
RTVSPropertyOp4
 70
     1
102
RTVSPropertyOp5
 70
     1
102
RTVSPropertyOp6
 70
     1
102
RTVSPropertyOp7
 70
     1
102
RTVSPropertyOp8
 70
     1
102
RTVSPropertyOp9
 70
     1
102
RTVSPropertyOp10
 70
     1
102
RTVSPropertyOp11
 70
     1
102
RTVSPropertyOp12
 70
     1
102
RTVSPropertyOp13
 70
     1
102
RTVSPropertyOp14
 70
     1
102
RTVSPropertyOp15
 70
     1
102
RTVSPropertyOp16
 70
     1
102
RTVSPropertyOp17
 70
     1
102
RTVSPropertyOp18
 70
     1
102
RTVSPropertyOp19
 70
     1
102
RTVSPropertyOp20
 70
     1
102
RTVSPropertyOp21
 70
     1
102
RTVSPropertyOp22
 70
     1
102
RTVSPropertyOp23
 70
     1
102
RTVSPropertyOp24
 70
     1
102
RTVSPropertyOp25
 70
     1
102
RTVSPropertyOp26
 70
     1
102
RTVSPropertyOp27
 70
     1
102
RTVSPropertyOp28
 70
     1
102
RTVSPropertyOp29
 70
     1
102
RTVSPropertyOp30
 70
     1
102
RTVSPropertyOp31
 70
     1
102
RTVSPropertyOp32
 70
     1
102
RTVSPropertyOp33
 70
     1
102
RTVSPropertyOp34
 70
     1
102
RTVSPropertyOp35
 70
     1
102
RTVSPropertyOp36
 70
     1
102
RTVSPropertyOp37
 70
     1
102
RTVSPropertyOp38
 70
     1
102
RTVSPropertyOp39
 70
     1
102
RTVSPropertyOp40
 70
     1
102
RTVSPropertyOp41
 70
     1
102
RTVSPropertyOp42
 70
     1
102
RTVSPropertyOp43
 70
     1
102
RTVSPropertyOp44
 70
     1
102
RTVSPropertyOp45
 70
     1
102
RTVSPropertyOp46
 70
     1
102
RTVSPropertyOp47
 70
     1
102
RTVSPropertyOp48
 70
     1
102
RTVSPropertyOp49
 70
     1
102
RTVSPropertyOp50
 70
     1
102
RTVSPropertyOp51
 70
     0
102
RTVSPropertyOp52
 70
     0
102
RTVSPropertyOp53
 70
     1
102
RTVSPropertyOp54
 70
     1
102
RTVSPropertyOp55
 70
     1
102
RTVSPropertyOp56
 70
     1
102
RTVSPropertyOp57
 70
     1
102
RTVSPost2010Prop28
280
     0
102
RTVSPost2010PropOp28
 70
     1
102
RTVSPost2010Prop29
280
     1
102
RTVSPost2010PropOp29
 70
     1
102
RTVSPost2010Prop30
280
     1
102
RTVSPost2010PropOp30
 70
     1
102
RTVSPost2010Prop31
280
     0
102
RTVSPost2010PropOp31
 70
     1
102
RTVSPost2010Prop32
280
     0
102
RTVSPost2010PropOp32
 70
     1
102
RTVSPost2010Prop33
280
     0
102
RTVSPost2010PropOp33
 70
     1
102
RTVSPost2010Prop34
280
     0
102
RTVSPost2010PropOp34
 70
     1
102
RTVSPost2010Prop35
280
     0
102
RTVSPost2010PropOp35
 70
     1
102
RTVSPost2010Prop36
280
     0
102
RTVSPost2010PropOp36
 70
     1
102
RTVSPost2010Prop37
 90
       50
102
RTVSPost2010PropOp37
 70
     1
102
RTVSPost2010Prop38
140
0.0
102
RTVSPost2010PropOp38
 70
     1
102
RTVSPost2010Prop39
140
1.0
102
RTVSPost2010PropOp39
 70
     1
102
RTVSPost2010Prop40
 90
        0
102
RTVSPost2010PropOp40
 70
     1
102
RTVSPost2010Prop41ColorIndex
 90
       18
102
RTVSPost2010Prop41ColorRGB
 90
        0
102
RTVSPost2010PropOp41
 70
     1
102
RTVSPost2010Prop42
 90
       50
102
RTVSPost2010PropOp42
 70
     1
102
RTVSPost2010Prop43
 90
        3
102
RTVSPost2010PropOp43
 70
     1
102
RTVSPost2010Prop44ColorIndex
 90
        5
102
RTVSPost2010Prop44ColorRGB
 90
      255
102
RTVSPost2010PropOp44
 70
     1
102
RTVSPost2010Prop45
280
     0
102
RTVSPost2010PropOp45
 70
     1
102
RTVSPost2010Prop46
 90
       50
102
RTVSPost2010PropOp46
 70
     1
102
RTVSPost2010Prop47
 90
       50
102
RTVSPost2010PropOp47
 70
     1
102
RTVSPost2010Prop48
 90
       50
102
RTVSPost2010PropOp48
 70
     1
102
RTVSPost2010Prop49
280
     0
102
RTVSPost2010PropOp49
 70
     1
102
RTVSPost2010Prop50
 90
       50
102
RTVSPost2010PropOp50
 70
     1
102
RTVSPost2010Prop51ColorIndex
 90
      256
102
RTVSPost2010Prop51ColorRGB
 90
-16777216
102
RTVSPost2010PropOp51
 70
     0
102
RTVSPost2010Prop52
140
1.0
102
RTVSPost2010PropOp52
 70
     0
102
RTVSPost2010Prop53
 90
        2
102
RTVSPost2010PropOp53
 70
     1
102
RTVSPost2010Prop54
  1
strokes_ogs.tif
102
RTVSPost2010PropOp54
 70
     1
102
RTVSPost2010Prop55
280
     0
102
RTVSPost2010PropOp55
 70
     1
102
RTVSPost2010Prop56
140
1.0
102
RTVSPost2010PropOp56
 70
     1
102
RTVSPost2010Prop57
140
1.0
102
RTVSPost2010PropOp57
 70
     1
  0
XRECORD
  5
250
102
{ACAD_REACTORS
330
24F
102
}
330
24F
100
AcDbXrecord
280
     1
102
RTVSPropertyOp0
 70
     1
102
RTVSPropertyOp1
 70
     1
102
RTVSPropertyOp2
 70
     1
102
RTVSPropertyOp3
 70
     1
102
RTVSPropertyOp4
 70
     1
102
RTVSPropertyOp5
 70
     1
102
RTVSPropertyOp6
 70
     1
102
RTVSPropertyOp7
 70
     1
102
RTVSPropertyOp8
 70
     1
102
RTVSPropertyOp9
 70
     1
102
RTVSPropertyOp10
 70
     1
102
RTVSPropertyOp11
 70
     1
102
RTVSPropertyOp12
 70
     1
102
RTVSPropertyOp13
 70
     1
102
RTVSPropertyOp14
 70
     1
102
RTVSPropertyOp15
 70
     1
102
RTVSPropertyOp16
 70
     1
102
RTVSPropertyOp17
 70
     1
102
RTVSPropertyOp18
 70
     1
102
RTVSPropertyOp19
 70
     1
102
RTVSPropertyOp20
 70
     1
102
RTVSPropertyOp21
 70
     1
102
RTVSPropertyOp22
 70
     1
102
RTVSPropertyOp23
 70
     1
102
RTVSPropertyOp24
 70
     1
102
RTVSPropertyOp25
 70
     1
102
RTVSPropertyOp26
 70
     1
102
RTVSPropertyOp27
 70
     1
102
RTVSPropertyOp28
 70
     1
102
RTVSPropertyOp29
 70
     1
102
RTVSPropertyOp30
 70
     1
102
RTVSPropertyOp31
 70
     1
102
RTVSPropertyOp32
 70
     1
102
RTVSPropertyOp33
 70
     1
102
RTVSPropertyOp34
 70
     1
102
RTVSPropertyOp35
 70
     1
102
RTVSPropertyOp36
 70
     1
102
RTVSPropertyOp37
 70
     1
102
RTVSPropertyOp38
 70
     1
102
RTVSPropertyOp39
 70
     1
102
RTVSPropertyOp40
 70
     1
102
RTVSPropertyOp41
 70
     1
102
RTVSPropertyOp42
 70
     1
102
RTVSPropertyOp43
 70
     1
102
RTVSPropertyOp44
 70
     1
102
RTVSPropertyOp45
 70
     1
102
RTVSPropertyOp46
 70
     1
102
RTVSPropertyOp47
 70
     1
102
RTVSPropertyOp48
 70
     1
102
RTVSPropertyOp49
 70
     1
102
RTVSPropertyOp50
 70
     1
102
RTVSPropertyOp51
 70
     0
102
RTVSPropertyOp52
 70
     0
102
RTVSPropertyOp53
 70
     1
102
RTVSPropertyOp54
 70
     1
102
RTVSPropertyOp55
 70
     1
102
RTVSPropertyOp56
 70
     1
102
RTVSPropertyOp57
 70
     1
102
RTVSPost2010Prop28
280
     0
102
RTVSPost2010PropOp28
 70
     1
102
RTVSPost2010Prop29
280
     1
102
RTVSPost2010PropOp29
 70
     1
102
RTVSPost2010Prop30
280
     1
102
RTVSPost2010PropOp30
 70
     1
102
RTVSPost2010Prop31
280
     0
102
RTVSPost2010PropOp31
 70
     1
102
RTVSPost2010Prop32
280
     0
102
RTVSPost2010PropOp32
 70
     1
102
RTVSPost2010Prop33
280
     0
102
RTVSPost2010PropOp33
 70
     1
102
RTVSPost2010Prop34
280
     0
102
RTVSPost2010PropOp34
 70
     1
102
RTVSPost2010Prop35
280
     0
102
RTVSPost2010PropOp35
 70
     1
102
RTVSPost2010Prop36
280
     0
102
RTVSPost2010PropOp36
 70
     1
102
RTVSPost2010Prop37
 90
       50
102
RTVSPost2010PropOp37
 70
     1
102
RTVSPost2010Prop38
140
0.0
102
RTVSPost2010PropOp38
 70
     1
102
RTVSPost2010Prop39
140
1.0
102
RTVSPost2010PropOp39
 70
     1
102
RTVSPost2010Prop40
 90
        0
102
RTVSPost2010PropOp40
 70
     1
102
RTVSPost2010Prop41ColorIndex
 90
       18
102
RTVSPost2010Prop41ColorRGB
 90
        0
102
RTVSPost2010PropOp41
 70
     1
102
RTVSPost2010Prop42
 90
       50
102
RTVSPost2010PropOp42
 70
     1
102
RTVSPost2010Prop43
 90
        3
102
RTVSPost2010PropOp43
 70
     1
102
RTVSPost2010Prop44ColorIndex
 90
        5
102
RTVSPost2010Prop44ColorRGB
 90
      255
102
RTVSPost2010PropOp44
 70
     1
102
RTVSPost2010Prop45
280
     0
102
RTVSPost2010PropOp45
 70
     1
102
RTVSPost2010Prop46
 90
       50
102
RTVSPost2010PropOp46
 70
     1
102
RTVSPost2010Prop47
 90
       50
102
RTVSPost2010PropOp47
 70
     1
102
RTVSPost2010Prop48
 90
       50
102
RTVSPost2010PropOp48
 70
     1
102
RTVSPost2010Prop49
280
     0
102
RTVSPost2010PropOp49
 70
     1
102
RTVSPost2010Prop50
 90
       50
102
RTVSPost2010PropOp50
 70
     1
102
RTVSPost2010Prop51ColorIndex
 90
      256
102
RTVSPost2010Prop51ColorRGB
 90
-16777216
102
RTVSPost2010PropOp51
 70
     0
102
RTVSPost2010Prop52
140
1.0
102
RTVSPost2010PropOp52
 70
     0
102
RTVSPost2010Prop53
 90
        2
102
RTVSPost2010PropOp53
 70
     1
102
RTVSPost2010Prop54
  1
strokes_ogs.tif
102
RTVSPost2010PropOp54
 70
     1
102
RTVSPost2010Prop55
280
     0
102
RTVSPost2010PropOp55
 70
     1
102
RTVSPost2010Prop56
140
1.0
102
RTVSPost2010PropOp56
 70
     1
102
RTVSPost2010Prop57
140
1.0
102
RTVSPost2010PropOp57
 70
     1
  0
XRECORD
  5
252
102
{ACAD_REACTORS
330
251
102
}
330
251
100
AcDbXrecord
280
     1
102
RTVSPropertyOp0
 70
     1
102
RTVSPropertyOp1
 70
     1
102
RTVSPropertyOp2
 70
     1
102
RTVSPropertyOp3
 70
     1
102
RTVSPropertyOp4
 70
     1
102
RTVSPropertyOp5
 70
     1
102
RTVSPropertyOp6
 70
     1
102
RTVSPropertyOp7
 70
     1
102
RTVSPropertyOp8
 70
     1
102
RTVSPropertyOp9
 70
     1
102
RTVSPropertyOp10
 70
     1
102
RTVSPropertyOp11
 70
     1
102
RTVSPropertyOp12
 70
     1
102
RTVSPropertyOp13
 70
     1
102
RTVSPropertyOp14
 70
     1
102
RTVSPropertyOp15
 70
     1
102
RTVSPropertyOp16
 70
     1
102
RTVSPropertyOp17
 70
     1
102
RTVSPropertyOp18
 70
     1
102
RTVSPropertyOp19
 70
     1
102
RTVSPropertyOp20
 70
     1
102
RTVSPropertyOp21
 70
     1
102
RTVSPropertyOp22
 70
     1
102
RTVSPropertyOp23
 70
     1
102
RTVSPropertyOp24
 70
     1
102
RTVSPropertyOp25
 70
     1
102
RTVSPropertyOp26
 70
     1
102
RTVSPropertyOp27
 70
     1
102
RTVSPropertyOp28
 70
     1
102
RTVSPropertyOp29
 70
     1
102
RTVSPropertyOp30
 70
     1
102
RTVSPropertyOp31
 70
     1
102
RTVSPropertyOp32
 70
     1
102
RTVSPropertyOp33
 70
     1
102
RTVSPropertyOp34
 70
     1
102
RTVSPropertyOp35
 70
     1
102
RTVSPropertyOp36
 70
     1
102
RTVSPropertyOp37
 70
     1
102
RTVSPropertyOp38
 70
     1
102
RTVSPropertyOp39
 70
     1
102
RTVSPropertyOp40
 70
     1
102
RTVSPropertyOp41
 70
     1
102
RTVSPropertyOp42
 70
     1
102
RTVSPropertyOp43
 70
     1
102
RTVSPropertyOp44
 70
     1
102
RTVSPropertyOp45
 70
     1
102
RTVSPropertyOp46
 70
     1
102
RTVSPropertyOp47
 70
     1
102
RTVSPropertyOp48
 70
     1
102
RTVSPropertyOp49
 70
     1
102
RTVSPropertyOp50
 70
     1
102
RTVSPropertyOp51
 70
     0
102
RTVSPropertyOp52
 70
     0
102
RTVSPropertyOp53
 70
     1
102
RTVSPropertyOp54
 70
     1
102
RTVSPropertyOp55
 70
     1
102
RTVSPropertyOp56
 70
     1
102
RTVSPropertyOp57
 70
     1
102
RTVSPost2010Prop28
280
     0
102
RTVSPost2010PropOp28
 70
     1
102
RTVSPost2010Prop29
280
     1
102
RTVSPost2010PropOp29
 70
     1
102
RTVSPost2010Prop30
280
     1
102
RTVSPost2010PropOp30
 70
     1
102
RTVSPost2010Prop31
280
     0
102
RTVSPost2010PropOp31
 70
     1
102
RTVSPost2010Prop32
280
     0
102
RTVSPost2010PropOp32
 70
     1
102
RTVSPost2010Prop33
280
     0
102
RTVSPost2010PropOp33
 70
     1
102
RTVSPost2010Prop34
280
     0
102
RTVSPost2010PropOp34
 70
     1
102
RTVSPost2010Prop35
280
     0
102
RTVSPost2010PropOp35
 70
     1
102
RTVSPost2010Prop36
280
     0
102
RTVSPost2010PropOp36
 70
     1
102
RTVSPost2010Prop37
 90
       50
102
RTVSPost2010PropOp37
 70
     1
102
RTVSPost2010Prop38
140
0.0
102
RTVSPost2010PropOp38
 70
     1
102
RTVSPost2010Prop39
140
1.0
102
RTVSPost2010PropOp39
 70
     1
102
RTVSPost2010Prop40
 90
        0
102
RTVSPost2010PropOp40
 70
     1
102
RTVSPost2010Prop41ColorIndex
 90
       18
102
RTVSPost2010Prop41ColorRGB
 90
        0
102
RTVSPost2010PropOp41
 70
     1
102
RTVSPost2010Prop42
 90
       50
102
RTVSPost2010PropOp42
 70
     1
102
RTVSPost2010Prop43
 90
        3
102
RTVSPost2010PropOp43
 70
     1
102
RTVSPost2010Prop44ColorIndex
 90
        5
102
RTVSPost2010Prop44ColorRGB
 90
      255
102
RTVSPost2010PropOp44
 70
     1
102
RTVSPost2010Prop45
280
     0
102
RTVSPost2010PropOp45
 70
     1
102
RTVSPost2010Prop46
 90
       50
102
RTVSPost2010PropOp46
 70
     1
102
RTVSPost2010Prop47
 90
       50
102
RTVSPost2010PropOp47
 70
     1
102
RTVSPost2010Prop48
 90
       50
102
RTVSPost2010PropOp48
 70
     1
102
RTVSPost2010Prop49
280
     0
102
RTVSPost2010PropOp49
 70
     1
102
RTVSPost2010Prop50
 90
       50
102
RTVSPost2010PropOp50
 70
     1
102
RTVSPost2010Prop51ColorIndex
 90
      256
102
RTVSPost2010Prop51ColorRGB
 90
-16777216
102
RTVSPost2010PropOp51
 70
     0
102
RTVSPost2010Prop52
140
1.0
102
RTVSPost2010PropOp52
 70
     0
102
RTVSPost2010Prop53
 90
        2
102
RTVSPost2010PropOp53
 70
     1
102
RTVSPost2010Prop54
  1
strokes_ogs.tif
102
RTVSPost2010PropOp54
 70
     1
102
RTVSPost2010Prop55
280
     0
102
RTVSPost2010PropOp55
 70
     1
102
RTVSPost2010Prop56
140
1.0
102
RTVSPost2010PropOp56
 70
     1
102
RTVSPost2010Prop57
140
1.0
102
RTVSPost2010PropOp57
 70
     1
  0
XRECORD
  5
262
102
{ACAD_REACTORS
330
261
102
}
330
261
100
AcDbXrecord
280
     1
102
RTVSPropertyOp0
 70
     0
102
RTVSPropertyOp1
 70
     0
102
RTVSPropertyOp2
 70
     0
102
RTVSPropertyOp3
 70
     0
102
RTVSPropertyOp4
 70
     0
102
RTVSPropertyOp5
 70
     0
102
RTVSPropertyOp6
 70
     0
102
RTVSPropertyOp7
 70
     0
102
RTVSPropertyOp8
 70
     0
102
RTVSPropertyOp9
 70
     0
102
RTVSPropertyOp10
 70
     0
102
RTVSPropertyOp11
 70
     0
102
RTVSPropertyOp12
 70
     0
102
RTVSPropertyOp13
 70
     0
102
RTVSPropertyOp14
 70
     2
102
RTVSPropertyOp15
 70
     0
102
RTVSPropertyOp16
 70
     0
102
RTVSPropertyOp17
 70
     0
102
RTVSPropertyOp18
 70
     0
102
RTVSPropertyOp19
 70
     0
102
RTVSPropertyOp20
 70
     0
102
RTVSPropertyOp21
 70
     0
102
RTVSPropertyOp22
 70
     0
102
RTVSPropertyOp23
 70
     0
102
RTVSPropertyOp24
 70
     0
102
RTVSPropertyOp25
 70
     0
102
RTVSPropertyOp26
 70
     0
102
RTVSPropertyOp27
 70
     0
102
RTVSPropertyOp28
 70
     0
102
RTVSPropertyOp29
 70
     0
102
RTVSPropertyOp30
 70
     0
102
RTVSPropertyOp31
 70
     0
102
RTVSPropertyOp32
 70
     0
102
RTVSPropertyOp33
 70
     0
102
RTVSPropertyOp34
 70
     0
102
RTVSPropertyOp35
 70
     0
102
RTVSPropertyOp36
 70
     0
102
RTVSPropertyOp37
 70
     0
102
RTVSPropertyOp38
 70
     0
102
RTVSPropertyOp39
 70
     0
102
RTVSPropertyOp40
 70
     0
102
RTVSPropertyOp41
 70
     0
102
RTVSPropertyOp42
 70
     0
102
RTVSPropertyOp43
 70
     0
102
RTVSPropertyOp44
 70
     0
102
RTVSPropertyOp45
 70
     0
102
RTVSPropertyOp46
 70
     0
102
RTVSPropertyOp47
 70
     0
102
RTVSPropertyOp48
 70
     0
102
RTVSPropertyOp49
 70
     0
102
RTVSPropertyOp50
 70
     0
102
RTVSPropertyOp51
 70
     0
102
RTVSPropertyOp52
 70
     0
102
RTVSPropertyOp53
 70
     0
102
RTVSPropertyOp54
 70
     0
102
RTVSPropertyOp55
 70
     0
102
RTVSPropertyOp56
 70
     0
102
RTVSPropertyOp57
 70
     0
102
RTVSPost2010Prop28
280
     0
102
RTVSPost2010PropOp28
 70
     0
102
RTVSPost2010Prop29
280
     1
102
RTVSPost2010PropOp29
 70
     0
102
RTVSPost2010Prop30
280
     1
102
RTVSPost2010PropOp30
 70
     0
102
RTVSPost2010Prop31
280
     0
102
RTVSPost2010PropOp31
 70
     0
102
RTVSPost2010Prop32
280
     0
102
RTVSPost2010PropOp32
 70
     0
102
RTVSPost2010Prop33
280
     0
102
RTVSPost2010PropOp33
 70
     0
102
RTVSPost2010Prop34
280
     0
102
RTVSPost2010PropOp34
 70
     0
102
RTVSPost2010Prop35
280
     0
102
RTVSPost2010PropOp35
 70
     0
102
RTVSPost2010Prop36
280
     0
102
RTVSPost2010PropOp36
 70
     0
102
RTVSPost2010Prop37
 90
       50
102
RTVSPost2010PropOp37
 70
     0
102
RTVSPost2010Prop38
140
0.0
102
RTVSPost2010PropOp38
 70
     0
102
RTVSPost2010Prop39
140
1.0
102
RTVSPost2010PropOp39
 70
     0
102
RTVSPost2010Prop40
 90
        0
102
RTVSPost2010PropOp40
 70
     0
102
RTVSPost2010Prop41ColorIndex
 90
       18
102
RTVSPost2010Prop41ColorRGB
 90
        0
102
RTVSPost2010PropOp41
 70
     0
102
RTVSPost2010Prop42
 90
       50
102
RTVSPost2010PropOp42
 70
     0
102
RTVSPost2010Prop43
 90
        3
102
RTVSPost2010PropOp43
 70
     0
102
RTVSPost2010Prop44ColorIndex
 90
        5
102
RTVSPost2010Prop44ColorRGB
 90
      255
102
RTVSPost2010PropOp44
 70
     0
102
RTVSPost2010Prop45
280
     0
102
RTVSPost2010PropOp45
 70
     0
102
RTVSPost2010Prop46
 90
       50
102
RTVSPost2010PropOp46
 70
     0
102
RTVSPost2010Prop47
 90
       50
102
RTVSPost2010PropOp47
 70
     0
102
RTVSPost2010Prop48
 90
       50
102
RTVSPost2010PropOp48
 70
     0
102
RTVSPost2010Prop49
280
     0
102
RTVSPost2010PropOp49
 70
     0
102
RTVSPost2010Prop50
 90
       50
102
RTVSPost2010PropOp50
 70
     0
102
RTVSPost2010Prop51ColorIndex
 90
      256
102
RTVSPost2010Prop51ColorRGB
 90
-16777216
102
RTVSPost2010PropOp51
 70
     0
102
RTVSPost2010Prop52
140
1.0
102
RTVSPost2010PropOp52
 70
     0
102
RTVSPost2010Prop53
 90
        2
102
RTVSPost2010PropOp53
 70
     0
102
RTVSPost2010Prop54
  1
strokes_ogs.tif
102
RTVSPost2010PropOp54
 70
     0
102
RTVSPost2010Prop55
280
     0
102
RTVSPost2010PropOp55
 70
     0
102
RTVSPost2010Prop56
140
1.0
102
RTVSPost2010PropOp56
 70
     0
102
RTVSPost2010Prop57
140
1.0
102
RTVSPost2010PropOp57
 70
     0
  0
XRECORD
  5
25A
102
{ACAD_REACTORS
330
259
102
}
330
259
100
AcDbXrecord
280
     1
102
RTVSPropertyOp0
 70
     1
102
RTVSPropertyOp1
 70
     1
102
RTVSPropertyOp2
 70
     1
102
RTVSPropertyOp3
 70
     1
102
RTVSPropertyOp4
 70
     1
102
RTVSPropertyOp5
 70
     1
102
RTVSPropertyOp6
 70
     1
102
RTVSPropertyOp7
 70
     1
102
RTVSPropertyOp8
 70
     1
102
RTVSPropertyOp9
 70
     1
102
RTVSPropertyOp10
 70
     1
102
RTVSPropertyOp11
 70
     1
102
RTVSPropertyOp12
 70
     1
102
RTVSPropertyOp13
 70
     1
102
RTVSPropertyOp14
 70
     1
102
RTVSPropertyOp15
 70
     1
102
RTVSPropertyOp16
 70
     1
102
RTVSPropertyOp17
 70
     1
102
RTVSPropertyOp18
 70
     1
102
RTVSPropertyOp19
 70
     1
102
RTVSPropertyOp20
 70
     1
102
RTVSPropertyOp21
 70
     1
102
RTVSPropertyOp22
 70
     1
102
RTVSPropertyOp23
 70
     1
102
RTVSPropertyOp24
 70
     1
102
RTVSPropertyOp25
 70
     1
102
RTVSPropertyOp26
 70
     1
102
RTVSPropertyOp27
 70
     1
102
RTVSPropertyOp28
 70
     1
102
RTVSPropertyOp29
 70
     1
102
RTVSPropertyOp30
 70
     1
102
RTVSPropertyOp31
 70
     1
102
RTVSPropertyOp32
 70
     1
102
RTVSPropertyOp33
 70
     1
102
RTVSPropertyOp34
 70
     1
102
RTVSPropertyOp35
 70
     1
102
RTVSPropertyOp36
 70
     1
102
RTVSPropertyOp37
 70
     1
102
RTVSPropertyOp38
 70
     1
102
RTVSPropertyOp39
 70
     1
102
RTVSPropertyOp40
 70
     1
102
RTVSPropertyOp41
 70
     1
102
RTVSPropertyOp42
 70
     1
102
RTVSPropertyOp43
 70
     1
102
RTVSPropertyOp44
 70
     1
102
RTVSPropertyOp45
 70
     1
102
RTVSPropertyOp46
 70
     1
102
RTVSPropertyOp47
 70
     1
102
RTVSPropertyOp48
 70
     1
102
RTVSPropertyOp49
 70
     1
102
RTVSPropertyOp50
 70
     1
102
RTVSPropertyOp51
 70
     0
102
RTVSPropertyOp52
 70
     0
102
RTVSPropertyOp53
 70
     1
102
RTVSPropertyOp54
 70
     1
102
RTVSPropertyOp55
 70
     1
102
RTVSPropertyOp56
 70
     1
102
RTVSPropertyOp57
 70
     1
102
RTVSPost2010Prop28
280
     0
102
RTVSPost2010PropOp28
 70
     1
102
RTVSPost2010Prop29
280
     1
102
RTVSPost2010PropOp29
 70
     1
102
RTVSPost2010Prop30
280
     1
102
RTVSPost2010PropOp30
 70
     1
102
RTVSPost2010Prop31
280
     0
102
RTVSPost2010PropOp31
 70
     1
102
RTVSPost2010Prop32
280
     0
102
RTVSPost2010PropOp32
 70
     1
102
RTVSPost2010Prop33
280
     0
102
RTVSPost2010PropOp33
 70
     1
102
RTVSPost2010Prop34
280
     0
102
RTVSPost2010PropOp34
 70
     1
102
RTVSPost2010Prop35
280
     0
102
RTVSPost2010PropOp35
 70
     1
102
RTVSPost2010Prop36
280
     0
102
RTVSPost2010PropOp36
 70
     1
102
RTVSPost2010Prop37
 90
       50
102
RTVSPost2010PropOp37
 70
     1
102
RTVSPost2010Prop38
140
0.0
102
RTVSPost2010PropOp38
 70
     1
102
RTVSPost2010Prop39
140
1.0
102
RTVSPost2010PropOp39
 70
     1
102
RTVSPost2010Prop40
 90
        0
102
RTVSPost2010PropOp40
 70
     1
102
RTVSPost2010Prop41ColorIndex
 90
       18
102
RTVSPost2010Prop41ColorRGB
 90
        0
102
RTVSPost2010PropOp41
 70
     1
102
RTVSPost2010Prop42
 90
       50
102
RTVSPost2010PropOp42
 70
     1
102
RTVSPost2010Prop43
 90
        3
102
RTVSPost2010PropOp43
 70
     1
102
RTVSPost2010Prop44ColorIndex
 90
        5
102
RTVSPost2010Prop44ColorRGB
 90
      255
102
RTVSPost2010PropOp44
 70
     1
102
RTVSPost2010Prop45
280
     0
102
RTVSPost2010PropOp45
 70
     1
102
RTVSPost2010Prop46
 90
       50
102
RTVSPost2010PropOp46
 70
     1
102
RTVSPost2010Prop47
 90
       50
102
RTVSPost2010PropOp47
 70
     1
102
RTVSPost2010Prop48
 90
       50
102
RTVSPost2010PropOp48
 70
     1
102
RTVSPost2010Prop49
280
     0
102
RTVSPost2010PropOp49
 70
     1
102
RTVSPost2010Prop50
 90
       50
102
RTVSPost2010PropOp50
 70
     1
102
RTVSPost2010Prop51ColorIndex
 90
      256
102
RTVSPost2010Prop51ColorRGB
 90
-16777216
102
RTVSPost2010PropOp51
 70
     0
102
RTVSPost2010Prop52
140
1.0
102
RTVSPost2010PropOp52
 70
     0
102
RTVSPost2010Prop53
 90
        2
102
RTVSPost2010PropOp53
 70
     1
102
RTVSPost2010Prop54
  1
strokes_ogs.tif
102
RTVSPost2010PropOp54
 70
     1
102
RTVSPost2010Prop55
280
     0
102
RTVSPost2010PropOp55
 70
     1
102
RTVSPost2010Prop56
140
1.0
102
RTVSPost2010PropOp56
 70
     1
102
RTVSPost2010Prop57
140
1.0
102
RTVSPost2010PropOp57
 70
     1
  0
XRECORD
  5
23E
102
{ACAD_REACTORS
330
23D
102
}
330
23D
100
AcDbXrecord
280
     1
102
RTVSPropertyOp0
 70
     1
102
RTVSPropertyOp1
 70
     1
102
RTVSPropertyOp2
 70
     1
102
RTVSPropertyOp3
 70
     1
102
RTVSPropertyOp4
 70
     1
102
RTVSPropertyOp5
 70
     1
102
RTVSPropertyOp6
 70
     1
102
RTVSPropertyOp7
 70
     1
102
RTVSPropertyOp8
 70
     1
102
RTVSPropertyOp9
 70
     1
102
RTVSPropertyOp10
 70
     1
102
RTVSPropertyOp11
 70
     1
102
RTVSPropertyOp12
 70
     1
102
RTVSPropertyOp13
 70
     1
102
RTVSPropertyOp14
 70
     1
102
RTVSPropertyOp15
 70
     1
102
RTVSPropertyOp16
 70
     1
102
RTVSPropertyOp17
 70
     1
102
RTVSPropertyOp18
 70
     1
102
RTVSPropertyOp19
 70
     1
102
RTVSPropertyOp20
 70
     1
102
RTVSPropertyOp21
 70
     1
102
RTVSPropertyOp22
 70
     1
102
RTVSPropertyOp23
 70
     1
102
RTVSPropertyOp24
 70
     1
102
RTVSPropertyOp25
 70
     1
102
RTVSPropertyOp26
 70
     1
102
RTVSPropertyOp27
 70
     1
102
RTVSPropertyOp28
 70
     1
102
RTVSPropertyOp29
 70
     1
102
RTVSPropertyOp30
 70
     1
102
RTVSPropertyOp31
 70
     1
102
RTVSPropertyOp32
 70
     1
102
RTVSPropertyOp33
 70
     1
102
RTVSPropertyOp34
 70
     1
102
RTVSPropertyOp35
 70
     1
102
RTVSPropertyOp36
 70
     1
102
RTVSPropertyOp37
 70
     1
102
RTVSPropertyOp38
 70
     1
102
RTVSPropertyOp39
 70
     1
102
RTVSPropertyOp40
 70
     1
102
RTVSPropertyOp41
 70
     1
102
RTVSPropertyOp42
 70
     1
102
RTVSPropertyOp43
 70
     1
102
RTVSPropertyOp44
 70
     1
102
RTVSPropertyOp45
 70
     1
102
RTVSPropertyOp46
 70
     1
102
RTVSPropertyOp47
 70
     1
102
RTVSPropertyOp48
 70
     1
102
RTVSPropertyOp49
 70
     1
102
RTVSPropertyOp50
 70
     1
102
RTVSPropertyOp51
 70
     0
102
RTVSPropertyOp52
 70
     0
102
RTVSPropertyOp53
 70
     1
102
RTVSPropertyOp54
 70
     1
102
RTVSPropertyOp55
 70
     1
102
RTVSPropertyOp56
 70
     1
102
RTVSPropertyOp57
 70
     1
102
RTVSPost2010Prop28
280
     0
102
RTVSPost2010PropOp28
 70
     1
102
RTVSPost2010Prop29
280
     1
102
RTVSPost2010PropOp29
 70
     1
102
RTVSPost2010Prop30
280
     1
102
RTVSPost2010PropOp30
 70
     1
102
RTVSPost2010Prop31
280
     0
102
RTVSPost2010PropOp31
 70
     1
102
RTVSPost2010Prop32
280
     0
102
RTVSPost2010PropOp32
 70
     1
102
RTVSPost2010Prop33
280
     0
102
RTVSPost2010PropOp33
 70
     1
102
RTVSPost2010Prop34
280
     0
102
RTVSPost2010PropOp34
 70
     1
102
RTVSPost2010Prop35
280
     0
102
RTVSPost2010PropOp35
 70
     1
102
RTVSPost2010Prop36
280
     0
102
RTVSPost2010PropOp36
 70
     1
102
RTVSPost2010Prop37
 90
       50
102
RTVSPost2010PropOp37
 70
     1
102
RTVSPost2010Prop38
140
0.0
102
RTVSPost2010PropOp38
 70
     1
102
RTVSPost2010Prop39
140
1.0
102
RTVSPost2010PropOp39
 70
     1
102
RTVSPost2010Prop40
 90
        0
102
RTVSPost2010PropOp40
 70
     1
102
RTVSPost2010Prop41ColorIndex
 90
       18
102
RTVSPost2010Prop41ColorRGB
 90
        0
102
RTVSPost2010PropOp41
 70
     1
102
RTVSPost2010Prop42
 90
       50
102
RTVSPost2010PropOp42
 70
     1
102
RTVSPost2010Prop43
 90
        3
102
RTVSPost2010PropOp43
 70
     1
102
RTVSPost2010Prop44ColorIndex
 90
        5
102
RTVSPost2010Prop44ColorRGB
 90
      255
102
RTVSPost2010PropOp44
 70
     1
102
RTVSPost2010Prop45
280
     0
102
RTVSPost2010PropOp45
 70
     1
102
RTVSPost2010Prop46
 90
       50
102
RTVSPost2010PropOp46
 70
     1
102
RTVSPost2010Prop47
 90
       50
102
RTVSPost2010PropOp47
 70
     1
102
RTVSPost2010Prop48
 90
       50
102
RTVSPost2010PropOp48
 70
     1
102
RTVSPost2010Prop49
280
     0
102
RTVSPost2010PropOp49
 70
     1
102
RTVSPost2010Prop50
 90
       50
102
RTVSPost2010PropOp50
 70
     1
102
RTVSPost2010Prop51ColorIndex
 90
      256
102
RTVSPost2010Prop51ColorRGB
 90
-16777216
102
RTVSPost2010PropOp51
 70
     0
102
RTVSPost2010Prop52
140
1.0
102
RTVSPost2010PropOp52
 70
     0
102
RTVSPost2010Prop53
 90
        2
102
RTVSPost2010PropOp53
 70
     1
102
RTVSPost2010Prop54
  1
strokes_ogs.tif
102
RTVSPost2010PropOp54
 70
     1
102
RTVSPost2010Prop55
280
     0
102
RTVSPost2010PropOp55
 70
     1
102
RTVSPost2010Prop56
140
1.0
102
RTVSPost2010PropOp56
 70
     1
102
RTVSPost2010Prop57
140
1.0
102
RTVSPost2010PropOp57
 70
     1
  0
XRECORD
  5
240
102
{ACAD_REACTORS
330
23F
102
}
330
23F
100
AcDbXrecord
280
     1
102
RTVSPropertyOp0
 70
     1
102
RTVSPropertyOp1
 70
     1
102
RTVSPropertyOp2
 70
     1
102
RTVSPropertyOp3
 70
     1
102
RTVSPropertyOp4
 70
     1
102
RTVSPropertyOp5
 70
     1
102
RTVSPropertyOp6
 70
     1
102
RTVSPropertyOp7
 70
     1
102
RTVSPropertyOp8
 70
     1
102
RTVSPropertyOp9
 70
     1
102
RTVSPropertyOp10
 70
     1
102
RTVSPropertyOp11
 70
     1
102
RTVSPropertyOp12
 70
     1
102
RTVSPropertyOp13
 70
     1
102
RTVSPropertyOp14
 70
     1
102
RTVSPropertyOp15
 70
     1
102
RTVSPropertyOp16
 70
     1
102
RTVSPropertyOp17
 70
     1
102
RTVSPropertyOp18
 70
     1
102
RTVSPropertyOp19
 70
     1
102
RTVSPropertyOp20
 70
     1
102
RTVSPropertyOp21
 70
     1
102
RTVSPropertyOp22
 70
     1
102
RTVSPropertyOp23
 70
     1
102
RTVSPropertyOp24
 70
     1
102
RTVSPropertyOp25
 70
     1
102
RTVSPropertyOp26
 70
     1
102
RTVSPropertyOp27
 70
     1
102
RTVSPropertyOp28
 70
     1
102
RTVSPropertyOp29
 70
     1
102
RTVSPropertyOp30
 70
     1
102
RTVSPropertyOp31
 70
     1
102
RTVSPropertyOp32
 70
     1
102
RTVSPropertyOp33
 70
     1
102
RTVSPropertyOp34
 70
     1
102
RTVSPropertyOp35
 70
     1
102
RTVSPropertyOp36
 70
     1
102
RTVSPropertyOp37
 70
     1
102
RTVSPropertyOp38
 70
     1
102
RTVSPropertyOp39
 70
     1
102
RTVSPropertyOp40
 70
     1
102
RTVSPropertyOp41
 70
     1
102
RTVSPropertyOp42
 70
     1
102
RTVSPropertyOp43
 70
     1
102
RTVSPropertyOp44
 70
     1
102
RTVSPropertyOp45
 70
     1
102
RTVSPropertyOp46
 70
     1
102
RTVSPropertyOp47
 70
     1
102
RTVSPropertyOp48
 70
     1
102
RTVSPropertyOp49
 70
     1
102
RTVSPropertyOp50
 70
     1
102
RTVSPropertyOp51
 70
     0
102
RTVSPropertyOp52
 70
     0
102
RTVSPropertyOp53
 70
     1
102
RTVSPropertyOp54
 70
     1
102
RTVSPropertyOp55
 70
     1
102
RTVSPropertyOp56
 70
     1
102
RTVSPropertyOp57
 70
     1
102
RTVSPost2010Prop28
280
     0
102
RTVSPost2010PropOp28
 70
     1
102
RTVSPost2010Prop29
280
     1
102
RTVSPost2010PropOp29
 70
     1
102
RTVSPost2010Prop30
280
     1
102
RTVSPost2010PropOp30
 70
     1
102
RTVSPost2010Prop31
280
     0
102
RTVSPost2010PropOp31
 70
     1
102
RTVSPost2010Prop32
280
     0
102
RTVSPost2010PropOp32
 70
     1
102
RTVSPost2010Prop33
280
     0
102
RTVSPost2010PropOp33
 70
     1
102
RTVSPost2010Prop34
280
     0
102
RTVSPost2010PropOp34
 70
     1
102
RTVSPost2010Prop35
280
     0
102
RTVSPost2010PropOp35
 70
     1
102
RTVSPost2010Prop36
280
     0
102
RTVSPost2010PropOp36
 70
     1
102
RTVSPost2010Prop37
 90
       50
102
RTVSPost2010PropOp37
 70
     1
102
RTVSPost2010Prop38
140
0.0
102
RTVSPost2010PropOp38
 70
     1
102
RTVSPost2010Prop39
140
1.0
102
RTVSPost2010PropOp39
 70
     1
102
RTVSPost2010Prop40
 90
        0
102
RTVSPost2010PropOp40
 70
     1
102
RTVSPost2010Prop41ColorIndex
 90
       18
102
RTVSPost2010Prop41ColorRGB
 90
        0
102
RTVSPost2010PropOp41
 70
     1
102
RTVSPost2010Prop42
 90
       50
102
RTVSPost2010PropOp42
 70
     1
102
RTVSPost2010Prop43
 90
        3
102
RTVSPost2010PropOp43
 70
     1
102
RTVSPost2010Prop44ColorIndex
 90
        5
102
RTVSPost2010Prop44ColorRGB
 90
      255
102
RTVSPost2010PropOp44
 70
     1
102
RTVSPost2010Prop45
280
     0
102
RTVSPost2010PropOp45
 70
     1
102
RTVSPost2010Prop46
 90
       50
102
RTVSPost2010PropOp46
 70
     1
102
RTVSPost2010Prop47
 90
       50
102
RTVSPost2010PropOp47
 70
     1
102
RTVSPost2010Prop48
 90
       50
102
RTVSPost2010PropOp48
 70
     1
102
RTVSPost2010Prop49
280
     0
102
RTVSPost2010PropOp49
 70
     1
102
RTVSPost2010Prop50
 90
       50
102
RTVSPost2010PropOp50
 70
     1
102
RTVSPost2010Prop51ColorIndex
 90
      256
102
RTVSPost2010Prop51ColorRGB
 90
-16777216
102
RTVSPost2010PropOp51
 70
     0
102
RTVSPost2010Prop52
140
1.0
102
RTVSPost2010PropOp52
 70
     0
102
RTVSPost2010Prop53
 90
        2
102
RTVSPost2010PropOp53
 70
     1
102
RTVSPost2010Prop54
  1
strokes_ogs.tif
102
RTVSPost2010PropOp54
 70
     1
102
RTVSPost2010Prop55
280
     0
102
RTVSPost2010PropOp55
 70
     1
102
RTVSPost2010Prop56
140
1.0
102
RTVSPost2010PropOp56
 70
     1
102
RTVSPost2010Prop57
140
1.0
102
RTVSPost2010PropOp57
 70
     1
  0
XRECORD
  5
242
102
{ACAD_REACTORS
330
241
102
}
330
241
100
AcDbXrecord
280
     1
102
RTVSPropertyOp0
 70
     1
102
RTVSPropertyOp1
 70
     1
102
RTVSPropertyOp2
 70
     1
102
RTVSPropertyOp3
 70
     1
102
RTVSPropertyOp4
 70
     1
102
RTVSPropertyOp5
 70
     1
102
RTVSPropertyOp6
 70
     1
102
RTVSPropertyOp7
 70
     1
102
RTVSPropertyOp8
 70
     1
102
RTVSPropertyOp9
 70
     1
102
RTVSPropertyOp10
 70
     1
102
RTVSPropertyOp11
 70
     1
102
RTVSPropertyOp12
 70
     1
102
RTVSPropertyOp13
 70
     1
102
RTVSPropertyOp14
 70
     1
102
RTVSPropertyOp15
 70
     1
102
RTVSPropertyOp16
 70
     1
102
RTVSPropertyOp17
 70
     1
102
RTVSPropertyOp18
 70
     1
102
RTVSPropertyOp19
 70
     1
102
RTVSPropertyOp20
 70
     1
102
RTVSPropertyOp21
 70
     1
102
RTVSPropertyOp22
 70
     1
102
RTVSPropertyOp23
 70
     1
102
RTVSPropertyOp24
 70
     1
102
RTVSPropertyOp25
 70
     1
102
RTVSPropertyOp26
 70
     1
102
RTVSPropertyOp27
 70
     1
102
RTVSPropertyOp28
 70
     1
102
RTVSPropertyOp29
 70
     1
102
RTVSPropertyOp30
 70
     1
102
RTVSPropertyOp31
 70
     1
102
RTVSPropertyOp32
 70
     1
102
RTVSPropertyOp33
 70
     1
102
RTVSPropertyOp34
 70
     1
102
RTVSPropertyOp35
 70
     1
102
RTVSPropertyOp36
 70
     1
102
RTVSPropertyOp37
 70
     1
102
RTVSPropertyOp38
 70
     1
102
RTVSPropertyOp39
 70
     1
102
RTVSPropertyOp40
 70
     1
102
RTVSPropertyOp41
 70
     1
102
RTVSPropertyOp42
 70
     1
102
RTVSPropertyOp43
 70
     1
102
RTVSPropertyOp44
 70
     1
102
RTVSPropertyOp45
 70
     1
102
RTVSPropertyOp46
 70
     1
102
RTVSPropertyOp47
 70
     1
102
RTVSPropertyOp48
 70
     1
102
RTVSPropertyOp49
 70
     1
102
RTVSPropertyOp50
 70
     1
102
RTVSPropertyOp51
 70
     0
102
RTVSPropertyOp52
 70
     0
102
RTVSPropertyOp53
 70
     1
102
RTVSPropertyOp54
 70
     1
102
RTVSPropertyOp55
 70
     1
102
RTVSPropertyOp56
 70
     1
102
RTVSPropertyOp57
 70
     1
102
RTVSPost2010Prop28
280
     0
102
RTVSPost2010PropOp28
 70
     1
102
RTVSPost2010Prop29
280
     1
102
RTVSPost2010PropOp29
 70
     1
102
RTVSPost2010Prop30
280
     1
102
RTVSPost2010PropOp30
 70
     1
102
RTVSPost2010Prop31
280
     0
102
RTVSPost2010PropOp31
 70
     1
102
RTVSPost2010Prop32
280
     0
102
RTVSPost2010PropOp32
 70
     1
102
RTVSPost2010Prop33
280
     0
102
RTVSPost2010PropOp33
 70
     1
102
RTVSPost2010Prop34
280
     0
102
RTVSPost2010PropOp34
 70
     1
102
RTVSPost2010Prop35
280
     0
102
RTVSPost2010PropOp35
 70
     1
102
RTVSPost2010Prop36
280
     0
102
RTVSPost2010PropOp36
 70
     1
102
RTVSPost2010Prop37
 90
       50
102
RTVSPost2010PropOp37
 70
     1
102
RTVSPost2010Prop38
140
0.0
102
RTVSPost2010PropOp38
 70
     1
102
RTVSPost2010Prop39
140
1.0
102
RTVSPost2010PropOp39
 70
     1
102
RTVSPost2010Prop40
 90
        0
102
RTVSPost2010PropOp40
 70
     1
102
RTVSPost2010Prop41ColorIndex
 90
       18
102
RTVSPost2010Prop41ColorRGB
 90
        0
102
RTVSPost2010PropOp41
 70
     1
102
RTVSPost2010Prop42
 90
       50
102
RTVSPost2010PropOp42
 70
     1
102
RTVSPost2010Prop43
 90
        3
102
RTVSPost2010PropOp43
 70
     1
102
RTVSPost2010Prop44ColorIndex
 90
        5
102
RTVSPost2010Prop44ColorRGB
 90
      255
102
RTVSPost2010PropOp44
 70
     1
102
RTVSPost2010Prop45
280
     0
102
RTVSPost2010PropOp45
 70
     1
102
RTVSPost2010Prop46
 90
       50
102
RTVSPost2010PropOp46
 70
     1
102
RTVSPost2010Prop47
 90
       50
102
RTVSPost2010PropOp47
 70
     1
102
RTVSPost2010Prop48
 90
       50
102
RTVSPost2010PropOp48
 70
     1
102
RTVSPost2010Prop49
280
     0
102
RTVSPost2010PropOp49
 70
     1
102
RTVSPost2010Prop50
 90
       50
102
RTVSPost2010PropOp50
 70
     1
102
RTVSPost2010Prop51ColorIndex
 90
      256
102
RTVSPost2010Prop51ColorRGB
 90
-16777216
102
RTVSPost2010PropOp51
 70
     0
102
RTVSPost2010Prop52
140
1.0
102
RTVSPost2010PropOp52
 70
     0
102
RTVSPost2010Prop53
 90
        2
102
RTVSPost2010PropOp53
 70
     1
102
RTVSPost2010Prop54
  1
strokes_ogs.tif
102
RTVSPost2010PropOp54
 70
     1
102
RTVSPost2010Prop55
280
     0
102
RTVSPost2010PropOp55
 70
     1
102
RTVSPost2010Prop56
140
1.0
102
RTVSPost2010PropOp56
 70
     1
102
RTVSPost2010Prop57
140
1.0
102
RTVSPost2010PropOp57
 70
     1
  0
XRECORD
  5
244
102
{ACAD_REACTORS
330
243
102
}
330
243
100
AcDbXrecord
280
     1
102
RTVSPropertyOp0
 70
     1
102
RTVSPropertyOp1
 70
     1
102
RTVSPropertyOp2
 70
     1
102
RTVSPropertyOp3
 70
     1
102
RTVSPropertyOp4
 70
     1
102
RTVSPropertyOp5
 70
     1
102
RTVSPropertyOp6
 70
     1
102
RTVSPropertyOp7
 70
     1
102
RTVSPropertyOp8
 70
     1
102
RTVSPropertyOp9
 70
     1
102
RTVSPropertyOp10
 70
     1
102
RTVSPropertyOp11
 70
     1
102
RTVSPropertyOp12
 70
     1
102
RTVSPropertyOp13
 70
     1
102
RTVSPropertyOp14
 70
     1
102
RTVSPropertyOp15
 70
     1
102
RTVSPropertyOp16
 70
     1
102
RTVSPropertyOp17
 70
     1
102
RTVSPropertyOp18
 70
     1
102
RTVSPropertyOp19
 70
     1
102
RTVSPropertyOp20
 70
     1
102
RTVSPropertyOp21
 70
     1
102
RTVSPropertyOp22
 70
     1
102
RTVSPropertyOp23
 70
     1
102
RTVSPropertyOp24
 70
     1
102
RTVSPropertyOp25
 70
     1
102
RTVSPropertyOp26
 70
     1
102
RTVSPropertyOp27
 70
     1
102
RTVSPropertyOp28
 70
     1
102
RTVSPropertyOp29
 70
     1
102
RTVSPropertyOp30
 70
     1
102
RTVSPropertyOp31
 70
     1
102
RTVSPropertyOp32
 70
     1
102
RTVSPropertyOp33
 70
     1
102
RTVSPropertyOp34
 70
     1
102
RTVSPropertyOp35
 70
     1
102
RTVSPropertyOp36
 70
     1
102
RTVSPropertyOp37
 70
     1
102
RTVSPropertyOp38
 70
     1
102
RTVSPropertyOp39
 70
     1
102
RTVSPropertyOp40
 70
     1
102
RTVSPropertyOp41
 70
     1
102
RTVSPropertyOp42
 70
     1
102
RTVSPropertyOp43
 70
     1
102
RTVSPropertyOp44
 70
     1
102
RTVSPropertyOp45
 70
     1
102
RTVSPropertyOp46
 70
     1
102
RTVSPropertyOp47
 70
     1
102
RTVSPropertyOp48
 70
     1
102
RTVSPropertyOp49
 70
     1
102
RTVSPropertyOp50
 70
     1
102
RTVSPropertyOp51
 70
     0
102
RTVSPropertyOp52
 70
     0
102
RTVSPropertyOp53
 70
     1
102
RTVSPropertyOp54
 70
     1
102
RTVSPropertyOp55
 70
     1
102
RTVSPropertyOp56
 70
     1
102
RTVSPropertyOp57
 70
     1
102
RTVSPost2010Prop28
280
     0
102
RTVSPost2010PropOp28
 70
     1
102
RTVSPost2010Prop29
280
     1
102
RTVSPost2010PropOp29
 70
     1
102
RTVSPost2010Prop30
280
     1
102
RTVSPost2010PropOp30
 70
     1
102
RTVSPost2010Prop31
280
     0
102
RTVSPost2010PropOp31
 70
     1
102
RTVSPost2010Prop32
280
     0
102
RTVSPost2010PropOp32
 70
     1
102
RTVSPost2010Prop33
280
     0
102
RTVSPost2010PropOp33
 70
     1
102
RTVSPost2010Prop34
280
     0
102
RTVSPost2010PropOp34
 70
     1
102
RTVSPost2010Prop35
280
     0
102
RTVSPost2010PropOp35
 70
     1
102
RTVSPost2010Prop36
280
     0
102
RTVSPost2010PropOp36
 70
     1
102
RTVSPost2010Prop37
 90
       50
102
RTVSPost2010PropOp37
 70
     1
102
RTVSPost2010Prop38
140
0.0
102
RTVSPost2010PropOp38
 70
     1
102
RTVSPost2010Prop39
140
1.0
102
RTVSPost2010PropOp39
 70
     1
102
RTVSPost2010Prop40
 90
        0
102
RTVSPost2010PropOp40
 70
     1
102
RTVSPost2010Prop41ColorIndex
 90
       18
102
RTVSPost2010Prop41ColorRGB
 90
        0
102
RTVSPost2010PropOp41
 70
     1
102
RTVSPost2010Prop42
 90
       50
102
RTVSPost2010PropOp42
 70
     1
102
RTVSPost2010Prop43
 90
        3
102
RTVSPost2010PropOp43
 70
     1
102
RTVSPost2010Prop44ColorIndex
 90
        5
102
RTVSPost2010Prop44ColorRGB
 90
      255
102
RTVSPost2010PropOp44
 70
     1
102
RTVSPost2010Prop45
280
     0
102
RTVSPost2010PropOp45
 70
     1
102
RTVSPost2010Prop46
 90
       50
102
RTVSPost2010PropOp46
 70
     1
102
RTVSPost2010Prop47
 90
       50
102
RTVSPost2010PropOp47
 70
     1
102
RTVSPost2010Prop48
 90
       50
102
RTVSPost2010PropOp48
 70
     1
102
RTVSPost2010Prop49
280
     0
102
RTVSPost2010PropOp49
 70
     1
102
RTVSPost2010Prop50
 90
       50
102
RTVSPost2010PropOp50
 70
     1
102
RTVSPost2010Prop51ColorIndex
 90
      256
102
RTVSPost2010Prop51ColorRGB
 90
-16777216
102
RTVSPost2010PropOp51
 70
     0
102
RTVSPost2010Prop52
140
1.0
102
RTVSPost2010PropOp52
 70
     0
102
RTVSPost2010Prop53
 90
        2
102
RTVSPost2010PropOp53
 70
     1
102
RTVSPost2010Prop54
  1
strokes_ogs.tif
102
RTVSPost2010PropOp54
 70
     1
102
RTVSPost2010Prop55
280
     0
102
RTVSPost2010PropOp55
 70
     1
102
RTVSPost2010Prop56
140
1.0
102
RTVSPost2010PropOp56
 70
     1
102
RTVSPost2010Prop57
140
1.0
102
RTVSPost2010PropOp57
 70
     1
  0
XRECORD
  5
24A
102
{ACAD_REACTORS
330
249
102
}
330
249
100
AcDbXrecord
280
     1
102
RTVSPropertyOp0
 70
     1
102
RTVSPropertyOp1
 70
     1
102
RTVSPropertyOp2
 70
     1
102
RTVSPropertyOp3
 70
     1
102
RTVSPropertyOp4
 70
     1
102
RTVSPropertyOp5
 70
     1
102
RTVSPropertyOp6
 70
     1
102
RTVSPropertyOp7
 70
     1
102
RTVSPropertyOp8
 70
     1
102
RTVSPropertyOp9
 70
     1
102
RTVSPropertyOp10
 70
     1
102
RTVSPropertyOp11
 70
     1
102
RTVSPropertyOp12
 70
     1
102
RTVSPropertyOp13
 70
     1
102
RTVSPropertyOp14
 70
     1
102
RTVSPropertyOp15
 70
     1
102
RTVSPropertyOp16
 70
     1
102
RTVSPropertyOp17
 70
     1
102
RTVSPropertyOp18
 70
     1
102
RTVSPropertyOp19
 70
     1
102
RTVSPropertyOp20
 70
     1
102
RTVSPropertyOp21
 70
     1
102
RTVSPropertyOp22
 70
     1
102
RTVSPropertyOp23
 70
     1
102
RTVSPropertyOp24
 70
     1
102
RTVSPropertyOp25
 70
     1
102
RTVSPropertyOp26
 70
     1
102
RTVSPropertyOp27
 70
     1
102
RTVSPropertyOp28
 70
     1
102
RTVSPropertyOp29
 70
     1
102
RTVSPropertyOp30
 70
     1
102
RTVSPropertyOp31
 70
     1
102
RTVSPropertyOp32
 70
     1
102
RTVSPropertyOp33
 70
     1
102
RTVSPropertyOp34
 70
     1
102
RTVSPropertyOp35
 70
     1
102
RTVSPropertyOp36
 70
     1
102
RTVSPropertyOp37
 70
     1
102
RTVSPropertyOp38
 70
     1
102
RTVSPropertyOp39
 70
     1
102
RTVSPropertyOp40
 70
     1
102
RTVSPropertyOp41
 70
     1
102
RTVSPropertyOp42
 70
     1
102
RTVSPropertyOp43
 70
     1
102
RTVSPropertyOp44
 70
     1
102
RTVSPropertyOp45
 70
     1
102
RTVSPropertyOp46
 70
     1
102
RTVSPropertyOp47
 70
     1
102
RTVSPropertyOp48
 70
     1
102
RTVSPropertyOp49
 70
     1
102
RTVSPropertyOp50
 70
     1
102
RTVSPropertyOp51
 70
     0
102
RTVSPropertyOp52
 70
     0
102
RTVSPropertyOp53
 70
     1
102
RTVSPropertyOp54
 70
     1
102
RTVSPropertyOp55
 70
     1
102
RTVSPropertyOp56
 70
     1
102
RTVSPropertyOp57
 70
     1
102
RTVSPost2010Prop28
280
     0
102
RTVSPost2010PropOp28
 70
     1
102
RTVSPost2010Prop29
280
     1
102
RTVSPost2010PropOp29
 70
     1
102
RTVSPost2010Prop30
280
     1
102
RTVSPost2010PropOp30
 70
     1
102
RTVSPost2010Prop31
280
     0
102
RTVSPost2010PropOp31
 70
     1
102
RTVSPost2010Prop32
280
     0
102
RTVSPost2010PropOp32
 70
     1
102
RTVSPost2010Prop33
280
     0
102
RTVSPost2010PropOp33
 70
     1
102
RTVSPost2010Prop34
280
     0
102
RTVSPost2010PropOp34
 70
     1
102
RTVSPost2010Prop35
280
     0
102
RTVSPost2010PropOp35
 70
     1
102
RTVSPost2010Prop36
280
     0
102
RTVSPost2010PropOp36
 70
     1
102
RTVSPost2010Prop37
 90
       50
102
RTVSPost2010PropOp37
 70
     1
102
RTVSPost2010Prop38
140
0.0
102
RTVSPost2010PropOp38
 70
     1
102
RTVSPost2010Prop39
140
1.0
102
RTVSPost2010PropOp39
 70
     1
102
RTVSPost2010Prop40
 90
        0
102
RTVSPost2010PropOp40
 70
     1
102
RTVSPost2010Prop41ColorIndex
 90
       18
102
RTVSPost2010Prop41ColorRGB
 90
        0
102
RTVSPost2010PropOp41
 70
     1
102
RTVSPost2010Prop42
 90
       50
102
RTVSPost2010PropOp42
 70
     1
102
RTVSPost2010Prop43
 90
        3
102
RTVSPost2010PropOp43
 70
     1
102
RTVSPost2010Prop44ColorIndex
 90
        5
102
RTVSPost2010Prop44ColorRGB
 90
      255
102
RTVSPost2010PropOp44
 70
     1
102
RTVSPost2010Prop45
280
     0
102
RTVSPost2010PropOp45
 70
     1
102
RTVSPost2010Prop46
 90
       50
102
RTVSPost2010PropOp46
 70
     1
102
RTVSPost2010Prop47
 90
       50
102
RTVSPost2010PropOp47
 70
     1
102
RTVSPost2010Prop48
 90
       50
102
RTVSPost2010PropOp48
 70
     1
102
RTVSPost2010Prop49
280
     0
102
RTVSPost2010PropOp49
 70
     1
102
RTVSPost2010Prop50
 90
       50
102
RTVSPost2010PropOp50
 70
     1
102
RTVSPost2010Prop51ColorIndex
 90
      256
102
RTVSPost2010Prop51ColorRGB
 90
-16777216
102
RTVSPost2010PropOp51
 70
     0
102
RTVSPost2010Prop52
140
1.0
102
RTVSPost2010PropOp52
 70
     0
102
RTVSPost2010Prop53
 90
        2
102
RTVSPost2010PropOp53
 70
     1
102
RTVSPost2010Prop54
  1
strokes_ogs.tif
102
RTVSPost2010PropOp54
 70
     1
102
RTVSPost2010Prop55
280
     0
102
RTVSPost2010PropOp55
 70
     1
102
RTVSPost2010Prop56
140
1.0
102
RTVSPost2010PropOp56
 70
     1
102
RTVSPost2010Prop57
140
1.0
102
RTVSPost2010PropOp57
 70
     1
  0
XRECORD
  5
25E
102
{ACAD_REACTORS
330
25D
102
}
330
25D
100
AcDbXrecord
280
     1
102
RTVSPropertyOp0
 70
     0
102
RTVSPropertyOp1
 70
     0
102
RTVSPropertyOp2
 70
     0
102
RTVSPropertyOp3
 70
     0
102
RTVSPropertyOp4
 70
     0
102
RTVSPropertyOp5
 70
     0
102
RTVSPropertyOp6
 70
     0
102
RTVSPropertyOp7
 70
     0
102
RTVSPropertyOp8
 70
     0
102
RTVSPropertyOp9
 70
     0
102
RTVSPropertyOp10
 70
     0
102
RTVSPropertyOp11
 70
     0
102
RTVSPropertyOp12
 70
     0
102
RTVSPropertyOp13
 70
     0
102
RTVSPropertyOp14
 70
     2
102
RTVSPropertyOp15
 70
     0
102
RTVSPropertyOp16
 70
     0
102
RTVSPropertyOp17
 70
     0
102
RTVSPropertyOp18
 70
     0
102
RTVSPropertyOp19
 70
     0
102
RTVSPropertyOp20
 70
     0
102
RTVSPropertyOp21
 70
     0
102
RTVSPropertyOp22
 70
     0
102
RTVSPropertyOp23
 70
     0
102
RTVSPropertyOp24
 70
     0
102
RTVSPropertyOp25
 70
     0
102
RTVSPropertyOp26
 70
     0
102
RTVSPropertyOp27
 70
     0
102
RTVSPropertyOp28
 70
     0
102
RTVSPropertyOp29
 70
     0
102
RTVSPropertyOp30
 70
     0
102
RTVSPropertyOp31
 70
     0
102
RTVSPropertyOp32
 70
     0
102
RTVSPropertyOp33
 70
     0
102
RTVSPropertyOp34
 70
     0
102
RTVSPropertyOp35
 70
     0
102
RTVSPropertyOp36
 70
     0
102
RTVSPropertyOp37
 70
     0
102
RTVSPropertyOp38
 70
     0
102
RTVSPropertyOp39
 70
     0
102
RTVSPropertyOp40
 70
     0
102
RTVSPropertyOp41
 70
     0
102
RTVSPropertyOp42
 70
     0
102
RTVSPropertyOp43
 70
     0
102
RTVSPropertyOp44
 70
     0
102
RTVSPropertyOp45
 70
     0
102
RTVSPropertyOp46
 70
     0
102
RTVSPropertyOp47
 70
     0
102
RTVSPropertyOp48
 70
     0
102
RTVSPropertyOp49
 70
     0
102
RTVSPropertyOp50
 70
     0
102
RTVSPropertyOp51
 70
     0
102
RTVSPropertyOp52
 70
     0
102
RTVSPropertyOp53
 70
     0
102
RTVSPropertyOp54
 70
     0
102
RTVSPropertyOp55
 70
     0
102
RTVSPropertyOp56
 70
     0
102
RTVSPropertyOp57
 70
     0
102
RTVSPost2010Prop28
280
     0
102
RTVSPost2010PropOp28
 70
     0
102
RTVSPost2010Prop29
280
     1
102
RTVSPost2010PropOp29
 70
     0
102
RTVSPost2010Prop30
280
     1
102
RTVSPost2010PropOp30
 70
     0
102
RTVSPost2010Prop31
280
     0
102
RTVSPost2010PropOp31
 70
     0
102
RTVSPost2010Prop32
280
     0
102
RTVSPost2010PropOp32
 70
     0
102
RTVSPost2010Prop33
280
     0
102
RTVSPost2010PropOp33
 70
     0
102
RTVSPost2010Prop34
280
     0
102
RTVSPost2010PropOp34
 70
     0
102
RTVSPost2010Prop35
280
     0
102
RTVSPost2010PropOp35
 70
     0
102
RTVSPost2010Prop36
280
     0
102
RTVSPost2010PropOp36
 70
     0
102
RTVSPost2010Prop37
 90
       50
102
RTVSPost2010PropOp37
 70
     0
102
RTVSPost2010Prop38
140
0.0
102
RTVSPost2010PropOp38
 70
     0
102
RTVSPost2010Prop39
140
1.0
102
RTVSPost2010PropOp39
 70
     0
102
RTVSPost2010Prop40
 90
        0
102
RTVSPost2010PropOp40
 70
     0
102
RTVSPost2010Prop41ColorIndex
 90
       18
102
RTVSPost2010Prop41ColorRGB
 90
        0
102
RTVSPost2010PropOp41
 70
     0
102
RTVSPost2010Prop42
 90
       50
102
RTVSPost2010PropOp42
 70
     0
102
RTVSPost2010Prop43
 90
        3
102
RTVSPost2010PropOp43
 70
     0
102
RTVSPost2010Prop44ColorIndex
 90
        5
102
RTVSPost2010Prop44ColorRGB
 90
      255
102
RTVSPost2010PropOp44
 70
     0
102
RTVSPost2010Prop45
280
     0
102
RTVSPost2010PropOp45
 70
     0
102
RTVSPost2010Prop46
 90
       50
102
RTVSPost2010PropOp46
 70
     0
102
RTVSPost2010Prop47
 90
       50
102
RTVSPost2010PropOp47
 70
     0
102
RTVSPost2010Prop48
 90
       50
102
RTVSPost2010PropOp48
 70
     0
102
RTVSPost2010Prop49
280
     0
102
RTVSPost2010PropOp49
 70
     0
102
RTVSPost2010Prop50
 90
       50
102
RTVSPost2010PropOp50
 70
     0
102
RTVSPost2010Prop51ColorIndex
 90
      256
102
RTVSPost2010Prop51ColorRGB
 90
-16777216
102
RTVSPost2010PropOp51
 70
     0
102
RTVSPost2010Prop52
140
1.0
102
RTVSPost2010PropOp52
 70
     0
102
RTVSPost2010Prop53
 90
        2
102
RTVSPost2010PropOp53
 70
     0
102
RTVSPost2010Prop54
  1
strokes_ogs.tif
102
RTVSPost2010PropOp54
 70
     0
102
RTVSPost2010Prop55
280
     0
102
RTVSPost2010PropOp55
 70
     0
102
RTVSPost2010Prop56
140
1.0
102
RTVSPost2010PropOp56
 70
     0
102
RTVSPost2010Prop57
140
1.0
102
RTVSPost2010PropOp57
 70
     0
  0
XRECORD
  5
258
102
{ACAD_REACTORS
330
257
102
}
330
257
100
AcDbXrecord
280
     1
102
RTVSPropertyOp0
 70
     1
102
RTVSPropertyOp1
 70
     1
102
RTVSPropertyOp2
 70
     1
102
RTVSPropertyOp3
 70
     1
102
RTVSPropertyOp4
 70
     1
102
RTVSPropertyOp5
 70
     1
102
RTVSPropertyOp6
 70
     1
102
RTVSPropertyOp7
 70
     1
102
RTVSPropertyOp8
 70
     1
102
RTVSPropertyOp9
 70
     1
102
RTVSPropertyOp10
 70
     1
102
RTVSPropertyOp11
 70
     1
102
RTVSPropertyOp12
 70
     1
102
RTVSPropertyOp13
 70
     1
102
RTVSPropertyOp14
 70
     1
102
RTVSPropertyOp15
 70
     1
102
RTVSPropertyOp16
 70
     1
102
RTVSPropertyOp17
 70
     1
102
RTVSPropertyOp18
 70
     1
102
RTVSPropertyOp19
 70
     1
102
RTVSPropertyOp20
 70
     1
102
RTVSPropertyOp21
 70
     1
102
RTVSPropertyOp22
 70
     1
102
RTVSPropertyOp23
 70
     1
102
RTVSPropertyOp24
 70
     1
102
RTVSPropertyOp25
 70
     1
102
RTVSPropertyOp26
 70
     1
102
RTVSPropertyOp27
 70
     1
102
RTVSPropertyOp28
 70
     1
102
RTVSPropertyOp29
 70
     1
102
RTVSPropertyOp30
 70
     1
102
RTVSPropertyOp31
 70
     1
102
RTVSPropertyOp32
 70
     1
102
RTVSPropertyOp33
 70
     1
102
RTVSPropertyOp34
 70
     1
102
RTVSPropertyOp35
 70
     1
102
RTVSPropertyOp36
 70
     1
102
RTVSPropertyOp37
 70
     1
102
RTVSPropertyOp38
 70
     1
102
RTVSPropertyOp39
 70
     1
102
RTVSPropertyOp40
 70
     1
102
RTVSPropertyOp41
 70
     1
102
RTVSPropertyOp42
 70
     1
102
RTVSPropertyOp43
 70
     1
102
RTVSPropertyOp44
 70
     1
102
RTVSPropertyOp45
 70
     1
102
RTVSPropertyOp46
 70
     1
102
RTVSPropertyOp47
 70
     1
102
RTVSPropertyOp48
 70
     1
102
RTVSPropertyOp49
 70
     1
102
RTVSPropertyOp50
 70
     1
102
RTVSPropertyOp51
 70
     0
102
RTVSPropertyOp52
 70
     0
102
RTVSPropertyOp53
 70
     1
102
RTVSPropertyOp54
 70
     1
102
RTVSPropertyOp55
 70
     1
102
RTVSPropertyOp56
 70
     1
102
RTVSPropertyOp57
 70
     1
102
RTVSPost2010Prop28
280
     0
102
RTVSPost2010PropOp28
 70
     1
102
RTVSPost2010Prop29
280
     1
102
RTVSPost2010PropOp29
 70
     1
102
RTVSPost2010Prop30
280
     1
102
RTVSPost2010PropOp30
 70
     1
102
RTVSPost2010Prop31
280
     0
102
RTVSPost2010PropOp31
 70
     1
102
RTVSPost2010Prop32
280
     0
102
RTVSPost2010PropOp32
 70
     1
102
RTVSPost2010Prop33
280
     0
102
RTVSPost2010PropOp33
 70
     1
102
RTVSPost2010Prop34
280
     0
102
RTVSPost2010PropOp34
 70
     1
102
RTVSPost2010Prop35
280
     0
102
RTVSPost2010PropOp35
 70
     1
102
RTVSPost2010Prop36
280
     0
102
RTVSPost2010PropOp36
 70
     1
102
RTVSPost2010Prop37
 90
       50
102
RTVSPost2010PropOp37
 70
     1
102
RTVSPost2010Prop38
140
0.0
102
RTVSPost2010PropOp38
 70
     1
102
RTVSPost2010Prop39
140
1.0
102
RTVSPost2010PropOp39
 70
     1
102
RTVSPost2010Prop40
 90
        0
102
RTVSPost2010PropOp40
 70
     1
102
RTVSPost2010Prop41ColorIndex
 90
       18
102
RTVSPost2010Prop41ColorRGB
 90
        0
102
RTVSPost2010PropOp41
 70
     1
102
RTVSPost2010Prop42
 90
       50
102
RTVSPost2010PropOp42
 70
     1
102
RTVSPost2010Prop43
 90
        3
102
RTVSPost2010PropOp43
 70
     1
102
RTVSPost2010Prop44ColorIndex
 90
        5
102
RTVSPost2010Prop44ColorRGB
 90
      255
102
RTVSPost2010PropOp44
 70
     1
102
RTVSPost2010Prop45
280
     0
102
RTVSPost2010PropOp45
 70
     1
102
RTVSPost2010Prop46
 90
       50
102
RTVSPost2010PropOp46
 70
     1
102
RTVSPost2010Prop47
 90
       50
102
RTVSPost2010PropOp47
 70
     1
102
RTVSPost2010Prop48
 90
       50
102
RTVSPost2010PropOp48
 70
     1
102
RTVSPost2010Prop49
280
     0
102
RTVSPost2010PropOp49
 70
     1
102
RTVSPost2010Prop50
 90
       50
102
RTVSPost2010PropOp50
 70
     1
102
RTVSPost2010Prop51ColorIndex
 90
      256
102
RTVSPost2010Prop51ColorRGB
 90
-16777216
102
RTVSPost2010PropOp51
 70
     0
102
RTVSPost2010Prop52
140
1.0
102
RTVSPost2010PropOp52
 70
     0
102
RTVSPost2010Prop53
 90
        2
102
RTVSPost2010PropOp53
 70
     1
102
RTVSPost2010Prop54
  1
strokes_ogs.tif
102
RTVSPost2010PropOp54
 70
     1
102
RTVSPost2010Prop55
280
     0
102
RTVSPost2010PropOp55
 70
     1
102
RTVSPost2010Prop56
140
1.0
102
RTVSPost2010PropOp56
 70
     1
102
RTVSPost2010Prop57
140
1.0
102
RTVSPost2010PropOp57
 70
     1
  0
XRECORD
  5
260
102
{ACAD_REACTORS
330
25F
102
}
330
25F
100
AcDbXrecord
280
     1
102
RTVSPropertyOp0
 70
     0
102
RTVSPropertyOp1
 70
     0
102
RTVSPropertyOp2
 70
     0
102
RTVSPropertyOp3
 70
     0
102
RTVSPropertyOp4
 70
     0
102
RTVSPropertyOp5
 70
     0
102
RTVSPropertyOp6
 70
     0
102
RTVSPropertyOp7
 70
     0
102
RTVSPropertyOp8
 70
     0
102
RTVSPropertyOp9
 70
     0
102
RTVSPropertyOp10
 70
     0
102
RTVSPropertyOp11
 70
     0
102
RTVSPropertyOp12
 70
     0
102
RTVSPropertyOp13
 70
     0
102
RTVSPropertyOp14
 70
     2
102
RTVSPropertyOp15
 70
     0
102
RTVSPropertyOp16
 70
     0
102
RTVSPropertyOp17
 70
     0
102
RTVSPropertyOp18
 70
     0
102
RTVSPropertyOp19
 70
     0
102
RTVSPropertyOp20
 70
     0
102
RTVSPropertyOp21
 70
     0
102
RTVSPropertyOp22
 70
     0
102
RTVSPropertyOp23
 70
     0
102
RTVSPropertyOp24
 70
     0
102
RTVSPropertyOp25
 70
     0
102
RTVSPropertyOp26
 70
     0
102
RTVSPropertyOp27
 70
     0
102
RTVSPropertyOp28
 70
     0
102
RTVSPropertyOp29
 70
     0
102
RTVSPropertyOp30
 70
     0
102
RTVSPropertyOp31
 70
     0
102
RTVSPropertyOp32
 70
     0
102
RTVSPropertyOp33
 70
     0
102
RTVSPropertyOp34
 70
     0
102
RTVSPropertyOp35
 70
     0
102
RTVSPropertyOp36
 70
     0
102
RTVSPropertyOp37
 70
     0
102
RTVSPropertyOp38
 70
     0
102
RTVSPropertyOp39
 70
     0
102
RTVSPropertyOp40
 70
     0
102
RTVSPropertyOp41
 70
     0
102
RTVSPropertyOp42
 70
     0
102
RTVSPropertyOp43
 70
     0
102
RTVSPropertyOp44
 70
     0
102
RTVSPropertyOp45
 70
     0
102
RTVSPropertyOp46
 70
     0
102
RTVSPropertyOp47
 70
     0
102
RTVSPropertyOp48
 70
     0
102
RTVSPropertyOp49
 70
     0
102
RTVSPropertyOp50
 70
     0
102
RTVSPropertyOp51
 70
     0
102
RTVSPropertyOp52
 70
     0
102
RTVSPropertyOp53
 70
     0
102
RTVSPropertyOp54
 70
     0
102
RTVSPropertyOp55
 70
     0
102
RTVSPropertyOp56
 70
     0
102
RTVSPropertyOp57
 70
     0
102
RTVSPost2010Prop28
280
     0
102
RTVSPost2010PropOp28
 70
     0
102
RTVSPost2010Prop29
280
     1
102
RTVSPost2010PropOp29
 70
     0
102
RTVSPost2010Prop30
280
     1
102
RTVSPost2010PropOp30
 70
     0
102
RTVSPost2010Prop31
280
     0
102
RTVSPost2010PropOp31
 70
     0
102
RTVSPost2010Prop32
280
     0
102
RTVSPost2010PropOp32
 70
     0
102
RTVSPost2010Prop33
280
     0
102
RTVSPost2010PropOp33
 70
     0
102
RTVSPost2010Prop34
280
     0
102
RTVSPost2010PropOp34
 70
     0
102
RTVSPost2010Prop35
280
     0
102
RTVSPost2010PropOp35
 70
     0
102
RTVSPost2010Prop36
280
     0
102
RTVSPost2010PropOp36
 70
     0
102
RTVSPost2010Prop37
 90
       50
102
RTVSPost2010PropOp37
 70
     0
102
RTVSPost2010Prop38
140
0.0
102
RTVSPost2010PropOp38
 70
     0
102
RTVSPost2010Prop39
140
1.0
102
RTVSPost2010PropOp39
 70
     0
102
RTVSPost2010Prop40
 90
        0
102
RTVSPost2010PropOp40
 70
     0
102
RTVSPost2010Prop41ColorIndex
 90
       18
102
RTVSPost2010Prop41ColorRGB
 90
        0
102
RTVSPost2010PropOp41
 70
     0
102
RTVSPost2010Prop42
 90
       50
102
RTVSPost2010PropOp42
 70
     0
102
RTVSPost2010Prop43
 90
        3
102
RTVSPost2010PropOp43
 70
     0
102
RTVSPost2010Prop44ColorIndex
 90
        5
102
RTVSPost2010Prop44ColorRGB
 90
      255
102
RTVSPost2010PropOp44
 70
     0
102
RTVSPost2010Prop45
280
     0
102
RTVSPost2010PropOp45
 70
     0
102
RTVSPost2010Prop46
 90
       50
102
RTVSPost2010PropOp46
 70
     0
102
RTVSPost2010Prop47
 90
       50
102
RTVSPost2010PropOp47
 70
     0
102
RTVSPost2010Prop48
 90
       50
102
RTVSPost2010PropOp48
 70
     0
102
RTVSPost2010Prop49
280
     0
102
RTVSPost2010PropOp49
 70
     0
102
RTVSPost2010Prop50
 90
       50
102
RTVSPost2010PropOp50
 70
     0
102
RTVSPost2010Prop51ColorIndex
 90
      256
102
RTVSPost2010Prop51ColorRGB
 90
-16777216
102
RTVSPost2010PropOp51
 70
     0
102
RTVSPost2010Prop52
140
1.0
102
RTVSPost2010PropOp52
 70
     0
102
RTVSPost2010Prop53
 90
        2
102
RTVSPost2010PropOp53
 70
     0
102
RTVSPost2010Prop54
  1
strokes_ogs.tif
102
RTVSPost2010PropOp54
 70
     0
102
RTVSPost2010Prop55
280
     0
102
RTVSPost2010PropOp55
 70
     0
102
RTVSPost2010Prop56
140
1.0
102
RTVSPost2010PropOp56
 70
     0
102
RTVSPost2010Prop57
140
1.0
102
RTVSPost2010PropOp57
 70
     0
  0
XRECORD
  5
24E
102
{ACAD_REACTORS
330
24D
102
}
330
24D
100
AcDbXrecord
280
     1
102
RTVSPropertyOp0
 70
     1
102
RTVSPropertyOp1
 70
     1
102
RTVSPropertyOp2
 70
     1
102
RTVSPropertyOp3
 70
     1
102
RTVSPropertyOp4
 70
     1
102
RTVSPropertyOp5
 70
     1
102
RTVSPropertyOp6
 70
     1
102
RTVSPropertyOp7
 70
     1
102
RTVSPropertyOp8
 70
     1
102
RTVSPropertyOp9
 70
     1
102
RTVSPropertyOp10
 70
     1
102
RTVSPropertyOp11
 70
     1
102
RTVSPropertyOp12
 70
     1
102
RTVSPropertyOp13
 70
     1
102
RTVSPropertyOp14
 70
     1
102
RTVSPropertyOp15
 70
     1
102
RTVSPropertyOp16
 70
     1
102
RTVSPropertyOp17
 70
     1
102
RTVSPropertyOp18
 70
     1
102
RTVSPropertyOp19
 70
     1
102
RTVSPropertyOp20
 70
     1
102
RTVSPropertyOp21
 70
     1
102
RTVSPropertyOp22
 70
     1
102
RTVSPropertyOp23
 70
     1
102
RTVSPropertyOp24
 70
     1
102
RTVSPropertyOp25
 70
     1
102
RTVSPropertyOp26
 70
     1
102
RTVSPropertyOp27
 70
     1
102
RTVSPropertyOp28
 70
     1
102
RTVSPropertyOp29
 70
     1
102
RTVSPropertyOp30
 70
     1
102
RTVSPropertyOp31
 70
     1
102
RTVSPropertyOp32
 70
     1
102
RTVSPropertyOp33
 70
     1
102
RTVSPropertyOp34
 70
     1
102
RTVSPropertyOp35
 70
     1
102
RTVSPropertyOp36
 70
     1
102
RTVSPropertyOp37
 70
     1
102
RTVSPropertyOp38
 70
     1
102
RTVSPropertyOp39
 70
     1
102
RTVSPropertyOp40
 70
     1
102
RTVSPropertyOp41
 70
     1
102
RTVSPropertyOp42
 70
     1
102
RTVSPropertyOp43
 70
     1
102
RTVSPropertyOp44
 70
     1
102
RTVSPropertyOp45
 70
     1
102
RTVSPropertyOp46
 70
     1
102
RTVSPropertyOp47
 70
     1
102
RTVSPropertyOp48
 70
     1
102
RTVSPropertyOp49
 70
     1
102
RTVSPropertyOp50
 70
     1
102
RTVSPropertyOp51
 70
     0
102
RTVSPropertyOp52
 70
     0
102
RTVSPropertyOp53
 70
     1
102
RTVSPropertyOp54
 70
     1
102
RTVSPropertyOp55
 70
     1
102
RTVSPropertyOp56
 70
     1
102
RTVSPropertyOp57
 70
     1
102
RTVSPost2010Prop28
280
     0
102
RTVSPost2010PropOp28
 70
     1
102
RTVSPost2010Prop29
280
     1
102
RTVSPost2010PropOp29
 70
     1
102
RTVSPost2010Prop30
280
     1
102
RTVSPost2010PropOp30
 70
     1
102
RTVSPost2010Prop31
280
     0
102
RTVSPost2010PropOp31
 70
     1
102
RTVSPost2010Prop32
280
     0
102
RTVSPost2010PropOp32
 70
     1
102
RTVSPost2010Prop33
280
     0
102
RTVSPost2010PropOp33
 70
     1
102
RTVSPost2010Prop34
280
     0
102
RTVSPost2010PropOp34
 70
     1
102
RTVSPost2010Prop35
280
     0
102
RTVSPost2010PropOp35
 70
     1
102
RTVSPost2010Prop36
280
     0
102
RTVSPost2010PropOp36
 70
     1
102
RTVSPost2010Prop37
 90
       50
102
RTVSPost2010PropOp37
 70
     1
102
RTVSPost2010Prop38
140
0.0
102
RTVSPost2010PropOp38
 70
     1
102
RTVSPost2010Prop39
140
1.0
102
RTVSPost2010PropOp39
 70
     1
102
RTVSPost2010Prop40
 90
        0
102
RTVSPost2010PropOp40
 70
     1
102
RTVSPost2010Prop41ColorIndex
 90
       18
102
RTVSPost2010Prop41ColorRGB
 90
        0
102
RTVSPost2010PropOp41
 70
     1
102
RTVSPost2010Prop42
 90
       50
102
RTVSPost2010PropOp42
 70
     1
102
RTVSPost2010Prop43
 90
        3
102
RTVSPost2010PropOp43
 70
     1
102
RTVSPost2010Prop44ColorIndex
 90
        5
102
RTVSPost2010Prop44ColorRGB
 90
      255
102
RTVSPost2010PropOp44
 70
     1
102
RTVSPost2010Prop45
280
     0
102
RTVSPost2010PropOp45
 70
     1
102
RTVSPost2010Prop46
 90
       50
102
RTVSPost2010PropOp46
 70
     1
102
RTVSPost2010Prop47
 90
       50
102
RTVSPost2010PropOp47
 70
     1
102
RTVSPost2010Prop48
 90
       50
102
RTVSPost2010PropOp48
 70
     1
102
RTVSPost2010Prop49
280
     0
102
RTVSPost2010PropOp49
 70
     1
102
RTVSPost2010Prop50
 90
       50
102
RTVSPost2010PropOp50
 70
     1
102
RTVSPost2010Prop51ColorIndex
 90
      256
102
RTVSPost2010Prop51ColorRGB
 90
-16777216
102
RTVSPost2010PropOp51
 70
     0
102
RTVSPost2010Prop52
140
1.0
102
RTVSPost2010PropOp52
 70
     0
102
RTVSPost2010Prop53
 90
        2
102
RTVSPost2010PropOp53
 70
     1
102
RTVSPost2010Prop54
  1
strokes_ogs.tif
102
RTVSPost2010PropOp54
 70
     1
102
RTVSPost2010Prop55
280
     0
102
RTVSPost2010PropOp55
 70
     1
102
RTVSPost2010Prop56
140
1.0
102
RTVSPost2010PropOp56
 70
     1
102
RTVSPost2010Prop57
140
1.0
102
RTVSPost2010PropOp57
 70
     1
  0
XRECORD
  5
26C
102
{ACAD_REACTORS
330
26B
102
}
330
26B
100
AcDbXrecord
280
     1
102
RTVSPropertyOp0
 70
     1
102
RTVSPropertyOp1
 70
     1
102
RTVSPropertyOp2
 70
     1
102
RTVSPropertyOp3
 70
     1
102
RTVSPropertyOp4
 70
     1
102
RTVSPropertyOp5
 70
     1
102
RTVSPropertyOp6
 70
     1
102
RTVSPropertyOp7
 70
     1
102
RTVSPropertyOp8
 70
     1
102
RTVSPropertyOp9
 70
     1
102
RTVSPropertyOp10
 70
     1
102
RTVSPropertyOp11
 70
     1
102
RTVSPropertyOp12
 70
     1
102
RTVSPropertyOp13
 70
     1
102
RTVSPropertyOp14
 70
     1
102
RTVSPropertyOp15
 70
     1
102
RTVSPropertyOp16
 70
     1
102
RTVSPropertyOp17
 70
     1
102
RTVSPropertyOp18
 70
     1
102
RTVSPropertyOp19
 70
     1
102
RTVSPropertyOp20
 70
     1
102
RTVSPropertyOp21
 70
     1
102
RTVSPropertyOp22
 70
     1
102
RTVSPropertyOp23
 70
     1
102
RTVSPropertyOp24
 70
     1
102
RTVSPropertyOp25
 70
     1
102
RTVSPropertyOp26
 70
     1
102
RTVSPropertyOp27
 70
     1
102
RTVSPropertyOp28
 70
     1
102
RTVSPropertyOp29
 70
     1
102
RTVSPropertyOp30
 70
     1
102
RTVSPropertyOp31
 70
     1
102
RTVSPropertyOp32
 70
     1
102
RTVSPropertyOp33
 70
     1
102
RTVSPropertyOp34
 70
     1
102
RTVSPropertyOp35
 70
     1
102
RTVSPropertyOp36
 70
     1
102
RTVSPropertyOp37
 70
     1
102
RTVSPropertyOp38
 70
     1
102
RTVSPropertyOp39
 70
     1
102
RTVSPropertyOp40
 70
     1
102
RTVSPropertyOp41
 70
     1
102
RTVSPropertyOp42
 70
     1
102
RTVSPropertyOp43
 70
     1
102
RTVSPropertyOp44
 70
     1
102
RTVSPropertyOp45
 70
     1
102
RTVSPropertyOp46
 70
     1
102
RTVSPropertyOp47
 70
     1
102
RTVSPropertyOp48
 70
     1
102
RTVSPropertyOp49
 70
     1
102
RTVSPropertyOp50
 70
     1
102
RTVSPropertyOp51
 70
     0
102
RTVSPropertyOp52
 70
     0
102
RTVSPropertyOp53
 70
     1
102
RTVSPropertyOp54
 70
     1
102
RTVSPropertyOp55
 70
     1
102
RTVSPropertyOp56
 70
     1
102
RTVSPropertyOp57
 70
     1
102
RTVSPost2010Prop28
280
     0
102
RTVSPost2010PropOp28
 70
     1
102
RTVSPost2010Prop29
280
     1
102
RTVSPost2010PropOp29
 70
     1
102
RTVSPost2010Prop30
280
     1
102
RTVSPost2010PropOp30
 70
     1
102
RTVSPost2010Prop31
280
     0
102
RTVSPost2010PropOp31
 70
     1
102
RTVSPost2010Prop32
280
     0
102
RTVSPost2010PropOp32
 70
     1
102
RTVSPost2010Prop33
280
     0
102
RTVSPost2010PropOp33
 70
     1
102
RTVSPost2010Prop34
280
     0
102
RTVSPost2010PropOp34
 70
     1
102
RTVSPost2010Prop35
280
     0
102
RTVSPost2010PropOp35
 70
     1
102
RTVSPost2010Prop36
280
     0
102
RTVSPost2010PropOp36
 70
     1
102
RTVSPost2010Prop37
 90
       50
102
RTVSPost2010PropOp37
 70
     1
102
RTVSPost2010Prop38
140
0.0
102
RTVSPost2010PropOp38
 70
     1
102
RTVSPost2010Prop39
140
1.0
102
RTVSPost2010PropOp39
 70
     1
102
RTVSPost2010Prop40
 90
        0
102
RTVSPost2010PropOp40
 70
     1
102
RTVSPost2010Prop41ColorIndex
 90
       18
102
RTVSPost2010Prop41ColorRGB
 90
        0
102
RTVSPost2010PropOp41
 70
     1
102
RTVSPost2010Prop42
 90
       50
102
RTVSPost2010PropOp42
 70
     1
102
RTVSPost2010Prop43
 90
        3
102
RTVSPost2010PropOp43
 70
     1
102
RTVSPost2010Prop44ColorIndex
 90
        5
102
RTVSPost2010Prop44ColorRGB
 90
      255
102
RTVSPost2010PropOp44
 70
     1
102
RTVSPost2010Prop45
280
     0
102
RTVSPost2010PropOp45
 70
     1
102
RTVSPost2010Prop46
 90
       50
102
RTVSPost2010PropOp46
 70
     1
102
RTVSPost2010Prop47
 90
       50
102
RTVSPost2010PropOp47
 70
     1
102
RTVSPost2010Prop48
 90
       50
102
RTVSPost2010PropOp48
 70
     1
102
RTVSPost2010Prop49
280
     0
102
RTVSPost2010PropOp49
 70
     1
102
RTVSPost2010Prop50
 90
       50
102
RTVSPost2010PropOp50
 70
     1
102
RTVSPost2010Prop51ColorIndex
 90
      256
102
RTVSPost2010Prop51ColorRGB
 90
-16777216
102
RTVSPost2010PropOp51
 70
     0
102
RTVSPost2010Prop52
140
1.0
102
RTVSPost2010PropOp52
 70
     0
102
RTVSPost2010Prop53
 90
        2
102
RTVSPost2010PropOp53
 70
     1
102
RTVSPost2010Prop54
  1
strokes_ogs.tif
102
RTVSPost2010PropOp54
 70
     1
102
RTVSPost2010Prop55
280
     0
102
RTVSPost2010PropOp55
 70
     1
102
RTVSPost2010Prop56
140
1.0
102
RTVSPost2010PropOp56
 70
     1
102
RTVSPost2010Prop57
140
1.0
102
RTVSPost2010PropOp57
 70
     1
  0
XRECORD
  5
26A
102
{ACAD_REACTORS
330
269
102
}
330
269
100
AcDbXrecord
280
     1
102
RTVSPropertyOp0
 70
     1
102
RTVSPropertyOp1
 70
     1
102
RTVSPropertyOp2
 70
     1
102
RTVSPropertyOp3
 70
     1
102
RTVSPropertyOp4
 70
     1
102
RTVSPropertyOp5
 70
     1
102
RTVSPropertyOp6
 70
     1
102
RTVSPropertyOp7
 70
     1
102
RTVSPropertyOp8
 70
     1
102
RTVSPropertyOp9
 70
     1
102
RTVSPropertyOp10
 70
     1
102
RTVSPropertyOp11
 70
     1
102
RTVSPropertyOp12
 70
     1
102
RTVSPropertyOp13
 70
     1
102
RTVSPropertyOp14
 70
     1
102
RTVSPropertyOp15
 70
     1
102
RTVSPropertyOp16
 70
     1
102
RTVSPropertyOp17
 70
     1
102
RTVSPropertyOp18
 70
     1
102
RTVSPropertyOp19
 70
     1
102
RTVSPropertyOp20
 70
     1
102
RTVSPropertyOp21
 70
     1
102
RTVSPropertyOp22
 70
     1
102
RTVSPropertyOp23
 70
     1
102
RTVSPropertyOp24
 70
     1
102
RTVSPropertyOp25
 70
     1
102
RTVSPropertyOp26
 70
     1
102
RTVSPropertyOp27
 70
     1
102
RTVSPropertyOp28
 70
     1
102
RTVSPropertyOp29
 70
     1
102
RTVSPropertyOp30
 70
     1
102
RTVSPropertyOp31
 70
     1
102
RTVSPropertyOp32
 70
     1
102
RTVSPropertyOp33
 70
     1
102
RTVSPropertyOp34
 70
     1
102
RTVSPropertyOp35
 70
     1
102
RTVSPropertyOp36
 70
     1
102
RTVSPropertyOp37
 70
     1
102
RTVSPropertyOp38
 70
     1
102
RTVSPropertyOp39
 70
     1
102
RTVSPropertyOp40
 70
     1
102
RTVSPropertyOp41
 70
     1
102
RTVSPropertyOp42
 70
     1
102
RTVSPropertyOp43
 70
     1
102
RTVSPropertyOp44
 70
     1
102
RTVSPropertyOp45
 70
     1
102
RTVSPropertyOp46
 70
     1
102
RTVSPropertyOp47
 70
     1
102
RTVSPropertyOp48
 70
     1
102
RTVSPropertyOp49
 70
     1
102
RTVSPropertyOp50
 70
     1
102
RTVSPropertyOp51
 70
     0
102
RTVSPropertyOp52
 70
     0
102
RTVSPropertyOp53
 70
     1
102
RTVSPropertyOp54
 70
     1
102
RTVSPropertyOp55
 70
     1
102
RTVSPropertyOp56
 70
     1
102
RTVSPropertyOp57
 70
     1
102
RTVSPost2010Prop28
280
     0
102
RTVSPost2010PropOp28
 70
     1
102
RTVSPost2010Prop29
280
     1
102
RTVSPost2010PropOp29
 70
     1
102
RTVSPost2010Prop30
280
     1
102
RTVSPost2010PropOp30
 70
     1
102
RTVSPost2010Prop31
280
     0
102
RTVSPost2010PropOp31
 70
     1
102
RTVSPost2010Prop32
280
     0
102
RTVSPost2010PropOp32
 70
     1
102
RTVSPost2010Prop33
280
     0
102
RTVSPost2010PropOp33
 70
     1
102
RTVSPost2010Prop34
280
     0
102
RTVSPost2010PropOp34
 70
     1
102
RTVSPost2010Prop35
280
     0
102
RTVSPost2010PropOp35
 70
     1
102
RTVSPost2010Prop36
280
     0
102
RTVSPost2010PropOp36
 70
     1
102
RTVSPost2010Prop37
 90
       50
102
RTVSPost2010PropOp37
 70
     1
102
RTVSPost2010Prop38
140
0.0
102
RTVSPost2010PropOp38
 70
     1
102
RTVSPost2010Prop39
140
1.0
102
RTVSPost2010PropOp39
 70
     1
102
RTVSPost2010Prop40
 90
        0
102
RTVSPost2010PropOp40
 70
     1
102
RTVSPost2010Prop41ColorIndex
 90
       18
102
RTVSPost2010Prop41ColorRGB
 90
        0
102
RTVSPost2010PropOp41
 70
     1
102
RTVSPost2010Prop42
 90
       50
102
RTVSPost2010PropOp42
 70
     1
102
RTVSPost2010Prop43
 90
        3
102
RTVSPost2010PropOp43
 70
     1
102
RTVSPost2010Prop44ColorIndex
 90
        5
102
RTVSPost2010Prop44ColorRGB
 90
      255
102
RTVSPost2010PropOp44
 70
     1
102
RTVSPost2010Prop45
280
     0
102
RTVSPost2010PropOp45
 70
     1
102
RTVSPost2010Prop46
 90
       50
102
RTVSPost2010PropOp46
 70
     1
102
RTVSPost2010Prop47
 90
       50
102
RTVSPost2010PropOp47
 70
     1
102
RTVSPost2010Prop48
 90
       50
102
RTVSPost2010PropOp48
 70
     1
102
RTVSPost2010Prop49
280
     0
102
RTVSPost2010PropOp49
 70
     1
102
RTVSPost2010Prop50
 90
       50
102
RTVSPost2010PropOp50
 70
     1
102
RTVSPost2010Prop51ColorIndex
 90
      256
102
RTVSPost2010Prop51ColorRGB
 90
-16777216
102
RTVSPost2010PropOp51
 70
     0
102
RTVSPost2010Prop52
140
1.0
102
RTVSPost2010PropOp52
 70
     0
102
RTVSPost2010Prop53
 90
        2
102
RTVSPost2010PropOp53
 70
     1
102
RTVSPost2010Prop54
  1
strokes_ogs.tif
102
RTVSPost2010PropOp54
 70
     1
102
RTVSPost2010Prop55
280
     0
102
RTVSPost2010PropOp55
 70
     1
102
RTVSPost2010Prop56
140
1.0
102
RTVSPost2010PropOp56
 70
     1
102
RTVSPost2010Prop57
140
1.0
102
RTVSPost2010PropOp57
 70
     1
  0
XRECORD
  5
264
102
{ACAD_REACTORS
330
263
102
}
330
263
100
AcDbXrecord
280
     1
102
RTVSPropertyOp0
 70
     1
102
RTVSPropertyOp1
 70
     1
102
RTVSPropertyOp2
 70
     1
102
RTVSPropertyOp3
 70
     1
102
RTVSPropertyOp4
 70
     1
102
RTVSPropertyOp5
 70
     1
102
RTVSPropertyOp6
 70
     1
102
RTVSPropertyOp7
 70
     1
102
RTVSPropertyOp8
 70
     1
102
RTVSPropertyOp9
 70
     1
102
RTVSPropertyOp10
 70
     1
102
RTVSPropertyOp11
 70
     1
102
RTVSPropertyOp12
 70
     1
102
RTVSPropertyOp13
 70
     1
102
RTVSPropertyOp14
 70
     1
102
RTVSPropertyOp15
 70
     1
102
RTVSPropertyOp16
 70
     1
102
RTVSPropertyOp17
 70
     1
102
RTVSPropertyOp18
 70
     1
102
RTVSPropertyOp19
 70
     1
102
RTVSPropertyOp20
 70
     1
102
RTVSPropertyOp21
 70
     1
102
RTVSPropertyOp22
 70
     1
102
RTVSPropertyOp23
 70
     1
102
RTVSPropertyOp24
 70
     1
102
RTVSPropertyOp25
 70
     1
102
RTVSPropertyOp26
 70
     1
102
RTVSPropertyOp27
 70
     1
102
RTVSPropertyOp28
 70
     1
102
RTVSPropertyOp29
 70
     1
102
RTVSPropertyOp30
 70
     1
102
RTVSPropertyOp31
 70
     1
102
RTVSPropertyOp32
 70
     1
102
RTVSPropertyOp33
 70
     1
102
RTVSPropertyOp34
 70
     1
102
RTVSPropertyOp35
 70
     1
102
RTVSPropertyOp36
 70
     1
102
RTVSPropertyOp37
 70
     1
102
RTVSPropertyOp38
 70
     1
102
RTVSPropertyOp39
 70
     1
102
RTVSPropertyOp40
 70
     1
102
RTVSPropertyOp41
 70
     1
102
RTVSPropertyOp42
 70
     1
102
RTVSPropertyOp43
 70
     1
102
RTVSPropertyOp44
 70
     1
102
RTVSPropertyOp45
 70
     1
102
RTVSPropertyOp46
 70
     1
102
RTVSPropertyOp47
 70
     1
102
RTVSPropertyOp48
 70
     1
102
RTVSPropertyOp49
 70
     1
102
RTVSPropertyOp50
 70
     1
102
RTVSPropertyOp51
 70
     0
102
RTVSPropertyOp52
 70
     0
102
RTVSPropertyOp53
 70
     1
102
RTVSPropertyOp54
 70
     1
102
RTVSPropertyOp55
 70
     1
102
RTVSPropertyOp56
 70
     1
102
RTVSPropertyOp57
 70
     1
102
RTVSPost2010Prop28
280
     0
102
RTVSPost2010PropOp28
 70
     1
102
RTVSPost2010Prop29
280
     1
102
RTVSPost2010PropOp29
 70
     1
102
RTVSPost2010Prop30
280
     1
102
RTVSPost2010PropOp30
 70
     1
102
RTVSPost2010Prop31
280
     0
102
RTVSPost2010PropOp31
 70
     1
102
RTVSPost2010Prop32
280
     0
102
RTVSPost2010PropOp32
 70
     1
102
RTVSPost2010Prop33
280
     0
102
RTVSPost2010PropOp33
 70
     1
102
RTVSPost2010Prop34
280
     0
102
RTVSPost2010PropOp34
 70
     1
102
RTVSPost2010Prop35
280
     0
102
RTVSPost2010PropOp35
 70
     1
102
RTVSPost2010Prop36
280
     0
102
RTVSPost2010PropOp36
 70
     1
102
RTVSPost2010Prop37
 90
       50
102
RTVSPost2010PropOp37
 70
     1
102
RTVSPost2010Prop38
140
0.0
102
RTVSPost2010PropOp38
 70
     1
102
RTVSPost2010Prop39
140
1.0
102
RTVSPost2010PropOp39
 70
     1
102
RTVSPost2010Prop40
 90
        0
102
RTVSPost2010PropOp40
 70
     1
102
RTVSPost2010Prop41ColorIndex
 90
       18
102
RTVSPost2010Prop41ColorRGB
 90
        0
102
RTVSPost2010PropOp41
 70
     1
102
RTVSPost2010Prop42
 90
       50
102
RTVSPost2010PropOp42
 70
     1
102
RTVSPost2010Prop43
 90
        3
102
RTVSPost2010PropOp43
 70
     1
102
RTVSPost2010Prop44ColorIndex
 90
        5
102
RTVSPost2010Prop44ColorRGB
 90
      255
102
RTVSPost2010PropOp44
 70
     1
102
RTVSPost2010Prop45
280
     0
102
RTVSPost2010PropOp45
 70
     1
102
RTVSPost2010Prop46
 90
       50
102
RTVSPost2010PropOp46
 70
     1
102
RTVSPost2010Prop47
 90
       50
102
RTVSPost2010PropOp47
 70
     1
102
RTVSPost2010Prop48
 90
       50
102
RTVSPost2010PropOp48
 70
     1
102
RTVSPost2010Prop49
280
     0
102
RTVSPost2010PropOp49
 70
     1
102
RTVSPost2010Prop50
 90
       50
102
RTVSPost2010PropOp50
 70
     1
102
RTVSPost2010Prop51ColorIndex
 90
      256
102
RTVSPost2010Prop51ColorRGB
 90
-16777216
102
RTVSPost2010PropOp51
 70
     0
102
RTVSPost2010Prop52
140
1.0
102
RTVSPost2010PropOp52
 70
     0
102
RTVSPost2010Prop53
 90
        2
102
RTVSPost2010PropOp53
 70
     1
102
RTVSPost2010Prop54
  1
strokes_ogs.tif
102
RTVSPost2010PropOp54
 70
     1
102
RTVSPost2010Prop55
280
     0
102
RTVSPost2010PropOp55
 70
     1
102
RTVSPost2010Prop56
140
1.0
102
RTVSPost2010PropOp56
 70
     1
102
RTVSPost2010Prop57
140
1.0
102
RTVSPost2010PropOp57
 70
     1
  0
XRECORD
  5
266
102
{ACAD_REACTORS
330
265
102
}
330
265
100
AcDbXrecord
280
     1
102
RTVSPropertyOp0
 70
     1
102
RTVSPropertyOp1
 70
     1
102
RTVSPropertyOp2
 70
     1
102
RTVSPropertyOp3
 70
     1
102
RTVSPropertyOp4
 70
     1
102
RTVSPropertyOp5
 70
     1
102
RTVSPropertyOp6
 70
     1
102
RTVSPropertyOp7
 70
     1
102
RTVSPropertyOp8
 70
     1
102
RTVSPropertyOp9
 70
     1
102
RTVSPropertyOp10
 70
     1
102
RTVSPropertyOp11
 70
     1
102
RTVSPropertyOp12
 70
     1
102
RTVSPropertyOp13
 70
     1
102
RTVSPropertyOp14
 70
     1
102
RTVSPropertyOp15
 70
     1
102
RTVSPropertyOp16
 70
     1
102
RTVSPropertyOp17
 70
     1
102
RTVSPropertyOp18
 70
     1
102
RTVSPropertyOp19
 70
     1
102
RTVSPropertyOp20
 70
     1
102
RTVSPropertyOp21
 70
     1
102
RTVSPropertyOp22
 70
     1
102
RTVSPropertyOp23
 70
     1
102
RTVSPropertyOp24
 70
     1
102
RTVSPropertyOp25
 70
     1
102
RTVSPropertyOp26
 70
     1
102
RTVSPropertyOp27
 70
     1
102
RTVSPropertyOp28
 70
     1
102
RTVSPropertyOp29
 70
     1
102
RTVSPropertyOp30
 70
     1
102
RTVSPropertyOp31
 70
     1
102
RTVSPropertyOp32
 70
     1
102
RTVSPropertyOp33
 70
     1
102
RTVSPropertyOp34
 70
     1
102
RTVSPropertyOp35
 70
     1
102
RTVSPropertyOp36
 70
     1
102
RTVSPropertyOp37
 70
     1
102
RTVSPropertyOp38
 70
     1
102
RTVSPropertyOp39
 70
     1
102
RTVSPropertyOp40
 70
     1
102
RTVSPropertyOp41
 70
     1
102
RTVSPropertyOp42
 70
     1
102
RTVSPropertyOp43
 70
     1
102
RTVSPropertyOp44
 70
     1
102
RTVSPropertyOp45
 70
     1
102
RTVSPropertyOp46
 70
     1
102
RTVSPropertyOp47
 70
     1
102
RTVSPropertyOp48
 70
     1
102
RTVSPropertyOp49
 70
     1
102
RTVSPropertyOp50
 70
     1
102
RTVSPropertyOp51
 70
     0
102
RTVSPropertyOp52
 70
     0
102
RTVSPropertyOp53
 70
     1
102
RTVSPropertyOp54
 70
     1
102
RTVSPropertyOp55
 70
     1
102
RTVSPropertyOp56
 70
     1
102
RTVSPropertyOp57
 70
     1
102
RTVSPost2010Prop28
280
     0
102
RTVSPost2010PropOp28
 70
     1
102
RTVSPost2010Prop29
280
     1
102
RTVSPost2010PropOp29
 70
     1
102
RTVSPost2010Prop30
280
     1
102
RTVSPost2010PropOp30
 70
     1
102
RTVSPost2010Prop31
280
     0
102
RTVSPost2010PropOp31
 70
     1
102
RTVSPost2010Prop32
280
     0
102
RTVSPost2010PropOp32
 70
     1
102
RTVSPost2010Prop33
280
     0
102
RTVSPost2010PropOp33
 70
     1
102
RTVSPost2010Prop34
280
     0
102
RTVSPost2010PropOp34
 70
     1
102
RTVSPost2010Prop35
280
     0
102
RTVSPost2010PropOp35
 70
     1
102
RTVSPost2010Prop36
280
     0
102
RTVSPost2010PropOp36
 70
     1
102
RTVSPost2010Prop37
 90
       50
102
RTVSPost2010PropOp37
 70
     1
102
RTVSPost2010Prop38
140
0.0
102
RTVSPost2010PropOp38
 70
     1
102
RTVSPost2010Prop39
140
1.0
102
RTVSPost2010PropOp39
 70
     1
102
RTVSPost2010Prop40
 90
        0
102
RTVSPost2010PropOp40
 70
     1
102
RTVSPost2010Prop41ColorIndex
 90
       18
102
RTVSPost2010Prop41ColorRGB
 90
        0
102
RTVSPost2010PropOp41
 70
     1
102
RTVSPost2010Prop42
 90
       50
102
RTVSPost2010PropOp42
 70
     1
102
RTVSPost2010Prop43
 90
        3
102
RTVSPost2010PropOp43
 70
     1
102
RTVSPost2010Prop44ColorIndex
 90
        5
102
RTVSPost2010Prop44ColorRGB
 90
      255
102
RTVSPost2010PropOp44
 70
     1
102
RTVSPost2010Prop45
280
     0
102
RTVSPost2010PropOp45
 70
     1
102
RTVSPost2010Prop46
 90
       50
102
RTVSPost2010PropOp46
 70
     1
102
RTVSPost2010Prop47
 90
       50
102
RTVSPost2010PropOp47
 70
     1
102
RTVSPost2010Prop48
 90
       50
102
RTVSPost2010PropOp48
 70
     1
102
RTVSPost2010Prop49
280
     0
102
RTVSPost2010PropOp49
 70
     1
102
RTVSPost2010Prop50
 90
       50
102
RTVSPost2010PropOp50
 70
     1
102
RTVSPost2010Prop51ColorIndex
 90
      256
102
RTVSPost2010Prop51ColorRGB
 90
-16777216
102
RTVSPost2010PropOp51
 70
     0
102
RTVSPost2010Prop52
140
1.0
102
RTVSPost2010PropOp52
 70
     0
102
RTVSPost2010Prop53
 90
        2
102
RTVSPost2010PropOp53
 70
     1
102
RTVSPost2010Prop54
  1
strokes_ogs.tif
102
RTVSPost2010PropOp54
 70
     1
102
RTVSPost2010Prop55
280
     0
102
RTVSPost2010PropOp55
 70
     1
102
RTVSPost2010Prop56
140
1.0
102
RTVSPost2010PropOp56
 70
     1
102
RTVSPost2010Prop57
140
1.0
102
RTVSPost2010PropOp57
 70
     1
  0
XRECORD
  5
256
102
{ACAD_REACTORS
330
255
102
}
330
255
100
AcDbXrecord
280
     1
102
RTVSPropertyOp0
 70
     1
102
RTVSPropertyOp1
 70
     1
102
RTVSPropertyOp2
 70
     1
102
RTVSPropertyOp3
 70
     1
102
RTVSPropertyOp4
 70
     1
102
RTVSPropertyOp5
 70
     1
102
RTVSPropertyOp6
 70
     1
102
RTVSPropertyOp7
 70
     1
102
RTVSPropertyOp8
 70
     1
102
RTVSPropertyOp9
 70
     1
102
RTVSPropertyOp10
 70
     1
102
RTVSPropertyOp11
 70
     1
102
RTVSPropertyOp12
 70
     1
102
RTVSPropertyOp13
 70
     1
102
RTVSPropertyOp14
 70
     1
102
RTVSPropertyOp15
 70
     1
102
RTVSPropertyOp16
 70
     1
102
RTVSPropertyOp17
 70
     1
102
RTVSPropertyOp18
 70
     1
102
RTVSPropertyOp19
 70
     1
102
RTVSPropertyOp20
 70
     1
102
RTVSPropertyOp21
 70
     1
102
RTVSPropertyOp22
 70
     1
102
RTVSPropertyOp23
 70
     1
102
RTVSPropertyOp24
 70
     1
102
RTVSPropertyOp25
 70
     1
102
RTVSPropertyOp26
 70
     1
102
RTVSPropertyOp27
 70
     1
102
RTVSPropertyOp28
 70
     1
102
RTVSPropertyOp29
 70
     1
102
RTVSPropertyOp30
 70
     1
102
RTVSPropertyOp31
 70
     1
102
RTVSPropertyOp32
 70
     1
102
RTVSPropertyOp33
 70
     1
102
RTVSPropertyOp34
 70
     1
102
RTVSPropertyOp35
 70
     1
102
RTVSPropertyOp36
 70
     1
102
RTVSPropertyOp37
 70
     1
102
RTVSPropertyOp38
 70
     1
102
RTVSPropertyOp39
 70
     1
102
RTVSPropertyOp40
 70
     1
102
RTVSPropertyOp41
 70
     1
102
RTVSPropertyOp42
 70
     1
102
RTVSPropertyOp43
 70
     1
102
RTVSPropertyOp44
 70
     1
102
RTVSPropertyOp45
 70
     1
102
RTVSPropertyOp46
 70
     1
102
RTVSPropertyOp47
 70
     1
102
RTVSPropertyOp48
 70
     1
102
RTVSPropertyOp49
 70
     1
102
RTVSPropertyOp50
 70
     1
102
RTVSPropertyOp51
 70
     0
102
RTVSPropertyOp52
 70
     0
102
RTVSPropertyOp53
 70
     1
102
RTVSPropertyOp54
 70
     1
102
RTVSPropertyOp55
 70
     1
102
RTVSPropertyOp56
 70
     1
102
RTVSPropertyOp57
 70
     1
102
RTVSPost2010Prop28
280
     0
102
RTVSPost2010PropOp28
 70
     1
102
RTVSPost2010Prop29
280
     1
102
RTVSPost2010PropOp29
 70
     1
102
RTVSPost2010Prop30
280
     1
102
RTVSPost2010PropOp30
 70
     1
102
RTVSPost2010Prop31
280
     0
102
RTVSPost2010PropOp31
 70
     1
102
RTVSPost2010Prop32
280
     0
102
RTVSPost2010PropOp32
 70
     1
102
RTVSPost2010Prop33
280
     0
102
RTVSPost2010PropOp33
 70
     1
102
RTVSPost2010Prop34
280
     0
102
RTVSPost2010PropOp34
 70
     1
102
RTVSPost2010Prop35
280
     0
102
RTVSPost2010PropOp35
 70
     1
102
RTVSPost2010Prop36
280
     0
102
RTVSPost2010PropOp36
 70
     1
102
RTVSPost2010Prop37
 90
       50
102
RTVSPost2010PropOp37
 70
     1
102
RTVSPost2010Prop38
140
0.0
102
RTVSPost2010PropOp38
 70
     1
102
RTVSPost2010Prop39
140
1.0
102
RTVSPost2010PropOp39
 70
     1
102
RTVSPost2010Prop40
 90
        0
102
RTVSPost2010PropOp40
 70
     1
102
RTVSPost2010Prop41ColorIndex
 90
       18
102
RTVSPost2010Prop41ColorRGB
 90
        0
102
RTVSPost2010PropOp41
 70
     1
102
RTVSPost2010Prop42
 90
       50
102
RTVSPost2010PropOp42
 70
     1
102
RTVSPost2010Prop43
 90
        3
102
RTVSPost2010PropOp43
 70
     1
102
RTVSPost2010Prop44ColorIndex
 90
        5
102
RTVSPost2010Prop44ColorRGB
 90
      255
102
RTVSPost2010PropOp44
 70
     1
102
RTVSPost2010Prop45
280
     0
102
RTVSPost2010PropOp45
 70
     1
102
RTVSPost2010Prop46
 90
       50
102
RTVSPost2010PropOp46
 70
     1
102
RTVSPost2010Prop47
 90
       50
102
RTVSPost2010PropOp47
 70
     1
102
RTVSPost2010Prop48
 90
       50
102
RTVSPost2010PropOp48
 70
     1
102
RTVSPost2010Prop49
280
     0
102
RTVSPost2010PropOp49
 70
     1
102
RTVSPost2010Prop50
 90
       50
102
RTVSPost2010PropOp50
 70
     1
102
RTVSPost2010Prop51ColorIndex
 90
      256
102
RTVSPost2010Prop51ColorRGB
 90
-16777216
102
RTVSPost2010PropOp51
 70
     0
102
RTVSPost2010Prop52
140
1.0
102
RTVSPost2010PropOp52
 70
     0
102
RTVSPost2010Prop53
 90
        2
102
RTVSPost2010PropOp53
 70
     1
102
RTVSPost2010Prop54
  1
strokes_ogs.tif
102
RTVSPost2010PropOp54
 70
     1
102
RTVSPost2010Prop55
280
     0
102
RTVSPost2010PropOp55
 70
     1
102
RTVSPost2010Prop56
140
1.0
102
RTVSPost2010PropOp56
 70
     1
102
RTVSPost2010Prop57
140
1.0
102
RTVSPost2010PropOp57
 70
     1
  0
XRECORD
  5
248
102
{ACAD_REACTORS
330
247
102
}
330
247
100
AcDbXrecord
280
     1
102
RTVSPropertyOp0
 70
     1
102
RTVSPropertyOp1
 70
     1
102
RTVSPropertyOp2
 70
     1
102
RTVSPropertyOp3
 70
     1
102
RTVSPropertyOp4
 70
     1
102
RTVSPropertyOp5
 70
     1
102
RTVSPropertyOp6
 70
     1
102
RTVSPropertyOp7
 70
     1
102
RTVSPropertyOp8
 70
     1
102
RTVSPropertyOp9
 70
     1
102
RTVSPropertyOp10
 70
     1
102
RTVSPropertyOp11
 70
     1
102
RTVSPropertyOp12
 70
     1
102
RTVSPropertyOp13
 70
     1
102
RTVSPropertyOp14
 70
     1
102
RTVSPropertyOp15
 70
     1
102
RTVSPropertyOp16
 70
     1
102
RTVSPropertyOp17
 70
     1
102
RTVSPropertyOp18
 70
     1
102
RTVSPropertyOp19
 70
     1
102
RTVSPropertyOp20
 70
     1
102
RTVSPropertyOp21
 70
     1
102
RTVSPropertyOp22
 70
     1
102
RTVSPropertyOp23
 70
     1
102
RTVSPropertyOp24
 70
     1
102
RTVSPropertyOp25
 70
     1
102
RTVSPropertyOp26
 70
     1
102
RTVSPropertyOp27
 70
     1
102
RTVSPropertyOp28
 70
     1
102
RTVSPropertyOp29
 70
     1
102
RTVSPropertyOp30
 70
     1
102
RTVSPropertyOp31
 70
     1
102
RTVSPropertyOp32
 70
     1
102
RTVSPropertyOp33
 70
     1
102
RTVSPropertyOp34
 70
     1
102
RTVSPropertyOp35
 70
     1
102
RTVSPropertyOp36
 70
     1
102
RTVSPropertyOp37
 70
     1
102
RTVSPropertyOp38
 70
     1
102
RTVSPropertyOp39
 70
     1
102
RTVSPropertyOp40
 70
     1
102
RTVSPropertyOp41
 70
     1
102
RTVSPropertyOp42
 70
     1
102
RTVSPropertyOp43
 70
     1
102
RTVSPropertyOp44
 70
     1
102
RTVSPropertyOp45
 70
     1
102
RTVSPropertyOp46
 70
     1
102
RTVSPropertyOp47
 70
     1
102
RTVSPropertyOp48
 70
     1
102
RTVSPropertyOp49
 70
     1
102
RTVSPropertyOp50
 70
     1
102
RTVSPropertyOp51
 70
     0
102
RTVSPropertyOp52
 70
     0
102
RTVSPropertyOp53
 70
     1
102
RTVSPropertyOp54
 70
     1
102
RTVSPropertyOp55
 70
     1
102
RTVSPropertyOp56
 70
     1
102
RTVSPropertyOp57
 70
     1
102
RTVSPost2010Prop28
280
     0
102
RTVSPost2010PropOp28
 70
     1
102
RTVSPost2010Prop29
280
     1
102
RTVSPost2010PropOp29
 70
     1
102
RTVSPost2010Prop30
280
     1
102
RTVSPost2010PropOp30
 70
     1
102
RTVSPost2010Prop31
280
     0
102
RTVSPost2010PropOp31
 70
     1
102
RTVSPost2010Prop32
280
     0
102
RTVSPost2010PropOp32
 70
     1
102
RTVSPost2010Prop33
280
     0
102
RTVSPost2010PropOp33
 70
     1
102
RTVSPost2010Prop34
280
     0
102
RTVSPost2010PropOp34
 70
     1
102
RTVSPost2010Prop35
280
     0
102
RTVSPost2010PropOp35
 70
     1
102
RTVSPost2010Prop36
280
     0
102
RTVSPost2010PropOp36
 70
     1
102
RTVSPost2010Prop37
 90
       50
102
RTVSPost2010PropOp37
 70
     1
102
RTVSPost2010Prop38
140
0.0
102
RTVSPost2010PropOp38
 70
     1
102
RTVSPost2010Prop39
140
1.0
102
RTVSPost2010PropOp39
 70
     1
102
RTVSPost2010Prop40
 90
        0
102
RTVSPost2010PropOp40
 70
     1
102
RTVSPost2010Prop41ColorIndex
 90
       18
102
RTVSPost2010Prop41ColorRGB
 90
        0
102
RTVSPost2010PropOp41
 70
     1
102
RTVSPost2010Prop42
 90
       50
102
RTVSPost2010PropOp42
 70
     1
102
RTVSPost2010Prop43
 90
        3
102
RTVSPost2010PropOp43
 70
     1
102
RTVSPost2010Prop44ColorIndex
 90
        5
102
RTVSPost2010Prop44ColorRGB
 90
      255
102
RTVSPost2010PropOp44
 70
     1
102
RTVSPost2010Prop45
280
     0
102
RTVSPost2010PropOp45
 70
     1
102
RTVSPost2010Prop46
 90
       50
102
RTVSPost2010PropOp46
 70
     1
102
RTVSPost2010Prop47
 90
       50
102
RTVSPost2010PropOp47
 70
     1
102
RTVSPost2010Prop48
 90
       50
102
RTVSPost2010PropOp48
 70
     1
102
RTVSPost2010Prop49
280
     0
102
RTVSPost2010PropOp49
 70
     1
102
RTVSPost2010Prop50
 90
       50
102
RTVSPost2010PropOp50
 70
     1
102
RTVSPost2010Prop51ColorIndex
 90
      256
102
RTVSPost2010Prop51ColorRGB
 90
-16777216
102
RTVSPost2010PropOp51
 70
     0
102
RTVSPost2010Prop52
140
1.0
102
RTVSPost2010PropOp52
 70
     0
102
RTVSPost2010Prop53
 90
        2
102
RTVSPost2010PropOp53
 70
     1
102
RTVSPost2010Prop54
  1
strokes_ogs.tif
102
RTVSPost2010PropOp54
 70
     1
102
RTVSPost2010Prop55
280
     0
102
RTVSPost2010PropOp55
 70
     1
102
RTVSPost2010Prop56
140
1.0
102
RTVSPost2010PropOp56
 70
     1
102
RTVSPost2010Prop57
140
1.0
102
RTVSPost2010PropOp57
 70
     1
  0
XRECORD
  5
268
102
{ACAD_REACTORS
330
267
102
}
330
267
100
AcDbXrecord
280
     1
102
RTVSPropertyOp0
 70
     1
102
RTVSPropertyOp1
 70
     1
102
RTVSPropertyOp2
 70
     1
102
RTVSPropertyOp3
 70
     1
102
RTVSPropertyOp4
 70
     1
102
RTVSPropertyOp5
 70
     1
102
RTVSPropertyOp6
 70
     1
102
RTVSPropertyOp7
 70
     1
102
RTVSPropertyOp8
 70
     1
102
RTVSPropertyOp9
 70
     1
102
RTVSPropertyOp10
 70
     1
102
RTVSPropertyOp11
 70
     1
102
RTVSPropertyOp12
 70
     1
102
RTVSPropertyOp13
 70
     1
102
RTVSPropertyOp14
 70
     1
102
RTVSPropertyOp15
 70
     1
102
RTVSPropertyOp16
 70
     1
102
RTVSPropertyOp17
 70
     1
102
RTVSPropertyOp18
 70
     1
102
RTVSPropertyOp19
 70
     1
102
RTVSPropertyOp20
 70
     1
102
RTVSPropertyOp21
 70
     1
102
RTVSPropertyOp22
 70
     1
102
RTVSPropertyOp23
 70
     1
102
RTVSPropertyOp24
 70
     1
102
RTVSPropertyOp25
 70
     1
102
RTVSPropertyOp26
 70
     1
102
RTVSPropertyOp27
 70
     1
102
RTVSPropertyOp28
 70
     1
102
RTVSPropertyOp29
 70
     1
102
RTVSPropertyOp30
 70
     1
102
RTVSPropertyOp31
 70
     1
102
RTVSPropertyOp32
 70
     1
102
RTVSPropertyOp33
 70
     1
102
RTVSPropertyOp34
 70
     1
102
RTVSPropertyOp35
 70
     1
102
RTVSPropertyOp36
 70
     1
102
RTVSPropertyOp37
 70
     1
102
RTVSPropertyOp38
 70
     1
102
RTVSPropertyOp39
 70
     1
102
RTVSPropertyOp40
 70
     1
102
RTVSPropertyOp41
 70
     1
102
RTVSPropertyOp42
 70
     1
102
RTVSPropertyOp43
 70
     1
102
RTVSPropertyOp44
 70
     1
102
RTVSPropertyOp45
 70
     1
102
RTVSPropertyOp46
 70
     1
102
RTVSPropertyOp47
 70
     1
102
RTVSPropertyOp48
 70
     1
102
RTVSPropertyOp49
 70
     1
102
RTVSPropertyOp50
 70
     1
102
RTVSPropertyOp51
 70
     0
102
RTVSPropertyOp52
 70
     0
102
RTVSPropertyOp53
 70
     1
102
RTVSPropertyOp54
 70
     1
102
RTVSPropertyOp55
 70
     1
102
RTVSPropertyOp56
 70
     1
102
RTVSPropertyOp57
 70
     1
102
RTVSPost2010Prop28
280
     0
102
RTVSPost2010PropOp28
 70
     1
102
RTVSPost2010Prop29
280
     1
102
RTVSPost2010PropOp29
 70
     1
102
RTVSPost2010Prop30
280
     1
102
RTVSPost2010PropOp30
 70
     1
102
RTVSPost2010Prop31
280
     0
102
RTVSPost2010PropOp31
 70
     1
102
RTVSPost2010Prop32
280
     0
102
RTVSPost2010PropOp32
 70
     1
102
RTVSPost2010Prop33
280
     0
102
RTVSPost2010PropOp33
 70
     1
102
RTVSPost2010Prop34
280
     0
102
RTVSPost2010PropOp34
 70
     1
102
RTVSPost2010Prop35
280
     0
102
RTVSPost2010PropOp35
 70
     1
102
RTVSPost2010Prop36
280
     0
102
RTVSPost2010PropOp36
 70
     1
102
RTVSPost2010Prop37
 90
       50
102
RTVSPost2010PropOp37
 70
     1
102
RTVSPost2010Prop38
140
0.0
102
RTVSPost2010PropOp38
 70
     1
102
RTVSPost2010Prop39
140
1.0
102
RTVSPost2010PropOp39
 70
     1
102
RTVSPost2010Prop40
 90
        0
102
RTVSPost2010PropOp40
 70
     1
102
RTVSPost2010Prop41ColorIndex
 90
       18
102
RTVSPost2010Prop41ColorRGB
 90
        0
102
RTVSPost2010PropOp41
 70
     1
102
RTVSPost2010Prop42
 90
       50
102
RTVSPost2010PropOp42
 70
     1
102
RTVSPost2010Prop43
 90
        3
102
RTVSPost2010PropOp43
 70
     1
102
RTVSPost2010Prop44ColorIndex
 90
        5
102
RTVSPost2010Prop44ColorRGB
 90
      255
102
RTVSPost2010PropOp44
 70
     1
102
RTVSPost2010Prop45
280
     0
102
RTVSPost2010PropOp45
 70
     1
102
RTVSPost2010Prop46
 90
       50
102
RTVSPost2010PropOp46
 70
     1
102
RTVSPost2010Prop47
 90
       50
102
RTVSPost2010PropOp47
 70
     1
102
RTVSPost2010Prop48
 90
       50
102
RTVSPost2010PropOp48
 70
     1
102
RTVSPost2010Prop49
280
     0
102
RTVSPost2010PropOp49
 70
     1
102
RTVSPost2010Prop50
 90
       50
102
RTVSPost2010PropOp50
 70
     1
102
RTVSPost2010Prop51ColorIndex
 90
      256
102
RTVSPost2010Prop51ColorRGB
 90
-16777216
102
RTVSPost2010PropOp51
 70
     0
102
RTVSPost2010Prop52
140
1.0
102
RTVSPost2010PropOp52
 70
     0
102
RTVSPost2010Prop53
 90
        2
102
RTVSPost2010PropOp53
 70
     1
102
RTVSPost2010Prop54
  1
strokes_ogs.tif
102
RTVSPost2010PropOp54
 70
     1
102
RTVSPost2010Prop55
280
     0
102
RTVSPost2010PropOp55
 70
     1
102
RTVSPost2010Prop56
140
1.0
102
RTVSPost2010PropOp56
 70
     1
102
RTVSPost2010Prop57
140
1.0
102
RTVSPost2010PropOp57
 70
     1
  0
ENDSEC
  0
EOF
