  0
SECTION
  2
HEADER
  9
$ACADVER
  1
AC1018
  9
$ACADMAINTVER
 70
     0
  9
$DWGCODEPAGE
  3
ANSI_936
  9
$INSBASE
 10
0.0
 20
0.0
 30
0.0
  9
$EXTMIN
 10
1.000000000000000E+20
 20
1.000000000000000E+20
 30
1.000000000000000E+20
  9
$EXTMAX
 10
-1.000000000000000E+20
 20
-1.000000000000000E+20
 30
-1.000000000000000E+20
  9
$LIMMIN
 10
0.0
 20
0.0
  9
$LIMMAX
 10
12.0
 20
9.0
  9
$ORTHOMODE
 70
     0
  9
$REGENMODE
 70
     1
  9
$FILLMODE
 70
     1
  9
$QTEXTMODE
 70
     0
  9
$MIRRTEXT
 70
     1
  9
$LTSCALE
 40
1.0
  9
$ATTMODE
 70
     1
  9
$TEXTSIZE
 40
0.2
  9
$TRACEWID
 40
0.05
  9
$TEXTSTYLE
  7
Standard
  9
$CLAYER
  8
0
  9
$CELTYPE
  6
ByLayer
  9
$CECOLOR
 62
   256
  9
$CELTSCALE
 40
1.0
  9
$DISPSILH
 70
     0
  9
$DIMSCALE
 40
1.0
  9
$DIMASZ
 40
0.18
  9
$DIMEXO
 40
0.0625
  9
$DIMDLI
 40
0.38
  9
$DIMRND
 40
0.0
  9
$DIMDLE
 40
0.0
  9
$DIMEXE
 40
0.18
  9
$DIMTP
 40
0.0
  9
$DIMTM
 40
0.0
  9
$DIMTXT
 40
0.18
  9
$DIMCEN
 40
0.09
  9
$DIMTSZ
 40
0.0
  9
$DIMTOL
 70
     0
  9
$DIMLIM
 70
     0
  9
$DIMTIH
 70
     1
  9
$DIMTOH
 70
     1
  9
$DIMSE1
 70
     0
  9
$DIMSE2
 70
     0
  9
$DIMTAD
 70
     0
  9
$DIMZIN
 70
     0
  9
$DIMBLK
  1

  9
$DIMASO
 70
     1
  9
$DIMSHO
 70
     1
  9
$DIMPOST
  1

  9
$DIMAPOST
  1

  9
$DIMALT
 70
     0
  9
$DIMALTD
 70
     2
  9
$DIMALTF
 40
25.4
  9
$DIMLFAC
 40
1.0
  9
$DIMTOFL
 70
     0
  9
$DIMTVP
 40
0.0
  9
$DIMTIX
 70
     0
  9
$DIMSOXD
 70
     0
  9
$DIMSAH
 70
     0
  9
$DIMBLK1
  1

  9
$DIMBLK2
  1

  9
$DIMSTYLE
  2
STANDARD_ACAD
  9
$DIMCLRD
 70
     0
  9
$DIMCLRE
 70
     0
  9
$DIMCLRT
 70
     0
  9
$DIMTFAC
 40
1.0
  9
$DIMGAP
 40
0.09
  9
$DIMJUST
 70
     0
  9
$DIMSD1
 70
     0
  9
$DIMSD2
 70
     0
  9
$DIMTOLJ
 70
     1
  9
$DIMTZIN
 70
     0
  9
$DIMALTZ
 70
     0
  9
$DIMALTTZ
 70
     0
  9
$DIMUPT
 70
     0
  9
$DIMDEC
 70
     4
  9
$DIMTDEC
 70
     4
  9
$DIMALTU
 70
     2
  9
$DIMALTTD
 70
     2
  9
$DIMTXSTY
  7
Standard
  9
$DIMAUNIT
 70
     0
  9
$DIMADEC
 70
     0
  9
$DIMALTRND
 40
0.0
  9
$DIMAZIN
 70
     0
  9
$DIMDSEP
 70
    46
  9
$DIMATFIT
 70
     3
  9
$DIMFRAC
 70
     0
  9
$DIMLDRBLK
  1

  9
$DIMLUNIT
 70
     2
  9
$DIMLWD
 70
    -2
  9
$DIMLWE
 70
    -2
  9
$DIMTMOVE
 70
     2
  9
$LUNITS
 70
     2
  9
$LUPREC
 70
     3
  9
$SKETCHINC
 40
0.1
  9
$FILLETRAD
 40
0.5
  9
$AUNITS
 70
     0
  9
$AUPREC
 70
     0
  9
$MENU
  1
.
  9
$ELEVATION
 40
0.0
  9
$PELEVATION
 40
0.0
  9
$THICKNESS
 40
0.0
  9
$LIMCHECK
 70
     0
  9
$CHAMFERA
 40
0.0
  9
$CHAMFERB
 40
0.0
  9
$CHAMFERC
 40
0.0
  9
$CHAMFERD
 40
0.0
  9
$SKPOLY
 70
     0
  9
$TDCREATE
 40
2458580.696994063
  9
$TDUCREATE
 40
2458580.363660729
  9
$TDUPDATE
 40
2458580.696994109
  9
$TDUUPDATE
 40
2458580.363660776
  9
$TDINDWG
 40
0.0000000116
  9
$TDUSRTIMER
 40
0.0000000116
  9
$USRTIMER
 70
     1
  9
$ANGBASE
 50
0.0
  9
$ANGDIR
 70
     0
  9
$PDMODE
 70
     0
  9
$PDSIZE
 40
0.0
  9
$PLINEWID
 40
0.0
  9
$SPLFRAME
 70
     0
  9
$SPLINETYPE
 70
     6
  9
$SPLINESEGS
 70
     8
  9
$HANDSEED
  5
298
  9
$SURFTAB1
 70
     6
  9
$SURFTAB2
 70
     6
  9
$SURFTYPE
 70
     6
  9
$SURFU
 70
     6
  9
$SURFV
 70
     6
  9
$UCSBASE
  2

  9
$UCSNAME
  2

  9
$UCSORG
 10
0.0
 20
0.0
 30
0.0
  9
$UCSXDIR
 10
1.0
 20
0.0
 30
0.0
  9
$UCSYDIR
 10
0.0
 20
1.0
 30
0.0
  9
$UCSORTHOREF
  2

  9
$UCSORTHOVIEW
 70
     0
  9
$UCSORGTOP
 10
0.0
 20
0.0
 30
0.0
  9
$UCSORGBOTTOM
 10
0.0
 20
0.0
 30
0.0
  9
$UCSORGLEFT
 10
0.0
 20
0.0
 30
0.0
  9
$UCSORGRIGHT
 10
0.0
 20
0.0
 30
0.0
  9
$UCSORGFRONT
 10
0.0
 20
0.0
 30
0.0
  9
$UCSORGBACK
 10
0.0
 20
0.0
 30
0.0
  9
$PUCSBASE
  2

  9
$PUCSNAME
  2

  9
$PUCSORG
 10
0.0
 20
0.0
 30
0.0
  9
$PUCSXDIR
 10
1.0
 20
0.0
 30
0.0
  9
$PUCSYDIR
 10
0.0
 20
1.0
 30
0.0
  9
$PUCSORTHOREF
  2

  9
$PUCSORTHOVIEW
 70
     0
  9
$PUCSORGTOP
 10
0.0
 20
0.0
 30
0.0
  9
$PUCSORGBOTTOM
 10
0.0
 20
0.0
 30
0.0
  9
$PUCSORGLEFT
 10
0.0
 20
0.0
 30
0.0
  9
$PUCSORGRIGHT
 10
0.0
 20
0.0
 30
0.0
  9
$PUCSORGFRONT
 10
0.0
 20
0.0
 30
0.0
  9
$PUCSORGBACK
 10
0.0
 20
0.0
 30
0.0
  9
$USERI1
 70
     0
  9
$USERI2
 70
     0
  9
$USERI3
 70
     0
  9
$USERI4
 70
     0
  9
$USERI5
 70
     0
  9
$USERR1
 40
0.0
  9
$USERR2
 40
0.0
  9
$USERR3
 40
0.0
  9
$USERR4
 40
0.0
  9
$USERR5
 40
0.0
  9
$WORLDVIEW
 70
     1
  9
$SHADEDGE
 70
     3
  9
$SHADEDIF
 70
    70
  9
$TILEMODE
 70
     1
  9
$MAXACTVP
 70
    64
  9
$PINSBASE
 10
0.0
 20
0.0
 30
0.0
  9
$PLIMCHECK
 70
     0
  9
$PEXTMIN
 10
1.000000000000000E+20
 20
1.000000000000000E+20
 30
1.000000000000000E+20
  9
$PEXTMAX
 10
-1.000000000000000E+20
 20
-1.000000000000000E+20
 30
-1.000000000000000E+20
  9
$PLIMMIN
 10
0.0
 20
0.0
  9
$PLIMMAX
 10
12.0
 20
9.0
  9
$UNITMODE
 70
     0
  9
$VISRETAIN
 70
     1
  9
$PLINEGEN
 70
     0
  9
$PSLTSCALE
 70
     1
  9
$TREEDEPTH
 70
  3020
  9
$CMLSTYLE
  2
Standard
  9
$CMLJUST
 70
     0
  9
$CMLSCALE
 40
1.0
  9
$PROXYGRAPHICS
 70
     1
  9
$MEASUREMENT
 70
     0
  9
$CELWEIGHT
370
    -1
  9
$ENDCAPS
280
     0
  9
$JOINSTYLE
280
     0
  9
$LWDISPLAY
290
     0
  9
$INSUNITS
 70
     4
  9
$HYPERLINKBASE
  1

  9
$STYLESHEET
  1

  9
$XEDIT
290
     1
  9
$CEPSNTYPE
380
     0
  9
$PSTYLEMODE
290
     1
  9
$FINGERPRINTGUID
  2
{12d1e7e7-de16-48ca-a9c4-970e85d6f6e9}
  9
$VERSIONGUID
  2
{FAEB1C32-E019-11D5-929B-00C0DF256EC4}
  9
$EXTNAMES
290
     1
  9
$PSVPSCALE
 40
0.0
  9
$OLESTARTUP
290
     0
  9
$SORTENTS
280
   127
  9
$INDEXCTL
280
     0
  9
$HIDETEXT
280
     1
  9
$XCLIPFRAME
290
     0
  9
$HALOGAP
280
     0
  9
$OBSCOLOR
 70
   257
  9
$OBSLTYPE
280
     0
  9
$INTERSECTIONDISPLAY
280
     0
  9
$INTERSECTIONCOLOR
 70
   257
  9
$DIMASSOC
280
     2
  9
$PROJECTNAME
  1

  0
ENDSEC
  0
SECTION
  2
CLASSES
  0
CLASS
  1
ACDBDICTIONARYWDFLT
  2
AcDbDictionaryWithDefault
  3
ObjectDBX Classes
 90
        0
 91
        3
280
     0
281
     0
  0
CLASS
  1
VISUALSTYLE
  2
AcDbVisualStyle
  3
ObjectDBX Classes
 90
     4095
 91
        3
280
     0
281
     0
  0
CLASS
  1
MATERIAL
  2
AcDbMaterial
  3
ObjectDBX Classes
 90
     1153
 91
        3
280
     0
281
     0
  0
CLASS
  1
SCALE
  2
AcDbScale
  3
ObjectDBX Classes
 90
     1153
 91
        3
280
     0
281
     0
  0
CLASS
  1
TABLESTYLE
  2
AcDbTableStyle
  3
ObjectDBX Classes
 90
     4095
 91
        3
280
     0
281
     0
  0
CLASS
  1
MLEADERSTYLE
  2
AcDbMLeaderStyle
  3
ACDB_MLEADERSTYLE_CLASS
 90
     4095
 91
        3
280
     0
281
     0
  0
CLASS
  1
SUN
  2
AcDbSun
  3
SCENEOE
 90
     1153
 91
        3
280
     0
281
     0
  0
CLASS
  1
DICTIONARYVAR
  2
AcDbDictionaryVar
  3
ObjectDBX Classes
 90
        0
 91
        3
280
     0
281
     0
  0
CLASS
  1
CELLSTYLEMAP
  2
AcDbCellStyleMap
  3
ObjectDBX Classes
 90
     1152
 91
        3
280
     0
281
     0
  0
ENDSEC
  0
SECTION
  2
TABLES
  0
TABLE
  2
VPORT
  5
8
102
{ACAD_XDICTIONARY
360
251
102
}
330
0
100
AcDbSymbolTable
 70
     1
  0
VPORT
  5
29
330
8
100
AcDbSymbolTableRecord
100
AcDbViewportTableRecord
  2
*Active
 70
     0
 10
0.0
 20
0.0
 11
1.0
 21
1.0
 12
10.42990654205607
 22
4.5
 13
0.0
 23
0.0
 14
0.5
 24
0.5
 15
0.5
 25
0.5
 16
0.0
 26
0.0
 36
1.0
 17
0.0
 27
0.0
 37
0.0
 40
9.0
 41
1.972972972850329
 42
50.0
 43
0.0
 44
0.0
 50
0.0
 51
0.0
 71
     0
 72
   100
 73
     1
 74
     3
 75
     0
 76
     0
 77
     0
 78
     0
281
     0
 65
     1
110
0.0
120
0.0
130
0.0
111
1.0
121
0.0
131
0.0
112
0.0
122
1.0
132
0.0
 79
     0
146
0.0
  0
ENDTAB
  0
TABLE
  2
LTYPE
  5
5
330
0
100
AcDbSymbolTable
 70
     1
  0
LTYPE
  5
14
330
5
100
AcDbSymbolTableRecord
100
AcDbLinetypeTableRecord
  2
ByBlock
 70
     0
  3

 72
    65
 73
     0
 40
0.0
  0
LTYPE
  5
15
330
5
100
AcDbSymbolTableRecord
100
AcDbLinetypeTableRecord
  2
ByLayer
 70
     0
  3

 72
    65
 73
     0
 40
0.0
  0
LTYPE
  5
16
330
5
100
AcDbSymbolTableRecord
100
AcDbLinetypeTableRecord
  2
Continuous
 70
     0
  3
Solid line
 72
    65
 73
     0
 40
0.0
  0
ENDTAB
  0
TABLE
  2
LAYER
  5
2
330
0
100
AcDbSymbolTable
 70
     2
  0
LAYER
  5
10
330
2
100
AcDbSymbolTableRecord
100
AcDbLayerTableRecord
  2
0
 70
     0
 62
     7
  6
Continuous
370
    -3
390
F
  0
LAYER
  5
6E
330
2
100
AcDbSymbolTableRecord
100
AcDbLayerTableRecord
  2
Make2D$Visible$Curves
 70
     0
 62
    18
420
        0
  6
Continuous
370
    -3
390
F
  0
ENDTAB
  0
TABLE
  2
STYLE
  5
3
330
0
100
AcDbSymbolTable
 70
     1
  0
STYLE
  5
11
330
3
100
AcDbSymbolTableRecord
100
AcDbTextStyleTableRecord
  2
Standard
 70
     0
 40
0.0
 41
1.0
 50
0.0
 71
     0
 42
0.2
  3
txt
  4

  0
ENDTAB
  0
TABLE
  2
VIEW
  5
6
330
0
100
AcDbSymbolTable
 70
     0
  0
ENDTAB
  0
TABLE
  2
UCS
  5
7
330
0
100
AcDbSymbolTable
 70
     0
  0
ENDTAB
  0
TABLE
  2
APPID
  5
9
330
0
100
AcDbSymbolTable
 70
     2
  0
APPID
  5
12
330
9
100
AcDbSymbolTableRecord
100
AcDbRegAppTableRecord
  2
ACAD
 70
     0
  0
APPID
  5
290
330
9
100
AcDbSymbolTableRecord
100
AcDbRegAppTableRecord
  2
ACAD_MLEADERVER
 70
     0
  0
ENDTAB
  0
TABLE
  2
DIMSTYLE
  5
A
330
0
100
AcDbSymbolTable
 70
     1
100
AcDbDimStyleTable
  0
DIMSTYLE
105
27
330
A
100
AcDbSymbolTableRecord
100
AcDbDimStyleTableRecord
  2
STANDARD_ACAD
 70
     0
178
     0
340
11
  0
ENDTAB
  0
TABLE
  2
BLOCK_RECORD
  5
1
330
0
100
AcDbSymbolTable
 70
     1
  0
BLOCK_RECORD
  5
1F
330
1
100
AcDbSymbolTableRecord
100
AcDbBlockTableRecord
  2
*Model_Space
340
22
  0
BLOCK_RECORD
  5
1B
330
1
100
AcDbSymbolTableRecord
100
AcDbBlockTableRecord
  2
*Paper_Space
340
1E
  0
BLOCK_RECORD
  5
23
330
1
100
AcDbSymbolTableRecord
100
AcDbBlockTableRecord
  2
*Paper_Space0
340
26
  0
ENDTAB
  0
ENDSEC
  0
SECTION
  2
BLOCKS
  0
BLOCK
  5
20
330
1F
100
AcDbEntity
  8
0
100
AcDbBlockBegin
  2
*Model_Space
 70
     0
 10
0.0
 20
0.0
 30
0.0
  3
*Model_Space
  1

  0
ENDBLK
  5
21
330
1F
100
AcDbEntity
  8
0
100
AcDbBlockEnd
  0
BLOCK
  5
1C
330
1B
100
AcDbEntity
 67
     1
  8
0
100
AcDbBlockBegin
  2
*Paper_Space
 70
     0
 10
0.0
 20
0.0
 30
0.0
  3
*Paper_Space
  1

  0
ENDBLK
  5
1D
330
1B
100
AcDbEntity
 67
     1
  8
0
100
AcDbBlockEnd
  0
BLOCK
  5
24
330
23
100
AcDbEntity
  8
0
100
AcDbBlockBegin
  2
*Paper_Space0
 70
     0
 10
0.0
 20
0.0
 30
0.0
  3
*Paper_Space0
  1

  0
ENDBLK
  5
25
330
23
100
AcDbEntity
  8
0
100
AcDbBlockEnd
  0
ENDSEC
  0
SECTION
  2
ENTITIES
  0
LINE
  5
6F
330
1F
100
AcDbEntity
  8
Make2D$Visible$Curves
 62
    18
420
        0
370
    -3
100
AcDbLine
 10
398.5000010844208
 20
569.3999999999976
 30
0.0
 11
-398.499998915579
 21
569.3999999999976
 31
0.0
  0
LINE
  5
70
330
1F
100
AcDbEntity
  8
Make2D$Visible$Curves
 62
    18
420
        0
370
    -3
100
AcDbLine
 10
398.5000010844205
 20
290.3999999999976
 30
0.0
 11
-398.4999989155792
 21
290.3999999999976
 31
0.0
  0
LINE
  5
71
330
1F
100
AcDbEntity
  8
Make2D$Visible$Curves
 62
    18
420
        0
370
    -3
100
AcDbLine
 10
383.5000010844205
 20
569.3999999999976
 30
0.0
 11
383.5000010844205
 21
570.4999999999984
 31
0.0
  0
LINE
  5
72
330
1F
100
AcDbEntity
  8
Make2D$Visible$Curves
 62
    18
420
        0
370
    -3
100
AcDbLine
 10
383.5000010844205
 20
288.4996509113857
 30
0.0
 11
383.5000010844205
 21
290.4000509500391
 31
0.0
  0
LINE
  5
73
330
1F
100
AcDbEntity
  8
Make2D$Visible$Curves
 62
    18
420
        0
370
    -3
100
AcDbLine
 10
-383.4999989155792
 20
570.5003259060952
 30
0.0
 11
-383.4999989155792
 21
570.9999999999975
 31
0.0
  0
LINE
  5
74
330
1F
100
AcDbEntity
  8
Make2D$Visible$Curves
 62
    18
420
        0
370
    -3
100
AcDbLine
 10
383.5001223410936
 20
288.0
 30
0.0
 11
399.5002837161742
 21
288.0
 31
0.0
  0
LINE
  5
75
330
1F
100
AcDbEntity
  8
Make2D$Visible$Curves
 62
    18
420
        0
370
    -3
100
AcDbLine
 10
399.5002837161744
 20
288.0
 30
0.0
 11
400.5000010844208
 21
288.0
 31
0.0
  0
LINE
  5
76
330
1F
100
AcDbEntity
  8
Make2D$Visible$Curves
 62
    18
420
        0
370
    -3
100
AcDbLine
 10
383.5000010844205
 20
570.4999999999984
 30
0.0
 11
383.5000010844205
 21
570.999999999998
 31
0.0
  0
LINE
  5
77
330
1F
100
AcDbEntity
  8
Make2D$Visible$Curves
 62
    18
420
        0
370
    -3
100
AcDbLine
 10
383.5000010844205
 20
287.999999999998
 30
0.0
 11
383.5000010844208
 21
288.4996509113857
 31
0.0
  0
LINE
  5
78
330
1F
100
AcDbEntity
  8
Make2D$Visible$Curves
 62
    18
420
        0
370
    -3
100
AcDbLine
 10
383.5000010844205
 20
570.999999999998
 30
0.0
 11
399.5000010844205
 21
570.999999999998
 31
0.0
  0
LINE
  5
79
330
1F
100
AcDbEntity
  8
Make2D$Visible$Curves
 62
    18
420
        0
370
    -3
100
AcDbLine
 10
399.5000010844205
 20
570.999999999998
 30
0.0
 11
399.5000010844205
 21
287.999999999998
 31
0.0
  0
LINE
  5
7A
330
1F
100
AcDbEntity
  8
Make2D$Visible$Curves
 62
    18
420
        0
370
    -3
100
AcDbLine
 10
-383.4999989155792
 20
570.499999999998
 30
0.0
 11
383.5000010844205
 21
570.4999999999984
 31
0.0
  0
LINE
  5
7B
330
1F
100
AcDbEntity
  8
Make2D$Visible$Curves
 62
    18
420
        0
370
    -3
100
AcDbLine
 10
524.4614263022138
 20
509.3708641684717
 30
0.0
 11
529.1256719076825
 21
539.2432034171289
 31
0.0
  0
LINE
  5
7C
330
1F
100
AcDbEntity
  8
Make2D$Visible$Curves
 62
    18
420
        0
370
    -3
100
AcDbLine
 10
529.1256719076825
 20
539.2432034171289
 30
0.0
 11
533.7899175131513
 21
509.3708641684717
 31
0.0
  0
LINE
  5
7D
330
1F
100
AcDbEntity
  8
Make2D$Visible$Curves
 62
    18
420
        0
370
    -3
100
AcDbLine
 10
533.7899175131513
 20
509.3708641684717
 30
0.0
 11
524.4614263022138
 21
509.3708641684717
 31
0.0
  0
LINE
  5
7E
330
1F
100
AcDbEntity
  8
Make2D$Visible$Curves
 62
    18
420
        0
370
    -3
100
AcDbLine
 10
509.9504399740888
 20
531.4985249198145
 30
0.0
 11
509.43219046237
 21
533.7112896598047
 31
0.0
  0
LINE
  5
7F
330
1F
100
AcDbEntity
  8
Make2D$Visible$Curves
 62
    18
420
        0
370
    -3
100
AcDbLine
 10
509.43219046237
 20
533.7112896598047
 30
0.0
 11
508.3956914389325
 21
535.924054399795
 31
0.0
  0
LINE
  5
80
330
1F
100
AcDbEntity
  8
Make2D$Visible$Curves
 62
    18
420
        0
370
    -3
100
AcDbLine
 10
508.3956914389325
 20
535.924054399795
 30
0.0
 11
506.8409429037763
 21
537.0304386771387
 31
0.0
  0
LINE
  5
81
330
1F
100
AcDbEntity
  8
Make2D$Visible$Curves
 62
    18
420
        0
370
    -3
100
AcDbLine
 10
506.8409429037763
 20
537.0304386771387
 30
0.0
 11
503.7314458334638
 21
537.0304386771387
 31
0.0
  0
LINE
  5
82
330
1F
100
AcDbEntity
  8
Make2D$Visible$Curves
 62
    18
420
        0
370
    -3
100
AcDbLine
 10
503.7314458334638
 20
537.0304386771387
 30
0.0
 11
502.1766972983075
 21
535.924054399795
 31
0.0
  0
LINE
  5
83
330
1F
100
AcDbEntity
  8
Make2D$Visible$Curves
 62
    18
420
        0
370
    -3
100
AcDbLine
 10
502.1766972983075
 20
535.924054399795
 30
0.0
 11
500.6219640219404
 21
533.7112896598047
 31
0.0
  0
LINE
  5
84
330
1F
100
AcDbEntity
  8
Make2D$Visible$Curves
 62
    18
420
        0
370
    -3
100
AcDbLine
 10
500.6219640219404
 20
533.7112896598047
 30
0.0
 11
500.1037145102216
 21
530.3921406424707
 31
0.0
  0
LINE
  5
85
330
1F
100
AcDbEntity
  8
Make2D$Visible$Curves
 62
    18
420
        0
370
    -3
100
AcDbLine
 10
500.1037145102216
 20
530.3921406424707
 30
0.0
 11
500.1037145102216
 21
528.1793759024805
 31
0.0
  0
LINE
  5
86
330
1F
100
AcDbEntity
  8
Make2D$Visible$Curves
 62
    18
420
        0
370
    -3
100
AcDbLine
 10
500.1037145102216
 20
528.1793759024805
 30
0.0
 11
500.6219640219404
 21
524.8602268851465
 31
0.0
  0
LINE
  5
87
330
1F
100
AcDbEntity
  8
Make2D$Visible$Curves
 62
    18
420
        0
370
    -3
100
AcDbLine
 10
500.6219640219404
 20
524.8602268851465
 30
0.0
 11
502.1766972983075
 21
522.647458330459
 31
0.0
  0
LINE
  5
88
330
1F
100
AcDbEntity
  8
Make2D$Visible$Curves
 62
    18
420
        0
370
    -3
100
AcDbLine
 10
502.1766972983075
 20
522.647458330459
 30
0.0
 11
503.7314458334638
 21
521.5410778678125
 31
0.0
  0
LINE
  5
89
330
1F
100
AcDbEntity
  8
Make2D$Visible$Curves
 62
    18
420
        0
370
    -3
100
AcDbLine
 10
503.7314458334638
 20
521.5410778678125
 30
0.0
 11
506.8409429037763
 21
521.5410778678125
 31
0.0
  0
LINE
  5
8A
330
1F
100
AcDbEntity
  8
Make2D$Visible$Curves
 62
    18
420
        0
370
    -3
100
AcDbLine
 10
506.8409429037763
 20
521.5410778678125
 30
0.0
 11
509.43219046237
 21
520.4346935904688
 31
0.0
  0
LINE
  5
8B
330
1F
100
AcDbEntity
  8
Make2D$Visible$Curves
 62
    18
420
        0
370
    -3
100
AcDbLine
 10
509.43219046237
 20
520.4346935904688
 30
0.0
 11
511.505188509245
 21
518.2219288504785
 31
0.0
  0
LINE
  5
8C
330
1F
100
AcDbEntity
  8
Make2D$Visible$Curves
 62
    18
420
        0
370
    -3
100
AcDbLine
 10
511.505188509245
 20
518.2219288504785
 30
0.0
 11
513.57818655612
 21
513.7963955558008
 31
0.0
  0
LINE
  5
8D
330
1F
100
AcDbEntity
  8
Make2D$Visible$Curves
 62
    18
420
        0
370
    -3
100
AcDbLine
 10
513.57818655612
 20
513.7963955558008
 30
0.0
 11
514.6146855795575
 21
509.3708641684717
 31
0.0
  0
LINE
  5
8E
330
1F
100
AcDbEntity
  8
Make2D$Visible$Curves
 62
    18
420
        0
370
    -3
100
AcDbLine
 10
514.6146855795575
 20
509.3708641684717
 30
0.0
 11
514.6146855795575
 21
503.8389504111475
 31
0.0
  0
LINE
  5
8F
330
1F
100
AcDbEntity
  8
Make2D$Visible$Curves
 62
    18
420
        0
370
    -3
100
AcDbLine
 10
514.6146855795575
 20
503.8389504111475
 30
0.0
 11
513.57818655612
 21
499.4134171164698
 31
0.0
  0
LINE
  5
90
330
1F
100
AcDbEntity
  8
Make2D$Visible$Curves
 62
    18
420
        0
370
    -3
100
AcDbLine
 10
513.57818655612
 20
499.4134171164698
 30
0.0
 11
511.505188509245
 21
494.9878857291407
 31
0.0
  0
LINE
  5
91
330
1F
100
AcDbEntity
  8
Make2D$Visible$Curves
 62
    18
420
        0
370
    -3
100
AcDbLine
 10
511.505188509245
 20
494.9878857291407
 30
0.0
 11
509.43219046237
 21
492.7751200354761
 31
0.0
  0
LINE
  5
92
330
1F
100
AcDbEntity
  8
Make2D$Visible$Curves
 62
    18
420
        0
370
    -3
100
AcDbLine
 10
509.43219046237
 20
492.7751200354761
 30
0.0
 11
506.8409429037763
 21
491.6687367118067
 31
0.0
  0
LINE
  5
93
330
1F
100
AcDbEntity
  8
Make2D$Visible$Curves
 62
    18
420
        0
370
    -3
100
AcDbLine
 10
506.8409429037763
 20
491.6687367118067
 30
0.0
 11
502.6949468100263
 21
491.6687367118067
 31
0.0
  0
LINE
  5
94
330
1F
100
AcDbEntity
  8
Make2D$Visible$Curves
 62
    18
420
        0
370
    -3
100
AcDbLine
 10
502.6949468100263
 20
491.6687367118067
 30
0.0
 11
500.1037145102216
 21
492.7751200354761
 31
0.0
  0
LINE
  5
95
330
1F
100
AcDbEntity
  8
Make2D$Visible$Curves
 62
    18
420
        0
370
    -3
100
AcDbLine
 10
500.1037145102216
 20
492.7751200354761
 30
0.0
 11
497.5124669516279
 21
496.0942680991358
 31
0.0
  0
LINE
  5
96
330
1F
100
AcDbEntity
  8
Make2D$Visible$Curves
 62
    18
420
        0
370
    -3
100
AcDbLine
 10
497.5124669516279
 20
496.0942680991358
 30
0.0
 11
495.9577184164716
 21
501.6261837638086
 31
0.0
  0
LINE
  5
97
330
1F
100
AcDbEntity
  8
Make2D$Visible$Curves
 62
    18
420
        0
370
    -3
100
AcDbLine
 10
495.9577184164716
 20
501.6261837638086
 30
0.0
 11
495.4394689047529
 21
506.0517151511377
 31
0.0
  0
LINE
  5
98
330
1F
100
AcDbEntity
  8
Make2D$Visible$Curves
 62
    18
420
        0
370
    -3
100
AcDbLine
 10
495.4394689047529
 20
506.0517151511377
 30
0.0
 11
498.5489659750654
 21
506.0517151511377
 31
0.0
  0
LINE
  5
99
330
1F
100
AcDbEntity
  8
Make2D$Visible$Curves
 62
    18
420
        0
370
    -3
100
AcDbLine
 10
498.5489659750654
 20
506.0517151511377
 30
0.0
 11
499.0672154867841
 21
502.7325661338037
 31
0.0
  0
LINE
  5
9A
330
1F
100
AcDbEntity
  8
Make2D$Visible$Curves
 62
    18
420
        0
370
    -3
100
AcDbLine
 10
499.0672154867841
 20
502.7325661338037
 30
0.0
 11
500.6219640219404
 21
499.4134171164698
 31
0.0
  0
LINE
  5
9B
330
1F
100
AcDbEntity
  8
Make2D$Visible$Curves
 62
    18
420
        0
370
    -3
100
AcDbLine
 10
500.6219640219404
 20
499.4134171164698
 30
0.0
 11
502.6949468100263
 21
498.3070347464746
 31
0.0
  0
LINE
  5
9C
330
1F
100
AcDbEntity
  8
Make2D$Visible$Curves
 62
    18
420
        0
370
    -3
100
AcDbLine
 10
502.6949468100263
 20
498.3070347464746
 30
0.0
 11
506.8409429037763
 21
498.3070347464746
 31
0.0
  0
LINE
  5
9D
330
1F
100
AcDbEntity
  8
Make2D$Visible$Curves
 62
    18
420
        0
370
    -3
100
AcDbLine
 10
506.8409429037763
 20
498.3070347464746
 30
0.0
 11
508.9139409506513
 21
499.4134171164698
 31
0.0
  0
LINE
  5
9E
330
1F
100
AcDbEntity
  8
Make2D$Visible$Curves
 62
    18
420
        0
370
    -3
100
AcDbLine
 10
508.9139409506513
 20
499.4134171164698
 30
0.0
 11
510.4686894858075
 21
501.6261837638086
 31
0.0
  0
LINE
  5
9F
330
1F
100
AcDbEntity
  8
Make2D$Visible$Curves
 62
    18
420
        0
370
    -3
100
AcDbLine
 10
510.4686894858075
 20
501.6261837638086
 30
0.0
 11
511.505188509245
 21
504.9453327811426
 31
0.0
  0
LINE
  5
A0
330
1F
100
AcDbEntity
  8
Make2D$Visible$Curves
 62
    18
420
        0
370
    -3
100
AcDbLine
 10
511.505188509245
 20
504.9453327811426
 30
0.0
 11
511.505188509245
 21
508.2644817984766
 31
0.0
  0
LINE
  5
A1
330
1F
100
AcDbEntity
  8
Make2D$Visible$Curves
 62
    18
420
        0
370
    -3
100
AcDbLine
 10
511.505188509245
 20
508.2644817984766
 30
0.0
 11
510.4686894858075
 21
511.5836308158106
 31
0.0
  0
LINE
  5
A2
330
1F
100
AcDbEntity
  8
Make2D$Visible$Curves
 62
    18
420
        0
370
    -3
100
AcDbLine
 10
510.4686894858075
 20
511.5836308158106
 30
0.0
 11
508.9139409506513
 21
513.7963955558008
 31
0.0
  0
LINE
  5
A3
330
1F
100
AcDbEntity
  8
Make2D$Visible$Curves
 62
    18
420
        0
370
    -3
100
AcDbLine
 10
508.9139409506513
 20
513.7963955558008
 30
0.0
 11
506.8409429037763
 21
514.9027798331446
 31
0.0
  0
LINE
  5
A4
330
1F
100
AcDbEntity
  8
Make2D$Visible$Curves
 62
    18
420
        0
370
    -3
100
AcDbLine
 10
506.8409429037763
 20
514.9027798331446
 30
0.0
 11
503.7314458334638
 21
514.9027798331446
 31
0.0
  0
LINE
  5
A5
330
1F
100
AcDbEntity
  8
Make2D$Visible$Curves
 62
    18
420
        0
370
    -3
100
AcDbLine
 10
503.7314458334638
 20
514.9027798331446
 30
0.0
 11
501.6584477865888
 21
516.0091641104883
 31
0.0
  0
LINE
  5
A6
330
1F
100
AcDbEntity
  8
Make2D$Visible$Curves
 62
    18
420
        0
370
    -3
100
AcDbLine
 10
501.6584477865888
 20
516.0091641104883
 30
0.0
 11
499.5854649985029
 21
518.2219288504785
 31
0.0
  0
LINE
  5
A7
330
1F
100
AcDbEntity
  8
Make2D$Visible$Curves
 62
    18
420
        0
370
    -3
100
AcDbLine
 10
499.5854649985029
 20
518.2219288504785
 30
0.0
 11
497.5124669516279
 21
522.647458330459
 31
0.0
  0
LINE
  5
A8
330
1F
100
AcDbEntity
  8
Make2D$Visible$Curves
 62
    18
420
        0
370
    -3
100
AcDbLine
 10
497.5124669516279
 20
522.647458330459
 30
0.0
 11
496.9942174399091
 21
527.0729916251368
 31
0.0
  0
LINE
  5
A9
330
1F
100
AcDbEntity
  8
Make2D$Visible$Curves
 62
    18
420
        0
370
    -3
100
AcDbLine
 10
496.9942174399091
 20
527.0729916251368
 30
0.0
 11
496.9942174399091
 21
531.4985249198145
 31
0.0
  0
LINE
  5
AA
330
1F
100
AcDbEntity
  8
Make2D$Visible$Curves
 62
    18
420
        0
370
    -3
100
AcDbLine
 10
496.9942174399091
 20
531.4985249198145
 30
0.0
 11
497.5124669516279
 21
535.924054399795
 31
0.0
  0
LINE
  5
AB
330
1F
100
AcDbEntity
  8
Make2D$Visible$Curves
 62
    18
420
        0
370
    -3
100
AcDbLine
 10
497.5124669516279
 20
535.924054399795
 30
0.0
 11
499.5854649985029
 21
540.3495876944727
 31
0.0
  0
LINE
  5
AC
330
1F
100
AcDbEntity
  8
Make2D$Visible$Curves
 62
    18
420
        0
370
    -3
100
AcDbLine
 10
499.5854649985029
 20
540.3495876944727
 30
0.0
 11
501.6584477865888
 21
542.5623524344629
 31
0.0
  0
LINE
  5
AD
330
1F
100
AcDbEntity
  8
Make2D$Visible$Curves
 62
    18
420
        0
370
    -3
100
AcDbLine
 10
501.6584477865888
 20
542.5623524344629
 30
0.0
 11
503.7314458334638
 21
543.6687367118067
 31
0.0
  0
LINE
  5
AE
330
1F
100
AcDbEntity
  8
Make2D$Visible$Curves
 62
    18
420
        0
370
    -3
100
AcDbLine
 10
503.7314458334638
 20
543.6687367118067
 30
0.0
 11
506.3226933920575
 21
543.6687367118067
 31
0.0
  0
LINE
  5
AF
330
1F
100
AcDbEntity
  8
Make2D$Visible$Curves
 62
    18
420
        0
370
    -3
100
AcDbLine
 10
506.3226933920575
 20
543.6687367118067
 30
0.0
 11
508.9139409506513
 21
542.5623524344629
 31
0.0
  0
LINE
  5
B0
330
1F
100
AcDbEntity
  8
Make2D$Visible$Curves
 62
    18
420
        0
370
    -3
100
AcDbLine
 10
508.9139409506513
 20
542.5623524344629
 30
0.0
 11
510.9869389975263
 21
539.2432034171289
 31
0.0
  0
LINE
  5
B1
330
1F
100
AcDbEntity
  8
Make2D$Visible$Curves
 62
    18
420
        0
370
    -3
100
AcDbLine
 10
510.9869389975263
 20
539.2432034171289
 30
0.0
 11
512.5416875326825
 21
534.8176739371485
 31
0.0
  0
LINE
  5
B2
330
1F
100
AcDbEntity
  8
Make2D$Visible$Curves
 62
    18
420
        0
370
    -3
100
AcDbLine
 10
512.5416875326825
 20
534.8176739371485
 30
0.0
 11
513.0599370444013
 21
531.4985249198145
 31
0.0
  0
LINE
  5
B3
330
1F
100
AcDbEntity
  8
Make2D$Visible$Curves
 62
    18
420
        0
370
    -3
100
AcDbLine
 10
513.0599370444013
 20
531.4985249198145
 30
0.0
 11
509.9504399740888
 21
531.4985249198145
 31
0.0
  0
LINE
  5
B4
330
1F
100
AcDbEntity
  8
Make2D$Visible$Curves
 62
    18
420
        0
370
    -3
100
AcDbLine
 10
531.1986699545575
 20
543.6687367118067
 30
0.0
 11
539.490654512663
 21
491.6687367118067
 31
0.0
  0
LINE
  5
B5
330
1F
100
AcDbEntity
  8
Make2D$Visible$Curves
 62
    18
420
        0
370
    -3
100
AcDbLine
 10
539.490654512663
 20
491.6687367118067
 30
0.0
 11
536.3811574423505
 21
491.6687367118067
 31
0.0
  0
LINE
  5
B6
330
1F
100
AcDbEntity
  8
Make2D$Visible$Curves
 62
    18
420
        0
370
    -3
100
AcDbLine
 10
536.3811574423505
 20
491.6687367118067
 30
0.0
 11
534.30816702487
 21
504.9453327811426
 31
0.0
  0
LINE
  5
B7
330
1F
100
AcDbEntity
  8
Make2D$Visible$Curves
 62
    18
420
        0
370
    -3
100
AcDbLine
 10
534.30816702487
 20
504.9453327811426
 30
0.0
 11
523.943176790495
 21
504.9453327811426
 31
0.0
  0
LINE
  5
B8
330
1F
100
AcDbEntity
  8
Make2D$Visible$Curves
 62
    18
420
        0
370
    -3
100
AcDbLine
 10
523.943176790495
 20
504.9453327811426
 30
0.0
 11
521.87017874362
 21
491.6687367118067
 31
0.0
  0
LINE
  5
B9
330
1F
100
AcDbEntity
  8
Make2D$Visible$Curves
 62
    18
420
        0
370
    -3
100
AcDbLine
 10
521.87017874362
 20
491.6687367118067
 30
0.0
 11
518.7606816733075
 21
491.6687367118067
 31
0.0
  0
LINE
  5
BA
330
1F
100
AcDbEntity
  8
Make2D$Visible$Curves
 62
    18
420
        0
370
    -3
100
AcDbLine
 10
518.7606816733075
 20
491.6687367118067
 30
0.0
 11
527.0526738608075
 21
543.6687367118067
 31
0.0
  0
LINE
  5
BB
330
1F
100
AcDbEntity
  8
Make2D$Visible$Curves
 62
    18
420
        0
370
    -3
100
AcDbLine
 10
527.0526738608075
 20
543.6687367118067
 30
0.0
 11
531.1986699545575
 21
543.6687367118067
 31
0.0
  0
LINE
  5
BC
330
1F
100
AcDbEntity
  8
Make2D$Visible$Curves
 62
    18
420
        0
370
    -3
100
AcDbLine
 10
563.8483739340497
 20
504.9453327811426
 30
0.0
 11
563.330124422331
 21
499.4134171164698
 31
0.0
  0
LINE
  5
BD
330
1F
100
AcDbEntity
  8
Make2D$Visible$Curves
 62
    18
420
        0
370
    -3
100
AcDbLine
 10
563.330124422331
 20
499.4134171164698
 30
0.0
 11
561.257126375456
 21
494.9878857291407
 31
0.0
  0
LINE
  5
BE
330
1F
100
AcDbEntity
  8
Make2D$Visible$Curves
 62
    18
420
        0
370
    -3
100
AcDbLine
 10
561.257126375456
 20
494.9878857291407
 30
0.0
 11
559.184128328581
 21
492.7751200354761
 31
0.0
  0
LINE
  5
BF
330
1F
100
AcDbEntity
  8
Make2D$Visible$Curves
 62
    18
420
        0
370
    -3
100
AcDbLine
 10
559.184128328581
 20
492.7751200354761
 30
0.0
 11
556.5928883993818
 21
491.6687367118067
 31
0.0
  0
LINE
  5
C0
330
1F
100
AcDbEntity
  8
Make2D$Visible$Curves
 62
    18
420
        0
370
    -3
100
AcDbLine
 10
556.5928883993818
 20
491.6687367118067
 30
0.0
 11
551.928642793913
 21
491.6687367118067
 31
0.0
  0
LINE
  5
C1
330
1F
100
AcDbEntity
  8
Make2D$Visible$Curves
 62
    18
420
        0
370
    -3
100
AcDbLine
 10
551.928642793913
 20
491.6687367118067
 30
0.0
 11
549.3373952353193
 21
492.7751200354761
 31
0.0
  0
LINE
  5
C2
330
1F
100
AcDbEntity
  8
Make2D$Visible$Curves
 62
    18
420
        0
370
    -3
100
AcDbLine
 10
549.3373952353193
 20
492.7751200354761
 30
0.0
 11
547.2643971884443
 21
494.9878857291407
 31
0.0
  0
LINE
  5
C3
330
1F
100
AcDbEntity
  8
Make2D$Visible$Curves
 62
    18
420
        0
370
    -3
100
AcDbLine
 10
547.2643971884443
 20
494.9878857291407
 30
0.0
 11
545.1913991415693
 21
499.4134171164698
 31
0.0
  0
LINE
  5
C4
330
1F
100
AcDbEntity
  8
Make2D$Visible$Curves
 62
    18
420
        0
370
    -3
100
AcDbLine
 10
545.1913991415693
 20
499.4134171164698
 30
0.0
 11
544.1549001181318
 21
503.8389504111475
 31
0.0
  0
LINE
  5
C5
330
1F
100
AcDbEntity
  8
Make2D$Visible$Curves
 62
    18
420
        0
370
    -3
100
AcDbLine
 10
544.1549001181318
 20
503.8389504111475
 30
0.0
 11
543.636650606413
 21
509.3708641684717
 31
0.0
  0
LINE
  5
C6
330
1F
100
AcDbEntity
  8
Make2D$Visible$Curves
 62
    18
420
        0
370
    -3
100
AcDbLine
 10
543.636650606413
 20
509.3708641684717
 30
0.0
 11
543.636650606413
 21
525.966607347793
 31
0.0
  0
LINE
  5
C7
330
1F
100
AcDbEntity
  8
Make2D$Visible$Curves
 62
    18
420
        0
370
    -3
100
AcDbLine
 10
543.636650606413
 20
525.966607347793
 30
0.0
 11
544.1549001181318
 21
531.4985249198145
 31
0.0
  0
LINE
  5
C8
330
1F
100
AcDbEntity
  8
Make2D$Visible$Curves
 62
    18
420
        0
370
    -3
100
AcDbLine
 10
544.1549001181318
 20
531.4985249198145
 30
0.0
 11
545.1913991415693
 21
535.924054399795
 31
0.0
  0
LINE
  5
C9
330
1F
100
AcDbEntity
  8
Make2D$Visible$Curves
 62
    18
420
        0
370
    -3
100
AcDbLine
 10
545.1913991415693
 20
535.924054399795
 30
0.0
 11
547.2643971884443
 21
540.3495876944727
 31
0.0
  0
LINE
  5
CA
330
1F
100
AcDbEntity
  8
Make2D$Visible$Curves
 62
    18
420
        0
370
    -3
100
AcDbLine
 10
547.2643971884443
 20
540.3495876944727
 30
0.0
 11
549.3373952353193
 21
542.5623524344629
 31
0.0
  0
LINE
  5
CB
330
1F
100
AcDbEntity
  8
Make2D$Visible$Curves
 62
    18
420
        0
370
    -3
100
AcDbLine
 10
549.3373952353193
 20
542.5623524344629
 30
0.0
 11
551.928642793913
 21
543.6687367118067
 31
0.0
  0
LINE
  5
CC
330
1F
100
AcDbEntity
  8
Make2D$Visible$Curves
 62
    18
420
        0
370
    -3
100
AcDbLine
 10
551.928642793913
 20
543.6687367118067
 30
0.0
 11
556.5928883993818
 21
543.6687367118067
 31
0.0
  0
LINE
  5
CD
330
1F
100
AcDbEntity
  8
Make2D$Visible$Curves
 62
    18
420
        0
370
    -3
100
AcDbLine
 10
556.5928883993818
 20
543.6687367118067
 30
0.0
 11
559.184128328581
 21
542.5623524344629
 31
0.0
  0
LINE
  5
CE
330
1F
100
AcDbEntity
  8
Make2D$Visible$Curves
 62
    18
420
        0
370
    -3
100
AcDbLine
 10
559.184128328581
 20
542.5623524344629
 30
0.0
 11
561.257126375456
 21
540.3495876944727
 31
0.0
  0
LINE
  5
CF
330
1F
100
AcDbEntity
  8
Make2D$Visible$Curves
 62
    18
420
        0
370
    -3
100
AcDbLine
 10
561.257126375456
 20
540.3495876944727
 30
0.0
 11
563.330124422331
 21
535.924054399795
 31
0.0
  0
LINE
  5
D0
330
1F
100
AcDbEntity
  8
Make2D$Visible$Curves
 62
    18
420
        0
370
    -3
100
AcDbLine
 10
563.330124422331
 20
535.924054399795
 30
0.0
 11
563.8483739340497
 21
530.3921406424707
 31
0.0
  0
LINE
  5
D1
330
1F
100
AcDbEntity
  8
Make2D$Visible$Curves
 62
    18
420
        0
370
    -3
100
AcDbLine
 10
563.8483739340497
 20
530.3921406424707
 30
0.0
 11
560.7388768637372
 21
530.3921406424707
 31
0.0
  0
LINE
  5
D2
330
1F
100
AcDbEntity
  8
Make2D$Visible$Curves
 62
    18
420
        0
370
    -3
100
AcDbLine
 10
560.7388768637372
 20
530.3921406424707
 30
0.0
 11
560.2206273520185
 21
533.7112896598047
 31
0.0
  0
LINE
  5
D3
330
1F
100
AcDbEntity
  8
Make2D$Visible$Curves
 62
    18
420
        0
370
    -3
100
AcDbLine
 10
560.2206273520185
 20
533.7112896598047
 30
0.0
 11
558.6658788168622
 21
535.924054399795
 31
0.0
  0
LINE
  5
D4
330
1F
100
AcDbEntity
  8
Make2D$Visible$Curves
 62
    18
420
        0
370
    -3
100
AcDbLine
 10
558.6658788168622
 20
535.924054399795
 30
0.0
 11
556.5928883993818
 21
537.0304386771387
 31
0.0
  0
LINE
  5
D5
330
1F
100
AcDbEntity
  8
Make2D$Visible$Curves
 62
    18
420
        0
370
    -3
100
AcDbLine
 10
556.5928883993818
 20
537.0304386771387
 30
0.0
 11
551.928642793913
 21
537.0304386771387
 31
0.0
  0
LINE
  5
D6
330
1F
100
AcDbEntity
  8
Make2D$Visible$Curves
 62
    18
420
        0
370
    -3
100
AcDbLine
 10
551.928642793913
 20
537.0304386771387
 30
0.0
 11
549.855644747038
 21
535.924054399795
 31
0.0
  0
LINE
  5
D7
330
1F
100
AcDbEntity
  8
Make2D$Visible$Curves
 62
    18
420
        0
370
    -3
100
AcDbLine
 10
549.855644747038
 20
535.924054399795
 30
0.0
 11
548.3008962118818
 21
533.7112896598047
 31
0.0
  0
LINE
  5
D8
330
1F
100
AcDbEntity
  8
Make2D$Visible$Curves
 62
    18
420
        0
370
    -3
100
AcDbLine
 10
548.3008962118818
 20
533.7112896598047
 30
0.0
 11
547.2643971884443
 21
530.3921406424707
 31
0.0
  0
LINE
  5
D9
330
1F
100
AcDbEntity
  8
Make2D$Visible$Curves
 62
    18
420
        0
370
    -3
100
AcDbLine
 10
547.2643971884443
 20
530.3921406424707
 30
0.0
 11
546.7461476767255
 21
525.966607347793
 31
0.0
  0
LINE
  5
DA
330
1F
100
AcDbEntity
  8
Make2D$Visible$Curves
 62
    18
420
        0
370
    -3
100
AcDbLine
 10
546.7461476767255
 20
525.966607347793
 30
0.0
 11
546.7461476767255
 21
509.3708641684717
 31
0.0
  0
LINE
  5
DB
330
1F
100
AcDbEntity
  8
Make2D$Visible$Curves
 62
    18
420
        0
370
    -3
100
AcDbLine
 10
546.7461476767255
 20
509.3708641684717
 30
0.0
 11
547.2643971884443
 21
504.9453327811426
 31
0.0
  0
LINE
  5
DC
330
1F
100
AcDbEntity
  8
Make2D$Visible$Curves
 62
    18
420
        0
370
    -3
100
AcDbLine
 10
547.2643971884443
 20
504.9453327811426
 30
0.0
 11
548.3008962118818
 21
501.6261837638086
 31
0.0
  0
LINE
  5
DD
330
1F
100
AcDbEntity
  8
Make2D$Visible$Curves
 62
    18
420
        0
370
    -3
100
AcDbLine
 10
548.3008962118818
 20
501.6261837638086
 30
0.0
 11
549.855644747038
 21
499.4134171164698
 31
0.0
  0
LINE
  5
DE
330
1F
100
AcDbEntity
  8
Make2D$Visible$Curves
 62
    18
420
        0
370
    -3
100
AcDbLine
 10
549.855644747038
 20
499.4134171164698
 30
0.0
 11
551.928642793913
 21
498.3070347464746
 31
0.0
  0
LINE
  5
DF
330
1F
100
AcDbEntity
  8
Make2D$Visible$Curves
 62
    18
420
        0
370
    -3
100
AcDbLine
 10
551.928642793913
 20
498.3070347464746
 30
0.0
 11
556.5928883993818
 21
498.3070347464746
 31
0.0
  0
LINE
  5
E0
330
1F
100
AcDbEntity
  8
Make2D$Visible$Curves
 62
    18
420
        0
370
    -3
100
AcDbLine
 10
556.5928883993818
 20
498.3070347464746
 30
0.0
 11
558.6658788168622
 21
499.4134171164698
 31
0.0
  0
LINE
  5
E1
330
1F
100
AcDbEntity
  8
Make2D$Visible$Curves
 62
    18
420
        0
370
    -3
100
AcDbLine
 10
558.6658788168622
 20
499.4134171164698
 30
0.0
 11
560.2206273520185
 21
501.6261837638086
 31
0.0
  0
LINE
  5
E2
330
1F
100
AcDbEntity
  8
Make2D$Visible$Curves
 62
    18
420
        0
370
    -3
100
AcDbLine
 10
560.2206273520185
 20
501.6261837638086
 30
0.0
 11
560.7388768637372
 21
504.9453327811426
 31
0.0
  0
LINE
  5
E3
330
1F
100
AcDbEntity
  8
Make2D$Visible$Curves
 62
    18
420
        0
370
    -3
100
AcDbLine
 10
560.7388768637372
 20
504.9453327811426
 30
0.0
 11
563.8483739340497
 21
504.9453327811426
 31
0.0
  0
LINE
  5
E4
330
1F
100
AcDbEntity
  8
Make2D$Visible$Curves
 62
    18
420
        0
370
    -3
100
AcDbLine
 10
571.1038670981122
 20
491.6687367118067
 30
0.0
 11
567.9943700277997
 21
491.6687367118067
 31
0.0
  0
LINE
  5
E5
330
1F
100
AcDbEntity
  8
Make2D$Visible$Curves
 62
    18
420
        0
370
    -3
100
AcDbLine
 10
567.9943700277997
 20
491.6687367118067
 30
0.0
 11
567.9943700277997
 21
543.6687367118067
 31
0.0
  0
LINE
  5
E6
330
1F
100
AcDbEntity
  8
Make2D$Visible$Curves
 62
    18
420
        0
370
    -3
100
AcDbLine
 10
567.9943700277997
 20
543.6687367118067
 30
0.0
 11
571.1038670981122
 21
543.6687367118067
 31
0.0
  0
LINE
  5
E7
330
1F
100
AcDbEntity
  8
Make2D$Visible$Curves
 62
    18
420
        0
370
    -3
100
AcDbLine
 10
571.1038670981122
 20
543.6687367118067
 30
0.0
 11
571.1038670981122
 21
522.647458330459
 31
0.0
  0
LINE
  5
E8
330
1F
100
AcDbEntity
  8
Make2D$Visible$Curves
 62
    18
420
        0
370
    -3
100
AcDbLine
 10
571.1038670981122
 20
522.647458330459
 30
0.0
 11
585.6148457968427
 21
522.647458330459
 31
0.0
  0
LINE
  5
E9
330
1F
100
AcDbEntity
  8
Make2D$Visible$Curves
 62
    18
420
        0
370
    -3
100
AcDbLine
 10
585.6148457968427
 20
522.647458330459
 30
0.0
 11
585.6148457968427
 21
543.6687367118067
 31
0.0
  0
LINE
  5
EA
330
1F
100
AcDbEntity
  8
Make2D$Visible$Curves
 62
    18
420
        0
370
    -3
100
AcDbLine
 10
585.6148457968427
 20
543.6687367118067
 30
0.0
 11
588.7243428671552
 21
543.6687367118067
 31
0.0
  0
LINE
  5
EB
330
1F
100
AcDbEntity
  8
Make2D$Visible$Curves
 62
    18
420
        0
370
    -3
100
AcDbLine
 10
588.7243428671552
 20
543.6687367118067
 30
0.0
 11
588.7243428671552
 21
491.6687367118067
 31
0.0
  0
LINE
  5
EC
330
1F
100
AcDbEntity
  8
Make2D$Visible$Curves
 62
    18
420
        0
370
    -3
100
AcDbLine
 10
588.7243428671552
 20
491.6687367118067
 30
0.0
 11
585.6148457968427
 21
491.6687367118067
 31
0.0
  0
LINE
  5
ED
330
1F
100
AcDbEntity
  8
Make2D$Visible$Curves
 62
    18
420
        0
370
    -3
100
AcDbLine
 10
585.6148457968427
 20
491.6687367118067
 30
0.0
 11
585.6148457968427
 21
516.0091641104883
 31
0.0
  0
LINE
  5
EE
330
1F
100
AcDbEntity
  8
Make2D$Visible$Curves
 62
    18
420
        0
370
    -3
100
AcDbLine
 10
585.6148457968427
 20
516.0091641104883
 30
0.0
 11
571.1038670981122
 21
516.0091641104883
 31
0.0
  0
LINE
  5
EF
330
1F
100
AcDbEntity
  8
Make2D$Visible$Curves
 62
    18
420
        0
370
    -3
100
AcDbLine
 10
571.1038670981122
 20
516.0091641104883
 30
0.0
 11
571.1038670981122
 21
491.6687367118067
 31
0.0
  0
LINE
  5
F0
330
1F
100
AcDbEntity
  8
Make2D$Visible$Curves
 62
    18
420
        0
370
    -3
100
AcDbLine
 10
611.5273137533857
 20
498.3070347464746
 30
0.0
 11
611.5273137533857
 21
491.6687367118067
 31
0.0
  0
LINE
  5
F1
330
1F
100
AcDbEntity
  8
Make2D$Visible$Curves
 62
    18
420
        0
370
    -3
100
AcDbLine
 10
611.5273137533857
 20
491.6687367118067
 30
0.0
 11
592.8703389609052
 21
491.6687367118067
 31
0.0
  0
LINE
  5
F2
330
1F
100
AcDbEntity
  8
Make2D$Visible$Curves
 62
    18
420
        0
370
    -3
100
AcDbLine
 10
592.8703389609052
 20
491.6687367118067
 30
0.0
 11
592.8703389609052
 21
543.6687367118067
 31
0.0
  0
LINE
  5
F3
330
1F
100
AcDbEntity
  8
Make2D$Visible$Curves
 62
    18
420
        0
370
    -3
100
AcDbLine
 10
592.8703389609052
 20
543.6687367118067
 30
0.0
 11
611.5273137533857
 21
543.6687367118067
 31
0.0
  0
LINE
  5
F4
330
1F
100
AcDbEntity
  8
Make2D$Visible$Curves
 62
    18
420
        0
370
    -3
100
AcDbLine
 10
611.5273137533857
 20
543.6687367118067
 30
0.0
 11
611.5273137533857
 21
537.0304386771387
 31
0.0
  0
LINE
  5
F5
330
1F
100
AcDbEntity
  8
Make2D$Visible$Curves
 62
    18
420
        0
370
    -3
100
AcDbLine
 10
611.5273137533857
 20
537.0304386771387
 30
0.0
 11
595.9798322165204
 21
537.0304386771387
 31
0.0
  0
LINE
  5
F6
330
1F
100
AcDbEntity
  8
Make2D$Visible$Curves
 62
    18
420
        0
370
    -3
100
AcDbLine
 10
595.9798322165204
 20
537.0304386771387
 30
0.0
 11
595.9798322165204
 21
522.647458330459
 31
0.0
  0
LINE
  5
F7
330
1F
100
AcDbEntity
  8
Make2D$Visible$Curves
 62
    18
420
        0
370
    -3
100
AcDbLine
 10
595.9798322165204
 20
522.647458330459
 30
0.0
 11
609.4543157065107
 21
522.647458330459
 31
0.0
  0
LINE
  5
F8
330
1F
100
AcDbEntity
  8
Make2D$Visible$Curves
 62
    18
420
        0
370
    -3
100
AcDbLine
 10
609.4543157065107
 20
522.647458330459
 30
0.0
 11
609.4543157065107
 21
516.0091641104883
 31
0.0
  0
LINE
  5
F9
330
1F
100
AcDbEntity
  8
Make2D$Visible$Curves
 62
    18
420
        0
370
    -3
100
AcDbLine
 10
609.4543157065107
 20
516.0091641104883
 30
0.0
 11
595.9798322165204
 21
516.0091641104883
 31
0.0
  0
LINE
  5
FA
330
1F
100
AcDbEntity
  8
Make2D$Visible$Curves
 62
    18
420
        0
370
    -3
100
AcDbLine
 10
595.9798322165204
 20
516.0091641104883
 30
0.0
 11
595.9798322165204
 21
498.3070347464746
 31
0.0
  0
LINE
  5
FB
330
1F
100
AcDbEntity
  8
Make2D$Visible$Curves
 62
    18
420
        0
370
    -3
100
AcDbLine
 10
595.9798322165204
 20
498.3070347464746
 30
0.0
 11
611.5273137533857
 21
498.3070347464746
 31
0.0
  0
LINE
  5
FC
330
1F
100
AcDbEntity
  8
Make2D$Visible$Curves
 62
    18
420
        0
370
    -3
100
AcDbLine
 10
635.3667836630536
 20
543.6687367118067
 30
0.0
 11
635.3667836630536
 21
538.1368229544825
 31
0.0
  0
LINE
  5
FD
330
1F
100
AcDbEntity
  8
Make2D$Visible$Curves
 62
    18
420
        0
370
    -3
100
AcDbLine
 10
635.3667836630536
 20
538.1368229544825
 30
0.0
 11
627.0747933829023
 21
538.1368229544825
 31
0.0
  0
LINE
  5
FE
330
1F
100
AcDbEntity
  8
Make2D$Visible$Curves
 62
    18
420
        0
370
    -3
100
AcDbLine
 10
627.0747933829023
 20
538.1368229544825
 30
0.0
 11
627.0747933829023
 21
491.6687367118067
 31
0.0
  0
LINE
  5
FF
330
1F
100
AcDbEntity
  8
Make2D$Visible$Curves
 62
    18
420
        0
370
    -3
100
AcDbLine
 10
627.0747933829023
 20
491.6687367118067
 30
0.0
 11
623.9652982199384
 21
491.6687367118067
 31
0.0
  0
LINE
  5
100
330
1F
100
AcDbEntity
  8
Make2D$Visible$Curves
 62
    18
420
        0
370
    -3
100
AcDbLine
 10
623.9652982199384
 20
491.6687367118067
 30
0.0
 11
623.9652982199384
 21
538.1368229544825
 31
0.0
  0
LINE
  5
101
330
1F
100
AcDbEntity
  8
Make2D$Visible$Curves
 62
    18
420
        0
370
    -3
100
AcDbLine
 10
623.9652982199384
 20
538.1368229544825
 30
0.0
 11
615.6733098471357
 21
538.1368229544825
 31
0.0
  0
LINE
  5
102
330
1F
100
AcDbEntity
  8
Make2D$Visible$Curves
 62
    18
420
        0
370
    -3
100
AcDbLine
 10
615.6733098471357
 20
538.1368229544825
 30
0.0
 11
615.6733098471357
 21
543.6687367118067
 31
0.0
  0
LINE
  5
103
330
1F
100
AcDbEntity
  8
Make2D$Visible$Curves
 62
    18
420
        0
370
    -3
100
AcDbLine
 10
615.6733098471357
 20
543.6687367118067
 30
0.0
 11
635.3667836630536
 21
543.6687367118067
 31
0.0
  0
LINE
  5
104
330
1F
100
AcDbEntity
  8
Make2D$Visible$Curves
 62
    18
420
        0
370
    -3
100
AcDbLine
 10
482.1024632895185
 20
557.6687367118067
 30
0.0
 11
482.1024632895185
 21
477.6687367118067
 31
0.0
  0
LINE
  5
105
330
1F
100
AcDbEntity
  8
Make2D$Visible$Curves
 62
    18
420
        0
370
    -3
100
AcDbLine
 10
652.1024632895185
 20
557.6687367118067
 30
0.0
 11
482.1024632895185
 21
557.6687367118067
 31
0.0
  0
LINE
  5
106
330
1F
100
AcDbEntity
  8
Make2D$Visible$Curves
 62
    18
420
        0
370
    -3
100
AcDbLine
 10
652.1024632895185
 20
477.6687367118067
 30
0.0
 11
652.1024632895185
 21
557.6687367118067
 31
0.0
  0
LINE
  5
107
330
1F
100
AcDbEntity
  8
Make2D$Visible$Curves
 62
    18
420
        0
370
    -3
100
AcDbLine
 10
482.1024632895185
 20
477.6687367118067
 30
0.0
 11
652.1024632895185
 21
477.6687367118067
 31
0.0
  0
LINE
  5
108
330
1F
100
AcDbEntity
  8
Make2D$Visible$Curves
 62
    18
420
        0
370
    -3
100
AcDbLine
 10
-383.4999989155792
 20
569.3999999999975
 30
0.0
 11
-383.4999989155792
 21
570.5003259060952
 31
0.0
  0
ARC
  5
109
330
1F
100
AcDbEntity
  8
Make2D$Visible$Curves
 62
    18
420
        0
370
    -3
100
AcDbCircle
 10
-96.0000010844208
 20
320.3999999999976
 30
0.0
 40
2.499999999999972
210
0.0
220
0.0
230
-1.0
100
AcDbArc
 50
180.0
 51
0.0
  0
ARC
  5
10A
330
1F
100
AcDbEntity
  8
Make2D$Visible$Curves
 62
    18
420
        0
370
    -3
100
AcDbCircle
 10
95.99999891557923
 20
320.3999999999976
 30
0.0
 40
2.5
210
0.0
220
0.0
230
-1.0
100
AcDbArc
 50
180.0
 51
0.0
  0
LINE
  5
10B
330
1F
100
AcDbEntity
  8
Make2D$Visible$Curves
 62
    18
420
        0
370
    -3
100
AcDbLine
 10
398.5000010844208
 20
569.3999999999976
 30
0.0
 11
398.5000010844205
 21
290.3999999999976
 31
0.0
  0
LINE
  5
10C
330
1F
100
AcDbEntity
  8
Make2D$Visible$Curves
 62
    18
420
        0
370
    -3
100
AcDbLine
 10
-398.499998915579
 20
569.3999999999976
 30
0.0
 11
-398.4999989155792
 21
290.3999999999976
 31
0.0
  0
ARC
  5
10D
330
1F
100
AcDbEntity
  8
Make2D$Visible$Curves
 62
    18
420
        0
370
    -3
100
AcDbCircle
 10
95.99999891557917
 20
320.3999999999976
 30
0.0
 40
2.500000000000057
210
0.0
220
0.0
230
-1.0
100
AcDbArc
 50
0.0
 51
180.0
  0
ARC
  5
10E
330
1F
100
AcDbEntity
  8
Make2D$Visible$Curves
 62
    18
420
        0
370
    -3
100
AcDbCircle
 10
-96.00000108442077
 20
320.3999999999975
 30
0.0
 40
2.5
210
0.0
220
0.0
230
-1.0
100
AcDbArc
 50
0.0000000000026055
 51
179.9999999999974
  0
LINE
  5
10F
330
1F
100
AcDbEntity
  8
Make2D$Visible$Curves
 62
    18
420
        0
370
    -3
100
AcDbLine
 10
-383.4999989155793
 20
288.499915332275
 30
0.0
 11
-383.4999989155792
 21
290.400038429867
 31
0.0
  0
LINE
  5
110
330
1F
100
AcDbEntity
  8
Make2D$Visible$Curves
 62
    18
420
        0
370
    -3
100
AcDbLine
 10
-399.4996704467735
 20
288.0
 30
0.0
 11
-383.4999989155792
 21
288.0
 31
0.0
  0
LINE
  5
111
330
1F
100
AcDbEntity
  8
Make2D$Visible$Curves
 62
    18
420
        0
370
    -3
100
AcDbLine
 10
-383.4999989155792
 20
288.0
 30
0.0
 11
383.5001223410939
 21
288.0
 31
0.0
  0
LINE
  5
112
330
1F
100
AcDbEntity
  8
Make2D$Visible$Curves
 62
    18
420
        0
370
    -3
100
AcDbLine
 10
400.5000010844208
 20
272.0
 30
0.0
 11
-400.4999989155792
 21
272.0
 31
0.0
  0
LINE
  5
113
330
1F
100
AcDbEntity
  8
Make2D$Visible$Curves
 62
    18
420
        0
370
    -3
100
AcDbLine
 10
-400.4999989155792
 20
272.0
 30
0.0
 11
-400.4999989155792
 21
288.0
 31
0.0
  0
LINE
  5
114
330
1F
100
AcDbEntity
  8
Make2D$Visible$Curves
 62
    18
420
        0
370
    -3
100
AcDbLine
 10
-400.4999989155792
 20
288.0
 30
0.0
 11
-399.4996704467735
 21
288.0
 31
0.0
  0
LINE
  5
115
330
1F
100
AcDbEntity
  8
Make2D$Visible$Curves
 62
    18
420
        0
370
    -3
100
AcDbLine
 10
400.5000010844208
 20
272.0
 30
0.0
 11
400.5000010844208
 21
288.0
 31
0.0
  0
LINE
  5
116
330
1F
100
AcDbEntity
  8
Make2D$Visible$Curves
 62
    18
420
        0
370
    -3
100
AcDbLine
 10
-383.4999989155792
 20
287.9999999999975
 30
0.0
 11
-383.4999989155792
 21
288.4999153322749
 31
0.0
  0
LINE
  5
117
330
1F
100
AcDbEntity
  8
Make2D$Visible$Curves
 62
    18
420
        0
370
    -3
100
AcDbLine
 10
-399.4999989155792
 20
570.9999999999975
 30
0.0
 11
-399.4999989155792
 21
287.9999999999975
 31
0.0
  0
LINE
  5
118
330
1F
100
AcDbEntity
  8
Make2D$Visible$Curves
 62
    18
420
        0
370
    -3
100
AcDbLine
 10
-383.4999989155792
 20
570.9999999999975
 30
0.0
 11
-399.4999989155792
 21
570.9999999999975
 31
0.0
  0
LINE
  5
119
330
1F
100
AcDbEntity
  8
Make2D$Visible$Curves
 62
    18
420
        0
370
    -3
100
AcDbLine
 10
383.5000010844208
 20
288.5000000000007
 30
0.0
 11
-383.4999989155792
 21
288.5000000000007
 31
0.0
  0
LINE
  5
11A
330
1F
100
AcDbEntity
  8
Make2D$Visible$Curves
 62
    18
420
        0
370
    -3
100
AcDbLine
 10
525.9809722900388
 20
413.2021139742992
 30
0.0
 11
530.6452178955076
 21
443.0744532229564
 31
0.0
  0
LINE
  5
11B
330
1F
100
AcDbEntity
  8
Make2D$Visible$Curves
 62
    18
420
        0
370
    -3
100
AcDbLine
 10
530.6452178955076
 20
443.0744532229564
 30
0.0
 11
535.3094635009763
 21
413.2021139742992
 31
0.0
  0
LINE
  5
11C
330
1F
100
AcDbEntity
  8
Make2D$Visible$Curves
 62
    18
420
        0
370
    -3
100
AcDbLine
 10
535.3094635009763
 20
413.2021139742992
 30
0.0
 11
525.9809722900388
 21
413.2021139742992
 31
0.0
  0
LINE
  5
11D
330
1F
100
AcDbEntity
  8
Make2D$Visible$Curves
 62
    18
420
        0
370
    -3
100
AcDbLine
 10
511.4699859619138
 20
435.329774725642
 30
0.0
 11
510.9517364501951
 21
437.5425394656322
 31
0.0
  0
LINE
  5
11E
330
1F
100
AcDbEntity
  8
Make2D$Visible$Curves
 62
    18
420
        0
370
    -3
100
AcDbLine
 10
510.9517364501951
 20
437.5425394656322
 30
0.0
 11
509.9152374267576
 21
439.7553042056225
 31
0.0
  0
LINE
  5
11F
330
1F
100
AcDbEntity
  8
Make2D$Visible$Curves
 62
    18
420
        0
370
    -3
100
AcDbLine
 10
509.9152374267576
 20
439.7553042056225
 30
0.0
 11
508.3604888916013
 21
440.8616884829662
 31
0.0
  0
LINE
  5
120
330
1F
100
AcDbEntity
  8
Make2D$Visible$Curves
 62
    18
420
        0
370
    -3
100
AcDbLine
 10
508.3604888916013
 20
440.8616884829662
 30
0.0
 11
505.2509918212888
 21
440.8616884829662
 31
0.0
  0
LINE
  5
121
330
1F
100
AcDbEntity
  8
Make2D$Visible$Curves
 62
    18
420
        0
370
    -3
100
AcDbLine
 10
505.2509918212888
 20
440.8616884829662
 30
0.0
 11
503.6962432861326
 21
439.7553042056225
 31
0.0
  0
LINE
  5
122
330
1F
100
AcDbEntity
  8
Make2D$Visible$Curves
 62
    18
420
        0
370
    -3
100
AcDbLine
 10
503.6962432861326
 20
439.7553042056225
 30
0.0
 11
502.1415100097654
 21
437.5425394656322
 31
0.0
  0
LINE
  5
123
330
1F
100
AcDbEntity
  8
Make2D$Visible$Curves
 62
    18
420
        0
370
    -3
100
AcDbLine
 10
502.1415100097654
 20
437.5425394656322
 30
0.0
 11
501.6232604980466
 21
434.2233904482982
 31
0.0
  0
LINE
  5
124
330
1F
100
AcDbEntity
  8
Make2D$Visible$Curves
 62
    18
420
        0
370
    -3
100
AcDbLine
 10
501.6232604980466
 20
434.2233904482982
 30
0.0
 11
501.6232604980466
 21
432.010625708308
 31
0.0
  0
LINE
  5
125
330
1F
100
AcDbEntity
  8
Make2D$Visible$Curves
 62
    18
420
        0
370
    -3
100
AcDbLine
 10
501.6232604980466
 20
432.010625708308
 30
0.0
 11
502.1415100097654
 21
428.691476690974
 31
0.0
  0
LINE
  5
126
330
1F
100
AcDbEntity
  8
Make2D$Visible$Curves
 62
    18
420
        0
370
    -3
100
AcDbLine
 10
502.1415100097654
 20
428.691476690974
 30
0.0
 11
503.6962432861326
 21
426.4787081362865
 31
0.0
  0
LINE
  5
127
330
1F
100
AcDbEntity
  8
Make2D$Visible$Curves
 62
    18
420
        0
370
    -3
100
AcDbLine
 10
503.6962432861326
 20
426.4787081362865
 30
0.0
 11
505.2509918212888
 21
425.37232767364
 31
0.0
  0
LINE
  5
128
330
1F
100
AcDbEntity
  8
Make2D$Visible$Curves
 62
    18
420
        0
370
    -3
100
AcDbLine
 10
505.2509918212888
 20
425.37232767364
 30
0.0
 11
508.3604888916013
 21
425.37232767364
 31
0.0
  0
LINE
  5
129
330
1F
100
AcDbEntity
  8
Make2D$Visible$Curves
 62
    18
420
        0
370
    -3
100
AcDbLine
 10
508.3604888916013
 20
425.37232767364
 30
0.0
 11
510.9517364501951
 21
424.2659433962963
 31
0.0
  0
LINE
  5
12A
330
1F
100
AcDbEntity
  8
Make2D$Visible$Curves
 62
    18
420
        0
370
    -3
100
AcDbLine
 10
510.9517364501951
 20
424.2659433962963
 30
0.0
 11
513.0247344970701
 21
422.053178656306
 31
0.0
  0
LINE
  5
12B
330
1F
100
AcDbEntity
  8
Make2D$Visible$Curves
 62
    18
420
        0
370
    -3
100
AcDbLine
 10
513.0247344970701
 20
422.053178656306
 30
0.0
 11
515.0977325439451
 21
417.6276453616283
 31
0.0
  0
LINE
  5
12C
330
1F
100
AcDbEntity
  8
Make2D$Visible$Curves
 62
    18
420
        0
370
    -3
100
AcDbLine
 10
515.0977325439451
 20
417.6276453616283
 30
0.0
 11
516.1342315673826
 21
413.2021139742992
 31
0.0
  0
LINE
  5
12D
330
1F
100
AcDbEntity
  8
Make2D$Visible$Curves
 62
    18
420
        0
370
    -3
100
AcDbLine
 10
516.1342315673826
 20
413.2021139742992
 30
0.0
 11
516.1342315673826
 21
407.670200216975
 31
0.0
  0
LINE
  5
12E
330
1F
100
AcDbEntity
  8
Make2D$Visible$Curves
 62
    18
420
        0
370
    -3
100
AcDbLine
 10
516.1342315673826
 20
407.670200216975
 30
0.0
 11
515.0977325439451
 21
403.2446669222973
 31
0.0
  0
LINE
  5
12F
330
1F
100
AcDbEntity
  8
Make2D$Visible$Curves
 62
    18
420
        0
370
    -3
100
AcDbLine
 10
515.0977325439451
 20
403.2446669222973
 30
0.0
 11
513.0247344970701
 21
398.8191355349682
 31
0.0
  0
LINE
  5
130
330
1F
100
AcDbEntity
  8
Make2D$Visible$Curves
 62
    18
420
        0
370
    -3
100
AcDbLine
 10
513.0247344970701
 20
398.8191355349682
 30
0.0
 11
510.9517364501951
 21
396.6063698413036
 31
0.0
  0
LINE
  5
131
330
1F
100
AcDbEntity
  8
Make2D$Visible$Curves
 62
    18
420
        0
370
    -3
100
AcDbLine
 10
510.9517364501951
 20
396.6063698413036
 30
0.0
 11
508.3604888916013
 21
395.4999865176342
 31
0.0
  0
LINE
  5
132
330
1F
100
AcDbEntity
  8
Make2D$Visible$Curves
 62
    18
420
        0
370
    -3
100
AcDbLine
 10
508.3604888916013
 20
395.4999865176342
 30
0.0
 11
504.2144927978513
 21
395.4999865176342
 31
0.0
  0
LINE
  5
133
330
1F
100
AcDbEntity
  8
Make2D$Visible$Curves
 62
    18
420
        0
370
    -3
100
AcDbLine
 10
504.2144927978513
 20
395.4999865176342
 30
0.0
 11
501.6232604980466
 21
396.6063698413036
 31
0.0
  0
LINE
  5
134
330
1F
100
AcDbEntity
  8
Make2D$Visible$Curves
 62
    18
420
        0
370
    -3
100
AcDbLine
 10
501.6232604980466
 20
396.6063698413036
 30
0.0
 11
499.0320129394529
 21
399.9255179049633
 31
0.0
  0
LINE
  5
135
330
1F
100
AcDbEntity
  8
Make2D$Visible$Curves
 62
    18
420
        0
370
    -3
100
AcDbLine
 10
499.0320129394529
 20
399.9255179049633
 30
0.0
 11
497.4772644042966
 21
405.4574335696361
 31
0.0
  0
LINE
  5
136
330
1F
100
AcDbEntity
  8
Make2D$Visible$Curves
 62
    18
420
        0
370
    -3
100
AcDbLine
 10
497.4772644042966
 20
405.4574335696361
 30
0.0
 11
496.9590148925779
 21
409.8829649569652
 31
0.0
  0
LINE
  5
137
330
1F
100
AcDbEntity
  8
Make2D$Visible$Curves
 62
    18
420
        0
370
    -3
100
AcDbLine
 10
496.9590148925779
 20
409.8829649569652
 30
0.0
 11
500.0685119628904
 21
409.8829649569652
 31
0.0
  0
LINE
  5
138
330
1F
100
AcDbEntity
  8
Make2D$Visible$Curves
 62
    18
420
        0
370
    -3
100
AcDbLine
 10
500.0685119628904
 20
409.8829649569652
 30
0.0
 11
500.5867614746091
 21
406.5638159396312
 31
0.0
  0
LINE
  5
139
330
1F
100
AcDbEntity
  8
Make2D$Visible$Curves
 62
    18
420
        0
370
    -3
100
AcDbLine
 10
500.5867614746091
 20
406.5638159396312
 30
0.0
 11
502.1415100097654
 21
403.2446669222973
 31
0.0
  0
LINE
  5
13A
330
1F
100
AcDbEntity
  8
Make2D$Visible$Curves
 62
    18
420
        0
370
    -3
100
AcDbLine
 10
502.1415100097654
 20
403.2446669222973
 30
0.0
 11
504.2144927978513
 21
402.1382845523021
 31
0.0
  0
LINE
  5
13B
330
1F
100
AcDbEntity
  8
Make2D$Visible$Curves
 62
    18
420
        0
370
    -3
100
AcDbLine
 10
504.2144927978513
 20
402.1382845523021
 30
0.0
 11
508.3604888916013
 21
402.1382845523021
 31
0.0
  0
LINE
  5
13C
330
1F
100
AcDbEntity
  8
Make2D$Visible$Curves
 62
    18
420
        0
370
    -3
100
AcDbLine
 10
508.3604888916013
 20
402.1382845523021
 30
0.0
 11
510.4334869384763
 21
403.2446669222973
 31
0.0
  0
LINE
  5
13D
330
1F
100
AcDbEntity
  8
Make2D$Visible$Curves
 62
    18
420
        0
370
    -3
100
AcDbLine
 10
510.4334869384763
 20
403.2446669222973
 30
0.0
 11
511.9882354736326
 21
405.4574335696361
 31
0.0
  0
LINE
  5
13E
330
1F
100
AcDbEntity
  8
Make2D$Visible$Curves
 62
    18
420
        0
370
    -3
100
AcDbLine
 10
511.9882354736326
 20
405.4574335696361
 30
0.0
 11
513.0247344970701
 21
408.7765825869701
 31
0.0
  0
LINE
  5
13F
330
1F
100
AcDbEntity
  8
Make2D$Visible$Curves
 62
    18
420
        0
370
    -3
100
AcDbLine
 10
513.0247344970701
 20
408.7765825869701
 30
0.0
 11
513.0247344970701
 21
412.0957316043041
 31
0.0
  0
LINE
  5
140
330
1F
100
AcDbEntity
  8
Make2D$Visible$Curves
 62
    18
420
        0
370
    -3
100
AcDbLine
 10
513.0247344970701
 20
412.0957316043041
 30
0.0
 11
511.9882354736326
 21
415.4148806216381
 31
0.0
  0
LINE
  5
141
330
1F
100
AcDbEntity
  8
Make2D$Visible$Curves
 62
    18
420
        0
370
    -3
100
AcDbLine
 10
511.9882354736326
 20
415.4148806216381
 30
0.0
 11
510.4334869384763
 21
417.6276453616283
 31
0.0
  0
LINE
  5
142
330
1F
100
AcDbEntity
  8
Make2D$Visible$Curves
 62
    18
420
        0
370
    -3
100
AcDbLine
 10
510.4334869384763
 20
417.6276453616283
 30
0.0
 11
508.3604888916013
 21
418.7340296389721
 31
0.0
  0
LINE
  5
143
330
1F
100
AcDbEntity
  8
Make2D$Visible$Curves
 62
    18
420
        0
370
    -3
100
AcDbLine
 10
508.3604888916013
 20
418.7340296389721
 30
0.0
 11
505.2509918212888
 21
418.7340296389721
 31
0.0
  0
LINE
  5
144
330
1F
100
AcDbEntity
  8
Make2D$Visible$Curves
 62
    18
420
        0
370
    -3
100
AcDbLine
 10
505.2509918212888
 20
418.7340296389721
 30
0.0
 11
503.1779937744138
 21
419.8404139163158
 31
0.0
  0
LINE
  5
145
330
1F
100
AcDbEntity
  8
Make2D$Visible$Curves
 62
    18
420
        0
370
    -3
100
AcDbLine
 10
503.1779937744138
 20
419.8404139163158
 30
0.0
 11
501.1050109863279
 21
422.053178656306
 31
0.0
  0
LINE
  5
146
330
1F
100
AcDbEntity
  8
Make2D$Visible$Curves
 62
    18
420
        0
370
    -3
100
AcDbLine
 10
501.1050109863279
 20
422.053178656306
 30
0.0
 11
499.0320129394529
 21
426.4787081362865
 31
0.0
  0
LINE
  5
147
330
1F
100
AcDbEntity
  8
Make2D$Visible$Curves
 62
    18
420
        0
370
    -3
100
AcDbLine
 10
499.0320129394529
 20
426.4787081362865
 30
0.0
 11
498.5137634277341
 21
430.9042414309642
 31
0.0
  0
LINE
  5
148
330
1F
100
AcDbEntity
  8
Make2D$Visible$Curves
 62
    18
420
        0
370
    -3
100
AcDbLine
 10
498.5137634277341
 20
430.9042414309642
 30
0.0
 11
498.5137634277341
 21
435.329774725642
 31
0.0
  0
LINE
  5
149
330
1F
100
AcDbEntity
  8
Make2D$Visible$Curves
 62
    18
420
        0
370
    -3
100
AcDbLine
 10
498.5137634277341
 20
435.329774725642
 30
0.0
 11
499.0320129394529
 21
439.7553042056225
 31
0.0
  0
LINE
  5
14A
330
1F
100
AcDbEntity
  8
Make2D$Visible$Curves
 62
    18
420
        0
370
    -3
100
AcDbLine
 10
499.0320129394529
 20
439.7553042056225
 30
0.0
 11
501.1050109863279
 21
444.1808375003002
 31
0.0
  0
LINE
  5
14B
330
1F
100
AcDbEntity
  8
Make2D$Visible$Curves
 62
    18
420
        0
370
    -3
100
AcDbLine
 10
501.1050109863279
 20
444.1808375003002
 30
0.0
 11
503.1779937744138
 21
446.3936022402904
 31
0.0
  0
LINE
  5
14C
330
1F
100
AcDbEntity
  8
Make2D$Visible$Curves
 62
    18
420
        0
370
    -3
100
AcDbLine
 10
503.1779937744138
 20
446.3936022402904
 30
0.0
 11
505.2509918212888
 21
447.4999865176342
 31
0.0
  0
LINE
  5
14D
330
1F
100
AcDbEntity
  8
Make2D$Visible$Curves
 62
    18
420
        0
370
    -3
100
AcDbLine
 10
505.2509918212888
 20
447.4999865176342
 30
0.0
 11
507.8422393798826
 21
447.4999865176342
 31
0.0
  0
LINE
  5
14E
330
1F
100
AcDbEntity
  8
Make2D$Visible$Curves
 62
    18
420
        0
370
    -3
100
AcDbLine
 10
507.8422393798826
 20
447.4999865176342
 30
0.0
 11
510.4334869384763
 21
446.3936022402904
 31
0.0
  0
LINE
  5
14F
330
1F
100
AcDbEntity
  8
Make2D$Visible$Curves
 62
    18
420
        0
370
    -3
100
AcDbLine
 10
510.4334869384763
 20
446.3936022402904
 30
0.0
 11
512.5064849853513
 21
443.0744532229564
 31
0.0
  0
LINE
  5
150
330
1F
100
AcDbEntity
  8
Make2D$Visible$Curves
 62
    18
420
        0
370
    -3
100
AcDbLine
 10
512.5064849853513
 20
443.0744532229564
 30
0.0
 11
514.0612335205076
 21
438.648923742976
 31
0.0
  0
LINE
  5
151
330
1F
100
AcDbEntity
  8
Make2D$Visible$Curves
 62
    18
420
        0
370
    -3
100
AcDbLine
 10
514.0612335205076
 20
438.648923742976
 30
0.0
 11
514.5794830322263
 21
435.329774725642
 31
0.0
  0
LINE
  5
152
330
1F
100
AcDbEntity
  8
Make2D$Visible$Curves
 62
    18
420
        0
370
    -3
100
AcDbLine
 10
514.5794830322263
 20
435.329774725642
 30
0.0
 11
511.4699859619138
 21
435.329774725642
 31
0.0
  0
LINE
  5
153
330
1F
100
AcDbEntity
  8
Make2D$Visible$Curves
 62
    18
420
        0
370
    -3
100
AcDbLine
 10
532.7182159423826
 20
447.4999865176342
 30
0.0
 11
541.010200500488
 21
395.4999865176342
 31
0.0
  0
LINE
  5
154
330
1F
100
AcDbEntity
  8
Make2D$Visible$Curves
 62
    18
420
        0
370
    -3
100
AcDbLine
 10
541.010200500488
 20
395.4999865176342
 30
0.0
 11
537.9007034301756
 21
395.4999865176342
 31
0.0
  0
LINE
  5
155
330
1F
100
AcDbEntity
  8
Make2D$Visible$Curves
 62
    18
420
        0
370
    -3
100
AcDbLine
 10
537.9007034301756
 20
395.4999865176342
 30
0.0
 11
535.8277130126951
 21
408.7765825869701
 31
0.0
  0
LINE
  5
156
330
1F
100
AcDbEntity
  8
Make2D$Visible$Curves
 62
    18
420
        0
370
    -3
100
AcDbLine
 10
535.8277130126951
 20
408.7765825869701
 30
0.0
 11
525.4627227783201
 21
408.7765825869701
 31
0.0
  0
LINE
  5
157
330
1F
100
AcDbEntity
  8
Make2D$Visible$Curves
 62
    18
420
        0
370
    -3
100
AcDbLine
 10
525.4627227783201
 20
408.7765825869701
 30
0.0
 11
523.3897247314451
 21
395.4999865176342
 31
0.0
  0
LINE
  5
158
330
1F
100
AcDbEntity
  8
Make2D$Visible$Curves
 62
    18
420
        0
370
    -3
100
AcDbLine
 10
523.3897247314451
 20
395.4999865176342
 30
0.0
 11
520.2802276611326
 21
395.4999865176342
 31
0.0
  0
LINE
  5
159
330
1F
100
AcDbEntity
  8
Make2D$Visible$Curves
 62
    18
420
        0
370
    -3
100
AcDbLine
 10
520.2802276611326
 20
395.4999865176342
 30
0.0
 11
528.5722198486326
 21
447.4999865176342
 31
0.0
  0
LINE
  5
15A
330
1F
100
AcDbEntity
  8
Make2D$Visible$Curves
 62
    18
420
        0
370
    -3
100
AcDbLine
 10
528.5722198486326
 20
447.4999865176342
 30
0.0
 11
532.7182159423826
 21
447.4999865176342
 31
0.0
  0
LINE
  5
15B
330
1F
100
AcDbEntity
  8
Make2D$Visible$Curves
 62
    18
420
        0
370
    -3
100
AcDbLine
 10
565.3679199218748
 20
408.7765825869701
 30
0.0
 11
564.849670410156
 21
403.2446669222973
 31
0.0
  0
LINE
  5
15C
330
1F
100
AcDbEntity
  8
Make2D$Visible$Curves
 62
    18
420
        0
370
    -3
100
AcDbLine
 10
564.849670410156
 20
403.2446669222973
 30
0.0
 11
562.776672363281
 21
398.8191355349682
 31
0.0
  0
LINE
  5
15D
330
1F
100
AcDbEntity
  8
Make2D$Visible$Curves
 62
    18
420
        0
370
    -3
100
AcDbLine
 10
562.776672363281
 20
398.8191355349682
 30
0.0
 11
560.703674316406
 21
396.6063698413036
 31
0.0
  0
LINE
  5
15E
330
1F
100
AcDbEntity
  8
Make2D$Visible$Curves
 62
    18
420
        0
370
    -3
100
AcDbLine
 10
560.703674316406
 20
396.6063698413036
 30
0.0
 11
558.1124343872068
 21
395.4999865176342
 31
0.0
  0
LINE
  5
15F
330
1F
100
AcDbEntity
  8
Make2D$Visible$Curves
 62
    18
420
        0
370
    -3
100
AcDbLine
 10
558.1124343872068
 20
395.4999865176342
 30
0.0
 11
553.448188781738
 21
395.4999865176342
 31
0.0
  0
LINE
  5
160
330
1F
100
AcDbEntity
  8
Make2D$Visible$Curves
 62
    18
420
        0
370
    -3
100
AcDbLine
 10
553.448188781738
 20
395.4999865176342
 30
0.0
 11
550.8569412231443
 21
396.6063698413036
 31
0.0
  0
LINE
  5
161
330
1F
100
AcDbEntity
  8
Make2D$Visible$Curves
 62
    18
420
        0
370
    -3
100
AcDbLine
 10
550.8569412231443
 20
396.6063698413036
 30
0.0
 11
548.7839431762693
 21
398.8191355349682
 31
0.0
  0
LINE
  5
162
330
1F
100
AcDbEntity
  8
Make2D$Visible$Curves
 62
    18
420
        0
370
    -3
100
AcDbLine
 10
548.7839431762693
 20
398.8191355349682
 30
0.0
 11
546.7109451293943
 21
403.2446669222973
 31
0.0
  0
LINE
  5
163
330
1F
100
AcDbEntity
  8
Make2D$Visible$Curves
 62
    18
420
        0
370
    -3
100
AcDbLine
 10
546.7109451293943
 20
403.2446669222973
 30
0.0
 11
545.6744461059568
 21
407.670200216975
 31
0.0
  0
LINE
  5
164
330
1F
100
AcDbEntity
  8
Make2D$Visible$Curves
 62
    18
420
        0
370
    -3
100
AcDbLine
 10
545.6744461059568
 20
407.670200216975
 30
0.0
 11
545.156196594238
 21
413.2021139742992
 31
0.0
  0
LINE
  5
165
330
1F
100
AcDbEntity
  8
Make2D$Visible$Curves
 62
    18
420
        0
370
    -3
100
AcDbLine
 10
545.156196594238
 20
413.2021139742992
 30
0.0
 11
545.156196594238
 21
429.7978571536205
 31
0.0
  0
LINE
  5
166
330
1F
100
AcDbEntity
  8
Make2D$Visible$Curves
 62
    18
420
        0
370
    -3
100
AcDbLine
 10
545.156196594238
 20
429.7978571536205
 30
0.0
 11
545.6744461059568
 21
435.329774725642
 31
0.0
  0
LINE
  5
167
330
1F
100
AcDbEntity
  8
Make2D$Visible$Curves
 62
    18
420
        0
370
    -3
100
AcDbLine
 10
545.6744461059568
 20
435.329774725642
 30
0.0
 11
546.7109451293943
 21
439.7553042056225
 31
0.0
  0
LINE
  5
168
330
1F
100
AcDbEntity
  8
Make2D$Visible$Curves
 62
    18
420
        0
370
    -3
100
AcDbLine
 10
546.7109451293943
 20
439.7553042056225
 30
0.0
 11
548.7839431762693
 21
444.1808375003002
 31
0.0
  0
LINE
  5
169
330
1F
100
AcDbEntity
  8
Make2D$Visible$Curves
 62
    18
420
        0
370
    -3
100
AcDbLine
 10
548.7839431762693
 20
444.1808375003002
 30
0.0
 11
550.8569412231443
 21
446.3936022402904
 31
0.0
  0
LINE
  5
16A
330
1F
100
AcDbEntity
  8
Make2D$Visible$Curves
 62
    18
420
        0
370
    -3
100
AcDbLine
 10
550.8569412231443
 20
446.3936022402904
 30
0.0
 11
553.448188781738
 21
447.4999865176342
 31
0.0
  0
LINE
  5
16B
330
1F
100
AcDbEntity
  8
Make2D$Visible$Curves
 62
    18
420
        0
370
    -3
100
AcDbLine
 10
553.448188781738
 20
447.4999865176342
 30
0.0
 11
558.1124343872068
 21
447.4999865176342
 31
0.0
  0
LINE
  5
16C
330
1F
100
AcDbEntity
  8
Make2D$Visible$Curves
 62
    18
420
        0
370
    -3
100
AcDbLine
 10
558.1124343872068
 20
447.4999865176342
 30
0.0
 11
560.703674316406
 21
446.3936022402904
 31
0.0
  0
LINE
  5
16D
330
1F
100
AcDbEntity
  8
Make2D$Visible$Curves
 62
    18
420
        0
370
    -3
100
AcDbLine
 10
560.703674316406
 20
446.3936022402904
 30
0.0
 11
562.776672363281
 21
444.1808375003002
 31
0.0
  0
LINE
  5
16E
330
1F
100
AcDbEntity
  8
Make2D$Visible$Curves
 62
    18
420
        0
370
    -3
100
AcDbLine
 10
562.776672363281
 20
444.1808375003002
 30
0.0
 11
564.849670410156
 21
439.7553042056225
 31
0.0
  0
LINE
  5
16F
330
1F
100
AcDbEntity
  8
Make2D$Visible$Curves
 62
    18
420
        0
370
    -3
100
AcDbLine
 10
564.849670410156
 20
439.7553042056225
 30
0.0
 11
565.3679199218748
 21
434.2233904482982
 31
0.0
  0
LINE
  5
170
330
1F
100
AcDbEntity
  8
Make2D$Visible$Curves
 62
    18
420
        0
370
    -3
100
AcDbLine
 10
565.3679199218748
 20
434.2233904482982
 30
0.0
 11
562.2584228515623
 21
434.2233904482982
 31
0.0
  0
LINE
  5
171
330
1F
100
AcDbEntity
  8
Make2D$Visible$Curves
 62
    18
420
        0
370
    -3
100
AcDbLine
 10
562.2584228515623
 20
434.2233904482982
 30
0.0
 11
561.7401733398435
 21
437.5425394656322
 31
0.0
  0
LINE
  5
172
330
1F
100
AcDbEntity
  8
Make2D$Visible$Curves
 62
    18
420
        0
370
    -3
100
AcDbLine
 10
561.7401733398435
 20
437.5425394656322
 30
0.0
 11
560.1854248046873
 21
439.7553042056225
 31
0.0
  0
LINE
  5
173
330
1F
100
AcDbEntity
  8
Make2D$Visible$Curves
 62
    18
420
        0
370
    -3
100
AcDbLine
 10
560.1854248046873
 20
439.7553042056225
 30
0.0
 11
558.1124343872068
 21
440.8616884829662
 31
0.0
  0
LINE
  5
174
330
1F
100
AcDbEntity
  8
Make2D$Visible$Curves
 62
    18
420
        0
370
    -3
100
AcDbLine
 10
558.1124343872068
 20
440.8616884829662
 30
0.0
 11
553.448188781738
 21
440.8616884829662
 31
0.0
  0
LINE
  5
175
330
1F
100
AcDbEntity
  8
Make2D$Visible$Curves
 62
    18
420
        0
370
    -3
100
AcDbLine
 10
553.448188781738
 20
440.8616884829662
 30
0.0
 11
551.375190734863
 21
439.7553042056225
 31
0.0
  0
LINE
  5
176
330
1F
100
AcDbEntity
  8
Make2D$Visible$Curves
 62
    18
420
        0
370
    -3
100
AcDbLine
 10
551.375190734863
 20
439.7553042056225
 30
0.0
 11
549.8204421997068
 21
437.5425394656322
 31
0.0
  0
LINE
  5
177
330
1F
100
AcDbEntity
  8
Make2D$Visible$Curves
 62
    18
420
        0
370
    -3
100
AcDbLine
 10
549.8204421997068
 20
437.5425394656322
 30
0.0
 11
548.7839431762693
 21
434.2233904482982
 31
0.0
  0
LINE
  5
178
330
1F
100
AcDbEntity
  8
Make2D$Visible$Curves
 62
    18
420
        0
370
    -3
100
AcDbLine
 10
548.7839431762693
 20
434.2233904482982
 30
0.0
 11
548.2656936645506
 21
429.7978571536205
 31
0.0
  0
LINE
  5
179
330
1F
100
AcDbEntity
  8
Make2D$Visible$Curves
 62
    18
420
        0
370
    -3
100
AcDbLine
 10
548.2656936645506
 20
429.7978571536205
 30
0.0
 11
548.2656936645506
 21
413.2021139742992
 31
0.0
  0
LINE
  5
17A
330
1F
100
AcDbEntity
  8
Make2D$Visible$Curves
 62
    18
420
        0
370
    -3
100
AcDbLine
 10
548.2656936645506
 20
413.2021139742992
 30
0.0
 11
548.7839431762693
 21
408.7765825869701
 31
0.0
  0
LINE
  5
17B
330
1F
100
AcDbEntity
  8
Make2D$Visible$Curves
 62
    18
420
        0
370
    -3
100
AcDbLine
 10
548.7839431762693
 20
408.7765825869701
 30
0.0
 11
549.8204421997068
 21
405.4574335696361
 31
0.0
  0
LINE
  5
17C
330
1F
100
AcDbEntity
  8
Make2D$Visible$Curves
 62
    18
420
        0
370
    -3
100
AcDbLine
 10
549.8204421997068
 20
405.4574335696361
 30
0.0
 11
551.375190734863
 21
403.2446669222973
 31
0.0
  0
LINE
  5
17D
330
1F
100
AcDbEntity
  8
Make2D$Visible$Curves
 62
    18
420
        0
370
    -3
100
AcDbLine
 10
551.375190734863
 20
403.2446669222973
 30
0.0
 11
553.448188781738
 21
402.1382845523021
 31
0.0
  0
LINE
  5
17E
330
1F
100
AcDbEntity
  8
Make2D$Visible$Curves
 62
    18
420
        0
370
    -3
100
AcDbLine
 10
553.448188781738
 20
402.1382845523021
 30
0.0
 11
558.1124343872068
 21
402.1382845523021
 31
0.0
  0
LINE
  5
17F
330
1F
100
AcDbEntity
  8
Make2D$Visible$Curves
 62
    18
420
        0
370
    -3
100
AcDbLine
 10
558.1124343872068
 20
402.1382845523021
 30
0.0
 11
560.1854248046873
 21
403.2446669222973
 31
0.0
  0
LINE
  5
180
330
1F
100
AcDbEntity
  8
Make2D$Visible$Curves
 62
    18
420
        0
370
    -3
100
AcDbLine
 10
560.1854248046873
 20
403.2446669222973
 30
0.0
 11
561.7401733398435
 21
405.4574335696361
 31
0.0
  0
LINE
  5
181
330
1F
100
AcDbEntity
  8
Make2D$Visible$Curves
 62
    18
420
        0
370
    -3
100
AcDbLine
 10
561.7401733398435
 20
405.4574335696361
 30
0.0
 11
562.2584228515623
 21
408.7765825869701
 31
0.0
  0
LINE
  5
182
330
1F
100
AcDbEntity
  8
Make2D$Visible$Curves
 62
    18
420
        0
370
    -3
100
AcDbLine
 10
562.2584228515623
 20
408.7765825869701
 30
0.0
 11
565.3679199218748
 21
408.7765825869701
 31
0.0
  0
LINE
  5
183
330
1F
100
AcDbEntity
  8
Make2D$Visible$Curves
 62
    18
420
        0
370
    -3
100
AcDbLine
 10
572.6234130859373
 20
395.4999865176342
 30
0.0
 11
569.5139160156248
 21
395.4999865176342
 31
0.0
  0
LINE
  5
184
330
1F
100
AcDbEntity
  8
Make2D$Visible$Curves
 62
    18
420
        0
370
    -3
100
AcDbLine
 10
569.5139160156248
 20
395.4999865176342
 30
0.0
 11
569.5139160156248
 21
447.4999865176342
 31
0.0
  0
LINE
  5
185
330
1F
100
AcDbEntity
  8
Make2D$Visible$Curves
 62
    18
420
        0
370
    -3
100
AcDbLine
 10
569.5139160156248
 20
447.4999865176342
 30
0.0
 11
572.6234130859373
 21
447.4999865176342
 31
0.0
  0
LINE
  5
186
330
1F
100
AcDbEntity
  8
Make2D$Visible$Curves
 62
    18
420
        0
370
    -3
100
AcDbLine
 10
572.6234130859373
 20
447.4999865176342
 30
0.0
 11
572.6234130859373
 21
426.4787081362865
 31
0.0
  0
LINE
  5
187
330
1F
100
AcDbEntity
  8
Make2D$Visible$Curves
 62
    18
420
        0
370
    -3
100
AcDbLine
 10
572.6234130859373
 20
426.4787081362865
 30
0.0
 11
587.1343917846677
 21
426.4787081362865
 31
0.0
  0
LINE
  5
188
330
1F
100
AcDbEntity
  8
Make2D$Visible$Curves
 62
    18
420
        0
370
    -3
100
AcDbLine
 10
587.1343917846677
 20
426.4787081362865
 30
0.0
 11
587.1343917846677
 21
447.4999865176342
 31
0.0
  0
LINE
  5
189
330
1F
100
AcDbEntity
  8
Make2D$Visible$Curves
 62
    18
420
        0
370
    -3
100
AcDbLine
 10
587.1343917846677
 20
447.4999865176342
 30
0.0
 11
590.2438888549802
 21
447.4999865176342
 31
0.0
  0
LINE
  5
18A
330
1F
100
AcDbEntity
  8
Make2D$Visible$Curves
 62
    18
420
        0
370
    -3
100
AcDbLine
 10
590.2438888549802
 20
447.4999865176342
 30
0.0
 11
590.2438888549802
 21
395.4999865176342
 31
0.0
  0
LINE
  5
18B
330
1F
100
AcDbEntity
  8
Make2D$Visible$Curves
 62
    18
420
        0
370
    -3
100
AcDbLine
 10
590.2438888549802
 20
395.4999865176342
 30
0.0
 11
587.1343917846677
 21
395.4999865176342
 31
0.0
  0
LINE
  5
18C
330
1F
100
AcDbEntity
  8
Make2D$Visible$Curves
 62
    18
420
        0
370
    -3
100
AcDbLine
 10
587.1343917846677
 20
395.4999865176342
 30
0.0
 11
587.1343917846677
 21
419.8404139163158
 31
0.0
  0
LINE
  5
18D
330
1F
100
AcDbEntity
  8
Make2D$Visible$Curves
 62
    18
420
        0
370
    -3
100
AcDbLine
 10
587.1343917846677
 20
419.8404139163158
 30
0.0
 11
572.6234130859373
 21
419.8404139163158
 31
0.0
  0
LINE
  5
18E
330
1F
100
AcDbEntity
  8
Make2D$Visible$Curves
 62
    18
420
        0
370
    -3
100
AcDbLine
 10
572.6234130859373
 20
419.8404139163158
 30
0.0
 11
572.6234130859373
 21
395.4999865176342
 31
0.0
  0
LINE
  5
18F
330
1F
100
AcDbEntity
  8
Make2D$Visible$Curves
 62
    18
420
        0
370
    -3
100
AcDbLine
 10
613.0468597412107
 20
402.1382845523021
 30
0.0
 11
613.0468597412107
 21
395.4999865176342
 31
0.0
  0
LINE
  5
190
330
1F
100
AcDbEntity
  8
Make2D$Visible$Curves
 62
    18
420
        0
370
    -3
100
AcDbLine
 10
613.0468597412107
 20
395.4999865176342
 30
0.0
 11
594.3898849487302
 21
395.4999865176342
 31
0.0
  0
LINE
  5
191
330
1F
100
AcDbEntity
  8
Make2D$Visible$Curves
 62
    18
420
        0
370
    -3
100
AcDbLine
 10
594.3898849487302
 20
395.4999865176342
 30
0.0
 11
594.3898849487302
 21
447.4999865176342
 31
0.0
  0
LINE
  5
192
330
1F
100
AcDbEntity
  8
Make2D$Visible$Curves
 62
    18
420
        0
370
    -3
100
AcDbLine
 10
594.3898849487302
 20
447.4999865176342
 30
0.0
 11
613.0468597412107
 21
447.4999865176342
 31
0.0
  0
LINE
  5
193
330
1F
100
AcDbEntity
  8
Make2D$Visible$Curves
 62
    18
420
        0
370
    -3
100
AcDbLine
 10
613.0468597412107
 20
447.4999865176342
 30
0.0
 11
613.0468597412107
 21
440.8616884829662
 31
0.0
  0
LINE
  5
194
330
1F
100
AcDbEntity
  8
Make2D$Visible$Curves
 62
    18
420
        0
370
    -3
100
AcDbLine
 10
613.0468597412107
 20
440.8616884829662
 30
0.0
 11
597.4993782043455
 21
440.8616884829662
 31
0.0
  0
LINE
  5
195
330
1F
100
AcDbEntity
  8
Make2D$Visible$Curves
 62
    18
420
        0
370
    -3
100
AcDbLine
 10
597.4993782043455
 20
440.8616884829662
 30
0.0
 11
597.4993782043455
 21
426.4787081362865
 31
0.0
  0
LINE
  5
196
330
1F
100
AcDbEntity
  8
Make2D$Visible$Curves
 62
    18
420
        0
370
    -3
100
AcDbLine
 10
597.4993782043455
 20
426.4787081362865
 30
0.0
 11
610.9738616943357
 21
426.4787081362865
 31
0.0
  0
LINE
  5
197
330
1F
100
AcDbEntity
  8
Make2D$Visible$Curves
 62
    18
420
        0
370
    -3
100
AcDbLine
 10
610.9738616943357
 20
426.4787081362865
 30
0.0
 11
610.9738616943357
 21
419.8404139163158
 31
0.0
  0
LINE
  5
198
330
1F
100
AcDbEntity
  8
Make2D$Visible$Curves
 62
    18
420
        0
370
    -3
100
AcDbLine
 10
610.9738616943357
 20
419.8404139163158
 30
0.0
 11
597.4993782043455
 21
419.8404139163158
 31
0.0
  0
LINE
  5
199
330
1F
100
AcDbEntity
  8
Make2D$Visible$Curves
 62
    18
420
        0
370
    -3
100
AcDbLine
 10
597.4993782043455
 20
419.8404139163158
 30
0.0
 11
597.4993782043455
 21
402.1382845523021
 31
0.0
  0
LINE
  5
19A
330
1F
100
AcDbEntity
  8
Make2D$Visible$Curves
 62
    18
420
        0
370
    -3
100
AcDbLine
 10
597.4993782043455
 20
402.1382845523021
 30
0.0
 11
613.0468597412107
 21
402.1382845523021
 31
0.0
  0
LINE
  5
19B
330
1F
100
AcDbEntity
  8
Make2D$Visible$Curves
 62
    18
420
        0
370
    -3
100
AcDbLine
 10
636.8863296508787
 20
447.4999865176342
 30
0.0
 11
636.8863296508787
 21
441.96807276031
 31
0.0
  0
LINE
  5
19C
330
1F
100
AcDbEntity
  8
Make2D$Visible$Curves
 62
    18
420
        0
370
    -3
100
AcDbLine
 10
636.8863296508787
 20
441.96807276031
 30
0.0
 11
628.5943393707273
 21
441.96807276031
 31
0.0
  0
LINE
  5
19D
330
1F
100
AcDbEntity
  8
Make2D$Visible$Curves
 62
    18
420
        0
370
    -3
100
AcDbLine
 10
628.5943393707273
 20
441.96807276031
 30
0.0
 11
628.5943393707273
 21
395.4999865176342
 31
0.0
  0
LINE
  5
19E
330
1F
100
AcDbEntity
  8
Make2D$Visible$Curves
 62
    18
420
        0
370
    -3
100
AcDbLine
 10
628.5943393707273
 20
395.4999865176342
 30
0.0
 11
625.4848442077634
 21
395.4999865176342
 31
0.0
  0
LINE
  5
19F
330
1F
100
AcDbEntity
  8
Make2D$Visible$Curves
 62
    18
420
        0
370
    -3
100
AcDbLine
 10
625.4848442077634
 20
395.4999865176342
 30
0.0
 11
625.4848442077634
 21
441.96807276031
 31
0.0
  0
LINE
  5
1A0
330
1F
100
AcDbEntity
  8
Make2D$Visible$Curves
 62
    18
420
        0
370
    -3
100
AcDbLine
 10
625.4848442077634
 20
441.96807276031
 30
0.0
 11
617.1928558349607
 21
441.96807276031
 31
0.0
  0
LINE
  5
1A1
330
1F
100
AcDbEntity
  8
Make2D$Visible$Curves
 62
    18
420
        0
370
    -3
100
AcDbLine
 10
617.1928558349607
 20
441.96807276031
 30
0.0
 11
617.1928558349607
 21
447.4999865176342
 31
0.0
  0
LINE
  5
1A2
330
1F
100
AcDbEntity
  8
Make2D$Visible$Curves
 62
    18
420
        0
370
    -3
100
AcDbLine
 10
617.1928558349607
 20
447.4999865176342
 30
0.0
 11
636.8863296508787
 21
447.4999865176342
 31
0.0
  0
LINE
  5
1A3
330
1F
100
AcDbEntity
  8
Make2D$Visible$Curves
 62
    18
420
        0
370
    -3
100
AcDbLine
 10
483.6220092773435
 20
461.4999865176342
 30
0.0
 11
483.6220092773435
 21
381.4999865176342
 31
0.0
  0
LINE
  5
1A4
330
1F
100
AcDbEntity
  8
Make2D$Visible$Curves
 62
    18
420
        0
370
    -3
100
AcDbLine
 10
653.6220092773435
 20
461.4999865176342
 30
0.0
 11
483.6220092773435
 21
461.4999865176342
 31
0.0
  0
LINE
  5
1A5
330
1F
100
AcDbEntity
  8
Make2D$Visible$Curves
 62
    18
420
        0
370
    -3
100
AcDbLine
 10
653.6220092773435
 20
381.4999865176342
 30
0.0
 11
653.6220092773435
 21
461.4999865176342
 31
0.0
  0
LINE
  5
1A6
330
1F
100
AcDbEntity
  8
Make2D$Visible$Curves
 62
    18
420
        0
370
    -3
100
AcDbLine
 10
483.6220092773435
 20
381.4999865176342
 30
0.0
 11
653.6220092773435
 21
381.4999865176342
 31
0.0
  0
LINE
  5
1A7
330
1F
100
AcDbEntity
  8
Make2D$Visible$Curves
 62
    18
420
        0
370
    -3
100
AcDbLine
 10
535.6555139047714
 20
285.3312632937146
 30
0.0
 11
526.7008553749781
 21
285.331263292696
 31
0.0
  0
LINE
  5
1A8
330
1F
100
AcDbEntity
  8
Make2D$Visible$Curves
 62
    18
420
        0
370
    -3
100
AcDbLine
 10
611.471653091714
 20
365.3312632961184
 30
0.0
 11
620.4391585832395
 21
365.331263296811
 31
0.0
  0
LINE
  5
1A9
330
1F
100
AcDbEntity
  8
Make2D$Visible$Curves
 62
    18
420
        0
370
    -3
100
AcDbLine
 10
576.6771062739417
 20
285.3312633013835
 30
0.0
 11
567.0773071038714
 21
285.3312632938299
 31
0.0
  0
LINE
  5
1AA
330
1F
100
AcDbEntity
  8
Make2D$Visible$Curves
 62
    18
420
        0
370
    -3
100
AcDbLine
 10
610.3410096779846
 20
285.3312632946555
 30
0.0
 11
592.9035263713608
 21
285.3312632946555
 31
0.0
  0
LINE
  5
1AB
330
1F
100
AcDbEntity
  8
Make2D$Visible$Curves
 62
    18
420
        0
370
    -3
100
AcDbLine
 10
632.5910263713608
 20
285.3312632946555
 30
0.0
 11
617.665812696147
 21
285.3312632946555
 31
0.0
  0
LINE
  5
1AC
330
1F
100
AcDbEntity
  8
Make2D$Visible$Curves
 62
    18
420
        0
370
    -3
100
AcDbLine
 10
652.2651716705061
 20
285.3312632946555
 30
0.0
 11
637.3399579952923
 21
285.3312632946555
 31
0.0
  0
LINE
  5
1AD
330
1F
100
AcDbEntity
  8
Make2D$Visible$Curves
 62
    18
420
        0
370
    -3
100
AcDbLine
 10
580.0683519126555
 20
365.3312632969311
 30
0.0
 11
594.267724059797
 21
365.3312632946555
 31
0.0
  0
LINE
  5
1AE
330
1F
100
AcDbEntity
  8
Make2D$Visible$Curves
 62
    18
420
        0
370
    -3
100
AcDbLine
 10
596.6421898717629
 20
365.3312632946555
 30
0.0
 11
611.471653091714
 21
365.3312632961184
 31
0.0
  0
LINE
  5
1AF
330
1F
100
AcDbEntity
  8
Make2D$Visible$Curves
 62
    18
420
        0
370
    -3
100
AcDbLine
 10
620.4391585832395
 20
365.3312632976575
 30
0.0
 11
647.8554494482839
 21
365.3312632946555
 31
0.0
  0
LINE
  5
1B0
330
1F
100
AcDbEntity
  8
Make2D$Visible$Curves
 62
    18
420
        0
370
    -3
100
AcDbLine
 10
610.881624661959
 20
285.3312632946555
 30
0.0
 11
617.665812696147
 21
285.3312632946555
 31
0.0
  0
LINE
  5
1B1
330
1F
100
AcDbEntity
  8
Make2D$Visible$Curves
 62
    18
420
        0
370
    -3
100
AcDbLine
 10
576.6771062739417
 20
285.3312633013835
 30
0.0
 11
590.529060559395
 21
285.3312632946555
 31
0.0
  0
LINE
  5
1B2
330
1F
100
AcDbEntity
  8
Make2D$Visible$Curves
 62
    18
420
        0
370
    -3
100
AcDbLine
 10
552.8768169696514
 20
285.3312632946555
 30
0.0
 11
567.0773071038714
 21
285.33126329238
 31
0.0
  0
LINE
  5
1B3
330
1F
100
AcDbEntity
  8
Make2D$Visible$Curves
 62
    18
420
        0
370
    -3
100
AcDbLine
 10
535.6555139047714
 20
285.3312632937146
 30
0.0
 11
550.5023511576856
 21
285.3312632946555
 31
0.0
  0
LINE
  5
1B4
330
1F
100
AcDbEntity
  8
Make2D$Visible$Curves
 62
    18
420
        0
370
    -3
100
AcDbLine
 10
499.2817314995659
 20
285.3312632946555
 30
0.0
 11
526.7008553749781
 21
285.3312632918488
 31
0.0
  0
LINE
  5
1B5
330
1F
100
AcDbEntity
  8
Make2D$Visible$Curves
 62
    18
420
        0
370
    -3
100
AcDbLine
 10
483.6220092773438
 20
285.3312632946555
 30
0.0
 11
496.9072656876001
 21
285.3312632946555
 31
0.0
  0
LINE
  5
1B6
330
1F
100
AcDbEntity
  8
Make2D$Visible$Curves
 62
    18
420
        0
370
    -3
100
AcDbLine
 10
650.2299152602498
 20
365.3312632946555
 30
0.0
 11
653.6220092773435
 21
365.3312632946555
 31
0.0
  0
LINE
  5
1B7
330
1F
100
AcDbEntity
  8
Make2D$Visible$Curves
 62
    18
420
        0
370
    -3
100
AcDbLine
 10
570.468552742585
 20
365.3312632879275
 30
0.0
 11
580.0683519126555
 21
365.3312632954811
 31
0.0
  0
LINE
  5
1B8
330
1F
100
AcDbEntity
  8
Make2D$Visible$Curves
 62
    18
420
        0
370
    -3
100
AcDbLine
 10
556.6209772398549
 20
365.3312632946555
 30
0.0
 11
570.468552742585
 21
365.3312632879275
 31
0.0
  0
LINE
  5
1B9
330
1F
100
AcDbEntity
  8
Make2D$Visible$Curves
 62
    18
420
        0
370
    -3
100
AcDbLine
 10
536.8090281212651
 20
365.3312632946555
 30
0.0
 11
554.2465114278891
 21
365.3312632946555
 31
0.0
  0
LINE
  5
1BA
330
1F
100
AcDbEntity
  8
Make2D$Visible$Curves
 62
    18
420
        0
370
    -3
100
AcDbLine
 10
529.487951726697
 20
365.3312632946555
 30
0.0
 11
536.2684131372907
 21
365.3312632946555
 31
0.0
  0
LINE
  5
1BB
330
1F
100
AcDbEntity
  8
Make2D$Visible$Curves
 62
    18
420
        0
370
    -3
100
AcDbLine
 10
514.5627380514834
 20
365.3312632946555
 30
0.0
 11
529.487951726697
 21
365.3312632946555
 31
0.0
  0
LINE
  5
1BC
330
1F
100
AcDbEntity
  8
Make2D$Visible$Curves
 62
    18
420
        0
370
    -3
100
AcDbLine
 10
494.8912945544439
 20
365.3312632946555
 30
0.0
 11
509.8165082296575
 21
365.3312632946555
 31
0.0
  0
LINE
  5
1BD
330
1F
100
AcDbEntity
  8
Make2D$Visible$Curves
 62
    18
420
        0
370
    -3
100
AcDbLine
 10
499.2817314995659
 20
300.2564769698691
 30
0.0
 11
499.2817314995659
 21
309.0759214143137
 31
0.0
  0
LINE
  5
1BE
330
1F
100
AcDbEntity
  8
Make2D$Visible$Curves
 62
    18
420
        0
370
    -3
100
AcDbLine
 10
503.9140598916599
 20
300.1981753539504
 30
0.0
 11
499.2817314995659
 21
300.2564769698691
 31
0.0
  0
SPLINE
  5
1BF
330
1F
100
AcDbEntity
  8
Make2D$Visible$Curves
 62
    18
420
        0
370
    -3
100
AcDbSpline
210
0.0
220
0.0
230
1.0
 70
     8
 71
     3
 72
    23
 73
    19
 74
     0
 42
0.000000001
 43
0.0000000001
 40
-1.0
 40
-1.0
 40
-1.0
 40
-1.0
 40
-0.9295377253736503
 40
-0.8616100315349609
 40
-0.7934109797841586
 40
-0.7243019277193715
 40
-0.6549956230439079
 40
-0.5864091069189453
 40
-0.5165994550425494
 40
-0.4443189648693388
 40
-0.4048898764882258
 40
-0.3617272313157957
 40
-0.3132640246592708
 40
-0.2606047435747227
 40
-0.2025187514244029
 40
-0.1400497848722063
 40
-0.0725466358671724
 40
0.0
 40
0.0
 40
0.0
 40
0.0
 10
510.8148511576856
 20
304.6820996327966
 30
0.0
 10
510.8057161826227
 20
304.4622640815047
 30
0.0
 10
510.7877748243911
 20
304.0305006283362
 30
0.0
 10
510.6441180193467
 20
303.3991403041831
 30
0.0
 10
510.4108175403467
 20
302.8009462770739
 30
0.0
 10
510.0801107039929
 20
302.244780729481
 30
0.0
 10
509.6714189488864
 20
301.7434880884103
 30
0.0
 10
509.1982670452494
 20
301.2963889690674
 30
0.0
 10
508.6356109809117
 20
300.9512592093978
 30
0.0
 10
508.1205580031499
 20
300.7141744490719
 30
0.0
 10
507.6623392477004
 20
300.5599832702034
 30
0.0
 10
507.2639942475187
 20
300.4676947757199
 30
0.0
 10
506.8222263281871
 20
300.3828051794945
 30
0.0
 10
506.3304281345766
 20
300.3145440059035
 30
0.0
 10
505.7928476014667
 20
300.2624696968529
 30
0.0
 10
505.2075984627497
 20
300.2280390799918
 30
0.0
 10
504.576881500717
 20
300.1978103719952
 30
0.0
 10
504.1402418647615
 20
300.1980508071075
 30
0.0
 10
503.9140598916599
 20
300.1981753539504
 30
0.0
  0
SPLINE
  5
1C0
330
1F
100
AcDbEntity
  8
Make2D$Visible$Curves
 62
    18
420
        0
370
    -3
100
AcDbSpline
210
0.0
220
0.0
230
1.0
 70
     8
 71
     3
 72
    23
 73
    19
 74
     0
 42
0.000000001
 43
0.0000000001
 40
-1.0
 40
-1.0
 40
-1.0
 40
-1.0
 40
-0.9266681484102283
 40
-0.8585366487549836
 40
-0.7961316210116778
 40
-0.7382223685571462
 40
-0.6859574095254516
 40
-0.6381180465595571
 40
-0.5954902100367271
 40
-0.5575765146860606
 40
-0.4875402944044496
 40
-0.4182943975547195
 40
-0.3499370785383945
 40
-0.2791337038703995
 40
-0.2081678701726041
 40
-0.1392185309890248
 40
-0.0700338021960794
 40
0.0
 40
0.0
 40
0.0
 40
0.0
 10
504.1207656208267
 20
309.0759214143137
 30
0.0
 10
504.3433887391086
 20
309.075371127307
 30
0.0
 10
504.7728475853542
 20
309.0743095770744
 30
0.0
 10
505.3914848744157
 20
309.0532085831059
 30
0.0
 10
505.9624718461284
 20
309.0167714133137
 30
0.0
 10
506.4839070597359
 20
308.9643014155421
 30
0.0
 10
506.9591046319235
 20
308.899298905069
 30
0.0
 10
507.3874612300115
 20
308.8313668428708
 30
0.0
 10
507.764906816117
 20
308.732853033459
 30
0.0
 10
508.2016079879777
 20
308.5964571069377
 30
0.0
 10
508.6892765216246
 20
308.3634867349805
 30
0.0
 10
509.2179280572113
 20
308.0159269041977
 30
0.0
 10
509.6810481424757
 20
307.5806740991487
 30
0.0
 10
510.0798215821922
 20
307.0804845054321
 30
0.0
 10
510.4083123260255
 20
306.5287978388584
 30
0.0
 10
510.6453035308498
 20
305.9373848662796
 30
0.0
 10
510.786331577923
 20
305.317661407143
 30
0.0
 10
510.8053060569098
 20
304.8948131873384
 30
0.0
 10
510.8148511576856
 20
304.6820996327966
 30
0.0
  0
LINE
  5
1C1
330
1F
100
AcDbEntity
  8
Make2D$Visible$Curves
 62
    18
420
        0
370
    -3
100
AcDbLine
 10
499.2817314995659
 20
309.0759214143137
 30
0.0
 11
504.1207656208267
 21
309.0759214143137
 31
0.0
  0
SPLINE
  5
1C2
330
1F
100
AcDbEntity
  8
Make2D$Visible$Curves
 62
    18
420
        0
370
    -3
100
AcDbSpline
210
0.0
220
0.0
230
1.0
 70
     8
 71
     3
 72
    15
 73
    11
 74
     0
 42
0.000000001
 43
0.0000000001
 40
0.0
 40
0.0
 40
0.0
 40
0.0
 40
0.0751715905611812
 40
0.1647429114078659
 40
0.2680114373901289
 40
0.3859639562109172
 40
0.5177992732835657
 40
0.6636978076578757
 40
0.8244167868186478
 40
1.0
 40
1.0
 40
1.0
 40
1.0
 10
507.9103706555488
 20
297.9774138021343
 30
0.0
 10
507.7446085647703
 20
297.9421901563159
 30
0.0
 10
507.3813313049429
 20
297.8649954885008
 30
0.0
 10
506.7830875252221
 20
297.7782308435382
 30
0.0
 10
506.0862005587505
 20
297.7070743544435
 30
0.0
 10
505.293041524217
 20
297.6406705491307
 30
0.0
 10
504.4017607920714
 20
297.605484834102
 30
0.0
 10
503.4144025338826
 20
297.5641710652945
 30
0.0
 10
502.3276251966324
 20
297.5446773553145
 30
0.0
 10
501.5696318867133
 20
297.543445110579
 30
0.0
 10
501.1738839434761
 20
297.5428017561941
 30
0.0
  0
SPLINE
  5
1C3
330
1F
100
AcDbEntity
  8
Make2D$Visible$Curves
 62
    18
420
        0
370
    -3
100
AcDbSpline
210
0.0
220
0.0
230
1.0
 70
     8
 71
     3
 72
    23
 73
    19
 74
     0
 42
0.000000001
 43
0.0000000001
 40
0.0
 40
0.0
 40
0.0
 40
0.0
 40
0.0701188944197145
 40
0.1371923527859707
 40
0.2020161807247509
 40
0.2646314069747427
 40
0.3261165471458178
 40
0.386010304667641
 40
0.4458118469576798
 40
0.5052976967309604
 40
0.5646332777264886
 40
0.6242826253338402
 40
0.6839020319037513
 40
0.7439527709382701
 40
0.8053877310076346
 40
0.8683880308962799
 40
0.9330840282524772
 40
1.0
 40
1.0
 40
1.0
 40
1.0
 10
513.1893169696514
 20
304.6926999266001
 30
0.0
 10
513.1861311993789
 20
304.47515363779
 30
0.0
 10
513.1798980246726
 20
304.049509630583
 30
0.0
 10
513.1050868201035
 20
303.4268105770137
 30
0.0
 10
513.0043169191763
 20
302.8317370325666
 30
0.0
 10
512.8493689640839
 20
302.2656084486608
 30
0.0
 10
512.6464284591138
 20
301.7317868504591
 30
0.0
 10
512.4083635358161
 20
301.2221144417309
 30
0.0
 10
512.1212261336159
 20
300.7452621601166
 30
0.0
 10
511.7912920042568
 20
300.2994988310815
 30
0.0
 10
511.4242650704534
 20
299.8844060415637
 30
0.0
 10
511.0216982166021
 20
299.5029918212914
 30
0.0
 10
510.5852166602012
 20
299.1574887867877
 30
0.0
 10
510.1162075646239
 20
298.8471223792038
 30
0.0
 10
509.6100985883002
 20
298.5790897901439
 30
0.0
 10
509.0745656416625
 20
298.3390196874331
 30
0.0
 10
508.5049538865683
 20
298.1373991695112
 30
0.0
 10
508.110781310683
 20
298.0313385861092
 30
0.0
 10
507.9103706555488
 20
297.9774138021343
 30
0.0
  0
SPLINE
  5
1C4
330
1F
100
AcDbEntity
  8
Make2D$Visible$Curves
 62
    18
420
        0
370
    -3
100
AcDbSpline
210
0.0
220
0.0
230
1.0
 70
     8
 71
     3
 72
    23
 73
    19
 74
     0
 42
0.000000001
 43
0.0000000001
 40
0.0
 40
0.0
 40
0.0
 40
0.0
 40
0.0624718514428974
 40
0.1234716318564938
 40
0.1833832449898873
 40
0.2431163005141077
 40
0.3020808603235955
 40
0.3612864676158197
 40
0.4214099579157638
 40
0.4824902917959343
 40
0.5441012883206997
 40
0.6057205401879422
 40
0.6671855095049088
 40
0.7300253868203679
 40
0.7945821167592376
 40
0.8603668248909617
 40
0.9289181510021453
 40
1.0
 40
1.0
 40
1.0
 40
1.0
 10
508.1223765316172
 20
311.3920856103606
 30
0.0
 10
508.3052665311754
 20
311.3420248643118
 30
0.0
 10
508.6667369562406
 20
311.2430829910708
 30
0.0
 10
509.1876191131901
 20
311.0449480652334
 30
0.0
 10
509.6830892854462
 20
310.8098764882903
 30
0.0
 10
510.1553588957622
 20
310.5424773130031
 30
0.0
 10
510.5958262993797
 20
310.2295879180873
 30
0.0
 10
511.0191747227398
 20
309.8920235075647
 30
0.0
 10
511.4104599933783
 20
309.50796923374
 30
0.0
 10
511.7749820209351
 20
309.0895382863868
 30
0.0
 10
512.1118996184241
 20
308.642037665329
 30
0.0
 10
512.3949713206393
 20
308.1573368565629
 30
0.0
 10
512.6424804003666
 20
307.6499068145725
 30
0.0
 10
512.8451286442398
 20
307.1128511444205
 30
0.0
 10
512.9958262978512
 20
306.5456484382586
 30
0.0
 10
513.1077041228489
 20
305.9523295920998
 30
0.0
 10
513.1790415548558
 20
305.3322274484671
 30
0.0
 10
513.1858506981503
 20
304.9084358425936
 30
0.0
 10
513.1893169696514
 20
304.6926999266001
 30
0.0
  0
SPLINE
  5
1C5
330
1F
100
AcDbEntity
  8
Make2D$Visible$Curves
 62
    18
420
        0
370
    -3
100
AcDbSpline
210
0.0
220
0.0
230
1.0
 70
     8
 71
     3
 72
    15
 73
    11
 74
     0
 42
0.000000001
 43
0.0000000001
 40
0.0
 40
0.0
 40
0.0
 40
0.0
 40
0.1769557521312508
 40
0.3390550796425808
 40
0.4863182249420772
 40
0.6187809228353777
 40
0.735618827767381
 40
0.8387424767201106
 40
0.9264570678763171
 40
1.0
 40
1.0
 40
1.0
 40
1.0
 10
502.0961095043735
 20
311.7895966279888
 30
0.0
 10
502.4530014734962
 20
311.7892043171206
 30
0.0
 10
503.1368223358152
 20
311.7884526320746
 30
0.0
 10
504.1174063879002
 20
311.7656625892258
 30
0.0
 10
505.0079918591232
 20
311.7352227144771
 30
0.0
 10
505.8066584292239
 20
311.6930262599814
 30
0.0
 10
506.5158634564261
 20
311.6431591789436
 30
0.0
 10
507.1323978041887
 20
311.5732181669833
 30
0.0
 10
507.6611075455221
 20
311.500190932741
 30
0.0
 10
507.9779003478855
 20
311.4259457763145
 30
0.0
 10
508.1223765316172
 20
311.3920856103606
 30
0.0
  0
SPLINE
  5
1C6
330
1F
100
AcDbEntity
  8
Make2D$Visible$Curves
 62
    18
420
        0
370
    -3
100
AcDbSpline
210
0.0
220
0.0
230
1.0
 70
     8
 71
     3
 72
    31
 73
    27
 74
     0
 42
0.000000001
 43
0.0000000001
 40
0.0
 40
0.0
 40
0.0
 40
0.0
 40
0.0420169393675496
 40
0.0836321939327532
 40
0.124964793084855
 40
0.1662221851798714
 40
0.2075844058555152
 40
0.2495075456631035
 40
0.291611842753466
 40
0.3346064099566156
 40
0.3774695339454724
 40
0.4193916303568061
 40
0.4608731801016696
 40
0.501919046217504
 40
0.5427072740300423
 40
0.5838361794619092
 40
0.6246544238464966
 40
0.6660092411303702
 40
0.7074369769502054
 40
0.7485882104911059
 40
0.7894032398702892
 40
0.8307654605459326
 40
0.8720895925056577
 40
0.9140064715461342
 40
0.9565047440209875
 40
1.0
 40
1.0
 40
1.0
 40
1.0
 10
531.1144137912327
 20
309.7543402177324
 30
0.0
 10
530.8633237672705
 20
309.7512901148863
 30
0.0
 10
530.3635441570786
 20
309.7452190683847
 30
0.0
 10
529.6206073390288
 20
309.6648114839094
 30
0.0
 10
528.8872157540304
 20
309.5510310004687
 30
0.0
 10
528.1647886122194
 20
309.3857818391795
 30
0.0
 10
527.4518108489042
 20
309.1720392290025
 30
0.0
 10
526.7479659306234
 20
308.9142487701553
 30
0.0
 10
526.0556671089666
 20
308.6026703683982
 30
0.0
 10
525.3757792609583
 20
308.2522625976036
 30
0.0
 10
524.724005568148
 20
307.8542554251368
 30
0.0
 10
524.0987763739902
 20
307.4316106813027
 30
0.0
 10
523.5163544161564
 20
306.9686248238669
 30
0.0
 10
522.9687388489992
 20
306.4753106293816
 30
0.0
 10
522.4572915373224
 20
305.9473868918161
 30
0.0
 10
521.9822380763812
 20
305.3883205503361
 30
0.0
 10
521.5439680277964
 20
304.79569349054
 30
0.0
 10
521.1477557820326
 20
304.1719446238332
 30
0.0
 10
520.7951578115487
 20
303.5205564789145
 30
0.0
 10
520.4794620655225
 20
302.8539807867211
 30
0.0
 10
520.2177623382499
 20
302.1643838962544
 30
0.0
 10
520.0104571633938
 20
301.4560691022988
 30
0.0
 10
519.8345025702863
 20
300.7321577898189
 30
0.0
 10
519.7241308268685
 20
299.9887058283751
 30
0.0
 10
519.6429309785126
 20
299.2282761616078
 30
0.0
 10
519.6371962232756
 20
298.7143627892139
 30
0.0
 10
519.6342956021299
 20
298.4544270232881
 30
0.0
  0
SPLINE
  5
1C7
330
1F
100
AcDbEntity
  8
Make2D$Visible$Curves
 62
    18
420
        0
370
    -3
100
AcDbSpline
210
0.0
220
0.0
230
1.0
 70
     8
 71
     3
 72
    23
 73
    19
 74
     0
 42
0.000000001
 43
0.0000000001
 40
-1.0
 40
-1.0
 40
-1.0
 40
-1.0
 40
-0.9343195342120171
 40
-0.8704914148329131
 40
-0.808335087300985
 40
-0.746642892898242
 40
-0.6852449183118441
 40
-0.6234914544587009
 40
-0.5606573899254015
 40
-0.4961718604630166
 40
-0.4318217004817563
 40
-0.3695802522422905
 40
-0.3085857736451377
 40
-0.248419711615723
 40
-0.187738962986418
 40
-0.1268942001610428
 40
-0.0645013960313463
 40
0.0
 40
0.0
 40
0.0
 40
0.0
 10
531.1144137912327
 20
287.3665197049119
 30
0.0
 10
530.7251822063001
 20
287.37444197399
 30
0.0
 10
529.9576962991557
 20
287.3900630851878
 30
0.0
 10
528.8314289753062
 20
287.5509002297055
 30
0.0
 10
527.7468513134047
 20
287.7990565183762
 30
0.0
 10
526.703939342151
 20
288.1471020298762
 30
0.0
 10
525.7093798079143
 20
288.6090939775651
 30
0.0
 10
524.7546813371605
 20
289.1617307797068
 30
0.0
 10
523.8453465629111
 20
289.8183592103734
 30
0.0
 10
522.9885698039582
 20
290.565372302222
 30
0.0
 10
522.2050330767172
 20
291.3841278180761
 30
0.0
 10
521.5148407664119
 20
292.2571306304363
 30
0.0
 10
520.9345299303604
 20
293.177882105101
 30
0.0
 10
520.4587861438226
 20
294.146110629454
 30
0.0
 10
520.0858577247559
 20
295.1580482115188
 30
0.0
 10
519.8286322022757
 20
296.2182073538423
 30
0.0
 10
519.6629580277408
 20
297.320269096279
 30
0.0
 10
519.6439550013133
 20
298.072209401423
 30
0.0
 10
519.6342956021299
 20
298.4544270232881
 30
0.0
  0
SPLINE
  5
1C8
330
1F
100
AcDbEntity
  8
Make2D$Visible$Curves
 62
    18
420
        0
370
    -3
100
AcDbSpline
210
0.0
220
0.0
230
1.0
 70
     8
 71
     3
 72
    31
 73
    27
 74
     0
 42
0.000000001
 43
0.0000000001
 40
-1.0
 40
-1.0
 40
-1.0
 40
-1.0
 40
-0.9569503497023838
 40
-0.9145995823187453
 40
-0.8731193420045337
 40
-0.8320051480921697
 40
-0.7910688376969734
 40
-0.7503954711262045
 40
-0.7095111892114297
 40
-0.6684858406459682
 40
-0.6272745596928764
 40
-0.5867724321377239
 40
-0.5462017222452861
 40
-0.5055550642169675
 40
-0.4648486033910949
 40
-0.4241069427366407
 40
-0.3824960062755333
 40
-0.3400837421014418
 40
-0.2975069004894527
 40
-0.2553978602689808
 40
-0.2134438421978277
 40
-0.1714587739055219
 40
-0.1291942523556783
 40
-0.0865491091497462
 40
-0.0436389322024257
 40
0.0
 40
0.0
 40
0.0
 40
0.0
 10
542.7005349183694
 20
298.5763304020273
 30
0.0
 10
542.6975052256321
 20
298.3181792427785
 30
0.0
 10
542.6914950252376
 20
297.8060678394953
 30
0.0
 10
542.6117523475762
 20
297.0489117231435
 30
0.0
 10
542.4977609025345
 20
296.3083922716195
 30
0.0
 10
542.3322967195886
 20
295.5860089126121
 30
0.0
 10
542.1212464796256
 20
294.8807277627874
 30
0.0
 10
541.859434344846
 20
294.1941352897351
 30
0.0
 10
541.552870186574
 20
293.5257270385115
 30
0.0
 10
541.1959699819802
 20
292.8790879066775
 30
0.0
 10
540.8011009046147
 20
292.2578937669108
 30
0.0
 10
540.3704086675023
 20
291.6640089217443
 30
0.0
 10
539.8967077814314
 20
291.1083402321716
 30
0.0
 10
539.3888448503519
 20
290.5820393283599
 30
0.0
 10
538.8414862167008
 20
290.0953505512288
 30
0.0
 10
538.2600676811123
 20
289.6405339114195
 30
0.0
 10
537.6386309862139
 20
289.2235868072825
 30
0.0
 10
536.9851524933235
 20
288.8367946505183
 30
0.0
 10
536.3031273483296
 20
288.4963005186061
 30
0.0
 10
535.6078267562909
 20
288.1907785438508
 30
0.0
 10
534.895831767034
 20
287.9359136046422
 30
0.0
 10
534.1673788643427
 20
287.7304431368726
 30
0.0
 10
533.4246660496237
 20
287.5640689440207
 30
0.0
 10
532.6667202073743
 20
287.4490827566691
 30
0.0
 10
531.8949417630208
 20
287.3772347845185
 30
0.0
 10
531.3760461722807
 20
287.3701113914266
 30
0.0
 10
531.1144137912327
 20
287.3665197049119
 30
0.0
  0
SPLINE
  5
1C9
330
1F
100
AcDbEntity
  8
Make2D$Visible$Curves
 62
    18
420
        0
370
    -3
100
AcDbSpline
210
0.0
220
0.0
230
1.0
 70
     8
 71
     3
 72
    31
 73
    27
 74
     0
 42
0.000000001
 43
0.0000000001
 40
-1.0
 40
-1.0
 40
-1.0
 40
-1.0
 40
-0.957384165015043
 40
-0.9151727501235826
 40
-0.8732484202868831
 40
-0.8311179398215786
 40
-0.7891810871599361
 40
-0.7469727822613499
 40
-0.7040489965584021
 40
-0.6607840408957081
 40
-0.6175565226132284
 40
-0.5752157277368524
 40
-0.5334419646149945
 40
-0.4923653600154857
 40
-0.4517817353956144
 40
-0.4110947347866952
 40
-0.3705067975771913
 40
-0.3296427304945533
 40
-0.2887262276005485
 40
-0.2482289512159934
 40
-0.2079592198575888
 40
-0.1674392592498103
 40
-0.1264629118774679
 40
-0.0851229657858836
 40
-0.0429115508944228
 40
0.0
 40
0.0
 40
0.0
 40
0.0
 10
531.1144137912327
 20
309.7543402177324
 30
0.0
 10
531.3690325530499
 20
309.7512809517328
 30
0.0
 10
531.8758537696121
 20
309.7451914518678
 30
0.0
 10
532.6294019847776
 20
309.6649133060395
 30
0.0
 10
533.3749794143334
 20
309.5503980165994
 30
0.0
 10
534.1099835703919
 20
309.3864199049866
 30
0.0
 10
534.8339870159621
 20
309.1734003768339
 30
0.0
 10
535.5466475329029
 20
308.9114124326853
 30
0.0
 10
536.2508144694625
 20
308.6063703533686
 30
0.0
 10
536.9364312893172
 20
308.2488238094742
 30
0.0
 10
537.6031571929509
 20
307.8635872374172
 30
0.0
 10
538.2274553941347
 20
307.4282971239674
 30
0.0
 10
538.8234439361768
 20
306.9763746699729
 30
0.0
 10
539.3762834818524
 20
306.4874577579695
 30
0.0
 10
539.8860705091613
 20
305.9634354806814
 30
0.0
 10
540.3650614084893
 20
305.4147893686021
 30
0.0
 10
540.7996961250249
 20
304.8281603210791
 30
0.0
 10
541.1974451815177
 20
304.2145157357428
 30
0.0
 10
541.5512934744104
 20
303.5750237293133
 30
0.0
 10
541.8596108091876
 20
302.916375906144
 30
0.0
 10
542.1210745853991
 20
302.2402011292114
 30
0.0
 10
542.3331203827042
 20
301.5439801248218
 30
0.0
 10
542.4976360943874
 20
300.8283668552521
 30
0.0
 10
542.6117916341123
 20
300.0931788867252
 30
0.0
 10
542.6914877222007
 20
299.3413024624343
 30
0.0
 10
542.6975026952712
 20
298.8327154640723
 30
0.0
 10
542.7005349183694
 20
298.5763304020273
 30
0.0
  0
SPLINE
  5
1CA
330
1F
100
AcDbEntity
  8
Make2D$Visible$Curves
 62
    18
420
        0
370
    -3
100
AcDbSpline
210
0.0
220
0.0
230
1.0
 70
     8
 71
     3
 72
    20
 73
    16
 74
     0
 42
0.000000001
 43
0.0000000001
 40
0.0
 40
0.0
 40
0.0
 40
0.0
 40
0.0652342872258439
 40
0.1285843375588971
 40
0.1903430886116884
 40
0.2514079850000838
 40
0.312205576544564
 40
0.3736140793532896
 40
0.4362640098418411
 40
0.5004072585291455
 40
0.564534949905739
 40
0.6271370835563654
 40
0.6883383114031626
 40
0.7492395926887592
 40
0.7936570269637475
 40
0.7936570269637475
 40
0.7936570269637475
 40
0.7936570269637475
 10
545.0750007303352
 20
298.5710302551257
 30
0.0
 10
545.0632787324614
 20
298.0951044076093
 30
0.0
 10
545.0401733166509
 20
297.1569994258199
 30
0.0
 10
544.8424250290952
 20
295.7800463521718
 30
0.0
 10
544.5318984874605
 20
294.4565739240774
 30
0.0
 10
544.0904807692068
 20
293.1895319943425
 30
0.0
 10
543.5189454862098
 20
291.9787739207326
 30
0.0
 10
542.8202751245358
 20
290.8231713990787
 30
0.0
 10
541.994855583642
 20
289.7239484305288
 30
0.0
 10
541.056425518914
 20
288.6928155182721
 30
0.0
 10
540.0303967858968
 20
287.7495676420596
 30
0.0
 10
538.9383154011443
 20
286.9175862750038
 30
0.0
 10
537.7836178358928
 20
286.2196392557859
 30
0.0
 10
536.6864502013009
 20
285.6939946494132
 30
0.0
 10
535.9638864943204
 20
285.4309572235981
 30
0.0
 10
535.6555139047714
 20
285.3312632937146
 30
0.0
  0
SPLINE
  5
1CB
330
1F
100
AcDbEntity
  8
Make2D$Visible$Curves
 62
    18
420
        0
370
    -3
100
AcDbSpline
210
0.0
220
0.0
230
1.0
 70
     8
 71
     3
 72
    23
 73
    19
 74
     0
 42
0.000000001
 43
0.0000000001
 40
0.0
 40
0.0
 40
0.0
 40
0.0
 40
0.0665665108701526
 40
0.1307421193777698
 40
0.1933478019441159
 40
0.2549983247511645
 40
0.3161192457075412
 40
0.3772642104378199
 40
0.4393999469254533
 40
0.50280522594698
 40
0.5663562482448943
 40
0.6282507846700166
 40
0.6891070707377751
 40
0.7493579391685857
 40
0.8101796433571201
 40
0.871616621538582
 40
0.9348726322227678
 40
1.0
 40
1.0
 40
1.0
 40
1.0
 10
530.997810559395
 20
312.4680154314077
 30
0.0
 10
531.4877823954123
 20
312.4558155253538
 30
0.0
 10
532.4501275061734
 20
312.4318539033183
 30
0.0
 10
533.8631652027591
 20
312.2423760523315
 30
0.0
 10
535.2162121556398
 20
311.9305153353863
 30
0.0
 10
536.510046217141
 20
311.490101413843
 30
0.0
 10
537.7397466159032
 20
310.9191601051169
 30
0.0
 10
538.9087863503489
 20
310.2256299232112
 30
0.0
 10
540.0136619254765
 20
309.4052961503338
 30
0.0
 10
541.046768037108
 20
308.4702046046597
 30
0.0
 10
541.9892001509613
 20
307.4461267534087
 30
0.0
 10
542.8161892239489
 20
306.3498319919471
 30
0.0
 10
543.5138325501675
 20
305.1951036373536
 30
0.0
 10
544.0849295973871
 20
303.9818814620895
 30
0.0
 10
544.5332786294023
 20
302.7129980024353
 30
0.0
 10
544.8425853598069
 20
301.3813418185631
 30
0.0
 10
545.0401832723207
 20
299.9956348492486
 30
0.0
 10
545.063282676236
 20
299.0504906941038
 30
0.0
 10
545.0750007303352
 20
298.5710302551257
 30
0.0
  0
SPLINE
  5
1CC
330
1F
100
AcDbEntity
  8
Make2D$Visible$Curves
 62
    18
420
        0
370
    -3
100
AcDbSpline
210
0.0
220
0.0
230
1.0
 70
     8
 71
     3
 72
    31
 73
    27
 74
     0
 42
0.000000001
 43
0.0000000001
 40
0.0
 40
0.0
 40
0.0
 40
0.0
 40
0.0432089861713366
 40
0.085872871630619
 40
0.128120006696703
 40
0.1701519644541992
 40
0.2119176209878613
 40
0.2537530026191243
 40
0.2960064088559507
 40
0.3384433571447844
 40
0.381015368162034
 40
0.4228204794407608
 40
0.4640890557943133
 40
0.5051258486836864
 40
0.545974970685241
 40
0.5869852111338598
 40
0.6283385916346628
 40
0.670083801591206
 40
0.7119916023637222
 40
0.7530391548630186
 40
0.7940493953116375
 40
0.8348855427015816
 40
0.8754983129295132
 40
0.9165472998303792
 40
0.9580037786449604
 40
1.0
 40
1.0
 40
1.0
 40
1.0
 10
517.2598297901641
 20
298.4438267294846
 30
0.0
 10
517.2638713799945
 20
298.7585498830771
 30
0.0
 10
517.2719035731893
 20
299.3840258167285
 30
0.0
 10
517.3686026769715
 20
300.3128388059753
 30
0.0
 10
517.508920299189
 20
301.2267146117139
 30
0.0
 10
517.7100180904852
 20
302.123054515968
 30
0.0
 10
517.9730265254425
 20
302.9996643408007
 30
0.0
 10
518.2833603039285
 20
303.8625897503374
 30
0.0
 10
518.6623936587143
 20
304.7030857572223
 30
0.0
 10
519.0908723671032
 20
305.5251340159911
 30
0.0
 10
519.5691015110854
 20
306.3159199708249
 30
0.0
 10
520.0973289027761
 20
307.0634025339315
 30
0.0
 10
520.6570010334558
 20
307.7738541167497
 30
0.0
 10
521.2705576400488
 20
308.4288642052949
 30
0.0
 10
521.9177771959908
 20
309.0474876791949
 30
0.0
 10
522.6091589830767
 20
309.6202177423835
 30
0.0
 10
523.3404842827449
 20
310.1522188597336
 30
0.0
 10
524.1148998916872
 20
310.6316464381392
 30
0.0
 10
524.9133237553601
 20
311.0652541819614
 30
0.0
 10
525.7363803492874
 20
311.4373479364143
 30
0.0
 10
526.5728913362645
 20
311.7567080442619
 30
0.0
 10
527.4267746866537
 20
312.0155523775965
 30
0.0
 10
528.2957629041659
 20
312.219901697298
 30
0.0
 10
529.1817525851632
 20
312.3590525259305
 30
0.0
 10
530.0840378909661
 20
312.4559982623417
 30
0.0
 10
530.6919091711236
 20
312.4639924738086
 30
0.0
 10
530.997810559395
 20
312.4680154314077
 30
0.0
  0
SPLINE
  5
1CD
330
1F
100
AcDbEntity
  8
Make2D$Visible$Curves
 62
    18
420
        0
370
    -3
100
AcDbSpline
210
0.0
220
0.0
230
1.0
 70
     8
 71
     3
 72
    31
 73
    27
 74
     0
 42
0.000000001
 43
0.0000000001
 40
0.0
 40
0.0
 40
0.0
 40
0.0
 40
0.0420398545876708
 40
0.083545408302753
 40
0.1246444646699434
 40
0.1653049307531931
 40
0.2061730760884771
 40
0.2469735097666685
 40
0.2883325230572412
 40
0.3299902604286031
 40
0.3718016728048965
 40
0.4127422918034052
 40
0.4534644028985403
 40
0.4938328879852714
 40
0.5343754078586228
 40
0.5749467438528499
 40
0.6158873628513586
 40
0.6572456869341675
 40
0.6990032067341148
 40
0.740483342223824
 40
0.7823226968026875
 40
0.8245654737365566
 40
0.8670397417983549
 40
0.9104985204644477
 40
0.9546186635416556
 40
1.0
 40
1.0
 40
1.0
 40
1.0
 10
557.2865391918735
 20
298.5710302551257
 30
0.0
 10
557.2905626579584
 20
298.8822275232291
 30
0.0
 10
557.2985584543314
 20
299.5006669322471
 30
0.0
 10
557.3955132607086
 20
300.4188263286804
 30
0.0
 10
557.5346191751034
 20
301.3206827932157
 30
0.0
 10
557.7390821874505
 20
302.205498868252
 30
0.0
 10
557.9968331168277
 20
303.073866417527
 30
0.0
 10
558.3185194393714
 20
303.9261851769317
 30
0.0
 10
558.6930468031012
 20
304.7629711928099
 30
0.0
 10
559.1283976438729
 20
305.5784154113954
 30
0.0
 10
559.6127267881618
 20
306.3618815451053
 30
0.0
 10
560.1389275202055
 20
307.1095356049358
 30
0.0
 10
560.7110601386655
 20
307.8092603888728
 30
0.0
 10
561.3307906150956
 20
308.4626768154463
 30
0.0
 10
561.985626281021
 20
309.0794693566658
 30
0.0
 10
562.6893143894931
 20
309.6467541661488
 30
0.0
 10
563.4311934752427
 20
310.1734083162056
 30
0.0
 10
564.2170145944701
 20
310.6493121673128
 30
0.0
 10
565.0343777563326
 20
311.0769382068423
 30
0.0
 10
565.8815062035278
 20
311.4518004713253
 30
0.0
 10
566.7580920893456
 20
311.761617133211
 30
0.0
 10
567.6575813606933
 20
312.0244897203958
 30
0.0
 10
568.586778970217
 20
312.2188841084111
 30
0.0
 10
569.5389428950559
 20
312.3598596963121
 30
0.0
 10
570.5190359916169
 20
312.4563237659489
 30
0.0
 10
571.181522643544
 20
312.4640817694357
 30
0.0
 10
571.5174336229634
 20
312.4680154314077
 30
0.0
  0
SPLINE
  5
1CE
330
1F
100
AcDbEntity
  8
Make2D$Visible$Curves
 62
    18
420
        0
370
    -3
100
AcDbSpline
210
0.0
220
0.0
230
1.0
 70
     8
 71
     3
 72
    15
 73
    11
 74
     0
 42
0.000000001
 43
0.0000000001
 40
0.0
 40
0.0
 40
0.0
 40
0.0
 40
0.1278956773735373
 40
0.2536684183228705
 40
0.3767384322070105
 40
0.4993444727460728
 40
0.6219993068560801
 40
0.745698547513128
 40
0.8713451527522131
 40
0.9999999999999999
 40
0.9999999999999999
 40
0.9999999999999999
 40
0.9999999999999999
 10
560.5302290957197
 20
289.6561831664504
 30
0.0
 10
560.2717997293014
 20
289.9787529838503
 30
0.0
 10
559.7592306575875
 20
290.6185382921495
 30
0.0
 10
559.0994493545727
 20
291.6436093006267
 30
0.0
 10
558.5370101784117
 20
292.7049805054793
 30
0.0
 10
558.0806581896509
 20
293.805606565085
 30
0.0
 10
557.724316703612
 20
294.944457995529
 30
0.0
 10
557.468757531057
 20
296.1200795423089
 30
0.0
 10
557.3190238568325
 20
297.3339850826829
 30
0.0
 10
557.2974524726085
 20
298.1554427381963
 30
0.0
 10
557.2865391918735
 20
298.5710302551257
 30
0.0
  0
SPLINE
  5
1CF
330
1F
100
AcDbEntity
  8
Make2D$Visible$Curves
 62
    18
420
        0
370
    -3
100
AcDbSpline
210
0.0
220
0.0
230
1.0
 70
     8
 71
     3
 72
    23
 73
    19
 74
     0
 42
0.000000001
 43
0.0000000001
 40
0.0
 40
0.0
 40
0.0
 40
0.0
 40
0.0706374792296332
 40
0.1387081667012168
 40
0.2049392183045753
 40
0.2694691577684971
 40
0.3326712405379709
 40
0.3954982646253777
 40
0.4579670562026967
 40
0.5208667449751174
 40
0.5830679029606418
 40
0.6432777681337658
 40
0.7025490215363128
 40
0.7608824489591566
 40
0.8194706705316755
 40
0.8782563018337151
 40
0.938484855992891
 40
0.9999999999999999
 40
0.9999999999999999
 40
0.9999999999999999
 40
0.9999999999999999
 10
572.2011525732839
 20
287.3665197049119
 30
0.0
 10
572.5441926666035
 20
287.3736875164365
 30
0.0
 10
573.2178076224075
 20
287.387762678895
 30
0.0
 10
574.2079829316365
 20
287.4974201589529
 30
0.0
 10
575.1590664139592
 20
287.6684654995016
 30
0.0
 10
576.0679618502134
 20
287.9197368975825
 30
0.0
 10
576.9379677553377
 20
288.2377845748621
 30
0.0
 10
577.7658753732596
 20
288.631095862335
 30
0.0
 10
578.5539708020458
 20
289.0955324794389
 30
0.0
 10
579.2988428906579
 20
289.6216896515685
 30
0.0
 10
579.9827834076025
 20
290.2079191306353
 30
0.0
 10
580.6052503089395
 20
290.8348660243561
 30
0.0
 10
581.144838702875
 20
291.5106529172439
 30
0.0
 10
581.6176666390534
 20
292.2252082116728
 30
0.0
 10
582.0084731804952
 20
292.9853667675462
 30
0.0
 10
582.3293438083954
 20
293.7868997705785
 30
0.0
 10
582.5752736874165
 20
294.6303031762369
 30
0.0
 10
582.6762318000704
 20
295.2130783627446
 30
0.0
 10
582.7272443200786
 20
295.5075453459375
 30
0.0
  0
SPLINE
  5
1D0
330
1F
100
AcDbEntity
  8
Make2D$Visible$Curves
 62
    18
420
        0
370
    -3
100
AcDbSpline
210
0.0
220
0.0
230
1.0
 70
     8
 71
     3
 72
    31
 73
    27
 74
     0
 42
0.000000001
 43
0.0000000001
 40
0.0
 40
0.0
 40
0.0
 40
0.0
 40
0.0389964650736889
 40
0.0778864437760533
 40
0.116658332627585
 40
0.1554250789777543
 40
0.1943611692579151
 40
0.2340066397810482
 40
0.2742946202688762
 40
0.3154172065216973
 40
0.3567718524747779
 40
0.3980608805984718
 40
0.4388671158475721
 40
0.4798031071839682
 40
0.5212463648332953
 40
0.562815471860777
 40
0.6052691674359563
 40
0.6483882664791558
 40
0.691709411725157
 40
0.7351335232101108
 40
0.7783560698163641
 40
0.821650514248758
 40
0.8655158990908846
 40
0.9097262617752134
 40
0.9545199270306817
 40
1.0
 40
1.0
 40
1.0
 40
1.0
 10
559.6610050038394
 20
298.6770331931599
 30
0.0
 10
559.6667214796707
 20
298.4330823611596
 30
0.0
 10
559.67813882154
 20
297.9458468457148
 30
0.0
 10
559.7511123947991
 20
297.2186478553209
 30
0.0
 10
559.886845232834
 20
296.502333214166
 30
0.0
 10
560.0668507221546
 20
295.7957762518896
 30
0.0
 10
560.2956977336294
 20
295.0975708017596
 30
0.0
 10
560.5768554250114
 20
294.4084454931163
 30
0.0
 10
560.9117886906208
 20
293.7284673226437
 30
0.0
 10
561.2986191146017
 20
293.0643864604575
 30
0.0
 10
561.7258037849135
 20
292.4180461733421
 30
0.0
 10
562.1956371402005
 20
291.8041185073522
 30
0.0
 10
562.7089101819113
 20
291.2297480172041
 30
0.0
 10
563.2562117193622
 20
290.6865452624667
 30
0.0
 10
563.8425283556526
 20
290.1779383976171
 30
0.0
 10
564.4735485042697
 20
289.7100579092779
 30
0.0
 10
565.1404390565403
 20
289.2756689277516
 30
0.0
 10
565.8434958547057
 20
288.8795435626849
 30
0.0
 10
566.5752878440499
 20
288.5257021552806
 30
0.0
 10
567.325619200233
 20
288.2110429479898
 30
0.0
 10
568.09690155096
 20
287.9519081153863
 30
0.0
 10
568.8850776613326
 20
287.7407091826304
 30
0.0
 10
569.6892089886944
 20
287.5675938868509
 30
0.0
 10
570.5133770081866
 20
287.4562233383436
 30
0.0
 10
571.3515218905006
 20
287.3754057509217
 30
0.0
 10
571.9165103587482
 20
287.3694966969932
 30
0.0
 10
572.2011525732839
 20
287.3665197049119
 30
0.0
  0
SPLINE
  5
1D1
330
1F
100
AcDbEntity
  8
Make2D$Visible$Curves
 62
    18
420
        0
370
    -3
100
AcDbSpline
210
0.0
220
0.0
230
1.0
 70
     8
 71
     3
 72
    31
 73
    27
 74
     0
 42
0.000000001
 43
0.0000000001
 40
0.0
 40
0.0
 40
0.0
 40
0.0
 40
0.0428395880398782
 40
0.085568069709906
 40
0.1277138699986309
 40
0.1700619977179556
 40
0.2127792507652067
 40
0.2554719947482091
 40
0.2988658624753134
 40
0.3428476916325029
 40
0.3865130648460078
 40
0.4295162389818075
 40
0.4718684857681312
 40
0.5137100027646955
 40
0.5550608530828189
 40
0.5965128264791572
 40
0.637859457968486
 40
0.6795600290030626
 40
0.7210677252148125
 40
0.761889979569626
 40
0.801924772702277
 40
0.8418122361614909
 40
0.8810648804379854
 40
0.9206362073294806
 40
0.9601026976366275
 40
1.0
 40
1.0
 40
1.0
 40
1.0
 10
571.4379314194377
 20
309.7543402177324
 30
0.0
 10
571.1815524377373
 20
309.7512135541334
 30
0.0
 10
570.6694594045864
 20
309.7449683360761
 30
0.0
 10
569.9088054229458
 20
309.6652590895998
 30
0.0
 10
569.1561290590223
 20
309.550619939383
 30
0.0
 10
568.4128511688457
 20
309.3847497905859
 30
0.0
 10
567.6775265549513
 20
309.1745265496221
 30
0.0
 10
566.9527127000176
 20
308.9115649879631
 30
0.0
 10
566.237057334785
 20
308.6049867451376
 30
0.0
 10
565.5373023106104
 20
308.2507284119991
 30
0.0
 10
564.8589051014546
 20
307.8615665710082
 30
0.0
 10
564.2181901257345
 20
307.4303020805677
 30
0.0
 10
563.6110359215513
 20
306.9707848987474
 30
0.0
 10
563.0489913235174
 20
306.4714082292022
 30
0.0
 10
562.5283176719236
 20
305.9370685620678
 30
0.0
 10
562.0394379740694
 20
305.3773888817578
 30
0.0
 10
561.5914637802978
 20
304.7813652468027
 30
0.0
 10
561.1924294779176
 20
304.1514486343445
 30
0.0
 10
560.8320851681603
 20
303.5022937810514
 30
0.0
 10
560.5206917509565
 20
302.8394061494822
 30
0.0
 10
560.2499855481135
 20
302.1689394972326
 30
0.0
 10
560.0438073943444
 20
301.4858453150665
 30
0.0
 10
559.8691757817439
 20
300.7971660314246
 30
0.0
 10
559.7476092959728
 20
300.0992926316852
 30
0.0
 10
559.6788454752591
 20
299.3904026946069
 30
0.0
 10
559.6669733096171
 20
298.9156820055656
 30
0.0
 10
559.6610050038394
 20
298.6770331931599
 30
0.0
  0
SPLINE
  5
1D2
330
1F
100
AcDbEntity
  8
Make2D$Visible$Curves
 62
    18
420
        0
370
    -3
100
AcDbSpline
210
0.0
220
0.0
230
1.0
 70
     8
 71
     3
 72
    15
 73
    11
 74
     0
 42
0.000000001
 43
0.0000000001
 40
0.0
 40
0.0
 40
0.0
 40
0.0
 40
0.1361333832231102
 40
0.2690205881869097
 40
0.3987332086914579
 40
0.5273056382623484
 40
0.65231091479657
 40
0.7716990330660392
 40
0.8875041110927091
 40
0.9999999999999999
 40
0.9999999999999999
 40
0.9999999999999999
 40
0.9999999999999999
 10
581.3704067132412
 20
305.3446179955102
 30
0.0
 10
581.0021892604516
 20
305.69119360345
 30
0.0
 10
580.2745347102982
 20
306.3760805260528
 30
0.0
 10
579.0861780012569
 20
307.2632869496612
 30
0.0
 10
577.8512855390002
 20
308.0308275413528
 30
0.0
 10
576.5678605850517
 20
308.6506751543355
 30
0.0
 10
575.2695577257496
 20
309.1369162845571
 30
0.0
 10
573.9787013516325
 20
309.490369105169
 30
0.0
 10
572.7036493340097
 20
309.7142078120424
 30
0.0
 10
571.8557406200366
 20
309.7410926464164
 30
0.0
 10
571.4379314194377
 20
309.7543402177324
 30
0.0
  0
LINE
  5
1D3
330
1F
100
AcDbEntity
  8
Make2D$Visible$Curves
 62
    18
420
        0
370
    -3
100
AcDbLine
 10
583.4056631234976
 20
307.2738714677324
 30
0.0
 11
581.3704067132412
 21
305.3446179955102
 31
0.0
  0
SPLINE
  5
1D4
330
1F
100
AcDbEntity
  8
Make2D$Visible$Curves
 62
    18
420
        0
370
    -3
100
AcDbSpline
210
0.0
220
0.0
230
1.0
 70
     8
 71
     3
 72
    23
 73
    19
 74
     0
 42
0.000000001
 43
0.0000000001
 40
0.0
 40
0.0
 40
0.0
 40
0.0
 40
0.061616944820497
 40
0.1221791608191562
 40
0.182216270448319
 40
0.241864128661122
 40
0.3009600556026186
 40
0.3599690678733914
 40
0.4190329181378677
 40
0.478068687013023
 40
0.5379925810732207
 40
0.5989602303291965
 40
0.6613210788822625
 40
0.7252475688866924
 40
0.7912201541522479
 40
0.8587459718448142
 40
0.9283175814122132
 40
0.9999999999999999
 40
0.9999999999999999
 40
0.9999999999999999
 40
0.9999999999999999
 10
571.5174336229634
 20
312.4680154314077
 30
0.0
 10
571.7913774887481
 20
312.4636347497725
 30
0.0
 10
572.3345759827769
 20
312.4549483728746
 30
0.0
 10
573.1428836020248
 20
312.3947394261512
 30
0.0
 10
573.9386974627296
 20
312.2993088963029
 30
0.0
 10
574.7231975528782
 20
312.1690825928873
 30
0.0
 10
575.4937123451828
 20
311.9917082658488
 30
0.0
 10
576.2524368445177
 20
311.7794498045088
 30
0.0
 10
577.0004708982929
 20
311.5323151934073
 30
0.0
 10
577.7354701628128
 20
311.2375780811923
 30
0.0
 10
578.4623767066205
 20
310.9030417499083
 30
0.0
 10
579.1852322863913
 20
310.5264759972034
 30
0.0
 10
579.9015670625299
 20
310.1014417360085
 30
0.0
 10
580.6126232911704
 20
309.6266769138689
 30
0.0
 10
581.32288483613
 20
309.1103356003395
 30
0.0
 10
582.0211175491625
 20
308.5376500882516
 30
0.0
 10
582.7241755205525
 20
307.9312042553421
 30
0.0
 10
583.1762487589588
 20
307.4951544127315
 30
0.0
 10
583.4056631234976
 20
307.2738714677324
 30
0.0
  0
LINE
  5
1D5
330
1F
100
AcDbEntity
  8
Make2D$Visible$Curves
 62
    18
420
        0
370
    -3
100
AcDbLine
 10
610.3410096779846
 20
285.3312632946555
 30
0.0
 11
592.9035263713608
 21
306.1078391493564
 31
0.0
  0
LINE
  5
1D6
330
1F
100
AcDbEntity
  8
Make2D$Visible$Curves
 62
    18
420
        0
370
    -3
100
AcDbLine
 10
591.0272743681555
 20
311.7895966279888
 30
0.0
 11
608.5071588499932
 21
290.9653194511726
 31
0.0
  0
LINE
  5
1D7
330
1F
100
AcDbEntity
  8
Make2D$Visible$Curves
 62
    18
420
        0
370
    -3
100
AcDbLine
 10
536.8090281212651
 20
365.3312632946555
 30
0.0
 11
554.2465114278891
 21
344.5546874399546
 31
0.0
  0
LINE
  5
1D8
330
1F
100
AcDbEntity
  8
Make2D$Visible$Curves
 62
    18
420
        0
370
    -3
100
AcDbLine
 10
556.1227634310942
 20
338.8729299613223
 30
0.0
 11
538.6428789492566
 21
359.6972071381384
 31
0.0
  0
SPLINE
  5
1D9
330
1F
100
AcDbEntity
  8
Make2D$Visible$Curves
 62
    18
420
        0
370
    -3
100
AcDbSpline
210
0.0
220
0.0
230
1.0
 70
     8
 71
     3
 72
    31
 73
    27
 74
     0
 42
0.000000001
 43
0.0000000001
 40
0.0
 40
0.0
 40
0.0
 40
0.0
 40
0.0420422557645222
 40
0.0835501801389653
 40
0.1246515839477379
 40
0.1653143724217496
 40
0.2062538482388173
 40
0.2470566123022552
 40
0.2884179878822863
 40
0.330078104605234
 40
0.3717669519748103
 40
0.4128482364323989
 40
0.4534218897265737
 40
0.4939667252539917
 40
0.5343488129285681
 40
0.574922466222743
 40
0.6158654236134178
 40
0.6572261099463199
 40
0.6989860147970937
 40
0.740468519494359
 40
0.7823102637981798
 40
0.8245554534991512
 40
0.8670321475500555
 40
0.9104934084372304
 40
0.9546160715104586
 40
1.0
 40
1.0
 40
1.0
 40
1.0
 10
589.8591198246531
 20
352.0914963341855
 30
0.0
 10
589.8550854559128
 20
351.7803023391795
 30
0.0
 10
589.8470679927946
 20
351.1618694347575
 30
0.0
 10
589.7502735809751
 20
350.243661886108
 30
0.0
 10
589.6105676703896
 20
349.3419855470498
 30
0.0
 10
589.4082092585909
 20
348.4560053014956
 30
0.0
 10
589.1419555003756
 20
347.5896554346378
 30
0.0
 10
588.8221979302937
 20
346.736275499651
 30
0.0
 10
588.4476597733378
 20
345.8992894807988
 30
0.0
 10
588.0106293246624
 20
345.0860664588382
 30
0.0
 10
587.534773032359
 20
344.2970694213976
 30
0.0
 10
587.0002497021649
 20
343.5564538626135
 30
0.0
 10
586.4333798230055
 20
342.8514064898931
 30
0.0
 10
585.8181363772662
 20
342.1946983484846
 30
0.0
 10
585.158004716177
 20
341.5834696087423
 30
0.0
 10
584.4566400745048
 20
341.0154555635924
 30
0.0
 10
583.7143851950334
 20
340.4892044423262
 30
0.0
 10
582.9286662797558
 20
340.0131909801961
 30
0.0
 10
582.111275424965
 20
339.5855946405969
 30
0.0
 10
581.2641543866521
 20
339.2107244302844
 30
0.0
 10
580.3875664995453
 20
338.9009099147278
 30
0.0
 10
579.4880777714886
 20
338.6380367448781
 30
0.0
 10
578.5588800144749
 20
338.4436425150421
 30
0.0
 10
577.6067161301796
 20
338.3026668836588
 30
0.0
 10
576.6266230226458
 20
338.2062028257905
 30
0.0
 10
575.964136372221
 20
338.1984448206923
 30
0.0
 10
575.6282253935633
 20
338.1945111579033
 30
0.0
  0
SPLINE
  5
1DA
330
1F
100
AcDbEntity
  8
Make2D$Visible$Curves
 62
    18
420
        0
370
    -3
100
AcDbSpline
210
0.0
220
0.0
230
1.0
 70
     8
 71
     3
 72
    15
 73
    11
 74
     0
 42
0.000000001
 43
0.0000000001
 40
0.0
 40
0.0
 40
0.0
 40
0.0
 40
0.1278956773735374
 40
0.2536684183228696
 40
0.3767384322070105
 40
0.4993444727460727
 40
0.6219993068560802
 40
0.7456985475131271
 40
0.8713451527522132
 40
1.0
 40
1.0
 40
1.0
 40
1.0
 10
586.615429920807
 20
361.0063434228606
 30
0.0
 10
586.8738592872253
 20
360.6837736054607
 30
0.0
 10
587.3864283589389
 20
360.0439882971615
 30
0.0
 10
588.046209661954
 20
359.0189172886843
 30
0.0
 10
588.608648838115
 20
357.9575460838317
 30
0.0
 10
589.0650008268758
 20
356.856920024226
 30
0.0
 10
589.4213423129147
 20
355.718068593782
 30
0.0
 10
589.6769014854699
 20
354.5424470470022
 30
0.0
 10
589.8266351596942
 20
353.3285415066281
 30
0.0
 10
589.8482065439182
 20
352.507083851115
 30
0.0
 10
589.8591198246531
 20
352.0914963341855
 30
0.0
  0
SPLINE
  5
1DB
330
1F
100
AcDbEntity
  8
Make2D$Visible$Curves
 62
    18
420
        0
370
    -3
100
AcDbSpline
210
0.0
220
0.0
230
1.0
 70
     8
 71
     3
 72
    23
 73
    19
 74
     0
 42
0.000000001
 43
0.0000000001
 40
0.0
 40
0.0
 40
0.0
 40
0.0
 40
0.0706322443877265
 40
0.1386978872386459
 40
0.2049240305541063
 40
0.2694491877971018
 40
0.3326465867511976
 40
0.3953138779979163
 40
0.4577780401030125
 40
0.520673067470039
 40
0.5828696158172808
 40
0.6433350250634065
 40
0.702601885958682
 40
0.7607320598415797
 40
0.8194840493004201
 40
0.8782653240839432
 40
0.9384894147916658
 40
1.0
 40
1.0
 40
1.0
 40
1.0
 10
574.9445064432427
 20
363.2960068843992
 30
0.0
 10
574.601467745478
 20
363.2888361000554
 30
0.0
 10
573.9278555300725
 20
363.2747550999833
 30
0.0
 10
572.9376604177376
 20
363.1651398046221
 30
0.0
 10
571.9866490363688
 20
362.9939408741826
 30
0.0
 10
571.077494071797
 20
362.7432223249028
 30
0.0
 10
570.2091380225031
 20
362.4234272802852
 30
0.0
 10
569.3784032229087
 20
362.0379242556104
 30
0.0
 10
568.5918091755718
 20
361.5719402233029
 30
0.0
 10
567.8470697409255
 20
361.0459644663755
 30
0.0
 10
567.1608097160029
 20
360.4601007993537
 30
0.0
 10
566.542675507198
 20
359.8273870281397
 30
0.0
 10
565.9993462277421
 20
359.1540136027526
 30
0.0
 10
565.5353414461372
 20
358.4340328760185
 30
0.0
 10
565.135604355532
 20
357.6789578756669
 30
0.0
 10
564.8168314832951
 20
356.8753422011865
 30
0.0
 10
564.5702517077734
 20
356.0322970772353
 30
0.0
 10
564.4693823633093
 20
355.449472953676
 30
0.0
 10
564.418414696448
 20
355.1549812433735
 30
0.0
  0
SPLINE
  5
1DC
330
1F
100
AcDbEntity
  8
Make2D$Visible$Curves
 62
    18
420
        0
370
    -3
100
AcDbSpline
210
0.0
220
0.0
230
1.0
 70
     8
 71
     3
 72
    31
 73
    27
 74
     0
 42
0.000000001
 43
0.0000000001
 40
0.0
 40
0.0
 40
0.0
 40
0.0
 40
0.0389934464609046
 40
0.0778804147933123
 40
0.1166493024159089
 40
0.1553440778236206
 40
0.1946339249847589
 40
0.2342763266573202
 40
0.2745611885595866
 40
0.31568059162223
 40
0.3570320364220087
 40
0.398094195092609
 40
0.4391087510790841
 40
0.4798433742437605
 40
0.5212834238805891
 40
0.5628493131539065
 40
0.6052997225012715
 40
0.6484154838095413
 40
0.6917332756807535
 40
0.7351540258205748
 40
0.7783732266842974
 40
0.8216643198087409
 40
0.8655263091479365
 40
0.9097332496255158
 40
0.954523447522332
 40
1.0
 40
1.0
 40
1.0
 40
1.0
 10
587.4846540126873
 20
351.9854933961511
 30
0.0
 10
587.4788902362857
 20
352.229431786919
 30
0.0
 10
587.4673784224378
 20
352.7166424538717
 30
0.0
 10
587.3951111907602
 20
353.4440272297596
 30
0.0
 10
587.2567857497418
 20
354.1592144370931
 30
0.0
 10
587.0863899926374
 20
354.8701605662255
 30
0.0
 10
586.8490693867257
 20
355.5676552219101
 30
0.0
 10
586.5692564289027
 20
356.2595090316505
 30
0.0
 10
586.2338301649493
 20
356.9393925341241
 30
0.0
 10
585.8467261446638
 20
357.6031694327045
 30
0.0
 10
585.4219256380063
 20
358.2496641498961
 30
0.0
 10
584.9461217972828
 20
358.8586607352898
 30
0.0
 10
584.4406833916669
 20
359.4382388593998
 30
0.0
 10
583.8872223030687
 20
359.9755381413351
 30
0.0
 10
583.3034790274887
 20
360.4849282136421
 30
0.0
 10
582.6720148816144
 20
360.9523753400975
 30
0.0
 10
582.0052462587228
 20
361.3868833303442
 30
0.0
 10
581.3021560323327
 20
361.7829760679155
 30
0.0
 10
580.5703730919402
 20
362.1368263075157
 30
0.0
 10
579.8200393041641
 20
362.4514831414591
 30
0.0
 10
579.0487576027122
 20
362.7106186077852
 30
0.0
 10
578.2605813178918
 20
362.9218173702719
 30
0.0
 10
577.4564500379624
 20
363.0949327123477
 30
0.0
 10
576.6322820055912
 20
363.2063032482844
 30
0.0
 10
575.7941371267293
 20
363.287120839076
 30
0.0
 10
575.2291486580141
 20
363.2930298925479
 30
0.0
 10
574.9445064432427
 20
363.2960068843992
 30
0.0
  0
SPLINE
  5
1DD
330
1F
100
AcDbEntity
  8
Make2D$Visible$Curves
 62
    18
420
        0
370
    -3
100
AcDbSpline
210
0.0
220
0.0
230
1.0
 70
     8
 71
     3
 72
    31
 73
    27
 74
     0
 42
0.000000001
 43
0.0000000001
 40
0.0
 40
0.0
 40
0.0
 40
0.0
 40
0.042847713574337
 40
0.0855842997048899
 40
0.1277380939349253
 40
0.1700942539717113
 40
0.2125358189146095
 40
0.2555146790367426
 40
0.298645533715992
 40
0.342635705060507
 40
0.3865653378499366
 40
0.4295766685481422
 40
0.4717025096739231
 40
0.5135519628973209
 40
0.5551179430498615
 40
0.5963847622346318
 40
0.637975924989666
 40
0.6796844055173628
 40
0.7211999746389918
 40
0.7617630397424136
 40
0.8020801350554235
 40
0.8417822321351949
 40
0.8810423215979828
 40
0.9206211541214169
 40
0.9600951301757809
 40
1.0
 40
1.0
 40
1.0
 40
1.0
 10
575.7077275970889
 20
340.9081863715786
 30
0.0
 10
575.9641051397734
 20
340.9113176527006
 30
0.0
 10
576.4761952986255
 20
340.9175720938284
 30
0.0
 10
577.2368706969376
 20
340.997212618348
 30
0.0
 10
577.9894666625003
 20
341.1121097513536
 30
0.0
 10
578.7313878907171
 20
341.2766435309217
 30
0.0
 10
579.4655841606443
 20
341.490345100886
 30
0.0
 10
580.1904222230937
 20
341.748357839465
 30
0.0
 10
580.9045029397828
 20
342.0589502642807
 30
0.0
 10
581.6040704511561
 20
342.4130536027195
 30
0.0
 10
582.2857330030777
 20
342.7996173360383
 30
0.0
 10
582.9268482685793
 20
343.2307442058258
 30
0.0
 10
583.5300521574081
 20
343.6931948441655
 30
0.0
 10
584.0912167042004
 20
344.1929319916436
 30
0.0
 10
584.617519294781
 20
344.7220131339774
 30
0.0
 10
585.1021217762593
 20
345.2876372201182
 30
0.0
 10
585.5474547965987
 20
345.8856987819419
 30
0.0
 10
585.9483865384996
 20
346.5161425845369
 30
0.0
 10
586.306367707607
 20
347.1646374263847
 30
0.0
 10
586.6230153197246
 20
347.8252680157315
 30
0.0
 10
586.8862378159615
 20
348.4973458115913
 30
0.0
 10
587.1046725496631
 20
349.1769780503445
 30
0.0
 10
587.2758006924764
 20
349.8655817617563
 30
0.0
 10
587.3982317467405
 20
350.5631749650967
 30
0.0
 10
587.4667675056335
 20
351.2721388143074
 30
0.0
 10
587.4786703062662
 20
351.7468495749116
 30
0.0
 10
587.4846540126873
 20
351.9854933961511
 30
0.0
  0
SPLINE
  5
1DE
330
1F
100
AcDbEntity
  8
Make2D$Visible$Curves
 62
    18
420
        0
370
    -3
100
AcDbSpline
210
0.0
220
0.0
230
1.0
 70
     8
 71
     3
 72
    15
 73
    11
 74
     0
 42
0.000000001
 43
0.0000000001
 40
0.0
 40
0.0
 40
0.0
 40
0.0
 40
0.1365056850436488
 40
0.2690316383389071
 40
0.3989195614459561
 40
0.5270819905998567
 40
0.6522723430909018
 40
0.7721365248474612
 40
0.8874883294200518
 40
1.0
 40
1.0
 40
1.0
 40
1.0
 10
565.7752523032855
 20
345.3179085938008
 30
0.0
 10
566.1457745029704
 20
344.9720413212884
 30
0.0
 10
566.8760165759672
 20
344.2903903047605
 30
0.0
 10
568.058830521077
 20
343.3946782398808
 30
0.0
 10
569.2995616835622
 20
342.6408367457597
 30
0.0
 10
570.5797559772732
 20
342.0167996641961
 30
0.0
 10
571.8765601088455
 20
341.5233949961568
 30
0.0
 10
573.1691738180164
 20
341.1740026004526
 30
0.0
 10
574.4436412620155
 20
340.9477180128266
 30
0.0
 10
575.2898813850504
 20
340.9212536329616
 30
0.0
 10
575.7077275970889
 20
340.9081863715786
 30
0.0
  0
LINE
  5
1DF
330
1F
100
AcDbEntity
  8
Make2D$Visible$Curves
 62
    18
420
        0
370
    -3
100
AcDbLine
 10
563.7399958930291
 20
343.3886551215786
 30
0.0
 11
565.7752523032855
 21
345.3179085938008
 31
0.0
  0
SPLINE
  5
1E0
330
1F
100
AcDbEntity
  8
Make2D$Visible$Curves
 62
    18
420
        0
370
    -3
100
AcDbSpline
210
0.0
220
0.0
230
1.0
 70
     8
 71
     3
 72
    23
 73
    19
 74
     0
 42
0.000000001
 43
0.0000000001
 40
0.0
 40
0.0
 40
0.0
 40
0.0
 40
0.0616172070006672
 40
0.1221796806916243
 40
0.1822170457787566
 40
0.2414733477827196
 40
0.3009570811868615
 40
0.3599663445410485
 40
0.4190304461222746
 40
0.4780664661946936
 40
0.5379906152311288
 40
0.5989585239045215
 40
0.6613196378030688
 40
0.7252463998147862
 40
0.791219265793767
 40
0.8587453708087642
 40
0.9283172764034407
 40
0.9999999999999999
 40
0.9999999999999999
 40
0.9999999999999999
 40
0.9999999999999999
 10
575.6282253935633
 20
338.1945111579033
 30
0.0
 10
575.3542795238991
 20
338.1988808912027
 30
0.0
 10
574.8110770564128
 20
338.2075455588373
 30
0.0
 10
574.0027987626429
 20
338.2679147273649
 30
0.0
 10
573.2086051548811
 20
338.3625388465681
 30
0.0
 10
572.424512248248
 20
338.4948548314195
 30
0.0
 10
571.6535055418167
 20
338.6698874249806
 30
0.0
 10
570.8932491237163
 20
338.8832015090844
 30
0.0
 10
570.1451809014573
 20
339.1301779988629
 30
0.0
 10
569.410190818227
 20
339.4249575992864
 30
0.0
 10
568.68328177036
 20
339.7594823425474
 30
0.0
 10
567.9604268793335
 20
340.1360512825507
 30
0.0
 10
567.244091912555
 20
340.5610846615231
 30
0.0
 10
566.5330357369669
 20
341.0358497291724
 30
0.0
 10
565.8227741771661
 20
341.552190974022
 30
0.0
 10
565.1245414682628
 20
342.1248765052175
 30
0.0
 10
564.4214834957386
 20
342.7313223328794
 30
0.0
 10
563.9694102574888
 20
343.1673721762128
 30
0.0
 10
563.7399958930291
 20
343.3886551215786
 30
0.0
  0
SPLINE
  5
1E1
330
1F
100
AcDbEntity
  8
Make2D$Visible$Curves
 62
    18
420
        0
370
    -3
100
AcDbSpline
210
0.0
220
0.0
230
1.0
 70
     8
 71
     3
 72
    31
 73
    27
 74
     0
 42
0.000000001
 43
0.0000000001
 40
0.0
 40
0.0
 40
0.0
 40
0.0
 40
0.0420244161872696
 40
0.0836470760932866
 40
0.1249870302883069
 40
0.166251764043317
 40
0.2077069318956681
 40
0.2493600680441959
 40
0.2917421894082891
 40
0.3344820936149057
 40
0.3772004924353357
 40
0.4195412956113344
 40
0.4610302269045388
 40
0.5020833970397944
 40
0.542878883025599
 40
0.583790046425028
 40
0.6248538739084384
 40
0.6662160501888975
 40
0.7073916132892885
 40
0.7485501695995062
 40
0.7896491467244457
 40
0.8307353456408303
 40
0.8720668311367566
 40
0.9139911691914427
 40
0.9564970041381569
 40
1.0
 40
1.0
 40
1.0
 40
1.0
 10
616.0257484554925
 20
340.9081863715786
 30
0.0
 10
616.276835841702
 20
340.9112456920271
 30
0.0
 10
616.7766102016062
 20
340.9173350856123
 30
0.0
 10
617.5195860200508
 20
340.9976063835594
 30
0.0
 10
618.252830757918
 20
341.1119000229775
 30
0.0
 10
618.9763045191253
 20
341.2753486876014
 30
0.0
 10
619.6861140115575
 20
341.495998455793
 30
0.0
 10
620.3893476446913
 20
341.7559871386421
 30
0.0
 10
621.0826287387613
 20
342.0618244250887
 30
0.0
 10
621.7582069051828
 20
342.4184383158689
 30
0.0
 10
622.4149529138883
 20
342.8080002633527
 30
0.0
 10
623.0389162645504
 20
343.2355580016614
 30
0.0
 10
623.623872499594
 20
343.6990383290494
 30
0.0
 10
624.1716954456767
 20
344.1923189775217
 30
0.0
 10
624.6807887552065
 20
344.7204188874479
 30
0.0
 10
625.161472095906
 20
345.2749095440169
 30
0.0
 10
625.5943992828061
 20
345.8717533207483
 30
0.0
 10
625.9911662165255
 20
346.4947353833901
 30
0.0
 10
626.3462204650618
 20
347.1430524648594
 30
0.0
 10
626.6619467275639
 20
347.8098769209486
 30
0.0
 10
626.920210347083
 20
348.5006487460136
 30
0.0
 10
627.130836648945
 20
349.2078736206673
 30
0.0
 10
627.3054602176983
 20
349.9304315021642
 30
0.0
 10
627.416085715681
 20
350.6738036922767
 30
0.0
 10
627.4972172423672
 20
351.4342548369258
 30
0.0
 10
627.502961312171
 20
351.9481652811543
 30
0.0
 10
627.5058666445952
 20
352.208099566023
 30
0.0
  0
SPLINE
  5
1E2
330
1F
100
AcDbEntity
  8
Make2D$Visible$Curves
 62
    18
420
        0
370
    -3
100
AcDbSpline
210
0.0
220
0.0
230
1.0
 70
     8
 71
     3
 72
    23
 73
    19
 74
     0
 42
0.000000001
 43
0.0000000001
 40
-1.0
 40
-1.0
 40
-1.0
 40
-1.0
 40
-0.934316883359245
 40
-0.870486187887767
 40
-0.8083273517367071
 40
-0.7465368217511666
 40
-0.6852604113304273
 40
-0.623504455117664
 40
-0.5606678546118788
 40
-0.4961797225241575
 40
-0.431826965381049
 40
-0.3695830050869934
 40
-0.3085860647627414
 40
-0.2481497329298259
 40
-0.1877465401000115
 40
-0.12689932159004
 40
-0.0645039992970556
 40
0.0
 40
0.0
 40
0.0
 40
0.0
 10
616.0257484554925
 20
363.2960068843992
 30
0.0
 10
616.414999057557
 20
363.2881369807043
 30
0.0
 10
617.1825224626364
 20
363.2726191234432
 30
0.0
 10
618.3085170082982
 20
363.1110308596502
 30
0.0
 10
619.3946508762597
 20
362.865507874341
 30
0.0
 10
620.4336888201124
 20
362.5072640231223
 30
0.0
 10
621.4323261263319
 20
362.0551661545097
 30
0.0
 10
622.3852313734085
 20
361.5002196231061
 30
0.0
 10
623.2948895103716
 20
360.844329569658
 30
0.0
 10
624.1515552090707
 20
360.0971023590379
 30
0.0
 10
624.9352021065963
 20
359.2784416948024
 30
0.0
 10
625.6250773367908
 20
358.4052798469341
 30
0.0
 10
626.2073639477958
 20
357.4837126269755
 30
0.0
 10
626.6787049038387
 20
356.5134909650941
 30
0.0
 10
627.055602852497
 20
355.5032217698393
 30
0.0
 10
627.3112808736585
 20
354.4442210337867
 30
0.0
 10
627.4772696477444
 20
353.3422832794184
 30
0.0
 10
627.4962292952732
 20
352.5903258780457
 30
0.0
 10
627.5058666445952
 20
352.208099566023
 30
0.0
  0
SPLINE
  5
1E3
330
1F
100
AcDbEntity
  8
Make2D$Visible$Curves
 62
    18
420
        0
370
    -3
100
AcDbSpline
210
0.0
220
0.0
230
1.0
 70
     8
 71
     3
 72
    31
 73
    27
 74
     0
 42
0.000000001
 43
0.0000000001
 40
-1.0
 40
-1.0
 40
-1.0
 40
-1.0
 40
-0.9569547959553378
 40
-0.9146084026426461
 40
-0.8731324464896245
 40
-0.832022498932455
 40
-0.7910904165202923
 40
-0.7504212507751983
 40
-0.7095411914698526
 40
-0.6682615089576025
 40
-0.6270544843870469
 40
-0.5863821151262472
 40
-0.5460055332517059
 40
-0.5055741320279581
 40
-0.4648718754458014
 40
-0.4237207477132887
 40
-0.3823580338401735
 40
-0.3399501500885386
 40
-0.2973777058968887
 40
-0.2552730147813032
 40
-0.2134217972960112
 40
-0.1714410653045265
 40
-0.1291809089179891
 40
-0.0865401701867204
 40
-0.043634425087271
 40
0.0
 40
0.0
 40
0.0
 40
0.0
 10
604.4396273283558
 20
352.0861961872837
 30
0.0
 10
604.4426571103088
 20
352.3443473009987
 30
0.0
 10
604.4486674876866
 20
352.8564586139531
 30
0.0
 10
604.5284088634214
 20
353.6136153947824
 30
0.0
 10
604.6424051270542
 20
354.354132386993
 30
0.0
 10
604.8078515585378
 20
355.0765248059955
 30
0.0
 10
605.0189675260369
 20
355.7817724097855
 30
0.0
 10
605.2805356628248
 20
356.4684894145877
 30
0.0
 10
605.5886635164659
 20
357.1378397158063
 30
0.0
 10
605.9430118558744
 20
357.787522986676
 30
0.0
 10
606.3381900907657
 20
358.4119581561548
 30
0.0
 10
606.7763036751608
 20
358.9999948672977
 30
0.0
 10
607.2409722551265
 20
359.5615062618518
 30
0.0
 10
607.7535930127372
 20
360.0800936264203
 30
0.0
 10
608.3002461433982
 20
360.569090698015
 30
0.0
 10
608.8826884145506
 20
361.0242821884934
 30
0.0
 10
609.5021813611722
 20
361.445863524778
 30
0.0
 10
610.1551335286026
 20
361.8309113698232
 30
0.0
 10
610.8371583141395
 20
362.1711177428882
 30
0.0
 10
611.5311883060397
 20
362.4785365940128
 30
0.0
 10
612.2455031392051
 20
362.7250651463766
 30
0.0
 10
612.9726201187439
 20
362.9325449923509
 30
0.0
 10
613.7155404799801
 20
363.0983324593266
 30
0.0
 10
614.4734301103229
 20
363.2134775555372
 30
0.0
 10
615.2452235329563
 20
363.2852831846761
 30
0.0
 10
615.7641170965514
 20
363.292412308428
 30
0.0
 10
616.0257484554925
 20
363.2960068843992
 30
0.0
  0
SPLINE
  5
1E4
330
1F
100
AcDbEntity
  8
Make2D$Visible$Curves
 62
    18
420
        0
370
    -3
100
AcDbSpline
210
0.0
220
0.0
230
1.0
 70
     8
 71
     3
 72
    31
 73
    27
 74
     0
 42
0.000000001
 43
0.0000000001
 40
-1.0
 40
-1.0
 40
-1.0
 40
-1.0
 40
-0.9573804296037476
 40
-0.915165314749677
 40
-0.8732373101142711
 40
-0.8313918481998429
 40
-0.7890835317031488
 40
-0.7468715271145532
 40
-0.7039439790074652
 40
-0.6606752310360147
 40
-0.6174439237262843
 40
-0.5752661471954434
 40
-0.5334887224725231
 40
-0.4924085173800778
 40
-0.4518213354785081
 40
-0.4111307685266613
 40
-0.3705392736574468
 40
-0.3296716247114507
 40
-0.288751535357925
 40
-0.2482507092603643
 40
-0.2079774481339874
 40
-0.1674539358248601
 40
-0.1264739967474414
 40
-0.0851304270802143
 40
-0.042915312226144
 40
0.0
 40
0.0
 40
0.0
 40
0.0
 10
616.0257484554925
 20
340.9081863715786
 30
0.0
 10
615.7711296118844
 20
340.9112427462313
 30
0.0
 10
615.2643082325167
 20
340.917326490841
 30
0.0
 10
614.5107612267716
 20
340.9976473902692
 30
0.0
 10
613.7668838788131
 20
341.1117398881296
 30
0.0
 10
613.0314047086442
 20
341.2762518497769
 30
0.0
 10
612.3086067244931
 20
341.4948740445981
 30
0.0
 10
611.5933981042256
 20
341.7560620341497
 30
0.0
 10
610.8894406827694
 20
342.0616418720618
 30
0.0
 10
610.2034759603487
 20
342.4186161397462
 30
0.0
 10
609.5387835619115
 20
342.8050857770335
 30
0.0
 10
608.911014043149
 20
343.2335127284595
 30
0.0
 10
608.3169539017324
 20
343.6864974044066
 30
0.0
 10
607.7638169303652
 20
344.1749781535046
 30
0.0
 10
607.2541082692824
 20
344.699115351735
 30
0.0
 10
606.7750964168367
 20
345.2477307369037
 30
0.0
 10
606.3404673141367
 20
345.8343680168927
 30
0.0
 10
605.9427167442084
 20
346.4480103828356
 30
0.0
 10
605.5888688574066
 20
347.0875029847813
 30
0.0
 10
605.2805514149838
 20
347.746150650093
 30
0.0
 10
605.0190876673942
 20
348.4223254689983
 30
0.0
 10
604.8070418623709
 20
349.1185464620695
 30
0.0
 10
604.6425261527859
 20
349.8341597347163
 30
0.0
 10
604.5283706124901
 20
350.5693477024059
 30
0.0
 10
604.448674524556
 20
351.3212241269229
 30
0.0
 10
604.4426595514647
 20
351.8298111252544
 30
0.0
 10
604.4396273283558
 20
352.0861961872837
 30
0.0
  0
SPLINE
  5
1E5
330
1F
100
AcDbEntity
  8
Make2D$Visible$Curves
 62
    18
420
        0
370
    -3
100
AcDbSpline
210
0.0
220
0.0
230
1.0
 70
     8
 71
     3
 72
    20
 73
    16
 74
     0
 42
0.000000001
 43
0.0000000001
 40
0.0
 40
0.0
 40
0.0
 40
0.0
 40
0.0652224643677754
 40
0.1285610333359569
 40
0.1903085914259791
 40
0.2513624206036525
 40
0.3123681819484213
 40
0.3737655552722731
 40
0.4362592488909652
 40
0.5003908724566114
 40
0.5645069415311041
 40
0.626951796535382
 40
0.6884747030765455
 40
0.7492612758557975
 40
0.7931063803639233
 40
0.7931063803639233
 40
0.7931063803639233
 40
0.7931063803639233
 10
602.0651615163899
 20
352.0914963341855
 30
0.0
 10
602.0768777174394
 20
352.5674250593723
 30
0.0
 10
602.0999717070374
 20
353.5055357133839
 30
0.0
 10
602.297803099912
 20
354.8824475317321
 30
0.0
 10
602.6080245267162
 20
356.2060714255082
 30
0.0
 10
603.0510909725219
 20
357.4740692542406
 30
0.0
 10
603.6193622823437
 20
358.6882554017367
 30
0.0
 10
604.3207443373651
 20
359.8427393991493
 30
0.0
 10
605.1392745707703
 20
360.9457799606979
 30
0.0
 10
606.0791211901746
 20
361.9742934558575
 30
0.0
 10
607.102421753614
 20
362.9192525593238
 30
0.0
 10
608.2009663764738
 20
363.7445191861283
 30
0.0
 10
609.3521981087936
 20
364.4497704520228
 30
0.0
 10
610.4518407335713
 20
364.9640615790266
 30
0.0
 10
611.1678224739771
 20
365.2311973765749
 30
0.0
 10
611.471653091714
 20
365.3312632961184
 30
0.0
  0
SPLINE
  5
1E6
330
1F
100
AcDbEntity
  8
Make2D$Visible$Curves
 62
    18
420
        0
370
    -3
100
AcDbSpline
210
0.0
220
0.0
230
1.0
 70
     8
 71
     3
 72
    23
 73
    19
 74
     0
 42
0.000000001
 43
0.0000000001
 40
0.0
 40
0.0
 40
0.0
 40
0.0
 40
0.0665678093466578
 40
0.1307446696927567
 40
0.1934063329837529
 40
0.2549808729384354
 40
0.3161029861471737
 40
0.3772491435988235
 40
0.4393860921342701
 40
0.5031317117549494
 40
0.566683973707883
 40
0.6282435331614806
 40
0.689101006319513
 40
0.7493530500310471
 40
0.8101759406352859
 40
0.8716141172342656
 40
0.9348713618188403
 40
1.0
 40
1.0
 40
1.0
 40
1.0
 10
616.1423516873301
 20
338.1945111579033
 30
0.0
 10
615.6524333662069
 20
338.2069200733405
 30
0.0
 10
614.6901933631132
 20
338.2312922070486
 30
0.0
 10
613.2759948189798
 20
338.4178528711053
 30
0.0
 10
611.9259060753182
 20
338.740615575129
 30
0.0
 10
610.6288988071749
 20
339.1704511698332
 30
0.0
 10
609.4005984211396
 20
339.743953522213
 30
0.0
 10
608.231342862184
 20
340.4367522518415
 30
0.0
 10
607.1244380619646
 20
341.2587005892511
 30
0.0
 10
606.0900301378056
 20
342.1960066201426
 30
0.0
 10
605.1469237548856
 20
343.2195512724824
 30
0.0
 10
604.322938204853
 20
344.315006790633
 30
0.0
 10
603.6262646476937
 20
345.4673726208081
 30
0.0
 10
603.0552501810723
 20
346.6806586922906
 30
0.0
 10
602.6068788544408
 20
347.9495249016258
 30
0.0
 10
602.2975782033832
 20
349.2811857893545
 30
0.0
 10
602.0999786297882
 20
350.6668914734176
 30
0.0
 10
602.0768794545061
 20
351.6120358054662
 30
0.0
 10
602.0651615163899
 20
352.0914963341855
 30
0.0
  0
SPLINE
  5
1E7
330
1F
100
AcDbEntity
  8
Make2D$Visible$Curves
 62
    18
420
        0
370
    -3
100
AcDbSpline
210
0.0
220
0.0
230
1.0
 70
     8
 71
     3
 72
    31
 73
    27
 74
     0
 42
0.000000001
 43
0.0000000001
 40
0.0
 40
0.0
 40
0.0
 40
0.0
 40
0.0432131612190012
 40
0.0858811690558518
 40
0.1281323862311966
 40
0.1701684053065486
 40
0.2119380974268381
 40
0.2538611869549927
 40
0.2960203108790405
 40
0.3385742985220559
 40
0.3811504230395504
 40
0.4228205986731563
 40
0.4642448467902094
 40
0.505120973852986
 40
0.5461502507660227
 40
0.58716445380955
 40
0.6285218300610057
 40
0.6702710736285354
 40
0.7119695050210305
 40
0.7532420689310754
 40
0.7940294954327627
 40
0.8348695885959567
 40
0.8754862830134267
 40
0.9165392362530584
 40
0.9579997207801184
 40
1.0
 40
1.0
 40
1.0
 40
1.0
 10
629.8803324565611
 20
352.2186998598264
 30
0.0
 10
629.8762945727633
 20
351.9039752678135
 30
0.0
 10
629.8682697448805
 20
351.2784964754682
 30
0.0
 10
629.7715161127517
 20
350.3497046502765
 30
0.0
 10
629.6314028560903
 20
349.4357495242544
 30
0.0
 10
629.4295482230914
 20
348.5397033725272
 30
0.0
 10
629.1691728701162
 20
347.6614198725582
 30
0.0
 10
628.8483044187442
 20
346.8026951633698
 30
0.0
 10
628.4805890498319
 20
345.9564558763892
 30
0.0
 10
628.0427731099246
 20
345.1388074460784
 30
0.0
 10
627.565102816531
 20
344.3484665157431
 30
0.0
 10
627.0442513547885
 20
343.5953156403185
 30
0.0
 10
626.4765871065676
 20
342.8928081287044
 30
0.0
 10
625.870219021383
 20
342.2296558118468
 30
0.0
 10
625.2167536060351
 20
341.6171771914866
 30
0.0
 10
624.526025495315
 20
341.0420188230615
 30
0.0
 10
623.7944204860814
 20
340.5101345339325
 30
0.0
 10
623.0207815270451
 20
340.0326953587677
 30
0.0
 10
622.2248328364221
 20
339.5941616762417
 30
0.0
 10
621.4007997681165
 20
339.2280221396248
 30
0.0
 10
620.5660685909816
 20
338.9044038906369
 30
0.0
 10
619.713286666177
 20
338.6472233487531
 30
0.0
 10
618.8444266180136
 20
338.4425575408028
 30
0.0
 10
617.9584022774873
 20
338.3034922968578
 30
0.0
 10
617.0561262375406
 20
338.2065236802908
 30
0.0
 10
616.4482537055608
 20
338.1985325599456
 30
0.0
 10
616.1423516873301
 20
338.1945111579033
 30
0.0
  0
LINE
  5
1E8
330
1F
100
AcDbEntity
  8
Make2D$Visible$Curves
 62
    18
420
        0
370
    -3
100
AcDbLine
 10
647.8554494482839
 20
350.4060496194419
 30
0.0
 11
647.8554494482839
 21
341.5866051749973
 31
0.0
  0
LINE
  5
1E9
330
1F
100
AcDbEntity
  8
Make2D$Visible$Curves
 62
    18
420
        0
370
    -3
100
AcDbLine
 10
643.2231210561899
 20
350.4643512353606
 30
0.0
 11
647.8554494482839
 21
350.4060496194419
 31
0.0
  0
SPLINE
  5
1EA
330
1F
100
AcDbEntity
  8
Make2D$Visible$Curves
 62
    18
420
        0
370
    -3
100
AcDbSpline
210
0.0
220
0.0
230
1.0
 70
     8
 71
     3
 72
    23
 73
    19
 74
     0
 42
0.000000001
 43
0.0000000001
 40
-1.0
 40
-1.0
 40
-1.0
 40
-1.0
 40
-0.9301257456238032
 40
-0.8616669889341402
 40
-0.7940171675347635
 40
-0.7247264870580016
 40
-0.6554427559182064
 40
-0.586460835181863
 40
-0.5168443183619366
 40
-0.4445873704368752
 40
-0.4053466078384468
 40
-0.3615116154160382
 40
-0.3137246436943871
 40
-0.2605214593354683
 40
-0.2030182249496287
 40
-0.1400041697030118
 40
-0.072523006933558
 40
0.0
 40
0.0
 40
0.0
 40
0.0
 10
636.3223297901641
 20
345.9804269565144
 30
0.0
 10
636.3318532786909
 20
346.1983979206849
 30
0.0
 10
636.3507073309529
 20
346.6299242398962
 30
0.0
 10
636.4904312230103
 20
347.2608404774988
 30
0.0
 10
636.7303029306663
 20
347.8568273927159
 30
0.0
 10
637.0492271937314
 20
348.4182600015939
 30
0.0
 10
637.4607437786292
 20
348.9211088196377
 30
0.0
 10
637.9394879821639
 20
349.3622831116205
 30
0.0
 10
638.4953891388757
 20
349.7181603780399
 30
0.0
 10
639.0097927840077
 20
349.9571763062303
 30
0.0
 10
639.4730012568577
 20
350.1001045581148
 30
0.0
 10
639.8682920874473
 20
350.2026105120882
 30
0.0
 10
640.3138604922092
 20
350.278271774224
 30
0.0
 10
640.8031835839872
 20
350.3477826523111
 30
0.0
 10
641.3425465491337
 20
350.4005385707536
 30
0.0
 10
641.9278275480501
 20
350.4342259708843
 30
0.0
 10
642.5602975999407
 20
350.4647657306135
 30
0.0
 10
642.9969384527506
 20
350.4644926781756
 30
0.0
 10
643.2231210561899
 20
350.4643512353606
 30
0.0
  0
SPLINE
  5
1EB
330
1F
100
AcDbEntity
  8
Make2D$Visible$Curves
 62
    18
420
        0
370
    -3
100
AcDbSpline
210
0.0
220
0.0
230
1.0
 70
     8
 71
     3
 72
    23
 73
    19
 74
     0
 42
0.000000001
 43
0.0000000001
 40
-1.0
 40
-1.0
 40
-1.0
 40
-1.0
 40
-0.9266674904409159
 40
-0.8585353794764671
 40
-0.7961297918046669
 40
-0.7382200197599431
 40
-0.685954591781421
 40
-0.6380122489940296
 40
-0.5953840299933618
 40
-0.557469994462438
 40
-0.4876777977030796
 40
-0.4184312795452252
 40
-0.3496460828027855
 40
-0.2788420728522148
 40
-0.2081697379567556
 40
-0.1392197801259145
 40
-0.0700344305736756
 40
0.0
 40
0.0
 40
0.0
 40
0.0
 10
643.0164153270232
 20
341.5866051749973
 30
0.0
 10
642.793791161336
 20
341.5871496981844
 30
0.0
 10
642.3643302945575
 20
341.5882001295207
 30
0.0
 10
641.7457069453537
 20
341.6093778338599
 30
0.0
 10
641.174673169847
 20
341.6455574446121
 30
0.0
 10
640.6533926249417
 20
341.6988785768521
 30
0.0
 10
640.1773852802874
 20
341.7611642435521
 30
0.0
 10
639.7503456488812
 20
341.8380903847366
 30
0.0
 10
639.3721184837402
 20
341.9344245589072
 30
0.0
 10
638.9367196135372
 20
342.0721677170742
 30
0.0
 10
638.446233622836
 20
342.297390040441
 30
0.0
 10
637.9192236890094
 20
342.6487567169453
 30
0.0
 10
637.4510889062428
 20
343.0799743844151
 30
0.0
 10
637.0513882729804
 20
343.5807652890745
 30
0.0
 10
636.7298346771086
 20
344.1352859597654
 30
0.0
 10
636.4915333516794
 20
344.7249496779906
 30
0.0
 10
636.350936742622
 20
345.3449139505032
 30
0.0
 10
636.3319041333477
 20
345.767729724046
 30
0.0
 10
636.3223297901641
 20
345.9804269565144
 30
0.0
  0
LINE
  5
1EC
330
1F
100
AcDbEntity
  8
Make2D$Visible$Curves
 62
    18
420
        0
370
    -3
100
AcDbLine
 10
647.8554494482839
 20
341.5866051749973
 30
0.0
 11
643.0164153270232
 21
341.5866051749973
 31
0.0
  0
SPLINE
  5
1ED
330
1F
100
AcDbEntity
  8
Make2D$Visible$Curves
 62
    18
420
        0
370
    -3
100
AcDbSpline
210
0.0
220
0.0
230
1.0
 70
     8
 71
     3
 72
    15
 73
    11
 74
     0
 42
0.000000001
 43
0.0000000001
 40
0.0
 40
0.0
 40
0.0
 40
0.0
 40
0.0751731173762233
 40
0.1647462575118032
 40
0.268016880987779
 40
0.3859118756529554
 40
0.5177894792733981
 40
0.6636909770022801
 40
0.8244132205366409
 40
1.0
 40
1.0
 40
1.0
 40
1.0
 10
639.226810292301
 20
352.685112787177
 30
0.0
 10
639.3925704956885
 20
352.7203627036587
 30
0.0
 10
639.7558436191882
 20
352.79761494516
 30
0.0
 10
640.3541249118416
 20
352.8838574463088
 30
0.0
 10
641.0507001507158
 20
352.957469070538
 30
0.0
 10
641.844618576268
 20
353.0126621939186
 30
0.0
 10
642.7351675599014
 20
353.0599120031255
 30
0.0
 10
643.7228288504296
 20
353.0974684271802
 30
0.0
 10
644.8095412195828
 20
353.1181048222435
 30
0.0
 10
645.5675440766006
 20
353.1191691487558
 30
0.0
 10
645.9632970043735
 20
353.1197248331169
 30
0.0
  0
SPLINE
  5
1EE
330
1F
100
AcDbEntity
  8
Make2D$Visible$Curves
 62
    18
420
        0
370
    -3
100
AcDbSpline
210
0.0
220
0.0
230
1.0
 70
     8
 71
     3
 72
    23
 73
    19
 74
     0
 42
0.000000001
 43
0.0000000001
 40
0.0
 40
0.0
 40
0.0
 40
0.0
 40
0.0701188944197145
 40
0.137192352785971
 40
0.2020161807247509
 40
0.2646314069747432
 40
0.3261165471458174
 40
0.3860103046676402
 40
0.4458118469576802
 40
0.5052976967309596
 40
0.5646332777264874
 40
0.6242826253338402
 40
0.6839020319037503
 40
0.7439527709382692
 40
0.8053877310076335
 40
0.8683880308962806
 40
0.9330840282524763
 40
1.0
 40
1.0
 40
1.0
 40
1.0
 10
633.9478639781983
 20
345.9698266627112
 30
0.0
 10
633.951049748471
 20
346.1873729515213
 30
0.0
 10
633.957282923177
 20
346.6130169587281
 30
0.0
 10
634.0320941277462
 20
347.2357160122973
 30
0.0
 10
634.1328640286733
 20
347.8307895567444
 30
0.0
 10
634.287811983766
 20
348.3969181406502
 30
0.0
 10
634.490752488736
 20
348.9307397388519
 30
0.0
 10
634.7288174120338
 20
349.4404121475801
 30
0.0
 10
635.015954814234
 20
349.9172644291945
 30
0.0
 10
635.3458889435929
 20
350.3630277582296
 30
0.0
 10
635.7129158773964
 20
350.7781205477473
 30
0.0
 10
636.1154827312478
 20
351.1595347680196
 30
0.0
 10
636.5519642876486
 20
351.5050378025234
 30
0.0
 10
637.020973383226
 20
351.8154042101072
 30
0.0
 10
637.5270823595497
 20
352.0834367991671
 30
0.0
 10
638.0626153061871
 20
352.323506901878
 30
0.0
 10
638.6322270612814
 20
352.5251274198
 30
0.0
 10
639.0263996371666
 20
352.6311880032018
 30
0.0
 10
639.226810292301
 20
352.685112787177
 30
0.0
  0
SPLINE
  5
1EF
330
1F
100
AcDbEntity
  8
Make2D$Visible$Curves
 62
    18
420
        0
370
    -3
100
AcDbSpline
210
0.0
220
0.0
230
1.0
 70
     8
 71
     3
 72
    23
 73
    19
 74
     0
 42
0.000000001
 43
0.0000000001
 40
0.0
 40
0.0
 40
0.0
 40
0.0
 40
0.0624679520043991
 40
0.1234639248648872
 40
0.1833717983676246
 40
0.2431011254066008
 40
0.3020620046996776
 40
0.3616321745127559
 40
0.4221706153210528
 40
0.483247136620038
 40
0.5448542874401182
 40
0.6059696561964943
 40
0.6679553912811645
 40
0.7300422384003339
 40
0.7945949387644073
 40
0.8603755406720072
 40
0.9289225878691838
 40
1.0
 40
1.0
 40
1.0
 40
1.0
 10
639.0148044162327
 20
339.2704409789504
 30
0.0
 10
638.8319123898443
 20
339.3204993198091
 30
0.0
 10
638.4704379588786
 20
339.4194364393455
 30
0.0
 10
637.949585129672
 20
339.6176061677035
 30
0.0
 10
637.4540060847849
 20
339.8525485481385
 30
0.0
 10
636.9821389588442
 20
340.1204253418615
 30
0.0
 10
636.539271758649
 20
340.4321967103909
 30
0.0
 10
636.1197354926865
 20
340.7780004323748
 30
0.0
 10
635.7211238199636
 20
341.1576462615218
 30
0.0
 10
635.356977457842
 20
341.5784939085939
 30
0.0
 10
635.0217339801634
 20
342.0250268464314
 30
0.0
 10
634.7341459324537
 20
342.5071896071883
 30
0.0
 10
634.490884411148
 20
343.0144881015523
 30
0.0
 10
634.2922138381309
 20
343.5521176864992
 30
0.0
 10
634.141147566743
 20
344.1168107914506
 30
0.0
 10
634.0295350355962
 20
344.7102159318302
 30
0.0
 10
633.9581239532961
 20
345.3302941186518
 30
0.0
 10
633.9513250413272
 20
345.7540890525491
 30
0.0
 10
633.9478639781983
 20
345.9698266627112
 30
0.0
  0
SPLINE
  5
1F0
330
1F
100
AcDbEntity
  8
Make2D$Visible$Curves
 62
    18
420
        0
370
    -3
100
AcDbSpline
210
0.0
220
0.0
230
1.0
 70
     8
 71
     3
 72
    15
 73
    11
 74
     0
 42
0.000000001
 43
0.0000000001
 40
0.0
 40
0.0
 40
0.0
 40
0.0
 40
0.1769557521312527
 40
0.3390550796425825
 40
0.4863182249420798
 40
0.6187809228353793
 40
0.7356188277673809
 40
0.838742476720109
 40
0.9264570678763177
 40
0.9999999999999999
 40
0.9999999999999999
 40
0.9999999999999999
 40
0.9999999999999999
 10
645.0410714434761
 20
338.8729299613223
 30
0.0
 10
644.6841794743534
 20
338.8733222721904
 30
0.0
 10
644.0003586120347
 20
338.8740739572364
 30
0.0
 10
643.0197745599494
 20
338.8968640000852
 30
0.0
 10
642.1291890887267
 20
338.9273038748341
 30
0.0
 10
641.3305225186257
 20
338.9695003293297
 30
0.0
 10
640.6213174914237
 20
339.0193674103674
 30
0.0
 10
640.0047831436609
 20
339.0893084223277
 30
0.0
 10
639.4760734023278
 20
339.16233565657
 30
0.0
 10
639.1592805999642
 20
339.2365808129965
 30
0.0
 10
639.0148044162327
 20
339.2704409789504
 30
0.0
  0
LINE
  5
1F1
330
1F
100
AcDbEntity
  8
Make2D$Visible$Curves
 62
    18
420
        0
370
    -3
100
AcDbLine
 10
554.2465114278891
 20
344.5546874399546
 30
0.0
 11
554.2465114278891
 21
365.3312632946555
 31
0.0
  0
LINE
  5
1F2
330
1F
100
AcDbEntity
  8
Make2D$Visible$Curves
 62
    18
420
        0
370
    -3
100
AcDbLine
 10
592.9035263713608
 20
306.1078391493564
 30
0.0
 11
592.9035263713608
 21
285.3312632946555
 31
0.0
  0
LINE
  5
1F3
330
1F
100
AcDbEntity
  8
Make2D$Visible$Curves
 62
    18
420
        0
370
    -3
100
AcDbLine
 10
552.8768169696514
 20
285.3312632946555
 30
0.0
 11
550.5023511576856
 21
285.3312632946555
 31
0.0
  0
LINE
  5
1F4
330
1F
100
AcDbEntity
  8
Make2D$Visible$Curves
 62
    18
420
        0
370
    -3
100
AcDbLine
 10
592.9035263713608
 20
285.3312632946555
 30
0.0
 11
590.529060559395
 21
285.3312632946555
 31
0.0
  0
LINE
  5
1F5
330
1F
100
AcDbEntity
  8
Make2D$Visible$Curves
 62
    18
420
        0
370
    -3
100
AcDbLine
 10
610.881624661959
 20
285.3312632946555
 30
0.0
 11
610.3410096779846
 21
285.3312632946555
 31
0.0
  0
LINE
  5
1F6
330
1F
100
AcDbEntity
  8
Make2D$Visible$Curves
 62
    18
420
        0
370
    -3
100
AcDbLine
 10
499.2817314995659
 20
285.3312632946555
 30
0.0
 11
496.9072656876001
 21
285.3312632946555
 31
0.0
  0
LINE
  5
1F7
330
1F
100
AcDbEntity
  8
Make2D$Visible$Curves
 62
    18
420
        0
370
    -3
100
AcDbLine
 10
483.6220092773438
 20
365.3312632946555
 30
0.0
 11
483.6220092773438
 21
285.3312632946555
 31
0.0
  0
LINE
  5
1F8
330
1F
100
AcDbEntity
  8
Make2D$Visible$Curves
 62
    18
420
        0
370
    -3
100
AcDbLine
 10
494.8912945544439
 20
362.6175880809802
 30
0.0
 11
494.8912945544439
 21
365.3312632946555
 31
0.0
  0
LINE
  5
1F9
330
1F
100
AcDbEntity
  8
Make2D$Visible$Curves
 62
    18
420
        0
370
    -3
100
AcDbLine
 10
507.4420424176917
 20
362.6175880809802
 30
0.0
 11
494.8912945544439
 21
362.6175880809802
 31
0.0
  0
LINE
  5
1FA
330
1F
100
AcDbEntity
  8
Make2D$Visible$Curves
 62
    18
420
        0
370
    -3
100
AcDbLine
 10
507.4420424176917
 20
352.4413060296982
 30
0.0
 11
507.4420424176917
 21
362.6175880809802
 31
0.0
  0
LINE
  5
1FB
330
1F
100
AcDbEntity
  8
Make2D$Visible$Curves
 62
    18
420
        0
370
    -3
100
AcDbLine
 10
494.8912945544439
 20
352.4413060296982
 30
0.0
 11
507.4420424176917
 21
352.4413060296982
 31
0.0
  0
LINE
  5
1FC
330
1F
100
AcDbEntity
  8
Make2D$Visible$Curves
 62
    18
420
        0
370
    -3
100
AcDbLine
 10
494.8912945544439
 20
349.727630816023
 30
0.0
 11
494.8912945544439
 21
352.4413060296982
 31
0.0
  0
LINE
  5
1FD
330
1F
100
AcDbEntity
  8
Make2D$Visible$Curves
 62
    18
420
        0
370
    -3
100
AcDbLine
 10
507.4420424176917
 20
349.727630816023
 30
0.0
 11
494.8912945544439
 21
349.727630816023
 31
0.0
  0
LINE
  5
1FE
330
1F
100
AcDbEntity
  8
Make2D$Visible$Curves
 62
    18
420
        0
370
    -3
100
AcDbLine
 10
507.4420424176917
 20
341.5866051749973
 30
0.0
 11
507.4420424176917
 21
349.727630816023
 31
0.0
  0
LINE
  5
1FF
330
1F
100
AcDbEntity
  8
Make2D$Visible$Curves
 62
    18
420
        0
370
    -3
100
AcDbLine
 10
494.8912945544439
 20
341.5866051749973
 30
0.0
 11
507.4420424176917
 21
341.5866051749973
 31
0.0
  0
LINE
  5
200
330
1F
100
AcDbEntity
  8
Make2D$Visible$Curves
 62
    18
420
        0
370
    -3
100
AcDbLine
 10
494.8912945544439
 20
338.8729299613223
 30
0.0
 11
494.8912945544439
 21
341.5866051749973
 31
0.0
  0
LINE
  5
201
330
1F
100
AcDbEntity
  8
Make2D$Visible$Curves
 62
    18
420
        0
370
    -3
100
AcDbLine
 10
509.8165082296575
 20
338.8729299613223
 30
0.0
 11
494.8912945544439
 21
338.8729299613223
 31
0.0
  0
LINE
  5
202
330
1F
100
AcDbEntity
  8
Make2D$Visible$Curves
 62
    18
420
        0
370
    -3
100
AcDbLine
 10
509.8165082296575
 20
365.3312632946555
 30
0.0
 11
509.8165082296575
 21
338.8729299613223
 31
0.0
  0
LINE
  5
203
330
1F
100
AcDbEntity
  8
Make2D$Visible$Curves
 62
    18
420
        0
370
    -3
100
AcDbLine
 10
514.5627380514834
 20
362.6175880809802
 30
0.0
 11
514.5627380514834
 21
365.3312632946555
 31
0.0
  0
LINE
  5
204
330
1F
100
AcDbEntity
  8
Make2D$Visible$Curves
 62
    18
420
        0
370
    -3
100
AcDbLine
 10
527.1134859147312
 20
362.6175880809802
 30
0.0
 11
514.5627380514834
 21
362.6175880809802
 31
0.0
  0
LINE
  5
205
330
1F
100
AcDbEntity
  8
Make2D$Visible$Curves
 62
    18
420
        0
370
    -3
100
AcDbLine
 10
527.1134859147312
 20
352.4413060296982
 30
0.0
 11
527.1134859147312
 21
362.6175880809802
 31
0.0
  0
LINE
  5
206
330
1F
100
AcDbEntity
  8
Make2D$Visible$Curves
 62
    18
420
        0
370
    -3
100
AcDbLine
 10
514.5627380514834
 20
352.4413060296982
 30
0.0
 11
527.1134859147312
 21
352.4413060296982
 31
0.0
  0
LINE
  5
207
330
1F
100
AcDbEntity
  8
Make2D$Visible$Curves
 62
    18
420
        0
370
    -3
100
AcDbLine
 10
514.5627380514834
 20
349.727630816023
 30
0.0
 11
514.5627380514834
 21
352.4413060296982
 31
0.0
  0
LINE
  5
208
330
1F
100
AcDbEntity
  8
Make2D$Visible$Curves
 62
    18
420
        0
370
    -3
100
AcDbLine
 10
527.1134859147312
 20
349.727630816023
 30
0.0
 11
514.5627380514834
 21
349.727630816023
 31
0.0
  0
LINE
  5
209
330
1F
100
AcDbEntity
  8
Make2D$Visible$Curves
 62
    18
420
        0
370
    -3
100
AcDbLine
 10
527.1134859147312
 20
341.5866051749973
 30
0.0
 11
527.1134859147312
 21
349.727630816023
 31
0.0
  0
LINE
  5
20A
330
1F
100
AcDbEntity
  8
Make2D$Visible$Curves
 62
    18
420
        0
370
    -3
100
AcDbLine
 10
514.5627380514834
 20
341.5866051749973
 30
0.0
 11
527.1134859147312
 21
341.5866051749973
 31
0.0
  0
LINE
  5
20B
330
1F
100
AcDbEntity
  8
Make2D$Visible$Curves
 62
    18
420
        0
370
    -3
100
AcDbLine
 10
514.5627380514834
 20
338.8729299613223
 30
0.0
 11
514.5627380514834
 21
341.5866051749973
 31
0.0
  0
LINE
  5
20C
330
1F
100
AcDbEntity
  8
Make2D$Visible$Curves
 62
    18
420
        0
370
    -3
100
AcDbLine
 10
529.487951726697
 20
338.8729299613223
 30
0.0
 11
514.5627380514834
 21
338.8729299613223
 31
0.0
  0
LINE
  5
20D
330
1F
100
AcDbEntity
  8
Make2D$Visible$Curves
 62
    18
420
        0
370
    -3
100
AcDbLine
 10
529.487951726697
 20
365.3312632946555
 30
0.0
 11
529.487951726697
 21
338.8729299613223
 31
0.0
  0
LINE
  5
20E
330
1F
100
AcDbEntity
  8
Make2D$Visible$Curves
 62
    18
420
        0
370
    -3
100
AcDbLine
 10
536.2684131372907
 20
338.8729299613223
 30
0.0
 11
536.2684131372907
 21
365.3312632946555
 31
0.0
  0
LINE
  5
20F
330
1F
100
AcDbEntity
  8
Make2D$Visible$Curves
 62
    18
420
        0
370
    -3
100
AcDbLine
 10
538.6428789492566
 20
338.8729299613223
 30
0.0
 11
536.2684131372907
 21
338.8729299613223
 31
0.0
  0
LINE
  5
210
330
1F
100
AcDbEntity
  8
Make2D$Visible$Curves
 62
    18
420
        0
370
    -3
100
AcDbLine
 10
538.6428789492566
 20
359.6972071381384
 30
0.0
 11
538.6428789492566
 21
338.8729299613223
 31
0.0
  0
LINE
  5
211
330
1F
100
AcDbEntity
  8
Make2D$Visible$Curves
 62
    18
420
        0
370
    -3
100
AcDbLine
 10
556.6209772398549
 20
338.8729299613223
 30
0.0
 11
556.1227634310942
 21
338.8729299613223
 31
0.0
  0
LINE
  5
212
330
1F
100
AcDbEntity
  8
Make2D$Visible$Curves
 62
    18
420
        0
370
    -3
100
AcDbLine
 10
556.6209772398549
 20
365.3312632946555
 30
0.0
 11
556.6209772398549
 21
338.8729299613223
 31
0.0
  0
SPLINE
  5
213
330
1F
100
AcDbEntity
  8
Make2D$Visible$Curves
 62
    18
420
        0
370
    -3
100
AcDbSpline
210
0.0
220
0.0
230
1.0
 70
     8
 71
     3
 72
    20
 73
    16
 74
     0
 42
0.000000001
 43
0.0000000001
 40
0.0
 40
0.0
 40
0.0
 40
0.0
 40
1.519609600345148
 40
2.974150489419436
 40
4.363070131171944
 40
5.701407928830722
 40
7.002850167782268
 40
8.28108873905196
 40
9.546219097597032
 40
10.81819189121094
 40
12.08415731571587
 40
13.33594091015686
 40
14.58511023383139
 40
15.84693947086401
 40
16.56449539378677
 40
16.56449539378677
 40
16.56449539378677
 40
16.56449539378677
 10
562.0439488844822
 20
352.4413060296982
 30
0.0
 10
562.0568442853214
 20
352.9470947842832
 30
0.0
 10
562.082082914183
 20
353.9370147424421
 30
0.0
 10
562.259118762853
 20
355.3806590511464
 30
0.0
 10
562.5449935859242
 20
356.7441831607242
 30
0.0
 10
562.9355209416669
 20
358.0290230471429
 30
0.0
 10
563.4410662135956
 20
359.2333579441912
 30
0.0
 10
564.0562037780792
 20
360.35841062219
 30
0.0
 10
564.7907787391403
 20
361.3969129115102
 30
0.0
 10
565.6186255273808
 20
362.3573428787344
 30
0.0
 10
566.5476906827548
 20
363.214057755925
 30
0.0
 10
567.5528701297587
 20
363.9670312148672
 30
0.0
 10
568.635824591342
 20
364.6012950327419
 30
0.0
 10
569.619319757252
 20
365.0389074163205
 30
0.0
 10
570.2411004653793
 20
365.2581750472822
 30
0.0
 10
570.468552742585
 20
365.3312632879275
 30
0.0
  0
LINE
  5
214
330
1F
100
AcDbEntity
  8
Make2D$Visible$Curves
 62
    18
420
        0
370
    -3
100
AcDbLine
 10
573.2378591408924
 20
352.4413060296982
 30
0.0
 11
562.0439488844822
 21
352.4413060296982
 31
0.0
  0
LINE
  5
215
330
1F
100
AcDbEntity
  8
Make2D$Visible$Curves
 62
    18
420
        0
370
    -3
100
AcDbLine
 10
573.2378591408924
 20
355.1549812433735
 30
0.0
 11
573.2378591408924
 21
352.4413060296982
 31
0.0
  0
LINE
  5
216
330
1F
100
AcDbEntity
  8
Make2D$Visible$Curves
 62
    18
420
        0
370
    -3
100
AcDbLine
 10
564.418414696448
 20
355.1549812433735
 30
0.0
 11
573.2378591408924
 21
355.1549812433735
 31
0.0
  0
ARC
  5
217
330
1F
100
AcDbEntity
  8
Make2D$Visible$Curves
 62
    18
420
        0
370
    -3
100
AcDbCircle
 10
-576.2381712417614
 20
352.4151690234763
 30
0.0
 40
13.47203678930776
210
0.0
220
0.0
230
-1.0
100
AcDbArc
 50
106.5173683656953
 51
140.3791605204538
  0
LINE
  5
218
330
1F
100
AcDbEntity
  8
Make2D$Visible$Curves
 62
    18
420
        0
370
    -3
100
AcDbLine
 10
594.267724059797
 20
338.8729299613223
 30
0.0
 11
594.267724059797
 21
365.3312632946555
 31
0.0
  0
LINE
  5
219
330
1F
100
AcDbEntity
  8
Make2D$Visible$Curves
 62
    18
420
        0
370
    -3
100
AcDbLine
 10
596.6421898717629
 20
338.8729299613223
 30
0.0
 11
594.267724059797
 21
338.8729299613223
 31
0.0
  0
LINE
  5
21A
330
1F
100
AcDbEntity
  8
Make2D$Visible$Curves
 62
    18
420
        0
370
    -3
100
AcDbLine
 10
596.6421898717629
 20
365.3312632946555
 30
0.0
 11
596.6421898717629
 21
338.8729299613223
 31
0.0
  0
SPLINE
  5
21B
330
1F
100
AcDbEntity
  8
Make2D$Visible$Curves
 62
    18
420
        0
370
    -3
100
AcDbSpline
210
0.0
220
0.0
230
1.0
 70
     8
 71
     3
 72
    20
 73
    16
 74
     0
 42
0.000000001
 43
0.0000000001
 40
0.0
 40
0.0
 40
0.0
 40
0.0
 40
0.9618399045473925
 40
2.298833155585484
 40
3.644408916890103
 40
5.017186692882957
 40
6.422685878456795
 40
7.827844174100918
 40
9.192138271858482
 40
10.53317224901368
 40
11.85576596600252
 40
13.18056309372864
 40
14.51832544321156
 40
15.88541549279975
 40
17.29360881009373
 40
17.29360881009373
 40
17.29360881009373
 40
17.29360881009373
 10
620.4391585832395
 20
365.3312632976575
 30
0.0
 10
620.7439750004935
 20
365.2330802289902
 30
0.0
 10
621.4637952925489
 20
364.9709589722171
 30
0.0
 10
622.5639257707826
 20
364.4550613790678
 30
0.0
 10
623.7205177515123
 20
363.7547848311964
 30
0.0
 10
624.8198828276627
 20
362.9296050962749
 30
0.0
 10
625.8508336846023
 20
361.9910097627622
 30
0.0
 10
626.7929834016682
 20
360.9672174113581
 30
0.0
 10
627.6216584816684
 20
359.8758935733164
 30
0.0
 10
628.3178977873304
 20
358.7274173636307
 30
0.0
 10
628.8880009847715
 20
357.5265230190859
 30
0.0
 10
629.3389309069973
 20
356.276314643863
 30
0.0
 10
629.6466684467277
 20
354.9689279599987
 30
0.0
 10
629.8457479732738
 20
353.6116889722049
 30
0.0
 10
629.8686910296035
 20
352.6875916709208
 30
0.0
 10
629.8803324565611
 20
352.2186998598264
 30
0.0
  0
LINE
  5
21C
330
1F
100
AcDbEntity
  8
Make2D$Visible$Curves
 62
    18
420
        0
370
    -3
100
AcDbLine
 10
647.8554494482839
 20
353.1197248331169
 30
0.0
 11
647.8554494482839
 21
365.3312632946555
 31
0.0
  0
LINE
  5
21D
330
1F
100
AcDbEntity
  8
Make2D$Visible$Curves
 62
    18
420
        0
370
    -3
100
AcDbLine
 10
645.9632970043735
 20
353.1197248331169
 30
0.0
 11
647.8554494482839
 21
353.1197248331169
 31
0.0
  0
LINE
  5
21E
330
1F
100
AcDbEntity
  8
Make2D$Visible$Curves
 62
    18
420
        0
370
    -3
100
AcDbLine
 10
650.2299152602498
 20
338.8729299613223
 30
0.0
 11
645.0410714434761
 21
338.8729299613223
 31
0.0
  0
LINE
  5
21F
330
1F
100
AcDbEntity
  8
Make2D$Visible$Curves
 62
    18
420
        0
370
    -3
100
AcDbLine
 10
650.2299152602498
 20
365.3312632946555
 30
0.0
 11
650.2299152602498
 21
338.8729299613223
 31
0.0
  0
LINE
  5
220
330
1F
100
AcDbEntity
  8
Make2D$Visible$Curves
 62
    18
420
        0
370
    -3
100
AcDbLine
 10
653.6220092773435
 20
285.3312632946555
 30
0.0
 11
653.6220092773435
 21
365.3312632946555
 31
0.0
  0
LINE
  5
221
330
1F
100
AcDbEntity
  8
Make2D$Visible$Curves
 62
    18
420
        0
370
    -3
100
AcDbLine
 10
652.2651716705061
 20
285.3312632946555
 30
0.0
 11
653.6220092773435
 21
285.3312632946555
 31
0.0
  0
LINE
  5
222
330
1F
100
AcDbEntity
  8
Make2D$Visible$Curves
 62
    18
420
        0
370
    -3
100
AcDbLine
 10
652.2651716705061
 20
288.0449385083308
 30
0.0
 11
652.2651716705061
 21
285.3312632946555
 31
0.0
  0
LINE
  5
223
330
1F
100
AcDbEntity
  8
Make2D$Visible$Curves
 62
    18
420
        0
370
    -3
100
AcDbLine
 10
639.7144238072581
 20
288.0449385083308
 30
0.0
 11
652.2651716705061
 21
288.0449385083308
 31
0.0
  0
LINE
  5
224
330
1F
100
AcDbEntity
  8
Make2D$Visible$Curves
 62
    18
420
        0
370
    -3
100
AcDbLine
 10
639.7144238072581
 20
298.2212205596128
 30
0.0
 11
639.7144238072581
 21
288.0449385083308
 31
0.0
  0
LINE
  5
225
330
1F
100
AcDbEntity
  8
Make2D$Visible$Curves
 62
    18
420
        0
370
    -3
100
AcDbLine
 10
652.2651716705061
 20
298.2212205596128
 30
0.0
 11
639.7144238072581
 21
298.2212205596128
 31
0.0
  0
LINE
  5
226
330
1F
100
AcDbEntity
  8
Make2D$Visible$Curves
 62
    18
420
        0
370
    -3
100
AcDbLine
 10
652.2651716705061
 20
300.9348957732881
 30
0.0
 11
652.2651716705061
 21
298.2212205596128
 31
0.0
  0
LINE
  5
227
330
1F
100
AcDbEntity
  8
Make2D$Visible$Curves
 62
    18
420
        0
370
    -3
100
AcDbLine
 10
639.7144238072581
 20
300.9348957732881
 30
0.0
 11
652.2651716705061
 21
300.9348957732881
 31
0.0
  0
LINE
  5
228
330
1F
100
AcDbEntity
  8
Make2D$Visible$Curves
 62
    18
420
        0
370
    -3
100
AcDbLine
 10
639.7144238072581
 20
309.0759214143137
 30
0.0
 11
639.7144238072581
 21
300.9348957732881
 31
0.0
  0
LINE
  5
229
330
1F
100
AcDbEntity
  8
Make2D$Visible$Curves
 62
    18
420
        0
370
    -3
100
AcDbLine
 10
652.2651716705061
 20
309.0759214143137
 30
0.0
 11
639.7144238072581
 21
309.0759214143137
 31
0.0
  0
LINE
  5
22A
330
1F
100
AcDbEntity
  8
Make2D$Visible$Curves
 62
    18
420
        0
370
    -3
100
AcDbLine
 10
652.2651716705061
 20
311.7895966279888
 30
0.0
 11
652.2651716705061
 21
309.0759214143137
 31
0.0
  0
LINE
  5
22B
330
1F
100
AcDbEntity
  8
Make2D$Visible$Curves
 62
    18
420
        0
370
    -3
100
AcDbLine
 10
637.3399579952923
 20
311.7895966279888
 30
0.0
 11
652.2651716705061
 21
311.7895966279888
 31
0.0
  0
LINE
  5
22C
330
1F
100
AcDbEntity
  8
Make2D$Visible$Curves
 62
    18
420
        0
370
    -3
100
AcDbLine
 10
637.3399579952923
 20
285.3312632946555
 30
0.0
 11
637.3399579952923
 21
311.7895966279888
 31
0.0
  0
LINE
  5
22D
330
1F
100
AcDbEntity
  8
Make2D$Visible$Curves
 62
    18
420
        0
370
    -3
100
AcDbLine
 10
632.5910263713608
 20
285.3312632946555
 30
0.0
 11
637.3399579952923
 21
285.3312632946555
 31
0.0
  0
LINE
  5
22E
330
1F
100
AcDbEntity
  8
Make2D$Visible$Curves
 62
    18
420
        0
370
    -3
100
AcDbLine
 10
632.5910263713608
 20
288.0449385083308
 30
0.0
 11
632.5910263713608
 21
285.3312632946555
 31
0.0
  0
LINE
  5
22F
330
1F
100
AcDbEntity
  8
Make2D$Visible$Curves
 62
    18
420
        0
370
    -3
100
AcDbLine
 10
620.0402785081128
 20
288.0449385083308
 30
0.0
 11
632.5910263713608
 21
288.0449385083308
 31
0.0
  0
LINE
  5
230
330
1F
100
AcDbEntity
  8
Make2D$Visible$Curves
 62
    18
420
        0
370
    -3
100
AcDbLine
 10
620.0402785081128
 20
298.2212205596128
 30
0.0
 11
620.0402785081128
 21
288.0449385083308
 31
0.0
  0
LINE
  5
231
330
1F
100
AcDbEntity
  8
Make2D$Visible$Curves
 62
    18
420
        0
370
    -3
100
AcDbLine
 10
632.5910263713608
 20
298.2212205596128
 30
0.0
 11
620.0402785081128
 21
298.2212205596128
 31
0.0
  0
LINE
  5
232
330
1F
100
AcDbEntity
  8
Make2D$Visible$Curves
 62
    18
420
        0
370
    -3
100
AcDbLine
 10
632.5910263713608
 20
300.9348957732881
 30
0.0
 11
632.5910263713608
 21
298.2212205596128
 31
0.0
  0
LINE
  5
233
330
1F
100
AcDbEntity
  8
Make2D$Visible$Curves
 62
    18
420
        0
370
    -3
100
AcDbLine
 10
620.0402785081128
 20
300.9348957732881
 30
0.0
 11
632.5910263713608
 21
300.9348957732881
 31
0.0
  0
LINE
  5
234
330
1F
100
AcDbEntity
  8
Make2D$Visible$Curves
 62
    18
420
        0
370
    -3
100
AcDbLine
 10
620.0402785081128
 20
309.0759214143137
 30
0.0
 11
620.0402785081128
 21
300.9348957732881
 31
0.0
  0
LINE
  5
235
330
1F
100
AcDbEntity
  8
Make2D$Visible$Curves
 62
    18
420
        0
370
    -3
100
AcDbLine
 10
632.5910263713608
 20
309.0759214143137
 30
0.0
 11
620.0402785081128
 21
309.0759214143137
 31
0.0
  0
LINE
  5
236
330
1F
100
AcDbEntity
  8
Make2D$Visible$Curves
 62
    18
420
        0
370
    -3
100
AcDbLine
 10
632.5910263713608
 20
311.7895966279888
 30
0.0
 11
632.5910263713608
 21
309.0759214143137
 31
0.0
  0
LINE
  5
237
330
1F
100
AcDbEntity
  8
Make2D$Visible$Curves
 62
    18
420
        0
370
    -3
100
AcDbLine
 10
617.665812696147
 20
311.7895966279888
 30
0.0
 11
632.5910263713608
 21
311.7895966279888
 31
0.0
  0
LINE
  5
238
330
1F
100
AcDbEntity
  8
Make2D$Visible$Curves
 62
    18
420
        0
370
    -3
100
AcDbLine
 10
617.665812696147
 20
285.3312632946555
 30
0.0
 11
617.665812696147
 21
311.7895966279888
 31
0.0
  0
LINE
  5
239
330
1F
100
AcDbEntity
  8
Make2D$Visible$Curves
 62
    18
420
        0
370
    -3
100
AcDbLine
 10
610.881624661959
 20
311.7895966279888
 30
0.0
 11
610.881624661959
 21
285.3312632946555
 31
0.0
  0
LINE
  5
23A
330
1F
100
AcDbEntity
  8
Make2D$Visible$Curves
 62
    18
420
        0
370
    -3
100
AcDbLine
 10
608.5071588499932
 20
311.7895966279888
 30
0.0
 11
610.881624661959
 21
311.7895966279888
 31
0.0
  0
LINE
  5
23B
330
1F
100
AcDbEntity
  8
Make2D$Visible$Curves
 62
    18
420
        0
370
    -3
100
AcDbLine
 10
608.5071588499932
 20
290.9653194511726
 30
0.0
 11
608.5071588499932
 21
311.7895966279888
 31
0.0
  0
LINE
  5
23C
330
1F
100
AcDbEntity
  8
Make2D$Visible$Curves
 62
    18
420
        0
370
    -3
100
AcDbLine
 10
590.529060559395
 20
311.7895966279888
 30
0.0
 11
591.0272743681555
 21
311.7895966279888
 31
0.0
  0
LINE
  5
23D
330
1F
100
AcDbEntity
  8
Make2D$Visible$Curves
 62
    18
420
        0
370
    -3
100
AcDbLine
 10
590.529060559395
 20
285.3312632946555
 30
0.0
 11
590.529060559395
 21
311.7895966279888
 31
0.0
  0
SPLINE
  5
23E
330
1F
100
AcDbEntity
  8
Make2D$Visible$Curves
 62
    18
420
        0
370
    -3
100
AcDbSpline
210
0.0
220
0.0
230
1.0
 70
     8
 71
     3
 72
    20
 73
    16
 74
     0
 42
0.000000001
 43
0.0000000001
 40
0.0
 40
0.0
 40
0.0
 40
0.0
 40
1.519609600345141
 40
2.974150489419431
 40
4.363070131171941
 40
5.701407928830727
 40
7.002850167782273
 40
8.281088739051969
 40
9.546219097597046
 40
10.81819189121095
 40
12.08415731571588
 40
13.33594091015688
 40
14.5851102338314
 40
15.84693947086403
 40
16.56449539378682
 40
16.56449539378682
 40
16.56449539378682
 40
16.56449539378682
 10
585.1017101320444
 20
298.2212205596128
 30
0.0
 10
585.0888147312053
 20
297.7154318050278
 30
0.0
 10
585.0635761023436
 20
296.7255118468689
 30
0.0
 10
584.8865402536737
 20
295.2818675381646
 30
0.0
 10
584.6006654306025
 20
293.9183434285868
 30
0.0
 10
584.2101380748597
 20
292.6335035421681
 30
0.0
 10
583.7045928029311
 20
291.4291686451198
 30
0.0
 10
583.0894552384475
 20
290.3041159671212
 30
0.0
 10
582.3548802773867
 20
289.2656136778008
 30
0.0
 10
581.5270334891459
 20
288.3051837105767
 30
0.0
 10
580.5979683337719
 20
287.4484688333861
 30
0.0
 10
579.5927888867682
 20
286.6954953744438
 30
0.0
 10
578.5098344251846
 20
286.0612315565694
 30
0.0
 10
577.5263392592747
 20
285.6236191729905
 30
0.0
 10
576.9045585511474
 20
285.4043515420288
 30
0.0
 10
576.6771062739417
 20
285.3312633013835
 30
0.0
  0
LINE
  5
23F
330
1F
100
AcDbEntity
  8
Make2D$Visible$Curves
 62
    18
420
        0
370
    -3
100
AcDbLine
 10
573.9077998756343
 20
298.2212205596128
 30
0.0
 11
585.1017101320444
 21
298.2212205596128
 31
0.0
  0
LINE
  5
240
330
1F
100
AcDbEntity
  8
Make2D$Visible$Curves
 62
    18
420
        0
370
    -3
100
AcDbLine
 10
573.9077998756343
 20
295.5075453459375
 30
0.0
 11
573.9077998756343
 21
298.2212205596128
 31
0.0
  0
LINE
  5
241
330
1F
100
AcDbEntity
  8
Make2D$Visible$Curves
 62
    18
420
        0
370
    -3
100
AcDbLine
 10
582.7272443200786
 20
295.5075453459375
 30
0.0
 11
573.9077998756343
 21
295.5075453459375
 31
0.0
  0
ARC
  5
242
330
1F
100
AcDbEntity
  8
Make2D$Visible$Curves
 62
    18
420
        0
370
    -3
100
AcDbCircle
 10
-570.9074877747679
 20
298.247357565839
 30
0.0
 40
13.47203678931252
210
0.0
220
0.0
230
-1.0
100
AcDbArc
 50
286.5173683656998
 51
320.379160520447
  0
LINE
  5
243
330
1F
100
AcDbEntity
  8
Make2D$Visible$Curves
 62
    18
420
        0
370
    -3
100
AcDbLine
 10
552.8768169696514
 20
311.7895966279888
 30
0.0
 11
552.8768169696514
 21
285.3312632946555
 31
0.0
  0
LINE
  5
244
330
1F
100
AcDbEntity
  8
Make2D$Visible$Curves
 62
    18
420
        0
370
    -3
100
AcDbLine
 10
550.5023511576856
 20
311.7895966279888
 30
0.0
 11
552.8768169696514
 21
311.7895966279888
 31
0.0
  0
LINE
  5
245
330
1F
100
AcDbEntity
  8
Make2D$Visible$Curves
 62
    18
420
        0
370
    -3
100
AcDbLine
 10
550.5023511576856
 20
285.3312632946555
 30
0.0
 11
550.5023511576856
 21
311.7895966279888
 31
0.0
  0
SPLINE
  5
246
330
1F
100
AcDbEntity
  8
Make2D$Visible$Curves
 62
    18
420
        0
370
    -3
100
AcDbSpline
210
0.0
220
0.0
230
1.0
 70
     8
 71
     3
 72
    20
 73
    16
 74
     0
 42
0.000000001
 43
0.0000000001
 40
0.0
 40
0.0
 40
0.0
 40
0.0
 40
0.961708363324232
 40
2.29870063471165
 40
3.648822784720842
 40
5.021599554842775
 40
6.427097710569821
 40
7.832254976616949
 40
9.193353065068075
 40
10.53438605961187
 40
11.85697880750097
 40
13.18177496451287
 40
14.51953633378159
 40
15.88662538166641
 40
17.29481766713953
 40
17.29481766713953
 40
17.29481766713953
 40
17.29481766713953
 10
526.7008553749781
 20
285.3312632918488
 30
0.0
 10
526.396060568333
 20
285.4294011844407
 30
0.0
 10
525.6762491939926
 20
285.6914549203437
 30
0.0
 10
524.5753924182609
 20
286.2089952680925
 30
0.0
 10
523.4150804832384
 20
286.9060164670951
 30
0.0
 10
522.3150250245355
 20
287.7330823559067
 30
0.0
 10
521.2843463453512
 20
288.6717225329284
 30
0.0
 10
520.3413018110643
 20
289.6935550988934
 30
0.0
 10
519.519132720601
 20
290.7884330987216
 30
0.0
 10
518.8219547802335
 20
291.9348761341893
 30
0.0
 10
518.2522438734843
 20
293.1360657511181
 30
0.0
 10
517.8012089721083
 20
294.3861951097587
 30
0.0
 10
517.4934999298571
 20
295.6936032432792
 30
0.0
 10
517.2944126727866
 20
297.0508364123519
 30
0.0
 10
517.2714706783245
 20
297.9749345128599
 30
0.0
 10
517.2598297901641
 20
298.4438267294846
 30
0.0
  0
LINE
  5
247
330
1F
100
AcDbEntity
  8
Make2D$Visible$Curves
 62
    18
420
        0
370
    -3
100
AcDbLine
 10
499.2817314995659
 20
297.5428017561941
 30
0.0
 11
499.2817314995659
 21
285.3312632946555
 31
0.0
  0
LINE
  5
248
330
1F
100
AcDbEntity
  8
Make2D$Visible$Curves
 62
    18
420
        0
370
    -3
100
AcDbLine
 10
501.1738839434761
 20
297.5428017561941
 30
0.0
 11
499.2817314995659
 21
297.5428017561941
 31
0.0
  0
LINE
  5
249
330
1F
100
AcDbEntity
  8
Make2D$Visible$Curves
 62
    18
420
        0
370
    -3
100
AcDbLine
 10
496.9072656876001
 20
311.7895966279888
 30
0.0
 11
502.0961095043735
 21
311.7895966279888
 31
0.0
  0
LINE
  5
24A
330
1F
100
AcDbEntity
  8
Make2D$Visible$Curves
 62
    18
420
        0
370
    -3
100
AcDbLine
 10
496.9072656876001
 20
285.3312632946555
 30
0.0
 11
496.9072656876001
 21
311.7895966279888
 31
0.0
  0
LINE
  5
24B
330
1F
100
AcDbEntity
  8
Make2D$Visible$Curves
 62
    18
420
        0
370
    -3
100
AcDbLine
 10
647.8554494482839
 20
365.3312632946555
 30
0.0
 11
650.2299152602498
 21
365.3312632946555
 31
0.0
  0
LINE
  5
24C
330
1F
100
AcDbEntity
  8
Make2D$Visible$Curves
 62
    18
420
        0
370
    -3
100
AcDbLine
 10
594.267724059797
 20
365.3312632946555
 30
0.0
 11
596.6421898717629
 21
365.3312632946555
 31
0.0
  0
LINE
  5
24D
330
1F
100
AcDbEntity
  8
Make2D$Visible$Curves
 62
    18
420
        0
370
    -3
100
AcDbLine
 10
554.2465114278891
 20
365.3312632946555
 30
0.0
 11
556.6209772398549
 21
365.3312632946555
 31
0.0
  0
LINE
  5
24E
330
1F
100
AcDbEntity
  8
Make2D$Visible$Curves
 62
    18
420
        0
370
    -3
100
AcDbLine
 10
536.2684131372907
 20
365.3312632946555
 30
0.0
 11
536.8090281212651
 21
365.3312632946555
 31
0.0
  0
LINE
  5
24F
330
1F
100
AcDbEntity
  8
Make2D$Visible$Curves
 62
    18
420
        0
370
    -3
100
AcDbLine
 10
509.8165082296575
 20
365.3312632946555
 30
0.0
 11
514.5627380514834
 21
365.3312632946555
 31
0.0
  0
LINE
  5
250
330
1F
100
AcDbEntity
  8
Make2D$Visible$Curves
 62
    18
420
        0
370
    -3
100
AcDbLine
 10
483.6220092773438
 20
365.3312632946555
 30
0.0
 11
494.8912945544439
 21
365.3312632946555
 31
0.0
  0
ENDSEC
  0
SECTION
  2
OBJECTS
  0
DICTIONARY
  5
C
330
0
100
AcDbDictionary
281
     1
  3
ACAD_DETAILVIEWSTYLE
350
296
  3
ACAD_GROUP
350
D
  3
ACAD_LAYOUT
350
1A
  3
ACAD_MATERIAL
350
43
  3
ACAD_MLEADERSTYLE
350
6B
  3
ACAD_MLINESTYLE
350
17
  3
ACAD_PLOTSETTINGS
350
19
  3
ACAD_PLOTSTYLENAME
350
E
  3
ACAD_SCALELIST
350
47
  3
ACAD_SECTIONVIEWSTYLE
350
297
  3
ACAD_TABLESTYLE
350
69
  3
ACAD_VISUALSTYLE
350
2A
  3
ACDB_RECOMPOSE_DATA
350
293
  3
AcDbVariableDictionary
350
253
  0
DICTIONARY
  5
251
330
8
100
AcDbDictionary
280
     1
281
     1
  3
ACAD_XREC_ROUNDTRIP
360
252
  0
DICTIONARY
  5
296
102
{ACAD_REACTORS
330
C
102
}
330
C
100
AcDbDictionary
281
     1
  0
DICTIONARY
  5
D
102
{ACAD_REACTORS
330
C
102
}
330
C
100
AcDbDictionary
281
     1
  0
DICTIONARY
  5
1A
102
{ACAD_REACTORS
330
C
102
}
330
C
100
AcDbDictionary
281
     1
  3
Layout1
350
1E
  3
Layout2
350
26
  3
Model
350
22
  0
DICTIONARY
  5
43
102
{ACAD_REACTORS
330
C
102
}
330
C
100
AcDbDictionary
281
     1
  3
ByBlock
350
45
  3
ByLayer
350
44
  3
Global
350
46
  0
DICTIONARY
  5
6B
102
{ACAD_REACTORS
330
C
102
}
330
C
100
AcDbDictionary
281
     1
  3
Standard
350
6C
  0
DICTIONARY
  5
17
102
{ACAD_REACTORS
330
C
102
}
330
C
100
AcDbDictionary
281
     1
  3
Standard
350
18
  0
DICTIONARY
  5
19
102
{ACAD_REACTORS
330
C
102
}
330
C
100
AcDbDictionary
281
     1
  0
ACDBDICTIONARYWDFLT
  5
E
102
{ACAD_REACTORS
330
C
102
}
330
C
100
AcDbDictionary
281
     1
  3
Normal
350
F
100
AcDbDictionaryWithDefault
340
F
  0
DICTIONARY
  5
47
102
{ACAD_REACTORS
330
C
102
}
330
C
100
AcDbDictionary
281
     1
  3
A0
350
48
  3
A1
350
49
  3
A2
350
4A
  3
A3
350
4B
  3
A4
350
4C
  3
A5
350
4D
  3
A6
350
4E
  3
A7
350
4F
  3
A8
350
50
  3
A9
350
51
  3
B0
350
52
  3
B1
350
53
  3
B2
350
54
  3
B3
350
55
  3
B4
350
56
  3
B5
350
57
  3
B6
350
58
  3
B7
350
59
  3
B8
350
5A
  3
B9
350
5B
  3
C0
350
5C
  3
C1
350
5D
  3
C2
350
5E
  3
C3
350
5F
  3
C4
350
60
  3
C5
350
61
  3
C6
350
62
  3
C7
350
63
  3
C8
350
64
  3
C9
350
65
  3
D0
350
66
  3
D1
350
67
  3
D2
350
68
  0
DICTIONARY
  5
297
102
{ACAD_REACTORS
330
C
102
}
330
C
100
AcDbDictionary
281
     1
  0
DICTIONARY
  5
69
102
{ACAD_REACTORS
330
C
102
}
330
C
100
AcDbDictionary
281
     1
  3
Standard
350
6A
  0
DICTIONARY
  5
2A
102
{ACAD_REACTORS
330
C
102
}
330
C
100
AcDbDictionary
281
     1
  3
2dWireframe
350
2F
  3
Basic
350
32
  3
Brighten
350
36
  3
ColorChange
350
3A
  3
Conceptual
350
34
  3
Dim
350
35
  3
EdgeColorOff
350
3D
  3
Facepattern
350
39
  3
Flat
350
2B
  3
FlatWithEdges
350
2C
  3
Gouraud
350
2D
  3
GouraudWithEdges
350
2E
  3
Hidden
350
31
  3
JitterOff
350
3B
  3
Linepattern
350
38
  3
OverhangOff
350
3C
  3
Realistic
350
33
  3
Shaded
350
42
  3
Shaded with edges
350
41
  3
Shades of Gray
350
3E
  3
Sketchy
350
3F
  3
Thicken
350
37
  3
Wireframe
350
30
  3
X-Ray
350
40
  0
XRECORD
  5
293
102
{ACAD_REACTORS
330
C
102
}
330
C
100
AcDbXrecord
280
     1
 90
        1
330
6A
  0
DICTIONARY
  5
253
102
{ACAD_REACTORS
330
C
102
}
330
C
100
AcDbDictionary
281
     1
  3
CANNOSCALE
350
254
  3
CMLEADERSTYLE
350
295
  3
CTABLESTYLE
350
294
  3
MSLTSCALE
350
255
  3
XCLIPFRAME
350
256
  0
XRECORD
  5
252
102
{ACAD_REACTORS
330
251
102
}
330
251
100
AcDbXrecord
280
     1
102
VTR_0.000_0.000_1.000_1.000_VISUALSTYLE
340
2F
102
VTR_0.000_0.000_1.000_1.000_GRIDDISPLAY
 70
     3
102
VTR_0.000_0.000_1.000_1.000_GRIDMAJOR
 70
     5
102
VTR_0.000_0.000_1.000_1.000_DEFAULTLIGHTING
280
     1
102
VTR_0.000_0.000_1.000_1.000_DEFAULTLIGHTINGTYPE
 70
     1
102
VTR_0.000_0.000_1.000_1.000_BRIGHTNESS
141
0.0
102
VTR_0.000_0.000_1.000_1.000_CONTRAST
142
0.0
  0
LAYOUT
  5
1E
102
{ACAD_REACTORS
330
1A
102
}
330
1A
100
AcDbPlotSettings
  1

  2
none_device
  4

  6

 40
0.0
 41
0.0
 42
0.0
 43
0.0
 44
0.0
 45
0.0
 46
0.0
 47
0.0
 48
0.0
 49
0.0
140
0.0
141
0.0
142
1.0
143
1.0
 70
   688
 72
     0
 73
     0
 74
     5
  7

 75
    16
 76
     0
 77
     2
 78
   300
147
1.0
148
0.0
149
0.0
100
AcDbLayout
  1
Layout1
 70
     1
 71
     1
 10
0.0
 20
0.0
 11
12.0
 21
9.0
 12
0.0
 22
0.0
 32
0.0
 14
1.000000000000000E+20
 24
1.000000000000000E+20
 34
1.000000000000000E+20
 15
-1.000000000000000E+20
 25
-1.000000000000000E+20
 35
-1.000000000000000E+20
146
0.0
 13
0.0
 23
0.0
 33
0.0
 16
1.0
 26
0.0
 36
0.0
 17
0.0
 27
1.0
 37
0.0
 76
     0
330
1B
  0
LAYOUT
  5
26
102
{ACAD_REACTORS
330
1A
102
}
330
1A
100
AcDbPlotSettings
  1

  2
none_device
  4

  6

 40
0.0
 41
0.0
 42
0.0
 43
0.0
 44
0.0
 45
0.0
 46
0.0
 47
0.0
 48
0.0
 49
0.0
140
0.0
141
0.0
142
1.0
143
1.0
 70
   688
 72
     0
 73
     0
 74
     5
  7

 75
    16
 76
     0
 77
     2
 78
   300
147
1.0
148
0.0
149
0.0
100
AcDbLayout
  1
Layout2
 70
     1
 71
     2
 10
0.0
 20
0.0
 11
0.0
 21
0.0
 12
0.0
 22
0.0
 32
0.0
 14
0.0
 24
0.0
 34
0.0
 15
0.0
 25
0.0
 35
0.0
146
0.0
 13
0.0
 23
0.0
 33
0.0
 16
1.0
 26
0.0
 36
0.0
 17
0.0
 27
1.0
 37
0.0
 76
     0
330
23
  0
LAYOUT
  5
22
102
{ACAD_REACTORS
330
1A
102
}
330
1A
100
AcDbPlotSettings
  1

  2
none_device
  4
Letter_(8.50_x_11.00_Inches)
  6

 40
6.35
 41
6.35
 42
6.35000508
 43
6.35000508
 44
215.9
 45
279.4
 46
0.0
 47
0.0
 48
0.0
 49
0.0
140
0.0
141
0.0
142
1.0
143
1.0
 70
  1712
 72
     0
 73
     0
 74
     0
  7

 75
     0
 76
     0
 77
     2
 78
   300
147
1.0
148
0.0
149
0.0
100
AcDbLayout
  1
Model
 70
     1
 71
     0
 10
0.0
 20
0.0
 11
12.0
 21
9.0
 12
0.0
 22
0.0
 32
0.0
 14
1.000000000000000E+20
 24
1.000000000000000E+20
 34
1.000000000000000E+20
 15
-1.000000000000000E+20
 25
-1.000000000000000E+20
 35
-1.000000000000000E+20
146
0.0
 13
0.0
 23
0.0
 33
0.0
 16
1.0
 26
0.0
 36
0.0
 17
0.0
 27
1.0
 37
0.0
 76
     0
330
1F
331
29
  0
MATERIAL
  5
45
102
{ACAD_REACTORS
330
43
102
}
102
{ACAD_XDICTIONARY
360
289
102
}
330
43
100
AcDbMaterial
  1
ByBlock
  0
MATERIAL
  5
44
102
{ACAD_REACTORS
330
43
102
}
102
{ACAD_XDICTIONARY
360
287
102
}
330
43
100
AcDbMaterial
  1
ByLayer
  0
MATERIAL
  5
46
102
{ACAD_REACTORS
330
43
102
}
102
{ACAD_XDICTIONARY
360
28B
102
}
330
43
100
AcDbMaterial
  1
Global
  0
MLEADERSTYLE
  5
6C
102
{ACAD_REACTORS
330
6B
102
}
102
{ACAD_XDICTIONARY
360
291
102
}
330
6B
100
AcDbMLeaderStyle
170
     2
171
     1
172
     0
 90
        2
 40
0.0
 41
0.0
173
     1
 91
-1056964608
340
14
 92
       -2
290
     1
 42
0.09
291
     1
 43
0.36
  3
Standard
341
0
 44
0.18
300

342
11
174
     1
178
     6
175
     1
176
     0
 93
-1056964608
 45
0.18
292
     0
297
     0
 46
0.18
343
0
 94
-1056964608
 47
1.0
 49
1.0
140
1.0
293
     1
141
0.0
294
     1
177
     0
142
1.0
295
     0
296
     0
143
0.125
1001
ACAD_MLEADERVER
1070
     2
  0
MLINESTYLE
  5
18
102
{ACAD_REACTORS
330
17
102
}
330
17
100
AcDbMlineStyle
  2
Standard
 70
     0
  3

 62
   256
 51
90.0
 52
90.0
 71
     2
 49
0.5
 62
   256
  6
BYLAYER
 49
-0.5
 62
   256
  6
BYLAYER
  0
ACDBPLACEHOLDER
  5
F
102
{ACAD_REACTORS
330
E
102
}
330
E
  0
SCALE
  5
48
102
{ACAD_REACTORS
330
47
102
}
330
47
100
AcDbScale
 70
     0
300
1:1
140
1.0
141
1.0
290
     1
  0
SCALE
  5
49
102
{ACAD_REACTORS
330
47
102
}
330
47
100
AcDbScale
 70
     0
300
1:2
140
1.0
141
2.0
290
     0
  0
SCALE
  5
4A
102
{ACAD_REACTORS
330
47
102
}
330
47
100
AcDbScale
 70
     0
300
1:4
140
1.0
141
4.0
290
     0
  0
SCALE
  5
4B
102
{ACAD_REACTORS
330
47
102
}
330
47
100
AcDbScale
 70
     0
300
1:5
140
1.0
141
5.0
290
     0
  0
SCALE
  5
4C
102
{ACAD_REACTORS
330
47
102
}
330
47
100
AcDbScale
 70
     0
300
1:8
140
1.0
141
8.0
290
     0
  0
SCALE
  5
4D
102
{ACAD_REACTORS
330
47
102
}
330
47
100
AcDbScale
 70
     0
300
1:10
140
1.0
141
10.0
290
     0
  0
SCALE
  5
4E
102
{ACAD_REACTORS
330
47
102
}
330
47
100
AcDbScale
 70
     0
300
1:16
140
1.0
141
16.0
290
     0
  0
SCALE
  5
4F
102
{ACAD_REACTORS
330
47
102
}
330
47
100
AcDbScale
 70
     0
300
1:20
140
1.0
141
20.0
290
     0
  0
SCALE
  5
50
102
{ACAD_REACTORS
330
47
102
}
330
47
100
AcDbScale
 70
     0
300
1:30
140
1.0
141
30.0
290
     0
  0
SCALE
  5
51
102
{ACAD_REACTORS
330
47
102
}
330
47
100
AcDbScale
 70
     0
300
1:40
140
1.0
141
40.0
290
     0
  0
SCALE
  5
52
102
{ACAD_REACTORS
330
47
102
}
330
47
100
AcDbScale
 70
     0
300
1:50
140
1.0
141
50.0
290
     0
  0
SCALE
  5
53
102
{ACAD_REACTORS
330
47
102
}
330
47
100
AcDbScale
 70
     0
300
1:100
140
1.0
141
100.0
290
     0
  0
SCALE
  5
54
102
{ACAD_REACTORS
330
47
102
}
330
47
100
AcDbScale
 70
     0
300
2:1
140
2.0
141
1.0
290
     0
  0
SCALE
  5
55
102
{ACAD_REACTORS
330
47
102
}
330
47
100
AcDbScale
 70
     0
300
4:1
140
4.0
141
1.0
290
     0
  0
SCALE
  5
56
102
{ACAD_REACTORS
330
47
102
}
330
47
100
AcDbScale
 70
     0
300
8:1
140
8.0
141
1.0
290
     0
  0
SCALE
  5
57
102
{ACAD_REACTORS
330
47
102
}
330
47
100
AcDbScale
 70
     0
300
10:1
140
10.0
141
1.0
290
     0
  0
SCALE
  5
58
102
{ACAD_REACTORS
330
47
102
}
330
47
100
AcDbScale
 70
     0
300
100:1
140
100.0
141
1.0
290
     0
  0
SCALE
  5
59
102
{ACAD_REACTORS
330
47
102
}
330
47
100
AcDbScale
 70
     0
300
1/128" = 1'-0"
140
0.0078125
141
12.0
290
     0
  0
SCALE
  5
5A
102
{ACAD_REACTORS
330
47
102
}
330
47
100
AcDbScale
 70
     0
300
1/64" = 1'-0"
140
0.015625
141
12.0
290
     0
  0
SCALE
  5
5B
102
{ACAD_REACTORS
330
47
102
}
330
47
100
AcDbScale
 70
     0
300
1/32" = 1'-0"
140
0.03125
141
12.0
290
     0
  0
SCALE
  5
5C
102
{ACAD_REACTORS
330
47
102
}
330
47
100
AcDbScale
 70
     0
300
1/16" = 1'-0"
140
0.0625
141
12.0
290
     0
  0
SCALE
  5
5D
102
{ACAD_REACTORS
330
47
102
}
330
47
100
AcDbScale
 70
     0
300
3/32" = 1'-0"
140
0.09375
141
12.0
290
     0
  0
SCALE
  5
5E
102
{ACAD_REACTORS
330
47
102
}
330
47
100
AcDbScale
 70
     0
300
1/8" = 1'-0"
140
0.125
141
12.0
290
     0
  0
SCALE
  5
5F
102
{ACAD_REACTORS
330
47
102
}
330
47
100
AcDbScale
 70
     0
300
3/16" = 1'-0"
140
0.1875
141
12.0
290
     0
  0
SCALE
  5
60
102
{ACAD_REACTORS
330
47
102
}
330
47
100
AcDbScale
 70
     0
300
1/4" = 1'-0"
140
0.25
141
12.0
290
     0
  0
SCALE
  5
61
102
{ACAD_REACTORS
330
47
102
}
330
47
100
AcDbScale
 70
     0
300
3/8" = 1'-0"
140
0.375
141
12.0
290
     0
  0
SCALE
  5
62
102
{ACAD_REACTORS
330
47
102
}
330
47
100
AcDbScale
 70
     0
300
1/2" = 1'-0"
140
0.5
141
12.0
290
     0
  0
SCALE
  5
63
102
{ACAD_REACTORS
330
47
102
}
330
47
100
AcDbScale
 70
     0
300
3/4" = 1'-0"
140
0.75
141
12.0
290
     0
  0
SCALE
  5
64
102
{ACAD_REACTORS
330
47
102
}
330
47
100
AcDbScale
 70
     0
300
1" = 1'-0"
140
1.0
141
12.0
290
     0
  0
SCALE
  5
65
102
{ACAD_REACTORS
330
47
102
}
330
47
100
AcDbScale
 70
     0
300
1-1/2" = 1'-0"
140
1.5
141
12.0
290
     0
  0
SCALE
  5
66
102
{ACAD_REACTORS
330
47
102
}
330
47
100
AcDbScale
 70
     0
300
3" = 1'-0"
140
3.0
141
12.0
290
     0
  0
SCALE
  5
67
102
{ACAD_REACTORS
330
47
102
}
330
47
100
AcDbScale
 70
     0
300
6" = 1'-0"
140
6.0
141
12.0
290
     0
  0
SCALE
  5
68
102
{ACAD_REACTORS
330
47
102
}
330
47
100
AcDbScale
 70
     0
300
1'-0" = 1'-0"
140
12.0
141
12.0
290
     0
  0
TABLESTYLE
  5
6A
102
{ACAD_REACTORS
330
69
102
}
102
{ACAD_XDICTIONARY
360
28D
102
}
330
69
100
AcDbTableStyle
  3
Standard
 70
     0
 71
     0
 40
0.06
 41
0.06
280
     0
281
     0
  7
Standard
140
0.18
170
     2
 62
     0
 63
   257
283
     0
274
    -2
284
     1
 64
     0
275
    -2
285
     1
 65
     0
276
    -2
286
     1
 66
     0
277
    -2
287
     1
 67
     0
278
    -2
288
     1
 68
     0
279
    -2
289
     1
 69
     0
  7
Standard
140
0.25
170
     5
 62
     0
 63
   257
283
     0
274
    -2
284
     1
 64
     0
275
    -2
285
     1
 65
     0
276
    -2
286
     1
 66
     0
277
    -2
287
     1
 67
     0
278
    -2
288
     1
 68
     0
279
    -2
289
     1
 69
     0
  7
Standard
140
0.18
170
     5
 62
     0
 63
   257
283
     0
274
    -2
284
     1
 64
     0
275
    -2
285
     1
 65
     0
276
    -2
286
     1
 66
     0
277
    -2
287
     1
 67
     0
278
    -2
288
     1
 68
     0
279
    -2
289
     1
 69
     0
  0
VISUALSTYLE
  5
2F
102
{ACAD_REACTORS
330
2A
102
}
102
{ACAD_XDICTIONARY
360
25F
102
}
330
2A
100
AcDbVisualStyle
  2
2dWireframe
 70
     4
 71
     0
 72
     2
 73
     0
 90
        0
 40
0.6
 41
30.0
 62
     5
 63
     7
421
 16777215
 74
     1
 91
        4
 64
     7
 65
   257
 75
     1
175
     1
 42
1.0
 92
        0
 66
   257
 43
1.0
 76
     1
 77
     6
 78
     2
 67
     7
 79
     5
170
     0
171
     0
290
     0
174
     0
 93
        1
 44
0.0
173
     0
291
     0
 45
0.0
1001
ACAD
1000
AcDbSavedByObjectVersion
1070
     0
  0
VISUALSTYLE
  5
32
102
{ACAD_REACTORS
330
2A
102
}
102
{ACAD_XDICTIONARY
360
265
102
}
330
2A
100
AcDbVisualStyle
  2
Basic
 70
     7
 71
     1
 72
     0
 73
     1
 90
        0
 40
0.6
 41
30.0
 62
     5
 63
     7
421
 16777215
 74
     0
 91
        4
 64
     7
 65
   257
 75
     1
175
     1
 42
1.0
 92
        8
 66
     7
 43
1.0
 76
     1
 77
     6
 78
     2
 67
     7
 79
     5
170
     0
171
     0
290
     0
174
     0
 93
        1
 44
0.0
173
     0
291
     1
 45
0.0
1001
ACAD
1000
AcDbSavedByObjectVersion
1070
     0
  0
VISUALSTYLE
  5
36
102
{ACAD_REACTORS
330
2A
102
}
102
{ACAD_XDICTIONARY
360
26D
102
}
330
2A
100
AcDbVisualStyle
  2
Brighten
 70
    12
 71
     2
 72
     2
 73
     0
 90
        0
 40
0.6
 41
30.0
 62
     5
 63
     7
421
 16777215
 74
     1
 91
        4
 64
     7
 65
   257
 75
     1
175
     1
 42
1.0
 92
        8
 66
     7
 43
1.0
 76
     1
 77
     6
 78
     2
 67
     7
 79
     5
170
     0
171
     0
290
     0
174
     0
 93
        1
 44
50.0
173
     0
291
     1
 45
0.0
1001
ACAD
1000
AcDbSavedByObjectVersion
1070
     0
  0
VISUALSTYLE
  5
3A
102
{ACAD_REACTORS
330
2A
102
}
102
{ACAD_XDICTIONARY
360
275
102
}
330
2A
100
AcDbVisualStyle
  2
ColorChange
 70
    16
 71
     2
 72
     2
 73
     3
 90
        0
 40
0.6
 41
30.0
 62
     5
 63
     8
421
  8421504
 74
     1
 91
        4
 64
     7
 65
   257
 75
     1
175
     1
 42
1.0
 92
        8
 66
     8
424
  8421504
 43
1.0
 76
     1
 77
     6
 78
     2
 67
     7
 79
     5
170
     0
171
     0
290
     0
174
     0
 93
        1
 44
0.0
173
     0
291
     1
 45
0.0
1001
ACAD
1000
AcDbSavedByObjectVersion
1070
     0
  0
VISUALSTYLE
  5
34
102
{ACAD_REACTORS
330
2A
102
}
102
{ACAD_XDICTIONARY
360
269
102
}
330
2A
100
AcDbVisualStyle
  2
Conceptual
 70
     9
 71
     3
 72
     2
 73
     0
 90
        0
 40
0.6
 41
30.0
 62
     5
 63
     7
421
 16777215
 74
     2
 91
        2
 64
     7
 65
   257
 75
     1
175
     1
 42
179.0
 92
        8
 66
     7
 43
1.0
 76
     1
 77
     6
 78
     2
 67
     7
 79
     3
170
     0
171
     0
290
     0
174
     0
 93
        1
 44
0.0
173
     0
291
     0
 45
0.0
1001
ACAD
1000
AcDbSavedByObjectVersion
1070
     0
  0
VISUALSTYLE
  5
35
102
{ACAD_REACTORS
330
2A
102
}
102
{ACAD_XDICTIONARY
360
26B
102
}
330
2A
100
AcDbVisualStyle
  2
Dim
 70
    11
 71
     2
 72
     2
 73
     0
 90
        0
 40
0.6
 41
30.0
 62
     5
 63
     7
421
 16777215
 74
     1
 91
        4
 64
     7
 65
   257
 75
     1
175
     1
 42
1.0
 92
        8
 66
     7
 43
1.0
 76
     1
 77
     6
 78
     2
 67
     7
 79
     5
170
     0
171
     0
290
     0
174
     0
 93
        1
 44
-50.0
173
     0
291
     1
 45
0.0
1001
ACAD
1000
AcDbSavedByObjectVersion
1070
     0
  0
VISUALSTYLE
  5
3D
102
{ACAD_REACTORS
330
2A
102
}
102
{ACAD_XDICTIONARY
360
27B
102
}
330
2A
100
AcDbVisualStyle
  2
EdgeColorOff
 70
    22
 71
     2
 72
     2
 73
     0
 90
        0
 40
0.6
 41
30.0
 62
     5
 63
     7
421
 16777215
 74
     1
 91
        4
 64
     7
 65
   257
 75
     1
175
     1
 42
1.0
 92
        8
 66
     7
 43
1.0
 76
     1
 77
     6
 78
     2
 67
     7
 79
     5
170
     0
171
     0
290
     0
174
     0
 93
        1
 44
0.0
173
     0
291
     1
 45
0.0
1001
ACAD
1000
AcDbSavedByObjectVersion
1070
     0
  0
VISUALSTYLE
  5
39
102
{ACAD_REACTORS
330
2A
102
}
102
{ACAD_XDICTIONARY
360
273
102
}
330
2A
100
AcDbVisualStyle
  2
Facepattern
 70
    15
 71
     2
 72
     2
 73
     0
 90
        0
 40
0.6
 41
30.0
 62
     5
 63
     7
421
 16777215
 74
     1
 91
        4
 64
     7
 65
   257
 75
     1
175
     1
 42
1.0
 92
        8
 66
     7
 43
1.0
 76
     1
 77
     6
 78
     2
 67
     7
 79
     5
170
     0
171
     0
290
     0
174
     0
 93
        1
 44
0.0
173
     0
291
     1
 45
0.0
1001
ACAD
1000
AcDbSavedByObjectVersion
1070
     0
  0
VISUALSTYLE
  5
2B
102
{ACAD_REACTORS
330
2A
102
}
102
{ACAD_XDICTIONARY
360
257
102
}
330
2A
100
AcDbVisualStyle
  2
Flat
 70
     0
 71
     2
 72
     1
 73
     1
 90
        2
 40
0.6
 41
30.0
 62
     5
 63
     7
421
 16777215
 74
     0
 91
        0
 64
     7
 65
   257
 75
     1
175
     1
 42
1.0
 92
        8
 66
     7
 43
1.0
 76
     1
 77
     6
 78
     2
 67
     7
 79
     5
170
     0
171
     0
290
     0
174
     0
 93
       13
 44
0.0
173
     0
291
     1
 45
0.0
1001
ACAD
1000
AcDbSavedByObjectVersion
1070
     0
  0
VISUALSTYLE
  5
2C
102
{ACAD_REACTORS
330
2A
102
}
102
{ACAD_XDICTIONARY
360
259
102
}
330
2A
100
AcDbVisualStyle
  2
FlatWithEdges
 70
     1
 71
     2
 72
     1
 73
     1
 90
        2
 40
0.6
 41
30.0
 62
     5
 63
     7
421
 16777215
 74
     1
 91
        0
 64
     7
 65
   257
 75
     1
175
     1
 42
1.0
 92
        0
 66
   257
 43
1.0
 76
     1
 77
     6
 78
     2
 67
     7
 79
     5
170
     0
171
     0
290
     0
174
     0
 93
       13
 44
0.0
173
     0
291
     1
 45
0.0
1001
ACAD
1000
AcDbSavedByObjectVersion
1070
     0
  0
VISUALSTYLE
  5
2D
102
{ACAD_REACTORS
330
2A
102
}
102
{ACAD_XDICTIONARY
360
25B
102
}
330
2A
100
AcDbVisualStyle
  2
Gouraud
 70
     2
 71
     2
 72
     2
 73
     1
 90
        2
 40
0.6
 41
30.0
 62
     5
 63
     7
421
 16777215
 74
     0
 91
        0
 64
     7
 65
   257
 75
     1
175
     1
 42
1.0
 92
        0
 66
     7
 43
1.0
 76
     1
 77
     6
 78
     2
 67
     7
 79
     5
170
     0
171
     0
290
     0
174
     0
 93
       13
 44
0.0
173
     0
291
     1
 45
0.0
1001
ACAD
1000
AcDbSavedByObjectVersion
1070
     0
  0
VISUALSTYLE
  5
2E
102
{ACAD_REACTORS
330
2A
102
}
102
{ACAD_XDICTIONARY
360
25D
102
}
330
2A
100
AcDbVisualStyle
  2
GouraudWithEdges
 70
     3
 71
     2
 72
     2
 73
     1
 90
        2
 40
0.6
 41
30.0
 62
     5
 63
     7
421
 16777215
 74
     1
 91
        0
 64
     7
 65
   257
 75
     1
175
     1
 42
1.0
 92
        0
 66
   257
 43
1.0
 76
     1
 77
     6
 78
     2
 67
     7
 79
     5
170
     0
171
     0
290
     0
174
     0
 93
       13
 44
0.0
173
     0
291
     1
 45
0.0
1001
ACAD
1000
AcDbSavedByObjectVersion
1070
     0
  0
VISUALSTYLE
  5
31
102
{ACAD_REACTORS
330
2A
102
}
102
{ACAD_XDICTIONARY
360
263
102
}
330
2A
100
AcDbVisualStyle
  2
Hidden
 70
     6
 71
     1
 72
     2
 73
     2
 90
        0
 40
0.6
 41
30.0
 62
     5
 63
     7
421
 16777215
 74
     2
 91
        2
 64
     7
 65
   257
 75
     2
175
     1
 42
40.0
 92
        0
 66
   257
 43
1.0
 76
     1
 77
     6
 78
     2
 67
     7
 79
     3
170
     0
171
     0
290
     0
174
     0
 93
        1
 44
0.0
173
     0
291
     0
 45
0.0
1001
ACAD
1000
AcDbSavedByObjectVersion
1070
     0
  0
VISUALSTYLE
  5
3B
102
{ACAD_REACTORS
330
2A
102
}
102
{ACAD_XDICTIONARY
360
277
102
}
330
2A
100
AcDbVisualStyle
  2
JitterOff
 70
    20
 71
     2
 72
     2
 73
     0
 90
        0
 40
0.6
 41
30.0
 62
     5
 63
     7
421
 16777215
 74
     1
 91
        4
 64
     7
 65
   257
 75
     1
175
     1
 42
1.0
 92
       10
 66
     7
 43
1.0
 76
     1
 77
     6
 78
     2
 67
     7
 79
     5
170
     0
171
     0
290
     0
174
     0
 93
        1
 44
0.0
173
     0
291
     1
 45
0.0
1001
ACAD
1000
AcDbSavedByObjectVersion
1070
     0
  0
VISUALSTYLE
  5
38
102
{ACAD_REACTORS
330
2A
102
}
102
{ACAD_XDICTIONARY
360
271
102
}
330
2A
100
AcDbVisualStyle
  2
Linepattern
 70
    14
 71
     2
 72
     2
 73
     0
 90
        0
 40
0.6
 41
30.0
 62
     5
 63
     7
421
 16777215
 74
     1
 91
        4
 64
     7
 65
   257
 75
     7
175
     7
 42
1.0
 92
        8
 66
     7
 43
1.0
 76
     1
 77
     6
 78
     2
 67
     7
 79
     5
170
     0
171
     0
290
     0
174
     0
 93
        1
 44
0.0
173
     0
291
     1
 45
0.0
1001
ACAD
1000
AcDbSavedByObjectVersion
1070
     0
  0
VISUALSTYLE
  5
3C
102
{ACAD_REACTORS
330
2A
102
}
102
{ACAD_XDICTIONARY
360
279
102
}
330
2A
100
AcDbVisualStyle
  2
OverhangOff
 70
    21
 71
     2
 72
     2
 73
     0
 90
        0
 40
0.6
 41
30.0
 62
     5
 63
     7
421
 16777215
 74
     1
 91
        4
 64
     7
 65
   257
 75
     1
175
     1
 42
1.0
 92
        9
 66
     7
 43
1.0
 76
     1
 77
     6
 78
     2
 67
     7
 79
     5
170
     0
171
     0
290
     0
174
     0
 93
        1
 44
0.0
173
     0
291
     1
 45
0.0
1001
ACAD
1000
AcDbSavedByObjectVersion
1070
     0
  0
VISUALSTYLE
  5
33
102
{ACAD_REACTORS
330
2A
102
}
102
{ACAD_XDICTIONARY
360
267
102
}
330
2A
100
AcDbVisualStyle
  2
Realistic
 70
     8
 71
     2
 72
     3
 73
     0
 90
        2
 40
0.6
 41
30.0
 62
     5
 63
     7
421
 16777215
 74
     0
 91
        0
 64
     7
 65
   257
 75
     1
175
     1
 42
1.0
 92
        8
 66
   257
 43
1.0
 76
     1
 77
     6
 78
     2
 67
     7
 79
     3
170
     0
171
     0
290
     0
174
     0
 93
       13
 44
0.0
173
     0
291
     0
 45
0.0
1001
ACAD
1000
AcDbSavedByObjectVersion
1070
     0
  0
VISUALSTYLE
  5
42
102
{ACAD_REACTORS
330
2A
102
}
102
{ACAD_XDICTIONARY
360
285
102
}
330
2A
100
AcDbVisualStyle
  2
Shaded
 70
    27
 71
     2
 72
     2
 73
     1
 90
        2
 40
0.6
 41
30.0
 62
     5
 63
     7
421
 16777215
 74
     0
 91
        4
 64
     7
 65
   257
 75
     1
175
     1
 42
1.0
 92
        8
 66
   257
 43
1.0
 76
     1
 77
     6
 78
     2
 67
     8
425
  7895160
 79
     3
170
     0
171
     0
290
     0
174
     0
 93
        5
 44
0.0
173
     0
291
     0
 45
0.0
1001
ACAD
1000
AcDbSavedByObjectVersion
1070
     0
  0
VISUALSTYLE
  5
41
102
{ACAD_REACTORS
330
2A
102
}
102
{ACAD_XDICTIONARY
360
283
102
}
330
2A
100
AcDbVisualStyle
  2
Shaded with edges
 70
    26
 71
     2
 72
     2
 73
     1
 90
        2
 40
0.6
 41
30.0
 62
     5
 63
     7
421
 16777215
 74
     1
 91
       10
 64
     7
 65
   257
 75
     2
175
     1
 42
1.0
 92
        8
 66
   257
 43
1.0
 76
     1
 77
     6
 78
     2
 67
     7
 79
     3
170
     0
171
     0
290
     0
174
     0
 93
        5
 44
0.0
173
     0
291
     0
 45
0.0
1001
ACAD
1000
AcDbSavedByObjectVersion
1070
     0
  0
VISUALSTYLE
  5
3E
102
{ACAD_REACTORS
330
2A
102
}
102
{ACAD_XDICTIONARY
360
27D
102
}
330
2A
100
AcDbVisualStyle
  2
Shades of Gray
 70
    23
 71
     2
 72
     2
 73
     3
 90
        0
 40
0.6
 41
30.0
 62
     5
 63
     7
421
 16777215
 74
     2
 91
        2
 64
     7
 65
     7
 75
     1
175
     1
 42
40.0
 92
        8
 66
     7
 43
1.0
 76
     1
 77
     6
 78
     2
 67
     7
 79
     3
170
     0
171
     0
290
     0
174
     0
 93
        1
 44
0.0
173
     0
291
     0
 45
0.0
1001
ACAD
1000
AcDbSavedByObjectVersion
1070
     0
  0
VISUALSTYLE
  5
3F
102
{ACAD_REACTORS
330
2A
102
}
102
{ACAD_XDICTIONARY
360
27F
102
}
330
2A
100
AcDbVisualStyle
  2
Sketchy
 70
    24
 71
     1
 72
     2
 73
     2
 90
        0
 40
0.6
 41
30.0
 62
     5
 63
     7
421
 16777215
 74
     2
 91
        2
 64
     7
 65
     7
 75
     1
175
     1
 42
40.0
 92
       11
 66
     7
 43
1.0
 76
     1
 77
     6
 78
     2
 67
     7
 79
     6
170
     0
171
     0
290
     0
174
     0
 93
        1
 44
0.0
173
     0
291
     0
 45
0.0
1001
ACAD
1000
AcDbSavedByObjectVersion
1070
     0
  0
VISUALSTYLE
  5
37
102
{ACAD_REACTORS
330
2A
102
}
102
{ACAD_XDICTIONARY
360
26F
102
}
330
2A
100
AcDbVisualStyle
  2
Thicken
 70
    13
 71
     2
 72
     2
 73
     0
 90
        0
 40
0.6
 41
30.0
 62
     5
 63
     7
421
 16777215
 74
     1
 91
        4
 64
     7
 65
   257
 75
     1
175
     1
 42
1.0
 92
       12
 66
     7
 43
1.0
 76
     1
 77
     6
 78
     2
 67
     7
 79
     5
170
     0
171
     0
290
     0
174
     0
 93
        1
 44
0.0
173
     0
291
     1
 45
0.0
1001
ACAD
1000
AcDbSavedByObjectVersion
1070
     0
  0
VISUALSTYLE
  5
30
102
{ACAD_REACTORS
330
2A
102
}
102
{ACAD_XDICTIONARY
360
261
102
}
330
2A
100
AcDbVisualStyle
  2
Wireframe
 70
     5
 71
     0
 72
     2
 73
     0
 90
        0
 40
0.6
 41
30.0
 62
     5
 63
     7
421
 16777215
 74
     1
 91
        4
 64
     7
 65
   257
 75
     1
175
     1
 42
1.0
 92
        0
 66
   257
 43
1.0
 76
     1
 77
     6
 78
     2
 67
     7
 79
     3
170
     0
171
     0
290
     0
174
     0
 93
        1
 44
0.0
173
     0
291
     0
 45
0.0
1001
ACAD
1000
AcDbSavedByObjectVersion
1070
     0
  0
VISUALSTYLE
  5
40
102
{ACAD_REACTORS
330
2A
102
}
102
{ACAD_XDICTIONARY
360
281
102
}
330
2A
100
AcDbVisualStyle
  2
X-Ray
 70
    25
 71
     2
 72
     2
 73
     1
 90
        1
 40
0.5
 41
30.0
 62
     5
 63
     7
421
 16777215
 74
     1
 91
        0
 64
     7
 65
   257
 75
     1
175
     1
 42
1.0
 92
        8
 66
     7
 43
1.0
 76
     1
 77
     6
 78
     2
 67
     7
 79
     3
170
     0
171
     0
290
     0
174
     0
 93
       13
 44
0.0
173
     0
291
     0
 45
0.0
1001
ACAD
1000
AcDbSavedByObjectVersion
1070
     0
  0
DICTIONARYVAR
  5
254
102
{ACAD_REACTORS
330
253
102
}
330
253
100
DictionaryVariables
280
     0
  1
1:1
  0
DICTIONARYVAR
  5
295
102
{ACAD_REACTORS
330
253
102
}
330
253
100
DictionaryVariables
280
     0
  1
Standard
  0
DICTIONARYVAR
  5
294
102
{ACAD_REACTORS
330
253
102
}
330
253
100
DictionaryVariables
280
     0
  1
Standard
  0
DICTIONARYVAR
  5
255
102
{ACAD_REACTORS
330
253
102
}
330
253
100
DictionaryVariables
280
     0
  1
1
  0
DICTIONARYVAR
  5
256
102
{ACAD_REACTORS
330
253
102
}
330
253
100
DictionaryVariables
280
     0
  1
2
  0
DICTIONARY
  5
289
330
45
100
AcDbDictionary
280
     1
281
     1
  3
ACAD_XREC_ROUNDTRIP
360
28A
  0
DICTIONARY
  5
287
330
44
100
AcDbDictionary
280
     1
281
     1
  3
ACAD_XREC_ROUNDTRIP
360
288
  0
DICTIONARY
  5
28B
330
46
100
AcDbDictionary
280
     1
281
     1
  3
ACAD_XREC_ROUNDTRIP
360
28C
  0
DICTIONARY
  5
291
330
6C
100
AcDbDictionary
280
     1
281
     1
  3
ACAD_XREC_ROUNDTRIP
360
292
  0
DICTIONARY
  5
28D
330
6A
100
AcDbDictionary
280
     1
281
     1
  3
ACAD_ROUNDTRIP_2008_TABLESTYLE_CELLSTYLEMAP
360
28F
  3
ACAD_XREC_ROUNDTRIP
360
28E
  0
DICTIONARY
  5
25F
330
2F
100
AcDbDictionary
280
     1
281
     1
  3
ACAD_XREC_ROUNDTRIP
360
260
  0
DICTIONARY
  5
265
330
32
100
AcDbDictionary
280
     1
281
     1
  3
ACAD_XREC_ROUNDTRIP
360
266
  0
DICTIONARY
  5
26D
330
36
100
AcDbDictionary
280
     1
281
     1
  3
ACAD_XREC_ROUNDTRIP
360
26E
  0
DICTIONARY
  5
275
330
3A
100
AcDbDictionary
280
     1
281
     1
  3
ACAD_XREC_ROUNDTRIP
360
276
  0
DICTIONARY
  5
269
330
34
100
AcDbDictionary
280
     1
281
     1
  3
ACAD_XREC_ROUNDTRIP
360
26A
  0
DICTIONARY
  5
26B
330
35
100
AcDbDictionary
280
     1
281
     1
  3
ACAD_XREC_ROUNDTRIP
360
26C
  0
DICTIONARY
  5
27B
330
3D
100
AcDbDictionary
280
     1
281
     1
  3
ACAD_XREC_ROUNDTRIP
360
27C
  0
DICTIONARY
  5
273
330
39
100
AcDbDictionary
280
     1
281
     1
  3
ACAD_XREC_ROUNDTRIP
360
274
  0
DICTIONARY
  5
257
330
2B
100
AcDbDictionary
280
     1
281
     1
  3
ACAD_XREC_ROUNDTRIP
360
258
  0
DICTIONARY
  5
259
330
2C
100
AcDbDictionary
280
     1
281
     1
  3
ACAD_XREC_ROUNDTRIP
360
25A
  0
DICTIONARY
  5
25B
330
2D
100
AcDbDictionary
280
     1
281
     1
  3
ACAD_XREC_ROUNDTRIP
360
25C
  0
DICTIONARY
  5
25D
330
2E
100
AcDbDictionary
280
     1
281
     1
  3
ACAD_XREC_ROUNDTRIP
360
25E
  0
DICTIONARY
  5
263
330
31
100
AcDbDictionary
280
     1
281
     1
  3
ACAD_XREC_ROUNDTRIP
360
264
  0
DICTIONARY
  5
277
330
3B
100
AcDbDictionary
280
     1
281
     1
  3
ACAD_XREC_ROUNDTRIP
360
278
  0
DICTIONARY
  5
271
330
38
100
AcDbDictionary
280
     1
281
     1
  3
ACAD_XREC_ROUNDTRIP
360
272
  0
DICTIONARY
  5
279
330
3C
100
AcDbDictionary
280
     1
281
     1
  3
ACAD_XREC_ROUNDTRIP
360
27A
  0
DICTIONARY
  5
267
330
33
100
AcDbDictionary
280
     1
281
     1
  3
ACAD_XREC_ROUNDTRIP
360
268
  0
DICTIONARY
  5
285
330
42
100
AcDbDictionary
280
     1
281
     1
  3
ACAD_XREC_ROUNDTRIP
360
286
  0
DICTIONARY
  5
283
330
41
100
AcDbDictionary
280
     1
281
     1
  3
ACAD_XREC_ROUNDTRIP
360
284
  0
DICTIONARY
  5
27D
330
3E
100
AcDbDictionary
280
     1
281
     1
  3
ACAD_XREC_ROUNDTRIP
360
27E
  0
DICTIONARY
  5
27F
330
3F
100
AcDbDictionary
280
     1
281
     1
  3
ACAD_XREC_ROUNDTRIP
360
280
  0
DICTIONARY
  5
26F
330
37
100
AcDbDictionary
280
     1
281
     1
  3
ACAD_XREC_ROUNDTRIP
360
270
  0
DICTIONARY
  5
261
330
30
100
AcDbDictionary
280
     1
281
     1
  3
ACAD_XREC_ROUNDTRIP
360
262
  0
DICTIONARY
  5
281
330
40
100
AcDbDictionary
280
     1
281
     1
  3
ACAD_XREC_ROUNDTRIP
360
282
  0
XRECORD
  5
28A
102
{ACAD_REACTORS
330
289
102
}
330
289
100
AcDbXrecord
280
     1
102
MATERIAL
148
0.0
149
0.0
149
0.0
 93
        0
 94
      127
282
     0
 72
     1
 77
     1
171
     1
175
     1
179
     1
273
     0
  0
XRECORD
  5
288
102
{ACAD_REACTORS
330
287
102
}
330
287
100
AcDbXrecord
280
     1
102
MATERIAL
148
0.0
149
0.0
149
0.0
 93
        0
 94
      127
282
     0
 72
     1
 77
     1
171
     1
175
     1
179
     1
273
     0
  0
XRECORD
  5
28C
102
{ACAD_REACTORS
330
28B
102
}
330
28B
100
AcDbXrecord
280
     1
102
MATERIAL
148
0.0
149
0.0
149
0.0
 93
        0
 94
      127
282
     0
 72
     1
 77
     1
171
     1
175
     1
179
     1
273
     0
  0
XRECORD
  5
292
102
{ACAD_REACTORS
330
291
102
}
330
291
100
AcDbXrecord
280
     1
102
ACAD_ROUNDTRIP_2010_MLEADER_STYLE
  0
CELLSTYLEMAP
  5
28F
102
{ACAD_REACTORS
330
28D
102
}
330
28D
100
AcDbCellStyleMap
 90
        3
300
CELLSTYLE
  1
TABLEFORMAT_BEGIN
 90
        5
170
     1
 91
        0
 92
    32768
 62
   257
 93
        1
300
CONTENTFORMAT
  1
CONTENTFORMAT_BEGIN
 90
        0
 91
        0
 92
        4
 93
        0
300

 40
0.0
140
1.0
 94
        5
 62
     0
340
11
144
0.25
309
CONTENTFORMAT_END
171
     1
301
MARGIN
  1
CELLMARGIN_BEGIN
 40
0.06
 40
0.06
 40
0.06
 40
0.06
 40
0.06
 40
0.06
309
CELLMARGIN_END
 94
        6
 95
        1
302
GRIDFORMAT
  1
GRIDFORMAT_BEGIN
 90
        0
 91
        1
 62
     0
 92
       -2
340
14
 93
        0
 40
0.045
309
GRIDFORMAT_END
 95
        2
302
GRIDFORMAT
  1
GRIDFORMAT_BEGIN
 90
        0
 91
        1
 62
     0
 92
       -2
340
14
 93
        0
 40
0.045
309
GRIDFORMAT_END
 95
        4
302
GRIDFORMAT
  1
GRIDFORMAT_BEGIN
 90
        0
 91
        1
 62
     0
 92
       -2
340
14
 93
        0
 40
0.045
309
GRIDFORMAT_END
 95
        8
302
GRIDFORMAT
  1
GRIDFORMAT_BEGIN
 90
        0
 91
        1
 62
     0
 92
       -2
340
14
 93
        0
 40
0.045
309
GRIDFORMAT_END
 95
       16
302
GRIDFORMAT
  1
GRIDFORMAT_BEGIN
 90
        0
 91
        1
 62
     0
 92
       -2
340
14
 93
        0
 40
0.045
309
GRIDFORMAT_END
 95
       32
302
GRIDFORMAT
  1
GRIDFORMAT_BEGIN
 90
        0
 91
        1
 62
     0
 92
       -2
340
14
 93
        0
 40
0.045
309
GRIDFORMAT_END
309
TABLEFORMAT_END
  1
CELLSTYLE_BEGIN
 90
        1
 91
        1
300
_TITLE
309
CELLSTYLE_END
300
CELLSTYLE
  1
TABLEFORMAT_BEGIN
 90
        5
170
     1
 91
        0
 92
        0
 62
   257
 93
        1
300
CONTENTFORMAT
  1
CONTENTFORMAT_BEGIN
 90
        0
 91
        0
 92
        4
 93
        0
300

 40
0.0
140
1.0
 94
        5
 62
     0
340
11
144
0.18
309
CONTENTFORMAT_END
171
     1
301
MARGIN
  1
CELLMARGIN_BEGIN
 40
0.06
 40
0.06
 40
0.06
 40
0.06
 40
0.06
 40
0.06
309
CELLMARGIN_END
 94
        6
 95
        1
302
GRIDFORMAT
  1
GRIDFORMAT_BEGIN
 90
        0
 91
        1
 62
     0
 92
       -2
340
14
 93
        0
 40
0.045
309
GRIDFORMAT_END
 95
        2
302
GRIDFORMAT
  1
GRIDFORMAT_BEGIN
 90
        0
 91
        1
 62
     0
 92
       -2
340
14
 93
        0
 40
0.045
309
GRIDFORMAT_END
 95
        4
302
GRIDFORMAT
  1
GRIDFORMAT_BEGIN
 90
        0
 91
        1
 62
     0
 92
       -2
340
14
 93
        0
 40
0.045
309
GRIDFORMAT_END
 95
        8
302
GRIDFORMAT
  1
GRIDFORMAT_BEGIN
 90
        0
 91
        1
 62
     0
 92
       -2
340
14
 93
        0
 40
0.045
309
GRIDFORMAT_END
 95
       16
302
GRIDFORMAT
  1
GRIDFORMAT_BEGIN
 90
        0
 91
        1
 62
     0
 92
       -2
340
14
 93
        0
 40
0.045
309
GRIDFORMAT_END
 95
       32
302
GRIDFORMAT
  1
GRIDFORMAT_BEGIN
 90
        0
 91
        1
 62
     0
 92
       -2
340
14
 93
        0
 40
0.045
309
GRIDFORMAT_END
309
TABLEFORMAT_END
  1
CELLSTYLE_BEGIN
 90
        2
 91
        1
300
_HEADER
309
CELLSTYLE_END
300
CELLSTYLE
  1
TABLEFORMAT_BEGIN
 90
        5
170
     1
 91
        0
 92
        0
 62
   257
 93
        1
300
CONTENTFORMAT
  1
CONTENTFORMAT_BEGIN
 90
        0
 91
        0
 92
        4
 93
        0
300

 40
0.0
140
1.0
 94
        2
 62
     0
340
11
144
0.18
309
CONTENTFORMAT_END
171
     1
301
MARGIN
  1
CELLMARGIN_BEGIN
 40
0.06
 40
0.06
 40
0.06
 40
0.06
 40
0.06
 40
0.06
309
CELLMARGIN_END
 94
        6
 95
        1
302
GRIDFORMAT
  1
GRIDFORMAT_BEGIN
 90
        0
 91
        1
 62
     0
 92
       -2
340
14
 93
        0
 40
0.045
309
GRIDFORMAT_END
 95
        2
302
GRIDFORMAT
  1
GRIDFORMAT_BEGIN
 90
        0
 91
        1
 62
     0
 92
       -2
340
14
 93
        0
 40
0.045
309
GRIDFORMAT_END
 95
        4
302
GRIDFORMAT
  1
GRIDFORMAT_BEGIN
 90
        0
 91
        1
 62
     0
 92
       -2
340
14
 93
        0
 40
0.045
309
GRIDFORMAT_END
 95
        8
302
GRIDFORMAT
  1
GRIDFORMAT_BEGIN
 90
        0
 91
        1
 62
     0
 92
       -2
340
14
 93
        0
 40
0.045
309
GRIDFORMAT_END
 95
       16
302
GRIDFORMAT
  1
GRIDFORMAT_BEGIN
 90
        0
 91
        1
 62
     0
 92
       -2
340
14
 93
        0
 40
0.045
309
GRIDFORMAT_END
 95
       32
302
GRIDFORMAT
  1
GRIDFORMAT_BEGIN
 90
        0
 91
        1
 62
     0
 92
       -2
340
14
 93
        0
 40
0.045
309
GRIDFORMAT_END
309
TABLEFORMAT_END
  1
CELLSTYLE_BEGIN
 90
        3
 91
        2
300
_DATA
309
CELLSTYLE_END
  0
XRECORD
  5
28E
102
{ACAD_REACTORS
330
28D
102
}
330
28D
100
AcDbXrecord
280
     1
102
ACAD_ROUNDTRIP_PRE2007_TABLESTYLE
 90
        4
 91
        0
  1

 92
        4
 93
        0
  2

 94
        4
 95
        0
  3

  0
XRECORD
  5
260
102
{ACAD_REACTORS
330
25F
102
}
330
25F
100
AcDbXrecord
280
     1
102
RTVSPropertyOp0
 70
     1
102
RTVSPropertyOp1
 70
     1
102
RTVSPropertyOp2
 70
     1
102
RTVSPropertyOp3
 70
     1
102
RTVSPropertyOp4
 70
     1
102
RTVSPropertyOp5
 70
     1
102
RTVSPropertyOp6
 70
     1
102
RTVSPropertyOp7
 70
     1
102
RTVSPropertyOp8
 70
     1
102
RTVSPropertyOp9
 70
     1
102
RTVSPropertyOp10
 70
     1
102
RTVSPropertyOp11
 70
     1
102
RTVSPropertyOp12
 70
     1
102
RTVSPropertyOp13
 70
     1
102
RTVSPropertyOp14
 70
     1
102
RTVSPropertyOp15
 70
     1
102
RTVSPropertyOp16
 70
     1
102
RTVSPropertyOp17
 70
     1
102
RTVSPropertyOp18
 70
     1
102
RTVSPropertyOp19
 70
     1
102
RTVSPropertyOp20
 70
     1
102
RTVSPropertyOp21
 70
     1
102
RTVSPropertyOp22
 70
     1
102
RTVSPropertyOp23
 70
     1
102
RTVSPropertyOp24
 70
     1
102
RTVSPropertyOp25
 70
     1
102
RTVSPropertyOp26
 70
     1
102
RTVSPropertyOp27
 70
     1
102
RTVSPropertyOp28
 70
     1
102
RTVSPropertyOp29
 70
     1
102
RTVSPropertyOp30
 70
     1
102
RTVSPropertyOp31
 70
     1
102
RTVSPropertyOp32
 70
     1
102
RTVSPropertyOp33
 70
     1
102
RTVSPropertyOp34
 70
     1
102
RTVSPropertyOp35
 70
     1
102
RTVSPropertyOp36
 70
     1
102
RTVSPropertyOp37
 70
     1
102
RTVSPropertyOp38
 70
     1
102
RTVSPropertyOp39
 70
     1
102
RTVSPropertyOp40
 70
     1
102
RTVSPropertyOp41
 70
     1
102
RTVSPropertyOp42
 70
     1
102
RTVSPropertyOp43
 70
     1
102
RTVSPropertyOp44
 70
     1
102
RTVSPropertyOp45
 70
     1
102
RTVSPropertyOp46
 70
     1
102
RTVSPropertyOp47
 70
     1
102
RTVSPropertyOp48
 70
     1
102
RTVSPropertyOp49
 70
     1
102
RTVSPropertyOp50
 70
     1
102
RTVSPropertyOp51
 70
     0
102
RTVSPropertyOp52
 70
     0
102
RTVSPropertyOp53
 70
     1
102
RTVSPropertyOp54
 70
     1
102
RTVSPropertyOp55
 70
     1
102
RTVSPropertyOp56
 70
     1
102
RTVSPropertyOp57
 70
     1
102
RTVSPost2010Prop28
280
     1
102
RTVSPost2010PropOp28
 70
     1
102
RTVSPost2010Prop29
280
     1
102
RTVSPost2010PropOp29
 70
     1
102
RTVSPost2010Prop30
280
     0
102
RTVSPost2010PropOp30
 70
     1
102
RTVSPost2010Prop31
280
     0
102
RTVSPost2010PropOp31
 70
     1
102
RTVSPost2010Prop32
280
     0
102
RTVSPost2010PropOp32
 70
     1
102
RTVSPost2010Prop33
280
     0
102
RTVSPost2010PropOp33
 70
     1
102
RTVSPost2010Prop34
280
     0
102
RTVSPost2010PropOp34
 70
     1
102
RTVSPost2010Prop35
280
     0
102
RTVSPost2010PropOp35
 70
     1
102
RTVSPost2010Prop36
280
     0
102
RTVSPost2010PropOp36
 70
     1
102
RTVSPost2010Prop37
 90
       50
102
RTVSPost2010PropOp37
 70
     1
102
RTVSPost2010Prop38
140
0.0
102
RTVSPost2010PropOp38
 70
     1
102
RTVSPost2010Prop39
140
1.0
102
RTVSPost2010PropOp39
 70
     1
102
RTVSPost2010Prop40
 90
        0
102
RTVSPost2010PropOp40
 70
     1
102
RTVSPost2010Prop41ColorIndex
 90
       18
102
RTVSPost2010Prop41ColorRGB
 90
        0
102
RTVSPost2010PropOp41
 70
     1
102
RTVSPost2010Prop42
 90
       50
102
RTVSPost2010PropOp42
 70
     1
102
RTVSPost2010Prop43
 90
        3
102
RTVSPost2010PropOp43
 70
     1
102
RTVSPost2010Prop44ColorIndex
 90
        5
102
RTVSPost2010Prop44ColorRGB
 90
      255
102
RTVSPost2010PropOp44
 70
     1
102
RTVSPost2010Prop45
280
     0
102
RTVSPost2010PropOp45
 70
     1
102
RTVSPost2010Prop46
 90
       50
102
RTVSPost2010PropOp46
 70
     1
102
RTVSPost2010Prop47
 90
       50
102
RTVSPost2010PropOp47
 70
     1
102
RTVSPost2010Prop48
 90
       50
102
RTVSPost2010PropOp48
 70
     1
102
RTVSPost2010Prop49
280
     0
102
RTVSPost2010PropOp49
 70
     1
102
RTVSPost2010Prop50
 90
       50
102
RTVSPost2010PropOp50
 70
     1
102
RTVSPost2010Prop51ColorIndex
 90
      256
102
RTVSPost2010Prop51ColorRGB
 90
-16777216
102
RTVSPost2010PropOp51
 70
     0
102
RTVSPost2010Prop52
140
1.0
102
RTVSPost2010PropOp52
 70
     0
102
RTVSPost2010Prop53
 90
        2
102
RTVSPost2010PropOp53
 70
     1
102
RTVSPost2010Prop54
  1
strokes_ogs.tif
102
RTVSPost2010PropOp54
 70
     1
102
RTVSPost2010Prop55
280
     0
102
RTVSPost2010PropOp55
 70
     1
102
RTVSPost2010Prop56
140
1.0
102
RTVSPost2010PropOp56
 70
     1
102
RTVSPost2010Prop57
140
1.0
102
RTVSPost2010PropOp57
 70
     1
  0
XRECORD
  5
266
102
{ACAD_REACTORS
330
265
102
}
330
265
100
AcDbXrecord
280
     1
102
RTVSPropertyOp0
 70
     1
102
RTVSPropertyOp1
 70
     1
102
RTVSPropertyOp2
 70
     1
102
RTVSPropertyOp3
 70
     1
102
RTVSPropertyOp4
 70
     1
102
RTVSPropertyOp5
 70
     1
102
RTVSPropertyOp6
 70
     1
102
RTVSPropertyOp7
 70
     1
102
RTVSPropertyOp8
 70
     1
102
RTVSPropertyOp9
 70
     1
102
RTVSPropertyOp10
 70
     1
102
RTVSPropertyOp11
 70
     1
102
RTVSPropertyOp12
 70
     1
102
RTVSPropertyOp13
 70
     1
102
RTVSPropertyOp14
 70
     1
102
RTVSPropertyOp15
 70
     1
102
RTVSPropertyOp16
 70
     1
102
RTVSPropertyOp17
 70
     1
102
RTVSPropertyOp18
 70
     1
102
RTVSPropertyOp19
 70
     1
102
RTVSPropertyOp20
 70
     1
102
RTVSPropertyOp21
 70
     1
102
RTVSPropertyOp22
 70
     1
102
RTVSPropertyOp23
 70
     1
102
RTVSPropertyOp24
 70
     1
102
RTVSPropertyOp25
 70
     1
102
RTVSPropertyOp26
 70
     1
102
RTVSPropertyOp27
 70
     1
102
RTVSPropertyOp28
 70
     1
102
RTVSPropertyOp29
 70
     1
102
RTVSPropertyOp30
 70
     1
102
RTVSPropertyOp31
 70
     1
102
RTVSPropertyOp32
 70
     1
102
RTVSPropertyOp33
 70
     1
102
RTVSPropertyOp34
 70
     1
102
RTVSPropertyOp35
 70
     1
102
RTVSPropertyOp36
 70
     1
102
RTVSPropertyOp37
 70
     1
102
RTVSPropertyOp38
 70
     1
102
RTVSPropertyOp39
 70
     1
102
RTVSPropertyOp40
 70
     1
102
RTVSPropertyOp41
 70
     1
102
RTVSPropertyOp42
 70
     1
102
RTVSPropertyOp43
 70
     1
102
RTVSPropertyOp44
 70
     1
102
RTVSPropertyOp45
 70
     1
102
RTVSPropertyOp46
 70
     1
102
RTVSPropertyOp47
 70
     1
102
RTVSPropertyOp48
 70
     1
102
RTVSPropertyOp49
 70
     1
102
RTVSPropertyOp50
 70
     1
102
RTVSPropertyOp51
 70
     0
102
RTVSPropertyOp52
 70
     0
102
RTVSPropertyOp53
 70
     1
102
RTVSPropertyOp54
 70
     1
102
RTVSPropertyOp55
 70
     1
102
RTVSPropertyOp56
 70
     1
102
RTVSPropertyOp57
 70
     1
102
RTVSPost2010Prop28
280
     0
102
RTVSPost2010PropOp28
 70
     1
102
RTVSPost2010Prop29
280
     1
102
RTVSPost2010PropOp29
 70
     1
102
RTVSPost2010Prop30
280
     1
102
RTVSPost2010PropOp30
 70
     1
102
RTVSPost2010Prop31
280
     0
102
RTVSPost2010PropOp31
 70
     1
102
RTVSPost2010Prop32
280
     0
102
RTVSPost2010PropOp32
 70
     1
102
RTVSPost2010Prop33
280
     0
102
RTVSPost2010PropOp33
 70
     1
102
RTVSPost2010Prop34
280
     0
102
RTVSPost2010PropOp34
 70
     1
102
RTVSPost2010Prop35
280
     0
102
RTVSPost2010PropOp35
 70
     1
102
RTVSPost2010Prop36
280
     0
102
RTVSPost2010PropOp36
 70
     1
102
RTVSPost2010Prop37
 90
       50
102
RTVSPost2010PropOp37
 70
     1
102
RTVSPost2010Prop38
140
0.0
102
RTVSPost2010PropOp38
 70
     1
102
RTVSPost2010Prop39
140
1.0
102
RTVSPost2010PropOp39
 70
     1
102
RTVSPost2010Prop40
 90
        0
102
RTVSPost2010PropOp40
 70
     1
102
RTVSPost2010Prop41ColorIndex
 90
       18
102
RTVSPost2010Prop41ColorRGB
 90
        0
102
RTVSPost2010PropOp41
 70
     1
102
RTVSPost2010Prop42
 90
       50
102
RTVSPost2010PropOp42
 70
     1
102
RTVSPost2010Prop43
 90
        3
102
RTVSPost2010PropOp43
 70
     1
102
RTVSPost2010Prop44ColorIndex
 90
        5
102
RTVSPost2010Prop44ColorRGB
 90
      255
102
RTVSPost2010PropOp44
 70
     1
102
RTVSPost2010Prop45
280
     0
102
RTVSPost2010PropOp45
 70
     1
102
RTVSPost2010Prop46
 90
       50
102
RTVSPost2010PropOp46
 70
     1
102
RTVSPost2010Prop47
 90
       50
102
RTVSPost2010PropOp47
 70
     1
102
RTVSPost2010Prop48
 90
       50
102
RTVSPost2010PropOp48
 70
     1
102
RTVSPost2010Prop49
280
     0
102
RTVSPost2010PropOp49
 70
     1
102
RTVSPost2010Prop50
 90
       50
102
RTVSPost2010PropOp50
 70
     1
102
RTVSPost2010Prop51ColorIndex
 90
      256
102
RTVSPost2010Prop51ColorRGB
 90
-16777216
102
RTVSPost2010PropOp51
 70
     0
102
RTVSPost2010Prop52
140
1.0
102
RTVSPost2010PropOp52
 70
     0
102
RTVSPost2010Prop53
 90
        2
102
RTVSPost2010PropOp53
 70
     1
102
RTVSPost2010Prop54
  1
strokes_ogs.tif
102
RTVSPost2010PropOp54
 70
     1
102
RTVSPost2010Prop55
280
     0
102
RTVSPost2010PropOp55
 70
     1
102
RTVSPost2010Prop56
140
1.0
102
RTVSPost2010PropOp56
 70
     1
102
RTVSPost2010Prop57
140
1.0
102
RTVSPost2010PropOp57
 70
     1
  0
XRECORD
  5
26E
102
{ACAD_REACTORS
330
26D
102
}
330
26D
100
AcDbXrecord
280
     1
102
RTVSPropertyOp0
 70
     1
102
RTVSPropertyOp1
 70
     1
102
RTVSPropertyOp2
 70
     1
102
RTVSPropertyOp3
 70
     1
102
RTVSPropertyOp4
 70
     1
102
RTVSPropertyOp5
 70
     1
102
RTVSPropertyOp6
 70
     1
102
RTVSPropertyOp7
 70
     1
102
RTVSPropertyOp8
 70
     1
102
RTVSPropertyOp9
 70
     1
102
RTVSPropertyOp10
 70
     1
102
RTVSPropertyOp11
 70
     1
102
RTVSPropertyOp12
 70
     1
102
RTVSPropertyOp13
 70
     1
102
RTVSPropertyOp14
 70
     1
102
RTVSPropertyOp15
 70
     1
102
RTVSPropertyOp16
 70
     1
102
RTVSPropertyOp17
 70
     1
102
RTVSPropertyOp18
 70
     1
102
RTVSPropertyOp19
 70
     1
102
RTVSPropertyOp20
 70
     1
102
RTVSPropertyOp21
 70
     1
102
RTVSPropertyOp22
 70
     1
102
RTVSPropertyOp23
 70
     1
102
RTVSPropertyOp24
 70
     1
102
RTVSPropertyOp25
 70
     1
102
RTVSPropertyOp26
 70
     1
102
RTVSPropertyOp27
 70
     1
102
RTVSPropertyOp28
 70
     1
102
RTVSPropertyOp29
 70
     1
102
RTVSPropertyOp30
 70
     1
102
RTVSPropertyOp31
 70
     1
102
RTVSPropertyOp32
 70
     1
102
RTVSPropertyOp33
 70
     1
102
RTVSPropertyOp34
 70
     1
102
RTVSPropertyOp35
 70
     1
102
RTVSPropertyOp36
 70
     1
102
RTVSPropertyOp37
 70
     1
102
RTVSPropertyOp38
 70
     1
102
RTVSPropertyOp39
 70
     1
102
RTVSPropertyOp40
 70
     1
102
RTVSPropertyOp41
 70
     1
102
RTVSPropertyOp42
 70
     1
102
RTVSPropertyOp43
 70
     1
102
RTVSPropertyOp44
 70
     1
102
RTVSPropertyOp45
 70
     1
102
RTVSPropertyOp46
 70
     1
102
RTVSPropertyOp47
 70
     1
102
RTVSPropertyOp48
 70
     1
102
RTVSPropertyOp49
 70
     1
102
RTVSPropertyOp50
 70
     1
102
RTVSPropertyOp51
 70
     0
102
RTVSPropertyOp52
 70
     0
102
RTVSPropertyOp53
 70
     1
102
RTVSPropertyOp54
 70
     1
102
RTVSPropertyOp55
 70
     1
102
RTVSPropertyOp56
 70
     1
102
RTVSPropertyOp57
 70
     1
102
RTVSPost2010Prop28
280
     0
102
RTVSPost2010PropOp28
 70
     1
102
RTVSPost2010Prop29
280
     1
102
RTVSPost2010PropOp29
 70
     1
102
RTVSPost2010Prop30
280
     1
102
RTVSPost2010PropOp30
 70
     1
102
RTVSPost2010Prop31
280
     0
102
RTVSPost2010PropOp31
 70
     1
102
RTVSPost2010Prop32
280
     0
102
RTVSPost2010PropOp32
 70
     1
102
RTVSPost2010Prop33
280
     0
102
RTVSPost2010PropOp33
 70
     1
102
RTVSPost2010Prop34
280
     0
102
RTVSPost2010PropOp34
 70
     1
102
RTVSPost2010Prop35
280
     0
102
RTVSPost2010PropOp35
 70
     1
102
RTVSPost2010Prop36
280
     0
102
RTVSPost2010PropOp36
 70
     1
102
RTVSPost2010Prop37
 90
       50
102
RTVSPost2010PropOp37
 70
     1
102
RTVSPost2010Prop38
140
0.0
102
RTVSPost2010PropOp38
 70
     1
102
RTVSPost2010Prop39
140
1.0
102
RTVSPost2010PropOp39
 70
     1
102
RTVSPost2010Prop40
 90
        0
102
RTVSPost2010PropOp40
 70
     1
102
RTVSPost2010Prop41ColorIndex
 90
       18
102
RTVSPost2010Prop41ColorRGB
 90
        0
102
RTVSPost2010PropOp41
 70
     1
102
RTVSPost2010Prop42
 90
       50
102
RTVSPost2010PropOp42
 70
     1
102
RTVSPost2010Prop43
 90
        3
102
RTVSPost2010PropOp43
 70
     1
102
RTVSPost2010Prop44ColorIndex
 90
        5
102
RTVSPost2010Prop44ColorRGB
 90
      255
102
RTVSPost2010PropOp44
 70
     1
102
RTVSPost2010Prop45
280
     0
102
RTVSPost2010PropOp45
 70
     1
102
RTVSPost2010Prop46
 90
       50
102
RTVSPost2010PropOp46
 70
     1
102
RTVSPost2010Prop47
 90
       50
102
RTVSPost2010PropOp47
 70
     1
102
RTVSPost2010Prop48
 90
       50
102
RTVSPost2010PropOp48
 70
     1
102
RTVSPost2010Prop49
280
     0
102
RTVSPost2010PropOp49
 70
     1
102
RTVSPost2010Prop50
 90
       50
102
RTVSPost2010PropOp50
 70
     1
102
RTVSPost2010Prop51ColorIndex
 90
      256
102
RTVSPost2010Prop51ColorRGB
 90
-16777216
102
RTVSPost2010PropOp51
 70
     0
102
RTVSPost2010Prop52
140
1.0
102
RTVSPost2010PropOp52
 70
     0
102
RTVSPost2010Prop53
 90
        2
102
RTVSPost2010PropOp53
 70
     1
102
RTVSPost2010Prop54
  1
strokes_ogs.tif
102
RTVSPost2010PropOp54
 70
     1
102
RTVSPost2010Prop55
280
     0
102
RTVSPost2010PropOp55
 70
     1
102
RTVSPost2010Prop56
140
1.0
102
RTVSPost2010PropOp56
 70
     1
102
RTVSPost2010Prop57
140
1.0
102
RTVSPost2010PropOp57
 70
     1
  0
XRECORD
  5
276
102
{ACAD_REACTORS
330
275
102
}
330
275
100
AcDbXrecord
280
     1
102
RTVSPropertyOp0
 70
     1
102
RTVSPropertyOp1
 70
     1
102
RTVSPropertyOp2
 70
     1
102
RTVSPropertyOp3
 70
     1
102
RTVSPropertyOp4
 70
     1
102
RTVSPropertyOp5
 70
     1
102
RTVSPropertyOp6
 70
     1
102
RTVSPropertyOp7
 70
     1
102
RTVSPropertyOp8
 70
     1
102
RTVSPropertyOp9
 70
     1
102
RTVSPropertyOp10
 70
     1
102
RTVSPropertyOp11
 70
     1
102
RTVSPropertyOp12
 70
     1
102
RTVSPropertyOp13
 70
     1
102
RTVSPropertyOp14
 70
     1
102
RTVSPropertyOp15
 70
     1
102
RTVSPropertyOp16
 70
     1
102
RTVSPropertyOp17
 70
     1
102
RTVSPropertyOp18
 70
     1
102
RTVSPropertyOp19
 70
     1
102
RTVSPropertyOp20
 70
     1
102
RTVSPropertyOp21
 70
     1
102
RTVSPropertyOp22
 70
     1
102
RTVSPropertyOp23
 70
     1
102
RTVSPropertyOp24
 70
     1
102
RTVSPropertyOp25
 70
     1
102
RTVSPropertyOp26
 70
     1
102
RTVSPropertyOp27
 70
     1
102
RTVSPropertyOp28
 70
     1
102
RTVSPropertyOp29
 70
     1
102
RTVSPropertyOp30
 70
     1
102
RTVSPropertyOp31
 70
     1
102
RTVSPropertyOp32
 70
     1
102
RTVSPropertyOp33
 70
     1
102
RTVSPropertyOp34
 70
     1
102
RTVSPropertyOp35
 70
     1
102
RTVSPropertyOp36
 70
     1
102
RTVSPropertyOp37
 70
     1
102
RTVSPropertyOp38
 70
     1
102
RTVSPropertyOp39
 70
     1
102
RTVSPropertyOp40
 70
     1
102
RTVSPropertyOp41
 70
     1
102
RTVSPropertyOp42
 70
     1
102
RTVSPropertyOp43
 70
     1
102
RTVSPropertyOp44
 70
     1
102
RTVSPropertyOp45
 70
     1
102
RTVSPropertyOp46
 70
     1
102
RTVSPropertyOp47
 70
     1
102
RTVSPropertyOp48
 70
     1
102
RTVSPropertyOp49
 70
     1
102
RTVSPropertyOp50
 70
     1
102
RTVSPropertyOp51
 70
     0
102
RTVSPropertyOp52
 70
     0
102
RTVSPropertyOp53
 70
     1
102
RTVSPropertyOp54
 70
     1
102
RTVSPropertyOp55
 70
     1
102
RTVSPropertyOp56
 70
     1
102
RTVSPropertyOp57
 70
     1
102
RTVSPost2010Prop28
280
     0
102
RTVSPost2010PropOp28
 70
     1
102
RTVSPost2010Prop29
280
     1
102
RTVSPost2010PropOp29
 70
     1
102
RTVSPost2010Prop30
280
     1
102
RTVSPost2010PropOp30
 70
     1
102
RTVSPost2010Prop31
280
     0
102
RTVSPost2010PropOp31
 70
     1
102
RTVSPost2010Prop32
280
     0
102
RTVSPost2010PropOp32
 70
     1
102
RTVSPost2010Prop33
280
     0
102
RTVSPost2010PropOp33
 70
     1
102
RTVSPost2010Prop34
280
     0
102
RTVSPost2010PropOp34
 70
     1
102
RTVSPost2010Prop35
280
     0
102
RTVSPost2010PropOp35
 70
     1
102
RTVSPost2010Prop36
280
     0
102
RTVSPost2010PropOp36
 70
     1
102
RTVSPost2010Prop37
 90
       50
102
RTVSPost2010PropOp37
 70
     1
102
RTVSPost2010Prop38
140
0.0
102
RTVSPost2010PropOp38
 70
     1
102
RTVSPost2010Prop39
140
1.0
102
RTVSPost2010PropOp39
 70
     1
102
RTVSPost2010Prop40
 90
        0
102
RTVSPost2010PropOp40
 70
     1
102
RTVSPost2010Prop41ColorIndex
 90
       18
102
RTVSPost2010Prop41ColorRGB
 90
        0
102
RTVSPost2010PropOp41
 70
     1
102
RTVSPost2010Prop42
 90
       50
102
RTVSPost2010PropOp42
 70
     1
102
RTVSPost2010Prop43
 90
        3
102
RTVSPost2010PropOp43
 70
     1
102
RTVSPost2010Prop44ColorIndex
 90
        5
102
RTVSPost2010Prop44ColorRGB
 90
      255
102
RTVSPost2010PropOp44
 70
     1
102
RTVSPost2010Prop45
280
     0
102
RTVSPost2010PropOp45
 70
     1
102
RTVSPost2010Prop46
 90
       50
102
RTVSPost2010PropOp46
 70
     1
102
RTVSPost2010Prop47
 90
       50
102
RTVSPost2010PropOp47
 70
     1
102
RTVSPost2010Prop48
 90
       50
102
RTVSPost2010PropOp48
 70
     1
102
RTVSPost2010Prop49
280
     0
102
RTVSPost2010PropOp49
 70
     1
102
RTVSPost2010Prop50
 90
       50
102
RTVSPost2010PropOp50
 70
     1
102
RTVSPost2010Prop51ColorIndex
 90
      256
102
RTVSPost2010Prop51ColorRGB
 90
-16777216
102
RTVSPost2010PropOp51
 70
     0
102
RTVSPost2010Prop52
140
1.0
102
RTVSPost2010PropOp52
 70
     0
102
RTVSPost2010Prop53
 90
        2
102
RTVSPost2010PropOp53
 70
     1
102
RTVSPost2010Prop54
  1
strokes_ogs.tif
102
RTVSPost2010PropOp54
 70
     1
102
RTVSPost2010Prop55
280
     0
102
RTVSPost2010PropOp55
 70
     1
102
RTVSPost2010Prop56
140
1.0
102
RTVSPost2010PropOp56
 70
     1
102
RTVSPost2010Prop57
140
1.0
102
RTVSPost2010PropOp57
 70
     1
  0
XRECORD
  5
26A
102
{ACAD_REACTORS
330
269
102
}
330
269
100
AcDbXrecord
280
     1
102
RTVSPropertyOp0
 70
     1
102
RTVSPropertyOp1
 70
     1
102
RTVSPropertyOp2
 70
     1
102
RTVSPropertyOp3
 70
     1
102
RTVSPropertyOp4
 70
     1
102
RTVSPropertyOp5
 70
     1
102
RTVSPropertyOp6
 70
     1
102
RTVSPropertyOp7
 70
     1
102
RTVSPropertyOp8
 70
     1
102
RTVSPropertyOp9
 70
     1
102
RTVSPropertyOp10
 70
     1
102
RTVSPropertyOp11
 70
     1
102
RTVSPropertyOp12
 70
     1
102
RTVSPropertyOp13
 70
     1
102
RTVSPropertyOp14
 70
     1
102
RTVSPropertyOp15
 70
     1
102
RTVSPropertyOp16
 70
     1
102
RTVSPropertyOp17
 70
     1
102
RTVSPropertyOp18
 70
     1
102
RTVSPropertyOp19
 70
     1
102
RTVSPropertyOp20
 70
     1
102
RTVSPropertyOp21
 70
     1
102
RTVSPropertyOp22
 70
     1
102
RTVSPropertyOp23
 70
     1
102
RTVSPropertyOp24
 70
     1
102
RTVSPropertyOp25
 70
     1
102
RTVSPropertyOp26
 70
     1
102
RTVSPropertyOp27
 70
     1
102
RTVSPropertyOp28
 70
     1
102
RTVSPropertyOp29
 70
     1
102
RTVSPropertyOp30
 70
     1
102
RTVSPropertyOp31
 70
     1
102
RTVSPropertyOp32
 70
     1
102
RTVSPropertyOp33
 70
     1
102
RTVSPropertyOp34
 70
     1
102
RTVSPropertyOp35
 70
     1
102
RTVSPropertyOp36
 70
     1
102
RTVSPropertyOp37
 70
     1
102
RTVSPropertyOp38
 70
     1
102
RTVSPropertyOp39
 70
     1
102
RTVSPropertyOp40
 70
     1
102
RTVSPropertyOp41
 70
     1
102
RTVSPropertyOp42
 70
     1
102
RTVSPropertyOp43
 70
     1
102
RTVSPropertyOp44
 70
     1
102
RTVSPropertyOp45
 70
     1
102
RTVSPropertyOp46
 70
     1
102
RTVSPropertyOp47
 70
     1
102
RTVSPropertyOp48
 70
     1
102
RTVSPropertyOp49
 70
     1
102
RTVSPropertyOp50
 70
     1
102
RTVSPropertyOp51
 70
     0
102
RTVSPropertyOp52
 70
     0
102
RTVSPropertyOp53
 70
     1
102
RTVSPropertyOp54
 70
     1
102
RTVSPropertyOp55
 70
     1
102
RTVSPropertyOp56
 70
     1
102
RTVSPropertyOp57
 70
     1
102
RTVSPost2010Prop28
280
     0
102
RTVSPost2010PropOp28
 70
     1
102
RTVSPost2010Prop29
280
     1
102
RTVSPost2010PropOp29
 70
     1
102
RTVSPost2010Prop30
280
     1
102
RTVSPost2010PropOp30
 70
     1
102
RTVSPost2010Prop31
280
     0
102
RTVSPost2010PropOp31
 70
     1
102
RTVSPost2010Prop32
280
     0
102
RTVSPost2010PropOp32
 70
     1
102
RTVSPost2010Prop33
280
     0
102
RTVSPost2010PropOp33
 70
     1
102
RTVSPost2010Prop34
280
     0
102
RTVSPost2010PropOp34
 70
     1
102
RTVSPost2010Prop35
280
     0
102
RTVSPost2010PropOp35
 70
     1
102
RTVSPost2010Prop36
280
     0
102
RTVSPost2010PropOp36
 70
     1
102
RTVSPost2010Prop37
 90
       50
102
RTVSPost2010PropOp37
 70
     1
102
RTVSPost2010Prop38
140
0.0
102
RTVSPost2010PropOp38
 70
     1
102
RTVSPost2010Prop39
140
1.0
102
RTVSPost2010PropOp39
 70
     1
102
RTVSPost2010Prop40
 90
        0
102
RTVSPost2010PropOp40
 70
     1
102
RTVSPost2010Prop41ColorIndex
 90
       18
102
RTVSPost2010Prop41ColorRGB
 90
        0
102
RTVSPost2010PropOp41
 70
     1
102
RTVSPost2010Prop42
 90
       50
102
RTVSPost2010PropOp42
 70
     1
102
RTVSPost2010Prop43
 90
        3
102
RTVSPost2010PropOp43
 70
     1
102
RTVSPost2010Prop44ColorIndex
 90
        5
102
RTVSPost2010Prop44ColorRGB
 90
      255
102
RTVSPost2010PropOp44
 70
     1
102
RTVSPost2010Prop45
280
     0
102
RTVSPost2010PropOp45
 70
     1
102
RTVSPost2010Prop46
 90
       50
102
RTVSPost2010PropOp46
 70
     1
102
RTVSPost2010Prop47
 90
       50
102
RTVSPost2010PropOp47
 70
     1
102
RTVSPost2010Prop48
 90
       50
102
RTVSPost2010PropOp48
 70
     1
102
RTVSPost2010Prop49
280
     0
102
RTVSPost2010PropOp49
 70
     1
102
RTVSPost2010Prop50
 90
       50
102
RTVSPost2010PropOp50
 70
     1
102
RTVSPost2010Prop51ColorIndex
 90
      256
102
RTVSPost2010Prop51ColorRGB
 90
-16777216
102
RTVSPost2010PropOp51
 70
     0
102
RTVSPost2010Prop52
140
1.0
102
RTVSPost2010PropOp52
 70
     0
102
RTVSPost2010Prop53
 90
        2
102
RTVSPost2010PropOp53
 70
     1
102
RTVSPost2010Prop54
  1
strokes_ogs.tif
102
RTVSPost2010PropOp54
 70
     1
102
RTVSPost2010Prop55
280
     0
102
RTVSPost2010PropOp55
 70
     1
102
RTVSPost2010Prop56
140
1.0
102
RTVSPost2010PropOp56
 70
     1
102
RTVSPost2010Prop57
140
1.0
102
RTVSPost2010PropOp57
 70
     1
  0
XRECORD
  5
26C
102
{ACAD_REACTORS
330
26B
102
}
330
26B
100
AcDbXrecord
280
     1
102
RTVSPropertyOp0
 70
     1
102
RTVSPropertyOp1
 70
     1
102
RTVSPropertyOp2
 70
     1
102
RTVSPropertyOp3
 70
     1
102
RTVSPropertyOp4
 70
     1
102
RTVSPropertyOp5
 70
     1
102
RTVSPropertyOp6
 70
     1
102
RTVSPropertyOp7
 70
     1
102
RTVSPropertyOp8
 70
     1
102
RTVSPropertyOp9
 70
     1
102
RTVSPropertyOp10
 70
     1
102
RTVSPropertyOp11
 70
     1
102
RTVSPropertyOp12
 70
     1
102
RTVSPropertyOp13
 70
     1
102
RTVSPropertyOp14
 70
     1
102
RTVSPropertyOp15
 70
     1
102
RTVSPropertyOp16
 70
     1
102
RTVSPropertyOp17
 70
     1
102
RTVSPropertyOp18
 70
     1
102
RTVSPropertyOp19
 70
     1
102
RTVSPropertyOp20
 70
     1
102
RTVSPropertyOp21
 70
     1
102
RTVSPropertyOp22
 70
     1
102
RTVSPropertyOp23
 70
     1
102
RTVSPropertyOp24
 70
     1
102
RTVSPropertyOp25
 70
     1
102
RTVSPropertyOp26
 70
     1
102
RTVSPropertyOp27
 70
     1
102
RTVSPropertyOp28
 70
     1
102
RTVSPropertyOp29
 70
     1
102
RTVSPropertyOp30
 70
     1
102
RTVSPropertyOp31
 70
     1
102
RTVSPropertyOp32
 70
     1
102
RTVSPropertyOp33
 70
     1
102
RTVSPropertyOp34
 70
     1
102
RTVSPropertyOp35
 70
     1
102
RTVSPropertyOp36
 70
     1
102
RTVSPropertyOp37
 70
     1
102
RTVSPropertyOp38
 70
     1
102
RTVSPropertyOp39
 70
     1
102
RTVSPropertyOp40
 70
     1
102
RTVSPropertyOp41
 70
     1
102
RTVSPropertyOp42
 70
     1
102
RTVSPropertyOp43
 70
     1
102
RTVSPropertyOp44
 70
     1
102
RTVSPropertyOp45
 70
     1
102
RTVSPropertyOp46
 70
     1
102
RTVSPropertyOp47
 70
     1
102
RTVSPropertyOp48
 70
     1
102
RTVSPropertyOp49
 70
     1
102
RTVSPropertyOp50
 70
     1
102
RTVSPropertyOp51
 70
     0
102
RTVSPropertyOp52
 70
     0
102
RTVSPropertyOp53
 70
     1
102
RTVSPropertyOp54
 70
     1
102
RTVSPropertyOp55
 70
     1
102
RTVSPropertyOp56
 70
     1
102
RTVSPropertyOp57
 70
     1
102
RTVSPost2010Prop28
280
     0
102
RTVSPost2010PropOp28
 70
     1
102
RTVSPost2010Prop29
280
     1
102
RTVSPost2010PropOp29
 70
     1
102
RTVSPost2010Prop30
280
     1
102
RTVSPost2010PropOp30
 70
     1
102
RTVSPost2010Prop31
280
     0
102
RTVSPost2010PropOp31
 70
     1
102
RTVSPost2010Prop32
280
     0
102
RTVSPost2010PropOp32
 70
     1
102
RTVSPost2010Prop33
280
     0
102
RTVSPost2010PropOp33
 70
     1
102
RTVSPost2010Prop34
280
     0
102
RTVSPost2010PropOp34
 70
     1
102
RTVSPost2010Prop35
280
     0
102
RTVSPost2010PropOp35
 70
     1
102
RTVSPost2010Prop36
280
     0
102
RTVSPost2010PropOp36
 70
     1
102
RTVSPost2010Prop37
 90
       50
102
RTVSPost2010PropOp37
 70
     1
102
RTVSPost2010Prop38
140
0.0
102
RTVSPost2010PropOp38
 70
     1
102
RTVSPost2010Prop39
140
1.0
102
RTVSPost2010PropOp39
 70
     1
102
RTVSPost2010Prop40
 90
        0
102
RTVSPost2010PropOp40
 70
     1
102
RTVSPost2010Prop41ColorIndex
 90
       18
102
RTVSPost2010Prop41ColorRGB
 90
        0
102
RTVSPost2010PropOp41
 70
     1
102
RTVSPost2010Prop42
 90
       50
102
RTVSPost2010PropOp42
 70
     1
102
RTVSPost2010Prop43
 90
        3
102
RTVSPost2010PropOp43
 70
     1
102
RTVSPost2010Prop44ColorIndex
 90
        5
102
RTVSPost2010Prop44ColorRGB
 90
      255
102
RTVSPost2010PropOp44
 70
     1
102
RTVSPost2010Prop45
280
     0
102
RTVSPost2010PropOp45
 70
     1
102
RTVSPost2010Prop46
 90
       50
102
RTVSPost2010PropOp46
 70
     1
102
RTVSPost2010Prop47
 90
       50
102
RTVSPost2010PropOp47
 70
     1
102
RTVSPost2010Prop48
 90
       50
102
RTVSPost2010PropOp48
 70
     1
102
RTVSPost2010Prop49
280
     0
102
RTVSPost2010PropOp49
 70
     1
102
RTVSPost2010Prop50
 90
       50
102
RTVSPost2010PropOp50
 70
     1
102
RTVSPost2010Prop51ColorIndex
 90
      256
102
RTVSPost2010Prop51ColorRGB
 90
-16777216
102
RTVSPost2010PropOp51
 70
     0
102
RTVSPost2010Prop52
140
1.0
102
RTVSPost2010PropOp52
 70
     0
102
RTVSPost2010Prop53
 90
        2
102
RTVSPost2010PropOp53
 70
     1
102
RTVSPost2010Prop54
  1
strokes_ogs.tif
102
RTVSPost2010PropOp54
 70
     1
102
RTVSPost2010Prop55
280
     0
102
RTVSPost2010PropOp55
 70
     1
102
RTVSPost2010Prop56
140
1.0
102
RTVSPost2010PropOp56
 70
     1
102
RTVSPost2010Prop57
140
1.0
102
RTVSPost2010PropOp57
 70
     1
  0
XRECORD
  5
27C
102
{ACAD_REACTORS
330
27B
102
}
330
27B
100
AcDbXrecord
280
     1
102
RTVSPropertyOp0
 70
     0
102
RTVSPropertyOp1
 70
     0
102
RTVSPropertyOp2
 70
     0
102
RTVSPropertyOp3
 70
     0
102
RTVSPropertyOp4
 70
     0
102
RTVSPropertyOp5
 70
     0
102
RTVSPropertyOp6
 70
     0
102
RTVSPropertyOp7
 70
     0
102
RTVSPropertyOp8
 70
     0
102
RTVSPropertyOp9
 70
     0
102
RTVSPropertyOp10
 70
     0
102
RTVSPropertyOp11
 70
     0
102
RTVSPropertyOp12
 70
     0
102
RTVSPropertyOp13
 70
     0
102
RTVSPropertyOp14
 70
     2
102
RTVSPropertyOp15
 70
     0
102
RTVSPropertyOp16
 70
     0
102
RTVSPropertyOp17
 70
     0
102
RTVSPropertyOp18
 70
     0
102
RTVSPropertyOp19
 70
     0
102
RTVSPropertyOp20
 70
     0
102
RTVSPropertyOp21
 70
     0
102
RTVSPropertyOp22
 70
     0
102
RTVSPropertyOp23
 70
     0
102
RTVSPropertyOp24
 70
     0
102
RTVSPropertyOp25
 70
     0
102
RTVSPropertyOp26
 70
     0
102
RTVSPropertyOp27
 70
     0
102
RTVSPropertyOp28
 70
     0
102
RTVSPropertyOp29
 70
     0
102
RTVSPropertyOp30
 70
     0
102
RTVSPropertyOp31
 70
     0
102
RTVSPropertyOp32
 70
     0
102
RTVSPropertyOp33
 70
     0
102
RTVSPropertyOp34
 70
     0
102
RTVSPropertyOp35
 70
     0
102
RTVSPropertyOp36
 70
     0
102
RTVSPropertyOp37
 70
     0
102
RTVSPropertyOp38
 70
     0
102
RTVSPropertyOp39
 70
     0
102
RTVSPropertyOp40
 70
     0
102
RTVSPropertyOp41
 70
     0
102
RTVSPropertyOp42
 70
     0
102
RTVSPropertyOp43
 70
     0
102
RTVSPropertyOp44
 70
     0
102
RTVSPropertyOp45
 70
     0
102
RTVSPropertyOp46
 70
     0
102
RTVSPropertyOp47
 70
     0
102
RTVSPropertyOp48
 70
     0
102
RTVSPropertyOp49
 70
     0
102
RTVSPropertyOp50
 70
     0
102
RTVSPropertyOp51
 70
     0
102
RTVSPropertyOp52
 70
     0
102
RTVSPropertyOp53
 70
     0
102
RTVSPropertyOp54
 70
     0
102
RTVSPropertyOp55
 70
     0
102
RTVSPropertyOp56
 70
     0
102
RTVSPropertyOp57
 70
     0
102
RTVSPost2010Prop28
280
     0
102
RTVSPost2010PropOp28
 70
     0
102
RTVSPost2010Prop29
280
     1
102
RTVSPost2010PropOp29
 70
     0
102
RTVSPost2010Prop30
280
     1
102
RTVSPost2010PropOp30
 70
     0
102
RTVSPost2010Prop31
280
     0
102
RTVSPost2010PropOp31
 70
     0
102
RTVSPost2010Prop32
280
     0
102
RTVSPost2010PropOp32
 70
     0
102
RTVSPost2010Prop33
280
     0
102
RTVSPost2010PropOp33
 70
     0
102
RTVSPost2010Prop34
280
     0
102
RTVSPost2010PropOp34
 70
     0
102
RTVSPost2010Prop35
280
     0
102
RTVSPost2010PropOp35
 70
     0
102
RTVSPost2010Prop36
280
     0
102
RTVSPost2010PropOp36
 70
     0
102
RTVSPost2010Prop37
 90
       50
102
RTVSPost2010PropOp37
 70
     0
102
RTVSPost2010Prop38
140
0.0
102
RTVSPost2010PropOp38
 70
     0
102
RTVSPost2010Prop39
140
1.0
102
RTVSPost2010PropOp39
 70
     0
102
RTVSPost2010Prop40
 90
        0
102
RTVSPost2010PropOp40
 70
     0
102
RTVSPost2010Prop41ColorIndex
 90
       18
102
RTVSPost2010Prop41ColorRGB
 90
        0
102
RTVSPost2010PropOp41
 70
     0
102
RTVSPost2010Prop42
 90
       50
102
RTVSPost2010PropOp42
 70
     0
102
RTVSPost2010Prop43
 90
        3
102
RTVSPost2010PropOp43
 70
     0
102
RTVSPost2010Prop44ColorIndex
 90
        5
102
RTVSPost2010Prop44ColorRGB
 90
      255
102
RTVSPost2010PropOp44
 70
     0
102
RTVSPost2010Prop45
280
     0
102
RTVSPost2010PropOp45
 70
     0
102
RTVSPost2010Prop46
 90
       50
102
RTVSPost2010PropOp46
 70
     0
102
RTVSPost2010Prop47
 90
       50
102
RTVSPost2010PropOp47
 70
     0
102
RTVSPost2010Prop48
 90
       50
102
RTVSPost2010PropOp48
 70
     0
102
RTVSPost2010Prop49
280
     0
102
RTVSPost2010PropOp49
 70
     0
102
RTVSPost2010Prop50
 90
       50
102
RTVSPost2010PropOp50
 70
     0
102
RTVSPost2010Prop51ColorIndex
 90
      256
102
RTVSPost2010Prop51ColorRGB
 90
-16777216
102
RTVSPost2010PropOp51
 70
     0
102
RTVSPost2010Prop52
140
1.0
102
RTVSPost2010PropOp52
 70
     0
102
RTVSPost2010Prop53
 90
        2
102
RTVSPost2010PropOp53
 70
     0
102
RTVSPost2010Prop54
  1
strokes_ogs.tif
102
RTVSPost2010PropOp54
 70
     0
102
RTVSPost2010Prop55
280
     0
102
RTVSPost2010PropOp55
 70
     0
102
RTVSPost2010Prop56
140
1.0
102
RTVSPost2010PropOp56
 70
     0
102
RTVSPost2010Prop57
140
1.0
102
RTVSPost2010PropOp57
 70
     0
  0
XRECORD
  5
274
102
{ACAD_REACTORS
330
273
102
}
330
273
100
AcDbXrecord
280
     1
102
RTVSPropertyOp0
 70
     1
102
RTVSPropertyOp1
 70
     1
102
RTVSPropertyOp2
 70
     1
102
RTVSPropertyOp3
 70
     1
102
RTVSPropertyOp4
 70
     1
102
RTVSPropertyOp5
 70
     1
102
RTVSPropertyOp6
 70
     1
102
RTVSPropertyOp7
 70
     1
102
RTVSPropertyOp8
 70
     1
102
RTVSPropertyOp9
 70
     1
102
RTVSPropertyOp10
 70
     1
102
RTVSPropertyOp11
 70
     1
102
RTVSPropertyOp12
 70
     1
102
RTVSPropertyOp13
 70
     1
102
RTVSPropertyOp14
 70
     1
102
RTVSPropertyOp15
 70
     1
102
RTVSPropertyOp16
 70
     1
102
RTVSPropertyOp17
 70
     1
102
RTVSPropertyOp18
 70
     1
102
RTVSPropertyOp19
 70
     1
102
RTVSPropertyOp20
 70
     1
102
RTVSPropertyOp21
 70
     1
102
RTVSPropertyOp22
 70
     1
102
RTVSPropertyOp23
 70
     1
102
RTVSPropertyOp24
 70
     1
102
RTVSPropertyOp25
 70
     1
102
RTVSPropertyOp26
 70
     1
102
RTVSPropertyOp27
 70
     1
102
RTVSPropertyOp28
 70
     1
102
RTVSPropertyOp29
 70
     1
102
RTVSPropertyOp30
 70
     1
102
RTVSPropertyOp31
 70
     1
102
RTVSPropertyOp32
 70
     1
102
RTVSPropertyOp33
 70
     1
102
RTVSPropertyOp34
 70
     1
102
RTVSPropertyOp35
 70
     1
102
RTVSPropertyOp36
 70
     1
102
RTVSPropertyOp37
 70
     1
102
RTVSPropertyOp38
 70
     1
102
RTVSPropertyOp39
 70
     1
102
RTVSPropertyOp40
 70
     1
102
RTVSPropertyOp41
 70
     1
102
RTVSPropertyOp42
 70
     1
102
RTVSPropertyOp43
 70
     1
102
RTVSPropertyOp44
 70
     1
102
RTVSPropertyOp45
 70
     1
102
RTVSPropertyOp46
 70
     1
102
RTVSPropertyOp47
 70
     1
102
RTVSPropertyOp48
 70
     1
102
RTVSPropertyOp49
 70
     1
102
RTVSPropertyOp50
 70
     1
102
RTVSPropertyOp51
 70
     0
102
RTVSPropertyOp52
 70
     0
102
RTVSPropertyOp53
 70
     1
102
RTVSPropertyOp54
 70
     1
102
RTVSPropertyOp55
 70
     1
102
RTVSPropertyOp56
 70
     1
102
RTVSPropertyOp57
 70
     1
102
RTVSPost2010Prop28
280
     0
102
RTVSPost2010PropOp28
 70
     1
102
RTVSPost2010Prop29
280
     1
102
RTVSPost2010PropOp29
 70
     1
102
RTVSPost2010Prop30
280
     1
102
RTVSPost2010PropOp30
 70
     1
102
RTVSPost2010Prop31
280
     0
102
RTVSPost2010PropOp31
 70
     1
102
RTVSPost2010Prop32
280
     0
102
RTVSPost2010PropOp32
 70
     1
102
RTVSPost2010Prop33
280
     0
102
RTVSPost2010PropOp33
 70
     1
102
RTVSPost2010Prop34
280
     0
102
RTVSPost2010PropOp34
 70
     1
102
RTVSPost2010Prop35
280
     0
102
RTVSPost2010PropOp35
 70
     1
102
RTVSPost2010Prop36
280
     0
102
RTVSPost2010PropOp36
 70
     1
102
RTVSPost2010Prop37
 90
       50
102
RTVSPost2010PropOp37
 70
     1
102
RTVSPost2010Prop38
140
0.0
102
RTVSPost2010PropOp38
 70
     1
102
RTVSPost2010Prop39
140
1.0
102
RTVSPost2010PropOp39
 70
     1
102
RTVSPost2010Prop40
 90
        0
102
RTVSPost2010PropOp40
 70
     1
102
RTVSPost2010Prop41ColorIndex
 90
       18
102
RTVSPost2010Prop41ColorRGB
 90
        0
102
RTVSPost2010PropOp41
 70
     1
102
RTVSPost2010Prop42
 90
       50
102
RTVSPost2010PropOp42
 70
     1
102
RTVSPost2010Prop43
 90
        3
102
RTVSPost2010PropOp43
 70
     1
102
RTVSPost2010Prop44ColorIndex
 90
        5
102
RTVSPost2010Prop44ColorRGB
 90
      255
102
RTVSPost2010PropOp44
 70
     1
102
RTVSPost2010Prop45
280
     0
102
RTVSPost2010PropOp45
 70
     1
102
RTVSPost2010Prop46
 90
       50
102
RTVSPost2010PropOp46
 70
     1
102
RTVSPost2010Prop47
 90
       50
102
RTVSPost2010PropOp47
 70
     1
102
RTVSPost2010Prop48
 90
       50
102
RTVSPost2010PropOp48
 70
     1
102
RTVSPost2010Prop49
280
     0
102
RTVSPost2010PropOp49
 70
     1
102
RTVSPost2010Prop50
 90
       50
102
RTVSPost2010PropOp50
 70
     1
102
RTVSPost2010Prop51ColorIndex
 90
      256
102
RTVSPost2010Prop51ColorRGB
 90
-16777216
102
RTVSPost2010PropOp51
 70
     0
102
RTVSPost2010Prop52
140
1.0
102
RTVSPost2010PropOp52
 70
     0
102
RTVSPost2010Prop53
 90
        2
102
RTVSPost2010PropOp53
 70
     1
102
RTVSPost2010Prop54
  1
strokes_ogs.tif
102
RTVSPost2010PropOp54
 70
     1
102
RTVSPost2010Prop55
280
     0
102
RTVSPost2010PropOp55
 70
     1
102
RTVSPost2010Prop56
140
1.0
102
RTVSPost2010PropOp56
 70
     1
102
RTVSPost2010Prop57
140
1.0
102
RTVSPost2010PropOp57
 70
     1
  0
XRECORD
  5
258
102
{ACAD_REACTORS
330
257
102
}
330
257
100
AcDbXrecord
280
     1
102
RTVSPropertyOp0
 70
     1
102
RTVSPropertyOp1
 70
     1
102
RTVSPropertyOp2
 70
     1
102
RTVSPropertyOp3
 70
     1
102
RTVSPropertyOp4
 70
     1
102
RTVSPropertyOp5
 70
     1
102
RTVSPropertyOp6
 70
     1
102
RTVSPropertyOp7
 70
     1
102
RTVSPropertyOp8
 70
     1
102
RTVSPropertyOp9
 70
     1
102
RTVSPropertyOp10
 70
     1
102
RTVSPropertyOp11
 70
     1
102
RTVSPropertyOp12
 70
     1
102
RTVSPropertyOp13
 70
     1
102
RTVSPropertyOp14
 70
     1
102
RTVSPropertyOp15
 70
     1
102
RTVSPropertyOp16
 70
     1
102
RTVSPropertyOp17
 70
     1
102
RTVSPropertyOp18
 70
     1
102
RTVSPropertyOp19
 70
     1
102
RTVSPropertyOp20
 70
     1
102
RTVSPropertyOp21
 70
     1
102
RTVSPropertyOp22
 70
     1
102
RTVSPropertyOp23
 70
     1
102
RTVSPropertyOp24
 70
     1
102
RTVSPropertyOp25
 70
     1
102
RTVSPropertyOp26
 70
     1
102
RTVSPropertyOp27
 70
     1
102
RTVSPropertyOp28
 70
     1
102
RTVSPropertyOp29
 70
     1
102
RTVSPropertyOp30
 70
     1
102
RTVSPropertyOp31
 70
     1
102
RTVSPropertyOp32
 70
     1
102
RTVSPropertyOp33
 70
     1
102
RTVSPropertyOp34
 70
     1
102
RTVSPropertyOp35
 70
     1
102
RTVSPropertyOp36
 70
     1
102
RTVSPropertyOp37
 70
     1
102
RTVSPropertyOp38
 70
     1
102
RTVSPropertyOp39
 70
     1
102
RTVSPropertyOp40
 70
     1
102
RTVSPropertyOp41
 70
     1
102
RTVSPropertyOp42
 70
     1
102
RTVSPropertyOp43
 70
     1
102
RTVSPropertyOp44
 70
     1
102
RTVSPropertyOp45
 70
     1
102
RTVSPropertyOp46
 70
     1
102
RTVSPropertyOp47
 70
     1
102
RTVSPropertyOp48
 70
     1
102
RTVSPropertyOp49
 70
     1
102
RTVSPropertyOp50
 70
     1
102
RTVSPropertyOp51
 70
     0
102
RTVSPropertyOp52
 70
     0
102
RTVSPropertyOp53
 70
     1
102
RTVSPropertyOp54
 70
     1
102
RTVSPropertyOp55
 70
     1
102
RTVSPropertyOp56
 70
     1
102
RTVSPropertyOp57
 70
     1
102
RTVSPost2010Prop28
280
     0
102
RTVSPost2010PropOp28
 70
     1
102
RTVSPost2010Prop29
280
     1
102
RTVSPost2010PropOp29
 70
     1
102
RTVSPost2010Prop30
280
     1
102
RTVSPost2010PropOp30
 70
     1
102
RTVSPost2010Prop31
280
     0
102
RTVSPost2010PropOp31
 70
     1
102
RTVSPost2010Prop32
280
     0
102
RTVSPost2010PropOp32
 70
     1
102
RTVSPost2010Prop33
280
     0
102
RTVSPost2010PropOp33
 70
     1
102
RTVSPost2010Prop34
280
     0
102
RTVSPost2010PropOp34
 70
     1
102
RTVSPost2010Prop35
280
     0
102
RTVSPost2010PropOp35
 70
     1
102
RTVSPost2010Prop36
280
     0
102
RTVSPost2010PropOp36
 70
     1
102
RTVSPost2010Prop37
 90
       50
102
RTVSPost2010PropOp37
 70
     1
102
RTVSPost2010Prop38
140
0.0
102
RTVSPost2010PropOp38
 70
     1
102
RTVSPost2010Prop39
140
1.0
102
RTVSPost2010PropOp39
 70
     1
102
RTVSPost2010Prop40
 90
        0
102
RTVSPost2010PropOp40
 70
     1
102
RTVSPost2010Prop41ColorIndex
 90
       18
102
RTVSPost2010Prop41ColorRGB
 90
        0
102
RTVSPost2010PropOp41
 70
     1
102
RTVSPost2010Prop42
 90
       50
102
RTVSPost2010PropOp42
 70
     1
102
RTVSPost2010Prop43
 90
        3
102
RTVSPost2010PropOp43
 70
     1
102
RTVSPost2010Prop44ColorIndex
 90
        5
102
RTVSPost2010Prop44ColorRGB
 90
      255
102
RTVSPost2010PropOp44
 70
     1
102
RTVSPost2010Prop45
280
     0
102
RTVSPost2010PropOp45
 70
     1
102
RTVSPost2010Prop46
 90
       50
102
RTVSPost2010PropOp46
 70
     1
102
RTVSPost2010Prop47
 90
       50
102
RTVSPost2010PropOp47
 70
     1
102
RTVSPost2010Prop48
 90
       50
102
RTVSPost2010PropOp48
 70
     1
102
RTVSPost2010Prop49
280
     0
102
RTVSPost2010PropOp49
 70
     1
102
RTVSPost2010Prop50
 90
       50
102
RTVSPost2010PropOp50
 70
     1
102
RTVSPost2010Prop51ColorIndex
 90
      256
102
RTVSPost2010Prop51ColorRGB
 90
-16777216
102
RTVSPost2010PropOp51
 70
     0
102
RTVSPost2010Prop52
140
1.0
102
RTVSPost2010PropOp52
 70
     0
102
RTVSPost2010Prop53
 90
        2
102
RTVSPost2010PropOp53
 70
     1
102
RTVSPost2010Prop54
  1
strokes_ogs.tif
102
RTVSPost2010PropOp54
 70
     1
102
RTVSPost2010Prop55
280
     0
102
RTVSPost2010PropOp55
 70
     1
102
RTVSPost2010Prop56
140
1.0
102
RTVSPost2010PropOp56
 70
     1
102
RTVSPost2010Prop57
140
1.0
102
RTVSPost2010PropOp57
 70
     1
  0
XRECORD
  5
25A
102
{ACAD_REACTORS
330
259
102
}
330
259
100
AcDbXrecord
280
     1
102
RTVSPropertyOp0
 70
     1
102
RTVSPropertyOp1
 70
     1
102
RTVSPropertyOp2
 70
     1
102
RTVSPropertyOp3
 70
     1
102
RTVSPropertyOp4
 70
     1
102
RTVSPropertyOp5
 70
     1
102
RTVSPropertyOp6
 70
     1
102
RTVSPropertyOp7
 70
     1
102
RTVSPropertyOp8
 70
     1
102
RTVSPropertyOp9
 70
     1
102
RTVSPropertyOp10
 70
     1
102
RTVSPropertyOp11
 70
     1
102
RTVSPropertyOp12
 70
     1
102
RTVSPropertyOp13
 70
     1
102
RTVSPropertyOp14
 70
     1
102
RTVSPropertyOp15
 70
     1
102
RTVSPropertyOp16
 70
     1
102
RTVSPropertyOp17
 70
     1
102
RTVSPropertyOp18
 70
     1
102
RTVSPropertyOp19
 70
     1
102
RTVSPropertyOp20
 70
     1
102
RTVSPropertyOp21
 70
     1
102
RTVSPropertyOp22
 70
     1
102
RTVSPropertyOp23
 70
     1
102
RTVSPropertyOp24
 70
     1
102
RTVSPropertyOp25
 70
     1
102
RTVSPropertyOp26
 70
     1
102
RTVSPropertyOp27
 70
     1
102
RTVSPropertyOp28
 70
     1
102
RTVSPropertyOp29
 70
     1
102
RTVSPropertyOp30
 70
     1
102
RTVSPropertyOp31
 70
     1
102
RTVSPropertyOp32
 70
     1
102
RTVSPropertyOp33
 70
     1
102
RTVSPropertyOp34
 70
     1
102
RTVSPropertyOp35
 70
     1
102
RTVSPropertyOp36
 70
     1
102
RTVSPropertyOp37
 70
     1
102
RTVSPropertyOp38
 70
     1
102
RTVSPropertyOp39
 70
     1
102
RTVSPropertyOp40
 70
     1
102
RTVSPropertyOp41
 70
     1
102
RTVSPropertyOp42
 70
     1
102
RTVSPropertyOp43
 70
     1
102
RTVSPropertyOp44
 70
     1
102
RTVSPropertyOp45
 70
     1
102
RTVSPropertyOp46
 70
     1
102
RTVSPropertyOp47
 70
     1
102
RTVSPropertyOp48
 70
     1
102
RTVSPropertyOp49
 70
     1
102
RTVSPropertyOp50
 70
     1
102
RTVSPropertyOp51
 70
     0
102
RTVSPropertyOp52
 70
     0
102
RTVSPropertyOp53
 70
     1
102
RTVSPropertyOp54
 70
     1
102
RTVSPropertyOp55
 70
     1
102
RTVSPropertyOp56
 70
     1
102
RTVSPropertyOp57
 70
     1
102
RTVSPost2010Prop28
280
     0
102
RTVSPost2010PropOp28
 70
     1
102
RTVSPost2010Prop29
280
     1
102
RTVSPost2010PropOp29
 70
     1
102
RTVSPost2010Prop30
280
     1
102
RTVSPost2010PropOp30
 70
     1
102
RTVSPost2010Prop31
280
     0
102
RTVSPost2010PropOp31
 70
     1
102
RTVSPost2010Prop32
280
     0
102
RTVSPost2010PropOp32
 70
     1
102
RTVSPost2010Prop33
280
     0
102
RTVSPost2010PropOp33
 70
     1
102
RTVSPost2010Prop34
280
     0
102
RTVSPost2010PropOp34
 70
     1
102
RTVSPost2010Prop35
280
     0
102
RTVSPost2010PropOp35
 70
     1
102
RTVSPost2010Prop36
280
     0
102
RTVSPost2010PropOp36
 70
     1
102
RTVSPost2010Prop37
 90
       50
102
RTVSPost2010PropOp37
 70
     1
102
RTVSPost2010Prop38
140
0.0
102
RTVSPost2010PropOp38
 70
     1
102
RTVSPost2010Prop39
140
1.0
102
RTVSPost2010PropOp39
 70
     1
102
RTVSPost2010Prop40
 90
        0
102
RTVSPost2010PropOp40
 70
     1
102
RTVSPost2010Prop41ColorIndex
 90
       18
102
RTVSPost2010Prop41ColorRGB
 90
        0
102
RTVSPost2010PropOp41
 70
     1
102
RTVSPost2010Prop42
 90
       50
102
RTVSPost2010PropOp42
 70
     1
102
RTVSPost2010Prop43
 90
        3
102
RTVSPost2010PropOp43
 70
     1
102
RTVSPost2010Prop44ColorIndex
 90
        5
102
RTVSPost2010Prop44ColorRGB
 90
      255
102
RTVSPost2010PropOp44
 70
     1
102
RTVSPost2010Prop45
280
     0
102
RTVSPost2010PropOp45
 70
     1
102
RTVSPost2010Prop46
 90
       50
102
RTVSPost2010PropOp46
 70
     1
102
RTVSPost2010Prop47
 90
       50
102
RTVSPost2010PropOp47
 70
     1
102
RTVSPost2010Prop48
 90
       50
102
RTVSPost2010PropOp48
 70
     1
102
RTVSPost2010Prop49
280
     0
102
RTVSPost2010PropOp49
 70
     1
102
RTVSPost2010Prop50
 90
       50
102
RTVSPost2010PropOp50
 70
     1
102
RTVSPost2010Prop51ColorIndex
 90
      256
102
RTVSPost2010Prop51ColorRGB
 90
-16777216
102
RTVSPost2010PropOp51
 70
     0
102
RTVSPost2010Prop52
140
1.0
102
RTVSPost2010PropOp52
 70
     0
102
RTVSPost2010Prop53
 90
        2
102
RTVSPost2010PropOp53
 70
     1
102
RTVSPost2010Prop54
  1
strokes_ogs.tif
102
RTVSPost2010PropOp54
 70
     1
102
RTVSPost2010Prop55
280
     0
102
RTVSPost2010PropOp55
 70
     1
102
RTVSPost2010Prop56
140
1.0
102
RTVSPost2010PropOp56
 70
     1
102
RTVSPost2010Prop57
140
1.0
102
RTVSPost2010PropOp57
 70
     1
  0
XRECORD
  5
25C
102
{ACAD_REACTORS
330
25B
102
}
330
25B
100
AcDbXrecord
280
     1
102
RTVSPropertyOp0
 70
     1
102
RTVSPropertyOp1
 70
     1
102
RTVSPropertyOp2
 70
     1
102
RTVSPropertyOp3
 70
     1
102
RTVSPropertyOp4
 70
     1
102
RTVSPropertyOp5
 70
     1
102
RTVSPropertyOp6
 70
     1
102
RTVSPropertyOp7
 70
     1
102
RTVSPropertyOp8
 70
     1
102
RTVSPropertyOp9
 70
     1
102
RTVSPropertyOp10
 70
     1
102
RTVSPropertyOp11
 70
     1
102
RTVSPropertyOp12
 70
     1
102
RTVSPropertyOp13
 70
     1
102
RTVSPropertyOp14
 70
     1
102
RTVSPropertyOp15
 70
     1
102
RTVSPropertyOp16
 70
     1
102
RTVSPropertyOp17
 70
     1
102
RTVSPropertyOp18
 70
     1
102
RTVSPropertyOp19
 70
     1
102
RTVSPropertyOp20
 70
     1
102
RTVSPropertyOp21
 70
     1
102
RTVSPropertyOp22
 70
     1
102
RTVSPropertyOp23
 70
     1
102
RTVSPropertyOp24
 70
     1
102
RTVSPropertyOp25
 70
     1
102
RTVSPropertyOp26
 70
     1
102
RTVSPropertyOp27
 70
     1
102
RTVSPropertyOp28
 70
     1
102
RTVSPropertyOp29
 70
     1
102
RTVSPropertyOp30
 70
     1
102
RTVSPropertyOp31
 70
     1
102
RTVSPropertyOp32
 70
     1
102
RTVSPropertyOp33
 70
     1
102
RTVSPropertyOp34
 70
     1
102
RTVSPropertyOp35
 70
     1
102
RTVSPropertyOp36
 70
     1
102
RTVSPropertyOp37
 70
     1
102
RTVSPropertyOp38
 70
     1
102
RTVSPropertyOp39
 70
     1
102
RTVSPropertyOp40
 70
     1
102
RTVSPropertyOp41
 70
     1
102
RTVSPropertyOp42
 70
     1
102
RTVSPropertyOp43
 70
     1
102
RTVSPropertyOp44
 70
     1
102
RTVSPropertyOp45
 70
     1
102
RTVSPropertyOp46
 70
     1
102
RTVSPropertyOp47
 70
     1
102
RTVSPropertyOp48
 70
     1
102
RTVSPropertyOp49
 70
     1
102
RTVSPropertyOp50
 70
     1
102
RTVSPropertyOp51
 70
     0
102
RTVSPropertyOp52
 70
     0
102
RTVSPropertyOp53
 70
     1
102
RTVSPropertyOp54
 70
     1
102
RTVSPropertyOp55
 70
     1
102
RTVSPropertyOp56
 70
     1
102
RTVSPropertyOp57
 70
     1
102
RTVSPost2010Prop28
280
     0
102
RTVSPost2010PropOp28
 70
     1
102
RTVSPost2010Prop29
280
     1
102
RTVSPost2010PropOp29
 70
     1
102
RTVSPost2010Prop30
280
     1
102
RTVSPost2010PropOp30
 70
     1
102
RTVSPost2010Prop31
280
     0
102
RTVSPost2010PropOp31
 70
     1
102
RTVSPost2010Prop32
280
     0
102
RTVSPost2010PropOp32
 70
     1
102
RTVSPost2010Prop33
280
     0
102
RTVSPost2010PropOp33
 70
     1
102
RTVSPost2010Prop34
280
     0
102
RTVSPost2010PropOp34
 70
     1
102
RTVSPost2010Prop35
280
     0
102
RTVSPost2010PropOp35
 70
     1
102
RTVSPost2010Prop36
280
     0
102
RTVSPost2010PropOp36
 70
     1
102
RTVSPost2010Prop37
 90
       50
102
RTVSPost2010PropOp37
 70
     1
102
RTVSPost2010Prop38
140
0.0
102
RTVSPost2010PropOp38
 70
     1
102
RTVSPost2010Prop39
140
1.0
102
RTVSPost2010PropOp39
 70
     1
102
RTVSPost2010Prop40
 90
        0
102
RTVSPost2010PropOp40
 70
     1
102
RTVSPost2010Prop41ColorIndex
 90
       18
102
RTVSPost2010Prop41ColorRGB
 90
        0
102
RTVSPost2010PropOp41
 70
     1
102
RTVSPost2010Prop42
 90
       50
102
RTVSPost2010PropOp42
 70
     1
102
RTVSPost2010Prop43
 90
        3
102
RTVSPost2010PropOp43
 70
     1
102
RTVSPost2010Prop44ColorIndex
 90
        5
102
RTVSPost2010Prop44ColorRGB
 90
      255
102
RTVSPost2010PropOp44
 70
     1
102
RTVSPost2010Prop45
280
     0
102
RTVSPost2010PropOp45
 70
     1
102
RTVSPost2010Prop46
 90
       50
102
RTVSPost2010PropOp46
 70
     1
102
RTVSPost2010Prop47
 90
       50
102
RTVSPost2010PropOp47
 70
     1
102
RTVSPost2010Prop48
 90
       50
102
RTVSPost2010PropOp48
 70
     1
102
RTVSPost2010Prop49
280
     0
102
RTVSPost2010PropOp49
 70
     1
102
RTVSPost2010Prop50
 90
       50
102
RTVSPost2010PropOp50
 70
     1
102
RTVSPost2010Prop51ColorIndex
 90
      256
102
RTVSPost2010Prop51ColorRGB
 90
-16777216
102
RTVSPost2010PropOp51
 70
     0
102
RTVSPost2010Prop52
140
1.0
102
RTVSPost2010PropOp52
 70
     0
102
RTVSPost2010Prop53
 90
        2
102
RTVSPost2010PropOp53
 70
     1
102
RTVSPost2010Prop54
  1
strokes_ogs.tif
102
RTVSPost2010PropOp54
 70
     1
102
RTVSPost2010Prop55
280
     0
102
RTVSPost2010PropOp55
 70
     1
102
RTVSPost2010Prop56
140
1.0
102
RTVSPost2010PropOp56
 70
     1
102
RTVSPost2010Prop57
140
1.0
102
RTVSPost2010PropOp57
 70
     1
  0
XRECORD
  5
25E
102
{ACAD_REACTORS
330
25D
102
}
330
25D
100
AcDbXrecord
280
     1
102
RTVSPropertyOp0
 70
     1
102
RTVSPropertyOp1
 70
     1
102
RTVSPropertyOp2
 70
     1
102
RTVSPropertyOp3
 70
     1
102
RTVSPropertyOp4
 70
     1
102
RTVSPropertyOp5
 70
     1
102
RTVSPropertyOp6
 70
     1
102
RTVSPropertyOp7
 70
     1
102
RTVSPropertyOp8
 70
     1
102
RTVSPropertyOp9
 70
     1
102
RTVSPropertyOp10
 70
     1
102
RTVSPropertyOp11
 70
     1
102
RTVSPropertyOp12
 70
     1
102
RTVSPropertyOp13
 70
     1
102
RTVSPropertyOp14
 70
     1
102
RTVSPropertyOp15
 70
     1
102
RTVSPropertyOp16
 70
     1
102
RTVSPropertyOp17
 70
     1
102
RTVSPropertyOp18
 70
     1
102
RTVSPropertyOp19
 70
     1
102
RTVSPropertyOp20
 70
     1
102
RTVSPropertyOp21
 70
     1
102
RTVSPropertyOp22
 70
     1
102
RTVSPropertyOp23
 70
     1
102
RTVSPropertyOp24
 70
     1
102
RTVSPropertyOp25
 70
     1
102
RTVSPropertyOp26
 70
     1
102
RTVSPropertyOp27
 70
     1
102
RTVSPropertyOp28
 70
     1
102
RTVSPropertyOp29
 70
     1
102
RTVSPropertyOp30
 70
     1
102
RTVSPropertyOp31
 70
     1
102
RTVSPropertyOp32
 70
     1
102
RTVSPropertyOp33
 70
     1
102
RTVSPropertyOp34
 70
     1
102
RTVSPropertyOp35
 70
     1
102
RTVSPropertyOp36
 70
     1
102
RTVSPropertyOp37
 70
     1
102
RTVSPropertyOp38
 70
     1
102
RTVSPropertyOp39
 70
     1
102
RTVSPropertyOp40
 70
     1
102
RTVSPropertyOp41
 70
     1
102
RTVSPropertyOp42
 70
     1
102
RTVSPropertyOp43
 70
     1
102
RTVSPropertyOp44
 70
     1
102
RTVSPropertyOp45
 70
     1
102
RTVSPropertyOp46
 70
     1
102
RTVSPropertyOp47
 70
     1
102
RTVSPropertyOp48
 70
     1
102
RTVSPropertyOp49
 70
     1
102
RTVSPropertyOp50
 70
     1
102
RTVSPropertyOp51
 70
     0
102
RTVSPropertyOp52
 70
     0
102
RTVSPropertyOp53
 70
     1
102
RTVSPropertyOp54
 70
     1
102
RTVSPropertyOp55
 70
     1
102
RTVSPropertyOp56
 70
     1
102
RTVSPropertyOp57
 70
     1
102
RTVSPost2010Prop28
280
     0
102
RTVSPost2010PropOp28
 70
     1
102
RTVSPost2010Prop29
280
     1
102
RTVSPost2010PropOp29
 70
     1
102
RTVSPost2010Prop30
280
     1
102
RTVSPost2010PropOp30
 70
     1
102
RTVSPost2010Prop31
280
     0
102
RTVSPost2010PropOp31
 70
     1
102
RTVSPost2010Prop32
280
     0
102
RTVSPost2010PropOp32
 70
     1
102
RTVSPost2010Prop33
280
     0
102
RTVSPost2010PropOp33
 70
     1
102
RTVSPost2010Prop34
280
     0
102
RTVSPost2010PropOp34
 70
     1
102
RTVSPost2010Prop35
280
     0
102
RTVSPost2010PropOp35
 70
     1
102
RTVSPost2010Prop36
280
     0
102
RTVSPost2010PropOp36
 70
     1
102
RTVSPost2010Prop37
 90
       50
102
RTVSPost2010PropOp37
 70
     1
102
RTVSPost2010Prop38
140
0.0
102
RTVSPost2010PropOp38
 70
     1
102
RTVSPost2010Prop39
140
1.0
102
RTVSPost2010PropOp39
 70
     1
102
RTVSPost2010Prop40
 90
        0
102
RTVSPost2010PropOp40
 70
     1
102
RTVSPost2010Prop41ColorIndex
 90
       18
102
RTVSPost2010Prop41ColorRGB
 90
        0
102
RTVSPost2010PropOp41
 70
     1
102
RTVSPost2010Prop42
 90
       50
102
RTVSPost2010PropOp42
 70
     1
102
RTVSPost2010Prop43
 90
        3
102
RTVSPost2010PropOp43
 70
     1
102
RTVSPost2010Prop44ColorIndex
 90
        5
102
RTVSPost2010Prop44ColorRGB
 90
      255
102
RTVSPost2010PropOp44
 70
     1
102
RTVSPost2010Prop45
280
     0
102
RTVSPost2010PropOp45
 70
     1
102
RTVSPost2010Prop46
 90
       50
102
RTVSPost2010PropOp46
 70
     1
102
RTVSPost2010Prop47
 90
       50
102
RTVSPost2010PropOp47
 70
     1
102
RTVSPost2010Prop48
 90
       50
102
RTVSPost2010PropOp48
 70
     1
102
RTVSPost2010Prop49
280
     0
102
RTVSPost2010PropOp49
 70
     1
102
RTVSPost2010Prop50
 90
       50
102
RTVSPost2010PropOp50
 70
     1
102
RTVSPost2010Prop51ColorIndex
 90
      256
102
RTVSPost2010Prop51ColorRGB
 90
-16777216
102
RTVSPost2010PropOp51
 70
     0
102
RTVSPost2010Prop52
140
1.0
102
RTVSPost2010PropOp52
 70
     0
102
RTVSPost2010Prop53
 90
        2
102
RTVSPost2010PropOp53
 70
     1
102
RTVSPost2010Prop54
  1
strokes_ogs.tif
102
RTVSPost2010PropOp54
 70
     1
102
RTVSPost2010Prop55
280
     0
102
RTVSPost2010PropOp55
 70
     1
102
RTVSPost2010Prop56
140
1.0
102
RTVSPost2010PropOp56
 70
     1
102
RTVSPost2010Prop57
140
1.0
102
RTVSPost2010PropOp57
 70
     1
  0
XRECORD
  5
264
102
{ACAD_REACTORS
330
263
102
}
330
263
100
AcDbXrecord
280
     1
102
RTVSPropertyOp0
 70
     1
102
RTVSPropertyOp1
 70
     1
102
RTVSPropertyOp2
 70
     1
102
RTVSPropertyOp3
 70
     1
102
RTVSPropertyOp4
 70
     1
102
RTVSPropertyOp5
 70
     1
102
RTVSPropertyOp6
 70
     1
102
RTVSPropertyOp7
 70
     1
102
RTVSPropertyOp8
 70
     1
102
RTVSPropertyOp9
 70
     1
102
RTVSPropertyOp10
 70
     1
102
RTVSPropertyOp11
 70
     1
102
RTVSPropertyOp12
 70
     1
102
RTVSPropertyOp13
 70
     1
102
RTVSPropertyOp14
 70
     1
102
RTVSPropertyOp15
 70
     1
102
RTVSPropertyOp16
 70
     1
102
RTVSPropertyOp17
 70
     1
102
RTVSPropertyOp18
 70
     1
102
RTVSPropertyOp19
 70
     1
102
RTVSPropertyOp20
 70
     1
102
RTVSPropertyOp21
 70
     1
102
RTVSPropertyOp22
 70
     1
102
RTVSPropertyOp23
 70
     1
102
RTVSPropertyOp24
 70
     1
102
RTVSPropertyOp25
 70
     1
102
RTVSPropertyOp26
 70
     1
102
RTVSPropertyOp27
 70
     1
102
RTVSPropertyOp28
 70
     1
102
RTVSPropertyOp29
 70
     1
102
RTVSPropertyOp30
 70
     1
102
RTVSPropertyOp31
 70
     1
102
RTVSPropertyOp32
 70
     1
102
RTVSPropertyOp33
 70
     1
102
RTVSPropertyOp34
 70
     1
102
RTVSPropertyOp35
 70
     1
102
RTVSPropertyOp36
 70
     1
102
RTVSPropertyOp37
 70
     1
102
RTVSPropertyOp38
 70
     1
102
RTVSPropertyOp39
 70
     1
102
RTVSPropertyOp40
 70
     1
102
RTVSPropertyOp41
 70
     1
102
RTVSPropertyOp42
 70
     1
102
RTVSPropertyOp43
 70
     1
102
RTVSPropertyOp44
 70
     1
102
RTVSPropertyOp45
 70
     1
102
RTVSPropertyOp46
 70
     1
102
RTVSPropertyOp47
 70
     1
102
RTVSPropertyOp48
 70
     1
102
RTVSPropertyOp49
 70
     1
102
RTVSPropertyOp50
 70
     1
102
RTVSPropertyOp51
 70
     0
102
RTVSPropertyOp52
 70
     0
102
RTVSPropertyOp53
 70
     1
102
RTVSPropertyOp54
 70
     1
102
RTVSPropertyOp55
 70
     1
102
RTVSPropertyOp56
 70
     1
102
RTVSPropertyOp57
 70
     1
102
RTVSPost2010Prop28
280
     0
102
RTVSPost2010PropOp28
 70
     1
102
RTVSPost2010Prop29
280
     1
102
RTVSPost2010PropOp29
 70
     1
102
RTVSPost2010Prop30
280
     1
102
RTVSPost2010PropOp30
 70
     1
102
RTVSPost2010Prop31
280
     0
102
RTVSPost2010PropOp31
 70
     1
102
RTVSPost2010Prop32
280
     0
102
RTVSPost2010PropOp32
 70
     1
102
RTVSPost2010Prop33
280
     0
102
RTVSPost2010PropOp33
 70
     1
102
RTVSPost2010Prop34
280
     0
102
RTVSPost2010PropOp34
 70
     1
102
RTVSPost2010Prop35
280
     0
102
RTVSPost2010PropOp35
 70
     1
102
RTVSPost2010Prop36
280
     0
102
RTVSPost2010PropOp36
 70
     1
102
RTVSPost2010Prop37
 90
       50
102
RTVSPost2010PropOp37
 70
     1
102
RTVSPost2010Prop38
140
0.0
102
RTVSPost2010PropOp38
 70
     1
102
RTVSPost2010Prop39
140
1.0
102
RTVSPost2010PropOp39
 70
     1
102
RTVSPost2010Prop40
 90
        0
102
RTVSPost2010PropOp40
 70
     1
102
RTVSPost2010Prop41ColorIndex
 90
       18
102
RTVSPost2010Prop41ColorRGB
 90
        0
102
RTVSPost2010PropOp41
 70
     1
102
RTVSPost2010Prop42
 90
       50
102
RTVSPost2010PropOp42
 70
     1
102
RTVSPost2010Prop43
 90
        3
102
RTVSPost2010PropOp43
 70
     1
102
RTVSPost2010Prop44ColorIndex
 90
        5
102
RTVSPost2010Prop44ColorRGB
 90
      255
102
RTVSPost2010PropOp44
 70
     1
102
RTVSPost2010Prop45
280
     0
102
RTVSPost2010PropOp45
 70
     1
102
RTVSPost2010Prop46
 90
       50
102
RTVSPost2010PropOp46
 70
     1
102
RTVSPost2010Prop47
 90
       50
102
RTVSPost2010PropOp47
 70
     1
102
RTVSPost2010Prop48
 90
       50
102
RTVSPost2010PropOp48
 70
     1
102
RTVSPost2010Prop49
280
     0
102
RTVSPost2010PropOp49
 70
     1
102
RTVSPost2010Prop50
 90
       50
102
RTVSPost2010PropOp50
 70
     1
102
RTVSPost2010Prop51ColorIndex
 90
      256
102
RTVSPost2010Prop51ColorRGB
 90
-16777216
102
RTVSPost2010PropOp51
 70
     0
102
RTVSPost2010Prop52
140
1.0
102
RTVSPost2010PropOp52
 70
     0
102
RTVSPost2010Prop53
 90
        2
102
RTVSPost2010PropOp53
 70
     1
102
RTVSPost2010Prop54
  1
strokes_ogs.tif
102
RTVSPost2010PropOp54
 70
     1
102
RTVSPost2010Prop55
280
     0
102
RTVSPost2010PropOp55
 70
     1
102
RTVSPost2010Prop56
140
1.0
102
RTVSPost2010PropOp56
 70
     1
102
RTVSPost2010Prop57
140
1.0
102
RTVSPost2010PropOp57
 70
     1
  0
XRECORD
  5
278
102
{ACAD_REACTORS
330
277
102
}
330
277
100
AcDbXrecord
280
     1
102
RTVSPropertyOp0
 70
     0
102
RTVSPropertyOp1
 70
     0
102
RTVSPropertyOp2
 70
     0
102
RTVSPropertyOp3
 70
     0
102
RTVSPropertyOp4
 70
     0
102
RTVSPropertyOp5
 70
     0
102
RTVSPropertyOp6
 70
     0
102
RTVSPropertyOp7
 70
     0
102
RTVSPropertyOp8
 70
     0
102
RTVSPropertyOp9
 70
     0
102
RTVSPropertyOp10
 70
     0
102
RTVSPropertyOp11
 70
     0
102
RTVSPropertyOp12
 70
     0
102
RTVSPropertyOp13
 70
     0
102
RTVSPropertyOp14
 70
     2
102
RTVSPropertyOp15
 70
     0
102
RTVSPropertyOp16
 70
     0
102
RTVSPropertyOp17
 70
     0
102
RTVSPropertyOp18
 70
     0
102
RTVSPropertyOp19
 70
     0
102
RTVSPropertyOp20
 70
     0
102
RTVSPropertyOp21
 70
     0
102
RTVSPropertyOp22
 70
     0
102
RTVSPropertyOp23
 70
     0
102
RTVSPropertyOp24
 70
     0
102
RTVSPropertyOp25
 70
     0
102
RTVSPropertyOp26
 70
     0
102
RTVSPropertyOp27
 70
     0
102
RTVSPropertyOp28
 70
     0
102
RTVSPropertyOp29
 70
     0
102
RTVSPropertyOp30
 70
     0
102
RTVSPropertyOp31
 70
     0
102
RTVSPropertyOp32
 70
     0
102
RTVSPropertyOp33
 70
     0
102
RTVSPropertyOp34
 70
     0
102
RTVSPropertyOp35
 70
     0
102
RTVSPropertyOp36
 70
     0
102
RTVSPropertyOp37
 70
     0
102
RTVSPropertyOp38
 70
     0
102
RTVSPropertyOp39
 70
     0
102
RTVSPropertyOp40
 70
     0
102
RTVSPropertyOp41
 70
     0
102
RTVSPropertyOp42
 70
     0
102
RTVSPropertyOp43
 70
     0
102
RTVSPropertyOp44
 70
     0
102
RTVSPropertyOp45
 70
     0
102
RTVSPropertyOp46
 70
     0
102
RTVSPropertyOp47
 70
     0
102
RTVSPropertyOp48
 70
     0
102
RTVSPropertyOp49
 70
     0
102
RTVSPropertyOp50
 70
     0
102
RTVSPropertyOp51
 70
     0
102
RTVSPropertyOp52
 70
     0
102
RTVSPropertyOp53
 70
     0
102
RTVSPropertyOp54
 70
     0
102
RTVSPropertyOp55
 70
     0
102
RTVSPropertyOp56
 70
     0
102
RTVSPropertyOp57
 70
     0
102
RTVSPost2010Prop28
280
     0
102
RTVSPost2010PropOp28
 70
     0
102
RTVSPost2010Prop29
280
     1
102
RTVSPost2010PropOp29
 70
     0
102
RTVSPost2010Prop30
280
     1
102
RTVSPost2010PropOp30
 70
     0
102
RTVSPost2010Prop31
280
     0
102
RTVSPost2010PropOp31
 70
     0
102
RTVSPost2010Prop32
280
     0
102
RTVSPost2010PropOp32
 70
     0
102
RTVSPost2010Prop33
280
     0
102
RTVSPost2010PropOp33
 70
     0
102
RTVSPost2010Prop34
280
     0
102
RTVSPost2010PropOp34
 70
     0
102
RTVSPost2010Prop35
280
     0
102
RTVSPost2010PropOp35
 70
     0
102
RTVSPost2010Prop36
280
     0
102
RTVSPost2010PropOp36
 70
     0
102
RTVSPost2010Prop37
 90
       50
102
RTVSPost2010PropOp37
 70
     0
102
RTVSPost2010Prop38
140
0.0
102
RTVSPost2010PropOp38
 70
     0
102
RTVSPost2010Prop39
140
1.0
102
RTVSPost2010PropOp39
 70
     0
102
RTVSPost2010Prop40
 90
        0
102
RTVSPost2010PropOp40
 70
     0
102
RTVSPost2010Prop41ColorIndex
 90
       18
102
RTVSPost2010Prop41ColorRGB
 90
        0
102
RTVSPost2010PropOp41
 70
     0
102
RTVSPost2010Prop42
 90
       50
102
RTVSPost2010PropOp42
 70
     0
102
RTVSPost2010Prop43
 90
        3
102
RTVSPost2010PropOp43
 70
     0
102
RTVSPost2010Prop44ColorIndex
 90
        5
102
RTVSPost2010Prop44ColorRGB
 90
      255
102
RTVSPost2010PropOp44
 70
     0
102
RTVSPost2010Prop45
280
     0
102
RTVSPost2010PropOp45
 70
     0
102
RTVSPost2010Prop46
 90
       50
102
RTVSPost2010PropOp46
 70
     0
102
RTVSPost2010Prop47
 90
       50
102
RTVSPost2010PropOp47
 70
     0
102
RTVSPost2010Prop48
 90
       50
102
RTVSPost2010PropOp48
 70
     0
102
RTVSPost2010Prop49
280
     0
102
RTVSPost2010PropOp49
 70
     0
102
RTVSPost2010Prop50
 90
       50
102
RTVSPost2010PropOp50
 70
     0
102
RTVSPost2010Prop51ColorIndex
 90
      256
102
RTVSPost2010Prop51ColorRGB
 90
-16777216
102
RTVSPost2010PropOp51
 70
     0
102
RTVSPost2010Prop52
140
1.0
102
RTVSPost2010PropOp52
 70
     0
102
RTVSPost2010Prop53
 90
        2
102
RTVSPost2010PropOp53
 70
     0
102
RTVSPost2010Prop54
  1
strokes_ogs.tif
102
RTVSPost2010PropOp54
 70
     0
102
RTVSPost2010Prop55
280
     0
102
RTVSPost2010PropOp55
 70
     0
102
RTVSPost2010Prop56
140
1.0
102
RTVSPost2010PropOp56
 70
     0
102
RTVSPost2010Prop57
140
1.0
102
RTVSPost2010PropOp57
 70
     0
  0
XRECORD
  5
272
102
{ACAD_REACTORS
330
271
102
}
330
271
100
AcDbXrecord
280
     1
102
RTVSPropertyOp0
 70
     1
102
RTVSPropertyOp1
 70
     1
102
RTVSPropertyOp2
 70
     1
102
RTVSPropertyOp3
 70
     1
102
RTVSPropertyOp4
 70
     1
102
RTVSPropertyOp5
 70
     1
102
RTVSPropertyOp6
 70
     1
102
RTVSPropertyOp7
 70
     1
102
RTVSPropertyOp8
 70
     1
102
RTVSPropertyOp9
 70
     1
102
RTVSPropertyOp10
 70
     1
102
RTVSPropertyOp11
 70
     1
102
RTVSPropertyOp12
 70
     1
102
RTVSPropertyOp13
 70
     1
102
RTVSPropertyOp14
 70
     1
102
RTVSPropertyOp15
 70
     1
102
RTVSPropertyOp16
 70
     1
102
RTVSPropertyOp17
 70
     1
102
RTVSPropertyOp18
 70
     1
102
RTVSPropertyOp19
 70
     1
102
RTVSPropertyOp20
 70
     1
102
RTVSPropertyOp21
 70
     1
102
RTVSPropertyOp22
 70
     1
102
RTVSPropertyOp23
 70
     1
102
RTVSPropertyOp24
 70
     1
102
RTVSPropertyOp25
 70
     1
102
RTVSPropertyOp26
 70
     1
102
RTVSPropertyOp27
 70
     1
102
RTVSPropertyOp28
 70
     1
102
RTVSPropertyOp29
 70
     1
102
RTVSPropertyOp30
 70
     1
102
RTVSPropertyOp31
 70
     1
102
RTVSPropertyOp32
 70
     1
102
RTVSPropertyOp33
 70
     1
102
RTVSPropertyOp34
 70
     1
102
RTVSPropertyOp35
 70
     1
102
RTVSPropertyOp36
 70
     1
102
RTVSPropertyOp37
 70
     1
102
RTVSPropertyOp38
 70
     1
102
RTVSPropertyOp39
 70
     1
102
RTVSPropertyOp40
 70
     1
102
RTVSPropertyOp41
 70
     1
102
RTVSPropertyOp42
 70
     1
102
RTVSPropertyOp43
 70
     1
102
RTVSPropertyOp44
 70
     1
102
RTVSPropertyOp45
 70
     1
102
RTVSPropertyOp46
 70
     1
102
RTVSPropertyOp47
 70
     1
102
RTVSPropertyOp48
 70
     1
102
RTVSPropertyOp49
 70
     1
102
RTVSPropertyOp50
 70
     1
102
RTVSPropertyOp51
 70
     0
102
RTVSPropertyOp52
 70
     0
102
RTVSPropertyOp53
 70
     1
102
RTVSPropertyOp54
 70
     1
102
RTVSPropertyOp55
 70
     1
102
RTVSPropertyOp56
 70
     1
102
RTVSPropertyOp57
 70
     1
102
RTVSPost2010Prop28
280
     0
102
RTVSPost2010PropOp28
 70
     1
102
RTVSPost2010Prop29
280
     1
102
RTVSPost2010PropOp29
 70
     1
102
RTVSPost2010Prop30
280
     1
102
RTVSPost2010PropOp30
 70
     1
102
RTVSPost2010Prop31
280
     0
102
RTVSPost2010PropOp31
 70
     1
102
RTVSPost2010Prop32
280
     0
102
RTVSPost2010PropOp32
 70
     1
102
RTVSPost2010Prop33
280
     0
102
RTVSPost2010PropOp33
 70
     1
102
RTVSPost2010Prop34
280
     0
102
RTVSPost2010PropOp34
 70
     1
102
RTVSPost2010Prop35
280
     0
102
RTVSPost2010PropOp35
 70
     1
102
RTVSPost2010Prop36
280
     0
102
RTVSPost2010PropOp36
 70
     1
102
RTVSPost2010Prop37
 90
       50
102
RTVSPost2010PropOp37
 70
     1
102
RTVSPost2010Prop38
140
0.0
102
RTVSPost2010PropOp38
 70
     1
102
RTVSPost2010Prop39
140
1.0
102
RTVSPost2010PropOp39
 70
     1
102
RTVSPost2010Prop40
 90
        0
102
RTVSPost2010PropOp40
 70
     1
102
RTVSPost2010Prop41ColorIndex
 90
       18
102
RTVSPost2010Prop41ColorRGB
 90
        0
102
RTVSPost2010PropOp41
 70
     1
102
RTVSPost2010Prop42
 90
       50
102
RTVSPost2010PropOp42
 70
     1
102
RTVSPost2010Prop43
 90
        3
102
RTVSPost2010PropOp43
 70
     1
102
RTVSPost2010Prop44ColorIndex
 90
        5
102
RTVSPost2010Prop44ColorRGB
 90
      255
102
RTVSPost2010PropOp44
 70
     1
102
RTVSPost2010Prop45
280
     0
102
RTVSPost2010PropOp45
 70
     1
102
RTVSPost2010Prop46
 90
       50
102
RTVSPost2010PropOp46
 70
     1
102
RTVSPost2010Prop47
 90
       50
102
RTVSPost2010PropOp47
 70
     1
102
RTVSPost2010Prop48
 90
       50
102
RTVSPost2010PropOp48
 70
     1
102
RTVSPost2010Prop49
280
     0
102
RTVSPost2010PropOp49
 70
     1
102
RTVSPost2010Prop50
 90
       50
102
RTVSPost2010PropOp50
 70
     1
102
RTVSPost2010Prop51ColorIndex
 90
      256
102
RTVSPost2010Prop51ColorRGB
 90
-16777216
102
RTVSPost2010PropOp51
 70
     0
102
RTVSPost2010Prop52
140
1.0
102
RTVSPost2010PropOp52
 70
     0
102
RTVSPost2010Prop53
 90
        2
102
RTVSPost2010PropOp53
 70
     1
102
RTVSPost2010Prop54
  1
strokes_ogs.tif
102
RTVSPost2010PropOp54
 70
     1
102
RTVSPost2010Prop55
280
     0
102
RTVSPost2010PropOp55
 70
     1
102
RTVSPost2010Prop56
140
1.0
102
RTVSPost2010PropOp56
 70
     1
102
RTVSPost2010Prop57
140
1.0
102
RTVSPost2010PropOp57
 70
     1
  0
XRECORD
  5
27A
102
{ACAD_REACTORS
330
279
102
}
330
279
100
AcDbXrecord
280
     1
102
RTVSPropertyOp0
 70
     0
102
RTVSPropertyOp1
 70
     0
102
RTVSPropertyOp2
 70
     0
102
RTVSPropertyOp3
 70
     0
102
RTVSPropertyOp4
 70
     0
102
RTVSPropertyOp5
 70
     0
102
RTVSPropertyOp6
 70
     0
102
RTVSPropertyOp7
 70
     0
102
RTVSPropertyOp8
 70
     0
102
RTVSPropertyOp9
 70
     0
102
RTVSPropertyOp10
 70
     0
102
RTVSPropertyOp11
 70
     0
102
RTVSPropertyOp12
 70
     0
102
RTVSPropertyOp13
 70
     0
102
RTVSPropertyOp14
 70
     2
102
RTVSPropertyOp15
 70
     0
102
RTVSPropertyOp16
 70
     0
102
RTVSPropertyOp17
 70
     0
102
RTVSPropertyOp18
 70
     0
102
RTVSPropertyOp19
 70
     0
102
RTVSPropertyOp20
 70
     0
102
RTVSPropertyOp21
 70
     0
102
RTVSPropertyOp22
 70
     0
102
RTVSPropertyOp23
 70
     0
102
RTVSPropertyOp24
 70
     0
102
RTVSPropertyOp25
 70
     0
102
RTVSPropertyOp26
 70
     0
102
RTVSPropertyOp27
 70
     0
102
RTVSPropertyOp28
 70
     0
102
RTVSPropertyOp29
 70
     0
102
RTVSPropertyOp30
 70
     0
102
RTVSPropertyOp31
 70
     0
102
RTVSPropertyOp32
 70
     0
102
RTVSPropertyOp33
 70
     0
102
RTVSPropertyOp34
 70
     0
102
RTVSPropertyOp35
 70
     0
102
RTVSPropertyOp36
 70
     0
102
RTVSPropertyOp37
 70
     0
102
RTVSPropertyOp38
 70
     0
102
RTVSPropertyOp39
 70
     0
102
RTVSPropertyOp40
 70
     0
102
RTVSPropertyOp41
 70
     0
102
RTVSPropertyOp42
 70
     0
102
RTVSPropertyOp43
 70
     0
102
RTVSPropertyOp44
 70
     0
102
RTVSPropertyOp45
 70
     0
102
RTVSPropertyOp46
 70
     0
102
RTVSPropertyOp47
 70
     0
102
RTVSPropertyOp48
 70
     0
102
RTVSPropertyOp49
 70
     0
102
RTVSPropertyOp50
 70
     0
102
RTVSPropertyOp51
 70
     0
102
RTVSPropertyOp52
 70
     0
102
RTVSPropertyOp53
 70
     0
102
RTVSPropertyOp54
 70
     0
102
RTVSPropertyOp55
 70
     0
102
RTVSPropertyOp56
 70
     0
102
RTVSPropertyOp57
 70
     0
102
RTVSPost2010Prop28
280
     0
102
RTVSPost2010PropOp28
 70
     0
102
RTVSPost2010Prop29
280
     1
102
RTVSPost2010PropOp29
 70
     0
102
RTVSPost2010Prop30
280
     1
102
RTVSPost2010PropOp30
 70
     0
102
RTVSPost2010Prop31
280
     0
102
RTVSPost2010PropOp31
 70
     0
102
RTVSPost2010Prop32
280
     0
102
RTVSPost2010PropOp32
 70
     0
102
RTVSPost2010Prop33
280
     0
102
RTVSPost2010PropOp33
 70
     0
102
RTVSPost2010Prop34
280
     0
102
RTVSPost2010PropOp34
 70
     0
102
RTVSPost2010Prop35
280
     0
102
RTVSPost2010PropOp35
 70
     0
102
RTVSPost2010Prop36
280
     0
102
RTVSPost2010PropOp36
 70
     0
102
RTVSPost2010Prop37
 90
       50
102
RTVSPost2010PropOp37
 70
     0
102
RTVSPost2010Prop38
140
0.0
102
RTVSPost2010PropOp38
 70
     0
102
RTVSPost2010Prop39
140
1.0
102
RTVSPost2010PropOp39
 70
     0
102
RTVSPost2010Prop40
 90
        0
102
RTVSPost2010PropOp40
 70
     0
102
RTVSPost2010Prop41ColorIndex
 90
       18
102
RTVSPost2010Prop41ColorRGB
 90
        0
102
RTVSPost2010PropOp41
 70
     0
102
RTVSPost2010Prop42
 90
       50
102
RTVSPost2010PropOp42
 70
     0
102
RTVSPost2010Prop43
 90
        3
102
RTVSPost2010PropOp43
 70
     0
102
RTVSPost2010Prop44ColorIndex
 90
        5
102
RTVSPost2010Prop44ColorRGB
 90
      255
102
RTVSPost2010PropOp44
 70
     0
102
RTVSPost2010Prop45
280
     0
102
RTVSPost2010PropOp45
 70
     0
102
RTVSPost2010Prop46
 90
       50
102
RTVSPost2010PropOp46
 70
     0
102
RTVSPost2010Prop47
 90
       50
102
RTVSPost2010PropOp47
 70
     0
102
RTVSPost2010Prop48
 90
       50
102
RTVSPost2010PropOp48
 70
     0
102
RTVSPost2010Prop49
280
     0
102
RTVSPost2010PropOp49
 70
     0
102
RTVSPost2010Prop50
 90
       50
102
RTVSPost2010PropOp50
 70
     0
102
RTVSPost2010Prop51ColorIndex
 90
      256
102
RTVSPost2010Prop51ColorRGB
 90
-16777216
102
RTVSPost2010PropOp51
 70
     0
102
RTVSPost2010Prop52
140
1.0
102
RTVSPost2010PropOp52
 70
     0
102
RTVSPost2010Prop53
 90
        2
102
RTVSPost2010PropOp53
 70
     0
102
RTVSPost2010Prop54
  1
strokes_ogs.tif
102
RTVSPost2010PropOp54
 70
     0
102
RTVSPost2010Prop55
280
     0
102
RTVSPost2010PropOp55
 70
     0
102
RTVSPost2010Prop56
140
1.0
102
RTVSPost2010PropOp56
 70
     0
102
RTVSPost2010Prop57
140
1.0
102
RTVSPost2010PropOp57
 70
     0
  0
XRECORD
  5
268
102
{ACAD_REACTORS
330
267
102
}
330
267
100
AcDbXrecord
280
     1
102
RTVSPropertyOp0
 70
     1
102
RTVSPropertyOp1
 70
     1
102
RTVSPropertyOp2
 70
     1
102
RTVSPropertyOp3
 70
     1
102
RTVSPropertyOp4
 70
     1
102
RTVSPropertyOp5
 70
     1
102
RTVSPropertyOp6
 70
     1
102
RTVSPropertyOp7
 70
     1
102
RTVSPropertyOp8
 70
     1
102
RTVSPropertyOp9
 70
     1
102
RTVSPropertyOp10
 70
     1
102
RTVSPropertyOp11
 70
     1
102
RTVSPropertyOp12
 70
     1
102
RTVSPropertyOp13
 70
     1
102
RTVSPropertyOp14
 70
     1
102
RTVSPropertyOp15
 70
     1
102
RTVSPropertyOp16
 70
     1
102
RTVSPropertyOp17
 70
     1
102
RTVSPropertyOp18
 70
     1
102
RTVSPropertyOp19
 70
     1
102
RTVSPropertyOp20
 70
     1
102
RTVSPropertyOp21
 70
     1
102
RTVSPropertyOp22
 70
     1
102
RTVSPropertyOp23
 70
     1
102
RTVSPropertyOp24
 70
     1
102
RTVSPropertyOp25
 70
     1
102
RTVSPropertyOp26
 70
     1
102
RTVSPropertyOp27
 70
     1
102
RTVSPropertyOp28
 70
     1
102
RTVSPropertyOp29
 70
     1
102
RTVSPropertyOp30
 70
     1
102
RTVSPropertyOp31
 70
     1
102
RTVSPropertyOp32
 70
     1
102
RTVSPropertyOp33
 70
     1
102
RTVSPropertyOp34
 70
     1
102
RTVSPropertyOp35
 70
     1
102
RTVSPropertyOp36
 70
     1
102
RTVSPropertyOp37
 70
     1
102
RTVSPropertyOp38
 70
     1
102
RTVSPropertyOp39
 70
     1
102
RTVSPropertyOp40
 70
     1
102
RTVSPropertyOp41
 70
     1
102
RTVSPropertyOp42
 70
     1
102
RTVSPropertyOp43
 70
     1
102
RTVSPropertyOp44
 70
     1
102
RTVSPropertyOp45
 70
     1
102
RTVSPropertyOp46
 70
     1
102
RTVSPropertyOp47
 70
     1
102
RTVSPropertyOp48
 70
     1
102
RTVSPropertyOp49
 70
     1
102
RTVSPropertyOp50
 70
     1
102
RTVSPropertyOp51
 70
     0
102
RTVSPropertyOp52
 70
     0
102
RTVSPropertyOp53
 70
     1
102
RTVSPropertyOp54
 70
     1
102
RTVSPropertyOp55
 70
     1
102
RTVSPropertyOp56
 70
     1
102
RTVSPropertyOp57
 70
     1
102
RTVSPost2010Prop28
280
     0
102
RTVSPost2010PropOp28
 70
     1
102
RTVSPost2010Prop29
280
     1
102
RTVSPost2010PropOp29
 70
     1
102
RTVSPost2010Prop30
280
     1
102
RTVSPost2010PropOp30
 70
     1
102
RTVSPost2010Prop31
280
     0
102
RTVSPost2010PropOp31
 70
     1
102
RTVSPost2010Prop32
280
     0
102
RTVSPost2010PropOp32
 70
     1
102
RTVSPost2010Prop33
280
     0
102
RTVSPost2010PropOp33
 70
     1
102
RTVSPost2010Prop34
280
     0
102
RTVSPost2010PropOp34
 70
     1
102
RTVSPost2010Prop35
280
     0
102
RTVSPost2010PropOp35
 70
     1
102
RTVSPost2010Prop36
280
     0
102
RTVSPost2010PropOp36
 70
     1
102
RTVSPost2010Prop37
 90
       50
102
RTVSPost2010PropOp37
 70
     1
102
RTVSPost2010Prop38
140
0.0
102
RTVSPost2010PropOp38
 70
     1
102
RTVSPost2010Prop39
140
1.0
102
RTVSPost2010PropOp39
 70
     1
102
RTVSPost2010Prop40
 90
        0
102
RTVSPost2010PropOp40
 70
     1
102
RTVSPost2010Prop41ColorIndex
 90
       18
102
RTVSPost2010Prop41ColorRGB
 90
        0
102
RTVSPost2010PropOp41
 70
     1
102
RTVSPost2010Prop42
 90
       50
102
RTVSPost2010PropOp42
 70
     1
102
RTVSPost2010Prop43
 90
        3
102
RTVSPost2010PropOp43
 70
     1
102
RTVSPost2010Prop44ColorIndex
 90
        5
102
RTVSPost2010Prop44ColorRGB
 90
      255
102
RTVSPost2010PropOp44
 70
     1
102
RTVSPost2010Prop45
280
     0
102
RTVSPost2010PropOp45
 70
     1
102
RTVSPost2010Prop46
 90
       50
102
RTVSPost2010PropOp46
 70
     1
102
RTVSPost2010Prop47
 90
       50
102
RTVSPost2010PropOp47
 70
     1
102
RTVSPost2010Prop48
 90
       50
102
RTVSPost2010PropOp48
 70
     1
102
RTVSPost2010Prop49
280
     0
102
RTVSPost2010PropOp49
 70
     1
102
RTVSPost2010Prop50
 90
       50
102
RTVSPost2010PropOp50
 70
     1
102
RTVSPost2010Prop51ColorIndex
 90
      256
102
RTVSPost2010Prop51ColorRGB
 90
-16777216
102
RTVSPost2010PropOp51
 70
     0
102
RTVSPost2010Prop52
140
1.0
102
RTVSPost2010PropOp52
 70
     0
102
RTVSPost2010Prop53
 90
        2
102
RTVSPost2010PropOp53
 70
     1
102
RTVSPost2010Prop54
  1
strokes_ogs.tif
102
RTVSPost2010PropOp54
 70
     1
102
RTVSPost2010Prop55
280
     0
102
RTVSPost2010PropOp55
 70
     1
102
RTVSPost2010Prop56
140
1.0
102
RTVSPost2010PropOp56
 70
     1
102
RTVSPost2010Prop57
140
1.0
102
RTVSPost2010PropOp57
 70
     1
  0
XRECORD
  5
286
102
{ACAD_REACTORS
330
285
102
}
330
285
100
AcDbXrecord
280
     1
102
RTVSPropertyOp0
 70
     1
102
RTVSPropertyOp1
 70
     1
102
RTVSPropertyOp2
 70
     1
102
RTVSPropertyOp3
 70
     1
102
RTVSPropertyOp4
 70
     1
102
RTVSPropertyOp5
 70
     1
102
RTVSPropertyOp6
 70
     1
102
RTVSPropertyOp7
 70
     1
102
RTVSPropertyOp8
 70
     1
102
RTVSPropertyOp9
 70
     1
102
RTVSPropertyOp10
 70
     1
102
RTVSPropertyOp11
 70
     1
102
RTVSPropertyOp12
 70
     1
102
RTVSPropertyOp13
 70
     1
102
RTVSPropertyOp14
 70
     1
102
RTVSPropertyOp15
 70
     1
102
RTVSPropertyOp16
 70
     1
102
RTVSPropertyOp17
 70
     1
102
RTVSPropertyOp18
 70
     1
102
RTVSPropertyOp19
 70
     1
102
RTVSPropertyOp20
 70
     1
102
RTVSPropertyOp21
 70
     1
102
RTVSPropertyOp22
 70
     1
102
RTVSPropertyOp23
 70
     1
102
RTVSPropertyOp24
 70
     1
102
RTVSPropertyOp25
 70
     1
102
RTVSPropertyOp26
 70
     1
102
RTVSPropertyOp27
 70
     1
102
RTVSPropertyOp28
 70
     1
102
RTVSPropertyOp29
 70
     1
102
RTVSPropertyOp30
 70
     1
102
RTVSPropertyOp31
 70
     1
102
RTVSPropertyOp32
 70
     1
102
RTVSPropertyOp33
 70
     1
102
RTVSPropertyOp34
 70
     1
102
RTVSPropertyOp35
 70
     1
102
RTVSPropertyOp36
 70
     1
102
RTVSPropertyOp37
 70
     1
102
RTVSPropertyOp38
 70
     1
102
RTVSPropertyOp39
 70
     1
102
RTVSPropertyOp40
 70
     1
102
RTVSPropertyOp41
 70
     1
102
RTVSPropertyOp42
 70
     1
102
RTVSPropertyOp43
 70
     1
102
RTVSPropertyOp44
 70
     1
102
RTVSPropertyOp45
 70
     1
102
RTVSPropertyOp46
 70
     1
102
RTVSPropertyOp47
 70
     1
102
RTVSPropertyOp48
 70
     1
102
RTVSPropertyOp49
 70
     1
102
RTVSPropertyOp50
 70
     1
102
RTVSPropertyOp51
 70
     0
102
RTVSPropertyOp52
 70
     0
102
RTVSPropertyOp53
 70
     1
102
RTVSPropertyOp54
 70
     1
102
RTVSPropertyOp55
 70
     1
102
RTVSPropertyOp56
 70
     1
102
RTVSPropertyOp57
 70
     1
102
RTVSPost2010Prop28
280
     0
102
RTVSPost2010PropOp28
 70
     1
102
RTVSPost2010Prop29
280
     1
102
RTVSPost2010PropOp29
 70
     1
102
RTVSPost2010Prop30
280
     1
102
RTVSPost2010PropOp30
 70
     1
102
RTVSPost2010Prop31
280
     0
102
RTVSPost2010PropOp31
 70
     1
102
RTVSPost2010Prop32
280
     0
102
RTVSPost2010PropOp32
 70
     1
102
RTVSPost2010Prop33
280
     0
102
RTVSPost2010PropOp33
 70
     1
102
RTVSPost2010Prop34
280
     0
102
RTVSPost2010PropOp34
 70
     1
102
RTVSPost2010Prop35
280
     0
102
RTVSPost2010PropOp35
 70
     1
102
RTVSPost2010Prop36
280
     0
102
RTVSPost2010PropOp36
 70
     1
102
RTVSPost2010Prop37
 90
       50
102
RTVSPost2010PropOp37
 70
     1
102
RTVSPost2010Prop38
140
0.0
102
RTVSPost2010PropOp38
 70
     1
102
RTVSPost2010Prop39
140
1.0
102
RTVSPost2010PropOp39
 70
     1
102
RTVSPost2010Prop40
 90
        0
102
RTVSPost2010PropOp40
 70
     1
102
RTVSPost2010Prop41ColorIndex
 90
       18
102
RTVSPost2010Prop41ColorRGB
 90
        0
102
RTVSPost2010PropOp41
 70
     1
102
RTVSPost2010Prop42
 90
       50
102
RTVSPost2010PropOp42
 70
     1
102
RTVSPost2010Prop43
 90
        3
102
RTVSPost2010PropOp43
 70
     1
102
RTVSPost2010Prop44ColorIndex
 90
        5
102
RTVSPost2010Prop44ColorRGB
 90
      255
102
RTVSPost2010PropOp44
 70
     1
102
RTVSPost2010Prop45
280
     0
102
RTVSPost2010PropOp45
 70
     1
102
RTVSPost2010Prop46
 90
       50
102
RTVSPost2010PropOp46
 70
     1
102
RTVSPost2010Prop47
 90
       50
102
RTVSPost2010PropOp47
 70
     1
102
RTVSPost2010Prop48
 90
       50
102
RTVSPost2010PropOp48
 70
     1
102
RTVSPost2010Prop49
280
     0
102
RTVSPost2010PropOp49
 70
     1
102
RTVSPost2010Prop50
 90
       50
102
RTVSPost2010PropOp50
 70
     1
102
RTVSPost2010Prop51ColorIndex
 90
      256
102
RTVSPost2010Prop51ColorRGB
 90
-16777216
102
RTVSPost2010PropOp51
 70
     0
102
RTVSPost2010Prop52
140
1.0
102
RTVSPost2010PropOp52
 70
     0
102
RTVSPost2010Prop53
 90
        2
102
RTVSPost2010PropOp53
 70
     1
102
RTVSPost2010Prop54
  1
strokes_ogs.tif
102
RTVSPost2010PropOp54
 70
     1
102
RTVSPost2010Prop55
280
     0
102
RTVSPost2010PropOp55
 70
     1
102
RTVSPost2010Prop56
140
1.0
102
RTVSPost2010PropOp56
 70
     1
102
RTVSPost2010Prop57
140
1.0
102
RTVSPost2010PropOp57
 70
     1
  0
XRECORD
  5
284
102
{ACAD_REACTORS
330
283
102
}
330
283
100
AcDbXrecord
280
     1
102
RTVSPropertyOp0
 70
     1
102
RTVSPropertyOp1
 70
     1
102
RTVSPropertyOp2
 70
     1
102
RTVSPropertyOp3
 70
     1
102
RTVSPropertyOp4
 70
     1
102
RTVSPropertyOp5
 70
     1
102
RTVSPropertyOp6
 70
     1
102
RTVSPropertyOp7
 70
     1
102
RTVSPropertyOp8
 70
     1
102
RTVSPropertyOp9
 70
     1
102
RTVSPropertyOp10
 70
     1
102
RTVSPropertyOp11
 70
     1
102
RTVSPropertyOp12
 70
     1
102
RTVSPropertyOp13
 70
     1
102
RTVSPropertyOp14
 70
     1
102
RTVSPropertyOp15
 70
     1
102
RTVSPropertyOp16
 70
     1
102
RTVSPropertyOp17
 70
     1
102
RTVSPropertyOp18
 70
     1
102
RTVSPropertyOp19
 70
     1
102
RTVSPropertyOp20
 70
     1
102
RTVSPropertyOp21
 70
     1
102
RTVSPropertyOp22
 70
     1
102
RTVSPropertyOp23
 70
     1
102
RTVSPropertyOp24
 70
     1
102
RTVSPropertyOp25
 70
     1
102
RTVSPropertyOp26
 70
     1
102
RTVSPropertyOp27
 70
     1
102
RTVSPropertyOp28
 70
     1
102
RTVSPropertyOp29
 70
     1
102
RTVSPropertyOp30
 70
     1
102
RTVSPropertyOp31
 70
     1
102
RTVSPropertyOp32
 70
     1
102
RTVSPropertyOp33
 70
     1
102
RTVSPropertyOp34
 70
     1
102
RTVSPropertyOp35
 70
     1
102
RTVSPropertyOp36
 70
     1
102
RTVSPropertyOp37
 70
     1
102
RTVSPropertyOp38
 70
     1
102
RTVSPropertyOp39
 70
     1
102
RTVSPropertyOp40
 70
     1
102
RTVSPropertyOp41
 70
     1
102
RTVSPropertyOp42
 70
     1
102
RTVSPropertyOp43
 70
     1
102
RTVSPropertyOp44
 70
     1
102
RTVSPropertyOp45
 70
     1
102
RTVSPropertyOp46
 70
     1
102
RTVSPropertyOp47
 70
     1
102
RTVSPropertyOp48
 70
     1
102
RTVSPropertyOp49
 70
     1
102
RTVSPropertyOp50
 70
     1
102
RTVSPropertyOp51
 70
     0
102
RTVSPropertyOp52
 70
     0
102
RTVSPropertyOp53
 70
     1
102
RTVSPropertyOp54
 70
     1
102
RTVSPropertyOp55
 70
     1
102
RTVSPropertyOp56
 70
     1
102
RTVSPropertyOp57
 70
     1
102
RTVSPost2010Prop28
280
     0
102
RTVSPost2010PropOp28
 70
     1
102
RTVSPost2010Prop29
280
     1
102
RTVSPost2010PropOp29
 70
     1
102
RTVSPost2010Prop30
280
     1
102
RTVSPost2010PropOp30
 70
     1
102
RTVSPost2010Prop31
280
     0
102
RTVSPost2010PropOp31
 70
     1
102
RTVSPost2010Prop32
280
     0
102
RTVSPost2010PropOp32
 70
     1
102
RTVSPost2010Prop33
280
     0
102
RTVSPost2010PropOp33
 70
     1
102
RTVSPost2010Prop34
280
     0
102
RTVSPost2010PropOp34
 70
     1
102
RTVSPost2010Prop35
280
     0
102
RTVSPost2010PropOp35
 70
     1
102
RTVSPost2010Prop36
280
     0
102
RTVSPost2010PropOp36
 70
     1
102
RTVSPost2010Prop37
 90
       50
102
RTVSPost2010PropOp37
 70
     1
102
RTVSPost2010Prop38
140
0.0
102
RTVSPost2010PropOp38
 70
     1
102
RTVSPost2010Prop39
140
1.0
102
RTVSPost2010PropOp39
 70
     1
102
RTVSPost2010Prop40
 90
        0
102
RTVSPost2010PropOp40
 70
     1
102
RTVSPost2010Prop41ColorIndex
 90
       18
102
RTVSPost2010Prop41ColorRGB
 90
        0
102
RTVSPost2010PropOp41
 70
     1
102
RTVSPost2010Prop42
 90
       50
102
RTVSPost2010PropOp42
 70
     1
102
RTVSPost2010Prop43
 90
        3
102
RTVSPost2010PropOp43
 70
     1
102
RTVSPost2010Prop44ColorIndex
 90
        5
102
RTVSPost2010Prop44ColorRGB
 90
      255
102
RTVSPost2010PropOp44
 70
     1
102
RTVSPost2010Prop45
280
     0
102
RTVSPost2010PropOp45
 70
     1
102
RTVSPost2010Prop46
 90
       50
102
RTVSPost2010PropOp46
 70
     1
102
RTVSPost2010Prop47
 90
       50
102
RTVSPost2010PropOp47
 70
     1
102
RTVSPost2010Prop48
 90
       50
102
RTVSPost2010PropOp48
 70
     1
102
RTVSPost2010Prop49
280
     0
102
RTVSPost2010PropOp49
 70
     1
102
RTVSPost2010Prop50
 90
       50
102
RTVSPost2010PropOp50
 70
     1
102
RTVSPost2010Prop51ColorIndex
 90
      256
102
RTVSPost2010Prop51ColorRGB
 90
-16777216
102
RTVSPost2010PropOp51
 70
     0
102
RTVSPost2010Prop52
140
1.0
102
RTVSPost2010PropOp52
 70
     0
102
RTVSPost2010Prop53
 90
        2
102
RTVSPost2010PropOp53
 70
     1
102
RTVSPost2010Prop54
  1
strokes_ogs.tif
102
RTVSPost2010PropOp54
 70
     1
102
RTVSPost2010Prop55
280
     0
102
RTVSPost2010PropOp55
 70
     1
102
RTVSPost2010Prop56
140
1.0
102
RTVSPost2010PropOp56
 70
     1
102
RTVSPost2010Prop57
140
1.0
102
RTVSPost2010PropOp57
 70
     1
  0
XRECORD
  5
27E
102
{ACAD_REACTORS
330
27D
102
}
330
27D
100
AcDbXrecord
280
     1
102
RTVSPropertyOp0
 70
     1
102
RTVSPropertyOp1
 70
     1
102
RTVSPropertyOp2
 70
     1
102
RTVSPropertyOp3
 70
     1
102
RTVSPropertyOp4
 70
     1
102
RTVSPropertyOp5
 70
     1
102
RTVSPropertyOp6
 70
     1
102
RTVSPropertyOp7
 70
     1
102
RTVSPropertyOp8
 70
     1
102
RTVSPropertyOp9
 70
     1
102
RTVSPropertyOp10
 70
     1
102
RTVSPropertyOp11
 70
     1
102
RTVSPropertyOp12
 70
     1
102
RTVSPropertyOp13
 70
     1
102
RTVSPropertyOp14
 70
     1
102
RTVSPropertyOp15
 70
     1
102
RTVSPropertyOp16
 70
     1
102
RTVSPropertyOp17
 70
     1
102
RTVSPropertyOp18
 70
     1
102
RTVSPropertyOp19
 70
     1
102
RTVSPropertyOp20
 70
     1
102
RTVSPropertyOp21
 70
     1
102
RTVSPropertyOp22
 70
     1
102
RTVSPropertyOp23
 70
     1
102
RTVSPropertyOp24
 70
     1
102
RTVSPropertyOp25
 70
     1
102
RTVSPropertyOp26
 70
     1
102
RTVSPropertyOp27
 70
     1
102
RTVSPropertyOp28
 70
     1
102
RTVSPropertyOp29
 70
     1
102
RTVSPropertyOp30
 70
     1
102
RTVSPropertyOp31
 70
     1
102
RTVSPropertyOp32
 70
     1
102
RTVSPropertyOp33
 70
     1
102
RTVSPropertyOp34
 70
     1
102
RTVSPropertyOp35
 70
     1
102
RTVSPropertyOp36
 70
     1
102
RTVSPropertyOp37
 70
     1
102
RTVSPropertyOp38
 70
     1
102
RTVSPropertyOp39
 70
     1
102
RTVSPropertyOp40
 70
     1
102
RTVSPropertyOp41
 70
     1
102
RTVSPropertyOp42
 70
     1
102
RTVSPropertyOp43
 70
     1
102
RTVSPropertyOp44
 70
     1
102
RTVSPropertyOp45
 70
     1
102
RTVSPropertyOp46
 70
     1
102
RTVSPropertyOp47
 70
     1
102
RTVSPropertyOp48
 70
     1
102
RTVSPropertyOp49
 70
     1
102
RTVSPropertyOp50
 70
     1
102
RTVSPropertyOp51
 70
     0
102
RTVSPropertyOp52
 70
     0
102
RTVSPropertyOp53
 70
     1
102
RTVSPropertyOp54
 70
     1
102
RTVSPropertyOp55
 70
     1
102
RTVSPropertyOp56
 70
     1
102
RTVSPropertyOp57
 70
     1
102
RTVSPost2010Prop28
280
     0
102
RTVSPost2010PropOp28
 70
     1
102
RTVSPost2010Prop29
280
     1
102
RTVSPost2010PropOp29
 70
     1
102
RTVSPost2010Prop30
280
     1
102
RTVSPost2010PropOp30
 70
     1
102
RTVSPost2010Prop31
280
     0
102
RTVSPost2010PropOp31
 70
     1
102
RTVSPost2010Prop32
280
     0
102
RTVSPost2010PropOp32
 70
     1
102
RTVSPost2010Prop33
280
     0
102
RTVSPost2010PropOp33
 70
     1
102
RTVSPost2010Prop34
280
     0
102
RTVSPost2010PropOp34
 70
     1
102
RTVSPost2010Prop35
280
     0
102
RTVSPost2010PropOp35
 70
     1
102
RTVSPost2010Prop36
280
     0
102
RTVSPost2010PropOp36
 70
     1
102
RTVSPost2010Prop37
 90
       50
102
RTVSPost2010PropOp37
 70
     1
102
RTVSPost2010Prop38
140
0.0
102
RTVSPost2010PropOp38
 70
     1
102
RTVSPost2010Prop39
140
1.0
102
RTVSPost2010PropOp39
 70
     1
102
RTVSPost2010Prop40
 90
        0
102
RTVSPost2010PropOp40
 70
     1
102
RTVSPost2010Prop41ColorIndex
 90
       18
102
RTVSPost2010Prop41ColorRGB
 90
        0
102
RTVSPost2010PropOp41
 70
     1
102
RTVSPost2010Prop42
 90
       50
102
RTVSPost2010PropOp42
 70
     1
102
RTVSPost2010Prop43
 90
        3
102
RTVSPost2010PropOp43
 70
     1
102
RTVSPost2010Prop44ColorIndex
 90
        5
102
RTVSPost2010Prop44ColorRGB
 90
      255
102
RTVSPost2010PropOp44
 70
     1
102
RTVSPost2010Prop45
280
     0
102
RTVSPost2010PropOp45
 70
     1
102
RTVSPost2010Prop46
 90
       50
102
RTVSPost2010PropOp46
 70
     1
102
RTVSPost2010Prop47
 90
       50
102
RTVSPost2010PropOp47
 70
     1
102
RTVSPost2010Prop48
 90
       50
102
RTVSPost2010PropOp48
 70
     1
102
RTVSPost2010Prop49
280
     0
102
RTVSPost2010PropOp49
 70
     1
102
RTVSPost2010Prop50
 90
       50
102
RTVSPost2010PropOp50
 70
     1
102
RTVSPost2010Prop51ColorIndex
 90
      256
102
RTVSPost2010Prop51ColorRGB
 90
-16777216
102
RTVSPost2010PropOp51
 70
     0
102
RTVSPost2010Prop52
140
1.0
102
RTVSPost2010PropOp52
 70
     0
102
RTVSPost2010Prop53
 90
        2
102
RTVSPost2010PropOp53
 70
     1
102
RTVSPost2010Prop54
  1
strokes_ogs.tif
102
RTVSPost2010PropOp54
 70
     1
102
RTVSPost2010Prop55
280
     0
102
RTVSPost2010PropOp55
 70
     1
102
RTVSPost2010Prop56
140
1.0
102
RTVSPost2010PropOp56
 70
     1
102
RTVSPost2010Prop57
140
1.0
102
RTVSPost2010PropOp57
 70
     1
  0
XRECORD
  5
280
102
{ACAD_REACTORS
330
27F
102
}
330
27F
100
AcDbXrecord
280
     1
102
RTVSPropertyOp0
 70
     1
102
RTVSPropertyOp1
 70
     1
102
RTVSPropertyOp2
 70
     1
102
RTVSPropertyOp3
 70
     1
102
RTVSPropertyOp4
 70
     1
102
RTVSPropertyOp5
 70
     1
102
RTVSPropertyOp6
 70
     1
102
RTVSPropertyOp7
 70
     1
102
RTVSPropertyOp8
 70
     1
102
RTVSPropertyOp9
 70
     1
102
RTVSPropertyOp10
 70
     1
102
RTVSPropertyOp11
 70
     1
102
RTVSPropertyOp12
 70
     1
102
RTVSPropertyOp13
 70
     1
102
RTVSPropertyOp14
 70
     1
102
RTVSPropertyOp15
 70
     1
102
RTVSPropertyOp16
 70
     1
102
RTVSPropertyOp17
 70
     1
102
RTVSPropertyOp18
 70
     1
102
RTVSPropertyOp19
 70
     1
102
RTVSPropertyOp20
 70
     1
102
RTVSPropertyOp21
 70
     1
102
RTVSPropertyOp22
 70
     1
102
RTVSPropertyOp23
 70
     1
102
RTVSPropertyOp24
 70
     1
102
RTVSPropertyOp25
 70
     1
102
RTVSPropertyOp26
 70
     1
102
RTVSPropertyOp27
 70
     1
102
RTVSPropertyOp28
 70
     1
102
RTVSPropertyOp29
 70
     1
102
RTVSPropertyOp30
 70
     1
102
RTVSPropertyOp31
 70
     1
102
RTVSPropertyOp32
 70
     1
102
RTVSPropertyOp33
 70
     1
102
RTVSPropertyOp34
 70
     1
102
RTVSPropertyOp35
 70
     1
102
RTVSPropertyOp36
 70
     1
102
RTVSPropertyOp37
 70
     1
102
RTVSPropertyOp38
 70
     1
102
RTVSPropertyOp39
 70
     1
102
RTVSPropertyOp40
 70
     1
102
RTVSPropertyOp41
 70
     1
102
RTVSPropertyOp42
 70
     1
102
RTVSPropertyOp43
 70
     1
102
RTVSPropertyOp44
 70
     1
102
RTVSPropertyOp45
 70
     1
102
RTVSPropertyOp46
 70
     1
102
RTVSPropertyOp47
 70
     1
102
RTVSPropertyOp48
 70
     1
102
RTVSPropertyOp49
 70
     1
102
RTVSPropertyOp50
 70
     1
102
RTVSPropertyOp51
 70
     0
102
RTVSPropertyOp52
 70
     0
102
RTVSPropertyOp53
 70
     1
102
RTVSPropertyOp54
 70
     1
102
RTVSPropertyOp55
 70
     1
102
RTVSPropertyOp56
 70
     1
102
RTVSPropertyOp57
 70
     1
102
RTVSPost2010Prop28
280
     0
102
RTVSPost2010PropOp28
 70
     1
102
RTVSPost2010Prop29
280
     1
102
RTVSPost2010PropOp29
 70
     1
102
RTVSPost2010Prop30
280
     1
102
RTVSPost2010PropOp30
 70
     1
102
RTVSPost2010Prop31
280
     0
102
RTVSPost2010PropOp31
 70
     1
102
RTVSPost2010Prop32
280
     0
102
RTVSPost2010PropOp32
 70
     1
102
RTVSPost2010Prop33
280
     0
102
RTVSPost2010PropOp33
 70
     1
102
RTVSPost2010Prop34
280
     0
102
RTVSPost2010PropOp34
 70
     1
102
RTVSPost2010Prop35
280
     0
102
RTVSPost2010PropOp35
 70
     1
102
RTVSPost2010Prop36
280
     0
102
RTVSPost2010PropOp36
 70
     1
102
RTVSPost2010Prop37
 90
       50
102
RTVSPost2010PropOp37
 70
     1
102
RTVSPost2010Prop38
140
0.0
102
RTVSPost2010PropOp38
 70
     1
102
RTVSPost2010Prop39
140
1.0
102
RTVSPost2010PropOp39
 70
     1
102
RTVSPost2010Prop40
 90
        0
102
RTVSPost2010PropOp40
 70
     1
102
RTVSPost2010Prop41ColorIndex
 90
       18
102
RTVSPost2010Prop41ColorRGB
 90
        0
102
RTVSPost2010PropOp41
 70
     1
102
RTVSPost2010Prop42
 90
       50
102
RTVSPost2010PropOp42
 70
     1
102
RTVSPost2010Prop43
 90
        3
102
RTVSPost2010PropOp43
 70
     1
102
RTVSPost2010Prop44ColorIndex
 90
        5
102
RTVSPost2010Prop44ColorRGB
 90
      255
102
RTVSPost2010PropOp44
 70
     1
102
RTVSPost2010Prop45
280
     0
102
RTVSPost2010PropOp45
 70
     1
102
RTVSPost2010Prop46
 90
       50
102
RTVSPost2010PropOp46
 70
     1
102
RTVSPost2010Prop47
 90
       50
102
RTVSPost2010PropOp47
 70
     1
102
RTVSPost2010Prop48
 90
       50
102
RTVSPost2010PropOp48
 70
     1
102
RTVSPost2010Prop49
280
     0
102
RTVSPost2010PropOp49
 70
     1
102
RTVSPost2010Prop50
 90
       50
102
RTVSPost2010PropOp50
 70
     1
102
RTVSPost2010Prop51ColorIndex
 90
      256
102
RTVSPost2010Prop51ColorRGB
 90
-16777216
102
RTVSPost2010PropOp51
 70
     0
102
RTVSPost2010Prop52
140
1.0
102
RTVSPost2010PropOp52
 70
     0
102
RTVSPost2010Prop53
 90
        2
102
RTVSPost2010PropOp53
 70
     1
102
RTVSPost2010Prop54
  1
strokes_ogs.tif
102
RTVSPost2010PropOp54
 70
     1
102
RTVSPost2010Prop55
280
     0
102
RTVSPost2010PropOp55
 70
     1
102
RTVSPost2010Prop56
140
1.0
102
RTVSPost2010PropOp56
 70
     1
102
RTVSPost2010Prop57
140
1.0
102
RTVSPost2010PropOp57
 70
     1
  0
XRECORD
  5
270
102
{ACAD_REACTORS
330
26F
102
}
330
26F
100
AcDbXrecord
280
     1
102
RTVSPropertyOp0
 70
     1
102
RTVSPropertyOp1
 70
     1
102
RTVSPropertyOp2
 70
     1
102
RTVSPropertyOp3
 70
     1
102
RTVSPropertyOp4
 70
     1
102
RTVSPropertyOp5
 70
     1
102
RTVSPropertyOp6
 70
     1
102
RTVSPropertyOp7
 70
     1
102
RTVSPropertyOp8
 70
     1
102
RTVSPropertyOp9
 70
     1
102
RTVSPropertyOp10
 70
     1
102
RTVSPropertyOp11
 70
     1
102
RTVSPropertyOp12
 70
     1
102
RTVSPropertyOp13
 70
     1
102
RTVSPropertyOp14
 70
     1
102
RTVSPropertyOp15
 70
     1
102
RTVSPropertyOp16
 70
     1
102
RTVSPropertyOp17
 70
     1
102
RTVSPropertyOp18
 70
     1
102
RTVSPropertyOp19
 70
     1
102
RTVSPropertyOp20
 70
     1
102
RTVSPropertyOp21
 70
     1
102
RTVSPropertyOp22
 70
     1
102
RTVSPropertyOp23
 70
     1
102
RTVSPropertyOp24
 70
     1
102
RTVSPropertyOp25
 70
     1
102
RTVSPropertyOp26
 70
     1
102
RTVSPropertyOp27
 70
     1
102
RTVSPropertyOp28
 70
     1
102
RTVSPropertyOp29
 70
     1
102
RTVSPropertyOp30
 70
     1
102
RTVSPropertyOp31
 70
     1
102
RTVSPropertyOp32
 70
     1
102
RTVSPropertyOp33
 70
     1
102
RTVSPropertyOp34
 70
     1
102
RTVSPropertyOp35
 70
     1
102
RTVSPropertyOp36
 70
     1
102
RTVSPropertyOp37
 70
     1
102
RTVSPropertyOp38
 70
     1
102
RTVSPropertyOp39
 70
     1
102
RTVSPropertyOp40
 70
     1
102
RTVSPropertyOp41
 70
     1
102
RTVSPropertyOp42
 70
     1
102
RTVSPropertyOp43
 70
     1
102
RTVSPropertyOp44
 70
     1
102
RTVSPropertyOp45
 70
     1
102
RTVSPropertyOp46
 70
     1
102
RTVSPropertyOp47
 70
     1
102
RTVSPropertyOp48
 70
     1
102
RTVSPropertyOp49
 70
     1
102
RTVSPropertyOp50
 70
     1
102
RTVSPropertyOp51
 70
     0
102
RTVSPropertyOp52
 70
     0
102
RTVSPropertyOp53
 70
     1
102
RTVSPropertyOp54
 70
     1
102
RTVSPropertyOp55
 70
     1
102
RTVSPropertyOp56
 70
     1
102
RTVSPropertyOp57
 70
     1
102
RTVSPost2010Prop28
280
     0
102
RTVSPost2010PropOp28
 70
     1
102
RTVSPost2010Prop29
280
     1
102
RTVSPost2010PropOp29
 70
     1
102
RTVSPost2010Prop30
280
     1
102
RTVSPost2010PropOp30
 70
     1
102
RTVSPost2010Prop31
280
     0
102
RTVSPost2010PropOp31
 70
     1
102
RTVSPost2010Prop32
280
     0
102
RTVSPost2010PropOp32
 70
     1
102
RTVSPost2010Prop33
280
     0
102
RTVSPost2010PropOp33
 70
     1
102
RTVSPost2010Prop34
280
     0
102
RTVSPost2010PropOp34
 70
     1
102
RTVSPost2010Prop35
280
     0
102
RTVSPost2010PropOp35
 70
     1
102
RTVSPost2010Prop36
280
     0
102
RTVSPost2010PropOp36
 70
     1
102
RTVSPost2010Prop37
 90
       50
102
RTVSPost2010PropOp37
 70
     1
102
RTVSPost2010Prop38
140
0.0
102
RTVSPost2010PropOp38
 70
     1
102
RTVSPost2010Prop39
140
1.0
102
RTVSPost2010PropOp39
 70
     1
102
RTVSPost2010Prop40
 90
        0
102
RTVSPost2010PropOp40
 70
     1
102
RTVSPost2010Prop41ColorIndex
 90
       18
102
RTVSPost2010Prop41ColorRGB
 90
        0
102
RTVSPost2010PropOp41
 70
     1
102
RTVSPost2010Prop42
 90
       50
102
RTVSPost2010PropOp42
 70
     1
102
RTVSPost2010Prop43
 90
        3
102
RTVSPost2010PropOp43
 70
     1
102
RTVSPost2010Prop44ColorIndex
 90
        5
102
RTVSPost2010Prop44ColorRGB
 90
      255
102
RTVSPost2010PropOp44
 70
     1
102
RTVSPost2010Prop45
280
     0
102
RTVSPost2010PropOp45
 70
     1
102
RTVSPost2010Prop46
 90
       50
102
RTVSPost2010PropOp46
 70
     1
102
RTVSPost2010Prop47
 90
       50
102
RTVSPost2010PropOp47
 70
     1
102
RTVSPost2010Prop48
 90
       50
102
RTVSPost2010PropOp48
 70
     1
102
RTVSPost2010Prop49
280
     0
102
RTVSPost2010PropOp49
 70
     1
102
RTVSPost2010Prop50
 90
       50
102
RTVSPost2010PropOp50
 70
     1
102
RTVSPost2010Prop51ColorIndex
 90
      256
102
RTVSPost2010Prop51ColorRGB
 90
-16777216
102
RTVSPost2010PropOp51
 70
     0
102
RTVSPost2010Prop52
140
1.0
102
RTVSPost2010PropOp52
 70
     0
102
RTVSPost2010Prop53
 90
        2
102
RTVSPost2010PropOp53
 70
     1
102
RTVSPost2010Prop54
  1
strokes_ogs.tif
102
RTVSPost2010PropOp54
 70
     1
102
RTVSPost2010Prop55
280
     0
102
RTVSPost2010PropOp55
 70
     1
102
RTVSPost2010Prop56
140
1.0
102
RTVSPost2010PropOp56
 70
     1
102
RTVSPost2010Prop57
140
1.0
102
RTVSPost2010PropOp57
 70
     1
  0
XRECORD
  5
262
102
{ACAD_REACTORS
330
261
102
}
330
261
100
AcDbXrecord
280
     1
102
RTVSPropertyOp0
 70
     1
102
RTVSPropertyOp1
 70
     1
102
RTVSPropertyOp2
 70
     1
102
RTVSPropertyOp3
 70
     1
102
RTVSPropertyOp4
 70
     1
102
RTVSPropertyOp5
 70
     1
102
RTVSPropertyOp6
 70
     1
102
RTVSPropertyOp7
 70
     1
102
RTVSPropertyOp8
 70
     1
102
RTVSPropertyOp9
 70
     1
102
RTVSPropertyOp10
 70
     1
102
RTVSPropertyOp11
 70
     1
102
RTVSPropertyOp12
 70
     1
102
RTVSPropertyOp13
 70
     1
102
RTVSPropertyOp14
 70
     1
102
RTVSPropertyOp15
 70
     1
102
RTVSPropertyOp16
 70
     1
102
RTVSPropertyOp17
 70
     1
102
RTVSPropertyOp18
 70
     1
102
RTVSPropertyOp19
 70
     1
102
RTVSPropertyOp20
 70
     1
102
RTVSPropertyOp21
 70
     1
102
RTVSPropertyOp22
 70
     1
102
RTVSPropertyOp23
 70
     1
102
RTVSPropertyOp24
 70
     1
102
RTVSPropertyOp25
 70
     1
102
RTVSPropertyOp26
 70
     1
102
RTVSPropertyOp27
 70
     1
102
RTVSPropertyOp28
 70
     1
102
RTVSPropertyOp29
 70
     1
102
RTVSPropertyOp30
 70
     1
102
RTVSPropertyOp31
 70
     1
102
RTVSPropertyOp32
 70
     1
102
RTVSPropertyOp33
 70
     1
102
RTVSPropertyOp34
 70
     1
102
RTVSPropertyOp35
 70
     1
102
RTVSPropertyOp36
 70
     1
102
RTVSPropertyOp37
 70
     1
102
RTVSPropertyOp38
 70
     1
102
RTVSPropertyOp39
 70
     1
102
RTVSPropertyOp40
 70
     1
102
RTVSPropertyOp41
 70
     1
102
RTVSPropertyOp42
 70
     1
102
RTVSPropertyOp43
 70
     1
102
RTVSPropertyOp44
 70
     1
102
RTVSPropertyOp45
 70
     1
102
RTVSPropertyOp46
 70
     1
102
RTVSPropertyOp47
 70
     1
102
RTVSPropertyOp48
 70
     1
102
RTVSPropertyOp49
 70
     1
102
RTVSPropertyOp50
 70
     1
102
RTVSPropertyOp51
 70
     0
102
RTVSPropertyOp52
 70
     0
102
RTVSPropertyOp53
 70
     1
102
RTVSPropertyOp54
 70
     1
102
RTVSPropertyOp55
 70
     1
102
RTVSPropertyOp56
 70
     1
102
RTVSPropertyOp57
 70
     1
102
RTVSPost2010Prop28
280
     0
102
RTVSPost2010PropOp28
 70
     1
102
RTVSPost2010Prop29
280
     1
102
RTVSPost2010PropOp29
 70
     1
102
RTVSPost2010Prop30
280
     1
102
RTVSPost2010PropOp30
 70
     1
102
RTVSPost2010Prop31
280
     0
102
RTVSPost2010PropOp31
 70
     1
102
RTVSPost2010Prop32
280
     0
102
RTVSPost2010PropOp32
 70
     1
102
RTVSPost2010Prop33
280
     0
102
RTVSPost2010PropOp33
 70
     1
102
RTVSPost2010Prop34
280
     0
102
RTVSPost2010PropOp34
 70
     1
102
RTVSPost2010Prop35
280
     0
102
RTVSPost2010PropOp35
 70
     1
102
RTVSPost2010Prop36
280
     0
102
RTVSPost2010PropOp36
 70
     1
102
RTVSPost2010Prop37
 90
       50
102
RTVSPost2010PropOp37
 70
     1
102
RTVSPost2010Prop38
140
0.0
102
RTVSPost2010PropOp38
 70
     1
102
RTVSPost2010Prop39
140
1.0
102
RTVSPost2010PropOp39
 70
     1
102
RTVSPost2010Prop40
 90
        0
102
RTVSPost2010PropOp40
 70
     1
102
RTVSPost2010Prop41ColorIndex
 90
       18
102
RTVSPost2010Prop41ColorRGB
 90
        0
102
RTVSPost2010PropOp41
 70
     1
102
RTVSPost2010Prop42
 90
       50
102
RTVSPost2010PropOp42
 70
     1
102
RTVSPost2010Prop43
 90
        3
102
RTVSPost2010PropOp43
 70
     1
102
RTVSPost2010Prop44ColorIndex
 90
        5
102
RTVSPost2010Prop44ColorRGB
 90
      255
102
RTVSPost2010PropOp44
 70
     1
102
RTVSPost2010Prop45
280
     0
102
RTVSPost2010PropOp45
 70
     1
102
RTVSPost2010Prop46
 90
       50
102
RTVSPost2010PropOp46
 70
     1
102
RTVSPost2010Prop47
 90
       50
102
RTVSPost2010PropOp47
 70
     1
102
RTVSPost2010Prop48
 90
       50
102
RTVSPost2010PropOp48
 70
     1
102
RTVSPost2010Prop49
280
     0
102
RTVSPost2010PropOp49
 70
     1
102
RTVSPost2010Prop50
 90
       50
102
RTVSPost2010PropOp50
 70
     1
102
RTVSPost2010Prop51ColorIndex
 90
      256
102
RTVSPost2010Prop51ColorRGB
 90
-16777216
102
RTVSPost2010PropOp51
 70
     0
102
RTVSPost2010Prop52
140
1.0
102
RTVSPost2010PropOp52
 70
     0
102
RTVSPost2010Prop53
 90
        2
102
RTVSPost2010PropOp53
 70
     1
102
RTVSPost2010Prop54
  1
strokes_ogs.tif
102
RTVSPost2010PropOp54
 70
     1
102
RTVSPost2010Prop55
280
     0
102
RTVSPost2010PropOp55
 70
     1
102
RTVSPost2010Prop56
140
1.0
102
RTVSPost2010PropOp56
 70
     1
102
RTVSPost2010Prop57
140
1.0
102
RTVSPost2010PropOp57
 70
     1
  0
XRECORD
  5
282
102
{ACAD_REACTORS
330
281
102
}
330
281
100
AcDbXrecord
280
     1
102
RTVSPropertyOp0
 70
     1
102
RTVSPropertyOp1
 70
     1
102
RTVSPropertyOp2
 70
     1
102
RTVSPropertyOp3
 70
     1
102
RTVSPropertyOp4
 70
     1
102
RTVSPropertyOp5
 70
     1
102
RTVSPropertyOp6
 70
     1
102
RTVSPropertyOp7
 70
     1
102
RTVSPropertyOp8
 70
     1
102
RTVSPropertyOp9
 70
     1
102
RTVSPropertyOp10
 70
     1
102
RTVSPropertyOp11
 70
     1
102
RTVSPropertyOp12
 70
     1
102
RTVSPropertyOp13
 70
     1
102
RTVSPropertyOp14
 70
     1
102
RTVSPropertyOp15
 70
     1
102
RTVSPropertyOp16
 70
     1
102
RTVSPropertyOp17
 70
     1
102
RTVSPropertyOp18
 70
     1
102
RTVSPropertyOp19
 70
     1
102
RTVSPropertyOp20
 70
     1
102
RTVSPropertyOp21
 70
     1
102
RTVSPropertyOp22
 70
     1
102
RTVSPropertyOp23
 70
     1
102
RTVSPropertyOp24
 70
     1
102
RTVSPropertyOp25
 70
     1
102
RTVSPropertyOp26
 70
     1
102
RTVSPropertyOp27
 70
     1
102
RTVSPropertyOp28
 70
     1
102
RTVSPropertyOp29
 70
     1
102
RTVSPropertyOp30
 70
     1
102
RTVSPropertyOp31
 70
     1
102
RTVSPropertyOp32
 70
     1
102
RTVSPropertyOp33
 70
     1
102
RTVSPropertyOp34
 70
     1
102
RTVSPropertyOp35
 70
     1
102
RTVSPropertyOp36
 70
     1
102
RTVSPropertyOp37
 70
     1
102
RTVSPropertyOp38
 70
     1
102
RTVSPropertyOp39
 70
     1
102
RTVSPropertyOp40
 70
     1
102
RTVSPropertyOp41
 70
     1
102
RTVSPropertyOp42
 70
     1
102
RTVSPropertyOp43
 70
     1
102
RTVSPropertyOp44
 70
     1
102
RTVSPropertyOp45
 70
     1
102
RTVSPropertyOp46
 70
     1
102
RTVSPropertyOp47
 70
     1
102
RTVSPropertyOp48
 70
     1
102
RTVSPropertyOp49
 70
     1
102
RTVSPropertyOp50
 70
     1
102
RTVSPropertyOp51
 70
     0
102
RTVSPropertyOp52
 70
     0
102
RTVSPropertyOp53
 70
     1
102
RTVSPropertyOp54
 70
     1
102
RTVSPropertyOp55
 70
     1
102
RTVSPropertyOp56
 70
     1
102
RTVSPropertyOp57
 70
     1
102
RTVSPost2010Prop28
280
     0
102
RTVSPost2010PropOp28
 70
     1
102
RTVSPost2010Prop29
280
     1
102
RTVSPost2010PropOp29
 70
     1
102
RTVSPost2010Prop30
280
     1
102
RTVSPost2010PropOp30
 70
     1
102
RTVSPost2010Prop31
280
     0
102
RTVSPost2010PropOp31
 70
     1
102
RTVSPost2010Prop32
280
     0
102
RTVSPost2010PropOp32
 70
     1
102
RTVSPost2010Prop33
280
     0
102
RTVSPost2010PropOp33
 70
     1
102
RTVSPost2010Prop34
280
     0
102
RTVSPost2010PropOp34
 70
     1
102
RTVSPost2010Prop35
280
     0
102
RTVSPost2010PropOp35
 70
     1
102
RTVSPost2010Prop36
280
     0
102
RTVSPost2010PropOp36
 70
     1
102
RTVSPost2010Prop37
 90
       50
102
RTVSPost2010PropOp37
 70
     1
102
RTVSPost2010Prop38
140
0.0
102
RTVSPost2010PropOp38
 70
     1
102
RTVSPost2010Prop39
140
1.0
102
RTVSPost2010PropOp39
 70
     1
102
RTVSPost2010Prop40
 90
        0
102
RTVSPost2010PropOp40
 70
     1
102
RTVSPost2010Prop41ColorIndex
 90
       18
102
RTVSPost2010Prop41ColorRGB
 90
        0
102
RTVSPost2010PropOp41
 70
     1
102
RTVSPost2010Prop42
 90
       50
102
RTVSPost2010PropOp42
 70
     1
102
RTVSPost2010Prop43
 90
        3
102
RTVSPost2010PropOp43
 70
     1
102
RTVSPost2010Prop44ColorIndex
 90
        5
102
RTVSPost2010Prop44ColorRGB
 90
      255
102
RTVSPost2010PropOp44
 70
     1
102
RTVSPost2010Prop45
280
     0
102
RTVSPost2010PropOp45
 70
     1
102
RTVSPost2010Prop46
 90
       50
102
RTVSPost2010PropOp46
 70
     1
102
RTVSPost2010Prop47
 90
       50
102
RTVSPost2010PropOp47
 70
     1
102
RTVSPost2010Prop48
 90
       50
102
RTVSPost2010PropOp48
 70
     1
102
RTVSPost2010Prop49
280
     0
102
RTVSPost2010PropOp49
 70
     1
102
RTVSPost2010Prop50
 90
       50
102
RTVSPost2010PropOp50
 70
     1
102
RTVSPost2010Prop51ColorIndex
 90
      256
102
RTVSPost2010Prop51ColorRGB
 90
-16777216
102
RTVSPost2010PropOp51
 70
     0
102
RTVSPost2010Prop52
140
1.0
102
RTVSPost2010PropOp52
 70
     0
102
RTVSPost2010Prop53
 90
        2
102
RTVSPost2010PropOp53
 70
     1
102
RTVSPost2010Prop54
  1
strokes_ogs.tif
102
RTVSPost2010PropOp54
 70
     1
102
RTVSPost2010Prop55
280
     0
102
RTVSPost2010PropOp55
 70
     1
102
RTVSPost2010Prop56
140
1.0
102
RTVSPost2010PropOp56
 70
     1
102
RTVSPost2010Prop57
140
1.0
102
RTVSPost2010PropOp57
 70
     1
  0
ENDSEC
  0
EOF
