  0
SECTION
  2
HEADER
  9
$ACADVER
  1
AC1018
  9
$ACADMAINTVER
 70
     0
  9
$DWGCODEPAGE
  3
ANSI_936
  9
$INSBASE
 10
0.0
 20
0.0
 30
0.0
  9
$EXTMIN
 10
0.0
 20
-0.0000000000000782
 30
0.0
  9
$EXTMAX
 10
1499.999999999997
 20
685.0
 30
0.0
  9
$LIMMIN
 10
0.0
 20
0.0
  9
$LIMMAX
 10
12.0
 20
9.0
  9
$ORTHOMODE
 70
     0
  9
$REGENMODE
 70
     1
  9
$FILLMODE
 70
     1
  9
$QTEXTMODE
 70
     0
  9
$MIRRTEXT
 70
     1
  9
$LTSCALE
 40
1.0
  9
$ATTMODE
 70
     1
  9
$TEXTSIZE
 40
0.2
  9
$TRACEWID
 40
0.05
  9
$TEXTSTYLE
  7
Standard
  9
$CLAYER
  8
TERRACE$EB1739 Miroir
  9
$CELTYPE
  6
ByLayer
  9
$CECOLOR
 62
   256
  9
$CELTSCALE
 40
1.0
  9
$DISPSILH
 70
     0
  9
$DIMSCALE
 40
1.0
  9
$DIMASZ
 40
0.18
  9
$DIMEXO
 40
0.0625
  9
$DIMDLI
 40
0.38
  9
$DIMRND
 40
0.0
  9
$DIMDLE
 40
0.0
  9
$DIMEXE
 40
0.18
  9
$DIMTP
 40
0.0
  9
$DIMTM
 40
0.0
  9
$DIMTXT
 40
0.18
  9
$DIMCEN
 40
0.09
  9
$DIMTSZ
 40
0.0
  9
$DIMTOL
 70
     0
  9
$DIMLIM
 70
     0
  9
$DIMTIH
 70
     1
  9
$DIMTOH
 70
     1
  9
$DIMSE1
 70
     0
  9
$DIMSE2
 70
     0
  9
$DIMTAD
 70
     0
  9
$DIMZIN
 70
     0
  9
$DIMBLK
  1

  9
$DIMASO
 70
     1
  9
$DIMSHO
 70
     1
  9
$DIMPOST
  1

  9
$DIMAPOST
  1

  9
$DIMALT
 70
     0
  9
$DIMALTD
 70
     2
  9
$DIMALTF
 40
25.4
  9
$DIMLFAC
 40
1.0
  9
$DIMTOFL
 70
     0
  9
$DIMTVP
 40
0.0
  9
$DIMTIX
 70
     0
  9
$DIMSOXD
 70
     0
  9
$DIMSAH
 70
     0
  9
$DIMBLK1
  1

  9
$DIMBLK2
  1

  9
$DIMSTYLE
  2
Standard
  9
$DIMCLRD
 70
     0
  9
$DIMCLRE
 70
     0
  9
$DIMCLRT
 70
     0
  9
$DIMTFAC
 40
1.0
  9
$DIMGAP
 40
0.09
  9
$DIMJUST
 70
     0
  9
$DIMSD1
 70
     0
  9
$DIMSD2
 70
     0
  9
$DIMTOLJ
 70
     1
  9
$DIMTZIN
 70
     0
  9
$DIMALTZ
 70
     0
  9
$DIMALTTZ
 70
     0
  9
$DIMUPT
 70
     0
  9
$DIMDEC
 70
     4
  9
$DIMTDEC
 70
     4
  9
$DIMALTU
 70
     2
  9
$DIMALTTD
 70
     2
  9
$DIMTXSTY
  7
Standard
  9
$DIMAUNIT
 70
     0
  9
$DIMADEC
 70
     0
  9
$DIMALTRND
 40
0.0
  9
$DIMAZIN
 70
     0
  9
$DIMDSEP
 70
    46
  9
$DIMATFIT
 70
     3
  9
$DIMFRAC
 70
     0
  9
$DIMLDRBLK
  1

  9
$DIMLUNIT
 70
     2
  9
$DIMLWD
 70
    -2
  9
$DIMLWE
 70
    -2
  9
$DIMTMOVE
 70
     2
  9
$LUNITS
 70
     2
  9
$LUPREC
 70
     3
  9
$SKETCHINC
 40
0.1
  9
$FILLETRAD
 40
0.5
  9
$AUNITS
 70
     0
  9
$AUPREC
 70
     0
  9
$MENU
  1
.
  9
$ELEVATION
 40
0.0
  9
$PELEVATION
 40
0.0
  9
$THICKNESS
 40
0.0
  9
$LIMCHECK
 70
     0
  9
$CHAMFERA
 40
0.5
  9
$CHAMFERB
 40
0.5
  9
$CHAMFERC
 40
1.0
  9
$CHAMFERD
 40
0.0
  9
$SKPOLY
 70
     0
  9
$TDCREATE
 40
2458210.930892569
  9
$TDUCREATE
 40
2458210.597559236
  9
$TDUPDATE
 40
2458210.930892604
  9
$TDUUPDATE
 40
2458210.597559271
  9
$TDINDWG
 40
0.0000000116
  9
$TDUSRTIMER
 40
0.0000000116
  9
$USRTIMER
 70
     1
  9
$ANGBASE
 50
0.0
  9
$ANGDIR
 70
     0
  9
$PDMODE
 70
     0
  9
$PDSIZE
 40
0.0
  9
$PLINEWID
 40
0.0
  9
$SPLFRAME
 70
     0
  9
$SPLINETYPE
 70
     6
  9
$SPLINESEGS
 70
     8
  9
$HANDSEED
  5
1E1
  9
$SURFTAB1
 70
     6
  9
$SURFTAB2
 70
     6
  9
$SURFTYPE
 70
     6
  9
$SURFU
 70
     6
  9
$SURFV
 70
     6
  9
$UCSBASE
  2

  9
$UCSNAME
  2

  9
$UCSORG
 10
0.0
 20
0.0
 30
0.0
  9
$UCSXDIR
 10
1.0
 20
0.0
 30
0.0
  9
$UCSYDIR
 10
0.0
 20
1.0
 30
0.0
  9
$UCSORTHOREF
  2

  9
$UCSORTHOVIEW
 70
     0
  9
$UCSORGTOP
 10
0.0
 20
0.0
 30
0.0
  9
$UCSORGBOTTOM
 10
0.0
 20
0.0
 30
0.0
  9
$UCSORGLEFT
 10
0.0
 20
0.0
 30
0.0
  9
$UCSORGRIGHT
 10
0.0
 20
0.0
 30
0.0
  9
$UCSORGFRONT
 10
0.0
 20
0.0
 30
0.0
  9
$UCSORGBACK
 10
0.0
 20
0.0
 30
0.0
  9
$PUCSBASE
  2

  9
$PUCSNAME
  2

  9
$PUCSORG
 10
0.0
 20
0.0
 30
0.0
  9
$PUCSXDIR
 10
1.0
 20
0.0
 30
0.0
  9
$PUCSYDIR
 10
0.0
 20
1.0
 30
0.0
  9
$PUCSORTHOREF
  2

  9
$PUCSORTHOVIEW
 70
     0
  9
$PUCSORGTOP
 10
0.0
 20
0.0
 30
0.0
  9
$PUCSORGBOTTOM
 10
0.0
 20
0.0
 30
0.0
  9
$PUCSORGLEFT
 10
0.0
 20
0.0
 30
0.0
  9
$PUCSORGRIGHT
 10
0.0
 20
0.0
 30
0.0
  9
$PUCSORGFRONT
 10
0.0
 20
0.0
 30
0.0
  9
$PUCSORGBACK
 10
0.0
 20
0.0
 30
0.0
  9
$USERI1
 70
     0
  9
$USERI2
 70
     0
  9
$USERI3
 70
     0
  9
$USERI4
 70
     0
  9
$USERI5
 70
     0
  9
$USERR1
 40
0.0
  9
$USERR2
 40
0.0
  9
$USERR3
 40
0.0
  9
$USERR4
 40
0.0
  9
$USERR5
 40
0.0
  9
$WORLDVIEW
 70
     1
  9
$SHADEDGE
 70
     3
  9
$SHADEDIF
 70
    70
  9
$TILEMODE
 70
     1
  9
$MAXACTVP
 70
    64
  9
$PINSBASE
 10
0.0
 20
0.0
 30
0.0
  9
$PLIMCHECK
 70
     0
  9
$PEXTMIN
 10
1.000000000000000E+20
 20
1.000000000000000E+20
 30
1.000000000000000E+20
  9
$PEXTMAX
 10
-1.000000000000000E+20
 20
-1.000000000000000E+20
 30
-1.000000000000000E+20
  9
$PLIMMIN
 10
0.0
 20
0.0
  9
$PLIMMAX
 10
12.0
 20
9.0
  9
$UNITMODE
 70
     0
  9
$VISRETAIN
 70
     1
  9
$PLINEGEN
 70
     0
  9
$PSLTSCALE
 70
     1
  9
$TREEDEPTH
 70
  3020
  9
$CMLSTYLE
  2
Standard
  9
$CMLJUST
 70
     0
  9
$CMLSCALE
 40
1.0
  9
$PROXYGRAPHICS
 70
     1
  9
$MEASUREMENT
 70
     0
  9
$CELWEIGHT
370
    -1
  9
$ENDCAPS
280
     0
  9
$JOINSTYLE
280
     0
  9
$LWDISPLAY
290
     0
  9
$INSUNITS
 70
     4
  9
$HYPERLINKBASE
  1

  9
$STYLESHEET
  1

  9
$XEDIT
290
     1
  9
$CEPSNTYPE
380
     0
  9
$PSTYLEMODE
290
     1
  9
$FINGERPRINTGUID
  2
{41418573-68FE-4B38-A4F5-142F8331ECEB}
  9
$VERSIONGUID
  2
{FAEB1C32-E019-11D5-929B-00C0DF256EC4}
  9
$EXTNAMES
290
     1
  9
$PSVPSCALE
 40
0.0
  9
$OLESTARTUP
290
     0
  9
$SORTENTS
280
   127
  9
$INDEXCTL
280
     0
  9
$HIDETEXT
280
     1
  9
$XCLIPFRAME
290
     0
  9
$HALOGAP
280
     0
  9
$OBSCOLOR
 70
   257
  9
$OBSLTYPE
280
     0
  9
$INTERSECTIONDISPLAY
280
     0
  9
$INTERSECTIONCOLOR
 70
   257
  9
$DIMASSOC
280
     2
  9
$PROJECTNAME
  1

  0
ENDSEC
  0
SECTION
  2
CLASSES
  0
CLASS
  1
ACDBDICTIONARYWDFLT
  2
AcDbDictionaryWithDefault
  3
ObjectDBX Classes
 90
        0
 91
        4
280
     0
281
     0
  0
CLASS
  1
VISUALSTYLE
  2
AcDbVisualStyle
  3
ObjectDBX Classes
 90
     4095
 91
        4
280
     0
281
     0
  0
CLASS
  1
MATERIAL
  2
AcDbMaterial
  3
ObjectDBX Classes
 90
     1153
 91
        4
280
     0
281
     0
  0
CLASS
  1
SCALE
  2
AcDbScale
  3
ObjectDBX Classes
 90
     1153
 91
        4
280
     0
281
     0
  0
CLASS
  1
SUN
  2
AcDbSun
  3
SCENEOE
 90
     1153
 91
        4
280
     0
281
     0
  0
CLASS
  1
DICTIONARYVAR
  2
AcDbDictionaryVar
  3
ObjectDBX Classes
 90
        0
 91
        4
280
     0
281
     0
  0
ENDSEC
  0
SECTION
  2
TABLES
  0
TABLE
  2
VPORT
  5
8
330
0
100
AcDbSymbolTable
 70
     1
  0
VPORT
  5
29
330
8
100
AcDbSymbolTableRecord
100
AcDbViewportTableRecord
  2
*Active
 70
     0
 10
0.0
 20
0.0
 11
1.0
 21
1.0
 12
749.9999999999986
 22
342.4999999999999
 13
0.0
 23
0.0
 14
0.5
 24
0.5
 15
0.5
 25
0.5
 16
0.0
 26
0.0
 36
1.0
 17
0.0
 27
0.0
 37
0.0
 40
698.7
 41
2.189781021897806
 42
50.0
 43
0.0
 44
0.0
 50
0.0
 51
0.0
 71
     0
 72
   100
 73
     1
 74
     3
 75
     0
 76
     0
 77
     0
 78
     0
281
     0
 65
     1
110
0.0
120
0.0
130
0.0
111
1.0
121
0.0
131
0.0
112
0.0
122
1.0
132
0.0
 79
     0
146
0.0
  0
ENDTAB
  0
TABLE
  2
LTYPE
  5
5
330
0
100
AcDbSymbolTable
 70
     1
  0
LTYPE
  5
14
330
5
100
AcDbSymbolTableRecord
100
AcDbLinetypeTableRecord
  2
ByBlock
 70
     0
  3

 72
    65
 73
     0
 40
0.0
  0
LTYPE
  5
15
330
5
100
AcDbSymbolTableRecord
100
AcDbLinetypeTableRecord
  2
ByLayer
 70
     0
  3

 72
    65
 73
     0
 40
0.0
  0
LTYPE
  5
16
330
5
100
AcDbSymbolTableRecord
100
AcDbLinetypeTableRecord
  2
Continuous
 70
     0
  3
Solid line
 72
    65
 73
     0
 40
0.0
  0
ENDTAB
  0
TABLE
  2
LAYER
  5
2
330
0
100
AcDbSymbolTable
 70
     2
  0
LAYER
  5
10
330
2
100
AcDbSymbolTableRecord
100
AcDbLayerTableRecord
  2
0
 70
     0
 62
     7
  6
Continuous
370
    -3
390
F
  0
LAYER
  5
62
330
2
100
AcDbSymbolTableRecord
100
AcDbLayerTableRecord
  2
TERRACE$EB1739 Miroir
 70
     0
 62
   200
420
 12533759
  6
Continuous
370
    -3
390
F
  0
ENDTAB
  0
TABLE
  2
STYLE
  5
3
330
0
100
AcDbSymbolTable
 70
     1
  0
STYLE
  5
11
330
3
100
AcDbSymbolTableRecord
100
AcDbTextStyleTableRecord
  2
Standard
 70
     0
 40
0.0
 41
1.0
 50
0.0
 71
     0
 42
0.2
  3
txt
  4

  0
ENDTAB
  0
TABLE
  2
VIEW
  5
6
330
0
100
AcDbSymbolTable
 70
     0
  0
ENDTAB
  0
TABLE
  2
UCS
  5
7
330
0
100
AcDbSymbolTable
 70
     0
  0
ENDTAB
  0
TABLE
  2
APPID
  5
9
330
0
100
AcDbSymbolTable
 70
     1
  0
APPID
  5
12
330
9
100
AcDbSymbolTableRecord
100
AcDbRegAppTableRecord
  2
ACAD
 70
     0
  0
ENDTAB
  0
TABLE
  2
DIMSTYLE
  5
A
330
0
100
AcDbSymbolTable
 70
     1
100
AcDbDimStyleTable
  0
DIMSTYLE
105
27
330
A
100
AcDbSymbolTableRecord
100
AcDbDimStyleTableRecord
  2
Standard
 70
     0
178
     0
340
11
  0
ENDTAB
  0
TABLE
  2
BLOCK_RECORD
  5
1
330
0
100
AcDbSymbolTable
 70
     1
  0
BLOCK_RECORD
  5
1F
330
1
100
AcDbSymbolTableRecord
100
AcDbBlockTableRecord
  2
*Model_Space
340
22
  0
BLOCK_RECORD
  5
1B
330
1
100
AcDbSymbolTableRecord
100
AcDbBlockTableRecord
  2
*Paper_Space
340
1E
  0
BLOCK_RECORD
  5
23
330
1
100
AcDbSymbolTableRecord
100
AcDbBlockTableRecord
  2
*Paper_Space0
340
26
  0
ENDTAB
  0
ENDSEC
  0
SECTION
  2
BLOCKS
  0
BLOCK
  5
20
330
1F
100
AcDbEntity
  8
0
100
AcDbBlockBegin
  2
*Model_Space
 70
     0
 10
0.0
 20
0.0
 30
0.0
  3
*Model_Space
  1
*Model_Space
  0
ENDBLK
  5
21
330
1F
100
AcDbEntity
  8
0
100
AcDbBlockEnd
  0
BLOCK
  5
1C
330
1B
100
AcDbEntity
 67
     1
  8
0
100
AcDbBlockBegin
  2
*Paper_Space
 70
     0
 10
0.0
 20
0.0
 30
0.0
  3
*Paper_Space
  1
*Paper_Space
  0
ENDBLK
  5
1D
330
1B
100
AcDbEntity
 67
     1
  8
0
100
AcDbBlockEnd
  0
BLOCK
  5
24
330
23
100
AcDbEntity
  8
0
100
AcDbBlockBegin
  2
*Paper_Space0
 70
     0
 10
0.0
 20
0.0
 30
0.0
  3
*Paper_Space0
  1
*Paper_Space0
  0
ENDBLK
  5
25
330
23
100
AcDbEntity
  8
0
100
AcDbBlockEnd
  0
ENDSEC
  0
SECTION
  2
ENTITIES
  0
CIRCLE
  5
63
330
1F
100
AcDbEntity
  8
TERRACE$EB1739 Miroir
100
AcDbCircle
 10
749.9999973782134
 20
65.99992512864003
 30
0.0
 40
44.94185508748107
  0
LINE
  5
64
330
1F
100
AcDbEntity
  8
TERRACE$EB1739 Miroir
100
AcDbLine
 10
750.0
 20
12.0
 30
0.0
 11
1099.999999999995
 21
12.0
 31
0.0
  0
LINE
  5
65
330
1F
100
AcDbEntity
  8
TERRACE$EB1739 Miroir
100
AcDbLine
 10
749.9999999999991
 20
12.0
 30
0.0
 11
400.0000000000045
 21
12.0
 31
0.0
  0
LINE
  5
66
330
1F
100
AcDbEntity
  8
TERRACE$EB1739 Miroir
100
AcDbLine
 10
750.000000058636
 20
120.0
 30
0.0
 11
849.7000000256239
 21
120.0
 31
0.0
  0
LINE
  5
67
330
1F
100
AcDbEntity
  8
TERRACE$EB1739 Miroir
100
AcDbLine
 10
750.0
 20
120.0
 30
0.0
 11
650.2999999743724
 21
120.0
 31
0.0
  0
LINE
  5
68
330
1F
100
AcDbEntity
  8
TERRACE$EB1739 Miroir
100
AcDbLine
 10
1269.999999999991
 20
12.29999999999927
 30
0.0
 11
1269.999999999991
 21
119.6999999999971
 31
0.0
  0
LINE
  5
69
330
1F
100
AcDbEntity
  8
TERRACE$EB1739 Miroir
100
AcDbLine
 10
1269.699999999991
 20
12.29999999999927
 30
0.0
 11
1269.699999999991
 21
119.6999999999971
 31
0.0
  0
LINE
  5
6A
330
1F
100
AcDbEntity
  8
TERRACE$EB1739 Miroir
100
AcDbLine
 10
1257.999999999991
 20
12.29999999999927
 30
0.0
 11
1257.999999999991
 21
119.6999999999971
 31
0.0
  0
LINE
  5
6B
330
1F
100
AcDbEntity
  8
TERRACE$EB1739 Miroir
100
AcDbLine
 10
1258.299999999991
 20
12.29999999999927
 30
0.0
 11
1258.299999999991
 21
119.6999999999971
 31
0.0
  0
LINE
  5
6C
330
1F
100
AcDbEntity
  8
TERRACE$EB1739 Miroir
100
AcDbLine
 10
1258.299999999991
 20
12.29999999999927
 30
0.0
 11
1269.699999999991
 21
12.29999999999927
 31
0.0
  0
LINE
  5
6D
330
1F
100
AcDbEntity
  8
TERRACE$EB1739 Miroir
100
AcDbLine
 10
1258.299999999991
 20
119.6999999999971
 30
0.0
 11
1269.699999999991
 21
119.6999999999971
 31
0.0
  0
LINE
  5
6E
330
1F
100
AcDbEntity
  8
TERRACE$EB1739 Miroir
100
AcDbLine
 10
1269.699999999991
 20
12.0
 30
0.0
 11
1269.699999999991
 21
12.29999999999927
 31
0.0
  0
ARC
  5
6F
330
1F
100
AcDbEntity
  8
TERRACE$EB1739 Miroir
100
AcDbCircle
 10
1269.699999999995
 20
12.29999999999683
 30
0.0
 40
0.299999999995793
100
AcDbArc
 50
280.3758643115336
 51
0.0000000004668206
  0
LINE
  5
70
330
1F
100
AcDbEntity
  8
TERRACE$EB1739 Miroir
100
AcDbLine
 10
1269.999999999991
 20
12.29999999999927
 30
0.0
 11
1269.699999999991
 21
12.29999999999927
 31
0.0
  0
LINE
  5
71
330
1F
100
AcDbEntity
  8
TERRACE$EB1739 Miroir
100
AcDbLine
 10
1258.005008389466
 20
12.30000000000655
 30
0.0
 11
1258.299999999991
 21
12.29999999999927
 31
0.0
  0
ARC
  5
72
330
1F
100
AcDbEntity
  8
TERRACE$EB1739 Miroir
100
AcDbCircle
 10
1258.29999999999
 20
12.29999999999683
 30
0.0
 40
0.2999999999989552
100
AcDbArc
 50
179.9999999995332
 51
259.6204827628936
  0
LINE
  5
73
330
1F
100
AcDbEntity
  8
TERRACE$EB1739 Miroir
100
AcDbLine
 10
1258.299999999991
 20
12.29999999999927
 30
0.0
 11
1258.299999999991
 21
12.0
 31
0.0
  0
LINE
  5
74
330
1F
100
AcDbEntity
  8
TERRACE$EB1739 Miroir
100
AcDbLine
 10
1269.699999999991
 20
119.6999999999971
 30
0.0
 11
1269.999999999991
 21
119.6999999999971
 31
0.0
  0
ARC
  5
75
330
1F
100
AcDbEntity
  8
TERRACE$EB1739 Miroir
100
AcDbCircle
 10
1269.699999999992
 20
119.7000000000003
 30
0.0
 40
0.2999999999988177
100
AcDbArc
 50
359.9999999993921
 51
79.60219519334363
  0
LINE
  5
76
330
1F
100
AcDbEntity
  8
TERRACE$EB1739 Miroir
100
AcDbLine
 10
1269.699999999991
 20
119.6999999999971
 30
0.0
 11
1269.699999999992
 21
120.0
 31
0.0
  0
LINE
  5
77
330
1F
100
AcDbEntity
  8
TERRACE$EB1739 Miroir
100
AcDbLine
 10
1258.299999999991
 20
120.0
 30
0.0
 11
1258.299999999991
 21
119.6999999999971
 31
0.0
  0
ARC
  5
78
330
1F
100
AcDbEntity
  8
TERRACE$EB1739 Miroir
100
AcDbCircle
 10
1258.299999999994
 20
119.6999999999953
 30
0.0
 40
0.3000000000031378
100
AcDbArc
 50
100.3978048061079
 51
179.9999999996635
  0
LINE
  5
79
330
1F
100
AcDbEntity
  8
TERRACE$EB1739 Miroir
100
AcDbLine
 10
1258.299999999991
 20
119.6999999999971
 30
0.0
 11
1257.999999999991
 21
119.6999999999971
 31
0.0
  0
LINE
  5
7A
330
1F
100
AcDbEntity
  8
TERRACE$EB1739 Miroir
100
AcDbLine
 10
649.9999999999991
 20
119.6999999999971
 30
0.0
 11
649.9999999999991
 21
12.29999999999927
 31
0.0
  0
ARC
  5
7B
330
1F
100
AcDbEntity
  8
TERRACE$EB1739 Miroir
100
AcDbCircle
 10
650.2999999999929
 20
12.29999999999404
 30
0.0
 40
0.2999999999938154
100
AcDbArc
 50
179.9999999990012
 51
259.5158770194396
  0
LINE
  5
7C
330
1F
100
AcDbEntity
  8
TERRACE$EB1739 Miroir
100
AcDbLine
 10
649.9999999999991
 20
12.29999999999927
 30
0.0
 11
650.2999999999984
 21
12.29999999999927
 31
0.0
  0
ARC
  5
7D
330
1F
100
AcDbEntity
  8
TERRACE$EB1739 Miroir
100
AcDbCircle
 10
650.2999999999993
 20
119.699999999999
 30
0.0
 40
0.3000000000001745
100
AcDbArc
 50
100.3672912565238
 51
180.0000000003691
  0
LINE
  5
7E
330
1F
100
AcDbEntity
  8
TERRACE$EB1739 Miroir
100
AcDbLine
 10
650.2999999999984
 20
119.7000000000007
 30
0.0
 11
649.9999999999991
 21
119.6999999999971
 31
0.0
  0
LINE
  5
7F
330
1F
100
AcDbEntity
  8
TERRACE$EB1739 Miroir
100
AcDbLine
 10
650.2999999999984
 20
119.7000000000007
 30
0.0
 11
650.2999999999984
 21
12.29999999999927
 31
0.0
  0
LINE
  5
80
330
1F
100
AcDbEntity
  8
TERRACE$EB1739 Miroir
100
AcDbLine
 10
650.2999999999984
 20
12.29999999999927
 30
0.0
 11
650.2999999999984
 21
12.00500838947482
 31
0.0
  0
LINE
  5
81
330
1F
100
AcDbEntity
  8
TERRACE$EB1739 Miroir
100
AcDbLine
 10
650.2999999999984
 20
12.29999999999927
 30
0.0
 11
749.9999984886699
 21
12.29999999999927
 31
0.0
  0
LINE
  5
82
330
1F
100
AcDbEntity
  8
TERRACE$EB1739 Miroir
100
AcDbLine
 10
650.2999999999984
 20
119.7000000000007
 30
0.0
 11
749.9999999999982
 21
119.6999999999971
 31
0.0
  0
LINE
  5
83
330
1F
100
AcDbEntity
  8
TERRACE$EB1739 Miroir
100
AcDbLine
 10
650.2999999999984
 20
120.0
 30
0.0
 11
650.2999999999984
 21
119.7000000000007
 31
0.0
  0
LINE
  5
84
330
1F
100
AcDbEntity
  8
TERRACE$EB1739 Miroir
100
AcDbLine
 10
849.9999999999973
 20
119.6999999999971
 30
0.0
 11
849.9999999999973
 21
12.29999999999927
 31
0.0
  0
ARC
  5
85
330
1F
100
AcDbEntity
  8
TERRACE$EB1739 Miroir
100
AcDbCircle
 10
849.7000000000019
 20
12.29999999999586
 30
0.0
 40
0.2999999999954071
100
AcDbArc
 50
280.4841229804385
 51
0.0000000006513776
  0
LINE
  5
86
330
1F
100
AcDbEntity
  8
TERRACE$EB1739 Miroir
100
AcDbLine
 10
849.9999999999973
 20
12.29999999999927
 30
0.0
 11
849.699999999998
 21
12.29999999999927
 31
0.0
  0
ARC
  5
87
330
1F
100
AcDbEntity
  8
TERRACE$EB1739 Miroir
100
AcDbCircle
 10
849.6999999999994
 20
119.7000000000007
 30
0.0
 40
0.2999999999979241
100
AcDbArc
 50
359.9999999993052
 51
79.63270874401557
  0
LINE
  5
88
330
1F
100
AcDbEntity
  8
TERRACE$EB1739 Miroir
100
AcDbLine
 10
849.699999999998
 20
119.7000000000007
 30
0.0
 11
849.9999999999973
 21
119.6999999999971
 31
0.0
  0
LINE
  5
89
330
1F
100
AcDbEntity
  8
TERRACE$EB1739 Miroir
100
AcDbLine
 10
849.699999999998
 20
119.7000000000007
 30
0.0
 11
849.699999999998
 21
12.29999999999927
 31
0.0
  0
LINE
  5
8A
330
1F
100
AcDbEntity
  8
TERRACE$EB1739 Miroir
100
AcDbLine
 10
849.699999999998
 20
12.29999999999927
 30
0.0
 11
849.699999999998
 21
12.00500838947482
 31
0.0
  0
LINE
  5
8B
330
1F
100
AcDbEntity
  8
TERRACE$EB1739 Miroir
100
AcDbLine
 10
849.699999999998
 20
12.29999999999927
 30
0.0
 11
749.9999999999982
 21
12.29999999999927
 31
0.0
  0
LINE
  5
8C
330
1F
100
AcDbEntity
  8
TERRACE$EB1739 Miroir
100
AcDbLine
 10
849.699999999998
 20
119.7000000000007
 30
0.0
 11
750.0000035709272
 21
119.6999999999971
 31
0.0
  0
LINE
  5
8D
330
1F
100
AcDbEntity
  8
TERRACE$EB1739 Miroir
100
AcDbLine
 10
849.699999999998
 20
120.0
 30
0.0
 11
849.699999999998
 21
119.7000000000007
 31
0.0
  0
CIRCLE
  5
8E
330
1F
100
AcDbEntity
  8
TERRACE$EB1739 Miroir
100
AcDbCircle
 10
750.0000106525213
 20
66.00006199825475
 30
0.0
 40
37.00006213861649
  0
CIRCLE
  5
8F
330
1F
100
AcDbEntity
  8
TERRACE$EB1739 Miroir
100
AcDbCircle
 10
749.9999975098463
 20
65.99992525899711
 30
0.0
 40
44.90945317011766
  0
LINE
  5
90
330
1F
100
AcDbEntity
  8
TERRACE$EB1739 Miroir
100
AcDbLine
 10
725.2206533869439
 20
91.70003039374569
 30
0.0
 11
742.7000727912973
 21
91.69999985891263
 31
0.0
  0
LINE
  5
91
330
1F
100
AcDbEntity
  8
TERRACE$EB1739 Miroir
100
AcDbLine
 10
743.3000727912968
 20
92.29999985891118
 30
0.0
 11
743.3000727912977
 21
101.0128870249682
 31
0.0
  0
LINE
  5
92
330
1F
100
AcDbEntity
  8
TERRACE$EB1739 Miroir
100
AcDbLine
 10
743.3000727912977
 20
101.0128870249682
 30
0.0
 11
756.7000727912973
 21
101.0128870248991
 31
0.0
  0
LINE
  5
93
330
1F
100
AcDbEntity
  8
TERRACE$EB1739 Miroir
100
AcDbLine
 10
756.7000727912973
 20
101.0128870248991
 30
0.0
 11
756.7000727912973
 21
92.29999985891118
 31
0.0
  0
LINE
  5
94
330
1F
100
AcDbEntity
  8
TERRACE$EB1739 Miroir
100
AcDbLine
 10
757.3000727912968
 20
91.69999985891263
 30
0.0
 11
774.7794921942668
 21
91.70003039366202
 31
0.0
  0
ARC
  5
95
330
1F
100
AcDbEntity
  8
TERRACE$EB1739 Miroir
100
AcDbCircle
 10
750.0000727905621
 20
66.00019020849163
 30
0.0
 40
35.70015982496435
100
AcDbArc
 50
133.9554049835584
 51
46.04459501624824
  0
LINE
  5
96
330
1F
100
AcDbEntity
  8
TERRACE$EB1739 Miroir
100
AcDbLine
 10
725.2210494043566
 20
91.99999985891554
 30
0.0
 11
742.7000727912973
 21
91.9999998589119
 31
0.0
  0
LINE
  5
97
330
1F
100
AcDbEntity
  8
TERRACE$EB1739 Miroir
100
AcDbLine
 10
725.221049404362
 20
92.29999985891482
 30
0.0
 11
742.7000727912964
 21
92.29999985891118
 31
0.0
  0
LINE
  5
98
330
1F
100
AcDbEntity
  8
TERRACE$EB1739 Miroir
100
AcDbLine
 10
743.0000727912966
 20
92.29999985891118
 30
0.0
 11
743.0000727912966
 21
101.0128870249719
 31
0.0
  0
LINE
  5
99
330
1F
100
AcDbEntity
  8
TERRACE$EB1739 Miroir
100
AcDbLine
 10
742.7000727912964
 20
92.29999985891118
 30
0.0
 11
742.7000727912973
 21
101.0128870249719
 31
0.0
  0
LINE
  5
9A
330
1F
100
AcDbEntity
  8
TERRACE$EB1739 Miroir
100
AcDbLine
 10
743.3000727912986
 20
101.3128870249711
 30
0.0
 11
756.7000727912991
 21
101.3128870248947
 31
0.0
  0
LINE
  5
9B
330
1F
100
AcDbEntity
  8
TERRACE$EB1739 Miroir
100
AcDbLine
 10
743.3000727913004
 20
101.6128870249631
 30
0.0
 11
756.7000727913
 21
101.6128870249013
 31
0.0
  0
LINE
  5
9C
330
1F
100
AcDbEntity
  8
TERRACE$EB1739 Miroir
100
AcDbLine
 10
757.0000727912966
 20
101.0128870248955
 30
0.0
 11
757.0000727912966
 21
92.29999985891118
 31
0.0
  0
LINE
  5
9D
330
1F
100
AcDbEntity
  8
TERRACE$EB1739 Miroir
100
AcDbLine
 10
757.3000727912968
 20
101.0128870248955
 30
0.0
 11
757.3000727912968
 21
92.29999985891118
 31
0.0
  0
LINE
  5
9E
330
1F
100
AcDbEntity
  8
TERRACE$EB1739 Miroir
100
AcDbLine
 10
757.3000727912977
 20
91.9999998589119
 30
0.0
 11
774.7790961778219
 21
91.99999985890827
 31
0.0
  0
LINE
  5
9F
330
1F
100
AcDbEntity
  8
TERRACE$EB1739 Miroir
100
AcDbLine
 10
757.3000727912968
 20
92.29999985891118
 30
0.0
 11
774.7790961778173
 21
92.29999985890754
 31
0.0
  0
ARC
  5
A0
330
1F
100
AcDbEntity
  8
TERRACE$EB1739 Miroir
100
AcDbCircle
 10
750.0000727914198
 20
66.00002784233195
 30
0.0
 40
36.30015191758103
100
AcDbArc
 50
133.9547987393454
 51
46.04520126139874
  0
ARC
  5
A1
330
1F
100
AcDbEntity
  8
TERRACE$EB1739 Miroir
100
AcDbCircle
 10
750.0000727910859
 20
65.99994204814703
 30
0.0
 40
36.00012693673111
100
AcDbArc
 50
133.9547051809546
 51
46.04529481902878
  0
LINE
  5
A2
330
1F
100
AcDbEntity
  8
TERRACE$EB1739 Miroir
100
AcDbLine
 10
742.7000727912973
 20
91.9999998589119
 30
0.0
 11
742.7000727912973
 21
91.69999985891263
 31
0.0
  0
ARC
  5
A3
330
1F
100
AcDbEntity
  8
TERRACE$EB1739 Miroir
100
AcDbCircle
 10
742.6967624683592
 20
92.30331018185117
 30
0.0
 40
0.6033194046292232
100
AcDbArc
 50
270.3143749122088
 51
359.6856250876103
  0
LINE
  5
A4
330
1F
100
AcDbEntity
  8
TERRACE$EB1739 Miroir
100
AcDbLine
 10
743.0000727912966
 20
92.29999985891118
 30
0.0
 11
743.3000727912968
 21
92.29999985891118
 31
0.0
  0
LINE
  5
A5
330
1F
100
AcDbEntity
  8
TERRACE$EB1739 Miroir
100
AcDbLine
 10
725.2206533869439
 20
91.70003039374569
 30
0.0
 11
725.2209882813831
 21
91.99999985891554
 31
0.0
  0
LINE
  5
A6
330
1F
100
AcDbEntity
  8
TERRACE$EB1739 Miroir
100
AcDbLine
 10
725.0127311548085
 20
91.91599703668908
 30
0.0
 11
725.2206533869439
 21
91.70003039374569
 31
0.0
  0
LINE
  5
A7
330
1F
100
AcDbEntity
  8
TERRACE$EB1739 Miroir
100
AcDbLine
 10
743.3000727912977
 20
101.0128870249682
 30
0.0
 11
743.3000727912986
 21
101.3128870249711
 31
0.0
  0
LINE
  5
A8
330
1F
100
AcDbEntity
  8
TERRACE$EB1739 Miroir
100
AcDbLine
 10
743.0000727912966
 20
101.0128870249719
 30
0.0
 11
743.3000727912977
 21
101.0128870249682
 31
0.0
  0
LINE
  5
A9
330
1F
100
AcDbEntity
  8
TERRACE$EB1739 Miroir
100
AcDbLine
 10
756.7000727912973
 20
101.0128870248991
 30
0.0
 11
757.0000727912966
 21
101.0128870248918
 31
0.0
  0
LINE
  5
AA
330
1F
100
AcDbEntity
  8
TERRACE$EB1739 Miroir
100
AcDbLine
 10
756.7000727912991
 20
101.3128870248947
 30
0.0
 11
756.7000727912973
 21
101.0128870248991
 31
0.0
  0
LINE
  5
AB
330
1F
100
AcDbEntity
  8
TERRACE$EB1739 Miroir
100
AcDbLine
 10
757.0000727912966
 20
92.29999985891118
 30
0.0
 11
756.7000727912973
 21
92.29999985891118
 31
0.0
  0
ARC
  5
AC
330
1F
100
AcDbEntity
  8
TERRACE$EB1739 Miroir
100
AcDbCircle
 10
757.303383114233
 20
92.30331018184839
 30
0.0
 40
0.6033194046264047
100
AcDbArc
 50
180.3143749121266
 51
269.6856250879625
  0
LINE
  5
AD
330
1F
100
AcDbEntity
  8
TERRACE$EB1739 Miroir
100
AcDbLine
 10
757.3000727912968
 20
91.9999998589119
 30
0.0
 11
757.3000727912968
 21
91.69999985891263
 31
0.0
  0
LINE
  5
AE
330
1F
100
AcDbEntity
  8
TERRACE$EB1739 Miroir
100
AcDbLine
 10
774.9874144272917
 20
91.9159970367582
 30
0.0
 11
774.7794921942668
 21
91.70003039366202
 31
0.0
  0
LINE
  5
AF
330
1F
100
AcDbEntity
  8
TERRACE$EB1739 Miroir
100
AcDbLine
 10
774.7794921942668
 20
91.70003039366202
 30
0.0
 11
774.7791573006461
 21
91.99999985890827
 31
0.0
  0
LINE
  5
B0
330
1F
100
AcDbEntity
  8
TERRACE$EB1739 Miroir
100
AcDbLine
 10
725.221049404362
 20
92.29999985891482
 30
0.0
 11
725.2210494043566
 21
91.99999985891554
 31
0.0
  0
ARC
  5
B1
330
1F
100
AcDbEntity
  8
TERRACE$EB1739 Miroir
100
AcDbCircle
 10
725.2212663762933
 20
91.69884686609926
 30
0.0
 40
0.6011530319709947
100
AcDbArc
 50
90.02067955336753
 51
133.893301245607
  0
LINE
  5
B2
330
1F
100
AcDbEntity
  8
TERRACE$EB1739 Miroir
100
AcDbLine
 10
725.0127632657659
 20
91.91602782795962
 30
0.0
 11
724.8044764109136
 21
92.13205708366877
 31
0.0
  0
ARC
  5
B3
330
1F
100
AcDbEntity
  8
TERRACE$EB1739 Miroir
100
AcDbCircle
 10
725.2211588221397
 20
91.69942359946147
 30
0.0
 40
0.300576279369572
100
AcDbArc
 50
90.02085719249244
 51
133.8934963894048
  0
LINE
  5
B4
330
1F
100
AcDbEntity
  8
TERRACE$EB1739 Miroir
100
AcDbLine
 10
742.7000727912964
 20
92.29999985891118
 30
0.0
 11
742.7000727912973
 21
91.9999998589119
 31
0.0
  0
ARC
  5
B5
330
1F
100
AcDbEntity
  8
TERRACE$EB1739 Miroir
100
AcDbCircle
 10
742.7000727912945
 20
92.29999985891398
 30
0.0
 40
0.3000000000021146
100
AcDbArc
 50
270.0000000003691
 51
359.9999999994653
  0
LINE
  5
B6
330
1F
100
AcDbEntity
  8
TERRACE$EB1739 Miroir
100
AcDbLine
 10
743.0000727912966
 20
92.29999985891118
 30
0.0
 11
742.7000727912964
 21
92.29999985891118
 31
0.0
  0
LINE
  5
B7
330
1F
100
AcDbEntity
  8
TERRACE$EB1739 Miroir
100
AcDbLine
 10
742.7000727912973
 20
101.0128870249719
 30
0.0
 11
743.0000727912966
 21
101.0128870249719
 31
0.0
  0
ARC
  5
B8
330
1F
100
AcDbEntity
  8
TERRACE$EB1739 Miroir
100
AcDbCircle
 10
743.303383114223
 20
101.0095767020374
 30
0.0
 40
0.6033194046163854
100
AcDbArc
 50
90.31437491074712
 51
179.685625088126
  0
LINE
  5
B9
330
1F
100
AcDbEntity
  8
TERRACE$EB1739 Miroir
100
AcDbLine
 10
743.3000727912986
 20
101.3128870249711
 30
0.0
 11
743.3000727913004
 21
101.6128870249631
 31
0.0
  0
ARC
  5
BA
330
1F
100
AcDbEntity
  8
TERRACE$EB1739 Miroir
100
AcDbCircle
 10
743.3017279527636
 20
101.0112318635041
 30
0.0
 40
0.3016597023123452
100
AcDbArc
 50
90.31437491144459
 51
179.6856250880264
  0
LINE
  5
BB
330
1F
100
AcDbEntity
  8
TERRACE$EB1739 Miroir
100
AcDbLine
 10
756.7000727913
 20
101.6128870249013
 30
0.0
 11
756.7000727912991
 21
101.3128870248947
 31
0.0
  0
ARC
  5
BC
330
1F
100
AcDbEntity
  8
TERRACE$EB1739 Miroir
100
AcDbCircle
 10
756.6967624683498
 20
101.0095767019553
 30
0.0
 40
0.6033194046367364
100
AcDbArc
 50
0.3143749124018977
 51
89.68562508663989
  0
LINE
  5
BD
330
1F
100
AcDbEntity
  8
TERRACE$EB1739 Miroir
100
AcDbLine
 10
757.0000727912966
 20
101.0128870248955
 30
0.0
 11
757.3000727912968
 21
101.0128870248955
 31
0.0
  0
ARC
  5
BE
330
1F
100
AcDbEntity
  8
TERRACE$EB1739 Miroir
100
AcDbCircle
 10
756.6984176298279
 20
101.0112318634261
 30
0.0
 40
0.3016597023140127
100
AcDbArc
 50
0.314374912274144
 51
89.68562508736952
  0
LINE
  5
BF
330
1F
100
AcDbEntity
  8
TERRACE$EB1739 Miroir
100
AcDbLine
 10
757.3000727912968
 20
92.29999985891118
 30
0.0
 11
757.0000727912966
 21
92.29999985891118
 31
0.0
  0
ARC
  5
C0
330
1F
100
AcDbEntity
  8
TERRACE$EB1739 Miroir
100
AcDbCircle
 10
757.3000727912955
 20
92.29999985891092
 30
0.0
 40
0.2999999999990166
100
AcDbArc
 50
179.9999999999511
 51
270.0000000000651
  0
LINE
  5
C1
330
1F
100
AcDbEntity
  8
TERRACE$EB1739 Miroir
100
AcDbLine
 10
757.3000727912968
 20
92.29999985891118
 30
0.0
 11
757.3000727913031
 21
92.00500824838673
 31
0.0
  0
LINE
  5
C2
330
1F
100
AcDbEntity
  8
TERRACE$EB1739 Miroir
100
AcDbLine
 10
774.7790961778173
 20
92.29999985890754
 30
0.0
 11
774.7790961778219
 21
91.99999985890827
 31
0.0
  0
ARC
  5
C3
330
1F
100
AcDbEntity
  8
TERRACE$EB1739 Miroir
100
AcDbCircle
 10
774.7788792063789
 20
91.69884686565662
 30
0.0
 40
0.6011530324061805
100
AcDbArc
 50
46.10669881713843
 51
89.97932049361921
  0
LINE
  5
C4
330
1F
100
AcDbEntity
  8
TERRACE$EB1739 Miroir
100
AcDbLine
 10
774.9873823164135
 20
91.91602782795235
 30
0.0
 11
775.1956691715868
 21
92.13205708399619
 31
0.0
  0
ARC
  5
C5
330
1F
100
AcDbEntity
  8
TERRACE$EB1739 Miroir
100
AcDbCircle
 10
774.7789867600393
 20
91.6994235994538
 30
0.0
 40
0.3005762793699697
100
AcDbArc
 50
46.10650361058777
 51
89.97914280761594
  0
LINE
  5
C6
330
1F
100
AcDbEntity
  8
TERRACE$EB1739 Miroir
100
AcDbLine
 10
743.8000000004095
 20
100.5128870249646
 30
0.0
 11
756.20000000041
 21
100.5128870249027
 31
0.0
  0
LINE
  5
C7
330
1F
100
AcDbEntity
  8
TERRACE$EB1739 Miroir
100
AcDbLine
 10
743.8000000004113
 20
100.8128870249675
 30
0.0
 11
756.2000000004109
 21
100.8128870248984
 31
0.0
  0
LINE
  5
C8
330
1F
100
AcDbEntity
  8
TERRACE$EB1739 Miroir
100
AcDbLine
 10
756.20000000041
 20
100.5128870249027
 30
0.0
 11
756.2000000004091
 21
91.9999998589119
 31
0.0
  0
LINE
  5
C9
330
1F
100
AcDbEntity
  8
TERRACE$EB1739 Miroir
100
AcDbLine
 10
756.5000000004102
 20
100.5128870248845
 30
0.0
 11
756.5000000004093
 21
91.9999998589119
 31
0.0
  0
LINE
  5
CA
330
1F
100
AcDbEntity
  8
TERRACE$EB1739 Miroir
100
AcDbLine
 10
756.5000000004093
 20
91.9999998589119
 30
0.0
 11
756.2000000004091
 21
91.9999998589119
 31
0.0
  0
ARC
  5
CB
330
1F
100
AcDbEntity
  8
TERRACE$EB1739 Miroir
100
AcDbCircle
 10
757.0044144388389
 20
92.0044142973426
 30
0.0
 40
0.8044265510418201
100
AcDbArc
 50
180.3144226905073
 51
269.6855773095676
  0
ARC
  5
CC
330
1F
100
AcDbEntity
  8
TERRACE$EB1739 Miroir
100
AcDbCircle
 10
757.0000000004095
 20
91.99999985891202
 30
0.0
 40
0.5000000000002274
100
AcDbArc
 50
180.000000000013
 51
269.999999999974
  0
LINE
  5
CD
330
1F
100
AcDbEntity
  8
TERRACE$EB1739 Miroir
100
AcDbLine
 10
757.0000000004093
 20
91.4999998589119
 30
0.0
 11
757.0000000004093
 21
91.19999985891263
 31
0.0
  0
LINE
  5
CE
330
1F
100
AcDbEntity
  8
TERRACE$EB1739 Miroir
100
AcDbLine
 10
757.0000000004093
 20
91.19999985891263
 30
0.0
 11
774.5765280919777
 21
91.20000884623005
 31
0.0
  0
LINE
  5
CF
330
1F
100
AcDbEntity
  8
TERRACE$EB1739 Miroir
100
AcDbLine
 10
757.0000000004093
 20
91.4999998589119
 30
0.0
 11
774.5764294360797
 21
91.4999998589119
 31
0.0
  0
ARC
  5
D0
330
1F
100
AcDbEntity
  8
TERRACE$EB1739 Miroir
100
AcDbCircle
 10
749.9996186898593
 20
65.99999985902161
 30
0.0
 40
35.20035409944592
100
AcDbArc
 50
314.2828179596655
 51
45.71718172230521
  0
ARC
  5
D1
330
1F
100
AcDbEntity
  8
TERRACE$EB1739 Miroir
100
AcDbCircle
 10
750.0000054602061
 20
65.9999998589108
 30
0.0
 40
35.50002149947832
100
AcDbArc
 50
314.2822625495561
 51
45.71772705498746
  0
LINE
  5
D2
330
1F
100
AcDbEntity
  8
TERRACE$EB1739 Miroir
100
AcDbLine
 10
774.5765280919777
 20
40.79999087159376
 30
0.0
 11
725.4234719084334
 21
40.79999087159376
 31
0.0
  0
LINE
  5
D3
330
1F
100
AcDbEntity
  8
TERRACE$EB1739 Miroir
100
AcDbLine
 10
774.5764294360806
 20
40.49999985891191
 30
0.0
 11
725.4235705643314
 21
40.49999985891191
 31
0.0
  0
ARC
  5
D4
330
1F
100
AcDbEntity
  8
TERRACE$EB1739 Miroir
100
AcDbCircle
 10
750.0003768145903
 20
66.00000424300526
 30
0.0
 40
35.20035409886662
100
AcDbArc
 50
134.2828281795244
 51
225.7171922616176
  0
ARC
  5
D5
330
1F
100
AcDbEntity
  8
TERRACE$EB1739 Miroir
100
AcDbCircle
 10
749.9999945402047
 20
65.99999985891245
 30
0.0
 40
35.5000214994774
100
AcDbArc
 50
134.2822625495532
 51
225.7177270862632
  0
LINE
  5
D6
330
1F
100
AcDbEntity
  8
TERRACE$EB1739 Miroir
100
AcDbLine
 10
725.4234629179464
 20
91.20000884623005
 30
0.0
 11
743.0000000004093
 21
91.19999985891263
 31
0.0
  0
LINE
  5
D7
330
1F
100
AcDbEntity
  8
TERRACE$EB1739 Miroir
100
AcDbLine
 10
725.4235795548184
 20
91.4999998589119
 30
0.0
 11
743.0000000004093
 21
91.4999998589119
 31
0.0
  0
LINE
  5
D8
330
1F
100
AcDbEntity
  8
TERRACE$EB1739 Miroir
100
AcDbLine
 10
743.0000000004093
 20
91.19999985891263
 30
0.0
 11
743.0000000004093
 21
91.4999998589119
 31
0.0
  0
ARC
  5
D9
330
1F
100
AcDbEntity
  8
TERRACE$EB1739 Miroir
100
AcDbCircle
 10
742.9955855619813
 20
92.0044142973408
 30
0.0
 40
0.8044265510401425
100
AcDbArc
 50
270.3144226903116
 51
359.6855773096206
  0
ARC
  5
DA
330
1F
100
AcDbEntity
  8
TERRACE$EB1739 Miroir
100
AcDbCircle
 10
743.0000000004121
 20
91.99999985890919
 30
0.0
 40
0.4999999999972857
100
AcDbArc
 50
269.9999999996743
 51
0.0000000003110328
  0
LINE
  5
DB
330
1F
100
AcDbEntity
  8
TERRACE$EB1739 Miroir
100
AcDbLine
 10
743.5000000004093
 20
91.9999998589119
 30
0.0
 11
743.8000000004095
 21
91.9999998589119
 31
0.0
  0
LINE
  5
DC
330
1F
100
AcDbEntity
  8
TERRACE$EB1739 Miroir
100
AcDbLine
 10
743.8000000004095
 20
91.9999998589119
 30
0.0
 11
743.8000000004095
 21
100.5128870249646
 31
0.0
  0
LINE
  5
DD
330
1F
100
AcDbEntity
  8
TERRACE$EB1739 Miroir
100
AcDbLine
 10
743.5000000004093
 20
91.9999998589119
 30
0.0
 11
743.5000000004093
 21
100.5128870249573
 31
0.0
  0
ARC
  5
DE
330
1F
100
AcDbEntity
  8
TERRACE$EB1739 Miroir
100
AcDbCircle
 10
743.8000000004048
 20
100.512887024972
 30
0.0
 40
0.2999999999955065
100
AcDbArc
 50
89.99999999858869
 51
180.0000000007192
  0
LINE
  5
DF
330
1F
100
AcDbEntity
  8
TERRACE$EB1739 Miroir
100
AcDbLine
 10
743.5000000004093
 20
100.5128870249573
 30
0.0
 11
743.8000000004095
 21
100.5128870249646
 31
0.0
  0
LINE
  5
E0
330
1F
100
AcDbEntity
  8
TERRACE$EB1739 Miroir
100
AcDbLine
 10
743.8000000004095
 20
100.5128870249646
 30
0.0
 11
743.8000000004113
 21
100.8128870249675
 31
0.0
  0
LINE
  5
E1
330
1F
100
AcDbEntity
  8
TERRACE$EB1739 Miroir
100
AcDbLine
 10
756.2000000004109
 20
100.8128870248984
 30
0.0
 11
756.20000000041
 21
100.5128870249027
 31
0.0
  0
LINE
  5
E2
330
1F
100
AcDbEntity
  8
TERRACE$EB1739 Miroir
100
AcDbLine
 10
756.20000000041
 20
100.5128870249027
 30
0.0
 11
756.4949916109344
 21
100.5128870248882
 31
0.0
  0
ARC
  5
E3
330
1F
100
AcDbEntity
  8
TERRACE$EB1739 Miroir
100
AcDbCircle
 10
756.2000000004116
 20
100.5128870248998
 30
0.0
 40
0.2999999999985903
100
AcDbArc
 50
359.9999999991749
 51
90.00000000013027
  0
LINE
  5
E4
330
1F
100
AcDbEntity
  8
TERRACE$EB1739 Miroir
100
AcDbLine
 10
774.5765280919777
 20
91.20000884623005
 30
0.0
 11
774.5764295723366
 21
91.4999998589119
 31
0.0
  0
LINE
  5
E5
330
1F
100
AcDbEntity
  8
TERRACE$EB1739 Miroir
100
AcDbLine
 10
774.7824086379284
 20
91.41119612944973
 30
0.0
 11
774.5765282249095
 21
91.20000898256404
 31
0.0
  0
ARC
  5
E6
330
1F
100
AcDbEntity
  8
TERRACE$EB1739 Miroir
100
AcDbCircle
 10
774.5764427437396
 20
91.19998765742133
 30
0.0
 40
0.3000122017797054
100
AcDbArc
 50
45.72117944543642
 51
90.00251545036434
  0
LINE
  5
E7
330
1F
100
AcDbEntity
  8
TERRACE$EB1739 Miroir
100
AcDbLine
 10
774.5765280919777
 20
40.79999087159376
 30
0.0
 11
774.7858964667657
 21
40.58521806810313
 31
0.0
  0
LINE
  5
E8
330
1F
100
AcDbEntity
  8
TERRACE$EB1739 Miroir
100
AcDbLine
 10
774.5764392354556
 20
40.50500735569239
 30
0.0
 11
774.5765280919777
 21
40.79999087159376
 31
0.0
  0
ARC
  5
E9
330
1F
100
AcDbEntity
  8
TERRACE$EB1739 Miroir
100
AcDbCircle
 10
774.5764426128811
 20
40.80001238227013
 30
0.0
 40
0.300012523581242
100
AcDbArc
 50
269.9993507531281
 51
314.2787955321283
  0
LINE
  5
EA
330
1F
100
AcDbEntity
  8
TERRACE$EB1739 Miroir
100
AcDbLine
 10
725.4234719084334
 20
40.79999087159376
 30
0.0
 11
725.4235705643314
 21
40.49999985891191
 31
0.0
  0
LINE
  5
EB
330
1F
100
AcDbEntity
  8
TERRACE$EB1739 Miroir
100
AcDbLine
 10
725.2175913756331
 20
40.58880360187282
 30
0.0
 11
725.4234719084334
 21
40.79999087159376
 31
0.0
  0
ARC
  5
EC
330
1F
100
AcDbEntity
  8
TERRACE$EB1739 Miroir
100
AcDbCircle
 10
725.4235573878861
 20
40.80001238290982
 30
0.0
 40
0.3000125242872665
100
AcDbArc
 50
225.7212045045865
 51
270.0025164106167
  0
LINE
  5
ED
330
1F
100
AcDbEntity
  8
TERRACE$EB1739 Miroir
100
AcDbLine
 10
725.4234629179464
 20
91.20000884623005
 30
0.0
 11
725.2141035336472
 21
91.41478164972068
 31
0.0
  0
LINE
  5
EE
330
1F
100
AcDbEntity
  8
TERRACE$EB1739 Miroir
100
AcDbLine
 10
725.4235660758295
 20
91.49450901324963
 30
0.0
 11
725.4234629179464
 21
91.20000884623005
 31
0.0
  0
ARC
  5
EF
330
1F
100
AcDbEntity
  8
TERRACE$EB1739 Miroir
100
AcDbCircle
 10
725.4235660460458
 20
91.19996605366336
 30
0.0
 40
0.3000338054450202
100
AcDbArc
 50
90.00000264056094
 51
134.2771419929702
  0
LINE
  5
F0
330
1F
100
AcDbEntity
  8
TERRACE$EB1739 Miroir
100
AcDbLine
 10
750.0
 20
132.0878679656453
 30
0.0
 11
1099.999999999995
 21
132.0878679656416
 31
0.0
  0
LINE
  5
F1
330
1F
100
AcDbEntity
  8
TERRACE$EB1739 Miroir
100
AcDbLine
 10
1099.999999999995
 20
685.0
 30
0.0
 11
750.0
 21
685.0
 31
0.0
  0
LINE
  5
F2
330
1F
100
AcDbEntity
  8
TERRACE$EB1739 Miroir
100
AcDbLine
 10
1099.999999999995
 20
684.9121320343547
 30
0.0
 11
750.0
 21
684.9121320343547
 31
0.0
  0
LINE
  5
F3
330
1F
100
AcDbEntity
  8
TERRACE$EB1739 Miroir
100
AcDbLine
 10
750.0
 20
682.0878679656416
 30
0.0
 11
1099.999999999995
 21
682.0878679656416
 31
0.0
  0
LINE
  5
F4
330
1F
100
AcDbEntity
  8
TERRACE$EB1739 Miroir
100
AcDbLine
 10
750.0
 20
681.875735931284
 30
0.0
 11
1099.999999999995
 21
681.875735931284
 31
0.0
  0
LINE
  5
F5
330
1F
100
AcDbEntity
  8
TERRACE$EB1739 Miroir
100
AcDbLine
 10
1099.999999999995
 20
135.1242640687124
 30
0.0
 11
750.0
 21
135.1242640687124
 31
0.0
  0
LINE
  5
F6
330
1F
100
AcDbEntity
  8
TERRACE$EB1739 Miroir
100
AcDbLine
 10
1099.999999999995
 20
134.9121320343547
 30
0.0
 11
750.0
 21
134.9121320343547
 31
0.0
  0
ARC
  5
F7
330
1F
100
AcDbEntity
  8
TERRACE$EB1739 Miroir
100
AcDbCircle
 10
1469.700000000038
 20
132.2999999999967
 30
0.0
 40
0.2999999999542501
100
AcDbArc
 50
349.515954263405
 51
0.0000000004885332
  0
LINE
  5
F8
330
1F
100
AcDbEntity
  8
TERRACE$EB1739 Miroir
100
AcDbLine
 10
1469.69999999999
 20
132.0878679656453
 30
0.0
 11
1099.999999999995
 21
132.0878679656416
 31
0.0
  0
LINE
  5
F9
330
1F
100
AcDbEntity
  8
TERRACE$EB1739 Miroir
100
AcDbLine
 10
1099.999999999995
 20
684.9121320343547
 30
0.0
 11
1469.699999999992
 21
684.9121320343547
 31
0.0
  0
LINE
  5
FA
330
1F
100
AcDbEntity
  8
TERRACE$EB1739 Miroir
100
AcDbLine
 10
1099.999999999995
 20
685.0
 30
0.0
 11
1469.699999999993
 21
685.0
 31
0.0
  0
LINE
  5
FB
330
1F
100
AcDbEntity
  8
TERRACE$EB1739 Miroir
100
AcDbLine
 10
1469.912132034348
 20
684.7000000000007
 30
0.0
 11
1469.912132034348
 21
132.2999999999993
 31
0.0
  0
LINE
  5
FC
330
1F
100
AcDbEntity
  8
TERRACE$EB1739 Miroir
100
AcDbLine
 10
1466.875735931279
 20
681.875735931284
 30
0.0
 11
1099.999999999995
 21
681.875735931284
 31
0.0
  0
LINE
  5
FD
330
1F
100
AcDbEntity
  8
TERRACE$EB1739 Miroir
100
AcDbLine
 10
1466.875735931279
 20
682.0878679656416
 30
0.0
 11
1099.999999999995
 21
682.0878679656416
 31
0.0
  0
LINE
  5
FE
330
1F
100
AcDbEntity
  8
TERRACE$EB1739 Miroir
100
AcDbLine
 10
1467.087867965636
 20
135.1242640687124
 30
0.0
 11
1467.087867965633
 21
681.875735931284
 31
0.0
  0
LINE
  5
FF
330
1F
100
AcDbEntity
  8
TERRACE$EB1739 Miroir
100
AcDbLine
 10
1466.875735931279
 20
135.1242640687124
 30
0.0
 11
1466.875735931279
 21
681.875735931284
 31
0.0
  0
LINE
  5
100
330
1F
100
AcDbEntity
  8
TERRACE$EB1739 Miroir
100
AcDbLine
 10
1099.999999999995
 20
134.9121320343547
 30
0.0
 11
1466.875735931281
 21
134.9121320343547
 31
0.0
  0
LINE
  5
101
330
1F
100
AcDbEntity
  8
TERRACE$EB1739 Miroir
100
AcDbLine
 10
1099.999999999995
 20
135.1242640687124
 30
0.0
 11
1466.875735931279
 21
135.1242640687124
 31
0.0
  0
LINE
  5
102
330
1F
100
AcDbEntity
  8
TERRACE$EB1739 Miroir
100
AcDbLine
 10
1469.912132034348
 20
132.2999999999993
 30
0.0
 11
1467.087867965636
 21
135.1242640687124
 31
0.0
  0
LINE
  5
103
330
1F
100
AcDbEntity
  8
TERRACE$EB1739 Miroir
100
AcDbLine
 10
1469.69999999999
 20
132.0878679656453
 30
0.0
 11
1466.875735931281
 21
134.9121320343547
 31
0.0
  0
LINE
  5
104
330
1F
100
AcDbEntity
  8
TERRACE$EB1739 Miroir
100
AcDbLine
 10
1467.087867965633
 20
681.875735931284
 30
0.0
 11
1469.912132034348
 21
684.7000000000007
 31
0.0
  0
LINE
  5
105
330
1F
100
AcDbEntity
  8
TERRACE$EB1739 Miroir
100
AcDbLine
 10
1466.875735931279
 20
682.0878679656416
 30
0.0
 11
1469.699999999992
 21
684.9121320343547
 31
0.0
  0
LINE
  5
106
330
1F
100
AcDbEntity
  8
TERRACE$EB1739 Miroir
100
AcDbLine
 10
1469.69999999999
 20
132.0878679656453
 30
0.0
 11
1469.7
 21
132.0056531170703
 31
0.0
  0
ARC
  5
107
330
1F
100
AcDbEntity
  8
TERRACE$EB1739 Miroir
100
AcDbCircle
 10
1469.471459496067
 20
132.5285405039305
 30
0.0
 40
0.4964101609881901
100
AcDbArc
 50
297.4120462062953
 51
332.5879537927143
  0
LINE
  5
108
330
1F
100
AcDbEntity
  8
TERRACE$EB1739 Miroir
100
AcDbLine
 10
1469.999999999992
 20
132.2999999999993
 30
0.0
 11
1469.912132034348
 21
132.2999999999993
 31
0.0
  0
ARC
  5
109
330
1F
100
AcDbEntity
  8
TERRACE$EB1739 Miroir
100
AcDbCircle
 10
1469.699999999995
 20
132.2999999999981
 30
0.0
 40
0.2999999999981071
100
AcDbArc
 50
269.9999999996092
 51
0.000000000222554
  0
ARC
  5
10A
330
1F
100
AcDbEntity
  8
TERRACE$EB1739 Miroir
100
AcDbCircle
 10
1469.699999999994
 20
684.700000000001
 30
0.0
 40
0.299999999999045
100
AcDbArc
 50
359.9999999999566
 51
90.00000000021713
  0
LINE
  5
10B
330
1F
100
AcDbEntity
  8
TERRACE$EB1739 Miroir
100
AcDbLine
 10
1469.912132034348
 20
684.7000000000007
 30
0.0
 11
1469.999999999993
 21
684.7000000000007
 31
0.0
  0
ARC
  5
10C
330
1F
100
AcDbEntity
  8
TERRACE$EB1739 Miroir
100
AcDbCircle
 10
1469.471459495668
 20
684.4714594956706
 30
0.0
 40
0.4964101615262885
100
AcDbArc
 50
27.41204622694375
 51
62.58795377397782
  0
LINE
  5
10D
330
1F
100
AcDbEntity
  8
TERRACE$EB1739 Miroir
100
AcDbLine
 10
1469.699999999992
 20
684.9121320343547
 30
0.0
 11
1469.700000000003
 21
684.9949916105215
 31
0.0
  0
LINE
  5
10E
330
1F
100
AcDbEntity
  8
TERRACE$EB1739 Miroir
100
AcDbLine
 10
1466.875735931279
 20
682.0878679656416
 30
0.0
 11
1466.875735931279
 21
681.875735931284
 31
0.0
  0
ARC
  5
10F
330
1F
100
AcDbEntity
  8
TERRACE$EB1739 Miroir
100
AcDbCircle
 10
1466.647195427163
 20
681.6471954271738
 30
0.0
 40
0.4964101612389631
100
AcDbArc
 50
27.41204621555544
 51
62.58795378371111
  0
LINE
  5
110
330
1F
100
AcDbEntity
  8
TERRACE$EB1739 Miroir
100
AcDbLine
 10
1466.875735931279
 20
681.875735931284
 30
0.0
 11
1467.087867965633
 21
681.875735931284
 31
0.0
  0
LINE
  5
111
330
1F
100
AcDbEntity
  8
TERRACE$EB1739 Miroir
100
AcDbLine
 10
1467.087867965636
 20
135.1242640687124
 30
0.0
 11
1466.875735931279
 21
135.1242640687124
 31
0.0
  0
ARC
  5
112
330
1F
100
AcDbEntity
  8
TERRACE$EB1739 Miroir
100
AcDbCircle
 10
1466.647195427362
 20
135.3528045726237
 30
0.0
 40
0.4964101609715854
100
AcDbArc
 50
297.4120462066684
 51
332.5879537943028
  0
LINE
  5
113
330
1F
100
AcDbEntity
  8
TERRACE$EB1739 Miroir
100
AcDbLine
 10
1466.875735931279
 20
135.1242640687124
 30
0.0
 11
1466.875735931281
 21
134.9121320343547
 31
0.0
  0
LINE
  5
114
330
1F
100
AcDbEntity
  8
TERRACE$EB1739 Miroir
100
AcDbLine
 10
750.0
 20
132.0878679656453
 30
0.0
 11
400.0000000000045
 21
132.0878679656416
 31
0.0
  0
LINE
  5
115
330
1F
100
AcDbEntity
  8
TERRACE$EB1739 Miroir
100
AcDbLine
 10
400.0000000000045
 20
685.0
 30
0.0
 11
750.0
 21
685.0
 31
0.0
  0
LINE
  5
116
330
1F
100
AcDbEntity
  8
TERRACE$EB1739 Miroir
100
AcDbLine
 10
400.0000000000045
 20
684.9121320343547
 30
0.0
 11
750.0
 21
684.9121320343547
 31
0.0
  0
LINE
  5
117
330
1F
100
AcDbEntity
  8
TERRACE$EB1739 Miroir
100
AcDbLine
 10
750.0
 20
682.0878679656416
 30
0.0
 11
400.0000000000045
 21
682.0878679656416
 31
0.0
  0
LINE
  5
118
330
1F
100
AcDbEntity
  8
TERRACE$EB1739 Miroir
100
AcDbLine
 10
750.0
 20
681.875735931284
 30
0.0
 11
400.0000000000045
 21
681.875735931284
 31
0.0
  0
LINE
  5
119
330
1F
100
AcDbEntity
  8
TERRACE$EB1739 Miroir
100
AcDbLine
 10
400.0000000000045
 20
135.1242640687124
 30
0.0
 11
750.0
 21
135.1242640687124
 31
0.0
  0
LINE
  5
11A
330
1F
100
AcDbEntity
  8
TERRACE$EB1739 Miroir
100
AcDbLine
 10
400.0000000000045
 20
134.9121320343547
 30
0.0
 11
750.0
 21
134.9121320343547
 31
0.0
  0
ARC
  5
11B
330
1F
100
AcDbEntity
  8
TERRACE$EB1739 Miroir
100
AcDbCircle
 10
30.29999999998185
 20
132.2999999999941
 30
0.0
 40
0.2999999999745654
100
AcDbArc
 50
179.9999999990067
 51
190.4840457363407
  0
LINE
  5
11C
330
1F
100
AcDbEntity
  8
TERRACE$EB1739 Miroir
100
AcDbLine
 10
30.30000000001019
 20
132.0878679656453
 30
0.0
 11
400.0000000000045
 21
132.0878679656416
 31
0.0
  0
LINE
  5
11D
330
1F
100
AcDbEntity
  8
TERRACE$EB1739 Miroir
100
AcDbLine
 10
400.0000000000045
 20
684.9121320343547
 30
0.0
 11
30.30000000000837
 21
684.9121320343547
 31
0.0
  0
LINE
  5
11E
330
1F
100
AcDbEntity
  8
TERRACE$EB1739 Miroir
100
AcDbLine
 10
400.0000000000045
 20
685.0
 30
0.0
 11
30.300000000007
 21
685.0
 31
0.0
  0
LINE
  5
11F
330
1F
100
AcDbEntity
  8
TERRACE$EB1739 Miroir
100
AcDbLine
 10
30.08786796565118
 20
684.7000000000007
 30
0.0
 11
30.08786796565118
 21
132.2999999999993
 31
0.0
  0
LINE
  5
120
330
1F
100
AcDbEntity
  8
TERRACE$EB1739 Miroir
100
AcDbLine
 10
33.124264068721
 20
681.875735931284
 30
0.0
 11
400.0000000000045
 21
681.875735931284
 31
0.0
  0
LINE
  5
121
330
1F
100
AcDbEntity
  8
TERRACE$EB1739 Miroir
100
AcDbLine
 10
33.124264068721
 20
682.0878679656416
 30
0.0
 11
400.0000000000045
 21
682.0878679656416
 31
0.0
  0
LINE
  5
122
330
1F
100
AcDbEntity
  8
TERRACE$EB1739 Miroir
100
AcDbLine
 10
32.91213203436382
 20
135.1242640687124
 30
0.0
 11
32.91213203436564
 21
681.875735931284
 31
0.0
  0
LINE
  5
123
330
1F
100
AcDbEntity
  8
TERRACE$EB1739 Miroir
100
AcDbLine
 10
33.12426406871964
 20
135.1242640687124
 30
0.0
 11
33.124264068721
 21
681.875735931284
 31
0.0
  0
LINE
  5
124
330
1F
100
AcDbEntity
  8
TERRACE$EB1739 Miroir
100
AcDbLine
 10
400.0000000000045
 20
134.9121320343547
 30
0.0
 11
33.12426406871782
 21
134.9121320343547
 31
0.0
  0
LINE
  5
125
330
1F
100
AcDbEntity
  8
TERRACE$EB1739 Miroir
100
AcDbLine
 10
400.0000000000045
 20
135.1242640687124
 30
0.0
 11
33.12426406871964
 21
135.1242640687124
 31
0.0
  0
LINE
  5
126
330
1F
100
AcDbEntity
  8
TERRACE$EB1739 Miroir
100
AcDbLine
 10
30.08786796565118
 20
132.2999999999993
 30
0.0
 11
32.91213203436382
 21
135.1242640687124
 31
0.0
  0
LINE
  5
127
330
1F
100
AcDbEntity
  8
TERRACE$EB1739 Miroir
100
AcDbLine
 10
30.30000000001019
 20
132.0878679656453
 30
0.0
 11
33.12426406871782
 21
134.9121320343547
 31
0.0
  0
LINE
  5
128
330
1F
100
AcDbEntity
  8
TERRACE$EB1739 Miroir
100
AcDbLine
 10
32.91213203436564
 20
681.875735931284
 30
0.0
 11
30.08786796565118
 21
684.7000000000007
 31
0.0
  0
LINE
  5
129
330
1F
100
AcDbEntity
  8
TERRACE$EB1739 Miroir
100
AcDbLine
 10
33.124264068721
 20
682.0878679656416
 30
0.0
 11
30.30000000000837
 21
684.9121320343547
 31
0.0
  0
LINE
  5
12A
330
1F
100
AcDbEntity
  8
TERRACE$EB1739 Miroir
100
AcDbLine
 10
30.30000000001019
 20
132.0878679656453
 30
0.0
 11
30.30000000000018
 21
132.0056531170703
 31
0.0
  0
ARC
  5
12B
330
1F
100
AcDbEntity
  8
TERRACE$EB1739 Miroir
100
AcDbCircle
 10
30.52854050391778
 20
132.5285405039172
 30
0.0
 40
0.496410160969137
100
AcDbArc
 50
207.4120462067078
 51
242.5879537946402
  0
LINE
  5
12C
330
1F
100
AcDbEntity
  8
TERRACE$EB1739 Miroir
100
AcDbLine
 10
30.00000000000728
 20
132.2999999999993
 30
0.0
 11
30.08786796565118
 21
132.2999999999993
 31
0.0
  0
ARC
  5
12D
330
1F
100
AcDbEntity
  8
TERRACE$EB1739 Miroir
100
AcDbCircle
 10
30.30000000000575
 20
132.2999999999985
 30
0.0
 40
0.2999999999984766
100
AcDbArc
 50
179.999999999848
 51
270.0000000001527
  0
ARC
  5
12E
330
1F
100
AcDbEntity
  8
TERRACE$EB1739 Miroir
100
AcDbCircle
 10
30.30000000000598
 20
684.7000000000008
 30
0.0
 40
0.2999999999991587
100
AcDbArc
 50
89.99999999980459
 51
180.0000000000217
  0
LINE
  5
12F
330
1F
100
AcDbEntity
  8
TERRACE$EB1739 Miroir
100
AcDbLine
 10
30.08786796565118
 20
684.7000000000007
 30
0.0
 11
30.00000000000682
 21
684.7000000000007
 31
0.0
  0
ARC
  5
130
330
1F
100
AcDbEntity
  8
TERRACE$EB1739 Miroir
100
AcDbCircle
 10
30.52854050433098
 20
684.4714594956715
 30
0.0
 40
0.4964101615252642
100
AcDbArc
 50
117.4120462260304
 51
152.5879537731132
  0
LINE
  5
131
330
1F
100
AcDbEntity
  8
TERRACE$EB1739 Miroir
100
AcDbLine
 10
30.30000000000837
 20
684.9121320343547
 30
0.0
 11
30.29999999999654
 21
684.9949916105215
 31
0.0
  0
LINE
  5
132
330
1F
100
AcDbEntity
  8
TERRACE$EB1739 Miroir
100
AcDbLine
 10
33.124264068721
 20
682.0878679656416
 30
0.0
 11
33.124264068721
 21
681.875735931284
 31
0.0
  0
ARC
  5
133
330
1F
100
AcDbEntity
  8
TERRACE$EB1739 Miroir
100
AcDbCircle
 10
33.35280457284836
 20
681.6471954271614
 30
0.0
 40
0.4964101612552209
100
AcDbArc
 50
117.4120462168079
 51
152.5879537838066
  0
LINE
  5
134
330
1F
100
AcDbEntity
  8
TERRACE$EB1739 Miroir
100
AcDbLine
 10
33.124264068721
 20
681.875735931284
 30
0.0
 11
32.91213203436564
 21
681.875735931284
 31
0.0
  0
LINE
  5
135
330
1F
100
AcDbEntity
  8
TERRACE$EB1739 Miroir
100
AcDbLine
 10
32.91213203436382
 20
135.1242640687124
 30
0.0
 11
33.12426406871964
 21
135.1242640687124
 31
0.0
  0
ARC
  5
136
330
1F
100
AcDbEntity
  8
TERRACE$EB1739 Miroir
100
AcDbCircle
 10
33.35280457264291
 20
135.3528045726308
 30
0.0
 40
0.4964101609808418
100
AcDbArc
 50
207.4120462060698
 51
242.5879537930671
  0
LINE
  5
137
330
1F
100
AcDbEntity
  8
TERRACE$EB1739 Miroir
100
AcDbLine
 10
33.12426406871964
 20
135.1242640687124
 30
0.0
 11
33.12426406871782
 21
134.9121320343547
 31
0.0
  0
LINE
  5
138
330
1F
100
AcDbEntity
  8
TERRACE$EB1739 Miroir
100
AcDbLine
 10
1469.699999999993
 20
11.99499161052518
 30
0.0
 11
1469.699999999993
 21
120.0
 31
0.0
  0
LINE
  5
139
330
1F
100
AcDbEntity
  8
TERRACE$EB1739 Miroir
100
AcDbLine
 10
30.300000000007
 20
11.99499161052518
 30
0.0
 11
30.30000000000655
 21
120.0
 31
0.0
  0
LINE
  5
13A
330
1F
100
AcDbEntity
  8
TERRACE$EB1739 Miroir
100
AcDbLine
 10
750.0
 20
0.0
 30
0.0
 11
1099.999999999995
 21
0.0
 31
0.0
  0
LINE
  5
13B
330
1F
100
AcDbEntity
  8
TERRACE$EB1739 Miroir
100
AcDbLine
 10
750.0
 20
0.2999999999992724
 30
0.0
 11
1099.999999999995
 21
0.2999999999992724
 31
0.0
  0
LINE
  5
13C
330
1F
100
AcDbEntity
  8
TERRACE$EB1739 Miroir
100
AcDbLine
 10
750.0
 20
12.0
 30
0.0
 11
1099.999999999995
 21
12.0
 31
0.0
  0
LINE
  5
13D
330
1F
100
AcDbEntity
  8
TERRACE$EB1739 Miroir
100
AcDbLine
 10
750.0
 20
11.69999999999709
 30
0.0
 11
1099.999999999995
 21
11.69999999999709
 31
0.0
  0
LINE
  5
13E
330
1F
100
AcDbEntity
  8
TERRACE$EB1739 Miroir
100
AcDbLine
 10
1469.699999999993
 20
0.2999999999992724
 30
0.0
 11
1099.999999999995
 21
0.2999999999992724
 31
0.0
  0
LINE
  5
13F
330
1F
100
AcDbEntity
  8
TERRACE$EB1739 Miroir
100
AcDbLine
 10
1469.699999999993
 20
0.0
 30
0.0
 11
1099.999999999995
 21
0.0
 31
0.0
  0
LINE
  5
140
330
1F
100
AcDbEntity
  8
TERRACE$EB1739 Miroir
100
AcDbLine
 10
1469.699999999993
 20
11.69999999999709
 30
0.0
 11
1099.999999999995
 21
11.69999999999709
 31
0.0
  0
LINE
  5
141
330
1F
100
AcDbEntity
  8
TERRACE$EB1739 Miroir
100
AcDbLine
 10
1469.699999999993
 20
12.0
 30
0.0
 11
1099.999999999995
 21
12.0
 31
0.0
  0
LINE
  5
142
330
1F
100
AcDbEntity
  8
TERRACE$EB1739 Miroir
100
AcDbLine
 10
1469.999999999993
 20
0.2999999999992724
 30
0.0
 11
1469.999999999993
 21
11.69999999999709
 31
0.0
  0
LINE
  5
143
330
1F
100
AcDbEntity
  8
TERRACE$EB1739 Miroir
100
AcDbLine
 10
1469.699999999993
 20
0.2999999999992724
 30
0.0
 11
1469.699999999993
 21
11.69999999999709
 31
0.0
  0
LINE
  5
144
330
1F
100
AcDbEntity
  8
TERRACE$EB1739 Miroir
100
AcDbLine
 10
1469.994991610517
 20
0.3000000000101863
 30
0.0
 11
1469.699999999993
 21
0.2999999999992724
 31
0.0
  0
ARC
  5
145
330
1F
100
AcDbEntity
  8
TERRACE$EB1739 Miroir
100
AcDbCircle
 10
1469.699999999993
 20
0.2999999999993214
 30
0.0
 40
0.2999999999992724
100
AcDbArc
 50
269.9999999998263
 51
359.9999999999906
  0
LINE
  5
146
330
1F
100
AcDbEntity
  8
TERRACE$EB1739 Miroir
100
AcDbLine
 10
1469.699999999993
 20
0.0
 30
0.0
 11
1469.699999999993
 21
0.2999999999992724
 31
0.0
  0
LINE
  5
147
330
1F
100
AcDbEntity
  8
TERRACE$EB1739 Miroir
100
AcDbLine
 10
1469.699999999993
 20
11.99499161052518
 30
0.0
 11
1469.699999999993
 21
11.69999999999709
 31
0.0
  0
ARC
  5
148
330
1F
100
AcDbEntity
  8
TERRACE$EB1739 Miroir
100
AcDbCircle
 10
1469.699999999986
 20
11.69999999999401
 30
0.0
 40
0.3000000000059005
100
AcDbArc
 50
0.000027407083617
 51
89.99999999874068
  0
LINE
  5
149
330
1F
100
AcDbEntity
  8
TERRACE$EB1739 Miroir
100
AcDbLine
 10
1469.699999999993
 20
11.69999999999709
 30
0.0
 11
1469.999999999993
 21
11.69999999999709
 31
0.0
  0
LINE
  5
14A
330
1F
100
AcDbEntity
  8
TERRACE$EB1739 Miroir
100
AcDbLine
 10
750.0
 20
0.0
 30
0.0
 11
400.0000000000045
 21
0.0
 31
0.0
  0
LINE
  5
14B
330
1F
100
AcDbEntity
  8
TERRACE$EB1739 Miroir
100
AcDbLine
 10
750.0
 20
0.2999999999992724
 30
0.0
 11
400.0000000000045
 21
0.2999999999992724
 31
0.0
  0
LINE
  5
14C
330
1F
100
AcDbEntity
  8
TERRACE$EB1739 Miroir
100
AcDbLine
 10
750.0
 20
12.0
 30
0.0
 11
400.0000000000045
 21
12.0
 31
0.0
  0
LINE
  5
14D
330
1F
100
AcDbEntity
  8
TERRACE$EB1739 Miroir
100
AcDbLine
 10
750.0
 20
11.69999999999709
 30
0.0
 11
400.0000000000045
 21
11.69999999999709
 31
0.0
  0
LINE
  5
14E
330
1F
100
AcDbEntity
  8
TERRACE$EB1739 Miroir
100
AcDbLine
 10
30.300000000007
 20
0.2999999999992724
 30
0.0
 11
400.0000000000045
 21
0.2999999999992724
 31
0.0
  0
LINE
  5
14F
330
1F
100
AcDbEntity
  8
TERRACE$EB1739 Miroir
100
AcDbLine
 10
30.300000000007
 20
0.0
 30
0.0
 11
400.0000000000045
 21
0.0
 31
0.0
  0
LINE
  5
150
330
1F
100
AcDbEntity
  8
TERRACE$EB1739 Miroir
100
AcDbLine
 10
30.30000000000655
 20
11.69999999999709
 30
0.0
 11
400.0000000000045
 21
11.69999999999709
 31
0.0
  0
LINE
  5
151
330
1F
100
AcDbEntity
  8
TERRACE$EB1739 Miroir
100
AcDbLine
 10
241.7545889157291
 20
12.0
 30
0.0
 11
400.0000000000045
 21
12.0
 31
0.0
  0
LINE
  5
152
330
1F
100
AcDbEntity
  8
TERRACE$EB1739 Miroir
100
AcDbLine
 10
30.30000000000655
 20
12.0
 30
0.0
 11
230.2454110842818
 21
12.0
 31
0.0
  0
LINE
  5
153
330
1F
100
AcDbEntity
  8
TERRACE$EB1739 Miroir
100
AcDbLine
 10
30.00000000000682
 20
0.2999999999992724
 30
0.0
 11
30.00000000000682
 21
11.69999999999709
 31
0.0
  0
LINE
  5
154
330
1F
100
AcDbEntity
  8
TERRACE$EB1739 Miroir
100
AcDbLine
 10
30.300000000007
 20
0.2999999999992724
 30
0.0
 11
30.30000000000655
 21
11.69999999999709
 31
0.0
  0
LINE
  5
155
330
1F
100
AcDbEntity
  8
TERRACE$EB1739 Miroir
100
AcDbLine
 10
30.00500838948165
 20
0.3000000000101863
 30
0.0
 11
30.300000000007
 21
0.2999999999992724
 31
0.0
  0
ARC
  5
156
330
1F
100
AcDbEntity
  8
TERRACE$EB1739 Miroir
100
AcDbCircle
 10
30.30000000000741
 20
0.3000000000005903
 30
0.0
 40
0.3000000000005905
100
AcDbArc
 50
180.0000000002517
 51
269.999999999922
  0
LINE
  5
157
330
1F
100
AcDbEntity
  8
TERRACE$EB1739 Miroir
100
AcDbLine
 10
30.300000000007
 20
0.0
 30
0.0
 11
30.300000000007
 21
0.2999999999992724
 31
0.0
  0
LINE
  5
158
330
1F
100
AcDbEntity
  8
TERRACE$EB1739 Miroir
100
AcDbLine
 10
30.30000000000655
 20
11.99499161052518
 30
0.0
 11
30.30000000000655
 21
11.69999999999709
 31
0.0
  0
ARC
  5
159
330
1F
100
AcDbEntity
  8
TERRACE$EB1739 Miroir
100
AcDbCircle
 10
30.30000000000771
 20
11.69999999999908
 30
0.0
 40
0.3000000000009232
100
AcDbArc
 50
90.00000000022189
 51
179.9999725938846
  0
LINE
  5
15A
330
1F
100
AcDbEntity
  8
TERRACE$EB1739 Miroir
100
AcDbLine
 10
30.30000000000655
 20
11.69999999999709
 30
0.0
 11
30.00000000000682
 21
11.69999999999709
 31
0.0
  0
LINE
  5
15B
330
1F
100
AcDbEntity
  8
TERRACE$EB1739 Miroir
100
AcDbLine
 10
750.0
 20
120.0
 30
0.0
 11
1099.999999999995
 21
120.0
 31
0.0
  0
LINE
  5
15C
330
1F
100
AcDbEntity
  8
TERRACE$EB1739 Miroir
100
AcDbLine
 10
750.0
 20
120.2999999999993
 30
0.0
 11
1099.999999999995
 21
120.2999999999993
 31
0.0
  0
LINE
  5
15D
330
1F
100
AcDbEntity
  8
TERRACE$EB1739 Miroir
100
AcDbLine
 10
750.0
 20
132.0
 30
0.0
 11
1099.999999999995
 21
132.0
 31
0.0
  0
LINE
  5
15E
330
1F
100
AcDbEntity
  8
TERRACE$EB1739 Miroir
100
AcDbLine
 10
750.0
 20
131.7000000000007
 30
0.0
 11
1099.999999999995
 21
131.6999999999971
 31
0.0
  0
LINE
  5
15F
330
1F
100
AcDbEntity
  8
TERRACE$EB1739 Miroir
100
AcDbLine
 10
1469.699999999993
 20
120.2999999999993
 30
0.0
 11
1099.999999999995
 21
120.2999999999993
 31
0.0
  0
LINE
  5
160
330
1F
100
AcDbEntity
  8
TERRACE$EB1739 Miroir
100
AcDbLine
 10
1469.699999999993
 20
120.0
 30
0.0
 11
1099.999999999995
 21
120.0
 31
0.0
  0
LINE
  5
161
330
1F
100
AcDbEntity
  8
TERRACE$EB1739 Miroir
100
AcDbLine
 10
1469.699999999993
 20
131.7000000000007
 30
0.0
 11
1099.999999999995
 21
131.6999999999971
 31
0.0
  0
LINE
  5
162
330
1F
100
AcDbEntity
  8
TERRACE$EB1739 Miroir
100
AcDbLine
 10
1469.699999999993
 20
132.0
 30
0.0
 11
1099.999999999995
 21
132.0
 31
0.0
  0
LINE
  5
163
330
1F
100
AcDbEntity
  8
TERRACE$EB1739 Miroir
100
AcDbLine
 10
1469.699999999993
 20
120.2999999999993
 30
0.0
 11
1469.699999999993
 21
131.7000000000007
 31
0.0
  0
LINE
  5
164
330
1F
100
AcDbEntity
  8
TERRACE$EB1739 Miroir
100
AcDbLine
 10
1469.999999999993
 20
120.2999999999993
 30
0.0
 11
1469.699999999993
 21
120.2999999999993
 31
0.0
  0
ARC
  5
165
330
1F
100
AcDbEntity
  8
TERRACE$EB1739 Miroir
100
AcDbCircle
 10
1469.699999999988
 20
120.3000000000055
 30
0.0
 40
0.3000000000056839
100
AcDbArc
 50
270.0000000008251
 51
349.5789115538024
  0
LINE
  5
166
330
1F
100
AcDbEntity
  8
TERRACE$EB1739 Miroir
100
AcDbLine
 10
1469.699999999993
 20
120.0
 30
0.0
 11
1469.699999999993
 21
120.2999999999993
 31
0.0
  0
LINE
  5
167
330
1F
100
AcDbEntity
  8
TERRACE$EB1739 Miroir
100
AcDbLine
 10
1469.699999999983
 20
131.9949916105252
 30
0.0
 11
1469.699999999993
 21
131.7000000000007
 31
0.0
  0
ARC
  5
168
330
1F
100
AcDbEntity
  8
TERRACE$EB1739 Miroir
100
AcDbCircle
 10
1469.69999999999
 20
131.6999999999978
 30
0.0
 40
0.3000000000022286
100
AcDbArc
 50
0.0000028096412782
 51
89.99999999960917
  0
LINE
  5
169
330
1F
100
AcDbEntity
  8
TERRACE$EB1739 Miroir
100
AcDbLine
 10
1469.699999999993
 20
131.7000000000007
 30
0.0
 11
1469.999999999993
 21
131.6999999999971
 31
0.0
  0
LINE
  5
16A
330
1F
100
AcDbEntity
  8
TERRACE$EB1739 Miroir
100
AcDbLine
 10
750.0
 20
120.0
 30
0.0
 11
400.0000000000045
 21
120.0
 31
0.0
  0
LINE
  5
16B
330
1F
100
AcDbEntity
  8
TERRACE$EB1739 Miroir
100
AcDbLine
 10
750.0
 20
120.2999999999993
 30
0.0
 11
400.0000000000045
 21
120.2999999999993
 31
0.0
  0
LINE
  5
16C
330
1F
100
AcDbEntity
  8
TERRACE$EB1739 Miroir
100
AcDbLine
 10
750.0
 20
132.0
 30
0.0
 11
400.0000000000045
 21
132.0
 31
0.0
  0
LINE
  5
16D
330
1F
100
AcDbEntity
  8
TERRACE$EB1739 Miroir
100
AcDbLine
 10
750.0
 20
131.7000000000007
 30
0.0
 11
400.0000000000045
 21
131.6999999999971
 31
0.0
  0
LINE
  5
16E
330
1F
100
AcDbEntity
  8
TERRACE$EB1739 Miroir
100
AcDbLine
 10
30.30000000000655
 20
120.2999999999993
 30
0.0
 11
400.0000000000045
 21
120.2999999999993
 31
0.0
  0
LINE
  5
16F
330
1F
100
AcDbEntity
  8
TERRACE$EB1739 Miroir
100
AcDbLine
 10
241.7545889157291
 20
120.0
 30
0.0
 11
400.0000000000045
 21
120.0
 31
0.0
  0
LINE
  5
170
330
1F
100
AcDbEntity
  8
TERRACE$EB1739 Miroir
100
AcDbLine
 10
30.300000000007
 20
120.0
 30
0.0
 11
230.2454110842818
 21
120.0
 31
0.0
  0
LINE
  5
171
330
1F
100
AcDbEntity
  8
TERRACE$EB1739 Miroir
100
AcDbLine
 10
30.30000000000655
 20
131.7000000000007
 30
0.0
 11
400.0000000000045
 21
131.6999999999971
 31
0.0
  0
LINE
  5
172
330
1F
100
AcDbEntity
  8
TERRACE$EB1739 Miroir
100
AcDbLine
 10
30.30000000000655
 20
132.0
 30
0.0
 11
400.0000000000045
 21
132.0
 31
0.0
  0
LINE
  5
173
330
1F
100
AcDbEntity
  8
TERRACE$EB1739 Miroir
100
AcDbLine
 10
30.30000000000655
 20
120.2999999999993
 30
0.0
 11
30.30000000000655
 21
131.7000000000007
 31
0.0
  0
LINE
  5
174
330
1F
100
AcDbEntity
  8
TERRACE$EB1739 Miroir
100
AcDbLine
 10
30.00000000000682
 20
120.2999999999993
 30
0.0
 11
30.30000000000655
 21
120.2999999999993
 31
0.0
  0
ARC
  5
175
330
1F
100
AcDbEntity
  8
TERRACE$EB1739 Miroir
100
AcDbCircle
 10
30.30000000000289
 20
120.299999999995
 30
0.0
 40
0.2999999999950507
100
AcDbArc
 50
190.4210884445372
 51
270.000000000785
  0
LINE
  5
176
330
1F
100
AcDbEntity
  8
TERRACE$EB1739 Miroir
100
AcDbLine
 10
30.300000000007
 20
120.0
 30
0.0
 11
30.30000000000655
 21
120.2999999999993
 31
0.0
  0
LINE
  5
177
330
1F
100
AcDbEntity
  8
TERRACE$EB1739 Miroir
100
AcDbLine
 10
30.30000000001473
 20
131.9949916105252
 30
0.0
 11
30.30000000000655
 21
131.7000000000007
 31
0.0
  0
ARC
  5
178
330
1F
100
AcDbEntity
  8
TERRACE$EB1739 Miroir
100
AcDbCircle
 10
30.30000000000236
 20
131.7000000000045
 30
0.0
 40
0.2999999999955424
100
AcDbArc
 50
89.99999999920071
 51
179.9999971923183
  0
LINE
  5
179
330
1F
100
AcDbEntity
  8
TERRACE$EB1739 Miroir
100
AcDbLine
 10
30.30000000000655
 20
131.7000000000007
 30
0.0
 11
30.00000000000637
 21
131.6999999999971
 31
0.0
  0
LINE
  5
17A
330
1F
100
AcDbEntity
  8
TERRACE$EB1739 Miroir
100
AcDbLine
 10
1470.299999999997
 20
684.7000000000007
 30
0.0
 11
1470.299999999997
 21
0.2999999999992724
 31
0.0
  0
LINE
  5
17B
330
1F
100
AcDbEntity
  8
TERRACE$EB1739 Miroir
100
AcDbLine
 10
1469.999999999997
 20
684.7000000000007
 30
0.0
 11
1469.999999999997
 21
0.2999999999992724
 31
0.0
  0
LINE
  5
17C
330
1F
100
AcDbEntity
  8
TERRACE$EB1739 Miroir
100
AcDbLine
 10
1499.699999999998
 20
0.2999999999992724
 30
0.0
 11
1499.699999999997
 21
684.7000000000007
 31
0.0
  0
LINE
  5
17D
330
1F
100
AcDbEntity
  8
TERRACE$EB1739 Miroir
100
AcDbLine
 10
1499.999999999997
 20
0.2999999999992724
 30
0.0
 11
1499.999999999997
 21
684.7000000000007
 31
0.0
  0
LINE
  5
17E
330
1F
100
AcDbEntity
  8
TERRACE$EB1739 Miroir
100
AcDbLine
 10
1470.299999999997
 20
0.0
 30
0.0
 11
1499.699999999997
 21
0.0
 31
0.0
  0
LINE
  5
17F
330
1F
100
AcDbEntity
  8
TERRACE$EB1739 Miroir
100
AcDbLine
 10
1470.299999999997
 20
0.2999999999992724
 30
0.0
 11
1499.699999999998
 21
0.2999999999992724
 31
0.0
  0
LINE
  5
180
330
1F
100
AcDbEntity
  8
TERRACE$EB1739 Miroir
100
AcDbLine
 10
1470.299999999997
 20
684.9999999999964
 30
0.0
 11
1499.699999999997
 21
684.9999999999964
 31
0.0
  0
LINE
  5
181
330
1F
100
AcDbEntity
  8
TERRACE$EB1739 Miroir
100
AcDbLine
 10
1470.299999999997
 20
684.7000000000007
 30
0.0
 11
1499.699999999997
 21
684.7000000000007
 31
0.0
  0
LINE
  5
182
330
1F
100
AcDbEntity
  8
TERRACE$EB1739 Miroir
100
AcDbLine
 10
1469.999999999997
 20
684.7000000000007
 30
0.0
 11
1470.299999999997
 21
684.7000000000007
 31
0.0
  0
LINE
  5
183
330
1F
100
AcDbEntity
  8
TERRACE$EB1739 Miroir
100
AcDbLine
 10
1470.299999999997
 20
684.9999999999964
 30
0.0
 11
1470.299999999997
 21
684.7000000000007
 31
0.0
  0
ARC
  5
184
330
1F
100
AcDbEntity
  8
TERRACE$EB1739 Miroir
100
AcDbCircle
 10
1470.299999999992
 20
684.7000000000019
 30
0.0
 40
0.2999999999944976
100
AcDbArc
 50
89.99999999891438
 51
180.0000000002171
  0
ARC
  5
185
330
1F
100
AcDbEntity
  8
TERRACE$EB1739 Miroir
100
AcDbCircle
 10
1470.299999999994
 20
0.2999999999966931
 30
0.0
 40
0.2999999999967713
100
AcDbArc
 50
179.9999999995074
 51
270.0000000004777
  0
LINE
  5
186
330
1F
100
AcDbEntity
  8
TERRACE$EB1739 Miroir
100
AcDbLine
 10
1470.299999999997
 20
0.0
 30
0.0
 11
1470.299999999997
 21
0.2999999999992724
 31
0.0
  0
LINE
  5
187
330
1F
100
AcDbEntity
  8
TERRACE$EB1739 Miroir
100
AcDbLine
 10
1470.005008389472
 20
0.3000000000029104
 30
0.0
 11
1470.299999999997
 21
0.2999999999992724
 31
0.0
  0
LINE
  5
188
330
1F
100
AcDbEntity
  8
TERRACE$EB1739 Miroir
100
AcDbLine
 10
1499.699999999998
 20
0.2999999999992724
 30
0.0
 11
1499.999999999997
 21
0.2999999999992724
 31
0.0
  0
LINE
  5
189
330
1F
100
AcDbEntity
  8
TERRACE$EB1739 Miroir
100
AcDbLine
 10
1499.699999999997
 20
0.0
 30
0.0
 11
1499.699999999998
 21
0.2999999999992724
 31
0.0
  0
ARC
  5
18A
330
1F
100
AcDbEntity
  8
TERRACE$EB1739 Miroir
100
AcDbCircle
 10
1499.699999999997
 20
0.299999999999045
 30
0.0
 40
0.299999999999045
100
AcDbArc
 50
269.9999999999566
 51
0.0000000000434252
  0
ARC
  5
18B
330
1F
100
AcDbEntity
  8
TERRACE$EB1739 Miroir
100
AcDbCircle
 10
1499.700000000002
 20
684.7000000000013
 30
0.0
 40
0.299999999995066
100
AcDbArc
 50
359.9999999998914
 51
90.00000000095535
  0
LINE
  5
18C
330
1F
100
AcDbEntity
  8
TERRACE$EB1739 Miroir
100
AcDbLine
 10
1499.699999999997
 20
684.7000000000007
 30
0.0
 11
1499.699999999997
 21
684.9999999999964
 31
0.0
  0
LINE
  5
18D
330
1F
100
AcDbEntity
  8
TERRACE$EB1739 Miroir
100
AcDbLine
 10
1499.699999999997
 20
684.7000000000007
 30
0.0
 11
1499.999999999997
 21
684.7000000000007
 31
0.0
  0
LINE
  5
18E
330
1F
100
AcDbEntity
  8
TERRACE$EB1739 Miroir
100
AcDbLine
 10
230.0000000000082
 20
12.29999999999927
 30
0.0
 11
230.0000000000082
 21
119.6999999999971
 31
0.0
  0
LINE
  5
18F
330
1F
100
AcDbEntity
  8
TERRACE$EB1739 Miroir
100
AcDbLine
 10
230.3000000000084
 20
12.29999999999927
 30
0.0
 11
230.3000000000084
 21
119.6999999999971
 31
0.0
  0
LINE
  5
190
330
1F
100
AcDbEntity
  8
TERRACE$EB1739 Miroir
100
AcDbLine
 10
242.0000000000082
 20
12.29999999999927
 30
0.0
 11
242.0000000000082
 21
119.6999999999971
 31
0.0
  0
LINE
  5
191
330
1F
100
AcDbEntity
  8
TERRACE$EB1739 Miroir
100
AcDbLine
 10
241.700000000008
 20
12.29999999999927
 30
0.0
 11
241.7000000000089
 21
119.6999999999971
 31
0.0
  0
LINE
  5
192
330
1F
100
AcDbEntity
  8
TERRACE$EB1739 Miroir
100
AcDbLine
 10
241.700000000008
 20
12.29999999999927
 30
0.0
 11
230.3000000000084
 21
12.29999999999927
 31
0.0
  0
LINE
  5
193
330
1F
100
AcDbEntity
  8
TERRACE$EB1739 Miroir
100
AcDbLine
 10
241.700000000008
 20
12.0
 30
0.0
 11
230.3000000000084
 21
12.0
 31
0.0
  0
LINE
  5
194
330
1F
100
AcDbEntity
  8
TERRACE$EB1739 Miroir
100
AcDbLine
 10
241.700000000008
 20
120.0
 30
0.0
 11
230.3000000000084
 21
120.0
 31
0.0
  0
LINE
  5
195
330
1F
100
AcDbEntity
  8
TERRACE$EB1739 Miroir
100
AcDbLine
 10
241.7000000000089
 20
119.6999999999971
 30
0.0
 11
230.3000000000084
 21
119.6999999999971
 31
0.0
  0
LINE
  5
196
330
1F
100
AcDbEntity
  8
TERRACE$EB1739 Miroir
100
AcDbLine
 10
230.3000000000084
 20
12.0
 30
0.0
 11
230.3000000000084
 21
12.29999999999927
 31
0.0
  0
ARC
  5
197
330
1F
100
AcDbEntity
  8
TERRACE$EB1739 Miroir
100
AcDbCircle
 10
230.3000000000064
 20
12.29999999999825
 30
0.0
 40
0.2999999999982546
100
AcDbArc
 50
179.9999999998056
 51
270.0000000003691
  0
LINE
  5
198
330
1F
100
AcDbEntity
  8
TERRACE$EB1739 Miroir
100
AcDbLine
 10
230.0000000000082
 20
12.29999999999927
 30
0.0
 11
230.3000000000084
 21
12.29999999999927
 31
0.0
  0
LINE
  5
199
330
1F
100
AcDbEntity
  8
TERRACE$EB1739 Miroir
100
AcDbLine
 10
241.9949916105334
 20
12.30000000000655
 30
0.0
 11
241.700000000008
 21
12.29999999999927
 31
0.0
  0
ARC
  5
19A
330
1F
100
AcDbEntity
  8
TERRACE$EB1739 Miroir
100
AcDbCircle
 10
241.7000000000123
 20
12.29999999999595
 30
0.0
 40
0.2999999999959524
100
AcDbArc
 50
269.9999999991858
 51
0.0000000006340754
  0
LINE
  5
19B
330
1F
100
AcDbEntity
  8
TERRACE$EB1739 Miroir
100
AcDbLine
 10
241.700000000008
 20
12.29999999999927
 30
0.0
 11
241.700000000008
 21
12.0
 31
0.0
  0
LINE
  5
19C
330
1F
100
AcDbEntity
  8
TERRACE$EB1739 Miroir
100
AcDbLine
 10
230.3000000000084
 20
119.6999999999971
 30
0.0
 11
230.0000000000082
 21
119.6999999999971
 31
0.0
  0
ARC
  5
19D
330
1F
100
AcDbEntity
  8
TERRACE$EB1739 Miroir
100
AcDbCircle
 10
230.3000000000122
 20
119.6999999999959
 30
0.0
 40
0.3000000000040473
100
AcDbArc
 50
90.00000000073823
 51
179.9999999997802
  0
LINE
  5
19E
330
1F
100
AcDbEntity
  8
TERRACE$EB1739 Miroir
100
AcDbLine
 10
230.3000000000084
 20
119.6999999999971
 30
0.0
 11
230.3000000000084
 21
120.0
 31
0.0
  0
LINE
  5
19F
330
1F
100
AcDbEntity
  8
TERRACE$EB1739 Miroir
100
AcDbLine
 10
241.700000000008
 20
120.0
 30
0.0
 11
241.7000000000089
 21
119.6999999999971
 31
0.0
  0
ARC
  5
1A0
330
1F
100
AcDbEntity
  8
TERRACE$EB1739 Miroir
100
AcDbCircle
 10
241.700000000006
 20
119.6999999999978
 30
0.0
 40
0.3000000000021714
100
AcDbArc
 50
359.9999999998589
 51
89.99999999962003
  0
LINE
  5
1A1
330
1F
100
AcDbEntity
  8
TERRACE$EB1739 Miroir
100
AcDbLine
 10
241.7000000000089
 20
119.6999999999971
 30
0.0
 11
242.0000000000082
 21
119.6999999999971
 31
0.0
  0
LINE
  5
1A2
330
1F
100
AcDbEntity
  8
TERRACE$EB1739 Miroir
100
AcDbLine
 10
29.70000000000027
 20
684.7000000000007
 30
0.0
 11
29.70000000000073
 21
0.2999999999992724
 31
0.0
  0
LINE
  5
1A3
330
1F
100
AcDbEntity
  8
TERRACE$EB1739 Miroir
100
AcDbLine
 10
30.0
 20
684.7000000000007
 30
0.0
 11
30.00000000000091
 21
0.2999999999992724
 31
0.0
  0
LINE
  5
1A4
330
1F
100
AcDbEntity
  8
TERRACE$EB1739 Miroir
100
AcDbLine
 10
0.3000000000001819
 20
0.2999999999992724
 30
0.0
 11
0.3000000000001819
 21
684.7000000000007
 31
0.0
  0
LINE
  5
1A5
330
1F
100
AcDbEntity
  8
TERRACE$EB1739 Miroir
100
AcDbLine
 10
0.0
 20
0.2999999999992724
 30
0.0
 11
0.0000000000004547
 21
684.7000000000007
 31
0.0
  0
LINE
  5
1A6
330
1F
100
AcDbEntity
  8
TERRACE$EB1739 Miroir
100
AcDbLine
 10
29.70000000000073
 20
0.0
 30
0.0
 11
0.3000000000001819
 21
0.0
 31
0.0
  0
LINE
  5
1A7
330
1F
100
AcDbEntity
  8
TERRACE$EB1739 Miroir
100
AcDbLine
 10
29.70000000000073
 20
0.2999999999992724
 30
0.0
 11
0.3000000000001819
 21
0.2999999999992724
 31
0.0
  0
LINE
  5
1A8
330
1F
100
AcDbEntity
  8
TERRACE$EB1739 Miroir
100
AcDbLine
 10
29.70000000000027
 20
684.9999999999964
 30
0.0
 11
0.3000000000001819
 21
684.9999999999964
 31
0.0
  0
LINE
  5
1A9
330
1F
100
AcDbEntity
  8
TERRACE$EB1739 Miroir
100
AcDbLine
 10
29.70000000000027
 20
684.7000000000007
 30
0.0
 11
0.3000000000001819
 21
684.7000000000007
 31
0.0
  0
LINE
  5
1AA
330
1F
100
AcDbEntity
  8
TERRACE$EB1739 Miroir
100
AcDbLine
 10
30.0
 20
684.7000000000007
 30
0.0
 11
29.70000000000027
 21
684.7000000000007
 31
0.0
  0
LINE
  5
1AB
330
1F
100
AcDbEntity
  8
TERRACE$EB1739 Miroir
100
AcDbLine
 10
29.70000000000027
 20
684.9999999999964
 30
0.0
 11
29.70000000000027
 21
684.7000000000007
 31
0.0
  0
ARC
  5
1AC
330
1F
100
AcDbEntity
  8
TERRACE$EB1739 Miroir
100
AcDbCircle
 10
29.70000000000155
 20
684.699999999998
 30
0.0
 40
0.2999999999984482
100
AcDbArc
 50
0.0000000005211021
 51
90.00000000024427
  0
ARC
  5
1AD
330
1F
100
AcDbEntity
  8
TERRACE$EB1739 Miroir
100
AcDbCircle
 10
29.70000000000661
 20
0.2999999999943045
 30
0.0
 40
0.2999999999943022
100
AcDbArc
 50
269.999999998877
 51
0.0000000009488019
  0
LINE
  5
1AE
330
1F
100
AcDbEntity
  8
TERRACE$EB1739 Miroir
100
AcDbLine
 10
29.70000000000073
 20
0.0
 30
0.0
 11
29.70000000000073
 21
0.2999999999992724
 31
0.0
  0
LINE
  5
1AF
330
1F
100
AcDbEntity
  8
TERRACE$EB1739 Miroir
100
AcDbLine
 10
29.99499161052699
 20
0.3000000000029104
 30
0.0
 11
29.70000000000073
 21
0.2999999999992724
 31
0.0
  0
LINE
  5
1B0
330
1F
100
AcDbEntity
  8
TERRACE$EB1739 Miroir
100
AcDbLine
 10
0.3000000000001819
 20
0.2999999999992724
 30
0.0
 11
0.0
 21
0.2999999999992724
 31
0.0
  0
LINE
  5
1B1
330
1F
100
AcDbEntity
  8
TERRACE$EB1739 Miroir
100
AcDbLine
 10
0.3000000000001819
 20
0.0
 30
0.0
 11
0.3000000000001819
 21
0.2999999999992724
 31
0.0
  0
ARC
  5
1B2
330
1F
100
AcDbEntity
  8
TERRACE$EB1739 Miroir
100
AcDbCircle
 10
0.3000000000015894
 20
0.3000000000015894
 30
0.0
 40
0.3000000000015894
100
AcDbArc
 50
180.0000000004425
 51
269.9999999997312
  0
ARC
  5
1B3
330
1F
100
AcDbEntity
  8
TERRACE$EB1739 Miroir
100
AcDbCircle
 10
0.2999999999952365
 20
684.7000000000012
 30
0.0
 40
0.2999999999951797
100
AcDbArc
 50
89.9999999990555
 51
180.0000000000869
  0
LINE
  5
1B4
330
1F
100
AcDbEntity
  8
TERRACE$EB1739 Miroir
100
AcDbLine
 10
0.3000000000001819
 20
684.7000000000007
 30
0.0
 11
0.3000000000001819
 21
684.9999999999964
 31
0.0
  0
LINE
  5
1B5
330
1F
100
AcDbEntity
  8
TERRACE$EB1739 Miroir
100
AcDbLine
 10
0.3000000000001819
 20
684.7000000000007
 30
0.0
 11
0.0000000000022737
 21
684.7000000000007
 31
0.0
  0
ENDSEC
  0
SECTION
  2
OBJECTS
  0
DICTIONARY
  5
C
330
0
100
AcDbDictionary
281
     1
  3
ACAD_GROUP
350
D
  3
ACAD_LAYOUT
350
1A
  3
ACAD_MATERIAL
350
3B
  3
ACAD_MLEADERSTYLE
350
1E0
  3
ACAD_MLINESTYLE
350
17
  3
ACAD_PLOTSETTINGS
350
19
  3
ACAD_PLOTSTYLENAME
350
E
  3
ACAD_SCALELIST
350
3F
  3
ACAD_TABLESTYLE
350
1DF
  3
ACAD_VISUALSTYLE
350
2A
  3
AcDbVariableDictionary
350
1B6
  0
DICTIONARY
  5
D
102
{ACAD_REACTORS
330
C
102
}
330
C
100
AcDbDictionary
281
     1
  0
DICTIONARY
  5
1A
102
{ACAD_REACTORS
330
C
102
}
330
C
100
AcDbDictionary
281
     1
  3
Layout1
350
1E
  3
Layout2
350
26
  3
Model
350
22
  0
DICTIONARY
  5
3B
102
{ACAD_REACTORS
330
C
102
}
330
C
100
AcDbDictionary
281
     1
  3
ByBlock
350
3D
  3
ByLayer
350
3C
  3
Global
350
3E
  0
DICTIONARY
  5
1E0
102
{ACAD_REACTORS
330
C
102
}
330
C
100
AcDbDictionary
281
     1
  0
DICTIONARY
  5
17
102
{ACAD_REACTORS
330
C
102
}
330
C
100
AcDbDictionary
281
     1
  3
Standard
350
18
  0
DICTIONARY
  5
19
102
{ACAD_REACTORS
330
C
102
}
330
C
100
AcDbDictionary
281
     1
  0
ACDBDICTIONARYWDFLT
  5
E
102
{ACAD_REACTORS
330
C
102
}
330
C
100
AcDbDictionary
281
     1
  3
Normal
350
F
100
AcDbDictionaryWithDefault
340
F
  0
DICTIONARY
  5
3F
102
{ACAD_REACTORS
330
C
102
}
330
C
100
AcDbDictionary
281
     1
  3
A0
350
40
  3
A1
350
41
  3
A2
350
42
  3
A3
350
43
  3
A4
350
44
  3
A5
350
45
  3
A6
350
46
  3
A7
350
47
  3
A8
350
48
  3
A9
350
49
  3
B0
350
4A
  3
B1
350
4B
  3
B2
350
4C
  3
B3
350
4D
  3
B4
350
4E
  3
B5
350
4F
  3
B6
350
50
  3
B7
350
51
  3
B8
350
52
  3
B9
350
53
  3
C0
350
54
  3
C1
350
55
  3
C2
350
56
  3
C3
350
57
  3
C4
350
58
  3
C5
350
59
  3
C6
350
5A
  3
C7
350
5B
  3
C8
350
5C
  3
C9
350
5D
  3
D0
350
5E
  3
D1
350
5F
  3
D2
350
60
  0
DICTIONARY
  5
1DF
102
{ACAD_REACTORS
330
C
102
}
330
C
100
AcDbDictionary
281
     1
  0
DICTIONARY
  5
2A
102
{ACAD_REACTORS
330
C
102
}
330
C
100
AcDbDictionary
281
     1
  3
2dWireframe
350
2F
  3
3D Hidden
350
31
  3
3dWireframe
350
30
  3
Basic
350
32
  3
Brighten
350
36
  3
ColorChange
350
3A
  3
Conceptual
350
34
  3
Dim
350
35
  3
Facepattern
350
39
  3
Flat
350
2B
  3
FlatWithEdges
350
2C
  3
Gouraud
350
2D
  3
GouraudWithEdges
350
2E
  3
Linepattern
350
38
  3
Realistic
350
33
  3
Thicken
350
37
  0
DICTIONARY
  5
1B6
102
{ACAD_REACTORS
330
C
102
}
330
C
100
AcDbDictionary
281
     1
  3
CANNOSCALE
350
1B7
  3
MSLTSCALE
350
1B8
  0
LAYOUT
  5
1E
102
{ACAD_REACTORS
330
1A
102
}
330
1A
100
AcDbPlotSettings
  1

  2
none_device
  4

  6

 40
0.0
 41
0.0
 42
0.0
 43
0.0
 44
0.0
 45
0.0
 46
0.0
 47
0.0
 48
0.0
 49
0.0
140
0.0
141
0.0
142
1.0
143
1.0
 70
   688
 72
     0
 73
     0
 74
     5
  7

 75
    16
 76
     0
 77
     2
 78
   300
147
1.0
148
0.0
149
0.0
100
AcDbLayout
  1
Layout1
 70
     1
 71
     1
 10
0.0
 20
0.0
 11
12.0
 21
9.0
 12
0.0
 22
0.0
 32
0.0
 14
1.000000000000000E+20
 24
1.000000000000000E+20
 34
1.000000000000000E+20
 15
-1.000000000000000E+20
 25
-1.000000000000000E+20
 35
-1.000000000000000E+20
146
0.0
 13
0.0
 23
0.0
 33
0.0
 16
1.0
 26
0.0
 36
0.0
 17
0.0
 27
1.0
 37
0.0
 76
     0
330
1B
  0
LAYOUT
  5
26
102
{ACAD_REACTORS
330
1A
102
}
330
1A
100
AcDbPlotSettings
  1

  2
none_device
  4

  6

 40
0.0
 41
0.0
 42
0.0
 43
0.0
 44
0.0
 45
0.0
 46
0.0
 47
0.0
 48
0.0
 49
0.0
140
0.0
141
0.0
142
1.0
143
1.0
 70
   688
 72
     0
 73
     0
 74
     5
  7

 75
    16
 76
     0
 77
     2
 78
   300
147
1.0
148
0.0
149
0.0
100
AcDbLayout
  1
Layout2
 70
     1
 71
     2
 10
0.0
 20
0.0
 11
0.0
 21
0.0
 12
0.0
 22
0.0
 32
0.0
 14
0.0
 24
0.0
 34
0.0
 15
0.0
 25
0.0
 35
0.0
146
0.0
 13
0.0
 23
0.0
 33
0.0
 16
1.0
 26
0.0
 36
0.0
 17
0.0
 27
1.0
 37
0.0
 76
     0
330
23
  0
LAYOUT
  5
22
102
{ACAD_REACTORS
330
1A
102
}
330
1A
100
AcDbPlotSettings
  1

  2
none_device
  4
Letter_(8.50_x_11.00_Inches)
  6

 40
6.35
 41
6.35
 42
6.35000508
 43
6.35000508
 44
215.9
 45
279.4
 46
0.0
 47
0.0
 48
0.0
 49
0.0
140
0.0
141
0.0
142
1.0
143
1.0
 70
  1712
 72
     0
 73
     0
 74
     0
  7

 75
     0
 76
     0
 77
     2
 78
   300
147
1.0
148
0.0
149
0.0
100
AcDbLayout
  1
Model
 70
     1
 71
     0
 10
0.0
 20
0.0
 11
12.0
 21
9.0
 12
0.0
 22
0.0
 32
0.0
 14
0.0
 24
-0.0000000000000782
 34
0.0
 15
1499.999999999997
 25
685.0
 35
0.0
146
0.0
 13
0.0
 23
0.0
 33
0.0
 16
1.0
 26
0.0
 36
0.0
 17
0.0
 27
1.0
 37
0.0
 76
     0
330
1F
331
29
  0
MATERIAL
  5
3D
102
{ACAD_REACTORS
330
3B
102
}
102
{ACAD_XDICTIONARY
360
1DB
102
}
330
3B
100
AcDbMaterial
  1
ByBlock
  0
MATERIAL
  5
3C
102
{ACAD_REACTORS
330
3B
102
}
102
{ACAD_XDICTIONARY
360
1D9
102
}
330
3B
100
AcDbMaterial
  1
ByLayer
  0
MATERIAL
  5
3E
102
{ACAD_REACTORS
330
3B
102
}
102
{ACAD_XDICTIONARY
360
1DD
102
}
330
3B
100
AcDbMaterial
  1
Global
  0
MLINESTYLE
  5
18
102
{ACAD_REACTORS
330
17
102
}
330
17
100
AcDbMlineStyle
  2
Standard
 70
     0
  3

 62
   256
 51
90.0
 52
90.0
 71
     2
 49
0.5
 62
   256
  6
BYLAYER
 49
-0.5
 62
   256
  6
BYLAYER
  0
ACDBPLACEHOLDER
  5
F
102
{ACAD_REACTORS
330
E
102
}
330
E
  0
SCALE
  5
40
102
{ACAD_REACTORS
330
3F
102
}
330
3F
100
AcDbScale
 70
     0
300
1:1
140
1.0
141
1.0
290
     1
  0
SCALE
  5
41
102
{ACAD_REACTORS
330
3F
102
}
330
3F
100
AcDbScale
 70
     0
300
1:2
140
1.0
141
2.0
290
     0
  0
SCALE
  5
42
102
{ACAD_REACTORS
330
3F
102
}
330
3F
100
AcDbScale
 70
     0
300
1:4
140
1.0
141
4.0
290
     0
  0
SCALE
  5
43
102
{ACAD_REACTORS
330
3F
102
}
330
3F
100
AcDbScale
 70
     0
300
1:5
140
1.0
141
5.0
290
     0
  0
SCALE
  5
44
102
{ACAD_REACTORS
330
3F
102
}
330
3F
100
AcDbScale
 70
     0
300
1:8
140
1.0
141
8.0
290
     0
  0
SCALE
  5
45
102
{ACAD_REACTORS
330
3F
102
}
330
3F
100
AcDbScale
 70
     0
300
1:10
140
1.0
141
10.0
290
     0
  0
SCALE
  5
46
102
{ACAD_REACTORS
330
3F
102
}
330
3F
100
AcDbScale
 70
     0
300
1:16
140
1.0
141
16.0
290
     0
  0
SCALE
  5
47
102
{ACAD_REACTORS
330
3F
102
}
330
3F
100
AcDbScale
 70
     0
300
1:20
140
1.0
141
20.0
290
     0
  0
SCALE
  5
48
102
{ACAD_REACTORS
330
3F
102
}
330
3F
100
AcDbScale
 70
     0
300
1:30
140
1.0
141
30.0
290
     0
  0
SCALE
  5
49
102
{ACAD_REACTORS
330
3F
102
}
330
3F
100
AcDbScale
 70
     0
300
1:40
140
1.0
141
40.0
290
     0
  0
SCALE
  5
4A
102
{ACAD_REACTORS
330
3F
102
}
330
3F
100
AcDbScale
 70
     0
300
1:50
140
1.0
141
50.0
290
     0
  0
SCALE
  5
4B
102
{ACAD_REACTORS
330
3F
102
}
330
3F
100
AcDbScale
 70
     0
300
1:100
140
1.0
141
100.0
290
     0
  0
SCALE
  5
4C
102
{ACAD_REACTORS
330
3F
102
}
330
3F
100
AcDbScale
 70
     0
300
2:1
140
2.0
141
1.0
290
     0
  0
SCALE
  5
4D
102
{ACAD_REACTORS
330
3F
102
}
330
3F
100
AcDbScale
 70
     0
300
4:1
140
4.0
141
1.0
290
     0
  0
SCALE
  5
4E
102
{ACAD_REACTORS
330
3F
102
}
330
3F
100
AcDbScale
 70
     0
300
8:1
140
8.0
141
1.0
290
     0
  0
SCALE
  5
4F
102
{ACAD_REACTORS
330
3F
102
}
330
3F
100
AcDbScale
 70
     0
300
10:1
140
10.0
141
1.0
290
     0
  0
SCALE
  5
50
102
{ACAD_REACTORS
330
3F
102
}
330
3F
100
AcDbScale
 70
     0
300
100:1
140
100.0
141
1.0
290
     0
  0
SCALE
  5
51
102
{ACAD_REACTORS
330
3F
102
}
330
3F
100
AcDbScale
 70
     0
300
1/128" = 1'-0"
140
0.0078125
141
12.0
290
     0
  0
SCALE
  5
52
102
{ACAD_REACTORS
330
3F
102
}
330
3F
100
AcDbScale
 70
     0
300
1/64" = 1'-0"
140
0.015625
141
12.0
290
     0
  0
SCALE
  5
53
102
{ACAD_REACTORS
330
3F
102
}
330
3F
100
AcDbScale
 70
     0
300
1/32" = 1'-0"
140
0.03125
141
12.0
290
     0
  0
SCALE
  5
54
102
{ACAD_REACTORS
330
3F
102
}
330
3F
100
AcDbScale
 70
     0
300
1/16" = 1'-0"
140
0.0625
141
12.0
290
     0
  0
SCALE
  5
55
102
{ACAD_REACTORS
330
3F
102
}
330
3F
100
AcDbScale
 70
     0
300
3/32" = 1'-0"
140
0.09375
141
12.0
290
     0
  0
SCALE
  5
56
102
{ACAD_REACTORS
330
3F
102
}
330
3F
100
AcDbScale
 70
     0
300
1/8" = 1'-0"
140
0.125
141
12.0
290
     0
  0
SCALE
  5
57
102
{ACAD_REACTORS
330
3F
102
}
330
3F
100
AcDbScale
 70
     0
300
3/16" = 1'-0"
140
0.1875
141
12.0
290
     0
  0
SCALE
  5
58
102
{ACAD_REACTORS
330
3F
102
}
330
3F
100
AcDbScale
 70
     0
300
1/4" = 1'-0"
140
0.25
141
12.0
290
     0
  0
SCALE
  5
59
102
{ACAD_REACTORS
330
3F
102
}
330
3F
100
AcDbScale
 70
     0
300
3/8" = 1'-0"
140
0.375
141
12.0
290
     0
  0
SCALE
  5
5A
102
{ACAD_REACTORS
330
3F
102
}
330
3F
100
AcDbScale
 70
     0
300
1/2" = 1'-0"
140
0.5
141
12.0
290
     0
  0
SCALE
  5
5B
102
{ACAD_REACTORS
330
3F
102
}
330
3F
100
AcDbScale
 70
     0
300
3/4" = 1'-0"
140
0.75
141
12.0
290
     0
  0
SCALE
  5
5C
102
{ACAD_REACTORS
330
3F
102
}
330
3F
100
AcDbScale
 70
     0
300
1" = 1'-0"
140
1.0
141
12.0
290
     0
  0
SCALE
  5
5D
102
{ACAD_REACTORS
330
3F
102
}
330
3F
100
AcDbScale
 70
     0
300
1-1/2" = 1'-0"
140
1.5
141
12.0
290
     0
  0
SCALE
  5
5E
102
{ACAD_REACTORS
330
3F
102
}
330
3F
100
AcDbScale
 70
     0
300
3" = 1'-0"
140
3.0
141
12.0
290
     0
  0
SCALE
  5
5F
102
{ACAD_REACTORS
330
3F
102
}
330
3F
100
AcDbScale
 70
     0
300
6" = 1'-0"
140
6.0
141
12.0
290
     0
  0
SCALE
  5
60
102
{ACAD_REACTORS
330
3F
102
}
330
3F
100
AcDbScale
 70
     0
300
1'-0" = 1'-0"
140
12.0
141
12.0
290
     0
  0
VISUALSTYLE
  5
2F
102
{ACAD_REACTORS
330
2A
102
}
102
{ACAD_XDICTIONARY
360
1C1
102
}
330
2A
100
AcDbVisualStyle
  2
2dWireframe
 70
     4
 71
     0
 72
     2
 73
     0
 90
        0
 40
0.6
 41
30.0
 62
     5
 63
     7
421
 16777215
 74
     1
 91
        4
 64
     7
 65
   257
 75
     1
175
     1
 42
1.0
 92
        0
 66
   257
 43
1.0
 76
     1
 77
     6
 78
     2
 67
     7
 79
     5
170
     0
171
     0
290
     0
174
     0
 93
        1
 44
0.0
173
     0
291
     0
 45
0.0
1001
ACAD
1000
AcDbSavedByObjectVersion
1070
     0
  0
VISUALSTYLE
  5
31
102
{ACAD_REACTORS
330
2A
102
}
102
{ACAD_XDICTIONARY
360
1C5
102
}
330
2A
100
AcDbVisualStyle
  2
3D Hidden
 70
     6
 71
     1
 72
     2
 73
     2
 90
        0
 40
0.6
 41
30.0
 62
     5
 63
     7
421
 16777215
 74
     2
 91
        2
 64
     7
 65
   257
 75
     2
175
     1
 42
40.0
 92
        0
 66
   257
 43
1.0
 76
     1
 77
     6
 78
     2
 67
     7
 79
     3
170
     0
171
     0
290
     0
174
     0
 93
        1
 44
0.0
173
     0
291
     0
 45
0.0
1001
ACAD
1000
AcDbSavedByObjectVersion
1070
     0
  0
VISUALSTYLE
  5
30
102
{ACAD_REACTORS
330
2A
102
}
102
{ACAD_XDICTIONARY
360
1C3
102
}
330
2A
100
AcDbVisualStyle
  2
3dWireframe
 70
     5
 71
     0
 72
     2
 73
     0
 90
        0
 40
0.6
 41
30.0
 62
     5
 63
     7
421
 16777215
 74
     1
 91
        4
 64
     7
 65
   257
 75
     1
175
     1
 42
1.0
 92
        0
 66
   257
 43
1.0
 76
     1
 77
     6
 78
     2
 67
     7
 79
     5
170
     0
171
     0
290
     0
174
     0
 93
        1
 44
0.0
173
     0
291
     0
 45
0.0
1001
ACAD
1000
AcDbSavedByObjectVersion
1070
     0
  0
VISUALSTYLE
  5
32
102
{ACAD_REACTORS
330
2A
102
}
102
{ACAD_XDICTIONARY
360
1C7
102
}
330
2A
100
AcDbVisualStyle
  2
Basic
 70
     7
 71
     1
 72
     0
 73
     1
 90
        0
 40
0.6
 41
30.0
 62
     5
 63
     7
421
 16777215
 74
     0
 91
        4
 64
     7
 65
   257
 75
     1
175
     1
 42
1.0
 92
        8
 66
     7
 43
1.0
 76
     1
 77
     6
 78
     2
 67
     7
 79
     5
170
     0
171
     0
290
     0
174
     0
 93
        1
 44
0.0
173
     0
291
     1
 45
0.0
1001
ACAD
1000
AcDbSavedByObjectVersion
1070
     0
  0
VISUALSTYLE
  5
36
102
{ACAD_REACTORS
330
2A
102
}
102
{ACAD_XDICTIONARY
360
1CF
102
}
330
2A
100
AcDbVisualStyle
  2
Brighten
 70
    12
 71
     2
 72
     2
 73
     0
 90
        0
 40
0.6
 41
30.0
 62
     5
 63
     7
421
 16777215
 74
     1
 91
        4
 64
     7
 65
   257
 75
     1
175
     1
 42
1.0
 92
        8
 66
     7
 43
1.0
 76
     1
 77
     6
 78
     2
 67
     7
 79
     5
170
     0
171
     0
290
     0
174
     0
 93
        1
 44
50.0
173
     0
291
     1
 45
0.0
1001
ACAD
1000
AcDbSavedByObjectVersion
1070
     0
  0
VISUALSTYLE
  5
3A
102
{ACAD_REACTORS
330
2A
102
}
102
{ACAD_XDICTIONARY
360
1D7
102
}
330
2A
100
AcDbVisualStyle
  2
ColorChange
 70
    16
 71
     2
 72
     2
 73
     3
 90
        0
 40
0.6
 41
30.0
 62
     5
 63
     8
421
  8421504
 74
     1
 91
        4
 64
     7
 65
   257
 75
     1
175
     1
 42
1.0
 92
        8
 66
     8
424
  8421504
 43
1.0
 76
     1
 77
     6
 78
     2
 67
     7
 79
     5
170
     0
171
     0
290
     0
174
     0
 93
        1
 44
0.0
173
     0
291
     1
 45
0.0
1001
ACAD
1000
AcDbSavedByObjectVersion
1070
     0
  0
VISUALSTYLE
  5
34
102
{ACAD_REACTORS
330
2A
102
}
102
{ACAD_XDICTIONARY
360
1CB
102
}
330
2A
100
AcDbVisualStyle
  2
Conceptual
 70
     9
 71
     3
 72
     2
 73
     0
 90
        0
 40
0.6
 41
30.0
 62
     5
 63
     7
421
 16777215
 74
     2
 91
        2
 64
     7
 65
   257
 75
     1
175
     1
 42
40.0
 92
        8
 66
     7
 43
1.0
 76
     1
 77
     6
 78
     2
 67
     7
 79
     3
170
     0
171
     0
290
     0
174
     0
 93
        1
 44
0.0
173
     0
291
     0
 45
0.0
1001
ACAD
1000
AcDbSavedByObjectVersion
1070
     0
  0
VISUALSTYLE
  5
35
102
{ACAD_REACTORS
330
2A
102
}
102
{ACAD_XDICTIONARY
360
1CD
102
}
330
2A
100
AcDbVisualStyle
  2
Dim
 70
    11
 71
     2
 72
     2
 73
     0
 90
        0
 40
0.6
 41
30.0
 62
     5
 63
     7
421
 16777215
 74
     1
 91
        4
 64
     7
 65
   257
 75
     1
175
     1
 42
1.0
 92
        8
 66
     7
 43
1.0
 76
     1
 77
     6
 78
     2
 67
     7
 79
     5
170
     0
171
     0
290
     0
174
     0
 93
        1
 44
-50.0
173
     0
291
     1
 45
0.0
1001
ACAD
1000
AcDbSavedByObjectVersion
1070
     0
  0
VISUALSTYLE
  5
39
102
{ACAD_REACTORS
330
2A
102
}
102
{ACAD_XDICTIONARY
360
1D5
102
}
330
2A
100
AcDbVisualStyle
  2
Facepattern
 70
    15
 71
     2
 72
     2
 73
     0
 90
        0
 40
0.6
 41
30.0
 62
     5
 63
     7
421
 16777215
 74
     1
 91
        4
 64
     7
 65
   257
 75
     1
175
     1
 42
1.0
 92
        8
 66
     7
 43
1.0
 76
     1
 77
     6
 78
     2
 67
     7
 79
     5
170
     0
171
     0
290
     0
174
     0
 93
        1
 44
0.0
173
     0
291
     1
 45
0.0
1001
ACAD
1000
AcDbSavedByObjectVersion
1070
     0
  0
VISUALSTYLE
  5
2B
102
{ACAD_REACTORS
330
2A
102
}
102
{ACAD_XDICTIONARY
360
1B9
102
}
330
2A
100
AcDbVisualStyle
  2
Flat
 70
     0
 71
     2
 72
     1
 73
     1
 90
        2
 40
0.6
 41
30.0
 62
     5
 63
     7
421
 16777215
 74
     0
 91
        4
 64
     7
 65
   257
 75
     1
175
     1
 42
1.0
 92
        8
 66
     7
 43
1.0
 76
     1
 77
     6
 78
     2
 67
     7
 79
     5
170
     0
171
     0
290
     0
174
     0
 93
       13
 44
0.0
173
     0
291
     1
 45
0.0
1001
ACAD
1000
AcDbSavedByObjectVersion
1070
     0
  0
VISUALSTYLE
  5
2C
102
{ACAD_REACTORS
330
2A
102
}
102
{ACAD_XDICTIONARY
360
1BB
102
}
330
2A
100
AcDbVisualStyle
  2
FlatWithEdges
 70
     1
 71
     2
 72
     1
 73
     1
 90
        2
 40
0.6
 41
30.0
 62
     5
 63
     7
421
 16777215
 74
     1
 91
        4
 64
     7
 65
   257
 75
     1
175
     1
 42
1.0
 92
        0
 66
   257
 43
1.0
 76
     1
 77
     6
 78
     2
 67
     7
 79
     5
170
     0
171
     0
290
     0
174
     0
 93
       13
 44
0.0
173
     0
291
     1
 45
0.0
1001
ACAD
1000
AcDbSavedByObjectVersion
1070
     0
  0
VISUALSTYLE
  5
2D
102
{ACAD_REACTORS
330
2A
102
}
102
{ACAD_XDICTIONARY
360
1BD
102
}
330
2A
100
AcDbVisualStyle
  2
Gouraud
 70
     2
 71
     2
 72
     2
 73
     1
 90
        2
 40
0.6
 41
30.0
 62
     5
 63
     7
421
 16777215
 74
     0
 91
        4
 64
     7
 65
   257
 75
     1
175
     1
 42
1.0
 92
        0
 66
     7
 43
1.0
 76
     1
 77
     6
 78
     2
 67
     7
 79
     5
170
     0
171
     0
290
     0
174
     0
 93
       13
 44
0.0
173
     0
291
     1
 45
0.0
1001
ACAD
1000
AcDbSavedByObjectVersion
1070
     0
  0
VISUALSTYLE
  5
2E
102
{ACAD_REACTORS
330
2A
102
}
102
{ACAD_XDICTIONARY
360
1BF
102
}
330
2A
100
AcDbVisualStyle
  2
GouraudWithEdges
 70
     3
 71
     2
 72
     2
 73
     1
 90
        2
 40
0.6
 41
30.0
 62
     5
 63
     7
421
 16777215
 74
     1
 91
        4
 64
     7
 65
   257
 75
     1
175
     1
 42
1.0
 92
        0
 66
   257
 43
1.0
 76
     1
 77
     6
 78
     2
 67
     7
 79
     5
170
     0
171
     0
290
     0
174
     0
 93
       13
 44
0.0
173
     0
291
     1
 45
0.0
1001
ACAD
1000
AcDbSavedByObjectVersion
1070
     0
  0
VISUALSTYLE
  5
38
102
{ACAD_REACTORS
330
2A
102
}
102
{ACAD_XDICTIONARY
360
1D3
102
}
330
2A
100
AcDbVisualStyle
  2
Linepattern
 70
    14
 71
     2
 72
     2
 73
     0
 90
        0
 40
0.6
 41
30.0
 62
     5
 63
     7
421
 16777215
 74
     1
 91
        4
 64
     7
 65
   257
 75
     7
175
     7
 42
1.0
 92
        8
 66
     7
 43
1.0
 76
     1
 77
     6
 78
     2
 67
     7
 79
     5
170
     0
171
     0
290
     0
174
     0
 93
        1
 44
0.0
173
     0
291
     1
 45
0.0
1001
ACAD
1000
AcDbSavedByObjectVersion
1070
     0
  0
VISUALSTYLE
  5
33
102
{ACAD_REACTORS
330
2A
102
}
102
{ACAD_XDICTIONARY
360
1C9
102
}
330
2A
100
AcDbVisualStyle
  2
Realistic
 70
     8
 71
     2
 72
     3
 73
     0
 90
        2
 40
0.6
 41
30.0
 62
     5
 63
     7
421
 16777215
 74
     0
 91
        0
 64
     7
 65
   257
 75
     1
175
     1
 42
1.0
 92
        8
 66
   257
 43
1.0
 76
     1
 77
     6
 78
     2
 67
     7
 79
     3
170
     0
171
     0
290
     0
174
     0
 93
       13
 44
0.0
173
     0
291
     0
 45
0.0
1001
ACAD
1000
AcDbSavedByObjectVersion
1070
     0
  0
VISUALSTYLE
  5
37
102
{ACAD_REACTORS
330
2A
102
}
102
{ACAD_XDICTIONARY
360
1D1
102
}
330
2A
100
AcDbVisualStyle
  2
Thicken
 70
    13
 71
     2
 72
     2
 73
     0
 90
        0
 40
0.6
 41
30.0
 62
     5
 63
     7
421
 16777215
 74
     1
 91
        4
 64
     7
 65
   257
 75
     1
175
     1
 42
1.0
 92
       12
 66
     7
 43
1.0
 76
     1
 77
     6
 78
     2
 67
     7
 79
     5
170
     0
171
     0
290
     0
174
     0
 93
        1
 44
0.0
173
     0
291
     1
 45
0.0
1001
ACAD
1000
AcDbSavedByObjectVersion
1070
     0
  0
DICTIONARYVAR
  5
1B7
102
{ACAD_REACTORS
330
1B6
102
}
330
1B6
100
DictionaryVariables
280
     0
  1
1:1
  0
DICTIONARYVAR
  5
1B8
102
{ACAD_REACTORS
330
1B6
102
}
330
1B6
100
DictionaryVariables
280
     0
  1
1
  0
DICTIONARY
  5
1DB
330
3D
100
AcDbDictionary
280
     1
281
     1
  3
ACAD_XREC_ROUNDTRIP
360
1DC
  0
DICTIONARY
  5
1D9
330
3C
100
AcDbDictionary
280
     1
281
     1
  3
ACAD_XREC_ROUNDTRIP
360
1DA
  0
DICTIONARY
  5
1DD
330
3E
100
AcDbDictionary
280
     1
281
     1
  3
ACAD_XREC_ROUNDTRIP
360
1DE
  0
DICTIONARY
  5
1C1
330
2F
100
AcDbDictionary
280
     1
281
     1
  3
ACAD_XREC_ROUNDTRIP
360
1C2
  0
DICTIONARY
  5
1C5
330
31
100
AcDbDictionary
280
     1
281
     1
  3
ACAD_XREC_ROUNDTRIP
360
1C6
  0
DICTIONARY
  5
1C3
330
30
100
AcDbDictionary
280
     1
281
     1
  3
ACAD_XREC_ROUNDTRIP
360
1C4
  0
DICTIONARY
  5
1C7
330
32
100
AcDbDictionary
280
     1
281
     1
  3
ACAD_XREC_ROUNDTRIP
360
1C8
  0
DICTIONARY
  5
1CF
330
36
100
AcDbDictionary
280
     1
281
     1
  3
ACAD_XREC_ROUNDTRIP
360
1D0
  0
DICTIONARY
  5
1D7
330
3A
100
AcDbDictionary
280
     1
281
     1
  3
ACAD_XREC_ROUNDTRIP
360
1D8
  0
DICTIONARY
  5
1CB
330
34
100
AcDbDictionary
280
     1
281
     1
  3
ACAD_XREC_ROUNDTRIP
360
1CC
  0
DICTIONARY
  5
1CD
330
35
100
AcDbDictionary
280
     1
281
     1
  3
ACAD_XREC_ROUNDTRIP
360
1CE
  0
DICTIONARY
  5
1D5
330
39
100
AcDbDictionary
280
     1
281
     1
  3
ACAD_XREC_ROUNDTRIP
360
1D6
  0
DICTIONARY
  5
1B9
330
2B
100
AcDbDictionary
280
     1
281
     1
  3
ACAD_XREC_ROUNDTRIP
360
1BA
  0
DICTIONARY
  5
1BB
330
2C
100
AcDbDictionary
280
     1
281
     1
  3
ACAD_XREC_ROUNDTRIP
360
1BC
  0
DICTIONARY
  5
1BD
330
2D
100
AcDbDictionary
280
     1
281
     1
  3
ACAD_XREC_ROUNDTRIP
360
1BE
  0
DICTIONARY
  5
1BF
330
2E
100
AcDbDictionary
280
     1
281
     1
  3
ACAD_XREC_ROUNDTRIP
360
1C0
  0
DICTIONARY
  5
1D3
330
38
100
AcDbDictionary
280
     1
281
     1
  3
ACAD_XREC_ROUNDTRIP
360
1D4
  0
DICTIONARY
  5
1C9
330
33
100
AcDbDictionary
280
     1
281
     1
  3
ACAD_XREC_ROUNDTRIP
360
1CA
  0
DICTIONARY
  5
1D1
330
37
100
AcDbDictionary
280
     1
281
     1
  3
ACAD_XREC_ROUNDTRIP
360
1D2
  0
XRECORD
  5
1DC
102
{ACAD_REACTORS
330
1DB
102
}
330
1DB
100
AcDbXrecord
280
     1
102
MATERIAL
148
0.0
149
0.0
149
0.0
 93
        0
 94
      127
282
     0
 72
     1
 77
     1
171
     1
175
     1
179
     1
273
     0
  0
XRECORD
  5
1DA
102
{ACAD_REACTORS
330
1D9
102
}
330
1D9
100
AcDbXrecord
280
     1
102
MATERIAL
148
0.0
149
0.0
149
0.0
 93
        0
 94
      127
282
     0
 72
     1
 77
     1
171
     1
175
     1
179
     1
273
     0
  0
XRECORD
  5
1DE
102
{ACAD_REACTORS
330
1DD
102
}
330
1DD
100
AcDbXrecord
280
     1
102
MATERIAL
148
0.0
149
0.0
149
0.0
 93
        0
 94
      127
282
     0
 72
     1
 77
     1
171
     1
175
     1
179
     1
273
     0
  0
XRECORD
  5
1C2
102
{ACAD_REACTORS
330
1C1
102
}
330
1C1
100
AcDbXrecord
280
     1
102
RTVSPropertyOp0
 70
     1
102
RTVSPropertyOp1
 70
     1
102
RTVSPropertyOp2
 70
     1
102
RTVSPropertyOp3
 70
     1
102
RTVSPropertyOp4
 70
     1
102
RTVSPropertyOp5
 70
     1
102
RTVSPropertyOp6
 70
     1
102
RTVSPropertyOp7
 70
     1
102
RTVSPropertyOp8
 70
     1
102
RTVSPropertyOp9
 70
     1
102
RTVSPropertyOp10
 70
     1
102
RTVSPropertyOp11
 70
     1
102
RTVSPropertyOp12
 70
     1
102
RTVSPropertyOp13
 70
     1
102
RTVSPropertyOp14
 70
     1
102
RTVSPropertyOp15
 70
     1
102
RTVSPropertyOp16
 70
     1
102
RTVSPropertyOp17
 70
     1
102
RTVSPropertyOp18
 70
     1
102
RTVSPropertyOp19
 70
     1
102
RTVSPropertyOp20
 70
     1
102
RTVSPropertyOp21
 70
     1
102
RTVSPropertyOp22
 70
     1
102
RTVSPropertyOp23
 70
     1
102
RTVSPropertyOp24
 70
     1
102
RTVSPropertyOp25
 70
     1
102
RTVSPropertyOp26
 70
     1
102
RTVSPropertyOp27
 70
     1
102
RTVSPropertyOp28
 70
     1
102
RTVSPropertyOp29
 70
     1
102
RTVSPropertyOp30
 70
     1
102
RTVSPropertyOp31
 70
     1
102
RTVSPropertyOp32
 70
     1
102
RTVSPropertyOp33
 70
     1
102
RTVSPropertyOp34
 70
     1
102
RTVSPropertyOp35
 70
     1
102
RTVSPropertyOp36
 70
     1
102
RTVSPropertyOp37
 70
     1
102
RTVSPropertyOp38
 70
     1
102
RTVSPropertyOp39
 70
     1
102
RTVSPropertyOp40
 70
     1
102
RTVSPropertyOp41
 70
     1
102
RTVSPropertyOp42
 70
     1
102
RTVSPropertyOp43
 70
     1
102
RTVSPropertyOp44
 70
     1
102
RTVSPropertyOp45
 70
     1
102
RTVSPropertyOp46
 70
     1
102
RTVSPropertyOp47
 70
     1
102
RTVSPropertyOp48
 70
     1
102
RTVSPropertyOp49
 70
     1
102
RTVSPropertyOp50
 70
     1
102
RTVSPropertyOp51
 70
     0
102
RTVSPropertyOp52
 70
     0
102
RTVSPropertyOp53
 70
     1
102
RTVSPropertyOp54
 70
     1
102
RTVSPropertyOp55
 70
     1
102
RTVSPropertyOp56
 70
     1
102
RTVSPropertyOp57
 70
     1
102
RTVSPost2010Prop28
280
     1
102
RTVSPost2010PropOp28
 70
     1
102
RTVSPost2010Prop29
280
     1
102
RTVSPost2010PropOp29
 70
     1
102
RTVSPost2010Prop30
280
     0
102
RTVSPost2010PropOp30
 70
     1
102
RTVSPost2010Prop31
280
     0
102
RTVSPost2010PropOp31
 70
     1
102
RTVSPost2010Prop32
280
     0
102
RTVSPost2010PropOp32
 70
     1
102
RTVSPost2010Prop33
280
     0
102
RTVSPost2010PropOp33
 70
     1
102
RTVSPost2010Prop34
280
     0
102
RTVSPost2010PropOp34
 70
     1
102
RTVSPost2010Prop35
280
     0
102
RTVSPost2010PropOp35
 70
     1
102
RTVSPost2010Prop36
280
     0
102
RTVSPost2010PropOp36
 70
     1
102
RTVSPost2010Prop37
 90
       50
102
RTVSPost2010PropOp37
 70
     1
102
RTVSPost2010Prop38
140
0.0
102
RTVSPost2010PropOp38
 70
     1
102
RTVSPost2010Prop39
140
1.0
102
RTVSPost2010PropOp39
 70
     1
102
RTVSPost2010Prop40
 90
        0
102
RTVSPost2010PropOp40
 70
     1
102
RTVSPost2010Prop41ColorIndex
 90
       18
102
RTVSPost2010Prop41ColorRGB
 90
        0
102
RTVSPost2010PropOp41
 70
     1
102
RTVSPost2010Prop42
 90
       50
102
RTVSPost2010PropOp42
 70
     1
102
RTVSPost2010Prop43
 90
        3
102
RTVSPost2010PropOp43
 70
     1
102
RTVSPost2010Prop44ColorIndex
 90
        5
102
RTVSPost2010Prop44ColorRGB
 90
      255
102
RTVSPost2010PropOp44
 70
     1
102
RTVSPost2010Prop45
280
     0
102
RTVSPost2010PropOp45
 70
     1
102
RTVSPost2010Prop46
 90
       50
102
RTVSPost2010PropOp46
 70
     1
102
RTVSPost2010Prop47
 90
       50
102
RTVSPost2010PropOp47
 70
     1
102
RTVSPost2010Prop48
 90
       50
102
RTVSPost2010PropOp48
 70
     1
102
RTVSPost2010Prop49
280
     0
102
RTVSPost2010PropOp49
 70
     1
102
RTVSPost2010Prop50
 90
       50
102
RTVSPost2010PropOp50
 70
     1
102
RTVSPost2010Prop51ColorIndex
 90
      256
102
RTVSPost2010Prop51ColorRGB
 90
-16777216
102
RTVSPost2010PropOp51
 70
     0
102
RTVSPost2010Prop52
140
1.0
102
RTVSPost2010PropOp52
 70
     0
102
RTVSPost2010Prop53
 90
        2
102
RTVSPost2010PropOp53
 70
     1
102
RTVSPost2010Prop54
  1
strokes_ogs.tif
102
RTVSPost2010PropOp54
 70
     1
102
RTVSPost2010Prop55
280
     0
102
RTVSPost2010PropOp55
 70
     1
102
RTVSPost2010Prop56
140
1.0
102
RTVSPost2010PropOp56
 70
     1
102
RTVSPost2010Prop57
140
1.0
102
RTVSPost2010PropOp57
 70
     1
  0
XRECORD
  5
1C6
102
{ACAD_REACTORS
330
1C5
102
}
330
1C5
100
AcDbXrecord
280
     1
102
RTVSPropertyOp0
 70
     1
102
RTVSPropertyOp1
 70
     1
102
RTVSPropertyOp2
 70
     1
102
RTVSPropertyOp3
 70
     1
102
RTVSPropertyOp4
 70
     1
102
RTVSPropertyOp5
 70
     1
102
RTVSPropertyOp6
 70
     1
102
RTVSPropertyOp7
 70
     1
102
RTVSPropertyOp8
 70
     1
102
RTVSPropertyOp9
 70
     1
102
RTVSPropertyOp10
 70
     1
102
RTVSPropertyOp11
 70
     1
102
RTVSPropertyOp12
 70
     1
102
RTVSPropertyOp13
 70
     1
102
RTVSPropertyOp14
 70
     1
102
RTVSPropertyOp15
 70
     1
102
RTVSPropertyOp16
 70
     1
102
RTVSPropertyOp17
 70
     1
102
RTVSPropertyOp18
 70
     1
102
RTVSPropertyOp19
 70
     1
102
RTVSPropertyOp20
 70
     1
102
RTVSPropertyOp21
 70
     1
102
RTVSPropertyOp22
 70
     1
102
RTVSPropertyOp23
 70
     1
102
RTVSPropertyOp24
 70
     1
102
RTVSPropertyOp25
 70
     1
102
RTVSPropertyOp26
 70
     1
102
RTVSPropertyOp27
 70
     1
102
RTVSPropertyOp28
 70
     1
102
RTVSPropertyOp29
 70
     1
102
RTVSPropertyOp30
 70
     1
102
RTVSPropertyOp31
 70
     1
102
RTVSPropertyOp32
 70
     1
102
RTVSPropertyOp33
 70
     1
102
RTVSPropertyOp34
 70
     1
102
RTVSPropertyOp35
 70
     1
102
RTVSPropertyOp36
 70
     1
102
RTVSPropertyOp37
 70
     1
102
RTVSPropertyOp38
 70
     1
102
RTVSPropertyOp39
 70
     1
102
RTVSPropertyOp40
 70
     1
102
RTVSPropertyOp41
 70
     1
102
RTVSPropertyOp42
 70
     1
102
RTVSPropertyOp43
 70
     1
102
RTVSPropertyOp44
 70
     1
102
RTVSPropertyOp45
 70
     1
102
RTVSPropertyOp46
 70
     1
102
RTVSPropertyOp47
 70
     1
102
RTVSPropertyOp48
 70
     1
102
RTVSPropertyOp49
 70
     1
102
RTVSPropertyOp50
 70
     1
102
RTVSPropertyOp51
 70
     0
102
RTVSPropertyOp52
 70
     0
102
RTVSPropertyOp53
 70
     1
102
RTVSPropertyOp54
 70
     1
102
RTVSPropertyOp55
 70
     1
102
RTVSPropertyOp56
 70
     1
102
RTVSPropertyOp57
 70
     1
102
RTVSPost2010Prop28
280
     0
102
RTVSPost2010PropOp28
 70
     1
102
RTVSPost2010Prop29
280
     1
102
RTVSPost2010PropOp29
 70
     1
102
RTVSPost2010Prop30
280
     1
102
RTVSPost2010PropOp30
 70
     1
102
RTVSPost2010Prop31
280
     0
102
RTVSPost2010PropOp31
 70
     1
102
RTVSPost2010Prop32
280
     0
102
RTVSPost2010PropOp32
 70
     1
102
RTVSPost2010Prop33
280
     0
102
RTVSPost2010PropOp33
 70
     1
102
RTVSPost2010Prop34
280
     0
102
RTVSPost2010PropOp34
 70
     1
102
RTVSPost2010Prop35
280
     0
102
RTVSPost2010PropOp35
 70
     1
102
RTVSPost2010Prop36
280
     0
102
RTVSPost2010PropOp36
 70
     1
102
RTVSPost2010Prop37
 90
       50
102
RTVSPost2010PropOp37
 70
     1
102
RTVSPost2010Prop38
140
0.0
102
RTVSPost2010PropOp38
 70
     1
102
RTVSPost2010Prop39
140
1.0
102
RTVSPost2010PropOp39
 70
     1
102
RTVSPost2010Prop40
 90
        0
102
RTVSPost2010PropOp40
 70
     1
102
RTVSPost2010Prop41ColorIndex
 90
       18
102
RTVSPost2010Prop41ColorRGB
 90
        0
102
RTVSPost2010PropOp41
 70
     1
102
RTVSPost2010Prop42
 90
       50
102
RTVSPost2010PropOp42
 70
     1
102
RTVSPost2010Prop43
 90
        3
102
RTVSPost2010PropOp43
 70
     1
102
RTVSPost2010Prop44ColorIndex
 90
        5
102
RTVSPost2010Prop44ColorRGB
 90
      255
102
RTVSPost2010PropOp44
 70
     1
102
RTVSPost2010Prop45
280
     0
102
RTVSPost2010PropOp45
 70
     1
102
RTVSPost2010Prop46
 90
       50
102
RTVSPost2010PropOp46
 70
     1
102
RTVSPost2010Prop47
 90
       50
102
RTVSPost2010PropOp47
 70
     1
102
RTVSPost2010Prop48
 90
       50
102
RTVSPost2010PropOp48
 70
     1
102
RTVSPost2010Prop49
280
     0
102
RTVSPost2010PropOp49
 70
     1
102
RTVSPost2010Prop50
 90
       50
102
RTVSPost2010PropOp50
 70
     1
102
RTVSPost2010Prop51ColorIndex
 90
      256
102
RTVSPost2010Prop51ColorRGB
 90
-16777216
102
RTVSPost2010PropOp51
 70
     0
102
RTVSPost2010Prop52
140
1.0
102
RTVSPost2010PropOp52
 70
     0
102
RTVSPost2010Prop53
 90
        2
102
RTVSPost2010PropOp53
 70
     1
102
RTVSPost2010Prop54
  1
strokes_ogs.tif
102
RTVSPost2010PropOp54
 70
     1
102
RTVSPost2010Prop55
280
     0
102
RTVSPost2010PropOp55
 70
     1
102
RTVSPost2010Prop56
140
1.0
102
RTVSPost2010PropOp56
 70
     1
102
RTVSPost2010Prop57
140
1.0
102
RTVSPost2010PropOp57
 70
     1
  0
XRECORD
  5
1C4
102
{ACAD_REACTORS
330
1C3
102
}
330
1C3
100
AcDbXrecord
280
     1
102
RTVSPropertyOp0
 70
     1
102
RTVSPropertyOp1
 70
     1
102
RTVSPropertyOp2
 70
     1
102
RTVSPropertyOp3
 70
     1
102
RTVSPropertyOp4
 70
     1
102
RTVSPropertyOp5
 70
     1
102
RTVSPropertyOp6
 70
     1
102
RTVSPropertyOp7
 70
     1
102
RTVSPropertyOp8
 70
     1
102
RTVSPropertyOp9
 70
     1
102
RTVSPropertyOp10
 70
     1
102
RTVSPropertyOp11
 70
     1
102
RTVSPropertyOp12
 70
     1
102
RTVSPropertyOp13
 70
     1
102
RTVSPropertyOp14
 70
     1
102
RTVSPropertyOp15
 70
     1
102
RTVSPropertyOp16
 70
     1
102
RTVSPropertyOp17
 70
     1
102
RTVSPropertyOp18
 70
     1
102
RTVSPropertyOp19
 70
     1
102
RTVSPropertyOp20
 70
     1
102
RTVSPropertyOp21
 70
     1
102
RTVSPropertyOp22
 70
     1
102
RTVSPropertyOp23
 70
     1
102
RTVSPropertyOp24
 70
     1
102
RTVSPropertyOp25
 70
     1
102
RTVSPropertyOp26
 70
     1
102
RTVSPropertyOp27
 70
     1
102
RTVSPropertyOp28
 70
     1
102
RTVSPropertyOp29
 70
     1
102
RTVSPropertyOp30
 70
     1
102
RTVSPropertyOp31
 70
     1
102
RTVSPropertyOp32
 70
     1
102
RTVSPropertyOp33
 70
     1
102
RTVSPropertyOp34
 70
     1
102
RTVSPropertyOp35
 70
     1
102
RTVSPropertyOp36
 70
     1
102
RTVSPropertyOp37
 70
     1
102
RTVSPropertyOp38
 70
     1
102
RTVSPropertyOp39
 70
     1
102
RTVSPropertyOp40
 70
     1
102
RTVSPropertyOp41
 70
     1
102
RTVSPropertyOp42
 70
     1
102
RTVSPropertyOp43
 70
     1
102
RTVSPropertyOp44
 70
     1
102
RTVSPropertyOp45
 70
     1
102
RTVSPropertyOp46
 70
     1
102
RTVSPropertyOp47
 70
     1
102
RTVSPropertyOp48
 70
     1
102
RTVSPropertyOp49
 70
     1
102
RTVSPropertyOp50
 70
     1
102
RTVSPropertyOp51
 70
     0
102
RTVSPropertyOp52
 70
     0
102
RTVSPropertyOp53
 70
     1
102
RTVSPropertyOp54
 70
     1
102
RTVSPropertyOp55
 70
     1
102
RTVSPropertyOp56
 70
     1
102
RTVSPropertyOp57
 70
     1
102
RTVSPost2010Prop28
280
     0
102
RTVSPost2010PropOp28
 70
     1
102
RTVSPost2010Prop29
280
     1
102
RTVSPost2010PropOp29
 70
     1
102
RTVSPost2010Prop30
280
     1
102
RTVSPost2010PropOp30
 70
     1
102
RTVSPost2010Prop31
280
     0
102
RTVSPost2010PropOp31
 70
     1
102
RTVSPost2010Prop32
280
     0
102
RTVSPost2010PropOp32
 70
     1
102
RTVSPost2010Prop33
280
     0
102
RTVSPost2010PropOp33
 70
     1
102
RTVSPost2010Prop34
280
     0
102
RTVSPost2010PropOp34
 70
     1
102
RTVSPost2010Prop35
280
     0
102
RTVSPost2010PropOp35
 70
     1
102
RTVSPost2010Prop36
280
     0
102
RTVSPost2010PropOp36
 70
     1
102
RTVSPost2010Prop37
 90
       50
102
RTVSPost2010PropOp37
 70
     1
102
RTVSPost2010Prop38
140
0.0
102
RTVSPost2010PropOp38
 70
     1
102
RTVSPost2010Prop39
140
1.0
102
RTVSPost2010PropOp39
 70
     1
102
RTVSPost2010Prop40
 90
        0
102
RTVSPost2010PropOp40
 70
     1
102
RTVSPost2010Prop41ColorIndex
 90
       18
102
RTVSPost2010Prop41ColorRGB
 90
        0
102
RTVSPost2010PropOp41
 70
     1
102
RTVSPost2010Prop42
 90
       50
102
RTVSPost2010PropOp42
 70
     1
102
RTVSPost2010Prop43
 90
        3
102
RTVSPost2010PropOp43
 70
     1
102
RTVSPost2010Prop44ColorIndex
 90
        5
102
RTVSPost2010Prop44ColorRGB
 90
      255
102
RTVSPost2010PropOp44
 70
     1
102
RTVSPost2010Prop45
280
     0
102
RTVSPost2010PropOp45
 70
     1
102
RTVSPost2010Prop46
 90
       50
102
RTVSPost2010PropOp46
 70
     1
102
RTVSPost2010Prop47
 90
       50
102
RTVSPost2010PropOp47
 70
     1
102
RTVSPost2010Prop48
 90
       50
102
RTVSPost2010PropOp48
 70
     1
102
RTVSPost2010Prop49
280
     0
102
RTVSPost2010PropOp49
 70
     1
102
RTVSPost2010Prop50
 90
       50
102
RTVSPost2010PropOp50
 70
     1
102
RTVSPost2010Prop51ColorIndex
 90
      256
102
RTVSPost2010Prop51ColorRGB
 90
-16777216
102
RTVSPost2010PropOp51
 70
     0
102
RTVSPost2010Prop52
140
1.0
102
RTVSPost2010PropOp52
 70
     0
102
RTVSPost2010Prop53
 90
        2
102
RTVSPost2010PropOp53
 70
     1
102
RTVSPost2010Prop54
  1
strokes_ogs.tif
102
RTVSPost2010PropOp54
 70
     1
102
RTVSPost2010Prop55
280
     0
102
RTVSPost2010PropOp55
 70
     1
102
RTVSPost2010Prop56
140
1.0
102
RTVSPost2010PropOp56
 70
     1
102
RTVSPost2010Prop57
140
1.0
102
RTVSPost2010PropOp57
 70
     1
  0
XRECORD
  5
1C8
102
{ACAD_REACTORS
330
1C7
102
}
330
1C7
100
AcDbXrecord
280
     1
102
RTVSPropertyOp0
 70
     1
102
RTVSPropertyOp1
 70
     1
102
RTVSPropertyOp2
 70
     1
102
RTVSPropertyOp3
 70
     1
102
RTVSPropertyOp4
 70
     1
102
RTVSPropertyOp5
 70
     1
102
RTVSPropertyOp6
 70
     1
102
RTVSPropertyOp7
 70
     1
102
RTVSPropertyOp8
 70
     1
102
RTVSPropertyOp9
 70
     1
102
RTVSPropertyOp10
 70
     1
102
RTVSPropertyOp11
 70
     1
102
RTVSPropertyOp12
 70
     1
102
RTVSPropertyOp13
 70
     1
102
RTVSPropertyOp14
 70
     1
102
RTVSPropertyOp15
 70
     1
102
RTVSPropertyOp16
 70
     1
102
RTVSPropertyOp17
 70
     1
102
RTVSPropertyOp18
 70
     1
102
RTVSPropertyOp19
 70
     1
102
RTVSPropertyOp20
 70
     1
102
RTVSPropertyOp21
 70
     1
102
RTVSPropertyOp22
 70
     1
102
RTVSPropertyOp23
 70
     1
102
RTVSPropertyOp24
 70
     1
102
RTVSPropertyOp25
 70
     1
102
RTVSPropertyOp26
 70
     1
102
RTVSPropertyOp27
 70
     1
102
RTVSPropertyOp28
 70
     1
102
RTVSPropertyOp29
 70
     1
102
RTVSPropertyOp30
 70
     1
102
RTVSPropertyOp31
 70
     1
102
RTVSPropertyOp32
 70
     1
102
RTVSPropertyOp33
 70
     1
102
RTVSPropertyOp34
 70
     1
102
RTVSPropertyOp35
 70
     1
102
RTVSPropertyOp36
 70
     1
102
RTVSPropertyOp37
 70
     1
102
RTVSPropertyOp38
 70
     1
102
RTVSPropertyOp39
 70
     1
102
RTVSPropertyOp40
 70
     1
102
RTVSPropertyOp41
 70
     1
102
RTVSPropertyOp42
 70
     1
102
RTVSPropertyOp43
 70
     1
102
RTVSPropertyOp44
 70
     1
102
RTVSPropertyOp45
 70
     1
102
RTVSPropertyOp46
 70
     1
102
RTVSPropertyOp47
 70
     1
102
RTVSPropertyOp48
 70
     1
102
RTVSPropertyOp49
 70
     1
102
RTVSPropertyOp50
 70
     1
102
RTVSPropertyOp51
 70
     0
102
RTVSPropertyOp52
 70
     0
102
RTVSPropertyOp53
 70
     1
102
RTVSPropertyOp54
 70
     1
102
RTVSPropertyOp55
 70
     1
102
RTVSPropertyOp56
 70
     1
102
RTVSPropertyOp57
 70
     1
102
RTVSPost2010Prop28
280
     0
102
RTVSPost2010PropOp28
 70
     1
102
RTVSPost2010Prop29
280
     1
102
RTVSPost2010PropOp29
 70
     1
102
RTVSPost2010Prop30
280
     1
102
RTVSPost2010PropOp30
 70
     1
102
RTVSPost2010Prop31
280
     0
102
RTVSPost2010PropOp31
 70
     1
102
RTVSPost2010Prop32
280
     0
102
RTVSPost2010PropOp32
 70
     1
102
RTVSPost2010Prop33
280
     0
102
RTVSPost2010PropOp33
 70
     1
102
RTVSPost2010Prop34
280
     0
102
RTVSPost2010PropOp34
 70
     1
102
RTVSPost2010Prop35
280
     0
102
RTVSPost2010PropOp35
 70
     1
102
RTVSPost2010Prop36
280
     0
102
RTVSPost2010PropOp36
 70
     1
102
RTVSPost2010Prop37
 90
       50
102
RTVSPost2010PropOp37
 70
     1
102
RTVSPost2010Prop38
140
0.0
102
RTVSPost2010PropOp38
 70
     1
102
RTVSPost2010Prop39
140
1.0
102
RTVSPost2010PropOp39
 70
     1
102
RTVSPost2010Prop40
 90
        0
102
RTVSPost2010PropOp40
 70
     1
102
RTVSPost2010Prop41ColorIndex
 90
       18
102
RTVSPost2010Prop41ColorRGB
 90
        0
102
RTVSPost2010PropOp41
 70
     1
102
RTVSPost2010Prop42
 90
       50
102
RTVSPost2010PropOp42
 70
     1
102
RTVSPost2010Prop43
 90
        3
102
RTVSPost2010PropOp43
 70
     1
102
RTVSPost2010Prop44ColorIndex
 90
        5
102
RTVSPost2010Prop44ColorRGB
 90
      255
102
RTVSPost2010PropOp44
 70
     1
102
RTVSPost2010Prop45
280
     0
102
RTVSPost2010PropOp45
 70
     1
102
RTVSPost2010Prop46
 90
       50
102
RTVSPost2010PropOp46
 70
     1
102
RTVSPost2010Prop47
 90
       50
102
RTVSPost2010PropOp47
 70
     1
102
RTVSPost2010Prop48
 90
       50
102
RTVSPost2010PropOp48
 70
     1
102
RTVSPost2010Prop49
280
     0
102
RTVSPost2010PropOp49
 70
     1
102
RTVSPost2010Prop50
 90
       50
102
RTVSPost2010PropOp50
 70
     1
102
RTVSPost2010Prop51ColorIndex
 90
      256
102
RTVSPost2010Prop51ColorRGB
 90
-16777216
102
RTVSPost2010PropOp51
 70
     0
102
RTVSPost2010Prop52
140
1.0
102
RTVSPost2010PropOp52
 70
     0
102
RTVSPost2010Prop53
 90
        2
102
RTVSPost2010PropOp53
 70
     1
102
RTVSPost2010Prop54
  1
strokes_ogs.tif
102
RTVSPost2010PropOp54
 70
     1
102
RTVSPost2010Prop55
280
     0
102
RTVSPost2010PropOp55
 70
     1
102
RTVSPost2010Prop56
140
1.0
102
RTVSPost2010PropOp56
 70
     1
102
RTVSPost2010Prop57
140
1.0
102
RTVSPost2010PropOp57
 70
     1
  0
XRECORD
  5
1D0
102
{ACAD_REACTORS
330
1CF
102
}
330
1CF
100
AcDbXrecord
280
     1
102
RTVSPropertyOp0
 70
     1
102
RTVSPropertyOp1
 70
     1
102
RTVSPropertyOp2
 70
     1
102
RTVSPropertyOp3
 70
     1
102
RTVSPropertyOp4
 70
     1
102
RTVSPropertyOp5
 70
     1
102
RTVSPropertyOp6
 70
     1
102
RTVSPropertyOp7
 70
     1
102
RTVSPropertyOp8
 70
     1
102
RTVSPropertyOp9
 70
     1
102
RTVSPropertyOp10
 70
     1
102
RTVSPropertyOp11
 70
     1
102
RTVSPropertyOp12
 70
     1
102
RTVSPropertyOp13
 70
     1
102
RTVSPropertyOp14
 70
     1
102
RTVSPropertyOp15
 70
     1
102
RTVSPropertyOp16
 70
     1
102
RTVSPropertyOp17
 70
     1
102
RTVSPropertyOp18
 70
     1
102
RTVSPropertyOp19
 70
     1
102
RTVSPropertyOp20
 70
     1
102
RTVSPropertyOp21
 70
     1
102
RTVSPropertyOp22
 70
     1
102
RTVSPropertyOp23
 70
     1
102
RTVSPropertyOp24
 70
     1
102
RTVSPropertyOp25
 70
     1
102
RTVSPropertyOp26
 70
     1
102
RTVSPropertyOp27
 70
     1
102
RTVSPropertyOp28
 70
     1
102
RTVSPropertyOp29
 70
     1
102
RTVSPropertyOp30
 70
     1
102
RTVSPropertyOp31
 70
     1
102
RTVSPropertyOp32
 70
     1
102
RTVSPropertyOp33
 70
     1
102
RTVSPropertyOp34
 70
     1
102
RTVSPropertyOp35
 70
     1
102
RTVSPropertyOp36
 70
     1
102
RTVSPropertyOp37
 70
     1
102
RTVSPropertyOp38
 70
     1
102
RTVSPropertyOp39
 70
     1
102
RTVSPropertyOp40
 70
     1
102
RTVSPropertyOp41
 70
     1
102
RTVSPropertyOp42
 70
     1
102
RTVSPropertyOp43
 70
     1
102
RTVSPropertyOp44
 70
     1
102
RTVSPropertyOp45
 70
     1
102
RTVSPropertyOp46
 70
     1
102
RTVSPropertyOp47
 70
     1
102
RTVSPropertyOp48
 70
     1
102
RTVSPropertyOp49
 70
     1
102
RTVSPropertyOp50
 70
     1
102
RTVSPropertyOp51
 70
     0
102
RTVSPropertyOp52
 70
     0
102
RTVSPropertyOp53
 70
     1
102
RTVSPropertyOp54
 70
     1
102
RTVSPropertyOp55
 70
     1
102
RTVSPropertyOp56
 70
     1
102
RTVSPropertyOp57
 70
     1
102
RTVSPost2010Prop28
280
     0
102
RTVSPost2010PropOp28
 70
     1
102
RTVSPost2010Prop29
280
     1
102
RTVSPost2010PropOp29
 70
     1
102
RTVSPost2010Prop30
280
     1
102
RTVSPost2010PropOp30
 70
     1
102
RTVSPost2010Prop31
280
     0
102
RTVSPost2010PropOp31
 70
     1
102
RTVSPost2010Prop32
280
     0
102
RTVSPost2010PropOp32
 70
     1
102
RTVSPost2010Prop33
280
     0
102
RTVSPost2010PropOp33
 70
     1
102
RTVSPost2010Prop34
280
     0
102
RTVSPost2010PropOp34
 70
     1
102
RTVSPost2010Prop35
280
     0
102
RTVSPost2010PropOp35
 70
     1
102
RTVSPost2010Prop36
280
     0
102
RTVSPost2010PropOp36
 70
     1
102
RTVSPost2010Prop37
 90
       50
102
RTVSPost2010PropOp37
 70
     1
102
RTVSPost2010Prop38
140
0.0
102
RTVSPost2010PropOp38
 70
     1
102
RTVSPost2010Prop39
140
1.0
102
RTVSPost2010PropOp39
 70
     1
102
RTVSPost2010Prop40
 90
        0
102
RTVSPost2010PropOp40
 70
     1
102
RTVSPost2010Prop41ColorIndex
 90
       18
102
RTVSPost2010Prop41ColorRGB
 90
        0
102
RTVSPost2010PropOp41
 70
     1
102
RTVSPost2010Prop42
 90
       50
102
RTVSPost2010PropOp42
 70
     1
102
RTVSPost2010Prop43
 90
        3
102
RTVSPost2010PropOp43
 70
     1
102
RTVSPost2010Prop44ColorIndex
 90
        5
102
RTVSPost2010Prop44ColorRGB
 90
      255
102
RTVSPost2010PropOp44
 70
     1
102
RTVSPost2010Prop45
280
     0
102
RTVSPost2010PropOp45
 70
     1
102
RTVSPost2010Prop46
 90
       50
102
RTVSPost2010PropOp46
 70
     1
102
RTVSPost2010Prop47
 90
       50
102
RTVSPost2010PropOp47
 70
     1
102
RTVSPost2010Prop48
 90
       50
102
RTVSPost2010PropOp48
 70
     1
102
RTVSPost2010Prop49
280
     0
102
RTVSPost2010PropOp49
 70
     1
102
RTVSPost2010Prop50
 90
       50
102
RTVSPost2010PropOp50
 70
     1
102
RTVSPost2010Prop51ColorIndex
 90
      256
102
RTVSPost2010Prop51ColorRGB
 90
-16777216
102
RTVSPost2010PropOp51
 70
     0
102
RTVSPost2010Prop52
140
1.0
102
RTVSPost2010PropOp52
 70
     0
102
RTVSPost2010Prop53
 90
        2
102
RTVSPost2010PropOp53
 70
     1
102
RTVSPost2010Prop54
  1
strokes_ogs.tif
102
RTVSPost2010PropOp54
 70
     1
102
RTVSPost2010Prop55
280
     0
102
RTVSPost2010PropOp55
 70
     1
102
RTVSPost2010Prop56
140
1.0
102
RTVSPost2010PropOp56
 70
     1
102
RTVSPost2010Prop57
140
1.0
102
RTVSPost2010PropOp57
 70
     1
  0
XRECORD
  5
1D8
102
{ACAD_REACTORS
330
1D7
102
}
330
1D7
100
AcDbXrecord
280
     1
102
RTVSPropertyOp0
 70
     1
102
RTVSPropertyOp1
 70
     1
102
RTVSPropertyOp2
 70
     1
102
RTVSPropertyOp3
 70
     1
102
RTVSPropertyOp4
 70
     1
102
RTVSPropertyOp5
 70
     1
102
RTVSPropertyOp6
 70
     1
102
RTVSPropertyOp7
 70
     1
102
RTVSPropertyOp8
 70
     1
102
RTVSPropertyOp9
 70
     1
102
RTVSPropertyOp10
 70
     1
102
RTVSPropertyOp11
 70
     1
102
RTVSPropertyOp12
 70
     1
102
RTVSPropertyOp13
 70
     1
102
RTVSPropertyOp14
 70
     1
102
RTVSPropertyOp15
 70
     1
102
RTVSPropertyOp16
 70
     1
102
RTVSPropertyOp17
 70
     1
102
RTVSPropertyOp18
 70
     1
102
RTVSPropertyOp19
 70
     1
102
RTVSPropertyOp20
 70
     1
102
RTVSPropertyOp21
 70
     1
102
RTVSPropertyOp22
 70
     1
102
RTVSPropertyOp23
 70
     1
102
RTVSPropertyOp24
 70
     1
102
RTVSPropertyOp25
 70
     1
102
RTVSPropertyOp26
 70
     1
102
RTVSPropertyOp27
 70
     1
102
RTVSPropertyOp28
 70
     1
102
RTVSPropertyOp29
 70
     1
102
RTVSPropertyOp30
 70
     1
102
RTVSPropertyOp31
 70
     1
102
RTVSPropertyOp32
 70
     1
102
RTVSPropertyOp33
 70
     1
102
RTVSPropertyOp34
 70
     1
102
RTVSPropertyOp35
 70
     1
102
RTVSPropertyOp36
 70
     1
102
RTVSPropertyOp37
 70
     1
102
RTVSPropertyOp38
 70
     1
102
RTVSPropertyOp39
 70
     1
102
RTVSPropertyOp40
 70
     1
102
RTVSPropertyOp41
 70
     1
102
RTVSPropertyOp42
 70
     1
102
RTVSPropertyOp43
 70
     1
102
RTVSPropertyOp44
 70
     1
102
RTVSPropertyOp45
 70
     1
102
RTVSPropertyOp46
 70
     1
102
RTVSPropertyOp47
 70
     1
102
RTVSPropertyOp48
 70
     1
102
RTVSPropertyOp49
 70
     1
102
RTVSPropertyOp50
 70
     1
102
RTVSPropertyOp51
 70
     0
102
RTVSPropertyOp52
 70
     0
102
RTVSPropertyOp53
 70
     1
102
RTVSPropertyOp54
 70
     1
102
RTVSPropertyOp55
 70
     1
102
RTVSPropertyOp56
 70
     1
102
RTVSPropertyOp57
 70
     1
102
RTVSPost2010Prop28
280
     0
102
RTVSPost2010PropOp28
 70
     1
102
RTVSPost2010Prop29
280
     1
102
RTVSPost2010PropOp29
 70
     1
102
RTVSPost2010Prop30
280
     1
102
RTVSPost2010PropOp30
 70
     1
102
RTVSPost2010Prop31
280
     0
102
RTVSPost2010PropOp31
 70
     1
102
RTVSPost2010Prop32
280
     0
102
RTVSPost2010PropOp32
 70
     1
102
RTVSPost2010Prop33
280
     0
102
RTVSPost2010PropOp33
 70
     1
102
RTVSPost2010Prop34
280
     0
102
RTVSPost2010PropOp34
 70
     1
102
RTVSPost2010Prop35
280
     0
102
RTVSPost2010PropOp35
 70
     1
102
RTVSPost2010Prop36
280
     0
102
RTVSPost2010PropOp36
 70
     1
102
RTVSPost2010Prop37
 90
       50
102
RTVSPost2010PropOp37
 70
     1
102
RTVSPost2010Prop38
140
0.0
102
RTVSPost2010PropOp38
 70
     1
102
RTVSPost2010Prop39
140
1.0
102
RTVSPost2010PropOp39
 70
     1
102
RTVSPost2010Prop40
 90
        0
102
RTVSPost2010PropOp40
 70
     1
102
RTVSPost2010Prop41ColorIndex
 90
       18
102
RTVSPost2010Prop41ColorRGB
 90
        0
102
RTVSPost2010PropOp41
 70
     1
102
RTVSPost2010Prop42
 90
       50
102
RTVSPost2010PropOp42
 70
     1
102
RTVSPost2010Prop43
 90
        3
102
RTVSPost2010PropOp43
 70
     1
102
RTVSPost2010Prop44ColorIndex
 90
        5
102
RTVSPost2010Prop44ColorRGB
 90
      255
102
RTVSPost2010PropOp44
 70
     1
102
RTVSPost2010Prop45
280
     0
102
RTVSPost2010PropOp45
 70
     1
102
RTVSPost2010Prop46
 90
       50
102
RTVSPost2010PropOp46
 70
     1
102
RTVSPost2010Prop47
 90
       50
102
RTVSPost2010PropOp47
 70
     1
102
RTVSPost2010Prop48
 90
       50
102
RTVSPost2010PropOp48
 70
     1
102
RTVSPost2010Prop49
280
     0
102
RTVSPost2010PropOp49
 70
     1
102
RTVSPost2010Prop50
 90
       50
102
RTVSPost2010PropOp50
 70
     1
102
RTVSPost2010Prop51ColorIndex
 90
      256
102
RTVSPost2010Prop51ColorRGB
 90
-16777216
102
RTVSPost2010PropOp51
 70
     0
102
RTVSPost2010Prop52
140
1.0
102
RTVSPost2010PropOp52
 70
     0
102
RTVSPost2010Prop53
 90
        2
102
RTVSPost2010PropOp53
 70
     1
102
RTVSPost2010Prop54
  1
strokes_ogs.tif
102
RTVSPost2010PropOp54
 70
     1
102
RTVSPost2010Prop55
280
     0
102
RTVSPost2010PropOp55
 70
     1
102
RTVSPost2010Prop56
140
1.0
102
RTVSPost2010PropOp56
 70
     1
102
RTVSPost2010Prop57
140
1.0
102
RTVSPost2010PropOp57
 70
     1
  0
XRECORD
  5
1CC
102
{ACAD_REACTORS
330
1CB
102
}
330
1CB
100
AcDbXrecord
280
     1
102
RTVSPropertyOp0
 70
     1
102
RTVSPropertyOp1
 70
     1
102
RTVSPropertyOp2
 70
     1
102
RTVSPropertyOp3
 70
     1
102
RTVSPropertyOp4
 70
     1
102
RTVSPropertyOp5
 70
     1
102
RTVSPropertyOp6
 70
     1
102
RTVSPropertyOp7
 70
     1
102
RTVSPropertyOp8
 70
     1
102
RTVSPropertyOp9
 70
     1
102
RTVSPropertyOp10
 70
     1
102
RTVSPropertyOp11
 70
     1
102
RTVSPropertyOp12
 70
     1
102
RTVSPropertyOp13
 70
     1
102
RTVSPropertyOp14
 70
     1
102
RTVSPropertyOp15
 70
     1
102
RTVSPropertyOp16
 70
     1
102
RTVSPropertyOp17
 70
     1
102
RTVSPropertyOp18
 70
     1
102
RTVSPropertyOp19
 70
     1
102
RTVSPropertyOp20
 70
     1
102
RTVSPropertyOp21
 70
     1
102
RTVSPropertyOp22
 70
     1
102
RTVSPropertyOp23
 70
     1
102
RTVSPropertyOp24
 70
     1
102
RTVSPropertyOp25
 70
     1
102
RTVSPropertyOp26
 70
     1
102
RTVSPropertyOp27
 70
     1
102
RTVSPropertyOp28
 70
     1
102
RTVSPropertyOp29
 70
     1
102
RTVSPropertyOp30
 70
     1
102
RTVSPropertyOp31
 70
     1
102
RTVSPropertyOp32
 70
     1
102
RTVSPropertyOp33
 70
     1
102
RTVSPropertyOp34
 70
     1
102
RTVSPropertyOp35
 70
     1
102
RTVSPropertyOp36
 70
     1
102
RTVSPropertyOp37
 70
     1
102
RTVSPropertyOp38
 70
     1
102
RTVSPropertyOp39
 70
     1
102
RTVSPropertyOp40
 70
     1
102
RTVSPropertyOp41
 70
     1
102
RTVSPropertyOp42
 70
     1
102
RTVSPropertyOp43
 70
     1
102
RTVSPropertyOp44
 70
     1
102
RTVSPropertyOp45
 70
     1
102
RTVSPropertyOp46
 70
     1
102
RTVSPropertyOp47
 70
     1
102
RTVSPropertyOp48
 70
     1
102
RTVSPropertyOp49
 70
     1
102
RTVSPropertyOp50
 70
     1
102
RTVSPropertyOp51
 70
     0
102
RTVSPropertyOp52
 70
     0
102
RTVSPropertyOp53
 70
     1
102
RTVSPropertyOp54
 70
     1
102
RTVSPropertyOp55
 70
     1
102
RTVSPropertyOp56
 70
     1
102
RTVSPropertyOp57
 70
     1
102
RTVSPost2010Prop28
280
     0
102
RTVSPost2010PropOp28
 70
     1
102
RTVSPost2010Prop29
280
     1
102
RTVSPost2010PropOp29
 70
     1
102
RTVSPost2010Prop30
280
     1
102
RTVSPost2010PropOp30
 70
     1
102
RTVSPost2010Prop31
280
     0
102
RTVSPost2010PropOp31
 70
     1
102
RTVSPost2010Prop32
280
     0
102
RTVSPost2010PropOp32
 70
     1
102
RTVSPost2010Prop33
280
     0
102
RTVSPost2010PropOp33
 70
     1
102
RTVSPost2010Prop34
280
     0
102
RTVSPost2010PropOp34
 70
     1
102
RTVSPost2010Prop35
280
     0
102
RTVSPost2010PropOp35
 70
     1
102
RTVSPost2010Prop36
280
     0
102
RTVSPost2010PropOp36
 70
     1
102
RTVSPost2010Prop37
 90
       50
102
RTVSPost2010PropOp37
 70
     1
102
RTVSPost2010Prop38
140
0.0
102
RTVSPost2010PropOp38
 70
     1
102
RTVSPost2010Prop39
140
1.0
102
RTVSPost2010PropOp39
 70
     1
102
RTVSPost2010Prop40
 90
        0
102
RTVSPost2010PropOp40
 70
     1
102
RTVSPost2010Prop41ColorIndex
 90
       18
102
RTVSPost2010Prop41ColorRGB
 90
        0
102
RTVSPost2010PropOp41
 70
     1
102
RTVSPost2010Prop42
 90
       50
102
RTVSPost2010PropOp42
 70
     1
102
RTVSPost2010Prop43
 90
        3
102
RTVSPost2010PropOp43
 70
     1
102
RTVSPost2010Prop44ColorIndex
 90
        5
102
RTVSPost2010Prop44ColorRGB
 90
      255
102
RTVSPost2010PropOp44
 70
     1
102
RTVSPost2010Prop45
280
     0
102
RTVSPost2010PropOp45
 70
     1
102
RTVSPost2010Prop46
 90
       50
102
RTVSPost2010PropOp46
 70
     1
102
RTVSPost2010Prop47
 90
       50
102
RTVSPost2010PropOp47
 70
     1
102
RTVSPost2010Prop48
 90
       50
102
RTVSPost2010PropOp48
 70
     1
102
RTVSPost2010Prop49
280
     0
102
RTVSPost2010PropOp49
 70
     1
102
RTVSPost2010Prop50
 90
       50
102
RTVSPost2010PropOp50
 70
     1
102
RTVSPost2010Prop51ColorIndex
 90
      256
102
RTVSPost2010Prop51ColorRGB
 90
-16777216
102
RTVSPost2010PropOp51
 70
     0
102
RTVSPost2010Prop52
140
1.0
102
RTVSPost2010PropOp52
 70
     0
102
RTVSPost2010Prop53
 90
        2
102
RTVSPost2010PropOp53
 70
     1
102
RTVSPost2010Prop54
  1
strokes_ogs.tif
102
RTVSPost2010PropOp54
 70
     1
102
RTVSPost2010Prop55
280
     0
102
RTVSPost2010PropOp55
 70
     1
102
RTVSPost2010Prop56
140
1.0
102
RTVSPost2010PropOp56
 70
     1
102
RTVSPost2010Prop57
140
1.0
102
RTVSPost2010PropOp57
 70
     1
  0
XRECORD
  5
1CE
102
{ACAD_REACTORS
330
1CD
102
}
330
1CD
100
AcDbXrecord
280
     1
102
RTVSPropertyOp0
 70
     1
102
RTVSPropertyOp1
 70
     1
102
RTVSPropertyOp2
 70
     1
102
RTVSPropertyOp3
 70
     1
102
RTVSPropertyOp4
 70
     1
102
RTVSPropertyOp5
 70
     1
102
RTVSPropertyOp6
 70
     1
102
RTVSPropertyOp7
 70
     1
102
RTVSPropertyOp8
 70
     1
102
RTVSPropertyOp9
 70
     1
102
RTVSPropertyOp10
 70
     1
102
RTVSPropertyOp11
 70
     1
102
RTVSPropertyOp12
 70
     1
102
RTVSPropertyOp13
 70
     1
102
RTVSPropertyOp14
 70
     1
102
RTVSPropertyOp15
 70
     1
102
RTVSPropertyOp16
 70
     1
102
RTVSPropertyOp17
 70
     1
102
RTVSPropertyOp18
 70
     1
102
RTVSPropertyOp19
 70
     1
102
RTVSPropertyOp20
 70
     1
102
RTVSPropertyOp21
 70
     1
102
RTVSPropertyOp22
 70
     1
102
RTVSPropertyOp23
 70
     1
102
RTVSPropertyOp24
 70
     1
102
RTVSPropertyOp25
 70
     1
102
RTVSPropertyOp26
 70
     1
102
RTVSPropertyOp27
 70
     1
102
RTVSPropertyOp28
 70
     1
102
RTVSPropertyOp29
 70
     1
102
RTVSPropertyOp30
 70
     1
102
RTVSPropertyOp31
 70
     1
102
RTVSPropertyOp32
 70
     1
102
RTVSPropertyOp33
 70
     1
102
RTVSPropertyOp34
 70
     1
102
RTVSPropertyOp35
 70
     1
102
RTVSPropertyOp36
 70
     1
102
RTVSPropertyOp37
 70
     1
102
RTVSPropertyOp38
 70
     1
102
RTVSPropertyOp39
 70
     1
102
RTVSPropertyOp40
 70
     1
102
RTVSPropertyOp41
 70
     1
102
RTVSPropertyOp42
 70
     1
102
RTVSPropertyOp43
 70
     1
102
RTVSPropertyOp44
 70
     1
102
RTVSPropertyOp45
 70
     1
102
RTVSPropertyOp46
 70
     1
102
RTVSPropertyOp47
 70
     1
102
RTVSPropertyOp48
 70
     1
102
RTVSPropertyOp49
 70
     1
102
RTVSPropertyOp50
 70
     1
102
RTVSPropertyOp51
 70
     0
102
RTVSPropertyOp52
 70
     0
102
RTVSPropertyOp53
 70
     1
102
RTVSPropertyOp54
 70
     1
102
RTVSPropertyOp55
 70
     1
102
RTVSPropertyOp56
 70
     1
102
RTVSPropertyOp57
 70
     1
102
RTVSPost2010Prop28
280
     0
102
RTVSPost2010PropOp28
 70
     1
102
RTVSPost2010Prop29
280
     1
102
RTVSPost2010PropOp29
 70
     1
102
RTVSPost2010Prop30
280
     1
102
RTVSPost2010PropOp30
 70
     1
102
RTVSPost2010Prop31
280
     0
102
RTVSPost2010PropOp31
 70
     1
102
RTVSPost2010Prop32
280
     0
102
RTVSPost2010PropOp32
 70
     1
102
RTVSPost2010Prop33
280
     0
102
RTVSPost2010PropOp33
 70
     1
102
RTVSPost2010Prop34
280
     0
102
RTVSPost2010PropOp34
 70
     1
102
RTVSPost2010Prop35
280
     0
102
RTVSPost2010PropOp35
 70
     1
102
RTVSPost2010Prop36
280
     0
102
RTVSPost2010PropOp36
 70
     1
102
RTVSPost2010Prop37
 90
       50
102
RTVSPost2010PropOp37
 70
     1
102
RTVSPost2010Prop38
140
0.0
102
RTVSPost2010PropOp38
 70
     1
102
RTVSPost2010Prop39
140
1.0
102
RTVSPost2010PropOp39
 70
     1
102
RTVSPost2010Prop40
 90
        0
102
RTVSPost2010PropOp40
 70
     1
102
RTVSPost2010Prop41ColorIndex
 90
       18
102
RTVSPost2010Prop41ColorRGB
 90
        0
102
RTVSPost2010PropOp41
 70
     1
102
RTVSPost2010Prop42
 90
       50
102
RTVSPost2010PropOp42
 70
     1
102
RTVSPost2010Prop43
 90
        3
102
RTVSPost2010PropOp43
 70
     1
102
RTVSPost2010Prop44ColorIndex
 90
        5
102
RTVSPost2010Prop44ColorRGB
 90
      255
102
RTVSPost2010PropOp44
 70
     1
102
RTVSPost2010Prop45
280
     0
102
RTVSPost2010PropOp45
 70
     1
102
RTVSPost2010Prop46
 90
       50
102
RTVSPost2010PropOp46
 70
     1
102
RTVSPost2010Prop47
 90
       50
102
RTVSPost2010PropOp47
 70
     1
102
RTVSPost2010Prop48
 90
       50
102
RTVSPost2010PropOp48
 70
     1
102
RTVSPost2010Prop49
280
     0
102
RTVSPost2010PropOp49
 70
     1
102
RTVSPost2010Prop50
 90
       50
102
RTVSPost2010PropOp50
 70
     1
102
RTVSPost2010Prop51ColorIndex
 90
      256
102
RTVSPost2010Prop51ColorRGB
 90
-16777216
102
RTVSPost2010PropOp51
 70
     0
102
RTVSPost2010Prop52
140
1.0
102
RTVSPost2010PropOp52
 70
     0
102
RTVSPost2010Prop53
 90
        2
102
RTVSPost2010PropOp53
 70
     1
102
RTVSPost2010Prop54
  1
strokes_ogs.tif
102
RTVSPost2010PropOp54
 70
     1
102
RTVSPost2010Prop55
280
     0
102
RTVSPost2010PropOp55
 70
     1
102
RTVSPost2010Prop56
140
1.0
102
RTVSPost2010PropOp56
 70
     1
102
RTVSPost2010Prop57
140
1.0
102
RTVSPost2010PropOp57
 70
     1
  0
XRECORD
  5
1D6
102
{ACAD_REACTORS
330
1D5
102
}
330
1D5
100
AcDbXrecord
280
     1
102
RTVSPropertyOp0
 70
     1
102
RTVSPropertyOp1
 70
     1
102
RTVSPropertyOp2
 70
     1
102
RTVSPropertyOp3
 70
     1
102
RTVSPropertyOp4
 70
     1
102
RTVSPropertyOp5
 70
     1
102
RTVSPropertyOp6
 70
     1
102
RTVSPropertyOp7
 70
     1
102
RTVSPropertyOp8
 70
     1
102
RTVSPropertyOp9
 70
     1
102
RTVSPropertyOp10
 70
     1
102
RTVSPropertyOp11
 70
     1
102
RTVSPropertyOp12
 70
     1
102
RTVSPropertyOp13
 70
     1
102
RTVSPropertyOp14
 70
     1
102
RTVSPropertyOp15
 70
     1
102
RTVSPropertyOp16
 70
     1
102
RTVSPropertyOp17
 70
     1
102
RTVSPropertyOp18
 70
     1
102
RTVSPropertyOp19
 70
     1
102
RTVSPropertyOp20
 70
     1
102
RTVSPropertyOp21
 70
     1
102
RTVSPropertyOp22
 70
     1
102
RTVSPropertyOp23
 70
     1
102
RTVSPropertyOp24
 70
     1
102
RTVSPropertyOp25
 70
     1
102
RTVSPropertyOp26
 70
     1
102
RTVSPropertyOp27
 70
     1
102
RTVSPropertyOp28
 70
     1
102
RTVSPropertyOp29
 70
     1
102
RTVSPropertyOp30
 70
     1
102
RTVSPropertyOp31
 70
     1
102
RTVSPropertyOp32
 70
     1
102
RTVSPropertyOp33
 70
     1
102
RTVSPropertyOp34
 70
     1
102
RTVSPropertyOp35
 70
     1
102
RTVSPropertyOp36
 70
     1
102
RTVSPropertyOp37
 70
     1
102
RTVSPropertyOp38
 70
     1
102
RTVSPropertyOp39
 70
     1
102
RTVSPropertyOp40
 70
     1
102
RTVSPropertyOp41
 70
     1
102
RTVSPropertyOp42
 70
     1
102
RTVSPropertyOp43
 70
     1
102
RTVSPropertyOp44
 70
     1
102
RTVSPropertyOp45
 70
     1
102
RTVSPropertyOp46
 70
     1
102
RTVSPropertyOp47
 70
     1
102
RTVSPropertyOp48
 70
     1
102
RTVSPropertyOp49
 70
     1
102
RTVSPropertyOp50
 70
     1
102
RTVSPropertyOp51
 70
     0
102
RTVSPropertyOp52
 70
     0
102
RTVSPropertyOp53
 70
     1
102
RTVSPropertyOp54
 70
     1
102
RTVSPropertyOp55
 70
     1
102
RTVSPropertyOp56
 70
     1
102
RTVSPropertyOp57
 70
     1
102
RTVSPost2010Prop28
280
     0
102
RTVSPost2010PropOp28
 70
     1
102
RTVSPost2010Prop29
280
     1
102
RTVSPost2010PropOp29
 70
     1
102
RTVSPost2010Prop30
280
     1
102
RTVSPost2010PropOp30
 70
     1
102
RTVSPost2010Prop31
280
     0
102
RTVSPost2010PropOp31
 70
     1
102
RTVSPost2010Prop32
280
     0
102
RTVSPost2010PropOp32
 70
     1
102
RTVSPost2010Prop33
280
     0
102
RTVSPost2010PropOp33
 70
     1
102
RTVSPost2010Prop34
280
     0
102
RTVSPost2010PropOp34
 70
     1
102
RTVSPost2010Prop35
280
     0
102
RTVSPost2010PropOp35
 70
     1
102
RTVSPost2010Prop36
280
     0
102
RTVSPost2010PropOp36
 70
     1
102
RTVSPost2010Prop37
 90
       50
102
RTVSPost2010PropOp37
 70
     1
102
RTVSPost2010Prop38
140
0.0
102
RTVSPost2010PropOp38
 70
     1
102
RTVSPost2010Prop39
140
1.0
102
RTVSPost2010PropOp39
 70
     1
102
RTVSPost2010Prop40
 90
        0
102
RTVSPost2010PropOp40
 70
     1
102
RTVSPost2010Prop41ColorIndex
 90
       18
102
RTVSPost2010Prop41ColorRGB
 90
        0
102
RTVSPost2010PropOp41
 70
     1
102
RTVSPost2010Prop42
 90
       50
102
RTVSPost2010PropOp42
 70
     1
102
RTVSPost2010Prop43
 90
        3
102
RTVSPost2010PropOp43
 70
     1
102
RTVSPost2010Prop44ColorIndex
 90
        5
102
RTVSPost2010Prop44ColorRGB
 90
      255
102
RTVSPost2010PropOp44
 70
     1
102
RTVSPost2010Prop45
280
     0
102
RTVSPost2010PropOp45
 70
     1
102
RTVSPost2010Prop46
 90
       50
102
RTVSPost2010PropOp46
 70
     1
102
RTVSPost2010Prop47
 90
       50
102
RTVSPost2010PropOp47
 70
     1
102
RTVSPost2010Prop48
 90
       50
102
RTVSPost2010PropOp48
 70
     1
102
RTVSPost2010Prop49
280
     0
102
RTVSPost2010PropOp49
 70
     1
102
RTVSPost2010Prop50
 90
       50
102
RTVSPost2010PropOp50
 70
     1
102
RTVSPost2010Prop51ColorIndex
 90
      256
102
RTVSPost2010Prop51ColorRGB
 90
-16777216
102
RTVSPost2010PropOp51
 70
     0
102
RTVSPost2010Prop52
140
1.0
102
RTVSPost2010PropOp52
 70
     0
102
RTVSPost2010Prop53
 90
        2
102
RTVSPost2010PropOp53
 70
     1
102
RTVSPost2010Prop54
  1
strokes_ogs.tif
102
RTVSPost2010PropOp54
 70
     1
102
RTVSPost2010Prop55
280
     0
102
RTVSPost2010PropOp55
 70
     1
102
RTVSPost2010Prop56
140
1.0
102
RTVSPost2010PropOp56
 70
     1
102
RTVSPost2010Prop57
140
1.0
102
RTVSPost2010PropOp57
 70
     1
  0
XRECORD
  5
1BA
102
{ACAD_REACTORS
330
1B9
102
}
330
1B9
100
AcDbXrecord
280
     1
102
RTVSPropertyOp0
 70
     1
102
RTVSPropertyOp1
 70
     1
102
RTVSPropertyOp2
 70
     1
102
RTVSPropertyOp3
 70
     1
102
RTVSPropertyOp4
 70
     1
102
RTVSPropertyOp5
 70
     1
102
RTVSPropertyOp6
 70
     1
102
RTVSPropertyOp7
 70
     1
102
RTVSPropertyOp8
 70
     1
102
RTVSPropertyOp9
 70
     1
102
RTVSPropertyOp10
 70
     1
102
RTVSPropertyOp11
 70
     1
102
RTVSPropertyOp12
 70
     1
102
RTVSPropertyOp13
 70
     1
102
RTVSPropertyOp14
 70
     1
102
RTVSPropertyOp15
 70
     1
102
RTVSPropertyOp16
 70
     1
102
RTVSPropertyOp17
 70
     1
102
RTVSPropertyOp18
 70
     1
102
RTVSPropertyOp19
 70
     1
102
RTVSPropertyOp20
 70
     1
102
RTVSPropertyOp21
 70
     1
102
RTVSPropertyOp22
 70
     1
102
RTVSPropertyOp23
 70
     1
102
RTVSPropertyOp24
 70
     1
102
RTVSPropertyOp25
 70
     1
102
RTVSPropertyOp26
 70
     1
102
RTVSPropertyOp27
 70
     1
102
RTVSPropertyOp28
 70
     1
102
RTVSPropertyOp29
 70
     1
102
RTVSPropertyOp30
 70
     1
102
RTVSPropertyOp31
 70
     1
102
RTVSPropertyOp32
 70
     1
102
RTVSPropertyOp33
 70
     1
102
RTVSPropertyOp34
 70
     1
102
RTVSPropertyOp35
 70
     1
102
RTVSPropertyOp36
 70
     1
102
RTVSPropertyOp37
 70
     1
102
RTVSPropertyOp38
 70
     1
102
RTVSPropertyOp39
 70
     1
102
RTVSPropertyOp40
 70
     1
102
RTVSPropertyOp41
 70
     1
102
RTVSPropertyOp42
 70
     1
102
RTVSPropertyOp43
 70
     1
102
RTVSPropertyOp44
 70
     1
102
RTVSPropertyOp45
 70
     1
102
RTVSPropertyOp46
 70
     1
102
RTVSPropertyOp47
 70
     1
102
RTVSPropertyOp48
 70
     1
102
RTVSPropertyOp49
 70
     1
102
RTVSPropertyOp50
 70
     1
102
RTVSPropertyOp51
 70
     0
102
RTVSPropertyOp52
 70
     0
102
RTVSPropertyOp53
 70
     1
102
RTVSPropertyOp54
 70
     1
102
RTVSPropertyOp55
 70
     1
102
RTVSPropertyOp56
 70
     1
102
RTVSPropertyOp57
 70
     1
102
RTVSPost2010Prop28
280
     0
102
RTVSPost2010PropOp28
 70
     1
102
RTVSPost2010Prop29
280
     1
102
RTVSPost2010PropOp29
 70
     1
102
RTVSPost2010Prop30
280
     1
102
RTVSPost2010PropOp30
 70
     1
102
RTVSPost2010Prop31
280
     0
102
RTVSPost2010PropOp31
 70
     1
102
RTVSPost2010Prop32
280
     0
102
RTVSPost2010PropOp32
 70
     1
102
RTVSPost2010Prop33
280
     0
102
RTVSPost2010PropOp33
 70
     1
102
RTVSPost2010Prop34
280
     0
102
RTVSPost2010PropOp34
 70
     1
102
RTVSPost2010Prop35
280
     0
102
RTVSPost2010PropOp35
 70
     1
102
RTVSPost2010Prop36
280
     0
102
RTVSPost2010PropOp36
 70
     1
102
RTVSPost2010Prop37
 90
       50
102
RTVSPost2010PropOp37
 70
     1
102
RTVSPost2010Prop38
140
0.0
102
RTVSPost2010PropOp38
 70
     1
102
RTVSPost2010Prop39
140
1.0
102
RTVSPost2010PropOp39
 70
     1
102
RTVSPost2010Prop40
 90
        0
102
RTVSPost2010PropOp40
 70
     1
102
RTVSPost2010Prop41ColorIndex
 90
       18
102
RTVSPost2010Prop41ColorRGB
 90
        0
102
RTVSPost2010PropOp41
 70
     1
102
RTVSPost2010Prop42
 90
       50
102
RTVSPost2010PropOp42
 70
     1
102
RTVSPost2010Prop43
 90
        3
102
RTVSPost2010PropOp43
 70
     1
102
RTVSPost2010Prop44ColorIndex
 90
        5
102
RTVSPost2010Prop44ColorRGB
 90
      255
102
RTVSPost2010PropOp44
 70
     1
102
RTVSPost2010Prop45
280
     0
102
RTVSPost2010PropOp45
 70
     1
102
RTVSPost2010Prop46
 90
       50
102
RTVSPost2010PropOp46
 70
     1
102
RTVSPost2010Prop47
 90
       50
102
RTVSPost2010PropOp47
 70
     1
102
RTVSPost2010Prop48
 90
       50
102
RTVSPost2010PropOp48
 70
     1
102
RTVSPost2010Prop49
280
     0
102
RTVSPost2010PropOp49
 70
     1
102
RTVSPost2010Prop50
 90
       50
102
RTVSPost2010PropOp50
 70
     1
102
RTVSPost2010Prop51ColorIndex
 90
      256
102
RTVSPost2010Prop51ColorRGB
 90
-16777216
102
RTVSPost2010PropOp51
 70
     0
102
RTVSPost2010Prop52
140
1.0
102
RTVSPost2010PropOp52
 70
     0
102
RTVSPost2010Prop53
 90
        2
102
RTVSPost2010PropOp53
 70
     1
102
RTVSPost2010Prop54
  1
strokes_ogs.tif
102
RTVSPost2010PropOp54
 70
     1
102
RTVSPost2010Prop55
280
     0
102
RTVSPost2010PropOp55
 70
     1
102
RTVSPost2010Prop56
140
1.0
102
RTVSPost2010PropOp56
 70
     1
102
RTVSPost2010Prop57
140
1.0
102
RTVSPost2010PropOp57
 70
     1
  0
XRECORD
  5
1BC
102
{ACAD_REACTORS
330
1BB
102
}
330
1BB
100
AcDbXrecord
280
     1
102
RTVSPropertyOp0
 70
     1
102
RTVSPropertyOp1
 70
     1
102
RTVSPropertyOp2
 70
     1
102
RTVSPropertyOp3
 70
     1
102
RTVSPropertyOp4
 70
     1
102
RTVSPropertyOp5
 70
     1
102
RTVSPropertyOp6
 70
     1
102
RTVSPropertyOp7
 70
     1
102
RTVSPropertyOp8
 70
     1
102
RTVSPropertyOp9
 70
     1
102
RTVSPropertyOp10
 70
     1
102
RTVSPropertyOp11
 70
     1
102
RTVSPropertyOp12
 70
     1
102
RTVSPropertyOp13
 70
     1
102
RTVSPropertyOp14
 70
     1
102
RTVSPropertyOp15
 70
     1
102
RTVSPropertyOp16
 70
     1
102
RTVSPropertyOp17
 70
     1
102
RTVSPropertyOp18
 70
     1
102
RTVSPropertyOp19
 70
     1
102
RTVSPropertyOp20
 70
     1
102
RTVSPropertyOp21
 70
     1
102
RTVSPropertyOp22
 70
     1
102
RTVSPropertyOp23
 70
     1
102
RTVSPropertyOp24
 70
     1
102
RTVSPropertyOp25
 70
     1
102
RTVSPropertyOp26
 70
     1
102
RTVSPropertyOp27
 70
     1
102
RTVSPropertyOp28
 70
     1
102
RTVSPropertyOp29
 70
     1
102
RTVSPropertyOp30
 70
     1
102
RTVSPropertyOp31
 70
     1
102
RTVSPropertyOp32
 70
     1
102
RTVSPropertyOp33
 70
     1
102
RTVSPropertyOp34
 70
     1
102
RTVSPropertyOp35
 70
     1
102
RTVSPropertyOp36
 70
     1
102
RTVSPropertyOp37
 70
     1
102
RTVSPropertyOp38
 70
     1
102
RTVSPropertyOp39
 70
     1
102
RTVSPropertyOp40
 70
     1
102
RTVSPropertyOp41
 70
     1
102
RTVSPropertyOp42
 70
     1
102
RTVSPropertyOp43
 70
     1
102
RTVSPropertyOp44
 70
     1
102
RTVSPropertyOp45
 70
     1
102
RTVSPropertyOp46
 70
     1
102
RTVSPropertyOp47
 70
     1
102
RTVSPropertyOp48
 70
     1
102
RTVSPropertyOp49
 70
     1
102
RTVSPropertyOp50
 70
     1
102
RTVSPropertyOp51
 70
     0
102
RTVSPropertyOp52
 70
     0
102
RTVSPropertyOp53
 70
     1
102
RTVSPropertyOp54
 70
     1
102
RTVSPropertyOp55
 70
     1
102
RTVSPropertyOp56
 70
     1
102
RTVSPropertyOp57
 70
     1
102
RTVSPost2010Prop28
280
     0
102
RTVSPost2010PropOp28
 70
     1
102
RTVSPost2010Prop29
280
     1
102
RTVSPost2010PropOp29
 70
     1
102
RTVSPost2010Prop30
280
     1
102
RTVSPost2010PropOp30
 70
     1
102
RTVSPost2010Prop31
280
     0
102
RTVSPost2010PropOp31
 70
     1
102
RTVSPost2010Prop32
280
     0
102
RTVSPost2010PropOp32
 70
     1
102
RTVSPost2010Prop33
280
     0
102
RTVSPost2010PropOp33
 70
     1
102
RTVSPost2010Prop34
280
     0
102
RTVSPost2010PropOp34
 70
     1
102
RTVSPost2010Prop35
280
     0
102
RTVSPost2010PropOp35
 70
     1
102
RTVSPost2010Prop36
280
     0
102
RTVSPost2010PropOp36
 70
     1
102
RTVSPost2010Prop37
 90
       50
102
RTVSPost2010PropOp37
 70
     1
102
RTVSPost2010Prop38
140
0.0
102
RTVSPost2010PropOp38
 70
     1
102
RTVSPost2010Prop39
140
1.0
102
RTVSPost2010PropOp39
 70
     1
102
RTVSPost2010Prop40
 90
        0
102
RTVSPost2010PropOp40
 70
     1
102
RTVSPost2010Prop41ColorIndex
 90
       18
102
RTVSPost2010Prop41ColorRGB
 90
        0
102
RTVSPost2010PropOp41
 70
     1
102
RTVSPost2010Prop42
 90
       50
102
RTVSPost2010PropOp42
 70
     1
102
RTVSPost2010Prop43
 90
        3
102
RTVSPost2010PropOp43
 70
     1
102
RTVSPost2010Prop44ColorIndex
 90
        5
102
RTVSPost2010Prop44ColorRGB
 90
      255
102
RTVSPost2010PropOp44
 70
     1
102
RTVSPost2010Prop45
280
     0
102
RTVSPost2010PropOp45
 70
     1
102
RTVSPost2010Prop46
 90
       50
102
RTVSPost2010PropOp46
 70
     1
102
RTVSPost2010Prop47
 90
       50
102
RTVSPost2010PropOp47
 70
     1
102
RTVSPost2010Prop48
 90
       50
102
RTVSPost2010PropOp48
 70
     1
102
RTVSPost2010Prop49
280
     0
102
RTVSPost2010PropOp49
 70
     1
102
RTVSPost2010Prop50
 90
       50
102
RTVSPost2010PropOp50
 70
     1
102
RTVSPost2010Prop51ColorIndex
 90
      256
102
RTVSPost2010Prop51ColorRGB
 90
-16777216
102
RTVSPost2010PropOp51
 70
     0
102
RTVSPost2010Prop52
140
1.0
102
RTVSPost2010PropOp52
 70
     0
102
RTVSPost2010Prop53
 90
        2
102
RTVSPost2010PropOp53
 70
     1
102
RTVSPost2010Prop54
  1
strokes_ogs.tif
102
RTVSPost2010PropOp54
 70
     1
102
RTVSPost2010Prop55
280
     0
102
RTVSPost2010PropOp55
 70
     1
102
RTVSPost2010Prop56
140
1.0
102
RTVSPost2010PropOp56
 70
     1
102
RTVSPost2010Prop57
140
1.0
102
RTVSPost2010PropOp57
 70
     1
  0
XRECORD
  5
1BE
102
{ACAD_REACTORS
330
1BD
102
}
330
1BD
100
AcDbXrecord
280
     1
102
RTVSPropertyOp0
 70
     1
102
RTVSPropertyOp1
 70
     1
102
RTVSPropertyOp2
 70
     1
102
RTVSPropertyOp3
 70
     1
102
RTVSPropertyOp4
 70
     1
102
RTVSPropertyOp5
 70
     1
102
RTVSPropertyOp6
 70
     1
102
RTVSPropertyOp7
 70
     1
102
RTVSPropertyOp8
 70
     1
102
RTVSPropertyOp9
 70
     1
102
RTVSPropertyOp10
 70
     1
102
RTVSPropertyOp11
 70
     1
102
RTVSPropertyOp12
 70
     1
102
RTVSPropertyOp13
 70
     1
102
RTVSPropertyOp14
 70
     1
102
RTVSPropertyOp15
 70
     1
102
RTVSPropertyOp16
 70
     1
102
RTVSPropertyOp17
 70
     1
102
RTVSPropertyOp18
 70
     1
102
RTVSPropertyOp19
 70
     1
102
RTVSPropertyOp20
 70
     1
102
RTVSPropertyOp21
 70
     1
102
RTVSPropertyOp22
 70
     1
102
RTVSPropertyOp23
 70
     1
102
RTVSPropertyOp24
 70
     1
102
RTVSPropertyOp25
 70
     1
102
RTVSPropertyOp26
 70
     1
102
RTVSPropertyOp27
 70
     1
102
RTVSPropertyOp28
 70
     1
102
RTVSPropertyOp29
 70
     1
102
RTVSPropertyOp30
 70
     1
102
RTVSPropertyOp31
 70
     1
102
RTVSPropertyOp32
 70
     1
102
RTVSPropertyOp33
 70
     1
102
RTVSPropertyOp34
 70
     1
102
RTVSPropertyOp35
 70
     1
102
RTVSPropertyOp36
 70
     1
102
RTVSPropertyOp37
 70
     1
102
RTVSPropertyOp38
 70
     1
102
RTVSPropertyOp39
 70
     1
102
RTVSPropertyOp40
 70
     1
102
RTVSPropertyOp41
 70
     1
102
RTVSPropertyOp42
 70
     1
102
RTVSPropertyOp43
 70
     1
102
RTVSPropertyOp44
 70
     1
102
RTVSPropertyOp45
 70
     1
102
RTVSPropertyOp46
 70
     1
102
RTVSPropertyOp47
 70
     1
102
RTVSPropertyOp48
 70
     1
102
RTVSPropertyOp49
 70
     1
102
RTVSPropertyOp50
 70
     1
102
RTVSPropertyOp51
 70
     0
102
RTVSPropertyOp52
 70
     0
102
RTVSPropertyOp53
 70
     1
102
RTVSPropertyOp54
 70
     1
102
RTVSPropertyOp55
 70
     1
102
RTVSPropertyOp56
 70
     1
102
RTVSPropertyOp57
 70
     1
102
RTVSPost2010Prop28
280
     0
102
RTVSPost2010PropOp28
 70
     1
102
RTVSPost2010Prop29
280
     1
102
RTVSPost2010PropOp29
 70
     1
102
RTVSPost2010Prop30
280
     1
102
RTVSPost2010PropOp30
 70
     1
102
RTVSPost2010Prop31
280
     0
102
RTVSPost2010PropOp31
 70
     1
102
RTVSPost2010Prop32
280
     0
102
RTVSPost2010PropOp32
 70
     1
102
RTVSPost2010Prop33
280
     0
102
RTVSPost2010PropOp33
 70
     1
102
RTVSPost2010Prop34
280
     0
102
RTVSPost2010PropOp34
 70
     1
102
RTVSPost2010Prop35
280
     0
102
RTVSPost2010PropOp35
 70
     1
102
RTVSPost2010Prop36
280
     0
102
RTVSPost2010PropOp36
 70
     1
102
RTVSPost2010Prop37
 90
       50
102
RTVSPost2010PropOp37
 70
     1
102
RTVSPost2010Prop38
140
0.0
102
RTVSPost2010PropOp38
 70
     1
102
RTVSPost2010Prop39
140
1.0
102
RTVSPost2010PropOp39
 70
     1
102
RTVSPost2010Prop40
 90
        0
102
RTVSPost2010PropOp40
 70
     1
102
RTVSPost2010Prop41ColorIndex
 90
       18
102
RTVSPost2010Prop41ColorRGB
 90
        0
102
RTVSPost2010PropOp41
 70
     1
102
RTVSPost2010Prop42
 90
       50
102
RTVSPost2010PropOp42
 70
     1
102
RTVSPost2010Prop43
 90
        3
102
RTVSPost2010PropOp43
 70
     1
102
RTVSPost2010Prop44ColorIndex
 90
        5
102
RTVSPost2010Prop44ColorRGB
 90
      255
102
RTVSPost2010PropOp44
 70
     1
102
RTVSPost2010Prop45
280
     0
102
RTVSPost2010PropOp45
 70
     1
102
RTVSPost2010Prop46
 90
       50
102
RTVSPost2010PropOp46
 70
     1
102
RTVSPost2010Prop47
 90
       50
102
RTVSPost2010PropOp47
 70
     1
102
RTVSPost2010Prop48
 90
       50
102
RTVSPost2010PropOp48
 70
     1
102
RTVSPost2010Prop49
280
     0
102
RTVSPost2010PropOp49
 70
     1
102
RTVSPost2010Prop50
 90
       50
102
RTVSPost2010PropOp50
 70
     1
102
RTVSPost2010Prop51ColorIndex
 90
      256
102
RTVSPost2010Prop51ColorRGB
 90
-16777216
102
RTVSPost2010PropOp51
 70
     0
102
RTVSPost2010Prop52
140
1.0
102
RTVSPost2010PropOp52
 70
     0
102
RTVSPost2010Prop53
 90
        2
102
RTVSPost2010PropOp53
 70
     1
102
RTVSPost2010Prop54
  1
strokes_ogs.tif
102
RTVSPost2010PropOp54
 70
     1
102
RTVSPost2010Prop55
280
     0
102
RTVSPost2010PropOp55
 70
     1
102
RTVSPost2010Prop56
140
1.0
102
RTVSPost2010PropOp56
 70
     1
102
RTVSPost2010Prop57
140
1.0
102
RTVSPost2010PropOp57
 70
     1
  0
XRECORD
  5
1C0
102
{ACAD_REACTORS
330
1BF
102
}
330
1BF
100
AcDbXrecord
280
     1
102
RTVSPropertyOp0
 70
     1
102
RTVSPropertyOp1
 70
     1
102
RTVSPropertyOp2
 70
     1
102
RTVSPropertyOp3
 70
     1
102
RTVSPropertyOp4
 70
     1
102
RTVSPropertyOp5
 70
     1
102
RTVSPropertyOp6
 70
     1
102
RTVSPropertyOp7
 70
     1
102
RTVSPropertyOp8
 70
     1
102
RTVSPropertyOp9
 70
     1
102
RTVSPropertyOp10
 70
     1
102
RTVSPropertyOp11
 70
     1
102
RTVSPropertyOp12
 70
     1
102
RTVSPropertyOp13
 70
     1
102
RTVSPropertyOp14
 70
     1
102
RTVSPropertyOp15
 70
     1
102
RTVSPropertyOp16
 70
     1
102
RTVSPropertyOp17
 70
     1
102
RTVSPropertyOp18
 70
     1
102
RTVSPropertyOp19
 70
     1
102
RTVSPropertyOp20
 70
     1
102
RTVSPropertyOp21
 70
     1
102
RTVSPropertyOp22
 70
     1
102
RTVSPropertyOp23
 70
     1
102
RTVSPropertyOp24
 70
     1
102
RTVSPropertyOp25
 70
     1
102
RTVSPropertyOp26
 70
     1
102
RTVSPropertyOp27
 70
     1
102
RTVSPropertyOp28
 70
     1
102
RTVSPropertyOp29
 70
     1
102
RTVSPropertyOp30
 70
     1
102
RTVSPropertyOp31
 70
     1
102
RTVSPropertyOp32
 70
     1
102
RTVSPropertyOp33
 70
     1
102
RTVSPropertyOp34
 70
     1
102
RTVSPropertyOp35
 70
     1
102
RTVSPropertyOp36
 70
     1
102
RTVSPropertyOp37
 70
     1
102
RTVSPropertyOp38
 70
     1
102
RTVSPropertyOp39
 70
     1
102
RTVSPropertyOp40
 70
     1
102
RTVSPropertyOp41
 70
     1
102
RTVSPropertyOp42
 70
     1
102
RTVSPropertyOp43
 70
     1
102
RTVSPropertyOp44
 70
     1
102
RTVSPropertyOp45
 70
     1
102
RTVSPropertyOp46
 70
     1
102
RTVSPropertyOp47
 70
     1
102
RTVSPropertyOp48
 70
     1
102
RTVSPropertyOp49
 70
     1
102
RTVSPropertyOp50
 70
     1
102
RTVSPropertyOp51
 70
     0
102
RTVSPropertyOp52
 70
     0
102
RTVSPropertyOp53
 70
     1
102
RTVSPropertyOp54
 70
     1
102
RTVSPropertyOp55
 70
     1
102
RTVSPropertyOp56
 70
     1
102
RTVSPropertyOp57
 70
     1
102
RTVSPost2010Prop28
280
     0
102
RTVSPost2010PropOp28
 70
     1
102
RTVSPost2010Prop29
280
     1
102
RTVSPost2010PropOp29
 70
     1
102
RTVSPost2010Prop30
280
     1
102
RTVSPost2010PropOp30
 70
     1
102
RTVSPost2010Prop31
280
     0
102
RTVSPost2010PropOp31
 70
     1
102
RTVSPost2010Prop32
280
     0
102
RTVSPost2010PropOp32
 70
     1
102
RTVSPost2010Prop33
280
     0
102
RTVSPost2010PropOp33
 70
     1
102
RTVSPost2010Prop34
280
     0
102
RTVSPost2010PropOp34
 70
     1
102
RTVSPost2010Prop35
280
     0
102
RTVSPost2010PropOp35
 70
     1
102
RTVSPost2010Prop36
280
     0
102
RTVSPost2010PropOp36
 70
     1
102
RTVSPost2010Prop37
 90
       50
102
RTVSPost2010PropOp37
 70
     1
102
RTVSPost2010Prop38
140
0.0
102
RTVSPost2010PropOp38
 70
     1
102
RTVSPost2010Prop39
140
1.0
102
RTVSPost2010PropOp39
 70
     1
102
RTVSPost2010Prop40
 90
        0
102
RTVSPost2010PropOp40
 70
     1
102
RTVSPost2010Prop41ColorIndex
 90
       18
102
RTVSPost2010Prop41ColorRGB
 90
        0
102
RTVSPost2010PropOp41
 70
     1
102
RTVSPost2010Prop42
 90
       50
102
RTVSPost2010PropOp42
 70
     1
102
RTVSPost2010Prop43
 90
        3
102
RTVSPost2010PropOp43
 70
     1
102
RTVSPost2010Prop44ColorIndex
 90
        5
102
RTVSPost2010Prop44ColorRGB
 90
      255
102
RTVSPost2010PropOp44
 70
     1
102
RTVSPost2010Prop45
280
     0
102
RTVSPost2010PropOp45
 70
     1
102
RTVSPost2010Prop46
 90
       50
102
RTVSPost2010PropOp46
 70
     1
102
RTVSPost2010Prop47
 90
       50
102
RTVSPost2010PropOp47
 70
     1
102
RTVSPost2010Prop48
 90
       50
102
RTVSPost2010PropOp48
 70
     1
102
RTVSPost2010Prop49
280
     0
102
RTVSPost2010PropOp49
 70
     1
102
RTVSPost2010Prop50
 90
       50
102
RTVSPost2010PropOp50
 70
     1
102
RTVSPost2010Prop51ColorIndex
 90
      256
102
RTVSPost2010Prop51ColorRGB
 90
-16777216
102
RTVSPost2010PropOp51
 70
     0
102
RTVSPost2010Prop52
140
1.0
102
RTVSPost2010PropOp52
 70
     0
102
RTVSPost2010Prop53
 90
        2
102
RTVSPost2010PropOp53
 70
     1
102
RTVSPost2010Prop54
  1
strokes_ogs.tif
102
RTVSPost2010PropOp54
 70
     1
102
RTVSPost2010Prop55
280
     0
102
RTVSPost2010PropOp55
 70
     1
102
RTVSPost2010Prop56
140
1.0
102
RTVSPost2010PropOp56
 70
     1
102
RTVSPost2010Prop57
140
1.0
102
RTVSPost2010PropOp57
 70
     1
  0
XRECORD
  5
1D4
102
{ACAD_REACTORS
330
1D3
102
}
330
1D3
100
AcDbXrecord
280
     1
102
RTVSPropertyOp0
 70
     1
102
RTVSPropertyOp1
 70
     1
102
RTVSPropertyOp2
 70
     1
102
RTVSPropertyOp3
 70
     1
102
RTVSPropertyOp4
 70
     1
102
RTVSPropertyOp5
 70
     1
102
RTVSPropertyOp6
 70
     1
102
RTVSPropertyOp7
 70
     1
102
RTVSPropertyOp8
 70
     1
102
RTVSPropertyOp9
 70
     1
102
RTVSPropertyOp10
 70
     1
102
RTVSPropertyOp11
 70
     1
102
RTVSPropertyOp12
 70
     1
102
RTVSPropertyOp13
 70
     1
102
RTVSPropertyOp14
 70
     1
102
RTVSPropertyOp15
 70
     1
102
RTVSPropertyOp16
 70
     1
102
RTVSPropertyOp17
 70
     1
102
RTVSPropertyOp18
 70
     1
102
RTVSPropertyOp19
 70
     1
102
RTVSPropertyOp20
 70
     1
102
RTVSPropertyOp21
 70
     1
102
RTVSPropertyOp22
 70
     1
102
RTVSPropertyOp23
 70
     1
102
RTVSPropertyOp24
 70
     1
102
RTVSPropertyOp25
 70
     1
102
RTVSPropertyOp26
 70
     1
102
RTVSPropertyOp27
 70
     1
102
RTVSPropertyOp28
 70
     1
102
RTVSPropertyOp29
 70
     1
102
RTVSPropertyOp30
 70
     1
102
RTVSPropertyOp31
 70
     1
102
RTVSPropertyOp32
 70
     1
102
RTVSPropertyOp33
 70
     1
102
RTVSPropertyOp34
 70
     1
102
RTVSPropertyOp35
 70
     1
102
RTVSPropertyOp36
 70
     1
102
RTVSPropertyOp37
 70
     1
102
RTVSPropertyOp38
 70
     1
102
RTVSPropertyOp39
 70
     1
102
RTVSPropertyOp40
 70
     1
102
RTVSPropertyOp41
 70
     1
102
RTVSPropertyOp42
 70
     1
102
RTVSPropertyOp43
 70
     1
102
RTVSPropertyOp44
 70
     1
102
RTVSPropertyOp45
 70
     1
102
RTVSPropertyOp46
 70
     1
102
RTVSPropertyOp47
 70
     1
102
RTVSPropertyOp48
 70
     1
102
RTVSPropertyOp49
 70
     1
102
RTVSPropertyOp50
 70
     1
102
RTVSPropertyOp51
 70
     0
102
RTVSPropertyOp52
 70
     0
102
RTVSPropertyOp53
 70
     1
102
RTVSPropertyOp54
 70
     1
102
RTVSPropertyOp55
 70
     1
102
RTVSPropertyOp56
 70
     1
102
RTVSPropertyOp57
 70
     1
102
RTVSPost2010Prop28
280
     0
102
RTVSPost2010PropOp28
 70
     1
102
RTVSPost2010Prop29
280
     1
102
RTVSPost2010PropOp29
 70
     1
102
RTVSPost2010Prop30
280
     1
102
RTVSPost2010PropOp30
 70
     1
102
RTVSPost2010Prop31
280
     0
102
RTVSPost2010PropOp31
 70
     1
102
RTVSPost2010Prop32
280
     0
102
RTVSPost2010PropOp32
 70
     1
102
RTVSPost2010Prop33
280
     0
102
RTVSPost2010PropOp33
 70
     1
102
RTVSPost2010Prop34
280
     0
102
RTVSPost2010PropOp34
 70
     1
102
RTVSPost2010Prop35
280
     0
102
RTVSPost2010PropOp35
 70
     1
102
RTVSPost2010Prop36
280
     0
102
RTVSPost2010PropOp36
 70
     1
102
RTVSPost2010Prop37
 90
       50
102
RTVSPost2010PropOp37
 70
     1
102
RTVSPost2010Prop38
140
0.0
102
RTVSPost2010PropOp38
 70
     1
102
RTVSPost2010Prop39
140
1.0
102
RTVSPost2010PropOp39
 70
     1
102
RTVSPost2010Prop40
 90
        0
102
RTVSPost2010PropOp40
 70
     1
102
RTVSPost2010Prop41ColorIndex
 90
       18
102
RTVSPost2010Prop41ColorRGB
 90
        0
102
RTVSPost2010PropOp41
 70
     1
102
RTVSPost2010Prop42
 90
       50
102
RTVSPost2010PropOp42
 70
     1
102
RTVSPost2010Prop43
 90
        3
102
RTVSPost2010PropOp43
 70
     1
102
RTVSPost2010Prop44ColorIndex
 90
        5
102
RTVSPost2010Prop44ColorRGB
 90
      255
102
RTVSPost2010PropOp44
 70
     1
102
RTVSPost2010Prop45
280
     0
102
RTVSPost2010PropOp45
 70
     1
102
RTVSPost2010Prop46
 90
       50
102
RTVSPost2010PropOp46
 70
     1
102
RTVSPost2010Prop47
 90
       50
102
RTVSPost2010PropOp47
 70
     1
102
RTVSPost2010Prop48
 90
       50
102
RTVSPost2010PropOp48
 70
     1
102
RTVSPost2010Prop49
280
     0
102
RTVSPost2010PropOp49
 70
     1
102
RTVSPost2010Prop50
 90
       50
102
RTVSPost2010PropOp50
 70
     1
102
RTVSPost2010Prop51ColorIndex
 90
      256
102
RTVSPost2010Prop51ColorRGB
 90
-16777216
102
RTVSPost2010PropOp51
 70
     0
102
RTVSPost2010Prop52
140
1.0
102
RTVSPost2010PropOp52
 70
     0
102
RTVSPost2010Prop53
 90
        2
102
RTVSPost2010PropOp53
 70
     1
102
RTVSPost2010Prop54
  1
strokes_ogs.tif
102
RTVSPost2010PropOp54
 70
     1
102
RTVSPost2010Prop55
280
     0
102
RTVSPost2010PropOp55
 70
     1
102
RTVSPost2010Prop56
140
1.0
102
RTVSPost2010PropOp56
 70
     1
102
RTVSPost2010Prop57
140
1.0
102
RTVSPost2010PropOp57
 70
     1
  0
XRECORD
  5
1CA
102
{ACAD_REACTORS
330
1C9
102
}
330
1C9
100
AcDbXrecord
280
     1
102
RTVSPropertyOp0
 70
     1
102
RTVSPropertyOp1
 70
     1
102
RTVSPropertyOp2
 70
     1
102
RTVSPropertyOp3
 70
     1
102
RTVSPropertyOp4
 70
     1
102
RTVSPropertyOp5
 70
     1
102
RTVSPropertyOp6
 70
     1
102
RTVSPropertyOp7
 70
     1
102
RTVSPropertyOp8
 70
     1
102
RTVSPropertyOp9
 70
     1
102
RTVSPropertyOp10
 70
     1
102
RTVSPropertyOp11
 70
     1
102
RTVSPropertyOp12
 70
     1
102
RTVSPropertyOp13
 70
     1
102
RTVSPropertyOp14
 70
     1
102
RTVSPropertyOp15
 70
     1
102
RTVSPropertyOp16
 70
     1
102
RTVSPropertyOp17
 70
     1
102
RTVSPropertyOp18
 70
     1
102
RTVSPropertyOp19
 70
     1
102
RTVSPropertyOp20
 70
     1
102
RTVSPropertyOp21
 70
     1
102
RTVSPropertyOp22
 70
     1
102
RTVSPropertyOp23
 70
     1
102
RTVSPropertyOp24
 70
     1
102
RTVSPropertyOp25
 70
     1
102
RTVSPropertyOp26
 70
     1
102
RTVSPropertyOp27
 70
     1
102
RTVSPropertyOp28
 70
     1
102
RTVSPropertyOp29
 70
     1
102
RTVSPropertyOp30
 70
     1
102
RTVSPropertyOp31
 70
     1
102
RTVSPropertyOp32
 70
     1
102
RTVSPropertyOp33
 70
     1
102
RTVSPropertyOp34
 70
     1
102
RTVSPropertyOp35
 70
     1
102
RTVSPropertyOp36
 70
     1
102
RTVSPropertyOp37
 70
     1
102
RTVSPropertyOp38
 70
     1
102
RTVSPropertyOp39
 70
     1
102
RTVSPropertyOp40
 70
     1
102
RTVSPropertyOp41
 70
     1
102
RTVSPropertyOp42
 70
     1
102
RTVSPropertyOp43
 70
     1
102
RTVSPropertyOp44
 70
     1
102
RTVSPropertyOp45
 70
     1
102
RTVSPropertyOp46
 70
     1
102
RTVSPropertyOp47
 70
     1
102
RTVSPropertyOp48
 70
     1
102
RTVSPropertyOp49
 70
     1
102
RTVSPropertyOp50
 70
     1
102
RTVSPropertyOp51
 70
     0
102
RTVSPropertyOp52
 70
     0
102
RTVSPropertyOp53
 70
     1
102
RTVSPropertyOp54
 70
     1
102
RTVSPropertyOp55
 70
     1
102
RTVSPropertyOp56
 70
     1
102
RTVSPropertyOp57
 70
     1
102
RTVSPost2010Prop28
280
     0
102
RTVSPost2010PropOp28
 70
     1
102
RTVSPost2010Prop29
280
     1
102
RTVSPost2010PropOp29
 70
     1
102
RTVSPost2010Prop30
280
     1
102
RTVSPost2010PropOp30
 70
     1
102
RTVSPost2010Prop31
280
     0
102
RTVSPost2010PropOp31
 70
     1
102
RTVSPost2010Prop32
280
     0
102
RTVSPost2010PropOp32
 70
     1
102
RTVSPost2010Prop33
280
     0
102
RTVSPost2010PropOp33
 70
     1
102
RTVSPost2010Prop34
280
     0
102
RTVSPost2010PropOp34
 70
     1
102
RTVSPost2010Prop35
280
     0
102
RTVSPost2010PropOp35
 70
     1
102
RTVSPost2010Prop36
280
     0
102
RTVSPost2010PropOp36
 70
     1
102
RTVSPost2010Prop37
 90
       50
102
RTVSPost2010PropOp37
 70
     1
102
RTVSPost2010Prop38
140
0.0
102
RTVSPost2010PropOp38
 70
     1
102
RTVSPost2010Prop39
140
1.0
102
RTVSPost2010PropOp39
 70
     1
102
RTVSPost2010Prop40
 90
        0
102
RTVSPost2010PropOp40
 70
     1
102
RTVSPost2010Prop41ColorIndex
 90
       18
102
RTVSPost2010Prop41ColorRGB
 90
        0
102
RTVSPost2010PropOp41
 70
     1
102
RTVSPost2010Prop42
 90
       50
102
RTVSPost2010PropOp42
 70
     1
102
RTVSPost2010Prop43
 90
        3
102
RTVSPost2010PropOp43
 70
     1
102
RTVSPost2010Prop44ColorIndex
 90
        5
102
RTVSPost2010Prop44ColorRGB
 90
      255
102
RTVSPost2010PropOp44
 70
     1
102
RTVSPost2010Prop45
280
     0
102
RTVSPost2010PropOp45
 70
     1
102
RTVSPost2010Prop46
 90
       50
102
RTVSPost2010PropOp46
 70
     1
102
RTVSPost2010Prop47
 90
       50
102
RTVSPost2010PropOp47
 70
     1
102
RTVSPost2010Prop48
 90
       50
102
RTVSPost2010PropOp48
 70
     1
102
RTVSPost2010Prop49
280
     0
102
RTVSPost2010PropOp49
 70
     1
102
RTVSPost2010Prop50
 90
       50
102
RTVSPost2010PropOp50
 70
     1
102
RTVSPost2010Prop51ColorIndex
 90
      256
102
RTVSPost2010Prop51ColorRGB
 90
-16777216
102
RTVSPost2010PropOp51
 70
     0
102
RTVSPost2010Prop52
140
1.0
102
RTVSPost2010PropOp52
 70
     0
102
RTVSPost2010Prop53
 90
        2
102
RTVSPost2010PropOp53
 70
     1
102
RTVSPost2010Prop54
  1
strokes_ogs.tif
102
RTVSPost2010PropOp54
 70
     1
102
RTVSPost2010Prop55
280
     0
102
RTVSPost2010PropOp55
 70
     1
102
RTVSPost2010Prop56
140
1.0
102
RTVSPost2010PropOp56
 70
     1
102
RTVSPost2010Prop57
140
1.0
102
RTVSPost2010PropOp57
 70
     1
  0
XRECORD
  5
1D2
102
{ACAD_REACTORS
330
1D1
102
}
330
1D1
100
AcDbXrecord
280
     1
102
RTVSPropertyOp0
 70
     1
102
RTVSPropertyOp1
 70
     1
102
RTVSPropertyOp2
 70
     1
102
RTVSPropertyOp3
 70
     1
102
RTVSPropertyOp4
 70
     1
102
RTVSPropertyOp5
 70
     1
102
RTVSPropertyOp6
 70
     1
102
RTVSPropertyOp7
 70
     1
102
RTVSPropertyOp8
 70
     1
102
RTVSPropertyOp9
 70
     1
102
RTVSPropertyOp10
 70
     1
102
RTVSPropertyOp11
 70
     1
102
RTVSPropertyOp12
 70
     1
102
RTVSPropertyOp13
 70
     1
102
RTVSPropertyOp14
 70
     1
102
RTVSPropertyOp15
 70
     1
102
RTVSPropertyOp16
 70
     1
102
RTVSPropertyOp17
 70
     1
102
RTVSPropertyOp18
 70
     1
102
RTVSPropertyOp19
 70
     1
102
RTVSPropertyOp20
 70
     1
102
RTVSPropertyOp21
 70
     1
102
RTVSPropertyOp22
 70
     1
102
RTVSPropertyOp23
 70
     1
102
RTVSPropertyOp24
 70
     1
102
RTVSPropertyOp25
 70
     1
102
RTVSPropertyOp26
 70
     1
102
RTVSPropertyOp27
 70
     1
102
RTVSPropertyOp28
 70
     1
102
RTVSPropertyOp29
 70
     1
102
RTVSPropertyOp30
 70
     1
102
RTVSPropertyOp31
 70
     1
102
RTVSPropertyOp32
 70
     1
102
RTVSPropertyOp33
 70
     1
102
RTVSPropertyOp34
 70
     1
102
RTVSPropertyOp35
 70
     1
102
RTVSPropertyOp36
 70
     1
102
RTVSPropertyOp37
 70
     1
102
RTVSPropertyOp38
 70
     1
102
RTVSPropertyOp39
 70
     1
102
RTVSPropertyOp40
 70
     1
102
RTVSPropertyOp41
 70
     1
102
RTVSPropertyOp42
 70
     1
102
RTVSPropertyOp43
 70
     1
102
RTVSPropertyOp44
 70
     1
102
RTVSPropertyOp45
 70
     1
102
RTVSPropertyOp46
 70
     1
102
RTVSPropertyOp47
 70
     1
102
RTVSPropertyOp48
 70
     1
102
RTVSPropertyOp49
 70
     1
102
RTVSPropertyOp50
 70
     1
102
RTVSPropertyOp51
 70
     0
102
RTVSPropertyOp52
 70
     0
102
RTVSPropertyOp53
 70
     1
102
RTVSPropertyOp54
 70
     1
102
RTVSPropertyOp55
 70
     1
102
RTVSPropertyOp56
 70
     1
102
RTVSPropertyOp57
 70
     1
102
RTVSPost2010Prop28
280
     0
102
RTVSPost2010PropOp28
 70
     1
102
RTVSPost2010Prop29
280
     1
102
RTVSPost2010PropOp29
 70
     1
102
RTVSPost2010Prop30
280
     1
102
RTVSPost2010PropOp30
 70
     1
102
RTVSPost2010Prop31
280
     0
102
RTVSPost2010PropOp31
 70
     1
102
RTVSPost2010Prop32
280
     0
102
RTVSPost2010PropOp32
 70
     1
102
RTVSPost2010Prop33
280
     0
102
RTVSPost2010PropOp33
 70
     1
102
RTVSPost2010Prop34
280
     0
102
RTVSPost2010PropOp34
 70
     1
102
RTVSPost2010Prop35
280
     0
102
RTVSPost2010PropOp35
 70
     1
102
RTVSPost2010Prop36
280
     0
102
RTVSPost2010PropOp36
 70
     1
102
RTVSPost2010Prop37
 90
       50
102
RTVSPost2010PropOp37
 70
     1
102
RTVSPost2010Prop38
140
0.0
102
RTVSPost2010PropOp38
 70
     1
102
RTVSPost2010Prop39
140
1.0
102
RTVSPost2010PropOp39
 70
     1
102
RTVSPost2010Prop40
 90
        0
102
RTVSPost2010PropOp40
 70
     1
102
RTVSPost2010Prop41ColorIndex
 90
       18
102
RTVSPost2010Prop41ColorRGB
 90
        0
102
RTVSPost2010PropOp41
 70
     1
102
RTVSPost2010Prop42
 90
       50
102
RTVSPost2010PropOp42
 70
     1
102
RTVSPost2010Prop43
 90
        3
102
RTVSPost2010PropOp43
 70
     1
102
RTVSPost2010Prop44ColorIndex
 90
        5
102
RTVSPost2010Prop44ColorRGB
 90
      255
102
RTVSPost2010PropOp44
 70
     1
102
RTVSPost2010Prop45
280
     0
102
RTVSPost2010PropOp45
 70
     1
102
RTVSPost2010Prop46
 90
       50
102
RTVSPost2010PropOp46
 70
     1
102
RTVSPost2010Prop47
 90
       50
102
RTVSPost2010PropOp47
 70
     1
102
RTVSPost2010Prop48
 90
       50
102
RTVSPost2010PropOp48
 70
     1
102
RTVSPost2010Prop49
280
     0
102
RTVSPost2010PropOp49
 70
     1
102
RTVSPost2010Prop50
 90
       50
102
RTVSPost2010PropOp50
 70
     1
102
RTVSPost2010Prop51ColorIndex
 90
      256
102
RTVSPost2010Prop51ColorRGB
 90
-16777216
102
RTVSPost2010PropOp51
 70
     0
102
RTVSPost2010Prop52
140
1.0
102
RTVSPost2010PropOp52
 70
     0
102
RTVSPost2010Prop53
 90
        2
102
RTVSPost2010PropOp53
 70
     1
102
RTVSPost2010Prop54
  1
strokes_ogs.tif
102
RTVSPost2010PropOp54
 70
     1
102
RTVSPost2010Prop55
280
     0
102
RTVSPost2010PropOp55
 70
     1
102
RTVSPost2010Prop56
140
1.0
102
RTVSPost2010PropOp56
 70
     1
102
RTVSPost2010Prop57
140
1.0
102
RTVSPost2010PropOp57
 70
     1
  0
ENDSEC
  0
EOF
