  0
SECTION
  2
HEADER
  9
$ACADVER
  1
AC1018
  9
$ACADMAINTVER
 70
     0
  9
$DWGCODEPAGE
  3
ANSI_936
  9
$INSBASE
 10
0.0
 20
0.0
 30
0.0
  9
$EXTMIN
 10
0.0
 20
-0.0000000000000284
 30
0.0
  9
$EXTMAX
 10
600.0000000000009
 20
685.0000000000001
 30
0.0
  9
$LIMMIN
 10
0.0
 20
0.0
  9
$LIMMAX
 10
12.0
 20
9.0
  9
$ORTHOMODE
 70
     0
  9
$REGENMODE
 70
     1
  9
$FILLMODE
 70
     1
  9
$QTEXTMODE
 70
     0
  9
$MIRRTEXT
 70
     1
  9
$LTSCALE
 40
1.0
  9
$ATTMODE
 70
     1
  9
$TEXTSIZE
 40
0.2
  9
$TRACEWID
 40
0.05
  9
$TEXTSTYLE
  7
Standard
  9
$CLAYER
  8
TERRACE$EB1735D Miroir
  9
$CELTYPE
  6
ByLayer
  9
$CECOLOR
 62
   256
  9
$CELTSCALE
 40
1.0
  9
$DISPSILH
 70
     0
  9
$DIMSCALE
 40
1.0
  9
$DIMASZ
 40
0.18
  9
$DIMEXO
 40
0.0625
  9
$DIMDLI
 40
0.38
  9
$DIMRND
 40
0.0
  9
$DIMDLE
 40
0.0
  9
$DIMEXE
 40
0.18
  9
$DIMTP
 40
0.0
  9
$DIMTM
 40
0.0
  9
$DIMTXT
 40
0.18
  9
$DIMCEN
 40
0.09
  9
$DIMTSZ
 40
0.0
  9
$DIMTOL
 70
     0
  9
$DIMLIM
 70
     0
  9
$DIMTIH
 70
     1
  9
$DIMTOH
 70
     1
  9
$DIMSE1
 70
     0
  9
$DIMSE2
 70
     0
  9
$DIMTAD
 70
     0
  9
$DIMZIN
 70
     0
  9
$DIMBLK
  1

  9
$DIMASO
 70
     1
  9
$DIMSHO
 70
     1
  9
$DIMPOST
  1

  9
$DIMAPOST
  1

  9
$DIMALT
 70
     0
  9
$DIMALTD
 70
     2
  9
$DIMALTF
 40
25.4
  9
$DIMLFAC
 40
1.0
  9
$DIMTOFL
 70
     0
  9
$DIMTVP
 40
0.0
  9
$DIMTIX
 70
     0
  9
$DIMSOXD
 70
     0
  9
$DIMSAH
 70
     0
  9
$DIMBLK1
  1

  9
$DIMBLK2
  1

  9
$DIMSTYLE
  2
Standard
  9
$DIMCLRD
 70
     0
  9
$DIMCLRE
 70
     0
  9
$DIMCLRT
 70
     0
  9
$DIMTFAC
 40
1.0
  9
$DIMGAP
 40
0.09
  9
$DIMJUST
 70
     0
  9
$DIMSD1
 70
     0
  9
$DIMSD2
 70
     0
  9
$DIMTOLJ
 70
     1
  9
$DIMTZIN
 70
     0
  9
$DIMALTZ
 70
     0
  9
$DIMALTTZ
 70
     0
  9
$DIMUPT
 70
     0
  9
$DIMDEC
 70
     4
  9
$DIMTDEC
 70
     4
  9
$DIMALTU
 70
     2
  9
$DIMALTTD
 70
     2
  9
$DIMTXSTY
  7
Standard
  9
$DIMAUNIT
 70
     0
  9
$DIMADEC
 70
     0
  9
$DIMALTRND
 40
0.0
  9
$DIMAZIN
 70
     0
  9
$DIMDSEP
 70
    46
  9
$DIMATFIT
 70
     3
  9
$DIMFRAC
 70
     0
  9
$DIMLDRBLK
  1

  9
$DIMLUNIT
 70
     2
  9
$DIMLWD
 70
    -2
  9
$DIMLWE
 70
    -2
  9
$DIMTMOVE
 70
     2
  9
$LUNITS
 70
     2
  9
$LUPREC
 70
     3
  9
$SKETCHINC
 40
0.1
  9
$FILLETRAD
 40
0.5
  9
$AUNITS
 70
     0
  9
$AUPREC
 70
     0
  9
$MENU
  1
.
  9
$ELEVATION
 40
0.0
  9
$PELEVATION
 40
0.0
  9
$THICKNESS
 40
0.0
  9
$LIMCHECK
 70
     0
  9
$CHAMFERA
 40
0.5
  9
$CHAMFERB
 40
0.5
  9
$CHAMFERC
 40
1.0
  9
$CHAMFERD
 40
0.0
  9
$SKPOLY
 70
     0
  9
$TDCREATE
 40
2458210.95490228
  9
$TDUCREATE
 40
2458210.621568947
  9
$TDUPDATE
 40
2458210.954902315
  9
$TDUUPDATE
 40
2458210.621568982
  9
$TDINDWG
 40
0.0000000116
  9
$TDUSRTIMER
 40
0.0000000116
  9
$USRTIMER
 70
     1
  9
$ANGBASE
 50
0.0
  9
$ANGDIR
 70
     0
  9
$PDMODE
 70
     0
  9
$PDSIZE
 40
0.0
  9
$PLINEWID
 40
0.0
  9
$SPLFRAME
 70
     0
  9
$SPLINETYPE
 70
     6
  9
$SPLINESEGS
 70
     8
  9
$HANDSEED
  5
18A
  9
$SURFTAB1
 70
     6
  9
$SURFTAB2
 70
     6
  9
$SURFTYPE
 70
     6
  9
$SURFU
 70
     6
  9
$SURFV
 70
     6
  9
$UCSBASE
  2

  9
$UCSNAME
  2

  9
$UCSORG
 10
0.0
 20
0.0
 30
0.0
  9
$UCSXDIR
 10
1.0
 20
0.0
 30
0.0
  9
$UCSYDIR
 10
0.0
 20
1.0
 30
0.0
  9
$UCSORTHOREF
  2

  9
$UCSORTHOVIEW
 70
     0
  9
$UCSORGTOP
 10
0.0
 20
0.0
 30
0.0
  9
$UCSORGBOTTOM
 10
0.0
 20
0.0
 30
0.0
  9
$UCSORGLEFT
 10
0.0
 20
0.0
 30
0.0
  9
$UCSORGRIGHT
 10
0.0
 20
0.0
 30
0.0
  9
$UCSORGFRONT
 10
0.0
 20
0.0
 30
0.0
  9
$UCSORGBACK
 10
0.0
 20
0.0
 30
0.0
  9
$PUCSBASE
  2

  9
$PUCSNAME
  2

  9
$PUCSORG
 10
0.0
 20
0.0
 30
0.0
  9
$PUCSXDIR
 10
1.0
 20
0.0
 30
0.0
  9
$PUCSYDIR
 10
0.0
 20
1.0
 30
0.0
  9
$PUCSORTHOREF
  2

  9
$PUCSORTHOVIEW
 70
     0
  9
$PUCSORGTOP
 10
0.0
 20
0.0
 30
0.0
  9
$PUCSORGBOTTOM
 10
0.0
 20
0.0
 30
0.0
  9
$PUCSORGLEFT
 10
0.0
 20
0.0
 30
0.0
  9
$PUCSORGRIGHT
 10
0.0
 20
0.0
 30
0.0
  9
$PUCSORGFRONT
 10
0.0
 20
0.0
 30
0.0
  9
$PUCSORGBACK
 10
0.0
 20
0.0
 30
0.0
  9
$USERI1
 70
     0
  9
$USERI2
 70
     0
  9
$USERI3
 70
     0
  9
$USERI4
 70
     0
  9
$USERI5
 70
     0
  9
$USERR1
 40
0.0
  9
$USERR2
 40
0.0
  9
$USERR3
 40
0.0
  9
$USERR4
 40
0.0
  9
$USERR5
 40
0.0
  9
$WORLDVIEW
 70
     1
  9
$SHADEDGE
 70
     3
  9
$SHADEDIF
 70
    70
  9
$TILEMODE
 70
     1
  9
$MAXACTVP
 70
    64
  9
$PINSBASE
 10
0.0
 20
0.0
 30
0.0
  9
$PLIMCHECK
 70
     0
  9
$PEXTMIN
 10
1.000000000000000E+20
 20
1.000000000000000E+20
 30
1.000000000000000E+20
  9
$PEXTMAX
 10
-1.000000000000000E+20
 20
-1.000000000000000E+20
 30
-1.000000000000000E+20
  9
$PLIMMIN
 10
0.0
 20
0.0
  9
$PLIMMAX
 10
12.0
 20
9.0
  9
$UNITMODE
 70
     0
  9
$VISRETAIN
 70
     1
  9
$PLINEGEN
 70
     0
  9
$PSLTSCALE
 70
     1
  9
$TREEDEPTH
 70
  3020
  9
$CMLSTYLE
  2
Standard
  9
$CMLJUST
 70
     0
  9
$CMLSCALE
 40
1.0
  9
$PROXYGRAPHICS
 70
     1
  9
$MEASUREMENT
 70
     0
  9
$CELWEIGHT
370
    -1
  9
$ENDCAPS
280
     0
  9
$JOINSTYLE
280
     0
  9
$LWDISPLAY
290
     0
  9
$INSUNITS
 70
     4
  9
$HYPERLINKBASE
  1

  9
$STYLESHEET
  1

  9
$XEDIT
290
     1
  9
$CEPSNTYPE
380
     0
  9
$PSTYLEMODE
290
     1
  9
$FINGERPRINTGUID
  2
{9C6BBEE1-5C0D-4386-892A-35ABF26564B2}
  9
$VERSIONGUID
  2
{FAEB1C32-E019-11D5-929B-00C0DF256EC4}
  9
$EXTNAMES
290
     1
  9
$PSVPSCALE
 40
0.0
  9
$OLESTARTUP
290
     0
  9
$SORTENTS
280
   127
  9
$INDEXCTL
280
     0
  9
$HIDETEXT
280
     1
  9
$XCLIPFRAME
290
     0
  9
$HALOGAP
280
     0
  9
$OBSCOLOR
 70
   257
  9
$OBSLTYPE
280
     0
  9
$INTERSECTIONDISPLAY
280
     0
  9
$INTERSECTIONCOLOR
 70
   257
  9
$DIMASSOC
280
     2
  9
$PROJECTNAME
  1

  0
ENDSEC
  0
SECTION
  2
CLASSES
  0
CLASS
  1
ACDBDICTIONARYWDFLT
  2
AcDbDictionaryWithDefault
  3
ObjectDBX Classes
 90
        0
 91
        4
280
     0
281
     0
  0
CLASS
  1
VISUALSTYLE
  2
AcDbVisualStyle
  3
ObjectDBX Classes
 90
     4095
 91
        4
280
     0
281
     0
  0
CLASS
  1
MATERIAL
  2
AcDbMaterial
  3
ObjectDBX Classes
 90
     1153
 91
        4
280
     0
281
     0
  0
CLASS
  1
SCALE
  2
AcDbScale
  3
ObjectDBX Classes
 90
     1153
 91
        4
280
     0
281
     0
  0
CLASS
  1
SUN
  2
AcDbSun
  3
SCENEOE
 90
     1153
 91
        4
280
     0
281
     0
  0
CLASS
  1
DICTIONARYVAR
  2
AcDbDictionaryVar
  3
ObjectDBX Classes
 90
        0
 91
        4
280
     0
281
     0
  0
ENDSEC
  0
SECTION
  2
TABLES
  0
TABLE
  2
VPORT
  5
8
330
0
100
AcDbSymbolTable
 70
     1
  0
VPORT
  5
29
330
8
100
AcDbSymbolTableRecord
100
AcDbViewportTableRecord
  2
*Active
 70
     0
 10
0.0
 20
0.0
 11
1.0
 21
1.0
 12
300.0000000000005
 22
342.4999999999999
 13
0.0
 23
0.0
 14
0.5
 24
0.5
 15
0.5
 25
0.5
 16
0.0
 26
0.0
 36
1.0
 17
0.0
 27
0.0
 37
0.0
 40
698.7
 41
0.8759124087591253
 42
50.0
 43
0.0
 44
0.0
 50
0.0
 51
0.0
 71
     0
 72
   100
 73
     1
 74
     3
 75
     0
 76
     0
 77
     0
 78
     0
281
     0
 65
     1
110
0.0
120
0.0
130
0.0
111
1.0
121
0.0
131
0.0
112
0.0
122
1.0
132
0.0
 79
     0
146
0.0
  0
ENDTAB
  0
TABLE
  2
LTYPE
  5
5
330
0
100
AcDbSymbolTable
 70
     1
  0
LTYPE
  5
14
330
5
100
AcDbSymbolTableRecord
100
AcDbLinetypeTableRecord
  2
ByBlock
 70
     0
  3

 72
    65
 73
     0
 40
0.0
  0
LTYPE
  5
15
330
5
100
AcDbSymbolTableRecord
100
AcDbLinetypeTableRecord
  2
ByLayer
 70
     0
  3

 72
    65
 73
     0
 40
0.0
  0
LTYPE
  5
16
330
5
100
AcDbSymbolTableRecord
100
AcDbLinetypeTableRecord
  2
Continuous
 70
     0
  3
Solid line
 72
    65
 73
     0
 40
0.0
  0
ENDTAB
  0
TABLE
  2
LAYER
  5
2
330
0
100
AcDbSymbolTable
 70
     2
  0
LAYER
  5
10
330
2
100
AcDbSymbolTableRecord
100
AcDbLayerTableRecord
  2
0
 70
     0
 62
     7
  6
Continuous
370
    -3
390
F
  0
LAYER
  5
62
330
2
100
AcDbSymbolTableRecord
100
AcDbLayerTableRecord
  2
TERRACE$EB1735D Miroir
 70
     0
 62
   111
420
  8388543
  6
Continuous
370
    -3
390
F
  0
ENDTAB
  0
TABLE
  2
STYLE
  5
3
330
0
100
AcDbSymbolTable
 70
     1
  0
STYLE
  5
11
330
3
100
AcDbSymbolTableRecord
100
AcDbTextStyleTableRecord
  2
Standard
 70
     0
 40
0.0
 41
1.0
 50
0.0
 71
     0
 42
0.2
  3
txt
  4

  0
ENDTAB
  0
TABLE
  2
VIEW
  5
6
330
0
100
AcDbSymbolTable
 70
     0
  0
ENDTAB
  0
TABLE
  2
UCS
  5
7
330
0
100
AcDbSymbolTable
 70
     0
  0
ENDTAB
  0
TABLE
  2
APPID
  5
9
330
0
100
AcDbSymbolTable
 70
     1
  0
APPID
  5
12
330
9
100
AcDbSymbolTableRecord
100
AcDbRegAppTableRecord
  2
ACAD
 70
     0
  0
ENDTAB
  0
TABLE
  2
DIMSTYLE
  5
A
330
0
100
AcDbSymbolTable
 70
     1
100
AcDbDimStyleTable
  0
DIMSTYLE
105
27
330
A
100
AcDbSymbolTableRecord
100
AcDbDimStyleTableRecord
  2
Standard
 70
     0
178
     0
340
11
  0
ENDTAB
  0
TABLE
  2
BLOCK_RECORD
  5
1
330
0
100
AcDbSymbolTable
 70
     1
  0
BLOCK_RECORD
  5
1F
330
1
100
AcDbSymbolTableRecord
100
AcDbBlockTableRecord
  2
*Model_Space
340
22
  0
BLOCK_RECORD
  5
1B
330
1
100
AcDbSymbolTableRecord
100
AcDbBlockTableRecord
  2
*Paper_Space
340
1E
  0
BLOCK_RECORD
  5
23
330
1
100
AcDbSymbolTableRecord
100
AcDbBlockTableRecord
  2
*Paper_Space0
340
26
  0
ENDTAB
  0
ENDSEC
  0
SECTION
  2
BLOCKS
  0
BLOCK
  5
20
330
1F
100
AcDbEntity
  8
0
100
AcDbBlockBegin
  2
*Model_Space
 70
     0
 10
0.0
 20
0.0
 30
0.0
  3
*Model_Space
  1
*Model_Space
  0
ENDBLK
  5
21
330
1F
100
AcDbEntity
  8
0
100
AcDbBlockEnd
  0
BLOCK
  5
1C
330
1B
100
AcDbEntity
 67
     1
  8
0
100
AcDbBlockBegin
  2
*Paper_Space
 70
     0
 10
0.0
 20
0.0
 30
0.0
  3
*Paper_Space
  1
*Paper_Space
  0
ENDBLK
  5
1D
330
1B
100
AcDbEntity
 67
     1
  8
0
100
AcDbBlockEnd
  0
BLOCK
  5
24
330
23
100
AcDbEntity
  8
0
100
AcDbBlockBegin
  2
*Paper_Space0
 70
     0
 10
0.0
 20
0.0
 30
0.0
  3
*Paper_Space0
  1
*Paper_Space0
  0
ENDBLK
  5
25
330
23
100
AcDbEntity
  8
0
100
AcDbBlockEnd
  0
ENDSEC
  0
SECTION
  2
ENTITIES
  0
ARC
  5
63
330
1F
100
AcDbEntity
  8
TERRACE$EB1735D Miroir
100
AcDbCircle
 10
599.7000000000459
 20
120.2999999997636
 30
0.0
 40
0.2999999997602023
100
AcDbArc
 50
269.9999999865165
 51
280.4841229803818
  0
CIRCLE
  5
64
330
1F
100
AcDbEntity
  8
TERRACE$EB1735D Miroir
100
AcDbCircle
 10
510.0000754128702
 20
66.00007527155401
 30
0.0
 40
44.94185508747974
  0
ARC
  5
65
330
1F
100
AcDbEntity
  8
TERRACE$EB1735D Miroir
100
AcDbCircle
 10
599.6999999998235
 20
119.6999999979162
 30
0.0
 40
0.3000000020867992
100
AcDbArc
 50
79.51587705825747
 51
84.80145490268025
  0
LINE
  5
66
330
1F
100
AcDbEntity
  8
TERRACE$EB1735D Miroir
100
AcDbLine
 10
599.6999999999998
 20
0.0
 30
0.0
 11
30.30000000000018
 21
0.0
 31
0.0
  0
LINE
  5
67
330
1F
100
AcDbEntity
  8
TERRACE$EB1735D Miroir
100
AcDbLine
 10
599.6999999999998
 20
0.3000000000029104
 30
0.0
 11
30.29999999999927
 21
0.3000000000029104
 31
0.0
  0
LINE
  5
68
330
1F
100
AcDbEntity
  8
TERRACE$EB1735D Miroir
100
AcDbLine
 10
30.29999999999927
 20
11.70000000000073
 30
0.0
 11
30.29999999999927
 21
0.3000000000029104
 31
0.0
  0
LINE
  5
69
330
1F
100
AcDbEntity
  8
TERRACE$EB1735D Miroir
100
AcDbLine
 10
408.2454110842773
 20
12.0
 30
0.0
 11
30.29999999999927
 21
12.0
 31
0.0
  0
LINE
  5
6A
330
1F
100
AcDbEntity
  8
TERRACE$EB1735D Miroir
100
AcDbLine
 10
599.6999999999998
 20
12.0
 30
0.0
 11
419.7545889157236
 21
12.0
 31
0.0
  0
LINE
  5
6B
330
1F
100
AcDbEntity
  8
TERRACE$EB1735D Miroir
100
AcDbLine
 10
599.6999999999998
 20
11.70000000000073
 30
0.0
 11
30.29999999999927
 21
11.70000000000073
 31
0.0
  0
LINE
  5
6C
330
1F
100
AcDbEntity
  8
TERRACE$EB1735D Miroir
100
AcDbLine
 10
600.0
 20
0.3000000000029104
 30
0.0
 11
600.0
 21
11.69999895460205
 31
0.0
  0
LINE
  5
6D
330
1F
100
AcDbEntity
  8
TERRACE$EB1735D Miroir
100
AcDbLine
 10
599.6999999999998
 20
0.3000000000029104
 30
0.0
 11
599.6999999999998
 21
11.70000000000073
 31
0.0
  0
LINE
  5
6E
330
1F
100
AcDbEntity
  8
TERRACE$EB1735D Miroir
100
AcDbLine
 10
600.0
 20
0.3000000000029104
 30
0.0
 11
599.6999999999998
 21
0.3000000000029104
 31
0.0
  0
ARC
  5
6F
330
1F
100
AcDbEntity
  8
TERRACE$EB1735D Miroir
100
AcDbCircle
 10
599.6999999999979
 20
0.3000000000020862
 30
0.0
 40
0.3000000000021146
100
AcDbArc
 50
270.0000000003691
 51
0.0000000001574163
  0
LINE
  5
70
330
1F
100
AcDbEntity
  8
TERRACE$EB1735D Miroir
100
AcDbLine
 10
599.6999999999998
 20
0.0
 30
0.0
 11
599.6999999999998
 21
0.3000000000029104
 31
0.0
  0
LINE
  5
71
330
1F
100
AcDbEntity
  8
TERRACE$EB1735D Miroir
100
AcDbLine
 10
30.29999999999927
 20
0.3000000000029104
 30
0.0
 11
30.30000000000018
 21
0.0
 31
0.0
  0
ARC
  5
72
330
1F
100
AcDbEntity
  8
TERRACE$EB1735D Miroir
100
AcDbCircle
 10
30.3000000000003
 20
0.3000000000012069
 30
0.0
 40
0.3000000000012069
100
AcDbArc
 50
179.9999999996747
 51
269.9999999999783
  0
LINE
  5
73
330
1F
100
AcDbEntity
  8
TERRACE$EB1735D Miroir
100
AcDbLine
 10
30.29999999999927
 20
0.3000000000029104
 30
0.0
 11
29.99999999999909
 21
0.3000000000029104
 31
0.0
  0
LINE
  5
74
330
1F
100
AcDbEntity
  8
TERRACE$EB1735D Miroir
100
AcDbLine
 10
30.0001325259318
 20
11.70000000000437
 30
0.0
 11
30.29999999999927
 21
11.70000000000073
 31
0.0
  0
ARC
  5
75
330
1F
100
AcDbEntity
  8
TERRACE$EB1735D Miroir
100
AcDbCircle
 10
30.29999999999957
 20
11.69999999999945
 30
0.0
 40
0.3000000000005549
100
AcDbArc
 50
90.00000000005767
 51
169.5998952959129
  0
LINE
  5
76
330
1F
100
AcDbEntity
  8
TERRACE$EB1735D Miroir
100
AcDbLine
 10
30.29999999999927
 20
11.70000000000073
 30
0.0
 11
30.29999999999927
 21
12.0
 31
0.0
  0
LINE
  5
77
330
1F
100
AcDbEntity
  8
TERRACE$EB1735D Miroir
100
AcDbLine
 10
599.6999999999998
 20
12.0
 30
0.0
 11
599.6999999999998
 21
11.70000000000073
 31
0.0
  0
ARC
  5
78
330
1F
100
AcDbEntity
  8
TERRACE$EB1735D Miroir
100
AcDbCircle
 10
599.7000000000035
 20
11.70000000000352
 30
0.0
 40
0.2999999999965439
100
AcDbArc
 50
0.0000000001608088
 51
90.0000000006948
  0
LINE
  5
79
330
1F
100
AcDbEntity
  8
TERRACE$EB1735D Miroir
100
AcDbLine
 10
599.6999999999998
 20
11.70000000000073
 30
0.0
 11
600.0
 21
11.70000000000437
 31
0.0
  0
LINE
  5
7A
330
1F
100
AcDbEntity
  8
TERRACE$EB1735D Miroir
100
AcDbLine
 10
408.3000000000011
 20
120.0
 30
0.0
 11
30.29999999999927
 21
120.0
 31
0.0
  0
LINE
  5
7B
330
1F
100
AcDbEntity
  8
TERRACE$EB1735D Miroir
100
AcDbLine
 10
599.6999999999989
 20
120.0
 30
0.0
 11
419.7000000000007
 21
120.0
 31
0.0
  0
LINE
  5
7C
330
1F
100
AcDbEntity
  8
TERRACE$EB1735D Miroir
100
AcDbLine
 10
599.6999999999998
 20
120.3000000000029
 30
0.0
 11
30.29999999999927
 21
120.3000000000029
 31
0.0
  0
LINE
  5
7D
330
1F
100
AcDbEntity
  8
TERRACE$EB1735D Miroir
100
AcDbLine
 10
30.29999999999927
 20
131.7000000000007
 30
0.0
 11
30.29999999999927
 21
120.3000000000029
 31
0.0
  0
LINE
  5
7E
330
1F
100
AcDbEntity
  8
TERRACE$EB1735D Miroir
100
AcDbLine
 10
599.6999999999998
 20
132.0
 30
0.0
 11
30.30000000000018
 21
132.0
 31
0.0
  0
LINE
  5
7F
330
1F
100
AcDbEntity
  8
TERRACE$EB1735D Miroir
100
AcDbLine
 10
599.6999999999998
 20
131.7000000000044
 30
0.0
 11
30.29999999999927
 21
131.7000000000007
 31
0.0
  0
LINE
  5
80
330
1F
100
AcDbEntity
  8
TERRACE$EB1735D Miroir
100
AcDbLine
 10
600.0
 20
120.3000000000029
 30
0.0
 11
600.0
 21
131.7000000000044
 31
0.0
  0
LINE
  5
81
330
1F
100
AcDbEntity
  8
TERRACE$EB1735D Miroir
100
AcDbLine
 10
599.6999999999998
 20
120.3000000000029
 30
0.0
 11
599.6999999999998
 21
131.7000000000044
 31
0.0
  0
LINE
  5
82
330
1F
100
AcDbEntity
  8
TERRACE$EB1735D Miroir
100
AcDbLine
 10
599.995049081821
 20
120.3000000000175
 30
0.0
 11
599.6999999999998
 21
120.3000000000029
 31
0.0
  0
ARC
  5
83
330
1F
100
AcDbEntity
  8
TERRACE$EB1735D Miroir
100
AcDbCircle
 10
599.6999999999975
 20
120.3000000000025
 30
0.0
 40
0.3000000000024556
100
AcDbArc
 50
270.0000000002606
 51
0.0000000000814222
  0
LINE
  5
84
330
1F
100
AcDbEntity
  8
TERRACE$EB1735D Miroir
100
AcDbLine
 10
599.699999999978
 20
120.0050083894748
 30
0.0
 11
599.6999999999998
 21
120.3000000000029
 31
0.0
  0
LINE
  5
85
330
1F
100
AcDbEntity
  8
TERRACE$EB1735D Miroir
100
AcDbLine
 10
30.29999999997744
 20
120.0050083894748
 30
0.0
 11
30.29999999999927
 21
120.3000000000029
 31
0.0
  0
ARC
  5
86
330
1F
100
AcDbEntity
  8
TERRACE$EB1735D Miroir
100
AcDbCircle
 10
30.3000000000051
 20
120.3000000000062
 30
0.0
 40
0.3000000000061931
100
AcDbArc
 50
190.4075404644969
 51
269.9999999988866
  0
LINE
  5
87
330
1F
100
AcDbEntity
  8
TERRACE$EB1735D Miroir
100
AcDbLine
 10
30.29999999999927
 20
120.3000000000029
 30
0.0
 11
30.0
 21
120.3000000000029
 31
0.0
  0
LINE
  5
88
330
1F
100
AcDbEntity
  8
TERRACE$EB1735D Miroir
100
AcDbLine
 10
30.0
 20
131.7000000000007
 30
0.0
 11
30.29999999999927
 21
131.7000000000007
 31
0.0
  0
ARC
  5
89
330
1F
100
AcDbEntity
  8
TERRACE$EB1735D Miroir
100
AcDbCircle
 10
30.29999999999629
 20
131.7000000000044
 30
0.0
 40
0.2999999999955776
100
AcDbArc
 50
89.99999999925635
 51
169.5778934619101
  0
LINE
  5
8A
330
1F
100
AcDbEntity
  8
TERRACE$EB1735D Miroir
100
AcDbLine
 10
30.29999999999927
 20
131.7000000000007
 30
0.0
 11
30.30000000000018
 21
132.0
 31
0.0
  0
LINE
  5
8B
330
1F
100
AcDbEntity
  8
TERRACE$EB1735D Miroir
100
AcDbLine
 10
599.6999999999998
 20
132.0
 30
0.0
 11
599.6999999999998
 21
131.7000000000044
 31
0.0
  0
ARC
  5
8C
330
1F
100
AcDbEntity
  8
TERRACE$EB1735D Miroir
100
AcDbCircle
 10
599.7000000000008
 20
131.7000000000008
 30
0.0
 40
0.2999999999991587
100
AcDbArc
 50
0.0000000006785183
 51
90.0000000001954
  0
LINE
  5
8D
330
1F
100
AcDbEntity
  8
TERRACE$EB1735D Miroir
100
AcDbLine
 10
599.6999999999998
 20
131.7000000000044
 30
0.0
 11
600.0
 21
131.7000000000044
 31
0.0
  0
LINE
  5
8E
330
1F
100
AcDbEntity
  8
TERRACE$EB1735D Miroir
100
AcDbLine
 10
599.6999999999971
 20
132.0878679656453
 30
0.0
 11
30.30000000000018
 21
132.0878679656453
 31
0.0
  0
LINE
  5
8F
330
1F
100
AcDbEntity
  8
TERRACE$EB1735D Miroir
100
AcDbLine
 10
30.08786796564527
 20
132.3000000000029
 30
0.0
 11
30.08786796564436
 21
684.7000000000007
 31
0.0
  0
LINE
  5
90
330
1F
100
AcDbEntity
  8
TERRACE$EB1735D Miroir
100
AcDbLine
 10
30.29999999999927
 20
684.9121320343584
 30
0.0
 11
599.6999999999989
 21
684.9121320343584
 31
0.0
  0
LINE
  5
91
330
1F
100
AcDbEntity
  8
TERRACE$EB1735D Miroir
100
AcDbLine
 10
30.30000000000109
 20
685.0
 30
0.0
 11
599.7000000000007
 21
685.0
 31
0.0
  0
LINE
  5
92
330
1F
100
AcDbEntity
  8
TERRACE$EB1735D Miroir
100
AcDbLine
 10
599.9121320343565
 20
684.7000000000007
 30
0.0
 11
599.9121320343556
 21
132.3000000000029
 31
0.0
  0
LINE
  5
93
330
1F
100
AcDbEntity
  8
TERRACE$EB1735D Miroir
100
AcDbLine
 10
600.0
 20
684.7000000000007
 30
0.0
 11
600.0
 21
132.3000000222019
 31
0.0
  0
LINE
  5
94
330
1F
100
AcDbEntity
  8
TERRACE$EB1735D Miroir
100
AcDbLine
 10
596.8757359312858
 20
682.0878679656453
 30
0.0
 11
33.12426406871418
 21
682.0878679656453
 31
0.0
  0
LINE
  5
95
330
1F
100
AcDbEntity
  8
TERRACE$EB1735D Miroir
100
AcDbLine
 10
596.8757359312858
 20
681.8757359312876
 30
0.0
 11
33.12426406871327
 21
681.8757359312876
 31
0.0
  0
LINE
  5
96
330
1F
100
AcDbEntity
  8
TERRACE$EB1735D Miroir
100
AcDbLine
 10
597.0878679656435
 20
135.1242640687124
 30
0.0
 11
597.0878679656416
 21
681.8757359312876
 31
0.0
  0
LINE
  5
97
330
1F
100
AcDbEntity
  8
TERRACE$EB1735D Miroir
100
AcDbLine
 10
596.8757359312876
 20
135.1242640687124
 30
0.0
 11
596.8757359312858
 21
681.8757359312876
 31
0.0
  0
LINE
  5
98
330
1F
100
AcDbEntity
  8
TERRACE$EB1735D Miroir
100
AcDbLine
 10
32.91213203435836
 20
681.8757359312876
 30
0.0
 11
32.91213203435473
 21
135.1242640687124
 31
0.0
  0
LINE
  5
99
330
1F
100
AcDbEntity
  8
TERRACE$EB1735D Miroir
100
AcDbLine
 10
33.12426406871327
 20
681.8757359312876
 30
0.0
 11
33.12426406871145
 21
135.1242640687124
 31
0.0
  0
LINE
  5
9A
330
1F
100
AcDbEntity
  8
TERRACE$EB1735D Miroir
100
AcDbLine
 10
33.124264068716
 20
134.9121320343584
 30
0.0
 11
596.8757359312895
 21
134.9121320343584
 31
0.0
  0
LINE
  5
9B
330
1F
100
AcDbEntity
  8
TERRACE$EB1735D Miroir
100
AcDbLine
 10
33.12426406871145
 20
135.1242640687124
 30
0.0
 11
596.8757359312876
 21
135.1242640687124
 31
0.0
  0
LINE
  5
9C
330
1F
100
AcDbEntity
  8
TERRACE$EB1735D Miroir
100
AcDbLine
 10
32.91213203435473
 20
135.1242640687124
 30
0.0
 11
30.08786796564527
 21
132.3000000000029
 31
0.0
  0
LINE
  5
9D
330
1F
100
AcDbEntity
  8
TERRACE$EB1735D Miroir
100
AcDbLine
 10
33.124264068716
 20
134.9121320343584
 30
0.0
 11
30.30000000000018
 21
132.0878679656453
 31
0.0
  0
LINE
  5
9E
330
1F
100
AcDbEntity
  8
TERRACE$EB1735D Miroir
100
AcDbLine
 10
599.9121320343556
 20
132.3000000000029
 30
0.0
 11
597.0878679656435
 21
135.1242640687124
 31
0.0
  0
LINE
  5
9F
330
1F
100
AcDbEntity
  8
TERRACE$EB1735D Miroir
100
AcDbLine
 10
599.6999999999971
 20
132.0878679656453
 30
0.0
 11
596.8757359312895
 21
134.9121320343584
 31
0.0
  0
LINE
  5
A0
330
1F
100
AcDbEntity
  8
TERRACE$EB1735D Miroir
100
AcDbLine
 10
30.08786796564436
 20
684.7000000000007
 30
0.0
 11
32.91213203435836
 21
681.8757359312876
 31
0.0
  0
LINE
  5
A1
330
1F
100
AcDbEntity
  8
TERRACE$EB1735D Miroir
100
AcDbLine
 10
30.29999999999927
 20
684.9121320343584
 30
0.0
 11
33.12426406871418
 21
682.0878679656453
 31
0.0
  0
LINE
  5
A2
330
1F
100
AcDbEntity
  8
TERRACE$EB1735D Miroir
100
AcDbLine
 10
597.0878679656416
 20
681.8757359312876
 30
0.0
 11
599.9121320343565
 21
684.7000000000007
 31
0.0
  0
LINE
  5
A3
330
1F
100
AcDbEntity
  8
TERRACE$EB1735D Miroir
100
AcDbLine
 10
596.8757359312858
 20
682.0878679656453
 30
0.0
 11
599.6999999999989
 21
684.9121320343584
 31
0.0
  0
LINE
  5
A4
330
1F
100
AcDbEntity
  8
TERRACE$EB1735D Miroir
100
AcDbLine
 10
599.6999999999971
 20
132.0878679656453
 30
0.0
 11
599.7000000000007
 21
132.0
 31
0.0
  0
ARC
  5
A5
330
1F
100
AcDbEntity
  8
TERRACE$EB1735D Miroir
100
AcDbCircle
 10
599.4714594960866
 20
132.5285405039153
 30
0.0
 40
0.4964101609687292
100
AcDbArc
 50
297.4120462057607
 51
332.5879537939958
  0
LINE
  5
A6
330
1F
100
AcDbEntity
  8
TERRACE$EB1735D Miroir
100
AcDbLine
 10
599.9975237335757
 20
132.3000000000029
 30
0.0
 11
599.9121320343556
 21
132.3000000000029
 31
0.0
  0
ARC
  5
A7
330
1F
100
AcDbEntity
  8
TERRACE$EB1735D Miroir
100
AcDbCircle
 10
599.7000000000018
 20
132.2999999999982
 30
0.0
 40
0.2999999999981924
100
AcDbArc
 50
269.9999999998046
 51
0.0000000009010723
  0
ARC
  5
A8
330
1F
100
AcDbEntity
  8
TERRACE$EB1735D Miroir
100
AcDbCircle
 10
30.30000000000469
 20
132.3000000000053
 30
0.0
 40
0.3000000000053074
100
AcDbArc
 50
190.3978048062799
 51
269.999999999139
  0
LINE
  5
A9
330
1F
100
AcDbEntity
  8
TERRACE$EB1735D Miroir
100
AcDbLine
 10
30.0
 20
132.3000000000029
 30
0.0
 11
30.08786796564527
 21
132.3000000000029
 31
0.0
  0
ARC
  5
AA
330
1F
100
AcDbEntity
  8
TERRACE$EB1735D Miroir
100
AcDbCircle
 10
30.52854050433361
 20
132.5285405043307
 30
0.0
 40
0.4964101615321787
100
AcDbArc
 50
207.4120462262844
 51
242.5879537729782
  0
LINE
  5
AB
330
1F
100
AcDbEntity
  8
TERRACE$EB1735D Miroir
100
AcDbLine
 10
30.30000000000018
 20
132.0
 30
0.0
 11
30.30000000000018
 21
132.0878679656453
 31
0.0
  0
ARC
  5
AC
330
1F
100
AcDbEntity
  8
TERRACE$EB1735D Miroir
100
AcDbCircle
 10
30.29999999999859
 20
684.7000000000015
 30
0.0
 40
0.2999999999985903
100
AcDbArc
 50
89.99999999969603
 51
179.9999999994572
  0
LINE
  5
AD
330
1F
100
AcDbEntity
  8
TERRACE$EB1735D Miroir
100
AcDbLine
 10
30.29999999999927
 20
684.9121320343584
 30
0.0
 11
30.3000000000111
 21
684.9949916105252
 31
0.0
  0
ARC
  5
AE
330
1F
100
AcDbEntity
  8
TERRACE$EB1735D Miroir
100
AcDbCircle
 10
30.52854050433484
 20
684.471459495665
 30
0.0
 40
0.496410161540205
100
AcDbArc
 50
117.4120462268202
 51
152.5879537726921
  0
LINE
  5
AF
330
1F
100
AcDbEntity
  8
TERRACE$EB1735D Miroir
100
AcDbLine
 10
30.0
 20
684.7000000000007
 30
0.0
 11
30.08786796564436
 21
684.7000000000007
 31
0.0
  0
ARC
  5
B0
330
1F
100
AcDbEntity
  8
TERRACE$EB1735D Miroir
100
AcDbCircle
 10
599.7000000000021
 20
684.7000000000019
 30
0.0
 40
0.2999999999979082
100
AcDbArc
 50
359.9999999997829
 51
90.00000000026056
  0
LINE
  5
B1
330
1F
100
AcDbEntity
  8
TERRACE$EB1735D Miroir
100
AcDbLine
 10
599.9121320343565
 20
684.7000000000007
 30
0.0
 11
600.0
 21
684.7000000000007
 31
0.0
  0
ARC
  5
B2
330
1F
100
AcDbEntity
  8
TERRACE$EB1735D Miroir
100
AcDbCircle
 10
599.4714594957
 20
684.4714594957018
 30
0.0
 40
0.4964101614907537
100
AcDbArc
 50
27.41204622502071
 51
62.58795377497929
  0
LINE
  5
B3
330
1F
100
AcDbEntity
  8
TERRACE$EB1735D Miroir
100
AcDbLine
 10
599.6999999999989
 20
684.9121320343584
 30
0.0
 11
599.7000000000107
 21
684.9949916105252
 31
0.0
  0
LINE
  5
B4
330
1F
100
AcDbEntity
  8
TERRACE$EB1735D Miroir
100
AcDbLine
 10
33.12426406871327
 20
681.8757359312876
 30
0.0
 11
32.91213203435836
 21
681.8757359312876
 31
0.0
  0
ARC
  5
B5
330
1F
100
AcDbEntity
  8
TERRACE$EB1735D Miroir
100
AcDbCircle
 10
33.35280457312783
 20
681.6471954268778
 30
0.0
 40
0.4964101616419537
100
AcDbArc
 50
117.4120462308817
 51
152.5879537696186
  0
LINE
  5
B6
330
1F
100
AcDbEntity
  8
TERRACE$EB1735D Miroir
100
AcDbLine
 10
33.12426406871418
 20
682.0878679656453
 30
0.0
 11
33.12426406871327
 21
681.8757359312876
 31
0.0
  0
LINE
  5
B7
330
1F
100
AcDbEntity
  8
TERRACE$EB1735D Miroir
100
AcDbLine
 10
596.8757359312858
 20
682.0878679656453
 30
0.0
 11
596.8757359312858
 21
681.8757359312876
 31
0.0
  0
ARC
  5
B8
330
1F
100
AcDbEntity
  8
TERRACE$EB1735D Miroir
100
AcDbCircle
 10
596.6471954271578
 20
681.6471954271633
 30
0.0
 40
0.4964101612569584
100
AcDbArc
 50
27.41204621631116
 51
62.58795378323109
  0
LINE
  5
B9
330
1F
100
AcDbEntity
  8
TERRACE$EB1735D Miroir
100
AcDbLine
 10
596.8757359312858
 20
681.8757359312876
 30
0.0
 11
597.0878679656416
 21
681.8757359312876
 31
0.0
  0
LINE
  5
BA
330
1F
100
AcDbEntity
  8
TERRACE$EB1735D Miroir
100
AcDbLine
 10
597.0878679656435
 20
135.1242640687124
 30
0.0
 11
596.8757359312876
 21
135.1242640687124
 31
0.0
  0
ARC
  5
BB
330
1F
100
AcDbEntity
  8
TERRACE$EB1735D Miroir
100
AcDbCircle
 10
596.6471954273668
 20
135.3528045726351
 30
0.0
 40
0.4964101609802781
100
AcDbArc
 50
297.4120462066506
 51
332.5879537933375
  0
LINE
  5
BC
330
1F
100
AcDbEntity
  8
TERRACE$EB1735D Miroir
100
AcDbLine
 10
596.8757359312876
 20
135.1242640687124
 30
0.0
 11
596.8757359312895
 21
134.9121320343584
 31
0.0
  0
LINE
  5
BD
330
1F
100
AcDbEntity
  8
TERRACE$EB1735D Miroir
100
AcDbLine
 10
33.124264068716
 20
134.9121320343584
 30
0.0
 11
33.12426406871145
 21
135.1242640687124
 31
0.0
  0
ARC
  5
BE
330
1F
100
AcDbEntity
  8
TERRACE$EB1735D Miroir
100
AcDbCircle
 10
33.35280457321939
 20
135.3528045732309
 30
0.0
 40
0.4964101617765348
100
AcDbArc
 50
207.4120462364608
 51
242.587953765506
  0
LINE
  5
BF
330
1F
100
AcDbEntity
  8
TERRACE$EB1735D Miroir
100
AcDbLine
 10
33.12426406871145
 20
135.1242640687124
 30
0.0
 11
32.91213203435473
 21
135.1242640687124
 31
0.0
  0
CIRCLE
  5
C0
330
1F
100
AcDbEntity
  8
TERRACE$EB1735D Miroir
100
AcDbCircle
 10
510.0000621385634
 20
66.00006199825935
 30
0.0
 40
37.00006213861553
  0
CIRCLE
  5
C1
330
1F
100
AcDbEntity
  8
TERRACE$EB1735D Miroir
100
AcDbCircle
 10
510.000075281239
 20
65.99992525900058
 30
0.0
 40
44.90945317011738
  0
LINE
  5
C2
330
1F
100
AcDbEntity
  8
TERRACE$EB1735D Miroir
100
AcDbLine
 10
534.7794194041408
 20
91.70003039374569
 30
0.0
 11
517.2999999997883
 21
91.69999985891627
 31
0.0
  0
LINE
  5
C3
330
1F
100
AcDbEntity
  8
TERRACE$EB1735D Miroir
100
AcDbLine
 10
516.6999999997879
 20
92.29999985891482
 30
0.0
 11
516.6999999997879
 21
101.0128870249682
 31
0.0
  0
LINE
  5
C4
330
1F
100
AcDbEntity
  8
TERRACE$EB1735D Miroir
100
AcDbLine
 10
516.6999999997879
 20
101.0128870249682
 30
0.0
 11
503.2999999997874
 21
101.0128870249027
 31
0.0
  0
LINE
  5
C5
330
1F
100
AcDbEntity
  8
TERRACE$EB1735D Miroir
100
AcDbLine
 10
503.2999999997874
 20
101.0128870249027
 30
0.0
 11
503.2999999997883
 21
92.29999985891482
 31
0.0
  0
LINE
  5
C6
330
1F
100
AcDbEntity
  8
TERRACE$EB1735D Miroir
100
AcDbLine
 10
502.6999999997879
 20
91.69999985891627
 30
0.0
 11
485.2205805968179
 21
91.70003039366566
 31
0.0
  0
ARC
  5
C7
330
1F
100
AcDbEntity
  8
TERRACE$EB1735D Miroir
100
AcDbCircle
 10
510.0000000005208
 20
66.00019020849453
 30
0.0
 40
35.70015982496363
100
AcDbArc
 50
133.9554049837488
 51
46.04459501643619
  0
LINE
  5
C8
330
1F
100
AcDbEntity
  8
TERRACE$EB1735D Miroir
100
AcDbLine
 10
534.7790233867281
 20
91.99999985891918
 30
0.0
 11
517.2999999997883
 21
91.99999985891554
 31
0.0
  0
LINE
  5
C9
330
1F
100
AcDbEntity
  8
TERRACE$EB1735D Miroir
100
AcDbLine
 10
534.7790233867236
 20
92.29999985891845
 30
0.0
 11
517.2999999997883
 21
92.29999985891482
 31
0.0
  0
LINE
  5
CA
330
1F
100
AcDbEntity
  8
TERRACE$EB1735D Miroir
100
AcDbLine
 10
516.9999999997881
 20
92.29999985891482
 30
0.0
 11
516.9999999997881
 21
101.0128870249755
 31
0.0
  0
LINE
  5
CB
330
1F
100
AcDbEntity
  8
TERRACE$EB1735D Miroir
100
AcDbLine
 10
517.2999999997883
 20
92.29999985891482
 30
0.0
 11
517.2999999997883
 21
101.0128870249755
 31
0.0
  0
LINE
  5
CC
330
1F
100
AcDbEntity
  8
TERRACE$EB1735D Miroir
100
AcDbLine
 10
516.6999999997861
 20
101.3128870249711
 30
0.0
 11
503.2999999997865
 21
101.3128870248984
 31
0.0
  0
LINE
  5
CD
330
1F
100
AcDbEntity
  8
TERRACE$EB1735D Miroir
100
AcDbLine
 10
516.6999999997843
 20
101.6128870249668
 30
0.0
 11
503.2999999997846
 21
101.6128870249013
 31
0.0
  0
LINE
  5
CE
330
1F
100
AcDbEntity
  8
TERRACE$EB1735D Miroir
100
AcDbLine
 10
502.9999999997881
 20
101.0128870248955
 30
0.0
 11
502.999999999789
 21
92.29999985891482
 31
0.0
  0
LINE
  5
CF
330
1F
100
AcDbEntity
  8
TERRACE$EB1735D Miroir
100
AcDbLine
 10
502.6999999997879
 20
101.0128870248955
 30
0.0
 11
502.6999999997879
 21
92.29999985891482
 31
0.0
  0
LINE
  5
D0
330
1F
100
AcDbEntity
  8
TERRACE$EB1735D Miroir
100
AcDbLine
 10
502.6999999997879
 20
91.99999985891554
 30
0.0
 11
485.2209766132628
 21
91.9999998589119
 31
0.0
  0
LINE
  5
D1
330
1F
100
AcDbEntity
  8
TERRACE$EB1735D Miroir
100
AcDbLine
 10
502.6999999997879
 20
92.29999985891482
 30
0.0
 11
485.2209766132673
 21
92.29999985891118
 31
0.0
  0
ARC
  5
D2
330
1F
100
AcDbEntity
  8
TERRACE$EB1735D Miroir
100
AcDbCircle
 10
509.9999999996651
 20
66.00002784233178
 30
0.0
 40
36.30015191758099
100
AcDbArc
 50
133.9547987386002
 51
46.04520126065508
  0
ARC
  5
D3
330
1F
100
AcDbEntity
  8
TERRACE$EB1735D Miroir
100
AcDbCircle
 10
509.9999999999987
 20
65.99994204814914
 30
0.0
 40
36.0001269367296
100
AcDbArc
 50
133.9547051809735
 51
46.04529481904307
  0
LINE
  5
D4
330
1F
100
AcDbEntity
  8
TERRACE$EB1735D Miroir
100
AcDbLine
 10
517.2999999997883
 20
91.99999985891554
 30
0.0
 11
517.2999999997883
 21
91.69999985891627
 31
0.0
  0
ARC
  5
D5
330
1F
100
AcDbEntity
  8
TERRACE$EB1735D Miroir
100
AcDbCircle
 10
517.3033103227231
 20
92.30331018185151
 30
0.0
 40
0.6033194046259083
100
AcDbArc
 50
180.3143749120783
 51
269.6856250881026
  0
LINE
  5
D6
330
1F
100
AcDbEntity
  8
TERRACE$EB1735D Miroir
100
AcDbLine
 10
516.9999999997881
 20
92.29999985891482
 30
0.0
 11
516.6999999997879
 21
92.29999985891482
 31
0.0
  0
LINE
  5
D7
330
1F
100
AcDbEntity
  8
TERRACE$EB1735D Miroir
100
AcDbLine
 10
534.7794194041408
 20
91.70003039374569
 30
0.0
 11
534.7790845097024
 21
91.99999985891918
 31
0.0
  0
LINE
  5
D8
330
1F
100
AcDbEntity
  8
TERRACE$EB1735D Miroir
100
AcDbLine
 10
534.987341636277
 20
91.91599703669272
 30
0.0
 11
534.7794194041398
 21
91.70003039374569
 31
0.0
  0
LINE
  5
D9
330
1F
100
AcDbEntity
  8
TERRACE$EB1735D Miroir
100
AcDbLine
 10
516.6999999997879
 20
101.0128870249682
 30
0.0
 11
516.699999999787
 21
101.3128870249711
 31
0.0
  0
LINE
  5
DA
330
1F
100
AcDbEntity
  8
TERRACE$EB1735D Miroir
100
AcDbLine
 10
516.9999999997881
 20
101.0128870249755
 30
0.0
 11
516.6999999997879
 21
101.0128870249682
 31
0.0
  0
LINE
  5
DB
330
1F
100
AcDbEntity
  8
TERRACE$EB1735D Miroir
100
AcDbLine
 10
503.2999999997874
 20
101.0128870249027
 30
0.0
 11
502.9999999997881
 21
101.0128870248955
 31
0.0
  0
LINE
  5
DC
330
1F
100
AcDbEntity
  8
TERRACE$EB1735D Miroir
100
AcDbLine
 10
503.2999999997865
 20
101.3128870248984
 30
0.0
 11
503.2999999997874
 21
101.0128870249027
 31
0.0
  0
LINE
  5
DD
330
1F
100
AcDbEntity
  8
TERRACE$EB1735D Miroir
100
AcDbLine
 10
502.9999999997881
 20
92.29999985891482
 30
0.0
 11
503.2999999997883
 21
92.29999985891482
 31
0.0
  0
ARC
  5
DE
330
1F
100
AcDbEntity
  8
TERRACE$EB1735D Miroir
100
AcDbCircle
 10
502.6966896768508
 20
92.30331018185372
 30
0.0
 40
0.6033194046281761
100
AcDbArc
 50
270.3143749121176
 51
359.6856250877137
  0
LINE
  5
DF
330
1F
100
AcDbEntity
  8
TERRACE$EB1735D Miroir
100
AcDbLine
 10
502.6999999997879
 20
91.99999985891554
 30
0.0
 11
502.6999999997879
 21
91.69999985891627
 31
0.0
  0
LINE
  5
E0
330
1F
100
AcDbEntity
  8
TERRACE$EB1735D Miroir
100
AcDbLine
 10
485.012658363793
 20
91.91599703676184
 30
0.0
 11
485.2205805968179
 21
91.70003039366566
 31
0.0
  0
LINE
  5
E1
330
1F
100
AcDbEntity
  8
TERRACE$EB1735D Miroir
100
AcDbLine
 10
485.2205805968179
 20
91.70003039366566
 30
0.0
 11
485.2209154904385
 21
91.9999998589119
 31
0.0
  0
LINE
  5
E2
330
1F
100
AcDbEntity
  8
TERRACE$EB1735D Miroir
100
AcDbLine
 10
534.7790233867236
 20
92.29999985891845
 30
0.0
 11
534.7790233867281
 21
91.99999985891918
 31
0.0
  0
ARC
  5
E3
330
1F
100
AcDbEntity
  8
TERRACE$EB1735D Miroir
100
AcDbCircle
 10
534.778806414779
 20
91.69884686608172
 30
0.0
 40
0.6011530319921736
100
AcDbArc
 50
46.10669875469883
 51
89.97932044536545
  0
LINE
  5
E4
330
1F
100
AcDbEntity
  8
TERRACE$EB1735D Miroir
100
AcDbLine
 10
534.9873095253188
 20
91.91602782795962
 30
0.0
 11
535.1955963801711
 21
92.13205708366877
 31
0.0
  0
ARC
  5
E5
330
1F
100
AcDbEntity
  8
TERRACE$EB1735D Miroir
100
AcDbCircle
 10
534.7789139689485
 20
91.69942359948332
 30
0.0
 40
0.3005762793513524
100
AcDbArc
 50
46.10650360818699
 51
89.9791428081781
  0
LINE
  5
E6
330
1F
100
AcDbEntity
  8
TERRACE$EB1735D Miroir
100
AcDbLine
 10
517.2999999997883
 20
92.29999985891482
 30
0.0
 11
517.2999999997883
 21
91.99999985891554
 31
0.0
  0
ARC
  5
E7
330
1F
100
AcDbEntity
  8
TERRACE$EB1735D Miroir
100
AcDbCircle
 10
517.2999999997869
 20
92.29999985891445
 30
0.0
 40
0.2999999999988177
100
AcDbArc
 50
179.9999999999294
 51
270.0000000002606
  0
LINE
  5
E8
330
1F
100
AcDbEntity
  8
TERRACE$EB1735D Miroir
100
AcDbLine
 10
516.9999999997881
 20
92.29999985891482
 30
0.0
 11
517.2999999997883
 21
92.29999985891482
 31
0.0
  0
LINE
  5
E9
330
1F
100
AcDbEntity
  8
TERRACE$EB1735D Miroir
100
AcDbLine
 10
517.2999999997883
 20
101.0128870249755
 30
0.0
 11
516.9999999997881
 21
101.0128870249755
 31
0.0
  0
ARC
  5
EA
330
1F
100
AcDbEntity
  8
TERRACE$EB1735D Miroir
100
AcDbCircle
 10
516.6966896768563
 20
101.0095767020348
 30
0.0
 40
0.6033194046226723
100
AcDbArc
 50
0.3143749124618758
 51
89.68562508874871
  0
LINE
  5
EB
330
1F
100
AcDbEntity
  8
TERRACE$EB1735D Miroir
100
AcDbLine
 10
516.6999999997861
 20
101.3128870249711
 30
0.0
 11
516.6999999997843
 21
101.6128870249668
 31
0.0
  0
ARC
  5
EC
330
1F
100
AcDbEntity
  8
TERRACE$EB1735D Miroir
100
AcDbCircle
 10
516.6983448383234
 20
101.0112318635064
 30
0.0
 40
0.3016597023100789
100
AcDbArc
 50
0.3143749122297069
 51
89.68562508898492
  0
LINE
  5
ED
330
1F
100
AcDbEntity
  8
TERRACE$EB1735D Miroir
100
AcDbLine
 10
503.2999999997846
 20
101.6128870249013
 30
0.0
 11
503.2999999997865
 21
101.3128870248984
 31
0.0
  0
ARC
  5
EE
330
1F
100
AcDbEntity
  8
TERRACE$EB1735D Miroir
100
AcDbCircle
 10
503.3033103227314
 20
101.0095767019578
 30
0.0
 40
0.6033194046341875
100
AcDbArc
 50
90.31437491302677
 51
179.685625087837
  0
LINE
  5
EF
330
1F
100
AcDbEntity
  8
TERRACE$EB1735D Miroir
100
AcDbLine
 10
502.9999999997881
 20
101.0128870248955
 30
0.0
 11
502.6999999997879
 21
101.0128870248955
 31
0.0
  0
ARC
  5
F0
330
1F
100
AcDbEntity
  8
TERRACE$EB1735D Miroir
100
AcDbCircle
 10
503.3016551612619
 20
101.0112318634246
 30
0.0
 40
0.3016597023191516
100
AcDbArc
 50
90.3143749134241
 51
179.6856250874504
  0
LINE
  5
F1
330
1F
100
AcDbEntity
  8
TERRACE$EB1735D Miroir
100
AcDbLine
 10
502.6999999997879
 20
92.29999985891482
 30
0.0
 11
502.999999999789
 21
92.29999985891482
 31
0.0
  0
ARC
  5
F2
330
1F
100
AcDbEntity
  8
TERRACE$EB1735D Miroir
100
AcDbCircle
 10
502.6999999997904
 20
92.29999985891322
 30
0.0
 40
0.2999999999976808
100
AcDbArc
 50
269.9999999998698
 51
0.0000000003039762
  0
LINE
  5
F3
330
1F
100
AcDbEntity
  8
TERRACE$EB1735D Miroir
100
AcDbLine
 10
502.6999999997879
 20
92.29999985891482
 30
0.0
 11
502.6999999997806
 21
92.00500824838673
 31
0.0
  0
LINE
  5
F4
330
1F
100
AcDbEntity
  8
TERRACE$EB1735D Miroir
100
AcDbLine
 10
485.2209766132673
 20
92.29999985891118
 30
0.0
 11
485.2209766132628
 21
91.9999998589119
 31
0.0
  0
ARC
  5
F5
330
1F
100
AcDbEntity
  8
TERRACE$EB1735D Miroir
100
AcDbCircle
 10
485.2211935847192
 20
91.69884686563661
 30
0.0
 40
0.6011530324298323
100
AcDbArc
 50
90.02067950765316
 51
133.8933011824578
  0
LINE
  5
F6
330
1F
100
AcDbEntity
  8
TERRACE$EB1735D Miroir
100
AcDbLine
 10
485.0126904746712
 20
91.91602782795235
 30
0.0
 11
484.8044036194988
 21
92.13205708399619
 31
0.0
  0
ARC
  5
F7
330
1F
100
AcDbEntity
  8
TERRACE$EB1735D Miroir
100
AcDbCircle
 10
485.2210860310324
 20
91.69942359949843
 30
0.0
 40
0.3005762793289666
100
AcDbArc
 50
90.02085718991641
 51
133.893496393516
  0
LINE
  5
F8
330
1F
100
AcDbEntity
  8
TERRACE$EB1735D Miroir
100
AcDbLine
 10
408.0
 20
12.30000000000291
 30
0.0
 11
408.0
 21
119.7000000000007
 31
0.0
  0
LINE
  5
F9
330
1F
100
AcDbEntity
  8
TERRACE$EB1735D Miroir
100
AcDbLine
 10
408.2999999999993
 20
12.30000000000291
 30
0.0
 11
408.2999999999993
 21
119.7000000000044
 31
0.0
  0
LINE
  5
FA
330
1F
100
AcDbEntity
  8
TERRACE$EB1735D Miroir
100
AcDbLine
 10
420.0
 20
12.30000000000291
 30
0.0
 11
420.0
 21
119.7000000000007
 31
0.0
  0
LINE
  5
FB
330
1F
100
AcDbEntity
  8
TERRACE$EB1735D Miroir
100
AcDbLine
 10
419.6999999999989
 20
12.30000000000291
 30
0.0
 11
419.6999999999998
 21
119.7000000000007
 31
0.0
  0
LINE
  5
FC
330
1F
100
AcDbEntity
  8
TERRACE$EB1735D Miroir
100
AcDbLine
 10
419.6999999999989
 20
12.30000000000291
 30
0.0
 11
408.2999999999993
 21
12.30000000000291
 31
0.0
  0
LINE
  5
FD
330
1F
100
AcDbEntity
  8
TERRACE$EB1735D Miroir
100
AcDbLine
 10
419.6999999999998
 20
12.0
 30
0.0
 11
408.2999999999993
 21
12.0
 31
0.0
  0
LINE
  5
FE
330
1F
100
AcDbEntity
  8
TERRACE$EB1735D Miroir
100
AcDbLine
 10
419.6999999999989
 20
120.0
 30
0.0
 11
408.2999999999993
 21
120.0
 31
0.0
  0
LINE
  5
FF
330
1F
100
AcDbEntity
  8
TERRACE$EB1735D Miroir
100
AcDbLine
 10
419.6999999999998
 20
119.7000000000007
 30
0.0
 11
408.2999999999993
 21
119.7000000000044
 31
0.0
  0
LINE
  5
100
330
1F
100
AcDbEntity
  8
TERRACE$EB1735D Miroir
100
AcDbLine
 10
408.2999999999993
 20
12.0
 30
0.0
 11
408.2999999999993
 21
12.30000000000291
 31
0.0
  0
ARC
  5
101
330
1F
100
AcDbEntity
  8
TERRACE$EB1735D Miroir
100
AcDbCircle
 10
408.3000000000009
 20
12.30000000000095
 30
0.0
 40
0.3000000000009493
100
AcDbArc
 50
179.9999999996255
 51
269.9999999996851
  0
LINE
  5
102
330
1F
100
AcDbEntity
  8
TERRACE$EB1735D Miroir
100
AcDbLine
 10
408.0
 20
12.30000000000291
 30
0.0
 11
408.2999999999993
 21
12.30000000000291
 31
0.0
  0
LINE
  5
103
330
1F
100
AcDbEntity
  8
TERRACE$EB1735D Miroir
100
AcDbLine
 10
420.0
 20
12.30000000000291
 30
0.0
 11
419.6999999999989
 21
12.30000000000291
 31
0.0
  0
ARC
  5
104
330
1F
100
AcDbEntity
  8
TERRACE$EB1735D Miroir
100
AcDbCircle
 10
419.6999999999942
 20
12.3000000000057
 30
0.0
 40
0.3000000000056957
100
AcDbArc
 50
270.0000000010639
 51
359.9999999994681
  0
LINE
  5
105
330
1F
100
AcDbEntity
  8
TERRACE$EB1735D Miroir
100
AcDbLine
 10
419.6999999999989
 20
12.30000000000291
 30
0.0
 11
419.6999999999998
 21
12.0
 31
0.0
  0
LINE
  5
106
330
1F
100
AcDbEntity
  8
TERRACE$EB1735D Miroir
100
AcDbLine
 10
408.2999999999993
 20
119.7000000000044
 30
0.0
 11
408.0000000000009
 21
119.7000000000007
 31
0.0
  0
ARC
  5
107
330
1F
100
AcDbEntity
  8
TERRACE$EB1735D Miroir
100
AcDbCircle
 10
408.3000000000005
 20
119.6999999999996
 30
0.0
 40
0.3000000000004661
100
AcDbArc
 50
90.00000000022797
 51
179.9999999997775
  0
LINE
  5
108
330
1F
100
AcDbEntity
  8
TERRACE$EB1735D Miroir
100
AcDbLine
 10
408.2999999999993
 20
119.7000000000044
 30
0.0
 11
408.2999999999993
 21
120.0
 31
0.0
  0
LINE
  5
109
330
1F
100
AcDbEntity
  8
TERRACE$EB1735D Miroir
100
AcDbLine
 10
419.6999999999989
 20
120.0
 30
0.0
 11
419.6999999999998
 21
119.7000000000007
 31
0.0
  0
ARC
  5
10A
330
1F
100
AcDbEntity
  8
TERRACE$EB1735D Miroir
100
AcDbCircle
 10
419.6999999999993
 20
119.6999999999993
 30
0.0
 40
0.3000000000006935
100
AcDbArc
 50
0.0000000002741214
 51
90.000000000076
  0
LINE
  5
10B
330
1F
100
AcDbEntity
  8
TERRACE$EB1735D Miroir
100
AcDbLine
 10
419.6999999999998
 20
119.7000000000007
 30
0.0
 11
420.0
 21
119.7000000000007
 31
0.0
  0
LINE
  5
10C
330
1F
100
AcDbEntity
  8
TERRACE$EB1735D Miroir
100
AcDbLine
 10
30.30000000000109
 20
120.0050083894748
 30
0.0
 11
30.30000000000109
 21
12.0
 31
0.0
  0
LINE
  5
10D
330
1F
100
AcDbEntity
  8
TERRACE$EB1735D Miroir
100
AcDbLine
 10
600.0000000000009
 20
131.7545889156063
 30
0.0
 11
600.0000000000009
 21
132.2454110837862
 31
0.0
  0
LINE
  5
10E
330
1F
100
AcDbEntity
  8
TERRACE$EB1735D Miroir
100
AcDbLine
 10
600.0000000000009
 20
119.7545889157263
 30
0.0
 11
600.0000000000009
 21
120.2454110815524
 31
0.0
  0
LINE
  5
10F
330
1F
100
AcDbEntity
  8
TERRACE$EB1735D Miroir
100
AcDbLine
 10
600.0000000000009
 20
11.7545889588655
 30
0.0
 11
600.0000000000009
 21
12.24541108427729
 31
0.0
  0
LINE
  5
110
330
1F
100
AcDbEntity
  8
TERRACE$EB1735D Miroir
100
AcDbLine
 10
516.1999999995842
 20
100.5128870249682
 30
0.0
 11
503.7999999995845
 21
100.5128870249027
 31
0.0
  0
LINE
  5
111
330
1F
100
AcDbEntity
  8
TERRACE$EB1735D Miroir
100
AcDbLine
 10
516.1999999995824
 20
100.8128870249711
 30
0.0
 11
503.7999999995827
 21
100.8128870248984
 31
0.0
  0
LINE
  5
112
330
1F
100
AcDbEntity
  8
TERRACE$EB1735D Miroir
100
AcDbLine
 10
503.7999999995845
 20
100.5128870249027
 30
0.0
 11
503.7999999995845
 21
91.99999985891554
 31
0.0
  0
LINE
  5
113
330
1F
100
AcDbEntity
  8
TERRACE$EB1735D Miroir
100
AcDbLine
 10
503.4999999995835
 20
100.5128870248882
 30
0.0
 11
503.4999999995844
 21
91.99999985891554
 31
0.0
  0
LINE
  5
114
330
1F
100
AcDbEntity
  8
TERRACE$EB1735D Miroir
100
AcDbLine
 10
503.4999999995844
 20
91.99999985891554
 30
0.0
 11
503.7999999995845
 21
91.99999985891554
 31
0.0
  0
ARC
  5
115
330
1F
100
AcDbEntity
  8
TERRACE$EB1735D Miroir
100
AcDbCircle
 10
502.9955855611564
 20
92.00441429734448
 30
0.0
 40
0.804426551040162
100
AcDbArc
 50
270.3144226903157
 51
359.6855773096175
  0
ARC
  5
116
330
1F
100
AcDbEntity
  8
TERRACE$EB1735D Miroir
100
AcDbCircle
 10
502.9999999995848
 20
91.99999985891519
 30
0.0
 40
0.4999999999996021
100
AcDbArc
 50
269.9999999999544
 51
0.0000000000407111
  0
LINE
  5
117
330
1F
100
AcDbEntity
  8
TERRACE$EB1735D Miroir
100
AcDbLine
 10
502.9999999995844
 20
91.49999985891554
 30
0.0
 11
502.9999999995844
 21
91.19999985891627
 31
0.0
  0
LINE
  5
118
330
1F
100
AcDbEntity
  8
TERRACE$EB1735D Miroir
100
AcDbLine
 10
502.9999999995844
 20
91.19999985891627
 30
0.0
 11
485.4234719080159
 21
91.20000884623369
 31
0.0
  0
LINE
  5
119
330
1F
100
AcDbEntity
  8
TERRACE$EB1735D Miroir
100
AcDbLine
 10
502.9999999995844
 20
91.49999985891554
 30
0.0
 11
485.4235705639139
 21
91.4999998589119
 31
0.0
  0
ARC
  5
11A
330
1F
100
AcDbEntity
  8
TERRACE$EB1735D Miroir
100
AcDbCircle
 10
510.0003813101333
 20
65.9999998590248
 30
0.0
 40
35.2003540994449
100
AcDbArc
 50
134.282818277692
 51
225.7171820403352
  0
ARC
  5
11B
330
1F
100
AcDbEntity
  8
TERRACE$EB1735D Miroir
100
AcDbCircle
 10
509.9999945397852
 20
65.9999998589135
 30
0.0
 40
35.50002149947539
100
AcDbArc
 50
134.2822729450139
 51
225.7177374504465
  0
LINE
  5
11C
330
1F
100
AcDbEntity
  8
TERRACE$EB1735D Miroir
100
AcDbLine
 10
485.4234719080159
 20
40.7999908715974
 30
0.0
 11
534.5765280915602
 21
40.79999087159376
 31
0.0
  0
LINE
  5
11D
330
1F
100
AcDbEntity
  8
TERRACE$EB1735D Miroir
100
AcDbLine
 10
485.4235705639139
 20
40.49999985891554
 30
0.0
 11
534.5764294356622
 21
40.49999985891554
 31
0.0
  0
ARC
  5
11E
330
1F
100
AcDbEntity
  8
TERRACE$EB1735D Miroir
100
AcDbCircle
 10
509.9996231853983
 20
66.00000424300711
 30
0.0
 40
35.20035409887151
100
AcDbArc
 50
314.2828077383863
 51
45.71717182047174
  0
ARC
  5
11F
330
1F
100
AcDbEntity
  8
TERRACE$EB1735D Miroir
100
AcDbCircle
 10
510.0000054597879
 20
65.9999998589156
 30
0.0
 40
35.50002149947836
100
AcDbArc
 50
314.2822729137395
 51
45.71773745044619
  0
LINE
  5
120
330
1F
100
AcDbEntity
  8
TERRACE$EB1735D Miroir
100
AcDbLine
 10
534.5765370820473
 20
91.20000884623369
 30
0.0
 11
516.9999999995844
 21
91.19999985891627
 31
0.0
  0
LINE
  5
121
330
1F
100
AcDbEntity
  8
TERRACE$EB1735D Miroir
100
AcDbLine
 10
534.5764204451752
 20
91.4999998589119
 30
0.0
 11
516.9999999995844
 21
91.49999985891554
 31
0.0
  0
LINE
  5
122
330
1F
100
AcDbEntity
  8
TERRACE$EB1735D Miroir
100
AcDbLine
 10
516.9999999995844
 20
91.19999985891627
 30
0.0
 11
516.9999999995844
 21
91.49999985891554
 31
0.0
  0
ARC
  5
123
330
1F
100
AcDbEntity
  8
TERRACE$EB1735D Miroir
100
AcDbCircle
 10
517.0044144380107
 20
92.00441429734289
 30
0.0
 40
0.8044265510385847
100
AcDbArc
 50
180.3144226902697
 51
269.6855773098011
  0
ARC
  5
124
330
1F
100
AcDbEntity
  8
TERRACE$EB1735D Miroir
100
AcDbCircle
 10
516.9999999995841
 20
91.99999985891539
 30
0.0
 40
0.4999999999998437
100
AcDbArc
 50
179.9999999999821
 51
270.000000000026
  0
LINE
  5
125
330
1F
100
AcDbEntity
  8
TERRACE$EB1735D Miroir
100
AcDbLine
 10
516.4999999995844
 20
91.99999985891554
 30
0.0
 11
516.1999999995842
 21
91.99999985891554
 31
0.0
  0
LINE
  5
126
330
1F
100
AcDbEntity
  8
TERRACE$EB1735D Miroir
100
AcDbLine
 10
516.1999999995842
 20
91.99999985891554
 30
0.0
 11
516.1999999995842
 21
100.5128870249682
 31
0.0
  0
LINE
  5
127
330
1F
100
AcDbEntity
  8
TERRACE$EB1735D Miroir
100
AcDbLine
 10
516.4999999995844
 20
91.99999985891554
 30
0.0
 11
516.4999999995844
 21
100.5128870249609
 31
0.0
  0
ARC
  5
128
330
1F
100
AcDbEntity
  8
TERRACE$EB1735D Miroir
100
AcDbCircle
 10
516.1999999995897
 20
100.5128870249765
 30
0.0
 40
0.2999999999946255
100
AcDbArc
 50
359.9999999991125
 51
90.00000000158504
  0
LINE
  5
129
330
1F
100
AcDbEntity
  8
TERRACE$EB1735D Miroir
100
AcDbLine
 10
516.4999999995844
 20
100.5128870249609
 30
0.0
 11
516.1999999995842
 21
100.5128870249682
 31
0.0
  0
LINE
  5
12A
330
1F
100
AcDbEntity
  8
TERRACE$EB1735D Miroir
100
AcDbLine
 10
516.1999999995842
 20
100.5128870249682
 30
0.0
 11
516.1999999995824
 21
100.8128870249711
 31
0.0
  0
LINE
  5
12B
330
1F
100
AcDbEntity
  8
TERRACE$EB1735D Miroir
100
AcDbLine
 10
503.7999999995827
 20
100.8128870248984
 30
0.0
 11
503.7999999995845
 21
100.5128870249027
 31
0.0
  0
LINE
  5
12C
330
1F
100
AcDbEntity
  8
TERRACE$EB1735D Miroir
100
AcDbLine
 10
503.7999999995845
 20
100.5128870249027
 30
0.0
 11
503.5050083890592
 21
100.5128870248882
 31
0.0
  0
ARC
  5
12D
330
1F
100
AcDbEntity
  8
TERRACE$EB1735D Miroir
100
AcDbCircle
 10
503.799999999577
 20
100.5128870249048
 30
0.0
 40
0.2999999999935596
100
AcDbArc
 50
89.99999999890353
 51
180.0000000017858
  0
LINE
  5
12E
330
1F
100
AcDbEntity
  8
TERRACE$EB1735D Miroir
100
AcDbLine
 10
485.4234719080159
 20
91.20000884623369
 30
0.0
 11
485.4235704276571
 21
91.4999998589119
 31
0.0
  0
LINE
  5
12F
330
1F
100
AcDbEntity
  8
TERRACE$EB1735D Miroir
100
AcDbLine
 10
485.2175913620663
 20
91.41119612945273
 30
0.0
 11
485.4234717750847
 21
91.20000898256835
 31
0.0
  0
ARC
  5
130
330
1F
100
AcDbEntity
  8
TERRACE$EB1735D Miroir
100
AcDbCircle
 10
485.4235572562224
 20
91.19998765749033
 30
0.0
 40
0.3000122017107131
100
AcDbArc
 50
89.99748454358839
 51
134.2788205589443
  0
LINE
  5
131
330
1F
100
AcDbEntity
  8
TERRACE$EB1735D Miroir
100
AcDbLine
 10
485.4234719080159
 20
40.7999908715974
 30
0.0
 11
485.2141035332288
 21
40.58521806810313
 31
0.0
  0
LINE
  5
132
330
1F
100
AcDbEntity
  8
TERRACE$EB1735D Miroir
100
AcDbLine
 10
485.423560764538
 20
40.50500735568974
 30
0.0
 11
485.4234719080159
 21
40.7999908715974
 31
0.0
  0
ARC
  5
133
330
1F
100
AcDbEntity
  8
TERRACE$EB1735D Miroir
100
AcDbCircle
 10
485.4235573871188
 20
40.80001238229623
 30
0.0
 40
0.3000125236036626
100
AcDbArc
 50
225.7212044706218
 51
270.0006492458513
  0
LINE
  5
134
330
1F
100
AcDbEntity
  8
TERRACE$EB1735D Miroir
100
AcDbLine
 10
534.5765280915602
 20
40.79999087159376
 30
0.0
 11
534.5764294356622
 21
40.49999985891554
 31
0.0
  0
LINE
  5
135
330
1F
100
AcDbEntity
  8
TERRACE$EB1735D Miroir
100
AcDbLine
 10
534.7824086243602
 20
40.58880360187709
 30
0.0
 11
534.5765280915602
 21
40.79999087159376
 31
0.0
  0
ARC
  5
136
330
1F
100
AcDbEntity
  8
TERRACE$EB1735D Miroir
100
AcDbCircle
 10
534.5764426120958
 20
40.8000123829423
 30
0.0
 40
0.3000125243161069
100
AcDbArc
 50
269.9974835916198
 51
314.2787954931682
  0
LINE
  5
137
330
1F
100
AcDbEntity
  8
TERRACE$EB1735D Miroir
100
AcDbLine
 10
534.5765370820473
 20
91.20000884623369
 30
0.0
 11
534.7858964663474
 21
91.41478164972432
 31
0.0
  0
LINE
  5
138
330
1F
100
AcDbEntity
  8
TERRACE$EB1735D Miroir
100
AcDbLine
 10
534.5764339241632
 20
91.49450901325326
 30
0.0
 11
534.5765370820473
 21
91.20000884623369
 31
0.0
  0
ARC
  5
139
330
1F
100
AcDbEntity
  8
TERRACE$EB1735D Miroir
100
AcDbCircle
 10
534.5764339539414
 20
91.19996605365142
 30
0.0
 40
0.3000338054606162
100
AcDbArc
 50
45.72285800823581
 51
89.99999735804963
  0
LINE
  5
13A
330
1F
100
AcDbEntity
  8
TERRACE$EB1735D Miroir
100
AcDbLine
 10
29.69999999999982
 20
684.7000000000044
 30
0.0
 11
29.69999999999982
 21
0.3000000000029104
 31
0.0
  0
LINE
  5
13B
330
1F
100
AcDbEntity
  8
TERRACE$EB1735D Miroir
100
AcDbLine
 10
30.0
 20
684.7000000000044
 30
0.0
 11
30.0
 21
0.3000000000029104
 31
0.0
  0
LINE
  5
13C
330
1F
100
AcDbEntity
  8
TERRACE$EB1735D Miroir
100
AcDbLine
 10
0.2999999999992724
 20
0.3000000000029104
 30
0.0
 11
0.2999999999992724
 21
684.7000000000007
 31
0.0
  0
LINE
  5
13D
330
1F
100
AcDbEntity
  8
TERRACE$EB1735D Miroir
100
AcDbLine
 10
0.0
 20
0.3000000000029104
 30
0.0
 11
0.0
 21
684.7000000000044
 31
0.0
  0
LINE
  5
13E
330
1F
100
AcDbEntity
  8
TERRACE$EB1735D Miroir
100
AcDbLine
 10
29.69999999999982
 20
0.0
 30
0.0
 11
0.2999999999992724
 21
0.0
 31
0.0
  0
LINE
  5
13F
330
1F
100
AcDbEntity
  8
TERRACE$EB1735D Miroir
100
AcDbLine
 10
29.69999999999982
 20
0.3000000000029104
 30
0.0
 11
0.2999999999992724
 21
0.3000000000029104
 31
0.0
  0
LINE
  5
140
330
1F
100
AcDbEntity
  8
TERRACE$EB1735D Miroir
100
AcDbLine
 10
29.69999999999982
 20
685.0
 30
0.0
 11
0.2999999999992724
 21
685.0
 31
0.0
  0
LINE
  5
141
330
1F
100
AcDbEntity
  8
TERRACE$EB1735D Miroir
100
AcDbLine
 10
29.69999999999982
 20
684.7000000000044
 30
0.0
 11
0.2999999999992724
 21
684.7000000000007
 31
0.0
  0
LINE
  5
142
330
1F
100
AcDbEntity
  8
TERRACE$EB1735D Miroir
100
AcDbLine
 10
30.0
 20
684.7000000000044
 30
0.0
 11
29.69999999999982
 21
684.7000000000044
 31
0.0
  0
LINE
  5
143
330
1F
100
AcDbEntity
  8
TERRACE$EB1735D Miroir
100
AcDbLine
 10
29.69999999999982
 20
685.0
 30
0.0
 11
29.69999999999982
 21
684.7000000000044
 31
0.0
  0
ARC
  5
144
330
1F
100
AcDbEntity
  8
TERRACE$EB1735D Miroir
100
AcDbCircle
 10
29.700000000004
 20
684.700000000004
 30
0.0
 40
0.2999999999960039
100
AcDbArc
 50
0.0000000000651378
 51
90.00000000079794
  0
ARC
  5
145
330
1F
100
AcDbEntity
  8
TERRACE$EB1735D Miroir
100
AcDbCircle
 10
29.69999999999609
 20
0.3000000000039122
 30
0.0
 40
0.3000000000039122
100
AcDbArc
 50
270.0000000007124
 51
359.9999999998087
  0
LINE
  5
146
330
1F
100
AcDbEntity
  8
TERRACE$EB1735D Miroir
100
AcDbLine
 10
29.69999999999982
 20
0.0
 30
0.0
 11
29.69999999999982
 21
0.3000000000029104
 31
0.0
  0
LINE
  5
147
330
1F
100
AcDbEntity
  8
TERRACE$EB1735D Miroir
100
AcDbLine
 10
30.0
 20
0.3000000000029104
 30
0.0
 11
29.69999999999982
 21
0.3000000000029104
 31
0.0
  0
LINE
  5
148
330
1F
100
AcDbEntity
  8
TERRACE$EB1735D Miroir
100
AcDbLine
 10
0.2999999999992724
 20
0.3000000000029104
 30
0.0
 11
0.0
 21
0.3000000000029104
 31
0.0
  0
LINE
  5
149
330
1F
100
AcDbEntity
  8
TERRACE$EB1735D Miroir
100
AcDbLine
 10
0.2999999999738066
 20
0.0050083894748241
 30
0.0
 11
0.2999999999992724
 21
0.3000000000029104
 31
0.0
  0
ARC
  5
14A
330
1F
100
AcDbEntity
  8
TERRACE$EB1735D Miroir
100
AcDbCircle
 10
0.3000000000020245
 20
0.3000000000020245
 30
0.0
 40
0.3000000000020245
100
AcDbArc
 50
179.9999999998308
 51
269.9999999994744
  0
ARC
  5
14B
330
1F
100
AcDbEntity
  8
TERRACE$EB1735D Miroir
100
AcDbCircle
 10
0.2999999999993292
 20
684.7000000000007
 30
0.0
 40
0.2999999999992724
100
AcDbArc
 50
90.00000000001087
 51
180.0
  0
LINE
  5
14C
330
1F
100
AcDbEntity
  8
TERRACE$EB1735D Miroir
100
AcDbLine
 10
0.2999999999992724
 20
684.7000000000007
 30
0.0
 11
0.2999999999992724
 21
685.0
 31
0.0
  0
LINE
  5
14D
330
1F
100
AcDbEntity
  8
TERRACE$EB1735D Miroir
100
AcDbLine
 10
0.2999999999992724
 20
684.7000000000007
 30
0.0
 11
0.0000000000009095
 21
684.7000000000044
 31
0.0
  0
LINE
  5
14E
330
1F
100
AcDbEntity
  8
TERRACE$EB1735D Miroir
100
AcDbLine
 10
599.6999999999998
 20
12.30000000000291
 30
0.0
 11
599.6999999999998
 21
119.7000000000007
 31
0.0
  0
LINE
  5
14F
330
1F
100
AcDbEntity
  8
TERRACE$EB1735D Miroir
100
AcDbLine
 10
600.0
 20
12.30000000000291
 30
0.0
 11
600.0
 21
119.7000000000007
 31
0.0
  0
LINE
  5
150
330
1F
100
AcDbEntity
  8
TERRACE$EB1735D Miroir
100
AcDbLine
 10
420.2999999999993
 20
12.30000000000291
 30
0.0
 11
599.6999999999998
 21
12.30000000000291
 31
0.0
  0
LINE
  5
151
330
1F
100
AcDbEntity
  8
TERRACE$EB1735D Miroir
100
AcDbLine
 10
420.2999999999993
 20
119.7000000000044
 30
0.0
 11
599.6999999999998
 21
119.7000000000007
 31
0.0
  0
LINE
  5
152
330
1F
100
AcDbEntity
  8
TERRACE$EB1735D Miroir
100
AcDbLine
 10
420.2999999999993
 20
119.7000000000044
 30
0.0
 11
420.2999999999993
 21
12.30000000000291
 31
0.0
  0
ARC
  5
153
330
1F
100
AcDbEntity
  8
TERRACE$EB1735D Miroir
100
AcDbCircle
 10
599.6999999999955
 20
12.30000000000459
 30
0.0
 40
0.3000000000045873
100
AcDbArc
 50
270.0000000008251
 51
359.9999999996798
  0
LINE
  5
154
330
1F
100
AcDbEntity
  8
TERRACE$EB1735D Miroir
100
AcDbLine
 10
599.6999999999998
 20
12.0
 30
0.0
 11
599.6999999999998
 21
12.30000000000291
 31
0.0
  0
LINE
  5
155
330
1F
100
AcDbEntity
  8
TERRACE$EB1735D Miroir
100
AcDbLine
 10
599.6999999999998
 20
12.30000000000291
 30
0.0
 11
600.0
 21
12.30000000000291
 31
0.0
  0
ARC
  5
156
330
1F
100
AcDbEntity
  8
TERRACE$EB1735D Miroir
100
AcDbCircle
 10
420.3000000000031
 20
12.30000000000223
 30
0.0
 40
0.3000000000031378
100
AcDbArc
 50
179.9999999998697
 51
259.5158770183118
  0
LINE
  5
157
330
1F
100
AcDbEntity
  8
TERRACE$EB1735D Miroir
100
AcDbLine
 10
420.0
 20
12.30000000000291
 30
0.0
 11
420.2999999999993
 21
12.30000000000291
 31
0.0
  0
LINE
  5
158
330
1F
100
AcDbEntity
  8
TERRACE$EB1735D Miroir
100
AcDbLine
 10
420.2999999999993
 20
12.30000000000291
 30
0.0
 11
420.2999999999993
 21
12.0
 31
0.0
  0
LINE
  5
159
330
1F
100
AcDbEntity
  8
TERRACE$EB1735D Miroir
100
AcDbLine
 10
600.0
 20
119.7000000000007
 30
0.0
 11
599.6999999999998
 21
119.7000000000007
 31
0.0
  0
LINE
  5
15A
330
1F
100
AcDbEntity
  8
TERRACE$EB1735D Miroir
100
AcDbLine
 10
599.7000000000207
 20
119.9949916105252
 30
0.0
 11
599.6999999999998
 21
119.7000000000007
 31
0.0
  0
ARC
  5
15B
330
1F
100
AcDbEntity
  8
TERRACE$EB1735D Miroir
100
AcDbCircle
 10
599.7000000000006
 20
119.7000000000006
 30
0.0
 40
0.2999999999993861
100
AcDbArc
 50
0.0000000000271407
 51
90.000000000152
  0
ARC
  5
15C
330
1F
100
AcDbEntity
  8
TERRACE$EB1735D Miroir
100
AcDbCircle
 10
420.2999999999993
 20
119.7000000000007
 30
0.0
 40
0.2999999999992724
100
AcDbArc
 50
89.99999999983716
 51
180.0
  0
LINE
  5
15D
330
1F
100
AcDbEntity
  8
TERRACE$EB1735D Miroir
100
AcDbLine
 10
420.2999999999993
 20
120.0
 30
0.0
 11
420.2999999999993
 21
119.7000000000044
 31
0.0
  0
LINE
  5
15E
330
1F
100
AcDbEntity
  8
TERRACE$EB1735D Miroir
100
AcDbLine
 10
420.2999999999993
 20
119.7000000000044
 30
0.0
 11
420.0000000000009
 21
119.7000000000007
 31
0.0
  0
ENDSEC
  0
SECTION
  2
OBJECTS
  0
DICTIONARY
  5
C
330
0
100
AcDbDictionary
281
     1
  3
ACAD_GROUP
350
D
  3
ACAD_LAYOUT
350
1A
  3
ACAD_MATERIAL
350
3B
  3
ACAD_MLEADERSTYLE
350
189
  3
ACAD_MLINESTYLE
350
17
  3
ACAD_PLOTSETTINGS
350
19
  3
ACAD_PLOTSTYLENAME
350
E
  3
ACAD_SCALELIST
350
3F
  3
ACAD_TABLESTYLE
350
188
  3
ACAD_VISUALSTYLE
350
2A
  3
AcDbVariableDictionary
350
15F
  0
DICTIONARY
  5
D
102
{ACAD_REACTORS
330
C
102
}
330
C
100
AcDbDictionary
281
     1
  0
DICTIONARY
  5
1A
102
{ACAD_REACTORS
330
C
102
}
330
C
100
AcDbDictionary
281
     1
  3
Layout1
350
1E
  3
Layout2
350
26
  3
Model
350
22
  0
DICTIONARY
  5
3B
102
{ACAD_REACTORS
330
C
102
}
330
C
100
AcDbDictionary
281
     1
  3
ByBlock
350
3D
  3
ByLayer
350
3C
  3
Global
350
3E
  0
DICTIONARY
  5
189
102
{ACAD_REACTORS
330
C
102
}
330
C
100
AcDbDictionary
281
     1
  0
DICTIONARY
  5
17
102
{ACAD_REACTORS
330
C
102
}
330
C
100
AcDbDictionary
281
     1
  3
Standard
350
18
  0
DICTIONARY
  5
19
102
{ACAD_REACTORS
330
C
102
}
330
C
100
AcDbDictionary
281
     1
  0
ACDBDICTIONARYWDFLT
  5
E
102
{ACAD_REACTORS
330
C
102
}
330
C
100
AcDbDictionary
281
     1
  3
Normal
350
F
100
AcDbDictionaryWithDefault
340
F
  0
DICTIONARY
  5
3F
102
{ACAD_REACTORS
330
C
102
}
330
C
100
AcDbDictionary
281
     1
  3
A0
350
40
  3
A1
350
41
  3
A2
350
42
  3
A3
350
43
  3
A4
350
44
  3
A5
350
45
  3
A6
350
46
  3
A7
350
47
  3
A8
350
48
  3
A9
350
49
  3
B0
350
4A
  3
B1
350
4B
  3
B2
350
4C
  3
B3
350
4D
  3
B4
350
4E
  3
B5
350
4F
  3
B6
350
50
  3
B7
350
51
  3
B8
350
52
  3
B9
350
53
  3
C0
350
54
  3
C1
350
55
  3
C2
350
56
  3
C3
350
57
  3
C4
350
58
  3
C5
350
59
  3
C6
350
5A
  3
C7
350
5B
  3
C8
350
5C
  3
C9
350
5D
  3
D0
350
5E
  3
D1
350
5F
  3
D2
350
60
  0
DICTIONARY
  5
188
102
{ACAD_REACTORS
330
C
102
}
330
C
100
AcDbDictionary
281
     1
  0
DICTIONARY
  5
2A
102
{ACAD_REACTORS
330
C
102
}
330
C
100
AcDbDictionary
281
     1
  3
2dWireframe
350
2F
  3
3D Hidden
350
31
  3
3dWireframe
350
30
  3
Basic
350
32
  3
Brighten
350
36
  3
ColorChange
350
3A
  3
Conceptual
350
34
  3
Dim
350
35
  3
Facepattern
350
39
  3
Flat
350
2B
  3
FlatWithEdges
350
2C
  3
Gouraud
350
2D
  3
GouraudWithEdges
350
2E
  3
Linepattern
350
38
  3
Realistic
350
33
  3
Thicken
350
37
  0
DICTIONARY
  5
15F
102
{ACAD_REACTORS
330
C
102
}
330
C
100
AcDbDictionary
281
     1
  3
CANNOSCALE
350
160
  3
MSLTSCALE
350
161
  0
LAYOUT
  5
1E
102
{ACAD_REACTORS
330
1A
102
}
330
1A
100
AcDbPlotSettings
  1

  2
none_device
  4

  6

 40
0.0
 41
0.0
 42
0.0
 43
0.0
 44
0.0
 45
0.0
 46
0.0
 47
0.0
 48
0.0
 49
0.0
140
0.0
141
0.0
142
1.0
143
1.0
 70
   688
 72
     0
 73
     0
 74
     5
  7

 75
    16
 76
     0
 77
     2
 78
   300
147
1.0
148
0.0
149
0.0
100
AcDbLayout
  1
Layout1
 70
     1
 71
     1
 10
0.0
 20
0.0
 11
12.0
 21
9.0
 12
0.0
 22
0.0
 32
0.0
 14
1.000000000000000E+20
 24
1.000000000000000E+20
 34
1.000000000000000E+20
 15
-1.000000000000000E+20
 25
-1.000000000000000E+20
 35
-1.000000000000000E+20
146
0.0
 13
0.0
 23
0.0
 33
0.0
 16
1.0
 26
0.0
 36
0.0
 17
0.0
 27
1.0
 37
0.0
 76
     0
330
1B
  0
LAYOUT
  5
26
102
{ACAD_REACTORS
330
1A
102
}
330
1A
100
AcDbPlotSettings
  1

  2
none_device
  4

  6

 40
0.0
 41
0.0
 42
0.0
 43
0.0
 44
0.0
 45
0.0
 46
0.0
 47
0.0
 48
0.0
 49
0.0
140
0.0
141
0.0
142
1.0
143
1.0
 70
   688
 72
     0
 73
     0
 74
     5
  7

 75
    16
 76
     0
 77
     2
 78
   300
147
1.0
148
0.0
149
0.0
100
AcDbLayout
  1
Layout2
 70
     1
 71
     2
 10
0.0
 20
0.0
 11
0.0
 21
0.0
 12
0.0
 22
0.0
 32
0.0
 14
0.0
 24
0.0
 34
0.0
 15
0.0
 25
0.0
 35
0.0
146
0.0
 13
0.0
 23
0.0
 33
0.0
 16
1.0
 26
0.0
 36
0.0
 17
0.0
 27
1.0
 37
0.0
 76
     0
330
23
  0
LAYOUT
  5
22
102
{ACAD_REACTORS
330
1A
102
}
330
1A
100
AcDbPlotSettings
  1

  2
none_device
  4
Letter_(8.50_x_11.00_Inches)
  6

 40
6.35
 41
6.35
 42
6.35000508
 43
6.35000508
 44
215.9
 45
279.4
 46
0.0
 47
0.0
 48
0.0
 49
0.0
140
0.0
141
0.0
142
1.0
143
1.0
 70
  1712
 72
     0
 73
     0
 74
     0
  7

 75
     0
 76
     0
 77
     2
 78
   300
147
1.0
148
0.0
149
0.0
100
AcDbLayout
  1
Model
 70
     1
 71
     0
 10
0.0
 20
0.0
 11
12.0
 21
9.0
 12
0.0
 22
0.0
 32
0.0
 14
0.0
 24
-0.0000000000000284
 34
0.0
 15
600.0000000000009
 25
685.0000000000001
 35
0.0
146
0.0
 13
0.0
 23
0.0
 33
0.0
 16
1.0
 26
0.0
 36
0.0
 17
0.0
 27
1.0
 37
0.0
 76
     0
330
1F
331
29
  0
MATERIAL
  5
3D
102
{ACAD_REACTORS
330
3B
102
}
102
{ACAD_XDICTIONARY
360
184
102
}
330
3B
100
AcDbMaterial
  1
ByBlock
  0
MATERIAL
  5
3C
102
{ACAD_REACTORS
330
3B
102
}
102
{ACAD_XDICTIONARY
360
182
102
}
330
3B
100
AcDbMaterial
  1
ByLayer
  0
MATERIAL
  5
3E
102
{ACAD_REACTORS
330
3B
102
}
102
{ACAD_XDICTIONARY
360
186
102
}
330
3B
100
AcDbMaterial
  1
Global
  0
MLINESTYLE
  5
18
102
{ACAD_REACTORS
330
17
102
}
330
17
100
AcDbMlineStyle
  2
Standard
 70
     0
  3

 62
   256
 51
90.0
 52
90.0
 71
     2
 49
0.5
 62
   256
  6
BYLAYER
 49
-0.5
 62
   256
  6
BYLAYER
  0
ACDBPLACEHOLDER
  5
F
102
{ACAD_REACTORS
330
E
102
}
330
E
  0
SCALE
  5
40
102
{ACAD_REACTORS
330
3F
102
}
330
3F
100
AcDbScale
 70
     0
300
1:1
140
1.0
141
1.0
290
     1
  0
SCALE
  5
41
102
{ACAD_REACTORS
330
3F
102
}
330
3F
100
AcDbScale
 70
     0
300
1:2
140
1.0
141
2.0
290
     0
  0
SCALE
  5
42
102
{ACAD_REACTORS
330
3F
102
}
330
3F
100
AcDbScale
 70
     0
300
1:4
140
1.0
141
4.0
290
     0
  0
SCALE
  5
43
102
{ACAD_REACTORS
330
3F
102
}
330
3F
100
AcDbScale
 70
     0
300
1:5
140
1.0
141
5.0
290
     0
  0
SCALE
  5
44
102
{ACAD_REACTORS
330
3F
102
}
330
3F
100
AcDbScale
 70
     0
300
1:8
140
1.0
141
8.0
290
     0
  0
SCALE
  5
45
102
{ACAD_REACTORS
330
3F
102
}
330
3F
100
AcDbScale
 70
     0
300
1:10
140
1.0
141
10.0
290
     0
  0
SCALE
  5
46
102
{ACAD_REACTORS
330
3F
102
}
330
3F
100
AcDbScale
 70
     0
300
1:16
140
1.0
141
16.0
290
     0
  0
SCALE
  5
47
102
{ACAD_REACTORS
330
3F
102
}
330
3F
100
AcDbScale
 70
     0
300
1:20
140
1.0
141
20.0
290
     0
  0
SCALE
  5
48
102
{ACAD_REACTORS
330
3F
102
}
330
3F
100
AcDbScale
 70
     0
300
1:30
140
1.0
141
30.0
290
     0
  0
SCALE
  5
49
102
{ACAD_REACTORS
330
3F
102
}
330
3F
100
AcDbScale
 70
     0
300
1:40
140
1.0
141
40.0
290
     0
  0
SCALE
  5
4A
102
{ACAD_REACTORS
330
3F
102
}
330
3F
100
AcDbScale
 70
     0
300
1:50
140
1.0
141
50.0
290
     0
  0
SCALE
  5
4B
102
{ACAD_REACTORS
330
3F
102
}
330
3F
100
AcDbScale
 70
     0
300
1:100
140
1.0
141
100.0
290
     0
  0
SCALE
  5
4C
102
{ACAD_REACTORS
330
3F
102
}
330
3F
100
AcDbScale
 70
     0
300
2:1
140
2.0
141
1.0
290
     0
  0
SCALE
  5
4D
102
{ACAD_REACTORS
330
3F
102
}
330
3F
100
AcDbScale
 70
     0
300
4:1
140
4.0
141
1.0
290
     0
  0
SCALE
  5
4E
102
{ACAD_REACTORS
330
3F
102
}
330
3F
100
AcDbScale
 70
     0
300
8:1
140
8.0
141
1.0
290
     0
  0
SCALE
  5
4F
102
{ACAD_REACTORS
330
3F
102
}
330
3F
100
AcDbScale
 70
     0
300
10:1
140
10.0
141
1.0
290
     0
  0
SCALE
  5
50
102
{ACAD_REACTORS
330
3F
102
}
330
3F
100
AcDbScale
 70
     0
300
100:1
140
100.0
141
1.0
290
     0
  0
SCALE
  5
51
102
{ACAD_REACTORS
330
3F
102
}
330
3F
100
AcDbScale
 70
     0
300
1/128" = 1'-0"
140
0.0078125
141
12.0
290
     0
  0
SCALE
  5
52
102
{ACAD_REACTORS
330
3F
102
}
330
3F
100
AcDbScale
 70
     0
300
1/64" = 1'-0"
140
0.015625
141
12.0
290
     0
  0
SCALE
  5
53
102
{ACAD_REACTORS
330
3F
102
}
330
3F
100
AcDbScale
 70
     0
300
1/32" = 1'-0"
140
0.03125
141
12.0
290
     0
  0
SCALE
  5
54
102
{ACAD_REACTORS
330
3F
102
}
330
3F
100
AcDbScale
 70
     0
300
1/16" = 1'-0"
140
0.0625
141
12.0
290
     0
  0
SCALE
  5
55
102
{ACAD_REACTORS
330
3F
102
}
330
3F
100
AcDbScale
 70
     0
300
3/32" = 1'-0"
140
0.09375
141
12.0
290
     0
  0
SCALE
  5
56
102
{ACAD_REACTORS
330
3F
102
}
330
3F
100
AcDbScale
 70
     0
300
1/8" = 1'-0"
140
0.125
141
12.0
290
     0
  0
SCALE
  5
57
102
{ACAD_REACTORS
330
3F
102
}
330
3F
100
AcDbScale
 70
     0
300
3/16" = 1'-0"
140
0.1875
141
12.0
290
     0
  0
SCALE
  5
58
102
{ACAD_REACTORS
330
3F
102
}
330
3F
100
AcDbScale
 70
     0
300
1/4" = 1'-0"
140
0.25
141
12.0
290
     0
  0
SCALE
  5
59
102
{ACAD_REACTORS
330
3F
102
}
330
3F
100
AcDbScale
 70
     0
300
3/8" = 1'-0"
140
0.375
141
12.0
290
     0
  0
SCALE
  5
5A
102
{ACAD_REACTORS
330
3F
102
}
330
3F
100
AcDbScale
 70
     0
300
1/2" = 1'-0"
140
0.5
141
12.0
290
     0
  0
SCALE
  5
5B
102
{ACAD_REACTORS
330
3F
102
}
330
3F
100
AcDbScale
 70
     0
300
3/4" = 1'-0"
140
0.75
141
12.0
290
     0
  0
SCALE
  5
5C
102
{ACAD_REACTORS
330
3F
102
}
330
3F
100
AcDbScale
 70
     0
300
1" = 1'-0"
140
1.0
141
12.0
290
     0
  0
SCALE
  5
5D
102
{ACAD_REACTORS
330
3F
102
}
330
3F
100
AcDbScale
 70
     0
300
1-1/2" = 1'-0"
140
1.5
141
12.0
290
     0
  0
SCALE
  5
5E
102
{ACAD_REACTORS
330
3F
102
}
330
3F
100
AcDbScale
 70
     0
300
3" = 1'-0"
140
3.0
141
12.0
290
     0
  0
SCALE
  5
5F
102
{ACAD_REACTORS
330
3F
102
}
330
3F
100
AcDbScale
 70
     0
300
6" = 1'-0"
140
6.0
141
12.0
290
     0
  0
SCALE
  5
60
102
{ACAD_REACTORS
330
3F
102
}
330
3F
100
AcDbScale
 70
     0
300
1'-0" = 1'-0"
140
12.0
141
12.0
290
     0
  0
VISUALSTYLE
  5
2F
102
{ACAD_REACTORS
330
2A
102
}
102
{ACAD_XDICTIONARY
360
16A
102
}
330
2A
100
AcDbVisualStyle
  2
2dWireframe
 70
     4
 71
     0
 72
     2
 73
     0
 90
        0
 40
0.6
 41
30.0
 62
     5
 63
     7
421
 16777215
 74
     1
 91
        4
 64
     7
 65
   257
 75
     1
175
     1
 42
1.0
 92
        0
 66
   257
 43
1.0
 76
     1
 77
     6
 78
     2
 67
     7
 79
     5
170
     0
171
     0
290
     0
174
     0
 93
        1
 44
0.0
173
     0
291
     0
 45
0.0
1001
ACAD
1000
AcDbSavedByObjectVersion
1070
     0
  0
VISUALSTYLE
  5
31
102
{ACAD_REACTORS
330
2A
102
}
102
{ACAD_XDICTIONARY
360
16E
102
}
330
2A
100
AcDbVisualStyle
  2
3D Hidden
 70
     6
 71
     1
 72
     2
 73
     2
 90
        0
 40
0.6
 41
30.0
 62
     5
 63
     7
421
 16777215
 74
     2
 91
        2
 64
     7
 65
   257
 75
     2
175
     1
 42
40.0
 92
        0
 66
   257
 43
1.0
 76
     1
 77
     6
 78
     2
 67
     7
 79
     3
170
     0
171
     0
290
     0
174
     0
 93
        1
 44
0.0
173
     0
291
     0
 45
0.0
1001
ACAD
1000
AcDbSavedByObjectVersion
1070
     0
  0
VISUALSTYLE
  5
30
102
{ACAD_REACTORS
330
2A
102
}
102
{ACAD_XDICTIONARY
360
16C
102
}
330
2A
100
AcDbVisualStyle
  2
3dWireframe
 70
     5
 71
     0
 72
     2
 73
     0
 90
        0
 40
0.6
 41
30.0
 62
     5
 63
     7
421
 16777215
 74
     1
 91
        4
 64
     7
 65
   257
 75
     1
175
     1
 42
1.0
 92
        0
 66
   257
 43
1.0
 76
     1
 77
     6
 78
     2
 67
     7
 79
     5
170
     0
171
     0
290
     0
174
     0
 93
        1
 44
0.0
173
     0
291
     0
 45
0.0
1001
ACAD
1000
AcDbSavedByObjectVersion
1070
     0
  0
VISUALSTYLE
  5
32
102
{ACAD_REACTORS
330
2A
102
}
102
{ACAD_XDICTIONARY
360
170
102
}
330
2A
100
AcDbVisualStyle
  2
Basic
 70
     7
 71
     1
 72
     0
 73
     1
 90
        0
 40
0.6
 41
30.0
 62
     5
 63
     7
421
 16777215
 74
     0
 91
        4
 64
     7
 65
   257
 75
     1
175
     1
 42
1.0
 92
        8
 66
     7
 43
1.0
 76
     1
 77
     6
 78
     2
 67
     7
 79
     5
170
     0
171
     0
290
     0
174
     0
 93
        1
 44
0.0
173
     0
291
     1
 45
0.0
1001
ACAD
1000
AcDbSavedByObjectVersion
1070
     0
  0
VISUALSTYLE
  5
36
102
{ACAD_REACTORS
330
2A
102
}
102
{ACAD_XDICTIONARY
360
178
102
}
330
2A
100
AcDbVisualStyle
  2
Brighten
 70
    12
 71
     2
 72
     2
 73
     0
 90
        0
 40
0.6
 41
30.0
 62
     5
 63
     7
421
 16777215
 74
     1
 91
        4
 64
     7
 65
   257
 75
     1
175
     1
 42
1.0
 92
        8
 66
     7
 43
1.0
 76
     1
 77
     6
 78
     2
 67
     7
 79
     5
170
     0
171
     0
290
     0
174
     0
 93
        1
 44
50.0
173
     0
291
     1
 45
0.0
1001
ACAD
1000
AcDbSavedByObjectVersion
1070
     0
  0
VISUALSTYLE
  5
3A
102
{ACAD_REACTORS
330
2A
102
}
102
{ACAD_XDICTIONARY
360
180
102
}
330
2A
100
AcDbVisualStyle
  2
ColorChange
 70
    16
 71
     2
 72
     2
 73
     3
 90
        0
 40
0.6
 41
30.0
 62
     5
 63
     8
421
  8421504
 74
     1
 91
        4
 64
     7
 65
   257
 75
     1
175
     1
 42
1.0
 92
        8
 66
     8
424
  8421504
 43
1.0
 76
     1
 77
     6
 78
     2
 67
     7
 79
     5
170
     0
171
     0
290
     0
174
     0
 93
        1
 44
0.0
173
     0
291
     1
 45
0.0
1001
ACAD
1000
AcDbSavedByObjectVersion
1070
     0
  0
VISUALSTYLE
  5
34
102
{ACAD_REACTORS
330
2A
102
}
102
{ACAD_XDICTIONARY
360
174
102
}
330
2A
100
AcDbVisualStyle
  2
Conceptual
 70
     9
 71
     3
 72
     2
 73
     0
 90
        0
 40
0.6
 41
30.0
 62
     5
 63
     7
421
 16777215
 74
     2
 91
        2
 64
     7
 65
   257
 75
     1
175
     1
 42
40.0
 92
        8
 66
     7
 43
1.0
 76
     1
 77
     6
 78
     2
 67
     7
 79
     3
170
     0
171
     0
290
     0
174
     0
 93
        1
 44
0.0
173
     0
291
     0
 45
0.0
1001
ACAD
1000
AcDbSavedByObjectVersion
1070
     0
  0
VISUALSTYLE
  5
35
102
{ACAD_REACTORS
330
2A
102
}
102
{ACAD_XDICTIONARY
360
176
102
}
330
2A
100
AcDbVisualStyle
  2
Dim
 70
    11
 71
     2
 72
     2
 73
     0
 90
        0
 40
0.6
 41
30.0
 62
     5
 63
     7
421
 16777215
 74
     1
 91
        4
 64
     7
 65
   257
 75
     1
175
     1
 42
1.0
 92
        8
 66
     7
 43
1.0
 76
     1
 77
     6
 78
     2
 67
     7
 79
     5
170
     0
171
     0
290
     0
174
     0
 93
        1
 44
-50.0
173
     0
291
     1
 45
0.0
1001
ACAD
1000
AcDbSavedByObjectVersion
1070
     0
  0
VISUALSTYLE
  5
39
102
{ACAD_REACTORS
330
2A
102
}
102
{ACAD_XDICTIONARY
360
17E
102
}
330
2A
100
AcDbVisualStyle
  2
Facepattern
 70
    15
 71
     2
 72
     2
 73
     0
 90
        0
 40
0.6
 41
30.0
 62
     5
 63
     7
421
 16777215
 74
     1
 91
        4
 64
     7
 65
   257
 75
     1
175
     1
 42
1.0
 92
        8
 66
     7
 43
1.0
 76
     1
 77
     6
 78
     2
 67
     7
 79
     5
170
     0
171
     0
290
     0
174
     0
 93
        1
 44
0.0
173
     0
291
     1
 45
0.0
1001
ACAD
1000
AcDbSavedByObjectVersion
1070
     0
  0
VISUALSTYLE
  5
2B
102
{ACAD_REACTORS
330
2A
102
}
102
{ACAD_XDICTIONARY
360
162
102
}
330
2A
100
AcDbVisualStyle
  2
Flat
 70
     0
 71
     2
 72
     1
 73
     1
 90
        2
 40
0.6
 41
30.0
 62
     5
 63
     7
421
 16777215
 74
     0
 91
        4
 64
     7
 65
   257
 75
     1
175
     1
 42
1.0
 92
        8
 66
     7
 43
1.0
 76
     1
 77
     6
 78
     2
 67
     7
 79
     5
170
     0
171
     0
290
     0
174
     0
 93
       13
 44
0.0
173
     0
291
     1
 45
0.0
1001
ACAD
1000
AcDbSavedByObjectVersion
1070
     0
  0
VISUALSTYLE
  5
2C
102
{ACAD_REACTORS
330
2A
102
}
102
{ACAD_XDICTIONARY
360
164
102
}
330
2A
100
AcDbVisualStyle
  2
FlatWithEdges
 70
     1
 71
     2
 72
     1
 73
     1
 90
        2
 40
0.6
 41
30.0
 62
     5
 63
     7
421
 16777215
 74
     1
 91
        4
 64
     7
 65
   257
 75
     1
175
     1
 42
1.0
 92
        0
 66
   257
 43
1.0
 76
     1
 77
     6
 78
     2
 67
     7
 79
     5
170
     0
171
     0
290
     0
174
     0
 93
       13
 44
0.0
173
     0
291
     1
 45
0.0
1001
ACAD
1000
AcDbSavedByObjectVersion
1070
     0
  0
VISUALSTYLE
  5
2D
102
{ACAD_REACTORS
330
2A
102
}
102
{ACAD_XDICTIONARY
360
166
102
}
330
2A
100
AcDbVisualStyle
  2
Gouraud
 70
     2
 71
     2
 72
     2
 73
     1
 90
        2
 40
0.6
 41
30.0
 62
     5
 63
     7
421
 16777215
 74
     0
 91
        4
 64
     7
 65
   257
 75
     1
175
     1
 42
1.0
 92
        0
 66
     7
 43
1.0
 76
     1
 77
     6
 78
     2
 67
     7
 79
     5
170
     0
171
     0
290
     0
174
     0
 93
       13
 44
0.0
173
     0
291
     1
 45
0.0
1001
ACAD
1000
AcDbSavedByObjectVersion
1070
     0
  0
VISUALSTYLE
  5
2E
102
{ACAD_REACTORS
330
2A
102
}
102
{ACAD_XDICTIONARY
360
168
102
}
330
2A
100
AcDbVisualStyle
  2
GouraudWithEdges
 70
     3
 71
     2
 72
     2
 73
     1
 90
        2
 40
0.6
 41
30.0
 62
     5
 63
     7
421
 16777215
 74
     1
 91
        4
 64
     7
 65
   257
 75
     1
175
     1
 42
1.0
 92
        0
 66
   257
 43
1.0
 76
     1
 77
     6
 78
     2
 67
     7
 79
     5
170
     0
171
     0
290
     0
174
     0
 93
       13
 44
0.0
173
     0
291
     1
 45
0.0
1001
ACAD
1000
AcDbSavedByObjectVersion
1070
     0
  0
VISUALSTYLE
  5
38
102
{ACAD_REACTORS
330
2A
102
}
102
{ACAD_XDICTIONARY
360
17C
102
}
330
2A
100
AcDbVisualStyle
  2
Linepattern
 70
    14
 71
     2
 72
     2
 73
     0
 90
        0
 40
0.6
 41
30.0
 62
     5
 63
     7
421
 16777215
 74
     1
 91
        4
 64
     7
 65
   257
 75
     7
175
     7
 42
1.0
 92
        8
 66
     7
 43
1.0
 76
     1
 77
     6
 78
     2
 67
     7
 79
     5
170
     0
171
     0
290
     0
174
     0
 93
        1
 44
0.0
173
     0
291
     1
 45
0.0
1001
ACAD
1000
AcDbSavedByObjectVersion
1070
     0
  0
VISUALSTYLE
  5
33
102
{ACAD_REACTORS
330
2A
102
}
102
{ACAD_XDICTIONARY
360
172
102
}
330
2A
100
AcDbVisualStyle
  2
Realistic
 70
     8
 71
     2
 72
     3
 73
     0
 90
        2
 40
0.6
 41
30.0
 62
     5
 63
     7
421
 16777215
 74
     0
 91
        0
 64
     7
 65
   257
 75
     1
175
     1
 42
1.0
 92
        8
 66
   257
 43
1.0
 76
     1
 77
     6
 78
     2
 67
     7
 79
     3
170
     0
171
     0
290
     0
174
     0
 93
       13
 44
0.0
173
     0
291
     0
 45
0.0
1001
ACAD
1000
AcDbSavedByObjectVersion
1070
     0
  0
VISUALSTYLE
  5
37
102
{ACAD_REACTORS
330
2A
102
}
102
{ACAD_XDICTIONARY
360
17A
102
}
330
2A
100
AcDbVisualStyle
  2
Thicken
 70
    13
 71
     2
 72
     2
 73
     0
 90
        0
 40
0.6
 41
30.0
 62
     5
 63
     7
421
 16777215
 74
     1
 91
        4
 64
     7
 65
   257
 75
     1
175
     1
 42
1.0
 92
       12
 66
     7
 43
1.0
 76
     1
 77
     6
 78
     2
 67
     7
 79
     5
170
     0
171
     0
290
     0
174
     0
 93
        1
 44
0.0
173
     0
291
     1
 45
0.0
1001
ACAD
1000
AcDbSavedByObjectVersion
1070
     0
  0
DICTIONARYVAR
  5
160
102
{ACAD_REACTORS
330
15F
102
}
330
15F
100
DictionaryVariables
280
     0
  1
1:1
  0
DICTIONARYVAR
  5
161
102
{ACAD_REACTORS
330
15F
102
}
330
15F
100
DictionaryVariables
280
     0
  1
1
  0
DICTIONARY
  5
184
330
3D
100
AcDbDictionary
280
     1
281
     1
  3
ACAD_XREC_ROUNDTRIP
360
185
  0
DICTIONARY
  5
182
330
3C
100
AcDbDictionary
280
     1
281
     1
  3
ACAD_XREC_ROUNDTRIP
360
183
  0
DICTIONARY
  5
186
330
3E
100
AcDbDictionary
280
     1
281
     1
  3
ACAD_XREC_ROUNDTRIP
360
187
  0
DICTIONARY
  5
16A
330
2F
100
AcDbDictionary
280
     1
281
     1
  3
ACAD_XREC_ROUNDTRIP
360
16B
  0
DICTIONARY
  5
16E
330
31
100
AcDbDictionary
280
     1
281
     1
  3
ACAD_XREC_ROUNDTRIP
360
16F
  0
DICTIONARY
  5
16C
330
30
100
AcDbDictionary
280
     1
281
     1
  3
ACAD_XREC_ROUNDTRIP
360
16D
  0
DICTIONARY
  5
170
330
32
100
AcDbDictionary
280
     1
281
     1
  3
ACAD_XREC_ROUNDTRIP
360
171
  0
DICTIONARY
  5
178
330
36
100
AcDbDictionary
280
     1
281
     1
  3
ACAD_XREC_ROUNDTRIP
360
179
  0
DICTIONARY
  5
180
330
3A
100
AcDbDictionary
280
     1
281
     1
  3
ACAD_XREC_ROUNDTRIP
360
181
  0
DICTIONARY
  5
174
330
34
100
AcDbDictionary
280
     1
281
     1
  3
ACAD_XREC_ROUNDTRIP
360
175
  0
DICTIONARY
  5
176
330
35
100
AcDbDictionary
280
     1
281
     1
  3
ACAD_XREC_ROUNDTRIP
360
177
  0
DICTIONARY
  5
17E
330
39
100
AcDbDictionary
280
     1
281
     1
  3
ACAD_XREC_ROUNDTRIP
360
17F
  0
DICTIONARY
  5
162
330
2B
100
AcDbDictionary
280
     1
281
     1
  3
ACAD_XREC_ROUNDTRIP
360
163
  0
DICTIONARY
  5
164
330
2C
100
AcDbDictionary
280
     1
281
     1
  3
ACAD_XREC_ROUNDTRIP
360
165
  0
DICTIONARY
  5
166
330
2D
100
AcDbDictionary
280
     1
281
     1
  3
ACAD_XREC_ROUNDTRIP
360
167
  0
DICTIONARY
  5
168
330
2E
100
AcDbDictionary
280
     1
281
     1
  3
ACAD_XREC_ROUNDTRIP
360
169
  0
DICTIONARY
  5
17C
330
38
100
AcDbDictionary
280
     1
281
     1
  3
ACAD_XREC_ROUNDTRIP
360
17D
  0
DICTIONARY
  5
172
330
33
100
AcDbDictionary
280
     1
281
     1
  3
ACAD_XREC_ROUNDTRIP
360
173
  0
DICTIONARY
  5
17A
330
37
100
AcDbDictionary
280
     1
281
     1
  3
ACAD_XREC_ROUNDTRIP
360
17B
  0
XRECORD
  5
185
102
{ACAD_REACTORS
330
184
102
}
330
184
100
AcDbXrecord
280
     1
102
MATERIAL
148
0.0
149
0.0
149
0.0
 93
        0
 94
      127
282
     0
 72
     1
 77
     1
171
     1
175
     1
179
     1
273
     0
  0
XRECORD
  5
183
102
{ACAD_REACTORS
330
182
102
}
330
182
100
AcDbXrecord
280
     1
102
MATERIAL
148
0.0
149
0.0
149
0.0
 93
        0
 94
      127
282
     0
 72
     1
 77
     1
171
     1
175
     1
179
     1
273
     0
  0
XRECORD
  5
187
102
{ACAD_REACTORS
330
186
102
}
330
186
100
AcDbXrecord
280
     1
102
MATERIAL
148
0.0
149
0.0
149
0.0
 93
        0
 94
      127
282
     0
 72
     1
 77
     1
171
     1
175
     1
179
     1
273
     0
  0
XRECORD
  5
16B
102
{ACAD_REACTORS
330
16A
102
}
330
16A
100
AcDbXrecord
280
     1
102
RTVSPropertyOp0
 70
     1
102
RTVSPropertyOp1
 70
     1
102
RTVSPropertyOp2
 70
     1
102
RTVSPropertyOp3
 70
     1
102
RTVSPropertyOp4
 70
     1
102
RTVSPropertyOp5
 70
     1
102
RTVSPropertyOp6
 70
     1
102
RTVSPropertyOp7
 70
     1
102
RTVSPropertyOp8
 70
     1
102
RTVSPropertyOp9
 70
     1
102
RTVSPropertyOp10
 70
     1
102
RTVSPropertyOp11
 70
     1
102
RTVSPropertyOp12
 70
     1
102
RTVSPropertyOp13
 70
     1
102
RTVSPropertyOp14
 70
     1
102
RTVSPropertyOp15
 70
     1
102
RTVSPropertyOp16
 70
     1
102
RTVSPropertyOp17
 70
     1
102
RTVSPropertyOp18
 70
     1
102
RTVSPropertyOp19
 70
     1
102
RTVSPropertyOp20
 70
     1
102
RTVSPropertyOp21
 70
     1
102
RTVSPropertyOp22
 70
     1
102
RTVSPropertyOp23
 70
     1
102
RTVSPropertyOp24
 70
     1
102
RTVSPropertyOp25
 70
     1
102
RTVSPropertyOp26
 70
     1
102
RTVSPropertyOp27
 70
     1
102
RTVSPropertyOp28
 70
     1
102
RTVSPropertyOp29
 70
     1
102
RTVSPropertyOp30
 70
     1
102
RTVSPropertyOp31
 70
     1
102
RTVSPropertyOp32
 70
     1
102
RTVSPropertyOp33
 70
     1
102
RTVSPropertyOp34
 70
     1
102
RTVSPropertyOp35
 70
     1
102
RTVSPropertyOp36
 70
     1
102
RTVSPropertyOp37
 70
     1
102
RTVSPropertyOp38
 70
     1
102
RTVSPropertyOp39
 70
     1
102
RTVSPropertyOp40
 70
     1
102
RTVSPropertyOp41
 70
     1
102
RTVSPropertyOp42
 70
     1
102
RTVSPropertyOp43
 70
     1
102
RTVSPropertyOp44
 70
     1
102
RTVSPropertyOp45
 70
     1
102
RTVSPropertyOp46
 70
     1
102
RTVSPropertyOp47
 70
     1
102
RTVSPropertyOp48
 70
     1
102
RTVSPropertyOp49
 70
     1
102
RTVSPropertyOp50
 70
     1
102
RTVSPropertyOp51
 70
     0
102
RTVSPropertyOp52
 70
     0
102
RTVSPropertyOp53
 70
     1
102
RTVSPropertyOp54
 70
     1
102
RTVSPropertyOp55
 70
     1
102
RTVSPropertyOp56
 70
     1
102
RTVSPropertyOp57
 70
     1
102
RTVSPost2010Prop28
280
     1
102
RTVSPost2010PropOp28
 70
     1
102
RTVSPost2010Prop29
280
     1
102
RTVSPost2010PropOp29
 70
     1
102
RTVSPost2010Prop30
280
     0
102
RTVSPost2010PropOp30
 70
     1
102
RTVSPost2010Prop31
280
     0
102
RTVSPost2010PropOp31
 70
     1
102
RTVSPost2010Prop32
280
     0
102
RTVSPost2010PropOp32
 70
     1
102
RTVSPost2010Prop33
280
     0
102
RTVSPost2010PropOp33
 70
     1
102
RTVSPost2010Prop34
280
     0
102
RTVSPost2010PropOp34
 70
     1
102
RTVSPost2010Prop35
280
     0
102
RTVSPost2010PropOp35
 70
     1
102
RTVSPost2010Prop36
280
     0
102
RTVSPost2010PropOp36
 70
     1
102
RTVSPost2010Prop37
 90
       50
102
RTVSPost2010PropOp37
 70
     1
102
RTVSPost2010Prop38
140
0.0
102
RTVSPost2010PropOp38
 70
     1
102
RTVSPost2010Prop39
140
1.0
102
RTVSPost2010PropOp39
 70
     1
102
RTVSPost2010Prop40
 90
        0
102
RTVSPost2010PropOp40
 70
     1
102
RTVSPost2010Prop41ColorIndex
 90
       18
102
RTVSPost2010Prop41ColorRGB
 90
        0
102
RTVSPost2010PropOp41
 70
     1
102
RTVSPost2010Prop42
 90
       50
102
RTVSPost2010PropOp42
 70
     1
102
RTVSPost2010Prop43
 90
        3
102
RTVSPost2010PropOp43
 70
     1
102
RTVSPost2010Prop44ColorIndex
 90
        5
102
RTVSPost2010Prop44ColorRGB
 90
      255
102
RTVSPost2010PropOp44
 70
     1
102
RTVSPost2010Prop45
280
     0
102
RTVSPost2010PropOp45
 70
     1
102
RTVSPost2010Prop46
 90
       50
102
RTVSPost2010PropOp46
 70
     1
102
RTVSPost2010Prop47
 90
       50
102
RTVSPost2010PropOp47
 70
     1
102
RTVSPost2010Prop48
 90
       50
102
RTVSPost2010PropOp48
 70
     1
102
RTVSPost2010Prop49
280
     0
102
RTVSPost2010PropOp49
 70
     1
102
RTVSPost2010Prop50
 90
       50
102
RTVSPost2010PropOp50
 70
     1
102
RTVSPost2010Prop51ColorIndex
 90
      256
102
RTVSPost2010Prop51ColorRGB
 90
-16777216
102
RTVSPost2010PropOp51
 70
     0
102
RTVSPost2010Prop52
140
1.0
102
RTVSPost2010PropOp52
 70
     0
102
RTVSPost2010Prop53
 90
        2
102
RTVSPost2010PropOp53
 70
     1
102
RTVSPost2010Prop54
  1
strokes_ogs.tif
102
RTVSPost2010PropOp54
 70
     1
102
RTVSPost2010Prop55
280
     0
102
RTVSPost2010PropOp55
 70
     1
102
RTVSPost2010Prop56
140
1.0
102
RTVSPost2010PropOp56
 70
     1
102
RTVSPost2010Prop57
140
1.0
102
RTVSPost2010PropOp57
 70
     1
  0
XRECORD
  5
16F
102
{ACAD_REACTORS
330
16E
102
}
330
16E
100
AcDbXrecord
280
     1
102
RTVSPropertyOp0
 70
     1
102
RTVSPropertyOp1
 70
     1
102
RTVSPropertyOp2
 70
     1
102
RTVSPropertyOp3
 70
     1
102
RTVSPropertyOp4
 70
     1
102
RTVSPropertyOp5
 70
     1
102
RTVSPropertyOp6
 70
     1
102
RTVSPropertyOp7
 70
     1
102
RTVSPropertyOp8
 70
     1
102
RTVSPropertyOp9
 70
     1
102
RTVSPropertyOp10
 70
     1
102
RTVSPropertyOp11
 70
     1
102
RTVSPropertyOp12
 70
     1
102
RTVSPropertyOp13
 70
     1
102
RTVSPropertyOp14
 70
     1
102
RTVSPropertyOp15
 70
     1
102
RTVSPropertyOp16
 70
     1
102
RTVSPropertyOp17
 70
     1
102
RTVSPropertyOp18
 70
     1
102
RTVSPropertyOp19
 70
     1
102
RTVSPropertyOp20
 70
     1
102
RTVSPropertyOp21
 70
     1
102
RTVSPropertyOp22
 70
     1
102
RTVSPropertyOp23
 70
     1
102
RTVSPropertyOp24
 70
     1
102
RTVSPropertyOp25
 70
     1
102
RTVSPropertyOp26
 70
     1
102
RTVSPropertyOp27
 70
     1
102
RTVSPropertyOp28
 70
     1
102
RTVSPropertyOp29
 70
     1
102
RTVSPropertyOp30
 70
     1
102
RTVSPropertyOp31
 70
     1
102
RTVSPropertyOp32
 70
     1
102
RTVSPropertyOp33
 70
     1
102
RTVSPropertyOp34
 70
     1
102
RTVSPropertyOp35
 70
     1
102
RTVSPropertyOp36
 70
     1
102
RTVSPropertyOp37
 70
     1
102
RTVSPropertyOp38
 70
     1
102
RTVSPropertyOp39
 70
     1
102
RTVSPropertyOp40
 70
     1
102
RTVSPropertyOp41
 70
     1
102
RTVSPropertyOp42
 70
     1
102
RTVSPropertyOp43
 70
     1
102
RTVSPropertyOp44
 70
     1
102
RTVSPropertyOp45
 70
     1
102
RTVSPropertyOp46
 70
     1
102
RTVSPropertyOp47
 70
     1
102
RTVSPropertyOp48
 70
     1
102
RTVSPropertyOp49
 70
     1
102
RTVSPropertyOp50
 70
     1
102
RTVSPropertyOp51
 70
     0
102
RTVSPropertyOp52
 70
     0
102
RTVSPropertyOp53
 70
     1
102
RTVSPropertyOp54
 70
     1
102
RTVSPropertyOp55
 70
     1
102
RTVSPropertyOp56
 70
     1
102
RTVSPropertyOp57
 70
     1
102
RTVSPost2010Prop28
280
     0
102
RTVSPost2010PropOp28
 70
     1
102
RTVSPost2010Prop29
280
     1
102
RTVSPost2010PropOp29
 70
     1
102
RTVSPost2010Prop30
280
     1
102
RTVSPost2010PropOp30
 70
     1
102
RTVSPost2010Prop31
280
     0
102
RTVSPost2010PropOp31
 70
     1
102
RTVSPost2010Prop32
280
     0
102
RTVSPost2010PropOp32
 70
     1
102
RTVSPost2010Prop33
280
     0
102
RTVSPost2010PropOp33
 70
     1
102
RTVSPost2010Prop34
280
     0
102
RTVSPost2010PropOp34
 70
     1
102
RTVSPost2010Prop35
280
     0
102
RTVSPost2010PropOp35
 70
     1
102
RTVSPost2010Prop36
280
     0
102
RTVSPost2010PropOp36
 70
     1
102
RTVSPost2010Prop37
 90
       50
102
RTVSPost2010PropOp37
 70
     1
102
RTVSPost2010Prop38
140
0.0
102
RTVSPost2010PropOp38
 70
     1
102
RTVSPost2010Prop39
140
1.0
102
RTVSPost2010PropOp39
 70
     1
102
RTVSPost2010Prop40
 90
        0
102
RTVSPost2010PropOp40
 70
     1
102
RTVSPost2010Prop41ColorIndex
 90
       18
102
RTVSPost2010Prop41ColorRGB
 90
        0
102
RTVSPost2010PropOp41
 70
     1
102
RTVSPost2010Prop42
 90
       50
102
RTVSPost2010PropOp42
 70
     1
102
RTVSPost2010Prop43
 90
        3
102
RTVSPost2010PropOp43
 70
     1
102
RTVSPost2010Prop44ColorIndex
 90
        5
102
RTVSPost2010Prop44ColorRGB
 90
      255
102
RTVSPost2010PropOp44
 70
     1
102
RTVSPost2010Prop45
280
     0
102
RTVSPost2010PropOp45
 70
     1
102
RTVSPost2010Prop46
 90
       50
102
RTVSPost2010PropOp46
 70
     1
102
RTVSPost2010Prop47
 90
       50
102
RTVSPost2010PropOp47
 70
     1
102
RTVSPost2010Prop48
 90
       50
102
RTVSPost2010PropOp48
 70
     1
102
RTVSPost2010Prop49
280
     0
102
RTVSPost2010PropOp49
 70
     1
102
RTVSPost2010Prop50
 90
       50
102
RTVSPost2010PropOp50
 70
     1
102
RTVSPost2010Prop51ColorIndex
 90
      256
102
RTVSPost2010Prop51ColorRGB
 90
-16777216
102
RTVSPost2010PropOp51
 70
     0
102
RTVSPost2010Prop52
140
1.0
102
RTVSPost2010PropOp52
 70
     0
102
RTVSPost2010Prop53
 90
        2
102
RTVSPost2010PropOp53
 70
     1
102
RTVSPost2010Prop54
  1
strokes_ogs.tif
102
RTVSPost2010PropOp54
 70
     1
102
RTVSPost2010Prop55
280
     0
102
RTVSPost2010PropOp55
 70
     1
102
RTVSPost2010Prop56
140
1.0
102
RTVSPost2010PropOp56
 70
     1
102
RTVSPost2010Prop57
140
1.0
102
RTVSPost2010PropOp57
 70
     1
  0
XRECORD
  5
16D
102
{ACAD_REACTORS
330
16C
102
}
330
16C
100
AcDbXrecord
280
     1
102
RTVSPropertyOp0
 70
     1
102
RTVSPropertyOp1
 70
     1
102
RTVSPropertyOp2
 70
     1
102
RTVSPropertyOp3
 70
     1
102
RTVSPropertyOp4
 70
     1
102
RTVSPropertyOp5
 70
     1
102
RTVSPropertyOp6
 70
     1
102
RTVSPropertyOp7
 70
     1
102
RTVSPropertyOp8
 70
     1
102
RTVSPropertyOp9
 70
     1
102
RTVSPropertyOp10
 70
     1
102
RTVSPropertyOp11
 70
     1
102
RTVSPropertyOp12
 70
     1
102
RTVSPropertyOp13
 70
     1
102
RTVSPropertyOp14
 70
     1
102
RTVSPropertyOp15
 70
     1
102
RTVSPropertyOp16
 70
     1
102
RTVSPropertyOp17
 70
     1
102
RTVSPropertyOp18
 70
     1
102
RTVSPropertyOp19
 70
     1
102
RTVSPropertyOp20
 70
     1
102
RTVSPropertyOp21
 70
     1
102
RTVSPropertyOp22
 70
     1
102
RTVSPropertyOp23
 70
     1
102
RTVSPropertyOp24
 70
     1
102
RTVSPropertyOp25
 70
     1
102
RTVSPropertyOp26
 70
     1
102
RTVSPropertyOp27
 70
     1
102
RTVSPropertyOp28
 70
     1
102
RTVSPropertyOp29
 70
     1
102
RTVSPropertyOp30
 70
     1
102
RTVSPropertyOp31
 70
     1
102
RTVSPropertyOp32
 70
     1
102
RTVSPropertyOp33
 70
     1
102
RTVSPropertyOp34
 70
     1
102
RTVSPropertyOp35
 70
     1
102
RTVSPropertyOp36
 70
     1
102
RTVSPropertyOp37
 70
     1
102
RTVSPropertyOp38
 70
     1
102
RTVSPropertyOp39
 70
     1
102
RTVSPropertyOp40
 70
     1
102
RTVSPropertyOp41
 70
     1
102
RTVSPropertyOp42
 70
     1
102
RTVSPropertyOp43
 70
     1
102
RTVSPropertyOp44
 70
     1
102
RTVSPropertyOp45
 70
     1
102
RTVSPropertyOp46
 70
     1
102
RTVSPropertyOp47
 70
     1
102
RTVSPropertyOp48
 70
     1
102
RTVSPropertyOp49
 70
     1
102
RTVSPropertyOp50
 70
     1
102
RTVSPropertyOp51
 70
     0
102
RTVSPropertyOp52
 70
     0
102
RTVSPropertyOp53
 70
     1
102
RTVSPropertyOp54
 70
     1
102
RTVSPropertyOp55
 70
     1
102
RTVSPropertyOp56
 70
     1
102
RTVSPropertyOp57
 70
     1
102
RTVSPost2010Prop28
280
     0
102
RTVSPost2010PropOp28
 70
     1
102
RTVSPost2010Prop29
280
     1
102
RTVSPost2010PropOp29
 70
     1
102
RTVSPost2010Prop30
280
     1
102
RTVSPost2010PropOp30
 70
     1
102
RTVSPost2010Prop31
280
     0
102
RTVSPost2010PropOp31
 70
     1
102
RTVSPost2010Prop32
280
     0
102
RTVSPost2010PropOp32
 70
     1
102
RTVSPost2010Prop33
280
     0
102
RTVSPost2010PropOp33
 70
     1
102
RTVSPost2010Prop34
280
     0
102
RTVSPost2010PropOp34
 70
     1
102
RTVSPost2010Prop35
280
     0
102
RTVSPost2010PropOp35
 70
     1
102
RTVSPost2010Prop36
280
     0
102
RTVSPost2010PropOp36
 70
     1
102
RTVSPost2010Prop37
 90
       50
102
RTVSPost2010PropOp37
 70
     1
102
RTVSPost2010Prop38
140
0.0
102
RTVSPost2010PropOp38
 70
     1
102
RTVSPost2010Prop39
140
1.0
102
RTVSPost2010PropOp39
 70
     1
102
RTVSPost2010Prop40
 90
        0
102
RTVSPost2010PropOp40
 70
     1
102
RTVSPost2010Prop41ColorIndex
 90
       18
102
RTVSPost2010Prop41ColorRGB
 90
        0
102
RTVSPost2010PropOp41
 70
     1
102
RTVSPost2010Prop42
 90
       50
102
RTVSPost2010PropOp42
 70
     1
102
RTVSPost2010Prop43
 90
        3
102
RTVSPost2010PropOp43
 70
     1
102
RTVSPost2010Prop44ColorIndex
 90
        5
102
RTVSPost2010Prop44ColorRGB
 90
      255
102
RTVSPost2010PropOp44
 70
     1
102
RTVSPost2010Prop45
280
     0
102
RTVSPost2010PropOp45
 70
     1
102
RTVSPost2010Prop46
 90
       50
102
RTVSPost2010PropOp46
 70
     1
102
RTVSPost2010Prop47
 90
       50
102
RTVSPost2010PropOp47
 70
     1
102
RTVSPost2010Prop48
 90
       50
102
RTVSPost2010PropOp48
 70
     1
102
RTVSPost2010Prop49
280
     0
102
RTVSPost2010PropOp49
 70
     1
102
RTVSPost2010Prop50
 90
       50
102
RTVSPost2010PropOp50
 70
     1
102
RTVSPost2010Prop51ColorIndex
 90
      256
102
RTVSPost2010Prop51ColorRGB
 90
-16777216
102
RTVSPost2010PropOp51
 70
     0
102
RTVSPost2010Prop52
140
1.0
102
RTVSPost2010PropOp52
 70
     0
102
RTVSPost2010Prop53
 90
        2
102
RTVSPost2010PropOp53
 70
     1
102
RTVSPost2010Prop54
  1
strokes_ogs.tif
102
RTVSPost2010PropOp54
 70
     1
102
RTVSPost2010Prop55
280
     0
102
RTVSPost2010PropOp55
 70
     1
102
RTVSPost2010Prop56
140
1.0
102
RTVSPost2010PropOp56
 70
     1
102
RTVSPost2010Prop57
140
1.0
102
RTVSPost2010PropOp57
 70
     1
  0
XRECORD
  5
171
102
{ACAD_REACTORS
330
170
102
}
330
170
100
AcDbXrecord
280
     1
102
RTVSPropertyOp0
 70
     1
102
RTVSPropertyOp1
 70
     1
102
RTVSPropertyOp2
 70
     1
102
RTVSPropertyOp3
 70
     1
102
RTVSPropertyOp4
 70
     1
102
RTVSPropertyOp5
 70
     1
102
RTVSPropertyOp6
 70
     1
102
RTVSPropertyOp7
 70
     1
102
RTVSPropertyOp8
 70
     1
102
RTVSPropertyOp9
 70
     1
102
RTVSPropertyOp10
 70
     1
102
RTVSPropertyOp11
 70
     1
102
RTVSPropertyOp12
 70
     1
102
RTVSPropertyOp13
 70
     1
102
RTVSPropertyOp14
 70
     1
102
RTVSPropertyOp15
 70
     1
102
RTVSPropertyOp16
 70
     1
102
RTVSPropertyOp17
 70
     1
102
RTVSPropertyOp18
 70
     1
102
RTVSPropertyOp19
 70
     1
102
RTVSPropertyOp20
 70
     1
102
RTVSPropertyOp21
 70
     1
102
RTVSPropertyOp22
 70
     1
102
RTVSPropertyOp23
 70
     1
102
RTVSPropertyOp24
 70
     1
102
RTVSPropertyOp25
 70
     1
102
RTVSPropertyOp26
 70
     1
102
RTVSPropertyOp27
 70
     1
102
RTVSPropertyOp28
 70
     1
102
RTVSPropertyOp29
 70
     1
102
RTVSPropertyOp30
 70
     1
102
RTVSPropertyOp31
 70
     1
102
RTVSPropertyOp32
 70
     1
102
RTVSPropertyOp33
 70
     1
102
RTVSPropertyOp34
 70
     1
102
RTVSPropertyOp35
 70
     1
102
RTVSPropertyOp36
 70
     1
102
RTVSPropertyOp37
 70
     1
102
RTVSPropertyOp38
 70
     1
102
RTVSPropertyOp39
 70
     1
102
RTVSPropertyOp40
 70
     1
102
RTVSPropertyOp41
 70
     1
102
RTVSPropertyOp42
 70
     1
102
RTVSPropertyOp43
 70
     1
102
RTVSPropertyOp44
 70
     1
102
RTVSPropertyOp45
 70
     1
102
RTVSPropertyOp46
 70
     1
102
RTVSPropertyOp47
 70
     1
102
RTVSPropertyOp48
 70
     1
102
RTVSPropertyOp49
 70
     1
102
RTVSPropertyOp50
 70
     1
102
RTVSPropertyOp51
 70
     0
102
RTVSPropertyOp52
 70
     0
102
RTVSPropertyOp53
 70
     1
102
RTVSPropertyOp54
 70
     1
102
RTVSPropertyOp55
 70
     1
102
RTVSPropertyOp56
 70
     1
102
RTVSPropertyOp57
 70
     1
102
RTVSPost2010Prop28
280
     0
102
RTVSPost2010PropOp28
 70
     1
102
RTVSPost2010Prop29
280
     1
102
RTVSPost2010PropOp29
 70
     1
102
RTVSPost2010Prop30
280
     1
102
RTVSPost2010PropOp30
 70
     1
102
RTVSPost2010Prop31
280
     0
102
RTVSPost2010PropOp31
 70
     1
102
RTVSPost2010Prop32
280
     0
102
RTVSPost2010PropOp32
 70
     1
102
RTVSPost2010Prop33
280
     0
102
RTVSPost2010PropOp33
 70
     1
102
RTVSPost2010Prop34
280
     0
102
RTVSPost2010PropOp34
 70
     1
102
RTVSPost2010Prop35
280
     0
102
RTVSPost2010PropOp35
 70
     1
102
RTVSPost2010Prop36
280
     0
102
RTVSPost2010PropOp36
 70
     1
102
RTVSPost2010Prop37
 90
       50
102
RTVSPost2010PropOp37
 70
     1
102
RTVSPost2010Prop38
140
0.0
102
RTVSPost2010PropOp38
 70
     1
102
RTVSPost2010Prop39
140
1.0
102
RTVSPost2010PropOp39
 70
     1
102
RTVSPost2010Prop40
 90
        0
102
RTVSPost2010PropOp40
 70
     1
102
RTVSPost2010Prop41ColorIndex
 90
       18
102
RTVSPost2010Prop41ColorRGB
 90
        0
102
RTVSPost2010PropOp41
 70
     1
102
RTVSPost2010Prop42
 90
       50
102
RTVSPost2010PropOp42
 70
     1
102
RTVSPost2010Prop43
 90
        3
102
RTVSPost2010PropOp43
 70
     1
102
RTVSPost2010Prop44ColorIndex
 90
        5
102
RTVSPost2010Prop44ColorRGB
 90
      255
102
RTVSPost2010PropOp44
 70
     1
102
RTVSPost2010Prop45
280
     0
102
RTVSPost2010PropOp45
 70
     1
102
RTVSPost2010Prop46
 90
       50
102
RTVSPost2010PropOp46
 70
     1
102
RTVSPost2010Prop47
 90
       50
102
RTVSPost2010PropOp47
 70
     1
102
RTVSPost2010Prop48
 90
       50
102
RTVSPost2010PropOp48
 70
     1
102
RTVSPost2010Prop49
280
     0
102
RTVSPost2010PropOp49
 70
     1
102
RTVSPost2010Prop50
 90
       50
102
RTVSPost2010PropOp50
 70
     1
102
RTVSPost2010Prop51ColorIndex
 90
      256
102
RTVSPost2010Prop51ColorRGB
 90
-16777216
102
RTVSPost2010PropOp51
 70
     0
102
RTVSPost2010Prop52
140
1.0
102
RTVSPost2010PropOp52
 70
     0
102
RTVSPost2010Prop53
 90
        2
102
RTVSPost2010PropOp53
 70
     1
102
RTVSPost2010Prop54
  1
strokes_ogs.tif
102
RTVSPost2010PropOp54
 70
     1
102
RTVSPost2010Prop55
280
     0
102
RTVSPost2010PropOp55
 70
     1
102
RTVSPost2010Prop56
140
1.0
102
RTVSPost2010PropOp56
 70
     1
102
RTVSPost2010Prop57
140
1.0
102
RTVSPost2010PropOp57
 70
     1
  0
XRECORD
  5
179
102
{ACAD_REACTORS
330
178
102
}
330
178
100
AcDbXrecord
280
     1
102
RTVSPropertyOp0
 70
     1
102
RTVSPropertyOp1
 70
     1
102
RTVSPropertyOp2
 70
     1
102
RTVSPropertyOp3
 70
     1
102
RTVSPropertyOp4
 70
     1
102
RTVSPropertyOp5
 70
     1
102
RTVSPropertyOp6
 70
     1
102
RTVSPropertyOp7
 70
     1
102
RTVSPropertyOp8
 70
     1
102
RTVSPropertyOp9
 70
     1
102
RTVSPropertyOp10
 70
     1
102
RTVSPropertyOp11
 70
     1
102
RTVSPropertyOp12
 70
     1
102
RTVSPropertyOp13
 70
     1
102
RTVSPropertyOp14
 70
     1
102
RTVSPropertyOp15
 70
     1
102
RTVSPropertyOp16
 70
     1
102
RTVSPropertyOp17
 70
     1
102
RTVSPropertyOp18
 70
     1
102
RTVSPropertyOp19
 70
     1
102
RTVSPropertyOp20
 70
     1
102
RTVSPropertyOp21
 70
     1
102
RTVSPropertyOp22
 70
     1
102
RTVSPropertyOp23
 70
     1
102
RTVSPropertyOp24
 70
     1
102
RTVSPropertyOp25
 70
     1
102
RTVSPropertyOp26
 70
     1
102
RTVSPropertyOp27
 70
     1
102
RTVSPropertyOp28
 70
     1
102
RTVSPropertyOp29
 70
     1
102
RTVSPropertyOp30
 70
     1
102
RTVSPropertyOp31
 70
     1
102
RTVSPropertyOp32
 70
     1
102
RTVSPropertyOp33
 70
     1
102
RTVSPropertyOp34
 70
     1
102
RTVSPropertyOp35
 70
     1
102
RTVSPropertyOp36
 70
     1
102
RTVSPropertyOp37
 70
     1
102
RTVSPropertyOp38
 70
     1
102
RTVSPropertyOp39
 70
     1
102
RTVSPropertyOp40
 70
     1
102
RTVSPropertyOp41
 70
     1
102
RTVSPropertyOp42
 70
     1
102
RTVSPropertyOp43
 70
     1
102
RTVSPropertyOp44
 70
     1
102
RTVSPropertyOp45
 70
     1
102
RTVSPropertyOp46
 70
     1
102
RTVSPropertyOp47
 70
     1
102
RTVSPropertyOp48
 70
     1
102
RTVSPropertyOp49
 70
     1
102
RTVSPropertyOp50
 70
     1
102
RTVSPropertyOp51
 70
     0
102
RTVSPropertyOp52
 70
     0
102
RTVSPropertyOp53
 70
     1
102
RTVSPropertyOp54
 70
     1
102
RTVSPropertyOp55
 70
     1
102
RTVSPropertyOp56
 70
     1
102
RTVSPropertyOp57
 70
     1
102
RTVSPost2010Prop28
280
     0
102
RTVSPost2010PropOp28
 70
     1
102
RTVSPost2010Prop29
280
     1
102
RTVSPost2010PropOp29
 70
     1
102
RTVSPost2010Prop30
280
     1
102
RTVSPost2010PropOp30
 70
     1
102
RTVSPost2010Prop31
280
     0
102
RTVSPost2010PropOp31
 70
     1
102
RTVSPost2010Prop32
280
     0
102
RTVSPost2010PropOp32
 70
     1
102
RTVSPost2010Prop33
280
     0
102
RTVSPost2010PropOp33
 70
     1
102
RTVSPost2010Prop34
280
     0
102
RTVSPost2010PropOp34
 70
     1
102
RTVSPost2010Prop35
280
     0
102
RTVSPost2010PropOp35
 70
     1
102
RTVSPost2010Prop36
280
     0
102
RTVSPost2010PropOp36
 70
     1
102
RTVSPost2010Prop37
 90
       50
102
RTVSPost2010PropOp37
 70
     1
102
RTVSPost2010Prop38
140
0.0
102
RTVSPost2010PropOp38
 70
     1
102
RTVSPost2010Prop39
140
1.0
102
RTVSPost2010PropOp39
 70
     1
102
RTVSPost2010Prop40
 90
        0
102
RTVSPost2010PropOp40
 70
     1
102
RTVSPost2010Prop41ColorIndex
 90
       18
102
RTVSPost2010Prop41ColorRGB
 90
        0
102
RTVSPost2010PropOp41
 70
     1
102
RTVSPost2010Prop42
 90
       50
102
RTVSPost2010PropOp42
 70
     1
102
RTVSPost2010Prop43
 90
        3
102
RTVSPost2010PropOp43
 70
     1
102
RTVSPost2010Prop44ColorIndex
 90
        5
102
RTVSPost2010Prop44ColorRGB
 90
      255
102
RTVSPost2010PropOp44
 70
     1
102
RTVSPost2010Prop45
280
     0
102
RTVSPost2010PropOp45
 70
     1
102
RTVSPost2010Prop46
 90
       50
102
RTVSPost2010PropOp46
 70
     1
102
RTVSPost2010Prop47
 90
       50
102
RTVSPost2010PropOp47
 70
     1
102
RTVSPost2010Prop48
 90
       50
102
RTVSPost2010PropOp48
 70
     1
102
RTVSPost2010Prop49
280
     0
102
RTVSPost2010PropOp49
 70
     1
102
RTVSPost2010Prop50
 90
       50
102
RTVSPost2010PropOp50
 70
     1
102
RTVSPost2010Prop51ColorIndex
 90
      256
102
RTVSPost2010Prop51ColorRGB
 90
-16777216
102
RTVSPost2010PropOp51
 70
     0
102
RTVSPost2010Prop52
140
1.0
102
RTVSPost2010PropOp52
 70
     0
102
RTVSPost2010Prop53
 90
        2
102
RTVSPost2010PropOp53
 70
     1
102
RTVSPost2010Prop54
  1
strokes_ogs.tif
102
RTVSPost2010PropOp54
 70
     1
102
RTVSPost2010Prop55
280
     0
102
RTVSPost2010PropOp55
 70
     1
102
RTVSPost2010Prop56
140
1.0
102
RTVSPost2010PropOp56
 70
     1
102
RTVSPost2010Prop57
140
1.0
102
RTVSPost2010PropOp57
 70
     1
  0
XRECORD
  5
181
102
{ACAD_REACTORS
330
180
102
}
330
180
100
AcDbXrecord
280
     1
102
RTVSPropertyOp0
 70
     1
102
RTVSPropertyOp1
 70
     1
102
RTVSPropertyOp2
 70
     1
102
RTVSPropertyOp3
 70
     1
102
RTVSPropertyOp4
 70
     1
102
RTVSPropertyOp5
 70
     1
102
RTVSPropertyOp6
 70
     1
102
RTVSPropertyOp7
 70
     1
102
RTVSPropertyOp8
 70
     1
102
RTVSPropertyOp9
 70
     1
102
RTVSPropertyOp10
 70
     1
102
RTVSPropertyOp11
 70
     1
102
RTVSPropertyOp12
 70
     1
102
RTVSPropertyOp13
 70
     1
102
RTVSPropertyOp14
 70
     1
102
RTVSPropertyOp15
 70
     1
102
RTVSPropertyOp16
 70
     1
102
RTVSPropertyOp17
 70
     1
102
RTVSPropertyOp18
 70
     1
102
RTVSPropertyOp19
 70
     1
102
RTVSPropertyOp20
 70
     1
102
RTVSPropertyOp21
 70
     1
102
RTVSPropertyOp22
 70
     1
102
RTVSPropertyOp23
 70
     1
102
RTVSPropertyOp24
 70
     1
102
RTVSPropertyOp25
 70
     1
102
RTVSPropertyOp26
 70
     1
102
RTVSPropertyOp27
 70
     1
102
RTVSPropertyOp28
 70
     1
102
RTVSPropertyOp29
 70
     1
102
RTVSPropertyOp30
 70
     1
102
RTVSPropertyOp31
 70
     1
102
RTVSPropertyOp32
 70
     1
102
RTVSPropertyOp33
 70
     1
102
RTVSPropertyOp34
 70
     1
102
RTVSPropertyOp35
 70
     1
102
RTVSPropertyOp36
 70
     1
102
RTVSPropertyOp37
 70
     1
102
RTVSPropertyOp38
 70
     1
102
RTVSPropertyOp39
 70
     1
102
RTVSPropertyOp40
 70
     1
102
RTVSPropertyOp41
 70
     1
102
RTVSPropertyOp42
 70
     1
102
RTVSPropertyOp43
 70
     1
102
RTVSPropertyOp44
 70
     1
102
RTVSPropertyOp45
 70
     1
102
RTVSPropertyOp46
 70
     1
102
RTVSPropertyOp47
 70
     1
102
RTVSPropertyOp48
 70
     1
102
RTVSPropertyOp49
 70
     1
102
RTVSPropertyOp50
 70
     1
102
RTVSPropertyOp51
 70
     0
102
RTVSPropertyOp52
 70
     0
102
RTVSPropertyOp53
 70
     1
102
RTVSPropertyOp54
 70
     1
102
RTVSPropertyOp55
 70
     1
102
RTVSPropertyOp56
 70
     1
102
RTVSPropertyOp57
 70
     1
102
RTVSPost2010Prop28
280
     0
102
RTVSPost2010PropOp28
 70
     1
102
RTVSPost2010Prop29
280
     1
102
RTVSPost2010PropOp29
 70
     1
102
RTVSPost2010Prop30
280
     1
102
RTVSPost2010PropOp30
 70
     1
102
RTVSPost2010Prop31
280
     0
102
RTVSPost2010PropOp31
 70
     1
102
RTVSPost2010Prop32
280
     0
102
RTVSPost2010PropOp32
 70
     1
102
RTVSPost2010Prop33
280
     0
102
RTVSPost2010PropOp33
 70
     1
102
RTVSPost2010Prop34
280
     0
102
RTVSPost2010PropOp34
 70
     1
102
RTVSPost2010Prop35
280
     0
102
RTVSPost2010PropOp35
 70
     1
102
RTVSPost2010Prop36
280
     0
102
RTVSPost2010PropOp36
 70
     1
102
RTVSPost2010Prop37
 90
       50
102
RTVSPost2010PropOp37
 70
     1
102
RTVSPost2010Prop38
140
0.0
102
RTVSPost2010PropOp38
 70
     1
102
RTVSPost2010Prop39
140
1.0
102
RTVSPost2010PropOp39
 70
     1
102
RTVSPost2010Prop40
 90
        0
102
RTVSPost2010PropOp40
 70
     1
102
RTVSPost2010Prop41ColorIndex
 90
       18
102
RTVSPost2010Prop41ColorRGB
 90
        0
102
RTVSPost2010PropOp41
 70
     1
102
RTVSPost2010Prop42
 90
       50
102
RTVSPost2010PropOp42
 70
     1
102
RTVSPost2010Prop43
 90
        3
102
RTVSPost2010PropOp43
 70
     1
102
RTVSPost2010Prop44ColorIndex
 90
        5
102
RTVSPost2010Prop44ColorRGB
 90
      255
102
RTVSPost2010PropOp44
 70
     1
102
RTVSPost2010Prop45
280
     0
102
RTVSPost2010PropOp45
 70
     1
102
RTVSPost2010Prop46
 90
       50
102
RTVSPost2010PropOp46
 70
     1
102
RTVSPost2010Prop47
 90
       50
102
RTVSPost2010PropOp47
 70
     1
102
RTVSPost2010Prop48
 90
       50
102
RTVSPost2010PropOp48
 70
     1
102
RTVSPost2010Prop49
280
     0
102
RTVSPost2010PropOp49
 70
     1
102
RTVSPost2010Prop50
 90
       50
102
RTVSPost2010PropOp50
 70
     1
102
RTVSPost2010Prop51ColorIndex
 90
      256
102
RTVSPost2010Prop51ColorRGB
 90
-16777216
102
RTVSPost2010PropOp51
 70
     0
102
RTVSPost2010Prop52
140
1.0
102
RTVSPost2010PropOp52
 70
     0
102
RTVSPost2010Prop53
 90
        2
102
RTVSPost2010PropOp53
 70
     1
102
RTVSPost2010Prop54
  1
strokes_ogs.tif
102
RTVSPost2010PropOp54
 70
     1
102
RTVSPost2010Prop55
280
     0
102
RTVSPost2010PropOp55
 70
     1
102
RTVSPost2010Prop56
140
1.0
102
RTVSPost2010PropOp56
 70
     1
102
RTVSPost2010Prop57
140
1.0
102
RTVSPost2010PropOp57
 70
     1
  0
XRECORD
  5
175
102
{ACAD_REACTORS
330
174
102
}
330
174
100
AcDbXrecord
280
     1
102
RTVSPropertyOp0
 70
     1
102
RTVSPropertyOp1
 70
     1
102
RTVSPropertyOp2
 70
     1
102
RTVSPropertyOp3
 70
     1
102
RTVSPropertyOp4
 70
     1
102
RTVSPropertyOp5
 70
     1
102
RTVSPropertyOp6
 70
     1
102
RTVSPropertyOp7
 70
     1
102
RTVSPropertyOp8
 70
     1
102
RTVSPropertyOp9
 70
     1
102
RTVSPropertyOp10
 70
     1
102
RTVSPropertyOp11
 70
     1
102
RTVSPropertyOp12
 70
     1
102
RTVSPropertyOp13
 70
     1
102
RTVSPropertyOp14
 70
     1
102
RTVSPropertyOp15
 70
     1
102
RTVSPropertyOp16
 70
     1
102
RTVSPropertyOp17
 70
     1
102
RTVSPropertyOp18
 70
     1
102
RTVSPropertyOp19
 70
     1
102
RTVSPropertyOp20
 70
     1
102
RTVSPropertyOp21
 70
     1
102
RTVSPropertyOp22
 70
     1
102
RTVSPropertyOp23
 70
     1
102
RTVSPropertyOp24
 70
     1
102
RTVSPropertyOp25
 70
     1
102
RTVSPropertyOp26
 70
     1
102
RTVSPropertyOp27
 70
     1
102
RTVSPropertyOp28
 70
     1
102
RTVSPropertyOp29
 70
     1
102
RTVSPropertyOp30
 70
     1
102
RTVSPropertyOp31
 70
     1
102
RTVSPropertyOp32
 70
     1
102
RTVSPropertyOp33
 70
     1
102
RTVSPropertyOp34
 70
     1
102
RTVSPropertyOp35
 70
     1
102
RTVSPropertyOp36
 70
     1
102
RTVSPropertyOp37
 70
     1
102
RTVSPropertyOp38
 70
     1
102
RTVSPropertyOp39
 70
     1
102
RTVSPropertyOp40
 70
     1
102
RTVSPropertyOp41
 70
     1
102
RTVSPropertyOp42
 70
     1
102
RTVSPropertyOp43
 70
     1
102
RTVSPropertyOp44
 70
     1
102
RTVSPropertyOp45
 70
     1
102
RTVSPropertyOp46
 70
     1
102
RTVSPropertyOp47
 70
     1
102
RTVSPropertyOp48
 70
     1
102
RTVSPropertyOp49
 70
     1
102
RTVSPropertyOp50
 70
     1
102
RTVSPropertyOp51
 70
     0
102
RTVSPropertyOp52
 70
     0
102
RTVSPropertyOp53
 70
     1
102
RTVSPropertyOp54
 70
     1
102
RTVSPropertyOp55
 70
     1
102
RTVSPropertyOp56
 70
     1
102
RTVSPropertyOp57
 70
     1
102
RTVSPost2010Prop28
280
     0
102
RTVSPost2010PropOp28
 70
     1
102
RTVSPost2010Prop29
280
     1
102
RTVSPost2010PropOp29
 70
     1
102
RTVSPost2010Prop30
280
     1
102
RTVSPost2010PropOp30
 70
     1
102
RTVSPost2010Prop31
280
     0
102
RTVSPost2010PropOp31
 70
     1
102
RTVSPost2010Prop32
280
     0
102
RTVSPost2010PropOp32
 70
     1
102
RTVSPost2010Prop33
280
     0
102
RTVSPost2010PropOp33
 70
     1
102
RTVSPost2010Prop34
280
     0
102
RTVSPost2010PropOp34
 70
     1
102
RTVSPost2010Prop35
280
     0
102
RTVSPost2010PropOp35
 70
     1
102
RTVSPost2010Prop36
280
     0
102
RTVSPost2010PropOp36
 70
     1
102
RTVSPost2010Prop37
 90
       50
102
RTVSPost2010PropOp37
 70
     1
102
RTVSPost2010Prop38
140
0.0
102
RTVSPost2010PropOp38
 70
     1
102
RTVSPost2010Prop39
140
1.0
102
RTVSPost2010PropOp39
 70
     1
102
RTVSPost2010Prop40
 90
        0
102
RTVSPost2010PropOp40
 70
     1
102
RTVSPost2010Prop41ColorIndex
 90
       18
102
RTVSPost2010Prop41ColorRGB
 90
        0
102
RTVSPost2010PropOp41
 70
     1
102
RTVSPost2010Prop42
 90
       50
102
RTVSPost2010PropOp42
 70
     1
102
RTVSPost2010Prop43
 90
        3
102
RTVSPost2010PropOp43
 70
     1
102
RTVSPost2010Prop44ColorIndex
 90
        5
102
RTVSPost2010Prop44ColorRGB
 90
      255
102
RTVSPost2010PropOp44
 70
     1
102
RTVSPost2010Prop45
280
     0
102
RTVSPost2010PropOp45
 70
     1
102
RTVSPost2010Prop46
 90
       50
102
RTVSPost2010PropOp46
 70
     1
102
RTVSPost2010Prop47
 90
       50
102
RTVSPost2010PropOp47
 70
     1
102
RTVSPost2010Prop48
 90
       50
102
RTVSPost2010PropOp48
 70
     1
102
RTVSPost2010Prop49
280
     0
102
RTVSPost2010PropOp49
 70
     1
102
RTVSPost2010Prop50
 90
       50
102
RTVSPost2010PropOp50
 70
     1
102
RTVSPost2010Prop51ColorIndex
 90
      256
102
RTVSPost2010Prop51ColorRGB
 90
-16777216
102
RTVSPost2010PropOp51
 70
     0
102
RTVSPost2010Prop52
140
1.0
102
RTVSPost2010PropOp52
 70
     0
102
RTVSPost2010Prop53
 90
        2
102
RTVSPost2010PropOp53
 70
     1
102
RTVSPost2010Prop54
  1
strokes_ogs.tif
102
RTVSPost2010PropOp54
 70
     1
102
RTVSPost2010Prop55
280
     0
102
RTVSPost2010PropOp55
 70
     1
102
RTVSPost2010Prop56
140
1.0
102
RTVSPost2010PropOp56
 70
     1
102
RTVSPost2010Prop57
140
1.0
102
RTVSPost2010PropOp57
 70
     1
  0
XRECORD
  5
177
102
{ACAD_REACTORS
330
176
102
}
330
176
100
AcDbXrecord
280
     1
102
RTVSPropertyOp0
 70
     1
102
RTVSPropertyOp1
 70
     1
102
RTVSPropertyOp2
 70
     1
102
RTVSPropertyOp3
 70
     1
102
RTVSPropertyOp4
 70
     1
102
RTVSPropertyOp5
 70
     1
102
RTVSPropertyOp6
 70
     1
102
RTVSPropertyOp7
 70
     1
102
RTVSPropertyOp8
 70
     1
102
RTVSPropertyOp9
 70
     1
102
RTVSPropertyOp10
 70
     1
102
RTVSPropertyOp11
 70
     1
102
RTVSPropertyOp12
 70
     1
102
RTVSPropertyOp13
 70
     1
102
RTVSPropertyOp14
 70
     1
102
RTVSPropertyOp15
 70
     1
102
RTVSPropertyOp16
 70
     1
102
RTVSPropertyOp17
 70
     1
102
RTVSPropertyOp18
 70
     1
102
RTVSPropertyOp19
 70
     1
102
RTVSPropertyOp20
 70
     1
102
RTVSPropertyOp21
 70
     1
102
RTVSPropertyOp22
 70
     1
102
RTVSPropertyOp23
 70
     1
102
RTVSPropertyOp24
 70
     1
102
RTVSPropertyOp25
 70
     1
102
RTVSPropertyOp26
 70
     1
102
RTVSPropertyOp27
 70
     1
102
RTVSPropertyOp28
 70
     1
102
RTVSPropertyOp29
 70
     1
102
RTVSPropertyOp30
 70
     1
102
RTVSPropertyOp31
 70
     1
102
RTVSPropertyOp32
 70
     1
102
RTVSPropertyOp33
 70
     1
102
RTVSPropertyOp34
 70
     1
102
RTVSPropertyOp35
 70
     1
102
RTVSPropertyOp36
 70
     1
102
RTVSPropertyOp37
 70
     1
102
RTVSPropertyOp38
 70
     1
102
RTVSPropertyOp39
 70
     1
102
RTVSPropertyOp40
 70
     1
102
RTVSPropertyOp41
 70
     1
102
RTVSPropertyOp42
 70
     1
102
RTVSPropertyOp43
 70
     1
102
RTVSPropertyOp44
 70
     1
102
RTVSPropertyOp45
 70
     1
102
RTVSPropertyOp46
 70
     1
102
RTVSPropertyOp47
 70
     1
102
RTVSPropertyOp48
 70
     1
102
RTVSPropertyOp49
 70
     1
102
RTVSPropertyOp50
 70
     1
102
RTVSPropertyOp51
 70
     0
102
RTVSPropertyOp52
 70
     0
102
RTVSPropertyOp53
 70
     1
102
RTVSPropertyOp54
 70
     1
102
RTVSPropertyOp55
 70
     1
102
RTVSPropertyOp56
 70
     1
102
RTVSPropertyOp57
 70
     1
102
RTVSPost2010Prop28
280
     0
102
RTVSPost2010PropOp28
 70
     1
102
RTVSPost2010Prop29
280
     1
102
RTVSPost2010PropOp29
 70
     1
102
RTVSPost2010Prop30
280
     1
102
RTVSPost2010PropOp30
 70
     1
102
RTVSPost2010Prop31
280
     0
102
RTVSPost2010PropOp31
 70
     1
102
RTVSPost2010Prop32
280
     0
102
RTVSPost2010PropOp32
 70
     1
102
RTVSPost2010Prop33
280
     0
102
RTVSPost2010PropOp33
 70
     1
102
RTVSPost2010Prop34
280
     0
102
RTVSPost2010PropOp34
 70
     1
102
RTVSPost2010Prop35
280
     0
102
RTVSPost2010PropOp35
 70
     1
102
RTVSPost2010Prop36
280
     0
102
RTVSPost2010PropOp36
 70
     1
102
RTVSPost2010Prop37
 90
       50
102
RTVSPost2010PropOp37
 70
     1
102
RTVSPost2010Prop38
140
0.0
102
RTVSPost2010PropOp38
 70
     1
102
RTVSPost2010Prop39
140
1.0
102
RTVSPost2010PropOp39
 70
     1
102
RTVSPost2010Prop40
 90
        0
102
RTVSPost2010PropOp40
 70
     1
102
RTVSPost2010Prop41ColorIndex
 90
       18
102
RTVSPost2010Prop41ColorRGB
 90
        0
102
RTVSPost2010PropOp41
 70
     1
102
RTVSPost2010Prop42
 90
       50
102
RTVSPost2010PropOp42
 70
     1
102
RTVSPost2010Prop43
 90
        3
102
RTVSPost2010PropOp43
 70
     1
102
RTVSPost2010Prop44ColorIndex
 90
        5
102
RTVSPost2010Prop44ColorRGB
 90
      255
102
RTVSPost2010PropOp44
 70
     1
102
RTVSPost2010Prop45
280
     0
102
RTVSPost2010PropOp45
 70
     1
102
RTVSPost2010Prop46
 90
       50
102
RTVSPost2010PropOp46
 70
     1
102
RTVSPost2010Prop47
 90
       50
102
RTVSPost2010PropOp47
 70
     1
102
RTVSPost2010Prop48
 90
       50
102
RTVSPost2010PropOp48
 70
     1
102
RTVSPost2010Prop49
280
     0
102
RTVSPost2010PropOp49
 70
     1
102
RTVSPost2010Prop50
 90
       50
102
RTVSPost2010PropOp50
 70
     1
102
RTVSPost2010Prop51ColorIndex
 90
      256
102
RTVSPost2010Prop51ColorRGB
 90
-16777216
102
RTVSPost2010PropOp51
 70
     0
102
RTVSPost2010Prop52
140
1.0
102
RTVSPost2010PropOp52
 70
     0
102
RTVSPost2010Prop53
 90
        2
102
RTVSPost2010PropOp53
 70
     1
102
RTVSPost2010Prop54
  1
strokes_ogs.tif
102
RTVSPost2010PropOp54
 70
     1
102
RTVSPost2010Prop55
280
     0
102
RTVSPost2010PropOp55
 70
     1
102
RTVSPost2010Prop56
140
1.0
102
RTVSPost2010PropOp56
 70
     1
102
RTVSPost2010Prop57
140
1.0
102
RTVSPost2010PropOp57
 70
     1
  0
XRECORD
  5
17F
102
{ACAD_REACTORS
330
17E
102
}
330
17E
100
AcDbXrecord
280
     1
102
RTVSPropertyOp0
 70
     1
102
RTVSPropertyOp1
 70
     1
102
RTVSPropertyOp2
 70
     1
102
RTVSPropertyOp3
 70
     1
102
RTVSPropertyOp4
 70
     1
102
RTVSPropertyOp5
 70
     1
102
RTVSPropertyOp6
 70
     1
102
RTVSPropertyOp7
 70
     1
102
RTVSPropertyOp8
 70
     1
102
RTVSPropertyOp9
 70
     1
102
RTVSPropertyOp10
 70
     1
102
RTVSPropertyOp11
 70
     1
102
RTVSPropertyOp12
 70
     1
102
RTVSPropertyOp13
 70
     1
102
RTVSPropertyOp14
 70
     1
102
RTVSPropertyOp15
 70
     1
102
RTVSPropertyOp16
 70
     1
102
RTVSPropertyOp17
 70
     1
102
RTVSPropertyOp18
 70
     1
102
RTVSPropertyOp19
 70
     1
102
RTVSPropertyOp20
 70
     1
102
RTVSPropertyOp21
 70
     1
102
RTVSPropertyOp22
 70
     1
102
RTVSPropertyOp23
 70
     1
102
RTVSPropertyOp24
 70
     1
102
RTVSPropertyOp25
 70
     1
102
RTVSPropertyOp26
 70
     1
102
RTVSPropertyOp27
 70
     1
102
RTVSPropertyOp28
 70
     1
102
RTVSPropertyOp29
 70
     1
102
RTVSPropertyOp30
 70
     1
102
RTVSPropertyOp31
 70
     1
102
RTVSPropertyOp32
 70
     1
102
RTVSPropertyOp33
 70
     1
102
RTVSPropertyOp34
 70
     1
102
RTVSPropertyOp35
 70
     1
102
RTVSPropertyOp36
 70
     1
102
RTVSPropertyOp37
 70
     1
102
RTVSPropertyOp38
 70
     1
102
RTVSPropertyOp39
 70
     1
102
RTVSPropertyOp40
 70
     1
102
RTVSPropertyOp41
 70
     1
102
RTVSPropertyOp42
 70
     1
102
RTVSPropertyOp43
 70
     1
102
RTVSPropertyOp44
 70
     1
102
RTVSPropertyOp45
 70
     1
102
RTVSPropertyOp46
 70
     1
102
RTVSPropertyOp47
 70
     1
102
RTVSPropertyOp48
 70
     1
102
RTVSPropertyOp49
 70
     1
102
RTVSPropertyOp50
 70
     1
102
RTVSPropertyOp51
 70
     0
102
RTVSPropertyOp52
 70
     0
102
RTVSPropertyOp53
 70
     1
102
RTVSPropertyOp54
 70
     1
102
RTVSPropertyOp55
 70
     1
102
RTVSPropertyOp56
 70
     1
102
RTVSPropertyOp57
 70
     1
102
RTVSPost2010Prop28
280
     0
102
RTVSPost2010PropOp28
 70
     1
102
RTVSPost2010Prop29
280
     1
102
RTVSPost2010PropOp29
 70
     1
102
RTVSPost2010Prop30
280
     1
102
RTVSPost2010PropOp30
 70
     1
102
RTVSPost2010Prop31
280
     0
102
RTVSPost2010PropOp31
 70
     1
102
RTVSPost2010Prop32
280
     0
102
RTVSPost2010PropOp32
 70
     1
102
RTVSPost2010Prop33
280
     0
102
RTVSPost2010PropOp33
 70
     1
102
RTVSPost2010Prop34
280
     0
102
RTVSPost2010PropOp34
 70
     1
102
RTVSPost2010Prop35
280
     0
102
RTVSPost2010PropOp35
 70
     1
102
RTVSPost2010Prop36
280
     0
102
RTVSPost2010PropOp36
 70
     1
102
RTVSPost2010Prop37
 90
       50
102
RTVSPost2010PropOp37
 70
     1
102
RTVSPost2010Prop38
140
0.0
102
RTVSPost2010PropOp38
 70
     1
102
RTVSPost2010Prop39
140
1.0
102
RTVSPost2010PropOp39
 70
     1
102
RTVSPost2010Prop40
 90
        0
102
RTVSPost2010PropOp40
 70
     1
102
RTVSPost2010Prop41ColorIndex
 90
       18
102
RTVSPost2010Prop41ColorRGB
 90
        0
102
RTVSPost2010PropOp41
 70
     1
102
RTVSPost2010Prop42
 90
       50
102
RTVSPost2010PropOp42
 70
     1
102
RTVSPost2010Prop43
 90
        3
102
RTVSPost2010PropOp43
 70
     1
102
RTVSPost2010Prop44ColorIndex
 90
        5
102
RTVSPost2010Prop44ColorRGB
 90
      255
102
RTVSPost2010PropOp44
 70
     1
102
RTVSPost2010Prop45
280
     0
102
RTVSPost2010PropOp45
 70
     1
102
RTVSPost2010Prop46
 90
       50
102
RTVSPost2010PropOp46
 70
     1
102
RTVSPost2010Prop47
 90
       50
102
RTVSPost2010PropOp47
 70
     1
102
RTVSPost2010Prop48
 90
       50
102
RTVSPost2010PropOp48
 70
     1
102
RTVSPost2010Prop49
280
     0
102
RTVSPost2010PropOp49
 70
     1
102
RTVSPost2010Prop50
 90
       50
102
RTVSPost2010PropOp50
 70
     1
102
RTVSPost2010Prop51ColorIndex
 90
      256
102
RTVSPost2010Prop51ColorRGB
 90
-16777216
102
RTVSPost2010PropOp51
 70
     0
102
RTVSPost2010Prop52
140
1.0
102
RTVSPost2010PropOp52
 70
     0
102
RTVSPost2010Prop53
 90
        2
102
RTVSPost2010PropOp53
 70
     1
102
RTVSPost2010Prop54
  1
strokes_ogs.tif
102
RTVSPost2010PropOp54
 70
     1
102
RTVSPost2010Prop55
280
     0
102
RTVSPost2010PropOp55
 70
     1
102
RTVSPost2010Prop56
140
1.0
102
RTVSPost2010PropOp56
 70
     1
102
RTVSPost2010Prop57
140
1.0
102
RTVSPost2010PropOp57
 70
     1
  0
XRECORD
  5
163
102
{ACAD_REACTORS
330
162
102
}
330
162
100
AcDbXrecord
280
     1
102
RTVSPropertyOp0
 70
     1
102
RTVSPropertyOp1
 70
     1
102
RTVSPropertyOp2
 70
     1
102
RTVSPropertyOp3
 70
     1
102
RTVSPropertyOp4
 70
     1
102
RTVSPropertyOp5
 70
     1
102
RTVSPropertyOp6
 70
     1
102
RTVSPropertyOp7
 70
     1
102
RTVSPropertyOp8
 70
     1
102
RTVSPropertyOp9
 70
     1
102
RTVSPropertyOp10
 70
     1
102
RTVSPropertyOp11
 70
     1
102
RTVSPropertyOp12
 70
     1
102
RTVSPropertyOp13
 70
     1
102
RTVSPropertyOp14
 70
     1
102
RTVSPropertyOp15
 70
     1
102
RTVSPropertyOp16
 70
     1
102
RTVSPropertyOp17
 70
     1
102
RTVSPropertyOp18
 70
     1
102
RTVSPropertyOp19
 70
     1
102
RTVSPropertyOp20
 70
     1
102
RTVSPropertyOp21
 70
     1
102
RTVSPropertyOp22
 70
     1
102
RTVSPropertyOp23
 70
     1
102
RTVSPropertyOp24
 70
     1
102
RTVSPropertyOp25
 70
     1
102
RTVSPropertyOp26
 70
     1
102
RTVSPropertyOp27
 70
     1
102
RTVSPropertyOp28
 70
     1
102
RTVSPropertyOp29
 70
     1
102
RTVSPropertyOp30
 70
     1
102
RTVSPropertyOp31
 70
     1
102
RTVSPropertyOp32
 70
     1
102
RTVSPropertyOp33
 70
     1
102
RTVSPropertyOp34
 70
     1
102
RTVSPropertyOp35
 70
     1
102
RTVSPropertyOp36
 70
     1
102
RTVSPropertyOp37
 70
     1
102
RTVSPropertyOp38
 70
     1
102
RTVSPropertyOp39
 70
     1
102
RTVSPropertyOp40
 70
     1
102
RTVSPropertyOp41
 70
     1
102
RTVSPropertyOp42
 70
     1
102
RTVSPropertyOp43
 70
     1
102
RTVSPropertyOp44
 70
     1
102
RTVSPropertyOp45
 70
     1
102
RTVSPropertyOp46
 70
     1
102
RTVSPropertyOp47
 70
     1
102
RTVSPropertyOp48
 70
     1
102
RTVSPropertyOp49
 70
     1
102
RTVSPropertyOp50
 70
     1
102
RTVSPropertyOp51
 70
     0
102
RTVSPropertyOp52
 70
     0
102
RTVSPropertyOp53
 70
     1
102
RTVSPropertyOp54
 70
     1
102
RTVSPropertyOp55
 70
     1
102
RTVSPropertyOp56
 70
     1
102
RTVSPropertyOp57
 70
     1
102
RTVSPost2010Prop28
280
     0
102
RTVSPost2010PropOp28
 70
     1
102
RTVSPost2010Prop29
280
     1
102
RTVSPost2010PropOp29
 70
     1
102
RTVSPost2010Prop30
280
     1
102
RTVSPost2010PropOp30
 70
     1
102
RTVSPost2010Prop31
280
     0
102
RTVSPost2010PropOp31
 70
     1
102
RTVSPost2010Prop32
280
     0
102
RTVSPost2010PropOp32
 70
     1
102
RTVSPost2010Prop33
280
     0
102
RTVSPost2010PropOp33
 70
     1
102
RTVSPost2010Prop34
280
     0
102
RTVSPost2010PropOp34
 70
     1
102
RTVSPost2010Prop35
280
     0
102
RTVSPost2010PropOp35
 70
     1
102
RTVSPost2010Prop36
280
     0
102
RTVSPost2010PropOp36
 70
     1
102
RTVSPost2010Prop37
 90
       50
102
RTVSPost2010PropOp37
 70
     1
102
RTVSPost2010Prop38
140
0.0
102
RTVSPost2010PropOp38
 70
     1
102
RTVSPost2010Prop39
140
1.0
102
RTVSPost2010PropOp39
 70
     1
102
RTVSPost2010Prop40
 90
        0
102
RTVSPost2010PropOp40
 70
     1
102
RTVSPost2010Prop41ColorIndex
 90
       18
102
RTVSPost2010Prop41ColorRGB
 90
        0
102
RTVSPost2010PropOp41
 70
     1
102
RTVSPost2010Prop42
 90
       50
102
RTVSPost2010PropOp42
 70
     1
102
RTVSPost2010Prop43
 90
        3
102
RTVSPost2010PropOp43
 70
     1
102
RTVSPost2010Prop44ColorIndex
 90
        5
102
RTVSPost2010Prop44ColorRGB
 90
      255
102
RTVSPost2010PropOp44
 70
     1
102
RTVSPost2010Prop45
280
     0
102
RTVSPost2010PropOp45
 70
     1
102
RTVSPost2010Prop46
 90
       50
102
RTVSPost2010PropOp46
 70
     1
102
RTVSPost2010Prop47
 90
       50
102
RTVSPost2010PropOp47
 70
     1
102
RTVSPost2010Prop48
 90
       50
102
RTVSPost2010PropOp48
 70
     1
102
RTVSPost2010Prop49
280
     0
102
RTVSPost2010PropOp49
 70
     1
102
RTVSPost2010Prop50
 90
       50
102
RTVSPost2010PropOp50
 70
     1
102
RTVSPost2010Prop51ColorIndex
 90
      256
102
RTVSPost2010Prop51ColorRGB
 90
-16777216
102
RTVSPost2010PropOp51
 70
     0
102
RTVSPost2010Prop52
140
1.0
102
RTVSPost2010PropOp52
 70
     0
102
RTVSPost2010Prop53
 90
        2
102
RTVSPost2010PropOp53
 70
     1
102
RTVSPost2010Prop54
  1
strokes_ogs.tif
102
RTVSPost2010PropOp54
 70
     1
102
RTVSPost2010Prop55
280
     0
102
RTVSPost2010PropOp55
 70
     1
102
RTVSPost2010Prop56
140
1.0
102
RTVSPost2010PropOp56
 70
     1
102
RTVSPost2010Prop57
140
1.0
102
RTVSPost2010PropOp57
 70
     1
  0
XRECORD
  5
165
102
{ACAD_REACTORS
330
164
102
}
330
164
100
AcDbXrecord
280
     1
102
RTVSPropertyOp0
 70
     1
102
RTVSPropertyOp1
 70
     1
102
RTVSPropertyOp2
 70
     1
102
RTVSPropertyOp3
 70
     1
102
RTVSPropertyOp4
 70
     1
102
RTVSPropertyOp5
 70
     1
102
RTVSPropertyOp6
 70
     1
102
RTVSPropertyOp7
 70
     1
102
RTVSPropertyOp8
 70
     1
102
RTVSPropertyOp9
 70
     1
102
RTVSPropertyOp10
 70
     1
102
RTVSPropertyOp11
 70
     1
102
RTVSPropertyOp12
 70
     1
102
RTVSPropertyOp13
 70
     1
102
RTVSPropertyOp14
 70
     1
102
RTVSPropertyOp15
 70
     1
102
RTVSPropertyOp16
 70
     1
102
RTVSPropertyOp17
 70
     1
102
RTVSPropertyOp18
 70
     1
102
RTVSPropertyOp19
 70
     1
102
RTVSPropertyOp20
 70
     1
102
RTVSPropertyOp21
 70
     1
102
RTVSPropertyOp22
 70
     1
102
RTVSPropertyOp23
 70
     1
102
RTVSPropertyOp24
 70
     1
102
RTVSPropertyOp25
 70
     1
102
RTVSPropertyOp26
 70
     1
102
RTVSPropertyOp27
 70
     1
102
RTVSPropertyOp28
 70
     1
102
RTVSPropertyOp29
 70
     1
102
RTVSPropertyOp30
 70
     1
102
RTVSPropertyOp31
 70
     1
102
RTVSPropertyOp32
 70
     1
102
RTVSPropertyOp33
 70
     1
102
RTVSPropertyOp34
 70
     1
102
RTVSPropertyOp35
 70
     1
102
RTVSPropertyOp36
 70
     1
102
RTVSPropertyOp37
 70
     1
102
RTVSPropertyOp38
 70
     1
102
RTVSPropertyOp39
 70
     1
102
RTVSPropertyOp40
 70
     1
102
RTVSPropertyOp41
 70
     1
102
RTVSPropertyOp42
 70
     1
102
RTVSPropertyOp43
 70
     1
102
RTVSPropertyOp44
 70
     1
102
RTVSPropertyOp45
 70
     1
102
RTVSPropertyOp46
 70
     1
102
RTVSPropertyOp47
 70
     1
102
RTVSPropertyOp48
 70
     1
102
RTVSPropertyOp49
 70
     1
102
RTVSPropertyOp50
 70
     1
102
RTVSPropertyOp51
 70
     0
102
RTVSPropertyOp52
 70
     0
102
RTVSPropertyOp53
 70
     1
102
RTVSPropertyOp54
 70
     1
102
RTVSPropertyOp55
 70
     1
102
RTVSPropertyOp56
 70
     1
102
RTVSPropertyOp57
 70
     1
102
RTVSPost2010Prop28
280
     0
102
RTVSPost2010PropOp28
 70
     1
102
RTVSPost2010Prop29
280
     1
102
RTVSPost2010PropOp29
 70
     1
102
RTVSPost2010Prop30
280
     1
102
RTVSPost2010PropOp30
 70
     1
102
RTVSPost2010Prop31
280
     0
102
RTVSPost2010PropOp31
 70
     1
102
RTVSPost2010Prop32
280
     0
102
RTVSPost2010PropOp32
 70
     1
102
RTVSPost2010Prop33
280
     0
102
RTVSPost2010PropOp33
 70
     1
102
RTVSPost2010Prop34
280
     0
102
RTVSPost2010PropOp34
 70
     1
102
RTVSPost2010Prop35
280
     0
102
RTVSPost2010PropOp35
 70
     1
102
RTVSPost2010Prop36
280
     0
102
RTVSPost2010PropOp36
 70
     1
102
RTVSPost2010Prop37
 90
       50
102
RTVSPost2010PropOp37
 70
     1
102
RTVSPost2010Prop38
140
0.0
102
RTVSPost2010PropOp38
 70
     1
102
RTVSPost2010Prop39
140
1.0
102
RTVSPost2010PropOp39
 70
     1
102
RTVSPost2010Prop40
 90
        0
102
RTVSPost2010PropOp40
 70
     1
102
RTVSPost2010Prop41ColorIndex
 90
       18
102
RTVSPost2010Prop41ColorRGB
 90
        0
102
RTVSPost2010PropOp41
 70
     1
102
RTVSPost2010Prop42
 90
       50
102
RTVSPost2010PropOp42
 70
     1
102
RTVSPost2010Prop43
 90
        3
102
RTVSPost2010PropOp43
 70
     1
102
RTVSPost2010Prop44ColorIndex
 90
        5
102
RTVSPost2010Prop44ColorRGB
 90
      255
102
RTVSPost2010PropOp44
 70
     1
102
RTVSPost2010Prop45
280
     0
102
RTVSPost2010PropOp45
 70
     1
102
RTVSPost2010Prop46
 90
       50
102
RTVSPost2010PropOp46
 70
     1
102
RTVSPost2010Prop47
 90
       50
102
RTVSPost2010PropOp47
 70
     1
102
RTVSPost2010Prop48
 90
       50
102
RTVSPost2010PropOp48
 70
     1
102
RTVSPost2010Prop49
280
     0
102
RTVSPost2010PropOp49
 70
     1
102
RTVSPost2010Prop50
 90
       50
102
RTVSPost2010PropOp50
 70
     1
102
RTVSPost2010Prop51ColorIndex
 90
      256
102
RTVSPost2010Prop51ColorRGB
 90
-16777216
102
RTVSPost2010PropOp51
 70
     0
102
RTVSPost2010Prop52
140
1.0
102
RTVSPost2010PropOp52
 70
     0
102
RTVSPost2010Prop53
 90
        2
102
RTVSPost2010PropOp53
 70
     1
102
RTVSPost2010Prop54
  1
strokes_ogs.tif
102
RTVSPost2010PropOp54
 70
     1
102
RTVSPost2010Prop55
280
     0
102
RTVSPost2010PropOp55
 70
     1
102
RTVSPost2010Prop56
140
1.0
102
RTVSPost2010PropOp56
 70
     1
102
RTVSPost2010Prop57
140
1.0
102
RTVSPost2010PropOp57
 70
     1
  0
XRECORD
  5
167
102
{ACAD_REACTORS
330
166
102
}
330
166
100
AcDbXrecord
280
     1
102
RTVSPropertyOp0
 70
     1
102
RTVSPropertyOp1
 70
     1
102
RTVSPropertyOp2
 70
     1
102
RTVSPropertyOp3
 70
     1
102
RTVSPropertyOp4
 70
     1
102
RTVSPropertyOp5
 70
     1
102
RTVSPropertyOp6
 70
     1
102
RTVSPropertyOp7
 70
     1
102
RTVSPropertyOp8
 70
     1
102
RTVSPropertyOp9
 70
     1
102
RTVSPropertyOp10
 70
     1
102
RTVSPropertyOp11
 70
     1
102
RTVSPropertyOp12
 70
     1
102
RTVSPropertyOp13
 70
     1
102
RTVSPropertyOp14
 70
     1
102
RTVSPropertyOp15
 70
     1
102
RTVSPropertyOp16
 70
     1
102
RTVSPropertyOp17
 70
     1
102
RTVSPropertyOp18
 70
     1
102
RTVSPropertyOp19
 70
     1
102
RTVSPropertyOp20
 70
     1
102
RTVSPropertyOp21
 70
     1
102
RTVSPropertyOp22
 70
     1
102
RTVSPropertyOp23
 70
     1
102
RTVSPropertyOp24
 70
     1
102
RTVSPropertyOp25
 70
     1
102
RTVSPropertyOp26
 70
     1
102
RTVSPropertyOp27
 70
     1
102
RTVSPropertyOp28
 70
     1
102
RTVSPropertyOp29
 70
     1
102
RTVSPropertyOp30
 70
     1
102
RTVSPropertyOp31
 70
     1
102
RTVSPropertyOp32
 70
     1
102
RTVSPropertyOp33
 70
     1
102
RTVSPropertyOp34
 70
     1
102
RTVSPropertyOp35
 70
     1
102
RTVSPropertyOp36
 70
     1
102
RTVSPropertyOp37
 70
     1
102
RTVSPropertyOp38
 70
     1
102
RTVSPropertyOp39
 70
     1
102
RTVSPropertyOp40
 70
     1
102
RTVSPropertyOp41
 70
     1
102
RTVSPropertyOp42
 70
     1
102
RTVSPropertyOp43
 70
     1
102
RTVSPropertyOp44
 70
     1
102
RTVSPropertyOp45
 70
     1
102
RTVSPropertyOp46
 70
     1
102
RTVSPropertyOp47
 70
     1
102
RTVSPropertyOp48
 70
     1
102
RTVSPropertyOp49
 70
     1
102
RTVSPropertyOp50
 70
     1
102
RTVSPropertyOp51
 70
     0
102
RTVSPropertyOp52
 70
     0
102
RTVSPropertyOp53
 70
     1
102
RTVSPropertyOp54
 70
     1
102
RTVSPropertyOp55
 70
     1
102
RTVSPropertyOp56
 70
     1
102
RTVSPropertyOp57
 70
     1
102
RTVSPost2010Prop28
280
     0
102
RTVSPost2010PropOp28
 70
     1
102
RTVSPost2010Prop29
280
     1
102
RTVSPost2010PropOp29
 70
     1
102
RTVSPost2010Prop30
280
     1
102
RTVSPost2010PropOp30
 70
     1
102
RTVSPost2010Prop31
280
     0
102
RTVSPost2010PropOp31
 70
     1
102
RTVSPost2010Prop32
280
     0
102
RTVSPost2010PropOp32
 70
     1
102
RTVSPost2010Prop33
280
     0
102
RTVSPost2010PropOp33
 70
     1
102
RTVSPost2010Prop34
280
     0
102
RTVSPost2010PropOp34
 70
     1
102
RTVSPost2010Prop35
280
     0
102
RTVSPost2010PropOp35
 70
     1
102
RTVSPost2010Prop36
280
     0
102
RTVSPost2010PropOp36
 70
     1
102
RTVSPost2010Prop37
 90
       50
102
RTVSPost2010PropOp37
 70
     1
102
RTVSPost2010Prop38
140
0.0
102
RTVSPost2010PropOp38
 70
     1
102
RTVSPost2010Prop39
140
1.0
102
RTVSPost2010PropOp39
 70
     1
102
RTVSPost2010Prop40
 90
        0
102
RTVSPost2010PropOp40
 70
     1
102
RTVSPost2010Prop41ColorIndex
 90
       18
102
RTVSPost2010Prop41ColorRGB
 90
        0
102
RTVSPost2010PropOp41
 70
     1
102
RTVSPost2010Prop42
 90
       50
102
RTVSPost2010PropOp42
 70
     1
102
RTVSPost2010Prop43
 90
        3
102
RTVSPost2010PropOp43
 70
     1
102
RTVSPost2010Prop44ColorIndex
 90
        5
102
RTVSPost2010Prop44ColorRGB
 90
      255
102
RTVSPost2010PropOp44
 70
     1
102
RTVSPost2010Prop45
280
     0
102
RTVSPost2010PropOp45
 70
     1
102
RTVSPost2010Prop46
 90
       50
102
RTVSPost2010PropOp46
 70
     1
102
RTVSPost2010Prop47
 90
       50
102
RTVSPost2010PropOp47
 70
     1
102
RTVSPost2010Prop48
 90
       50
102
RTVSPost2010PropOp48
 70
     1
102
RTVSPost2010Prop49
280
     0
102
RTVSPost2010PropOp49
 70
     1
102
RTVSPost2010Prop50
 90
       50
102
RTVSPost2010PropOp50
 70
     1
102
RTVSPost2010Prop51ColorIndex
 90
      256
102
RTVSPost2010Prop51ColorRGB
 90
-16777216
102
RTVSPost2010PropOp51
 70
     0
102
RTVSPost2010Prop52
140
1.0
102
RTVSPost2010PropOp52
 70
     0
102
RTVSPost2010Prop53
 90
        2
102
RTVSPost2010PropOp53
 70
     1
102
RTVSPost2010Prop54
  1
strokes_ogs.tif
102
RTVSPost2010PropOp54
 70
     1
102
RTVSPost2010Prop55
280
     0
102
RTVSPost2010PropOp55
 70
     1
102
RTVSPost2010Prop56
140
1.0
102
RTVSPost2010PropOp56
 70
     1
102
RTVSPost2010Prop57
140
1.0
102
RTVSPost2010PropOp57
 70
     1
  0
XRECORD
  5
169
102
{ACAD_REACTORS
330
168
102
}
330
168
100
AcDbXrecord
280
     1
102
RTVSPropertyOp0
 70
     1
102
RTVSPropertyOp1
 70
     1
102
RTVSPropertyOp2
 70
     1
102
RTVSPropertyOp3
 70
     1
102
RTVSPropertyOp4
 70
     1
102
RTVSPropertyOp5
 70
     1
102
RTVSPropertyOp6
 70
     1
102
RTVSPropertyOp7
 70
     1
102
RTVSPropertyOp8
 70
     1
102
RTVSPropertyOp9
 70
     1
102
RTVSPropertyOp10
 70
     1
102
RTVSPropertyOp11
 70
     1
102
RTVSPropertyOp12
 70
     1
102
RTVSPropertyOp13
 70
     1
102
RTVSPropertyOp14
 70
     1
102
RTVSPropertyOp15
 70
     1
102
RTVSPropertyOp16
 70
     1
102
RTVSPropertyOp17
 70
     1
102
RTVSPropertyOp18
 70
     1
102
RTVSPropertyOp19
 70
     1
102
RTVSPropertyOp20
 70
     1
102
RTVSPropertyOp21
 70
     1
102
RTVSPropertyOp22
 70
     1
102
RTVSPropertyOp23
 70
     1
102
RTVSPropertyOp24
 70
     1
102
RTVSPropertyOp25
 70
     1
102
RTVSPropertyOp26
 70
     1
102
RTVSPropertyOp27
 70
     1
102
RTVSPropertyOp28
 70
     1
102
RTVSPropertyOp29
 70
     1
102
RTVSPropertyOp30
 70
     1
102
RTVSPropertyOp31
 70
     1
102
RTVSPropertyOp32
 70
     1
102
RTVSPropertyOp33
 70
     1
102
RTVSPropertyOp34
 70
     1
102
RTVSPropertyOp35
 70
     1
102
RTVSPropertyOp36
 70
     1
102
RTVSPropertyOp37
 70
     1
102
RTVSPropertyOp38
 70
     1
102
RTVSPropertyOp39
 70
     1
102
RTVSPropertyOp40
 70
     1
102
RTVSPropertyOp41
 70
     1
102
RTVSPropertyOp42
 70
     1
102
RTVSPropertyOp43
 70
     1
102
RTVSPropertyOp44
 70
     1
102
RTVSPropertyOp45
 70
     1
102
RTVSPropertyOp46
 70
     1
102
RTVSPropertyOp47
 70
     1
102
RTVSPropertyOp48
 70
     1
102
RTVSPropertyOp49
 70
     1
102
RTVSPropertyOp50
 70
     1
102
RTVSPropertyOp51
 70
     0
102
RTVSPropertyOp52
 70
     0
102
RTVSPropertyOp53
 70
     1
102
RTVSPropertyOp54
 70
     1
102
RTVSPropertyOp55
 70
     1
102
RTVSPropertyOp56
 70
     1
102
RTVSPropertyOp57
 70
     1
102
RTVSPost2010Prop28
280
     0
102
RTVSPost2010PropOp28
 70
     1
102
RTVSPost2010Prop29
280
     1
102
RTVSPost2010PropOp29
 70
     1
102
RTVSPost2010Prop30
280
     1
102
RTVSPost2010PropOp30
 70
     1
102
RTVSPost2010Prop31
280
     0
102
RTVSPost2010PropOp31
 70
     1
102
RTVSPost2010Prop32
280
     0
102
RTVSPost2010PropOp32
 70
     1
102
RTVSPost2010Prop33
280
     0
102
RTVSPost2010PropOp33
 70
     1
102
RTVSPost2010Prop34
280
     0
102
RTVSPost2010PropOp34
 70
     1
102
RTVSPost2010Prop35
280
     0
102
RTVSPost2010PropOp35
 70
     1
102
RTVSPost2010Prop36
280
     0
102
RTVSPost2010PropOp36
 70
     1
102
RTVSPost2010Prop37
 90
       50
102
RTVSPost2010PropOp37
 70
     1
102
RTVSPost2010Prop38
140
0.0
102
RTVSPost2010PropOp38
 70
     1
102
RTVSPost2010Prop39
140
1.0
102
RTVSPost2010PropOp39
 70
     1
102
RTVSPost2010Prop40
 90
        0
102
RTVSPost2010PropOp40
 70
     1
102
RTVSPost2010Prop41ColorIndex
 90
       18
102
RTVSPost2010Prop41ColorRGB
 90
        0
102
RTVSPost2010PropOp41
 70
     1
102
RTVSPost2010Prop42
 90
       50
102
RTVSPost2010PropOp42
 70
     1
102
RTVSPost2010Prop43
 90
        3
102
RTVSPost2010PropOp43
 70
     1
102
RTVSPost2010Prop44ColorIndex
 90
        5
102
RTVSPost2010Prop44ColorRGB
 90
      255
102
RTVSPost2010PropOp44
 70
     1
102
RTVSPost2010Prop45
280
     0
102
RTVSPost2010PropOp45
 70
     1
102
RTVSPost2010Prop46
 90
       50
102
RTVSPost2010PropOp46
 70
     1
102
RTVSPost2010Prop47
 90
       50
102
RTVSPost2010PropOp47
 70
     1
102
RTVSPost2010Prop48
 90
       50
102
RTVSPost2010PropOp48
 70
     1
102
RTVSPost2010Prop49
280
     0
102
RTVSPost2010PropOp49
 70
     1
102
RTVSPost2010Prop50
 90
       50
102
RTVSPost2010PropOp50
 70
     1
102
RTVSPost2010Prop51ColorIndex
 90
      256
102
RTVSPost2010Prop51ColorRGB
 90
-16777216
102
RTVSPost2010PropOp51
 70
     0
102
RTVSPost2010Prop52
140
1.0
102
RTVSPost2010PropOp52
 70
     0
102
RTVSPost2010Prop53
 90
        2
102
RTVSPost2010PropOp53
 70
     1
102
RTVSPost2010Prop54
  1
strokes_ogs.tif
102
RTVSPost2010PropOp54
 70
     1
102
RTVSPost2010Prop55
280
     0
102
RTVSPost2010PropOp55
 70
     1
102
RTVSPost2010Prop56
140
1.0
102
RTVSPost2010PropOp56
 70
     1
102
RTVSPost2010Prop57
140
1.0
102
RTVSPost2010PropOp57
 70
     1
  0
XRECORD
  5
17D
102
{ACAD_REACTORS
330
17C
102
}
330
17C
100
AcDbXrecord
280
     1
102
RTVSPropertyOp0
 70
     1
102
RTVSPropertyOp1
 70
     1
102
RTVSPropertyOp2
 70
     1
102
RTVSPropertyOp3
 70
     1
102
RTVSPropertyOp4
 70
     1
102
RTVSPropertyOp5
 70
     1
102
RTVSPropertyOp6
 70
     1
102
RTVSPropertyOp7
 70
     1
102
RTVSPropertyOp8
 70
     1
102
RTVSPropertyOp9
 70
     1
102
RTVSPropertyOp10
 70
     1
102
RTVSPropertyOp11
 70
     1
102
RTVSPropertyOp12
 70
     1
102
RTVSPropertyOp13
 70
     1
102
RTVSPropertyOp14
 70
     1
102
RTVSPropertyOp15
 70
     1
102
RTVSPropertyOp16
 70
     1
102
RTVSPropertyOp17
 70
     1
102
RTVSPropertyOp18
 70
     1
102
RTVSPropertyOp19
 70
     1
102
RTVSPropertyOp20
 70
     1
102
RTVSPropertyOp21
 70
     1
102
RTVSPropertyOp22
 70
     1
102
RTVSPropertyOp23
 70
     1
102
RTVSPropertyOp24
 70
     1
102
RTVSPropertyOp25
 70
     1
102
RTVSPropertyOp26
 70
     1
102
RTVSPropertyOp27
 70
     1
102
RTVSPropertyOp28
 70
     1
102
RTVSPropertyOp29
 70
     1
102
RTVSPropertyOp30
 70
     1
102
RTVSPropertyOp31
 70
     1
102
RTVSPropertyOp32
 70
     1
102
RTVSPropertyOp33
 70
     1
102
RTVSPropertyOp34
 70
     1
102
RTVSPropertyOp35
 70
     1
102
RTVSPropertyOp36
 70
     1
102
RTVSPropertyOp37
 70
     1
102
RTVSPropertyOp38
 70
     1
102
RTVSPropertyOp39
 70
     1
102
RTVSPropertyOp40
 70
     1
102
RTVSPropertyOp41
 70
     1
102
RTVSPropertyOp42
 70
     1
102
RTVSPropertyOp43
 70
     1
102
RTVSPropertyOp44
 70
     1
102
RTVSPropertyOp45
 70
     1
102
RTVSPropertyOp46
 70
     1
102
RTVSPropertyOp47
 70
     1
102
RTVSPropertyOp48
 70
     1
102
RTVSPropertyOp49
 70
     1
102
RTVSPropertyOp50
 70
     1
102
RTVSPropertyOp51
 70
     0
102
RTVSPropertyOp52
 70
     0
102
RTVSPropertyOp53
 70
     1
102
RTVSPropertyOp54
 70
     1
102
RTVSPropertyOp55
 70
     1
102
RTVSPropertyOp56
 70
     1
102
RTVSPropertyOp57
 70
     1
102
RTVSPost2010Prop28
280
     0
102
RTVSPost2010PropOp28
 70
     1
102
RTVSPost2010Prop29
280
     1
102
RTVSPost2010PropOp29
 70
     1
102
RTVSPost2010Prop30
280
     1
102
RTVSPost2010PropOp30
 70
     1
102
RTVSPost2010Prop31
280
     0
102
RTVSPost2010PropOp31
 70
     1
102
RTVSPost2010Prop32
280
     0
102
RTVSPost2010PropOp32
 70
     1
102
RTVSPost2010Prop33
280
     0
102
RTVSPost2010PropOp33
 70
     1
102
RTVSPost2010Prop34
280
     0
102
RTVSPost2010PropOp34
 70
     1
102
RTVSPost2010Prop35
280
     0
102
RTVSPost2010PropOp35
 70
     1
102
RTVSPost2010Prop36
280
     0
102
RTVSPost2010PropOp36
 70
     1
102
RTVSPost2010Prop37
 90
       50
102
RTVSPost2010PropOp37
 70
     1
102
RTVSPost2010Prop38
140
0.0
102
RTVSPost2010PropOp38
 70
     1
102
RTVSPost2010Prop39
140
1.0
102
RTVSPost2010PropOp39
 70
     1
102
RTVSPost2010Prop40
 90
        0
102
RTVSPost2010PropOp40
 70
     1
102
RTVSPost2010Prop41ColorIndex
 90
       18
102
RTVSPost2010Prop41ColorRGB
 90
        0
102
RTVSPost2010PropOp41
 70
     1
102
RTVSPost2010Prop42
 90
       50
102
RTVSPost2010PropOp42
 70
     1
102
RTVSPost2010Prop43
 90
        3
102
RTVSPost2010PropOp43
 70
     1
102
RTVSPost2010Prop44ColorIndex
 90
        5
102
RTVSPost2010Prop44ColorRGB
 90
      255
102
RTVSPost2010PropOp44
 70
     1
102
RTVSPost2010Prop45
280
     0
102
RTVSPost2010PropOp45
 70
     1
102
RTVSPost2010Prop46
 90
       50
102
RTVSPost2010PropOp46
 70
     1
102
RTVSPost2010Prop47
 90
       50
102
RTVSPost2010PropOp47
 70
     1
102
RTVSPost2010Prop48
 90
       50
102
RTVSPost2010PropOp48
 70
     1
102
RTVSPost2010Prop49
280
     0
102
RTVSPost2010PropOp49
 70
     1
102
RTVSPost2010Prop50
 90
       50
102
RTVSPost2010PropOp50
 70
     1
102
RTVSPost2010Prop51ColorIndex
 90
      256
102
RTVSPost2010Prop51ColorRGB
 90
-16777216
102
RTVSPost2010PropOp51
 70
     0
102
RTVSPost2010Prop52
140
1.0
102
RTVSPost2010PropOp52
 70
     0
102
RTVSPost2010Prop53
 90
        2
102
RTVSPost2010PropOp53
 70
     1
102
RTVSPost2010Prop54
  1
strokes_ogs.tif
102
RTVSPost2010PropOp54
 70
     1
102
RTVSPost2010Prop55
280
     0
102
RTVSPost2010PropOp55
 70
     1
102
RTVSPost2010Prop56
140
1.0
102
RTVSPost2010PropOp56
 70
     1
102
RTVSPost2010Prop57
140
1.0
102
RTVSPost2010PropOp57
 70
     1
  0
XRECORD
  5
173
102
{ACAD_REACTORS
330
172
102
}
330
172
100
AcDbXrecord
280
     1
102
RTVSPropertyOp0
 70
     1
102
RTVSPropertyOp1
 70
     1
102
RTVSPropertyOp2
 70
     1
102
RTVSPropertyOp3
 70
     1
102
RTVSPropertyOp4
 70
     1
102
RTVSPropertyOp5
 70
     1
102
RTVSPropertyOp6
 70
     1
102
RTVSPropertyOp7
 70
     1
102
RTVSPropertyOp8
 70
     1
102
RTVSPropertyOp9
 70
     1
102
RTVSPropertyOp10
 70
     1
102
RTVSPropertyOp11
 70
     1
102
RTVSPropertyOp12
 70
     1
102
RTVSPropertyOp13
 70
     1
102
RTVSPropertyOp14
 70
     1
102
RTVSPropertyOp15
 70
     1
102
RTVSPropertyOp16
 70
     1
102
RTVSPropertyOp17
 70
     1
102
RTVSPropertyOp18
 70
     1
102
RTVSPropertyOp19
 70
     1
102
RTVSPropertyOp20
 70
     1
102
RTVSPropertyOp21
 70
     1
102
RTVSPropertyOp22
 70
     1
102
RTVSPropertyOp23
 70
     1
102
RTVSPropertyOp24
 70
     1
102
RTVSPropertyOp25
 70
     1
102
RTVSPropertyOp26
 70
     1
102
RTVSPropertyOp27
 70
     1
102
RTVSPropertyOp28
 70
     1
102
RTVSPropertyOp29
 70
     1
102
RTVSPropertyOp30
 70
     1
102
RTVSPropertyOp31
 70
     1
102
RTVSPropertyOp32
 70
     1
102
RTVSPropertyOp33
 70
     1
102
RTVSPropertyOp34
 70
     1
102
RTVSPropertyOp35
 70
     1
102
RTVSPropertyOp36
 70
     1
102
RTVSPropertyOp37
 70
     1
102
RTVSPropertyOp38
 70
     1
102
RTVSPropertyOp39
 70
     1
102
RTVSPropertyOp40
 70
     1
102
RTVSPropertyOp41
 70
     1
102
RTVSPropertyOp42
 70
     1
102
RTVSPropertyOp43
 70
     1
102
RTVSPropertyOp44
 70
     1
102
RTVSPropertyOp45
 70
     1
102
RTVSPropertyOp46
 70
     1
102
RTVSPropertyOp47
 70
     1
102
RTVSPropertyOp48
 70
     1
102
RTVSPropertyOp49
 70
     1
102
RTVSPropertyOp50
 70
     1
102
RTVSPropertyOp51
 70
     0
102
RTVSPropertyOp52
 70
     0
102
RTVSPropertyOp53
 70
     1
102
RTVSPropertyOp54
 70
     1
102
RTVSPropertyOp55
 70
     1
102
RTVSPropertyOp56
 70
     1
102
RTVSPropertyOp57
 70
     1
102
RTVSPost2010Prop28
280
     0
102
RTVSPost2010PropOp28
 70
     1
102
RTVSPost2010Prop29
280
     1
102
RTVSPost2010PropOp29
 70
     1
102
RTVSPost2010Prop30
280
     1
102
RTVSPost2010PropOp30
 70
     1
102
RTVSPost2010Prop31
280
     0
102
RTVSPost2010PropOp31
 70
     1
102
RTVSPost2010Prop32
280
     0
102
RTVSPost2010PropOp32
 70
     1
102
RTVSPost2010Prop33
280
     0
102
RTVSPost2010PropOp33
 70
     1
102
RTVSPost2010Prop34
280
     0
102
RTVSPost2010PropOp34
 70
     1
102
RTVSPost2010Prop35
280
     0
102
RTVSPost2010PropOp35
 70
     1
102
RTVSPost2010Prop36
280
     0
102
RTVSPost2010PropOp36
 70
     1
102
RTVSPost2010Prop37
 90
       50
102
RTVSPost2010PropOp37
 70
     1
102
RTVSPost2010Prop38
140
0.0
102
RTVSPost2010PropOp38
 70
     1
102
RTVSPost2010Prop39
140
1.0
102
RTVSPost2010PropOp39
 70
     1
102
RTVSPost2010Prop40
 90
        0
102
RTVSPost2010PropOp40
 70
     1
102
RTVSPost2010Prop41ColorIndex
 90
       18
102
RTVSPost2010Prop41ColorRGB
 90
        0
102
RTVSPost2010PropOp41
 70
     1
102
RTVSPost2010Prop42
 90
       50
102
RTVSPost2010PropOp42
 70
     1
102
RTVSPost2010Prop43
 90
        3
102
RTVSPost2010PropOp43
 70
     1
102
RTVSPost2010Prop44ColorIndex
 90
        5
102
RTVSPost2010Prop44ColorRGB
 90
      255
102
RTVSPost2010PropOp44
 70
     1
102
RTVSPost2010Prop45
280
     0
102
RTVSPost2010PropOp45
 70
     1
102
RTVSPost2010Prop46
 90
       50
102
RTVSPost2010PropOp46
 70
     1
102
RTVSPost2010Prop47
 90
       50
102
RTVSPost2010PropOp47
 70
     1
102
RTVSPost2010Prop48
 90
       50
102
RTVSPost2010PropOp48
 70
     1
102
RTVSPost2010Prop49
280
     0
102
RTVSPost2010PropOp49
 70
     1
102
RTVSPost2010Prop50
 90
       50
102
RTVSPost2010PropOp50
 70
     1
102
RTVSPost2010Prop51ColorIndex
 90
      256
102
RTVSPost2010Prop51ColorRGB
 90
-16777216
102
RTVSPost2010PropOp51
 70
     0
102
RTVSPost2010Prop52
140
1.0
102
RTVSPost2010PropOp52
 70
     0
102
RTVSPost2010Prop53
 90
        2
102
RTVSPost2010PropOp53
 70
     1
102
RTVSPost2010Prop54
  1
strokes_ogs.tif
102
RTVSPost2010PropOp54
 70
     1
102
RTVSPost2010Prop55
280
     0
102
RTVSPost2010PropOp55
 70
     1
102
RTVSPost2010Prop56
140
1.0
102
RTVSPost2010PropOp56
 70
     1
102
RTVSPost2010Prop57
140
1.0
102
RTVSPost2010PropOp57
 70
     1
  0
XRECORD
  5
17B
102
{ACAD_REACTORS
330
17A
102
}
330
17A
100
AcDbXrecord
280
     1
102
RTVSPropertyOp0
 70
     1
102
RTVSPropertyOp1
 70
     1
102
RTVSPropertyOp2
 70
     1
102
RTVSPropertyOp3
 70
     1
102
RTVSPropertyOp4
 70
     1
102
RTVSPropertyOp5
 70
     1
102
RTVSPropertyOp6
 70
     1
102
RTVSPropertyOp7
 70
     1
102
RTVSPropertyOp8
 70
     1
102
RTVSPropertyOp9
 70
     1
102
RTVSPropertyOp10
 70
     1
102
RTVSPropertyOp11
 70
     1
102
RTVSPropertyOp12
 70
     1
102
RTVSPropertyOp13
 70
     1
102
RTVSPropertyOp14
 70
     1
102
RTVSPropertyOp15
 70
     1
102
RTVSPropertyOp16
 70
     1
102
RTVSPropertyOp17
 70
     1
102
RTVSPropertyOp18
 70
     1
102
RTVSPropertyOp19
 70
     1
102
RTVSPropertyOp20
 70
     1
102
RTVSPropertyOp21
 70
     1
102
RTVSPropertyOp22
 70
     1
102
RTVSPropertyOp23
 70
     1
102
RTVSPropertyOp24
 70
     1
102
RTVSPropertyOp25
 70
     1
102
RTVSPropertyOp26
 70
     1
102
RTVSPropertyOp27
 70
     1
102
RTVSPropertyOp28
 70
     1
102
RTVSPropertyOp29
 70
     1
102
RTVSPropertyOp30
 70
     1
102
RTVSPropertyOp31
 70
     1
102
RTVSPropertyOp32
 70
     1
102
RTVSPropertyOp33
 70
     1
102
RTVSPropertyOp34
 70
     1
102
RTVSPropertyOp35
 70
     1
102
RTVSPropertyOp36
 70
     1
102
RTVSPropertyOp37
 70
     1
102
RTVSPropertyOp38
 70
     1
102
RTVSPropertyOp39
 70
     1
102
RTVSPropertyOp40
 70
     1
102
RTVSPropertyOp41
 70
     1
102
RTVSPropertyOp42
 70
     1
102
RTVSPropertyOp43
 70
     1
102
RTVSPropertyOp44
 70
     1
102
RTVSPropertyOp45
 70
     1
102
RTVSPropertyOp46
 70
     1
102
RTVSPropertyOp47
 70
     1
102
RTVSPropertyOp48
 70
     1
102
RTVSPropertyOp49
 70
     1
102
RTVSPropertyOp50
 70
     1
102
RTVSPropertyOp51
 70
     0
102
RTVSPropertyOp52
 70
     0
102
RTVSPropertyOp53
 70
     1
102
RTVSPropertyOp54
 70
     1
102
RTVSPropertyOp55
 70
     1
102
RTVSPropertyOp56
 70
     1
102
RTVSPropertyOp57
 70
     1
102
RTVSPost2010Prop28
280
     0
102
RTVSPost2010PropOp28
 70
     1
102
RTVSPost2010Prop29
280
     1
102
RTVSPost2010PropOp29
 70
     1
102
RTVSPost2010Prop30
280
     1
102
RTVSPost2010PropOp30
 70
     1
102
RTVSPost2010Prop31
280
     0
102
RTVSPost2010PropOp31
 70
     1
102
RTVSPost2010Prop32
280
     0
102
RTVSPost2010PropOp32
 70
     1
102
RTVSPost2010Prop33
280
     0
102
RTVSPost2010PropOp33
 70
     1
102
RTVSPost2010Prop34
280
     0
102
RTVSPost2010PropOp34
 70
     1
102
RTVSPost2010Prop35
280
     0
102
RTVSPost2010PropOp35
 70
     1
102
RTVSPost2010Prop36
280
     0
102
RTVSPost2010PropOp36
 70
     1
102
RTVSPost2010Prop37
 90
       50
102
RTVSPost2010PropOp37
 70
     1
102
RTVSPost2010Prop38
140
0.0
102
RTVSPost2010PropOp38
 70
     1
102
RTVSPost2010Prop39
140
1.0
102
RTVSPost2010PropOp39
 70
     1
102
RTVSPost2010Prop40
 90
        0
102
RTVSPost2010PropOp40
 70
     1
102
RTVSPost2010Prop41ColorIndex
 90
       18
102
RTVSPost2010Prop41ColorRGB
 90
        0
102
RTVSPost2010PropOp41
 70
     1
102
RTVSPost2010Prop42
 90
       50
102
RTVSPost2010PropOp42
 70
     1
102
RTVSPost2010Prop43
 90
        3
102
RTVSPost2010PropOp43
 70
     1
102
RTVSPost2010Prop44ColorIndex
 90
        5
102
RTVSPost2010Prop44ColorRGB
 90
      255
102
RTVSPost2010PropOp44
 70
     1
102
RTVSPost2010Prop45
280
     0
102
RTVSPost2010PropOp45
 70
     1
102
RTVSPost2010Prop46
 90
       50
102
RTVSPost2010PropOp46
 70
     1
102
RTVSPost2010Prop47
 90
       50
102
RTVSPost2010PropOp47
 70
     1
102
RTVSPost2010Prop48
 90
       50
102
RTVSPost2010PropOp48
 70
     1
102
RTVSPost2010Prop49
280
     0
102
RTVSPost2010PropOp49
 70
     1
102
RTVSPost2010Prop50
 90
       50
102
RTVSPost2010PropOp50
 70
     1
102
RTVSPost2010Prop51ColorIndex
 90
      256
102
RTVSPost2010Prop51ColorRGB
 90
-16777216
102
RTVSPost2010PropOp51
 70
     0
102
RTVSPost2010Prop52
140
1.0
102
RTVSPost2010PropOp52
 70
     0
102
RTVSPost2010Prop53
 90
        2
102
RTVSPost2010PropOp53
 70
     1
102
RTVSPost2010Prop54
  1
strokes_ogs.tif
102
RTVSPost2010PropOp54
 70
     1
102
RTVSPost2010Prop55
280
     0
102
RTVSPost2010PropOp55
 70
     1
102
RTVSPost2010Prop56
140
1.0
102
RTVSPost2010PropOp56
 70
     1
102
RTVSPost2010Prop57
140
1.0
102
RTVSPost2010PropOp57
 70
     1
  0
ENDSEC
  0
EOF
