  0
SECTION
  2
HEADER
  9
$ACADVER
  1
AC1018
  9
$ACADMAINTVER
 70
     0
  9
$DWGCODEPAGE
  3
ANSI_936
  9
$INSBASE
 10
0.0
 20
0.0
 30
0.0
  9
$EXTMIN
 10
-297.5
 20
-25.29999923706055
 30
0.0
  9
$EXTMAX
 10
297.5
 20
440.0
 30
634.0
  9
$LIMMIN
 10
0.0
 20
0.0
  9
$LIMMAX
 10
12.0
 20
9.0
  9
$ORTHOMODE
 70
     0
  9
$REGENMODE
 70
     1
  9
$FILLMODE
 70
     1
  9
$QTEXTMODE
 70
     0
  9
$MIRRTEXT
 70
     1
  9
$LTSCALE
 40
1.0
  9
$ATTMODE
 70
     1
  9
$TEXTSIZE
 40
0.2
  9
$TRACEWID
 40
0.05
  9
$TEXTSTYLE
  7
Standard
  9
$CLAYER
  8
Inox
  9
$CELTYPE
  6
ByLayer
  9
$CECOLOR
 62
   256
  9
$CELTSCALE
 40
1.0
  9
$DISPSILH
 70
     0
  9
$DIMSCALE
 40
1.0
  9
$DIMASZ
 40
0.18
  9
$DIMEXO
 40
0.0625
  9
$DIMDLI
 40
0.38
  9
$DIMRND
 40
0.0
  9
$DIMDLE
 40
0.0
  9
$DIMEXE
 40
0.18
  9
$DIMTP
 40
0.0
  9
$DIMTM
 40
0.0
  9
$DIMTXT
 40
0.18
  9
$DIMCEN
 40
0.09
  9
$DIMTSZ
 40
0.0
  9
$DIMTOL
 70
     0
  9
$DIMLIM
 70
     0
  9
$DIMTIH
 70
     1
  9
$DIMTOH
 70
     1
  9
$DIMSE1
 70
     0
  9
$DIMSE2
 70
     0
  9
$DIMTAD
 70
     0
  9
$DIMZIN
 70
     0
  9
$DIMBLK
  1

  9
$DIMASO
 70
     1
  9
$DIMSHO
 70
     1
  9
$DIMPOST
  1

  9
$DIMAPOST
  1

  9
$DIMALT
 70
     0
  9
$DIMALTD
 70
     2
  9
$DIMALTF
 40
25.4
  9
$DIMLFAC
 40
1.0
  9
$DIMTOFL
 70
     0
  9
$DIMTVP
 40
0.0
  9
$DIMTIX
 70
     0
  9
$DIMSOXD
 70
     0
  9
$DIMSAH
 70
     0
  9
$DIMBLK1
  1

  9
$DIMBLK2
  1

  9
$DIMSTYLE
  2
Standard
  9
$DIMCLRD
 70
     0
  9
$DIMCLRE
 70
     0
  9
$DIMCLRT
 70
     0
  9
$DIMTFAC
 40
1.0
  9
$DIMGAP
 40
0.09
  9
$DIMJUST
 70
     0
  9
$DIMSD1
 70
     0
  9
$DIMSD2
 70
     0
  9
$DIMTOLJ
 70
     1
  9
$DIMTZIN
 70
     0
  9
$DIMALTZ
 70
     0
  9
$DIMALTTZ
 70
     0
  9
$DIMUPT
 70
     0
  9
$DIMDEC
 70
     4
  9
$DIMTDEC
 70
     4
  9
$DIMALTU
 70
     2
  9
$DIMALTTD
 70
     2
  9
$DIMTXSTY
  7
Standard
  9
$DIMAUNIT
 70
     0
  9
$DIMADEC
 70
     0
  9
$DIMALTRND
 40
0.0
  9
$DIMAZIN
 70
     0
  9
$DIMDSEP
 70
    46
  9
$DIMATFIT
 70
     3
  9
$DIMFRAC
 70
     0
  9
$DIMLDRBLK
  1

  9
$DIMLUNIT
 70
     2
  9
$DIMLWD
 70
    -2
  9
$DIMLWE
 70
    -2
  9
$DIMTMOVE
 70
     2
  9
$LUNITS
 70
     2
  9
$LUPREC
 70
     3
  9
$SKETCHINC
 40
0.1
  9
$FILLETRAD
 40
0.5
  9
$AUNITS
 70
     0
  9
$AUPREC
 70
     0
  9
$MENU
  1
.
  9
$ELEVATION
 40
0.0
  9
$PELEVATION
 40
0.0
  9
$THICKNESS
 40
0.0
  9
$LIMCHECK
 70
     0
  9
$CHAMFERA
 40
0.5
  9
$CHAMFERB
 40
0.5
  9
$CHAMFERC
 40
1.0
  9
$CHAMFERD
 40
0.0
  9
$SKPOLY
 70
     0
  9
$TDCREATE
 40
2457080.822329468
  9
$TDUCREATE
 40
2457080.488996134
  9
$TDUPDATE
 40
2457080.822376805
  9
$TDUUPDATE
 40
2457080.489043472
  9
$TDINDWG
 40
0.0000000116
  9
$TDUSRTIMER
 40
0.0000000116
  9
$USRTIMER
 70
     1
  9
$ANGBASE
 50
0.0
  9
$ANGDIR
 70
     0
  9
$PDMODE
 70
     0
  9
$PDSIZE
 40
0.0
  9
$PLINEWID
 40
0.0
  9
$SPLFRAME
 70
     0
  9
$SPLINETYPE
 70
     6
  9
$SPLINESEGS
 70
     8
  9
$HANDSEED
  5
5C0
  9
$SURFTAB1
 70
     6
  9
$SURFTAB2
 70
     6
  9
$SURFTYPE
 70
     6
  9
$SURFU
 70
     6
  9
$SURFV
 70
     6
  9
$UCSBASE
  2

  9
$UCSNAME
  2

  9
$UCSORG
 10
0.0
 20
0.0
 30
0.0
  9
$UCSXDIR
 10
1.0
 20
0.0
 30
0.0
  9
$UCSYDIR
 10
0.0
 20
1.0
 30
0.0
  9
$UCSORTHOREF
  2

  9
$UCSORTHOVIEW
 70
     0
  9
$UCSORGTOP
 10
0.0
 20
0.0
 30
0.0
  9
$UCSORGBOTTOM
 10
0.0
 20
0.0
 30
0.0
  9
$UCSORGLEFT
 10
0.0
 20
0.0
 30
0.0
  9
$UCSORGRIGHT
 10
0.0
 20
0.0
 30
0.0
  9
$UCSORGFRONT
 10
0.0
 20
0.0
 30
0.0
  9
$UCSORGBACK
 10
0.0
 20
0.0
 30
0.0
  9
$PUCSBASE
  2

  9
$PUCSNAME
  2

  9
$PUCSORG
 10
0.0
 20
0.0
 30
0.0
  9
$PUCSXDIR
 10
1.0
 20
0.0
 30
0.0
  9
$PUCSYDIR
 10
0.0
 20
1.0
 30
0.0
  9
$PUCSORTHOREF
  2

  9
$PUCSORTHOVIEW
 70
     0
  9
$PUCSORGTOP
 10
0.0
 20
0.0
 30
0.0
  9
$PUCSORGBOTTOM
 10
0.0
 20
0.0
 30
0.0
  9
$PUCSORGLEFT
 10
0.0
 20
0.0
 30
0.0
  9
$PUCSORGRIGHT
 10
0.0
 20
0.0
 30
0.0
  9
$PUCSORGFRONT
 10
0.0
 20
0.0
 30
0.0
  9
$PUCSORGBACK
 10
0.0
 20
0.0
 30
0.0
  9
$USERI1
 70
     0
  9
$USERI2
 70
     0
  9
$USERI3
 70
     0
  9
$USERI4
 70
     0
  9
$USERI5
 70
     0
  9
$USERR1
 40
0.0
  9
$USERR2
 40
0.0
  9
$USERR3
 40
0.0
  9
$USERR4
 40
0.0
  9
$USERR5
 40
0.0
  9
$WORLDVIEW
 70
     1
  9
$SHADEDGE
 70
     3
  9
$SHADEDIF
 70
    70
  9
$TILEMODE
 70
     1
  9
$MAXACTVP
 70
    64
  9
$PINSBASE
 10
0.0
 20
0.0
 30
0.0
  9
$PLIMCHECK
 70
     0
  9
$PEXTMIN
 10
1.000000000000000E+20
 20
1.000000000000000E+20
 30
1.000000000000000E+20
  9
$PEXTMAX
 10
-1.000000000000000E+20
 20
-1.000000000000000E+20
 30
-1.000000000000000E+20
  9
$PLIMMIN
 10
0.0
 20
0.0
  9
$PLIMMAX
 10
12.0
 20
9.0
  9
$UNITMODE
 70
     0
  9
$VISRETAIN
 70
     1
  9
$PLINEGEN
 70
     0
  9
$PSLTSCALE
 70
     1
  9
$TREEDEPTH
 70
  3020
  9
$CMLSTYLE
  2
Standard
  9
$CMLJUST
 70
     0
  9
$CMLSCALE
 40
1.0
  9
$PROXYGRAPHICS
 70
     1
  9
$MEASUREMENT
 70
     0
  9
$CELWEIGHT
370
    -1
  9
$ENDCAPS
280
     0
  9
$JOINSTYLE
280
     0
  9
$LWDISPLAY
290
     0
  9
$INSUNITS
 70
     4
  9
$HYPERLINKBASE
  1

  9
$STYLESHEET
  1

  9
$XEDIT
290
     1
  9
$CEPSNTYPE
380
     0
  9
$PSTYLEMODE
290
     1
  9
$FINGERPRINTGUID
  2
{DF029004-EEEE-4A4E-8A4D-F54072094C2F}
  9
$VERSIONGUID
  2
{FAEB1C32-E019-11D5-929B-00C0DF256EC4}
  9
$EXTNAMES
290
     1
  9
$PSVPSCALE
 40
0.0
  9
$OLESTARTUP
290
     0
  9
$SORTENTS
280
   127
  9
$INDEXCTL
280
     0
  9
$HIDETEXT
280
     1
  9
$XCLIPFRAME
290
     0
  9
$HALOGAP
280
     0
  9
$OBSCOLOR
 70
   257
  9
$OBSLTYPE
280
     0
  9
$INTERSECTIONDISPLAY
280
     0
  9
$INTERSECTIONCOLOR
 70
   257
  9
$DIMASSOC
280
     2
  9
$PROJECTNAME
  1

  0
ENDSEC
  0
SECTION
  2
CLASSES
  0
CLASS
  1
ACDBDICTIONARYWDFLT
  2
AcDbDictionaryWithDefault
  3
ObjectDBX Classes
 90
        0
 91
        4
280
     0
281
     0
  0
CLASS
  1
VISUALSTYLE
  2
AcDbVisualStyle
  3
ObjectDBX Classes
 90
     4095
 91
        4
280
     0
281
     0
  0
CLASS
  1
MATERIAL
  2
AcDbMaterial
  3
ObjectDBX Classes
 90
     1153
 91
        4
280
     0
281
     0
  0
CLASS
  1
SCALE
  2
AcDbScale
  3
ObjectDBX Classes
 90
     1153
 91
        4
280
     0
281
     0
  0
CLASS
  1
SUN
  2
AcDbSun
  3
SCENEOE
 90
     1153
 91
        4
280
     0
281
     0
  0
CLASS
  1
DICTIONARYVAR
  2
AcDbDictionaryVar
  3
ObjectDBX Classes
 90
        0
 91
        4
280
     0
281
     0
  0
ENDSEC
  0
SECTION
  2
TABLES
  0
TABLE
  2
VPORT
  5
8
330
0
100
AcDbSymbolTable
 70
     1
  0
VPORT
  5
29
330
8
100
AcDbSymbolTableRecord
100
AcDbViewportTableRecord
  2
*Active
 70
     0
 10
0.0
 20
0.0
 11
1.0
 21
1.0
 12
0.0
 22
207.3500003814697
 13
0.0
 23
0.0
 14
0.5
 24
0.5
 15
0.5
 25
0.5
 16
0.0
 26
0.0
 36
1.0
 17
0.0
 27
0.0
 37
0.0
 40
474.6059992218018
 41
1.278744897862895
 42
50.0
 43
0.0
 44
0.0
 50
0.0
 51
0.0
 71
     0
 72
   100
 73
     1
 74
     3
 75
     0
 76
     0
 77
     0
 78
     0
281
     0
 65
     1
110
0.0
120
0.0
130
0.0
111
1.0
121
0.0
131
0.0
112
0.0
122
1.0
132
0.0
 79
     0
146
0.0
  0
ENDTAB
  0
TABLE
  2
LTYPE
  5
5
330
0
100
AcDbSymbolTable
 70
     1
  0
LTYPE
  5
14
330
5
100
AcDbSymbolTableRecord
100
AcDbLinetypeTableRecord
  2
ByBlock
 70
     0
  3

 72
    65
 73
     0
 40
0.0
  0
LTYPE
  5
15
330
5
100
AcDbSymbolTableRecord
100
AcDbLinetypeTableRecord
  2
ByLayer
 70
     0
  3

 72
    65
 73
     0
 40
0.0
  0
LTYPE
  5
16
330
5
100
AcDbSymbolTableRecord
100
AcDbLinetypeTableRecord
  2
Continuous
 70
     0
  3
Solid line
 72
    65
 73
     0
 40
0.0
  0
ENDTAB
  0
TABLE
  2
LAYER
  5
2
330
0
100
AcDbSymbolTable
 70
     3
  0
LAYER
  5
10
330
2
100
AcDbSymbolTableRecord
100
AcDbLayerTableRecord
  2
0
 70
     0
 62
     7
  6
Continuous
370
    -3
390
F
  0
LAYER
  5
62
330
2
100
AcDbSymbolTableRecord
100
AcDbLayerTableRecord
  2
Blanc
 70
     0
 62
    18
420
        0
  6
Continuous
370
    -3
390
F
  0
LAYER
  5
A1
330
2
100
AcDbSymbolTableRecord
100
AcDbLayerTableRecord
  2
Inox
 70
     0
 62
   172
420
      191
  6
Continuous
370
    -3
390
F
  0
ENDTAB
  0
TABLE
  2
STYLE
  5
3
330
0
100
AcDbSymbolTable
 70
     1
  0
STYLE
  5
11
330
3
100
AcDbSymbolTableRecord
100
AcDbTextStyleTableRecord
  2
Standard
 70
     0
 40
0.0
 41
1.0
 50
0.0
 71
     0
 42
0.2
  3
txt
  4

  0
ENDTAB
  0
TABLE
  2
VIEW
  5
6
330
0
100
AcDbSymbolTable
 70
     0
  0
ENDTAB
  0
TABLE
  2
UCS
  5
7
330
0
100
AcDbSymbolTable
 70
     0
  0
ENDTAB
  0
TABLE
  2
APPID
  5
9
330
0
100
AcDbSymbolTable
 70
     1
  0
APPID
  5
12
330
9
100
AcDbSymbolTableRecord
100
AcDbRegAppTableRecord
  2
ACAD
 70
     0
  0
ENDTAB
  0
TABLE
  2
DIMSTYLE
  5
A
330
0
100
AcDbSymbolTable
 70
     1
100
AcDbDimStyleTable
  0
DIMSTYLE
105
27
330
A
100
AcDbSymbolTableRecord
100
AcDbDimStyleTableRecord
  2
Standard
 70
     0
178
     0
340
11
  0
ENDTAB
  0
TABLE
  2
BLOCK_RECORD
  5
1
330
0
100
AcDbSymbolTable
 70
     1
  0
BLOCK_RECORD
  5
1F
330
1
100
AcDbSymbolTableRecord
100
AcDbBlockTableRecord
  2
*Model_Space
340
22
  0
BLOCK_RECORD
  5
1B
330
1
100
AcDbSymbolTableRecord
100
AcDbBlockTableRecord
  2
*Paper_Space
340
1E
  0
BLOCK_RECORD
  5
23
330
1
100
AcDbSymbolTableRecord
100
AcDbBlockTableRecord
  2
*Paper_Space0
340
26
  0
ENDTAB
  0
ENDSEC
  0
SECTION
  2
BLOCKS
  0
BLOCK
  5
20
330
1F
100
AcDbEntity
  8
0
100
AcDbBlockBegin
  2
*Model_Space
 70
     0
 10
0.0
 20
0.0
 30
0.0
  3
*Model_Space
  1
*Model_Space
  0
ENDBLK
  5
21
330
1F
100
AcDbEntity
  8
0
100
AcDbBlockEnd
  0
BLOCK
  5
1C
330
1B
100
AcDbEntity
 67
     1
  8
0
100
AcDbBlockBegin
  2
*Paper_Space
 70
     0
 10
0.0
 20
0.0
 30
0.0
  3
*Paper_Space
  1
*Paper_Space
  0
ENDBLK
  5
1D
330
1B
100
AcDbEntity
 67
     1
  8
0
100
AcDbBlockEnd
  0
BLOCK
  5
24
330
23
100
AcDbEntity
  8
0
100
AcDbBlockBegin
  2
*Paper_Space0
 70
     0
 10
0.0
 20
0.0
 30
0.0
  3
*Paper_Space0
  1
*Paper_Space0
  0
ENDBLK
  5
25
330
23
100
AcDbEntity
  8
0
100
AcDbBlockEnd
  0
ENDSEC
  0
SECTION
  2
ENTITIES
  0
POLYLINE
  5
63
330
1F
100
AcDbEntity
  8
Blanc
100
AcDbPolyFaceMesh
 66
     1
 10
0.0
 20
0.0
 30
0.0
 70
    64
 71
    40
 72
    20
  0
VERTEX
  5
64
330
63
100
AcDbEntity
  8
Blanc
100
AcDbVertex
100
AcDbPolyFaceMeshVertex
 10
287.5
 20
10.0
 30
0.0
 70
   192
  0
VERTEX
  5
65
330
63
100
AcDbEntity
  8
Blanc
100
AcDbVertex
100
AcDbPolyFaceMeshVertex
 10
287.5
 20
0.0
 30
0.0
 70
   192
  0
VERTEX
  5
66
330
63
100
AcDbEntity
  8
Blanc
100
AcDbVertex
100
AcDbPolyFaceMeshVertex
 10
287.5
 20
10.0
 30
628.0
 70
   192
  0
VERTEX
  5
67
330
63
100
AcDbEntity
  8
Blanc
100
AcDbVertex
100
AcDbPolyFaceMeshVertex
 10
287.5
 20
0.0
 30
628.0
 70
   192
  0
VERTEX
  5
68
330
63
100
AcDbEntity
  8
Blanc
100
AcDbVertex
100
AcDbPolyFaceMeshVertex
 10
287.5
 20
10.0
 30
314.0
 70
   192
  0
VERTEX
  5
69
330
63
100
AcDbEntity
  8
Blanc
100
AcDbVertex
100
AcDbPolyFaceMeshVertex
 10
287.5
 20
0.0
 30
314.0
 70
   192
  0
VERTEX
  5
6A
330
63
100
AcDbEntity
  8
Blanc
100
AcDbVertex
100
AcDbPolyFaceMeshVertex
 10
287.5
 20
10.0
 30
628.0
 70
   192
  0
VERTEX
  5
6B
330
63
100
AcDbEntity
  8
Blanc
100
AcDbVertex
100
AcDbPolyFaceMeshVertex
 10
287.5
 20
0.0
 30
628.0
 70
   192
  0
VERTEX
  5
6C
330
63
100
AcDbEntity
  8
Blanc
100
AcDbVertex
100
AcDbPolyFaceMeshVertex
 10
-287.5
 20
10.0
 30
628.0
 70
   192
  0
VERTEX
  5
6D
330
63
100
AcDbEntity
  8
Blanc
100
AcDbVertex
100
AcDbPolyFaceMeshVertex
 10
-287.5
 20
0.0
 30
628.0
 70
   192
  0
VERTEX
  5
6E
330
63
100
AcDbEntity
  8
Blanc
100
AcDbVertex
100
AcDbPolyFaceMeshVertex
 10
0.0
 20
10.0
 30
628.0
 70
   192
  0
VERTEX
  5
6F
330
63
100
AcDbEntity
  8
Blanc
100
AcDbVertex
100
AcDbPolyFaceMeshVertex
 10
0.0
 20
0.0
 30
628.0
 70
   192
  0
VERTEX
  5
70
330
63
100
AcDbEntity
  8
Blanc
100
AcDbVertex
100
AcDbPolyFaceMeshVertex
 10
-287.5
 20
10.0
 30
628.0
 70
   192
  0
VERTEX
  5
71
330
63
100
AcDbEntity
  8
Blanc
100
AcDbVertex
100
AcDbPolyFaceMeshVertex
 10
-287.5
 20
0.0
 30
628.0
 70
   192
  0
VERTEX
  5
72
330
63
100
AcDbEntity
  8
Blanc
100
AcDbVertex
100
AcDbPolyFaceMeshVertex
 10
-287.5
 20
10.0
 30
0.0
 70
   192
  0
VERTEX
  5
73
330
63
100
AcDbEntity
  8
Blanc
100
AcDbVertex
100
AcDbPolyFaceMeshVertex
 10
-287.5
 20
0.0
 30
0.0
 70
   192
  0
VERTEX
  5
74
330
63
100
AcDbEntity
  8
Blanc
100
AcDbVertex
100
AcDbPolyFaceMeshVertex
 10
-287.5
 20
10.0
 30
314.0
 70
   192
  0
VERTEX
  5
75
330
63
100
AcDbEntity
  8
Blanc
100
AcDbVertex
100
AcDbPolyFaceMeshVertex
 10
-287.5
 20
0.0
 30
314.0
 70
   192
  0
VERTEX
  5
76
330
63
100
AcDbEntity
  8
Blanc
100
AcDbVertex
100
AcDbPolyFaceMeshVertex
 10
-287.5
 20
10.0
 30
0.0
 70
   192
  0
VERTEX
  5
77
330
63
100
AcDbEntity
  8
Blanc
100
AcDbVertex
100
AcDbPolyFaceMeshVertex
 10
-287.5
 20
0.0
 30
0.0
 70
   192
  0
VERTEX
  5
78
330
63
100
AcDbEntity
  8
Blanc
100
AcDbVertex
100
AcDbPolyFaceMeshVertex
 10
287.5
 20
10.0
 30
0.0
 70
   192
  0
VERTEX
  5
79
330
63
100
AcDbEntity
  8
Blanc
100
AcDbVertex
100
AcDbPolyFaceMeshVertex
 10
287.5
 20
0.0
 30
0.0
 70
   192
  0
VERTEX
  5
7A
330
63
100
AcDbEntity
  8
Blanc
100
AcDbVertex
100
AcDbPolyFaceMeshVertex
 10
0.0
 20
10.0
 30
0.0
 70
   192
  0
VERTEX
  5
7B
330
63
100
AcDbEntity
  8
Blanc
100
AcDbVertex
100
AcDbPolyFaceMeshVertex
 10
0.0
 20
0.0
 30
0.0
 70
   192
  0
VERTEX
  5
7C
330
63
100
AcDbEntity
  8
Blanc
100
AcDbVertex
100
AcDbPolyFaceMeshVertex
 10
-287.5
 20
10.0
 30
0.0
 70
   192
  0
VERTEX
  5
7D
330
63
100
AcDbEntity
  8
Blanc
100
AcDbVertex
100
AcDbPolyFaceMeshVertex
 10
-287.5
 20
10.0
 30
628.0
 70
   192
  0
VERTEX
  5
7E
330
63
100
AcDbEntity
  8
Blanc
100
AcDbVertex
100
AcDbPolyFaceMeshVertex
 10
287.5
 20
10.0
 30
0.0
 70
   192
  0
VERTEX
  5
7F
330
63
100
AcDbEntity
  8
Blanc
100
AcDbVertex
100
AcDbPolyFaceMeshVertex
 10
287.5
 20
10.0
 30
628.0
 70
   192
  0
VERTEX
  5
80
330
63
100
AcDbEntity
  8
Blanc
100
AcDbVertex
100
AcDbPolyFaceMeshVertex
 10
287.5
 20
10.0
 30
314.0
 70
   192
  0
VERTEX
  5
81
330
63
100
AcDbEntity
  8
Blanc
100
AcDbVertex
100
AcDbPolyFaceMeshVertex
 10
0.0
 20
10.0
 30
628.0
 70
   192
  0
VERTEX
  5
82
330
63
100
AcDbEntity
  8
Blanc
100
AcDbVertex
100
AcDbPolyFaceMeshVertex
 10
-287.5
 20
10.0
 30
314.0
 70
   192
  0
VERTEX
  5
83
330
63
100
AcDbEntity
  8
Blanc
100
AcDbVertex
100
AcDbPolyFaceMeshVertex
 10
0.0
 20
10.0
 30
0.0
 70
   192
  0
VERTEX
  5
84
330
63
100
AcDbEntity
  8
Blanc
100
AcDbVertex
100
AcDbPolyFaceMeshVertex
 10
-287.5
 20
0.0
 30
0.0
 70
   192
  0
VERTEX
  5
85
330
63
100
AcDbEntity
  8
Blanc
100
AcDbVertex
100
AcDbPolyFaceMeshVertex
 10
-287.5
 20
0.0
 30
628.0
 70
   192
  0
VERTEX
  5
86
330
63
100
AcDbEntity
  8
Blanc
100
AcDbVertex
100
AcDbPolyFaceMeshVertex
 10
287.5
 20
0.0
 30
0.0
 70
   192
  0
VERTEX
  5
87
330
63
100
AcDbEntity
  8
Blanc
100
AcDbVertex
100
AcDbPolyFaceMeshVertex
 10
287.5
 20
0.0
 30
628.0
 70
   192
  0
VERTEX
  5
88
330
63
100
AcDbEntity
  8
Blanc
100
AcDbVertex
100
AcDbPolyFaceMeshVertex
 10
287.5
 20
0.0
 30
314.0
 70
   192
  0
VERTEX
  5
89
330
63
100
AcDbEntity
  8
Blanc
100
AcDbVertex
100
AcDbPolyFaceMeshVertex
 10
0.0
 20
0.0
 30
628.0
 70
   192
  0
VERTEX
  5
8A
330
63
100
AcDbEntity
  8
Blanc
100
AcDbVertex
100
AcDbPolyFaceMeshVertex
 10
-287.5
 20
0.0
 30
314.0
 70
   192
  0
VERTEX
  5
8B
330
63
100
AcDbEntity
  8
Blanc
100
AcDbVertex
100
AcDbPolyFaceMeshVertex
 10
0.0
 20
0.0
 30
0.0
 70
   192
  0
VERTEX
  5
8C
330
63
100
AcDbEntity
  8
Blanc
100
AcDbFaceRecord
 10
0.0
 20
0.0
 30
0.0
 70
   128
 71
     2
 72
     1
 73
     5
 74
     6
  0
VERTEX
  5
8D
330
63
100
AcDbEntity
  8
Blanc
100
AcDbFaceRecord
 10
0.0
 20
0.0
 30
0.0
 70
   128
 71
     3
 72
     4
 73
     6
 74
     5
  0
VERTEX
  5
8E
330
63
100
AcDbEntity
  8
Blanc
100
AcDbFaceRecord
 10
0.0
 20
0.0
 30
0.0
 70
   128
 71
     8
 72
     7
 73
    11
 74
    12
  0
VERTEX
  5
8F
330
63
100
AcDbEntity
  8
Blanc
100
AcDbFaceRecord
 10
0.0
 20
0.0
 30
0.0
 70
   128
 71
     9
 72
    10
 73
    12
 74
    11
  0
VERTEX
  5
90
330
63
100
AcDbEntity
  8
Blanc
100
AcDbFaceRecord
 10
0.0
 20
0.0
 30
0.0
 70
   128
 71
    14
 72
    13
 73
    17
 74
    18
  0
VERTEX
  5
91
330
63
100
AcDbEntity
  8
Blanc
100
AcDbFaceRecord
 10
0.0
 20
0.0
 30
0.0
 70
   128
 71
    15
 72
    16
 73
    18
 74
    17
  0
VERTEX
  5
92
330
63
100
AcDbEntity
  8
Blanc
100
AcDbFaceRecord
 10
0.0
 20
0.0
 30
0.0
 70
   128
 71
    19
 72
    23
 73
    24
 74
    20
  0
VERTEX
  5
93
330
63
100
AcDbEntity
  8
Blanc
100
AcDbFaceRecord
 10
0.0
 20
0.0
 30
0.0
 70
   128
 71
    22
 72
    24
 73
    23
 74
    21
  0
VERTEX
  5
94
330
63
100
AcDbEntity
  8
Blanc
100
AcDbFaceRecord
 10
0.0
 20
0.0
 30
0.0
 70
   128
 71
    32
 72
    31
 73
    30
 74
    30
  0
VERTEX
  5
95
330
63
100
AcDbEntity
  8
Blanc
100
AcDbFaceRecord
 10
0.0
 20
0.0
 30
0.0
 70
   128
 71
    31
 72
    26
 73
    30
 74
    30
  0
VERTEX
  5
96
330
63
100
AcDbEntity
  8
Blanc
100
AcDbFaceRecord
 10
0.0
 20
0.0
 30
0.0
 70
   128
 71
    32
 72
    25
 73
    31
 74
    31
  0
VERTEX
  5
97
330
63
100
AcDbEntity
  8
Blanc
100
AcDbFaceRecord
 10
0.0
 20
0.0
 30
0.0
 70
   128
 71
    29
 72
    27
 73
    32
 74
    32
  0
VERTEX
  5
98
330
63
100
AcDbEntity
  8
Blanc
100
AcDbFaceRecord
 10
0.0
 20
0.0
 30
0.0
 70
   128
 71
    29
 72
    30
 73
    28
 74
    28
  0
VERTEX
  5
99
330
63
100
AcDbEntity
  8
Blanc
100
AcDbFaceRecord
 10
0.0
 20
0.0
 30
0.0
 70
   128
 71
    32
 72
    30
 73
    29
 74
    29
  0
VERTEX
  5
9A
330
63
100
AcDbEntity
  8
Blanc
100
AcDbFaceRecord
 10
0.0
 20
0.0
 30
0.0
 70
   128
 71
    40
 72
    38
 73
    39
 74
    39
  0
VERTEX
  5
9B
330
63
100
AcDbEntity
  8
Blanc
100
AcDbFaceRecord
 10
0.0
 20
0.0
 30
0.0
 70
   128
 71
    39
 72
    38
 73
    34
 74
    34
  0
VERTEX
  5
9C
330
63
100
AcDbEntity
  8
Blanc
100
AcDbFaceRecord
 10
0.0
 20
0.0
 30
0.0
 70
   128
 71
    40
 72
    39
 73
    33
 74
    33
  0
VERTEX
  5
9D
330
63
100
AcDbEntity
  8
Blanc
100
AcDbFaceRecord
 10
0.0
 20
0.0
 30
0.0
 70
   128
 71
    37
 72
    40
 73
    35
 74
    35
  0
VERTEX
  5
9E
330
63
100
AcDbEntity
  8
Blanc
100
AcDbFaceRecord
 10
0.0
 20
0.0
 30
0.0
 70
   128
 71
    37
 72
    36
 73
    38
 74
    38
  0
VERTEX
  5
9F
330
63
100
AcDbEntity
  8
Blanc
100
AcDbFaceRecord
 10
0.0
 20
0.0
 30
0.0
 70
   128
 71
    40
 72
    37
 73
    38
 74
    38
  0
SEQEND
  5
A0
330
63
100
AcDbEntity
  8
Blanc
  0
POLYLINE
  5
A2
330
1F
100
AcDbEntity
  8
Inox
100
AcDbPolyFaceMesh
 66
     1
 10
0.0
 20
0.0
 30
0.0
 70
    64
 71
    40
 72
    20
  0
VERTEX
  5
A3
330
A2
100
AcDbEntity
  8
Inox
100
AcDbVertex
100
AcDbPolyFaceMeshVertex
 10
-222.5
 20
-10.30000019073486
 30
558.5
 70
   192
  0
VERTEX
  5
A4
330
A2
100
AcDbEntity
  8
Inox
100
AcDbVertex
100
AcDbPolyFaceMeshVertex
 10
-222.5
 20
-10.0
 30
558.5
 70
   192
  0
VERTEX
  5
A5
330
A2
100
AcDbEntity
  8
Inox
100
AcDbVertex
100
AcDbPolyFaceMeshVertex
 10
-222.5
 20
-10.30000019073486
 30
578.5
 70
   192
  0
VERTEX
  5
A6
330
A2
100
AcDbEntity
  8
Inox
100
AcDbVertex
100
AcDbPolyFaceMeshVertex
 10
-222.5
 20
-10.0
 30
578.5
 70
   192
  0
VERTEX
  5
A7
330
A2
100
AcDbEntity
  8
Inox
100
AcDbVertex
100
AcDbPolyFaceMeshVertex
 10
-222.5
 20
-10.30000019073486
 30
568.5
 70
   192
  0
VERTEX
  5
A8
330
A2
100
AcDbEntity
  8
Inox
100
AcDbVertex
100
AcDbPolyFaceMeshVertex
 10
-222.5
 20
-10.0
 30
568.5
 70
   192
  0
VERTEX
  5
A9
330
A2
100
AcDbEntity
  8
Inox
100
AcDbVertex
100
AcDbPolyFaceMeshVertex
 10
-222.5
 20
-10.30000019073486
 30
578.5
 70
   192
  0
VERTEX
  5
AA
330
A2
100
AcDbEntity
  8
Inox
100
AcDbVertex
100
AcDbPolyFaceMeshVertex
 10
-222.5
 20
-10.0
 30
578.5
 70
   192
  0
VERTEX
  5
AB
330
A2
100
AcDbEntity
  8
Inox
100
AcDbVertex
100
AcDbPolyFaceMeshVertex
 10
-22.5
 20
-10.30000019073486
 30
578.5
 70
   192
  0
VERTEX
  5
AC
330
A2
100
AcDbEntity
  8
Inox
100
AcDbVertex
100
AcDbPolyFaceMeshVertex
 10
-22.5
 20
-10.0
 30
578.5
 70
   192
  0
VERTEX
  5
AD
330
A2
100
AcDbEntity
  8
Inox
100
AcDbVertex
100
AcDbPolyFaceMeshVertex
 10
-122.5
 20
-10.30000019073486
 30
578.5
 70
   192
  0
VERTEX
  5
AE
330
A2
100
AcDbEntity
  8
Inox
100
AcDbVertex
100
AcDbPolyFaceMeshVertex
 10
-122.5
 20
-10.0
 30
578.5
 70
   192
  0
VERTEX
  5
AF
330
A2
100
AcDbEntity
  8
Inox
100
AcDbVertex
100
AcDbPolyFaceMeshVertex
 10
-22.5
 20
-10.30000019073486
 30
578.5
 70
   192
  0
VERTEX
  5
B0
330
A2
100
AcDbEntity
  8
Inox
100
AcDbVertex
100
AcDbPolyFaceMeshVertex
 10
-22.5
 20
-10.0
 30
578.5
 70
   192
  0
VERTEX
  5
B1
330
A2
100
AcDbEntity
  8
Inox
100
AcDbVertex
100
AcDbPolyFaceMeshVertex
 10
-22.5
 20
-10.30000019073486
 30
558.5
 70
   192
  0
VERTEX
  5
B2
330
A2
100
AcDbEntity
  8
Inox
100
AcDbVertex
100
AcDbPolyFaceMeshVertex
 10
-22.5
 20
-10.0
 30
558.5
 70
   192
  0
VERTEX
  5
B3
330
A2
100
AcDbEntity
  8
Inox
100
AcDbVertex
100
AcDbPolyFaceMeshVertex
 10
-22.5
 20
-10.30000019073486
 30
568.5
 70
   192
  0
VERTEX
  5
B4
330
A2
100
AcDbEntity
  8
Inox
100
AcDbVertex
100
AcDbPolyFaceMeshVertex
 10
-22.5
 20
-10.0
 30
568.5
 70
   192
  0
VERTEX
  5
B5
330
A2
100
AcDbEntity
  8
Inox
100
AcDbVertex
100
AcDbPolyFaceMeshVertex
 10
-22.5
 20
-10.30000019073486
 30
558.5
 70
   192
  0
VERTEX
  5
B6
330
A2
100
AcDbEntity
  8
Inox
100
AcDbVertex
100
AcDbPolyFaceMeshVertex
 10
-22.5
 20
-10.0
 30
558.5
 70
   192
  0
VERTEX
  5
B7
330
A2
100
AcDbEntity
  8
Inox
100
AcDbVertex
100
AcDbPolyFaceMeshVertex
 10
-222.5
 20
-10.30000019073486
 30
558.5
 70
   192
  0
VERTEX
  5
B8
330
A2
100
AcDbEntity
  8
Inox
100
AcDbVertex
100
AcDbPolyFaceMeshVertex
 10
-222.5
 20
-10.0
 30
558.5
 70
   192
  0
VERTEX
  5
B9
330
A2
100
AcDbEntity
  8
Inox
100
AcDbVertex
100
AcDbPolyFaceMeshVertex
 10
-122.5
 20
-10.30000019073486
 30
558.5
 70
   192
  0
VERTEX
  5
BA
330
A2
100
AcDbEntity
  8
Inox
100
AcDbVertex
100
AcDbPolyFaceMeshVertex
 10
-122.5
 20
-10.0
 30
558.5
 70
   192
  0
VERTEX
  5
BB
330
A2
100
AcDbEntity
  8
Inox
100
AcDbVertex
100
AcDbPolyFaceMeshVertex
 10
-22.5
 20
-10.30000019073486
 30
558.5
 70
   192
  0
VERTEX
  5
BC
330
A2
100
AcDbEntity
  8
Inox
100
AcDbVertex
100
AcDbPolyFaceMeshVertex
 10
-22.5
 20
-10.30000019073486
 30
578.5
 70
   192
  0
VERTEX
  5
BD
330
A2
100
AcDbEntity
  8
Inox
100
AcDbVertex
100
AcDbPolyFaceMeshVertex
 10
-222.5
 20
-10.30000019073486
 30
558.5
 70
   192
  0
VERTEX
  5
BE
330
A2
100
AcDbEntity
  8
Inox
100
AcDbVertex
100
AcDbPolyFaceMeshVertex
 10
-222.5
 20
-10.30000019073486
 30
578.5
 70
   192
  0
VERTEX
  5
BF
330
A2
100
AcDbEntity
  8
Inox
100
AcDbVertex
100
AcDbPolyFaceMeshVertex
 10
-222.5
 20
-10.30000019073486
 30
568.5
 70
   192
  0
VERTEX
  5
C0
330
A2
100
AcDbEntity
  8
Inox
100
AcDbVertex
100
AcDbPolyFaceMeshVertex
 10
-122.5
 20
-10.30000019073486
 30
578.5
 70
   192
  0
VERTEX
  5
C1
330
A2
100
AcDbEntity
  8
Inox
100
AcDbVertex
100
AcDbPolyFaceMeshVertex
 10
-22.5
 20
-10.30000019073486
 30
568.5
 70
   192
  0
VERTEX
  5
C2
330
A2
100
AcDbEntity
  8
Inox
100
AcDbVertex
100
AcDbPolyFaceMeshVertex
 10
-122.5
 20
-10.30000019073486
 30
558.5
 70
   192
  0
VERTEX
  5
C3
330
A2
100
AcDbEntity
  8
Inox
100
AcDbVertex
100
AcDbPolyFaceMeshVertex
 10
-22.5
 20
-10.0
 30
558.5
 70
   192
  0
VERTEX
  5
C4
330
A2
100
AcDbEntity
  8
Inox
100
AcDbVertex
100
AcDbPolyFaceMeshVertex
 10
-22.5
 20
-10.0
 30
578.5
 70
   192
  0
VERTEX
  5
C5
330
A2
100
AcDbEntity
  8
Inox
100
AcDbVertex
100
AcDbPolyFaceMeshVertex
 10
-222.5
 20
-10.0
 30
558.5
 70
   192
  0
VERTEX
  5
C6
330
A2
100
AcDbEntity
  8
Inox
100
AcDbVertex
100
AcDbPolyFaceMeshVertex
 10
-222.5
 20
-10.0
 30
578.5
 70
   192
  0
VERTEX
  5
C7
330
A2
100
AcDbEntity
  8
Inox
100
AcDbVertex
100
AcDbPolyFaceMeshVertex
 10
-222.5
 20
-10.0
 30
568.5
 70
   192
  0
VERTEX
  5
C8
330
A2
100
AcDbEntity
  8
Inox
100
AcDbVertex
100
AcDbPolyFaceMeshVertex
 10
-122.5
 20
-10.0
 30
578.5
 70
   192
  0
VERTEX
  5
C9
330
A2
100
AcDbEntity
  8
Inox
100
AcDbVertex
100
AcDbPolyFaceMeshVertex
 10
-22.5
 20
-10.0
 30
568.5
 70
   192
  0
VERTEX
  5
CA
330
A2
100
AcDbEntity
  8
Inox
100
AcDbVertex
100
AcDbPolyFaceMeshVertex
 10
-122.5
 20
-10.0
 30
558.5
 70
   192
  0
VERTEX
  5
CB
330
A2
100
AcDbEntity
  8
Inox
100
AcDbFaceRecord
 10
0.0
 20
0.0
 30
0.0
 70
   128
 71
     2
 72
     1
 73
     5
 74
     6
  0
VERTEX
  5
CC
330
A2
100
AcDbEntity
  8
Inox
100
AcDbFaceRecord
 10
0.0
 20
0.0
 30
0.0
 70
   128
 71
     3
 72
     4
 73
     6
 74
     5
  0
VERTEX
  5
CD
330
A2
100
AcDbEntity
  8
Inox
100
AcDbFaceRecord
 10
0.0
 20
0.0
 30
0.0
 70
   128
 71
     8
 72
     7
 73
    11
 74
    12
  0
VERTEX
  5
CE
330
A2
100
AcDbEntity
  8
Inox
100
AcDbFaceRecord
 10
0.0
 20
0.0
 30
0.0
 70
   128
 71
     9
 72
    10
 73
    12
 74
    11
  0
VERTEX
  5
CF
330
A2
100
AcDbEntity
  8
Inox
100
AcDbFaceRecord
 10
0.0
 20
0.0
 30
0.0
 70
   128
 71
    14
 72
    13
 73
    17
 74
    18
  0
VERTEX
  5
D0
330
A2
100
AcDbEntity
  8
Inox
100
AcDbFaceRecord
 10
0.0
 20
0.0
 30
0.0
 70
   128
 71
    15
 72
    16
 73
    18
 74
    17
  0
VERTEX
  5
D1
330
A2
100
AcDbEntity
  8
Inox
100
AcDbFaceRecord
 10
0.0
 20
0.0
 30
0.0
 70
   128
 71
    20
 72
    19
 73
    23
 74
    24
  0
VERTEX
  5
D2
330
A2
100
AcDbEntity
  8
Inox
100
AcDbFaceRecord
 10
0.0
 20
0.0
 30
0.0
 70
   128
 71
    21
 72
    22
 73
    24
 74
    23
  0
VERTEX
  5
D3
330
A2
100
AcDbEntity
  8
Inox
100
AcDbFaceRecord
 10
0.0
 20
0.0
 30
0.0
 70
   128
 71
    31
 72
    32
 73
    25
 74
    25
  0
VERTEX
  5
D4
330
A2
100
AcDbEntity
  8
Inox
100
AcDbFaceRecord
 10
0.0
 20
0.0
 30
0.0
 70
   128
 71
    31
 72
    26
 73
    30
 74
    30
  0
VERTEX
  5
D5
330
A2
100
AcDbEntity
  8
Inox
100
AcDbFaceRecord
 10
0.0
 20
0.0
 30
0.0
 70
   128
 71
    29
 72
    32
 73
    31
 74
    31
  0
VERTEX
  5
D6
330
A2
100
AcDbEntity
  8
Inox
100
AcDbFaceRecord
 10
0.0
 20
0.0
 30
0.0
 70
   128
 71
    31
 72
    30
 73
    29
 74
    29
  0
VERTEX
  5
D7
330
A2
100
AcDbEntity
  8
Inox
100
AcDbFaceRecord
 10
0.0
 20
0.0
 30
0.0
 70
   128
 71
    29
 72
    30
 73
    28
 74
    28
  0
VERTEX
  5
D8
330
A2
100
AcDbEntity
  8
Inox
100
AcDbFaceRecord
 10
0.0
 20
0.0
 30
0.0
 70
   128
 71
    27
 72
    32
 73
    29
 74
    29
  0
VERTEX
  5
D9
330
A2
100
AcDbEntity
  8
Inox
100
AcDbFaceRecord
 10
0.0
 20
0.0
 30
0.0
 70
   128
 71
    39
 72
    33
 73
    40
 74
    40
  0
VERTEX
  5
DA
330
A2
100
AcDbEntity
  8
Inox
100
AcDbFaceRecord
 10
0.0
 20
0.0
 30
0.0
 70
   128
 71
    39
 72
    38
 73
    34
 74
    34
  0
VERTEX
  5
DB
330
A2
100
AcDbEntity
  8
Inox
100
AcDbFaceRecord
 10
0.0
 20
0.0
 30
0.0
 70
   128
 71
    37
 72
    39
 73
    40
 74
    40
  0
VERTEX
  5
DC
330
A2
100
AcDbEntity
  8
Inox
100
AcDbFaceRecord
 10
0.0
 20
0.0
 30
0.0
 70
   128
 71
    39
 72
    37
 73
    38
 74
    38
  0
VERTEX
  5
DD
330
A2
100
AcDbEntity
  8
Inox
100
AcDbFaceRecord
 10
0.0
 20
0.0
 30
0.0
 70
   128
 71
    37
 72
    36
 73
    38
 74
    38
  0
VERTEX
  5
DE
330
A2
100
AcDbEntity
  8
Inox
100
AcDbFaceRecord
 10
0.0
 20
0.0
 30
0.0
 70
   128
 71
    35
 72
    37
 73
    40
 74
    40
  0
SEQEND
  5
DF
330
A2
100
AcDbEntity
  8
Inox
  0
POLYLINE
  5
E0
330
1F
100
AcDbEntity
  8
Inox
100
AcDbPolyFaceMesh
 66
     1
 10
0.0
 20
0.0
 30
0.0
 70
    64
 71
    40
 72
    20
  0
VERTEX
  5
E1
330
E0
100
AcDbEntity
  8
Inox
100
AcDbVertex
100
AcDbPolyFaceMeshVertex
 10
-22.79999923706055
 20
-19.76854515075684
 30
558.5
 70
   192
  0
VERTEX
  5
E2
330
E0
100
AcDbEntity
  8
Inox
100
AcDbVertex
100
AcDbPolyFaceMeshVertex
 10
-22.79999923706055
 20
-10.30000019073486
 30
558.5
 70
   192
  0
VERTEX
  5
E3
330
E0
100
AcDbEntity
  8
Inox
100
AcDbVertex
100
AcDbPolyFaceMeshVertex
 10
-22.79999923706055
 20
-10.30000019073486
 30
558.7999877929688
 70
   192
  0
VERTEX
  5
E4
330
E0
100
AcDbEntity
  8
Inox
100
AcDbVertex
100
AcDbPolyFaceMeshVertex
 10
-22.79999923706055
 20
-19.59533882141113
 30
558.7999877929688
 70
   192
  0
VERTEX
  5
E5
330
E0
100
AcDbEntity
  8
Inox
100
AcDbVertex
100
AcDbPolyFaceMeshVertex
 10
-22.79999923706055
 20
-15.03427219390869
 30
558.5
 70
   192
  0
VERTEX
  5
E6
330
E0
100
AcDbEntity
  8
Inox
100
AcDbVertex
100
AcDbPolyFaceMeshVertex
 10
-22.79999923706055
 20
-14.94766998291016
 30
558.7999877929688
 70
   192
  0
VERTEX
  5
E7
330
E0
100
AcDbEntity
  8
Inox
100
AcDbVertex
100
AcDbPolyFaceMeshVertex
 10
-22.79999923706055
 20
-10.30000019073486
 30
558.5
 70
   192
  0
VERTEX
  5
E8
330
E0
100
AcDbEntity
  8
Inox
100
AcDbVertex
100
AcDbPolyFaceMeshVertex
 10
-22.79999923706055
 20
-10.30000019073486
 30
558.7999877929688
 70
   192
  0
VERTEX
  5
E9
330
E0
100
AcDbEntity
  8
Inox
100
AcDbVertex
100
AcDbPolyFaceMeshVertex
 10
-222.1999969482422
 20
-10.30000019073486
 30
558.5
 70
   192
  0
VERTEX
  5
EA
330
E0
100
AcDbEntity
  8
Inox
100
AcDbVertex
100
AcDbPolyFaceMeshVertex
 10
-222.1999969482422
 20
-10.30000019073486
 30
558.7999877929688
 70
   192
  0
VERTEX
  5
EB
330
E0
100
AcDbEntity
  8
Inox
100
AcDbVertex
100
AcDbPolyFaceMeshVertex
 10
-122.5
 20
-10.30000019073486
 30
558.5
 70
   192
  0
VERTEX
  5
EC
330
E0
100
AcDbEntity
  8
Inox
100
AcDbVertex
100
AcDbPolyFaceMeshVertex
 10
-122.5
 20
-10.30000019073486
 30
558.7999877929688
 70
   192
  0
VERTEX
  5
ED
330
E0
100
AcDbEntity
  8
Inox
100
AcDbVertex
100
AcDbPolyFaceMeshVertex
 10
-222.1999969482422
 20
-10.30000019073486
 30
558.5
 70
   192
  0
VERTEX
  5
EE
330
E0
100
AcDbEntity
  8
Inox
100
AcDbVertex
100
AcDbPolyFaceMeshVertex
 10
-222.1999969482422
 20
-10.30000019073486
 30
558.7999877929688
 70
   192
  0
VERTEX
  5
EF
330
E0
100
AcDbEntity
  8
Inox
100
AcDbVertex
100
AcDbPolyFaceMeshVertex
 10
-222.1999969482422
 20
-19.76854515075684
 30
558.5
 70
   192
  0
VERTEX
  5
F0
330
E0
100
AcDbEntity
  8
Inox
100
AcDbVertex
100
AcDbPolyFaceMeshVertex
 10
-222.1999969482422
 20
-15.03427219390869
 30
558.5
 70
   192
  0
VERTEX
  5
F1
330
E0
100
AcDbEntity
  8
Inox
100
AcDbVertex
100
AcDbPolyFaceMeshVertex
 10
-222.1999969482422
 20
-19.59533882141113
 30
558.7999877929688
 70
   192
  0
VERTEX
  5
F2
330
E0
100
AcDbEntity
  8
Inox
100
AcDbVertex
100
AcDbPolyFaceMeshVertex
 10
-222.1999969482422
 20
-14.94766998291016
 30
558.7999877929688
 70
   192
  0
VERTEX
  5
F3
330
E0
100
AcDbEntity
  8
Inox
100
AcDbVertex
100
AcDbPolyFaceMeshVertex
 10
-222.1999969482422
 20
-19.76854515075684
 30
558.5
 70
   192
  0
VERTEX
  5
F4
330
E0
100
AcDbEntity
  8
Inox
100
AcDbVertex
100
AcDbPolyFaceMeshVertex
 10
-222.1999969482422
 20
-10.30000019073486
 30
558.5
 70
   192
  0
VERTEX
  5
F5
330
E0
100
AcDbEntity
  8
Inox
100
AcDbVertex
100
AcDbPolyFaceMeshVertex
 10
-22.79999923706055
 20
-10.30000019073486
 30
558.5
 70
   192
  0
VERTEX
  5
F6
330
E0
100
AcDbEntity
  8
Inox
100
AcDbVertex
100
AcDbPolyFaceMeshVertex
 10
-122.5
 20
-10.30000019073486
 30
558.5
 70
   192
  0
VERTEX
  5
F7
330
E0
100
AcDbEntity
  8
Inox
100
AcDbVertex
100
AcDbPolyFaceMeshVertex
 10
-222.1999969482422
 20
-15.03427219390869
 30
558.5
 70
   192
  0
VERTEX
  5
F8
330
E0
100
AcDbEntity
  8
Inox
100
AcDbVertex
100
AcDbPolyFaceMeshVertex
 10
-122.5
 20
-19.76854515075684
 30
558.5
 70
   192
  0
VERTEX
  5
F9
330
E0
100
AcDbEntity
  8
Inox
100
AcDbVertex
100
AcDbPolyFaceMeshVertex
 10
-22.79999923706055
 20
-19.76854515075684
 30
558.5
 70
   192
  0
VERTEX
  5
FA
330
E0
100
AcDbEntity
  8
Inox
100
AcDbVertex
100
AcDbPolyFaceMeshVertex
 10
-22.79999923706055
 20
-15.03427219390869
 30
558.5
 70
   192
  0
VERTEX
  5
FB
330
E0
100
AcDbEntity
  8
Inox
100
AcDbVertex
100
AcDbPolyFaceMeshVertex
 10
-222.1999969482422
 20
-19.59533882141113
 30
558.7999877929688
 70
   192
  0
VERTEX
  5
FC
330
E0
100
AcDbEntity
  8
Inox
100
AcDbVertex
100
AcDbPolyFaceMeshVertex
 10
-222.1999969482422
 20
-10.30000019073486
 30
558.7999877929688
 70
   192
  0
VERTEX
  5
FD
330
E0
100
AcDbEntity
  8
Inox
100
AcDbVertex
100
AcDbPolyFaceMeshVertex
 10
-22.79999923706055
 20
-10.30000019073486
 30
558.7999877929688
 70
   192
  0
VERTEX
  5
FE
330
E0
100
AcDbEntity
  8
Inox
100
AcDbVertex
100
AcDbPolyFaceMeshVertex
 10
-122.5
 20
-10.30000019073486
 30
558.7999877929688
 70
   192
  0
VERTEX
  5
FF
330
E0
100
AcDbEntity
  8
Inox
100
AcDbVertex
100
AcDbPolyFaceMeshVertex
 10
-222.1999969482422
 20
-14.94766998291016
 30
558.7999877929688
 70
   192
  0
VERTEX
  5
100
330
E0
100
AcDbEntity
  8
Inox
100
AcDbVertex
100
AcDbPolyFaceMeshVertex
 10
-122.5
 20
-19.59533882141113
 30
558.7999877929688
 70
   192
  0
VERTEX
  5
101
330
E0
100
AcDbEntity
  8
Inox
100
AcDbVertex
100
AcDbPolyFaceMeshVertex
 10
-22.79999923706055
 20
-19.59533882141113
 30
558.7999877929688
 70
   192
  0
VERTEX
  5
102
330
E0
100
AcDbEntity
  8
Inox
100
AcDbVertex
100
AcDbPolyFaceMeshVertex
 10
-22.79999923706055
 20
-14.94766998291016
 30
558.7999877929688
 70
   192
  0
VERTEX
  5
103
330
E0
100
AcDbEntity
  8
Inox
100
AcDbVertex
100
AcDbPolyFaceMeshVertex
 10
-22.79999923706055
 20
-19.59533882141113
 30
558.7999877929688
 70
   192
  0
VERTEX
  5
104
330
E0
100
AcDbEntity
  8
Inox
100
AcDbVertex
100
AcDbPolyFaceMeshVertex
 10
-22.79999923706055
 20
-19.76854515075684
 30
558.5
 70
   192
  0
VERTEX
  5
105
330
E0
100
AcDbEntity
  8
Inox
100
AcDbVertex
100
AcDbPolyFaceMeshVertex
 10
-222.1999969482422
 20
-19.76854515075684
 30
558.5
 70
   192
  0
VERTEX
  5
106
330
E0
100
AcDbEntity
  8
Inox
100
AcDbVertex
100
AcDbPolyFaceMeshVertex
 10
-222.1999969482422
 20
-19.59533882141113
 30
558.7999877929688
 70
   192
  0
VERTEX
  5
107
330
E0
100
AcDbEntity
  8
Inox
100
AcDbVertex
100
AcDbPolyFaceMeshVertex
 10
-122.5
 20
-19.76854515075684
 30
558.5
 70
   192
  0
VERTEX
  5
108
330
E0
100
AcDbEntity
  8
Inox
100
AcDbVertex
100
AcDbPolyFaceMeshVertex
 10
-122.5
 20
-19.59533882141113
 30
558.7999877929688
 70
   192
  0
VERTEX
  5
109
330
E0
100
AcDbEntity
  8
Inox
100
AcDbFaceRecord
 10
0.0
 20
0.0
 30
0.0
 70
   128
 71
     1
 72
     5
 73
     6
 74
     4
  0
VERTEX
  5
10A
330
E0
100
AcDbEntity
  8
Inox
100
AcDbFaceRecord
 10
0.0
 20
0.0
 30
0.0
 70
   128
 71
     3
 72
     6
 73
     5
 74
     2
  0
VERTEX
  5
10B
330
E0
100
AcDbEntity
  8
Inox
100
AcDbFaceRecord
 10
0.0
 20
0.0
 30
0.0
 70
   128
 71
     7
 72
    11
 73
    12
 74
     8
  0
VERTEX
  5
10C
330
E0
100
AcDbEntity
  8
Inox
100
AcDbFaceRecord
 10
0.0
 20
0.0
 30
0.0
 70
   128
 71
    10
 72
    12
 73
    11
 74
     9
  0
VERTEX
  5
10D
330
E0
100
AcDbEntity
  8
Inox
100
AcDbFaceRecord
 10
0.0
 20
0.0
 30
0.0
 70
   128
 71
    18
 72
    14
 73
    13
 74
    16
  0
VERTEX
  5
10E
330
E0
100
AcDbEntity
  8
Inox
100
AcDbFaceRecord
 10
0.0
 20
0.0
 30
0.0
 70
   128
 71
    16
 72
    15
 73
    17
 74
    18
  0
VERTEX
  5
10F
330
E0
100
AcDbEntity
  8
Inox
100
AcDbFaceRecord
 10
0.0
 20
0.0
 30
0.0
 70
   128
 71
    26
 72
    23
 73
    22
 74
    22
  0
VERTEX
  5
110
330
E0
100
AcDbEntity
  8
Inox
100
AcDbFaceRecord
 10
0.0
 20
0.0
 30
0.0
 70
   128
 71
    23
 72
    20
 73
    22
 74
    22
  0
VERTEX
  5
111
330
E0
100
AcDbEntity
  8
Inox
100
AcDbFaceRecord
 10
0.0
 20
0.0
 30
0.0
 70
   128
 71
    24
 72
    19
 73
    23
 74
    23
  0
VERTEX
  5
112
330
E0
100
AcDbEntity
  8
Inox
100
AcDbFaceRecord
 10
0.0
 20
0.0
 30
0.0
 70
   128
 71
    26
 72
    25
 73
    24
 74
    24
  0
VERTEX
  5
113
330
E0
100
AcDbEntity
  8
Inox
100
AcDbFaceRecord
 10
0.0
 20
0.0
 30
0.0
 70
   128
 71
    26
 72
    22
 73
    21
 74
    21
  0
VERTEX
  5
114
330
E0
100
AcDbEntity
  8
Inox
100
AcDbFaceRecord
 10
0.0
 20
0.0
 30
0.0
 70
   128
 71
    24
 72
    23
 73
    26
 74
    26
  0
VERTEX
  5
115
330
E0
100
AcDbEntity
  8
Inox
100
AcDbFaceRecord
 10
0.0
 20
0.0
 30
0.0
 70
   128
 71
    32
 72
    30
 73
    31
 74
    31
  0
VERTEX
  5
116
330
E0
100
AcDbEntity
  8
Inox
100
AcDbFaceRecord
 10
0.0
 20
0.0
 30
0.0
 70
   128
 71
    31
 72
    30
 73
    28
 74
    28
  0
VERTEX
  5
117
330
E0
100
AcDbEntity
  8
Inox
100
AcDbFaceRecord
 10
0.0
 20
0.0
 30
0.0
 70
   128
 71
    32
 72
    31
 73
    27
 74
    27
  0
VERTEX
  5
118
330
E0
100
AcDbEntity
  8
Inox
100
AcDbFaceRecord
 10
0.0
 20
0.0
 30
0.0
 70
   128
 71
    34
 72
    32
 73
    33
 74
    33
  0
VERTEX
  5
119
330
E0
100
AcDbEntity
  8
Inox
100
AcDbFaceRecord
 10
0.0
 20
0.0
 30
0.0
 70
   128
 71
    34
 72
    29
 73
    30
 74
    30
  0
VERTEX
  5
11A
330
E0
100
AcDbEntity
  8
Inox
100
AcDbFaceRecord
 10
0.0
 20
0.0
 30
0.0
 70
   128
 71
    32
 72
    34
 73
    30
 74
    30
  0
VERTEX
  5
11B
330
E0
100
AcDbEntity
  8
Inox
100
AcDbFaceRecord
 10
0.0
 20
0.0
 30
0.0
 70
   128
 71
    35
 72
    40
 73
    39
 74
    36
  0
VERTEX
  5
11C
330
E0
100
AcDbEntity
  8
Inox
100
AcDbFaceRecord
 10
0.0
 20
0.0
 30
0.0
 70
   128
 71
    37
 72
    39
 73
    40
 74
    38
  0
SEQEND
  5
11D
330
E0
100
AcDbEntity
  8
Inox
  0
POLYLINE
  5
11E
330
1F
100
AcDbEntity
  8
Inox
100
AcDbPolyFaceMesh
 66
     1
 10
0.0
 20
0.0
 30
0.0
 70
    64
 71
    30
 72
    14
  0
VERTEX
  5
11F
330
11E
100
AcDbEntity
  8
Inox
100
AcDbVertex
100
AcDbPolyFaceMeshVertex
 10
-222.1999969482422
 20
-10.30000019073486
 30
558.5
 70
   192
  0
VERTEX
  5
120
330
11E
100
AcDbEntity
  8
Inox
100
AcDbVertex
100
AcDbPolyFaceMeshVertex
 10
-222.5
 20
-10.30000019073486
 30
558.5
 70
   192
  0
VERTEX
  5
121
330
11E
100
AcDbEntity
  8
Inox
100
AcDbVertex
100
AcDbPolyFaceMeshVertex
 10
-222.1999969482422
 20
-19.76854515075684
 30
558.5
 70
   192
  0
VERTEX
  5
122
330
11E
100
AcDbEntity
  8
Inox
100
AcDbVertex
100
AcDbPolyFaceMeshVertex
 10
-222.5
 20
-19.76854515075684
 30
558.5
 70
   192
  0
VERTEX
  5
123
330
11E
100
AcDbEntity
  8
Inox
100
AcDbVertex
100
AcDbPolyFaceMeshVertex
 10
-222.1999969482422
 20
-15.03427219390869
 30
558.5
 70
   192
  0
VERTEX
  5
124
330
11E
100
AcDbEntity
  8
Inox
100
AcDbVertex
100
AcDbPolyFaceMeshVertex
 10
-222.5
 20
-15.03427219390869
 30
558.5
 70
   192
  0
VERTEX
  5
125
330
11E
100
AcDbEntity
  8
Inox
100
AcDbVertex
100
AcDbPolyFaceMeshVertex
 10
-222.1999969482422
 20
-10.30000019073486
 30
558.5
 70
   192
  0
VERTEX
  5
126
330
11E
100
AcDbEntity
  8
Inox
100
AcDbVertex
100
AcDbPolyFaceMeshVertex
 10
-222.5
 20
-10.30000019073486
 30
558.5
 70
   192
  0
VERTEX
  5
127
330
11E
100
AcDbEntity
  8
Inox
100
AcDbVertex
100
AcDbPolyFaceMeshVertex
 10
-222.5
 20
-10.30000019073486
 30
574.9000244140625
 70
   192
  0
VERTEX
  5
128
330
11E
100
AcDbEntity
  8
Inox
100
AcDbVertex
100
AcDbPolyFaceMeshVertex
 10
-222.1999969482422
 20
-10.30000019073486
 30
574.9000244140625
 70
   192
  0
VERTEX
  5
129
330
11E
100
AcDbEntity
  8
Inox
100
AcDbVertex
100
AcDbPolyFaceMeshVertex
 10
-222.1999969482422
 20
-10.30000019073486
 30
566.7000122070312
 70
   192
  0
VERTEX
  5
12A
330
11E
100
AcDbEntity
  8
Inox
100
AcDbVertex
100
AcDbPolyFaceMeshVertex
 10
-222.5
 20
-10.30000019073486
 30
566.7000122070312
 70
   192
  0
VERTEX
  5
12B
330
11E
100
AcDbEntity
  8
Inox
100
AcDbVertex
100
AcDbPolyFaceMeshVertex
 10
-222.1999969482422
 20
-19.76854515075684
 30
558.5
 70
   192
  0
VERTEX
  5
12C
330
11E
100
AcDbEntity
  8
Inox
100
AcDbVertex
100
AcDbPolyFaceMeshVertex
 10
-222.1999969482422
 20
-10.30000019073486
 30
574.9000244140625
 70
   192
  0
VERTEX
  5
12D
330
11E
100
AcDbEntity
  8
Inox
100
AcDbVertex
100
AcDbPolyFaceMeshVertex
 10
-222.1999969482422
 20
-10.30000019073486
 30
558.5
 70
   192
  0
VERTEX
  5
12E
330
11E
100
AcDbEntity
  8
Inox
100
AcDbVertex
100
AcDbPolyFaceMeshVertex
 10
-222.1999969482422
 20
-15.03427219390869
 30
558.5
 70
   192
  0
VERTEX
  5
12F
330
11E
100
AcDbEntity
  8
Inox
100
AcDbVertex
100
AcDbPolyFaceMeshVertex
 10
-222.1999969482422
 20
-15.03427219390869
 30
566.7000122070312
 70
   192
  0
VERTEX
  5
130
330
11E
100
AcDbEntity
  8
Inox
100
AcDbVertex
100
AcDbPolyFaceMeshVertex
 10
-222.1999969482422
 20
-10.30000019073486
 30
566.7000122070312
 70
   192
  0
VERTEX
  5
131
330
11E
100
AcDbEntity
  8
Inox
100
AcDbVertex
100
AcDbPolyFaceMeshVertex
 10
-222.5
 20
-19.76854515075684
 30
558.5
 70
   192
  0
VERTEX
  5
132
330
11E
100
AcDbEntity
  8
Inox
100
AcDbVertex
100
AcDbPolyFaceMeshVertex
 10
-222.5
 20
-10.30000019073486
 30
574.9000244140625
 70
   192
  0
VERTEX
  5
133
330
11E
100
AcDbEntity
  8
Inox
100
AcDbVertex
100
AcDbPolyFaceMeshVertex
 10
-222.5
 20
-10.30000019073486
 30
558.5
 70
   192
  0
VERTEX
  5
134
330
11E
100
AcDbEntity
  8
Inox
100
AcDbVertex
100
AcDbPolyFaceMeshVertex
 10
-222.5
 20
-15.03427219390869
 30
558.5
 70
   192
  0
VERTEX
  5
135
330
11E
100
AcDbEntity
  8
Inox
100
AcDbVertex
100
AcDbPolyFaceMeshVertex
 10
-222.5
 20
-10.30000019073486
 30
566.7000122070312
 70
   192
  0
VERTEX
  5
136
330
11E
100
AcDbEntity
  8
Inox
100
AcDbVertex
100
AcDbPolyFaceMeshVertex
 10
-222.5
 20
-15.03427219390869
 30
566.7000122070312
 70
   192
  0
VERTEX
  5
137
330
11E
100
AcDbEntity
  8
Inox
100
AcDbVertex
100
AcDbPolyFaceMeshVertex
 10
-222.1999969482422
 20
-19.76854515075684
 30
558.5
 70
   192
  0
VERTEX
  5
138
330
11E
100
AcDbEntity
  8
Inox
100
AcDbVertex
100
AcDbPolyFaceMeshVertex
 10
-222.5
 20
-10.30000019073486
 30
574.9000244140625
 70
   192
  0
VERTEX
  5
139
330
11E
100
AcDbEntity
  8
Inox
100
AcDbVertex
100
AcDbPolyFaceMeshVertex
 10
-222.1999969482422
 20
-10.30000019073486
 30
574.9000244140625
 70
   192
  0
VERTEX
  5
13A
330
11E
100
AcDbEntity
  8
Inox
100
AcDbVertex
100
AcDbPolyFaceMeshVertex
 10
-222.1999969482422
 20
-15.03427219390869
 30
566.7000122070312
 70
   192
  0
VERTEX
  5
13B
330
11E
100
AcDbEntity
  8
Inox
100
AcDbVertex
100
AcDbPolyFaceMeshVertex
 10
-222.5
 20
-19.76854515075684
 30
558.5
 70
   192
  0
VERTEX
  5
13C
330
11E
100
AcDbEntity
  8
Inox
100
AcDbVertex
100
AcDbPolyFaceMeshVertex
 10
-222.5
 20
-15.03427219390869
 30
566.7000122070312
 70
   192
  0
VERTEX
  5
13D
330
11E
100
AcDbEntity
  8
Inox
100
AcDbFaceRecord
 10
0.0
 20
0.0
 30
0.0
 70
   128
 71
     2
 72
     1
 73
     5
 74
     6
  0
VERTEX
  5
13E
330
11E
100
AcDbEntity
  8
Inox
100
AcDbFaceRecord
 10
0.0
 20
0.0
 30
0.0
 70
   128
 71
     3
 72
     4
 73
     6
 74
     5
  0
VERTEX
  5
13F
330
11E
100
AcDbEntity
  8
Inox
100
AcDbFaceRecord
 10
0.0
 20
0.0
 30
0.0
 70
   128
 71
    12
 72
     9
 73
    10
 74
    11
  0
VERTEX
  5
140
330
11E
100
AcDbEntity
  8
Inox
100
AcDbFaceRecord
 10
0.0
 20
0.0
 30
0.0
 70
   128
 71
    11
 72
     7
 73
     8
 74
    12
  0
VERTEX
  5
141
330
11E
100
AcDbEntity
  8
Inox
100
AcDbFaceRecord
 10
0.0
 20
0.0
 30
0.0
 70
   128
 71
    16
 72
    17
 73
    13
 74
    13
  0
VERTEX
  5
142
330
11E
100
AcDbEntity
  8
Inox
100
AcDbFaceRecord
 10
0.0
 20
0.0
 30
0.0
 70
   128
 71
    15
 72
    17
 73
    16
 74
    16
  0
VERTEX
  5
143
330
11E
100
AcDbEntity
  8
Inox
100
AcDbFaceRecord
 10
0.0
 20
0.0
 30
0.0
 70
   128
 71
    17
 72
    18
 73
    14
 74
    14
  0
VERTEX
  5
144
330
11E
100
AcDbEntity
  8
Inox
100
AcDbFaceRecord
 10
0.0
 20
0.0
 30
0.0
 70
   128
 71
    17
 72
    15
 73
    18
 74
    18
  0
VERTEX
  5
145
330
11E
100
AcDbEntity
  8
Inox
100
AcDbFaceRecord
 10
0.0
 20
0.0
 30
0.0
 70
   128
 71
    22
 72
    19
 73
    24
 74
    24
  0
VERTEX
  5
146
330
11E
100
AcDbEntity
  8
Inox
100
AcDbFaceRecord
 10
0.0
 20
0.0
 30
0.0
 70
   128
 71
    21
 72
    22
 73
    24
 74
    24
  0
VERTEX
  5
147
330
11E
100
AcDbEntity
  8
Inox
100
AcDbFaceRecord
 10
0.0
 20
0.0
 30
0.0
 70
   128
 71
    24
 72
    20
 73
    23
 74
    23
  0
VERTEX
  5
148
330
11E
100
AcDbEntity
  8
Inox
100
AcDbFaceRecord
 10
0.0
 20
0.0
 30
0.0
 70
   128
 71
    24
 72
    23
 73
    21
 74
    21
  0
VERTEX
  5
149
330
11E
100
AcDbEntity
  8
Inox
100
AcDbFaceRecord
 10
0.0
 20
0.0
 30
0.0
 70
   128
 71
    28
 72
    30
 73
    29
 74
    25
  0
VERTEX
  5
14A
330
11E
100
AcDbEntity
  8
Inox
100
AcDbFaceRecord
 10
0.0
 20
0.0
 30
0.0
 70
   128
 71
    27
 72
    26
 73
    30
 74
    28
  0
SEQEND
  5
14B
330
11E
100
AcDbEntity
  8
Inox
  0
POLYLINE
  5
14C
330
1F
100
AcDbEntity
  8
Inox
100
AcDbPolyFaceMesh
 66
     1
 10
0.0
 20
0.0
 30
0.0
 70
    64
 71
    30
 72
    14
  0
VERTEX
  5
14D
330
14C
100
AcDbEntity
  8
Inox
100
AcDbVertex
100
AcDbPolyFaceMeshVertex
 10
-22.79999923706055
 20
-10.30000019073486
 30
558.5
 70
   192
  0
VERTEX
  5
14E
330
14C
100
AcDbEntity
  8
Inox
100
AcDbVertex
100
AcDbPolyFaceMeshVertex
 10
-22.5
 20
-10.30000019073486
 30
558.5
 70
   192
  0
VERTEX
  5
14F
330
14C
100
AcDbEntity
  8
Inox
100
AcDbVertex
100
AcDbPolyFaceMeshVertex
 10
-22.79999923706055
 20
-10.30000019073486
 30
566.7000122070312
 70
   192
  0
VERTEX
  5
150
330
14C
100
AcDbEntity
  8
Inox
100
AcDbVertex
100
AcDbPolyFaceMeshVertex
 10
-22.79999923706055
 20
-10.30000019073486
 30
574.9000244140625
 70
   192
  0
VERTEX
  5
151
330
14C
100
AcDbEntity
  8
Inox
100
AcDbVertex
100
AcDbPolyFaceMeshVertex
 10
-22.5
 20
-10.30000019073486
 30
574.9000244140625
 70
   192
  0
VERTEX
  5
152
330
14C
100
AcDbEntity
  8
Inox
100
AcDbVertex
100
AcDbPolyFaceMeshVertex
 10
-22.5
 20
-10.30000019073486
 30
566.7000122070312
 70
   192
  0
VERTEX
  5
153
330
14C
100
AcDbEntity
  8
Inox
100
AcDbVertex
100
AcDbPolyFaceMeshVertex
 10
-22.79999923706055
 20
-19.76854515075684
 30
558.5
 70
   192
  0
VERTEX
  5
154
330
14C
100
AcDbEntity
  8
Inox
100
AcDbVertex
100
AcDbPolyFaceMeshVertex
 10
-22.79999923706055
 20
-10.30000019073486
 30
558.5
 70
   192
  0
VERTEX
  5
155
330
14C
100
AcDbEntity
  8
Inox
100
AcDbVertex
100
AcDbPolyFaceMeshVertex
 10
-22.5
 20
-10.30000019073486
 30
558.5
 70
   192
  0
VERTEX
  5
156
330
14C
100
AcDbEntity
  8
Inox
100
AcDbVertex
100
AcDbPolyFaceMeshVertex
 10
-22.5
 20
-19.76854515075684
 30
558.5
 70
   192
  0
VERTEX
  5
157
330
14C
100
AcDbEntity
  8
Inox
100
AcDbVertex
100
AcDbPolyFaceMeshVertex
 10
-22.79999923706055
 20
-15.03427219390869
 30
558.5
 70
   192
  0
VERTEX
  5
158
330
14C
100
AcDbEntity
  8
Inox
100
AcDbVertex
100
AcDbPolyFaceMeshVertex
 10
-22.5
 20
-15.03427219390869
 30
558.5
 70
   192
  0
VERTEX
  5
159
330
14C
100
AcDbEntity
  8
Inox
100
AcDbVertex
100
AcDbPolyFaceMeshVertex
 10
-22.79999923706055
 20
-10.30000019073486
 30
574.9000244140625
 70
   192
  0
VERTEX
  5
15A
330
14C
100
AcDbEntity
  8
Inox
100
AcDbVertex
100
AcDbPolyFaceMeshVertex
 10
-22.79999923706055
 20
-19.76854515075684
 30
558.5
 70
   192
  0
VERTEX
  5
15B
330
14C
100
AcDbEntity
  8
Inox
100
AcDbVertex
100
AcDbPolyFaceMeshVertex
 10
-22.79999923706055
 20
-10.30000019073486
 30
558.5
 70
   192
  0
VERTEX
  5
15C
330
14C
100
AcDbEntity
  8
Inox
100
AcDbVertex
100
AcDbPolyFaceMeshVertex
 10
-22.79999923706055
 20
-10.30000019073486
 30
566.7000122070312
 70
   192
  0
VERTEX
  5
15D
330
14C
100
AcDbEntity
  8
Inox
100
AcDbVertex
100
AcDbPolyFaceMeshVertex
 10
-22.79999923706055
 20
-15.03427219390869
 30
566.7000122070312
 70
   192
  0
VERTEX
  5
15E
330
14C
100
AcDbEntity
  8
Inox
100
AcDbVertex
100
AcDbPolyFaceMeshVertex
 10
-22.79999923706055
 20
-15.03427219390869
 30
558.5
 70
   192
  0
VERTEX
  5
15F
330
14C
100
AcDbEntity
  8
Inox
100
AcDbVertex
100
AcDbPolyFaceMeshVertex
 10
-22.5
 20
-10.30000019073486
 30
574.9000244140625
 70
   192
  0
VERTEX
  5
160
330
14C
100
AcDbEntity
  8
Inox
100
AcDbVertex
100
AcDbPolyFaceMeshVertex
 10
-22.5
 20
-19.76854515075684
 30
558.5
 70
   192
  0
VERTEX
  5
161
330
14C
100
AcDbEntity
  8
Inox
100
AcDbVertex
100
AcDbPolyFaceMeshVertex
 10
-22.5
 20
-10.30000019073486
 30
558.5
 70
   192
  0
VERTEX
  5
162
330
14C
100
AcDbEntity
  8
Inox
100
AcDbVertex
100
AcDbPolyFaceMeshVertex
 10
-22.5
 20
-10.30000019073486
 30
566.7000122070312
 70
   192
  0
VERTEX
  5
163
330
14C
100
AcDbEntity
  8
Inox
100
AcDbVertex
100
AcDbPolyFaceMeshVertex
 10
-22.5
 20
-15.03427219390869
 30
558.5
 70
   192
  0
VERTEX
  5
164
330
14C
100
AcDbEntity
  8
Inox
100
AcDbVertex
100
AcDbPolyFaceMeshVertex
 10
-22.5
 20
-15.03427219390869
 30
566.7000122070312
 70
   192
  0
VERTEX
  5
165
330
14C
100
AcDbEntity
  8
Inox
100
AcDbVertex
100
AcDbPolyFaceMeshVertex
 10
-22.79999923706055
 20
-19.76854515075684
 30
558.5
 70
   192
  0
VERTEX
  5
166
330
14C
100
AcDbEntity
  8
Inox
100
AcDbVertex
100
AcDbPolyFaceMeshVertex
 10
-22.79999923706055
 20
-10.30000019073486
 30
574.9000244140625
 70
   192
  0
VERTEX
  5
167
330
14C
100
AcDbEntity
  8
Inox
100
AcDbVertex
100
AcDbPolyFaceMeshVertex
 10
-22.5
 20
-19.76854515075684
 30
558.5
 70
   192
  0
VERTEX
  5
168
330
14C
100
AcDbEntity
  8
Inox
100
AcDbVertex
100
AcDbPolyFaceMeshVertex
 10
-22.79999923706055
 20
-15.03427219390869
 30
566.7000122070312
 70
   192
  0
VERTEX
  5
169
330
14C
100
AcDbEntity
  8
Inox
100
AcDbVertex
100
AcDbPolyFaceMeshVertex
 10
-22.5
 20
-10.30000019073486
 30
574.9000244140625
 70
   192
  0
VERTEX
  5
16A
330
14C
100
AcDbEntity
  8
Inox
100
AcDbVertex
100
AcDbPolyFaceMeshVertex
 10
-22.5
 20
-15.03427219390869
 30
566.7000122070312
 70
   192
  0
VERTEX
  5
16B
330
14C
100
AcDbEntity
  8
Inox
100
AcDbFaceRecord
 10
0.0
 20
0.0
 30
0.0
 70
   128
 71
     1
 72
     3
 73
     6
 74
     2
  0
VERTEX
  5
16C
330
14C
100
AcDbEntity
  8
Inox
100
AcDbFaceRecord
 10
0.0
 20
0.0
 30
0.0
 70
   128
 71
     5
 72
     6
 73
     3
 74
     4
  0
VERTEX
  5
16D
330
14C
100
AcDbEntity
  8
Inox
100
AcDbFaceRecord
 10
0.0
 20
0.0
 30
0.0
 70
   128
 71
     7
 72
    11
 73
    12
 74
    10
  0
VERTEX
  5
16E
330
14C
100
AcDbEntity
  8
Inox
100
AcDbFaceRecord
 10
0.0
 20
0.0
 30
0.0
 70
   128
 71
     9
 72
    12
 73
    11
 74
     8
  0
VERTEX
  5
16F
330
14C
100
AcDbEntity
  8
Inox
100
AcDbFaceRecord
 10
0.0
 20
0.0
 30
0.0
 70
   128
 71
    17
 72
    13
 73
    16
 74
    16
  0
VERTEX
  5
170
330
14C
100
AcDbEntity
  8
Inox
100
AcDbFaceRecord
 10
0.0
 20
0.0
 30
0.0
 70
   128
 71
    17
 72
    16
 73
    15
 74
    15
  0
VERTEX
  5
171
330
14C
100
AcDbEntity
  8
Inox
100
AcDbFaceRecord
 10
0.0
 20
0.0
 30
0.0
 70
   128
 71
    14
 72
    17
 73
    18
 74
    18
  0
VERTEX
  5
172
330
14C
100
AcDbEntity
  8
Inox
100
AcDbFaceRecord
 10
0.0
 20
0.0
 30
0.0
 70
   128
 71
    15
 72
    18
 73
    17
 74
    17
  0
VERTEX
  5
173
330
14C
100
AcDbEntity
  8
Inox
100
AcDbFaceRecord
 10
0.0
 20
0.0
 30
0.0
 70
   128
 71
    24
 72
    22
 73
    19
 74
    19
  0
VERTEX
  5
174
330
14C
100
AcDbEntity
  8
Inox
100
AcDbFaceRecord
 10
0.0
 20
0.0
 30
0.0
 70
   128
 71
    24
 72
    21
 73
    22
 74
    22
  0
VERTEX
  5
175
330
14C
100
AcDbEntity
  8
Inox
100
AcDbFaceRecord
 10
0.0
 20
0.0
 30
0.0
 70
   128
 71
    23
 72
    24
 73
    20
 74
    20
  0
VERTEX
  5
176
330
14C
100
AcDbEntity
  8
Inox
100
AcDbFaceRecord
 10
0.0
 20
0.0
 30
0.0
 70
   128
 71
    21
 72
    24
 73
    23
 74
    23
  0
VERTEX
  5
177
330
14C
100
AcDbEntity
  8
Inox
100
AcDbFaceRecord
 10
0.0
 20
0.0
 30
0.0
 70
   128
 71
    30
 72
    28
 73
    25
 74
    27
  0
VERTEX
  5
178
330
14C
100
AcDbEntity
  8
Inox
100
AcDbFaceRecord
 10
0.0
 20
0.0
 30
0.0
 70
   128
 71
    29
 72
    26
 73
    28
 74
    30
  0
SEQEND
  5
179
330
14C
100
AcDbEntity
  8
Inox
  0
POLYLINE
  5
17A
330
1F
100
AcDbEntity
  8
Inox
100
AcDbPolyFaceMesh
 66
     1
 10
0.0
 20
0.0
 30
0.0
 70
    64
 71
    40
 72
    19
  0
VERTEX
  5
17B
330
17A
100
AcDbEntity
  8
Inox
100
AcDbVertex
100
AcDbPolyFaceMeshVertex
 10
-22.5
 20
-25.29999923706055
 30
549.5192260742188
 70
   192
  0
VERTEX
  5
17C
330
17A
100
AcDbEntity
  8
Inox
100
AcDbVertex
100
AcDbPolyFaceMeshVertex
 10
-22.5
 20
-25.04019165039062
 30
549.3692626953125
 70
   192
  0
VERTEX
  5
17D
330
17A
100
AcDbEntity
  8
Inox
100
AcDbVertex
100
AcDbPolyFaceMeshVertex
 10
-222.5
 20
-25.29999923706055
 30
549.5192260742188
 70
   192
  0
VERTEX
  5
17E
330
17A
100
AcDbEntity
  8
Inox
100
AcDbVertex
100
AcDbPolyFaceMeshVertex
 10
-222.5
 20
-25.04019165039062
 30
549.3692626953125
 70
   192
  0
VERTEX
  5
17F
330
17A
100
AcDbEntity
  8
Inox
100
AcDbVertex
100
AcDbPolyFaceMeshVertex
 10
-122.5
 20
-25.29999923706055
 30
549.5192260742188
 70
   192
  0
VERTEX
  5
180
330
17A
100
AcDbEntity
  8
Inox
100
AcDbVertex
100
AcDbPolyFaceMeshVertex
 10
-122.5
 20
-25.04019165039062
 30
549.3692626953125
 70
   192
  0
VERTEX
  5
181
330
17A
100
AcDbEntity
  8
Inox
100
AcDbVertex
100
AcDbPolyFaceMeshVertex
 10
-22.5
 20
-25.29999923706055
 30
549.5192260742188
 70
   192
  0
VERTEX
  5
182
330
17A
100
AcDbEntity
  8
Inox
100
AcDbVertex
100
AcDbPolyFaceMeshVertex
 10
-22.5
 20
-10.30000019073486
 30
575.5
 70
   192
  0
VERTEX
  5
183
330
17A
100
AcDbEntity
  8
Inox
100
AcDbVertex
100
AcDbPolyFaceMeshVertex
 10
-222.5
 20
-25.29999923706055
 30
549.5192260742188
 70
   192
  0
VERTEX
  5
184
330
17A
100
AcDbEntity
  8
Inox
100
AcDbVertex
100
AcDbPolyFaceMeshVertex
 10
-222.5
 20
-10.30000019073486
 30
575.5
 70
   192
  0
VERTEX
  5
185
330
17A
100
AcDbEntity
  8
Inox
100
AcDbVertex
100
AcDbPolyFaceMeshVertex
 10
-222.5
 20
-17.79999923706055
 30
562.5096435546875
 70
   192
  0
VERTEX
  5
186
330
17A
100
AcDbEntity
  8
Inox
100
AcDbVertex
100
AcDbPolyFaceMeshVertex
 10
-122.5
 20
-10.30000019073486
 30
575.5
 70
   192
  0
VERTEX
  5
187
330
17A
100
AcDbEntity
  8
Inox
100
AcDbVertex
100
AcDbPolyFaceMeshVertex
 10
-22.5
 20
-17.79999923706055
 30
562.5096435546875
 70
   192
  0
VERTEX
  5
188
330
17A
100
AcDbEntity
  8
Inox
100
AcDbVertex
100
AcDbPolyFaceMeshVertex
 10
-122.5
 20
-25.29999923706055
 30
549.5192260742188
 70
   192
  0
VERTEX
  5
189
330
17A
100
AcDbEntity
  8
Inox
100
AcDbVertex
100
AcDbPolyFaceMeshVertex
 10
-222.5
 20
-25.29999923706055
 30
549.5192260742188
 70
   192
  0
VERTEX
  5
18A
330
17A
100
AcDbEntity
  8
Inox
100
AcDbVertex
100
AcDbPolyFaceMeshVertex
 10
-222.5
 20
-25.04019165039062
 30
549.3692626953125
 70
   192
  0
VERTEX
  5
18B
330
17A
100
AcDbEntity
  8
Inox
100
AcDbVertex
100
AcDbPolyFaceMeshVertex
 10
-222.5
 20
-10.30000019073486
 30
575.5
 70
   192
  0
VERTEX
  5
18C
330
17A
100
AcDbEntity
  8
Inox
100
AcDbVertex
100
AcDbPolyFaceMeshVertex
 10
-222.5
 20
-17.79999923706055
 30
562.5096435546875
 70
   192
  0
VERTEX
  5
18D
330
17A
100
AcDbEntity
  8
Inox
100
AcDbVertex
100
AcDbPolyFaceMeshVertex
 10
-222.5
 20
-10.30000019073486
 30
574.9000244140625
 70
   192
  0
VERTEX
  5
18E
330
17A
100
AcDbEntity
  8
Inox
100
AcDbVertex
100
AcDbPolyFaceMeshVertex
 10
-222.5
 20
-17.67009544372559
 30
562.1346435546875
 70
   192
  0
VERTEX
  5
18F
330
17A
100
AcDbEntity
  8
Inox
100
AcDbVertex
100
AcDbPolyFaceMeshVertex
 10
-22.5
 20
-10.30000019073486
 30
575.5
 70
   192
  0
VERTEX
  5
190
330
17A
100
AcDbEntity
  8
Inox
100
AcDbVertex
100
AcDbPolyFaceMeshVertex
 10
-22.5
 20
-25.29999923706055
 30
549.5192260742188
 70
   192
  0
VERTEX
  5
191
330
17A
100
AcDbEntity
  8
Inox
100
AcDbVertex
100
AcDbPolyFaceMeshVertex
 10
-22.5
 20
-25.04019165039062
 30
549.3692626953125
 70
   192
  0
VERTEX
  5
192
330
17A
100
AcDbEntity
  8
Inox
100
AcDbVertex
100
AcDbPolyFaceMeshVertex
 10
-22.5
 20
-17.79999923706055
 30
562.5096435546875
 70
   192
  0
VERTEX
  5
193
330
17A
100
AcDbEntity
  8
Inox
100
AcDbVertex
100
AcDbPolyFaceMeshVertex
 10
-22.5
 20
-17.67009544372559
 30
562.1346435546875
 70
   192
  0
VERTEX
  5
194
330
17A
100
AcDbEntity
  8
Inox
100
AcDbVertex
100
AcDbPolyFaceMeshVertex
 10
-22.5
 20
-10.30000019073486
 30
574.9000244140625
 70
   192
  0
VERTEX
  5
195
330
17A
100
AcDbEntity
  8
Inox
100
AcDbVertex
100
AcDbPolyFaceMeshVertex
 10
-22.5
 20
-25.04019165039062
 30
549.3692626953125
 70
   192
  0
VERTEX
  5
196
330
17A
100
AcDbEntity
  8
Inox
100
AcDbVertex
100
AcDbPolyFaceMeshVertex
 10
-22.5
 20
-10.30000019073486
 30
574.9000244140625
 70
   192
  0
VERTEX
  5
197
330
17A
100
AcDbEntity
  8
Inox
100
AcDbVertex
100
AcDbPolyFaceMeshVertex
 10
-222.5
 20
-25.04019165039062
 30
549.3692626953125
 70
   192
  0
VERTEX
  5
198
330
17A
100
AcDbEntity
  8
Inox
100
AcDbVertex
100
AcDbPolyFaceMeshVertex
 10
-222.5
 20
-17.67009544372559
 30
562.1346435546875
 70
   192
  0
VERTEX
  5
199
330
17A
100
AcDbEntity
  8
Inox
100
AcDbVertex
100
AcDbPolyFaceMeshVertex
 10
-122.5
 20
-25.04019165039062
 30
549.3692626953125
 70
   192
  0
VERTEX
  5
19A
330
17A
100
AcDbEntity
  8
Inox
100
AcDbVertex
100
AcDbPolyFaceMeshVertex
 10
-222.5
 20
-10.30000019073486
 30
574.9000244140625
 70
   192
  0
VERTEX
  5
19B
330
17A
100
AcDbEntity
  8
Inox
100
AcDbVertex
100
AcDbPolyFaceMeshVertex
 10
-122.5
 20
-10.30000019073486
 30
574.9000244140625
 70
   192
  0
VERTEX
  5
19C
330
17A
100
AcDbEntity
  8
Inox
100
AcDbVertex
100
AcDbPolyFaceMeshVertex
 10
-22.5
 20
-17.67009544372559
 30
562.1346435546875
 70
   192
  0
VERTEX
  5
19D
330
17A
100
AcDbEntity
  8
Inox
100
AcDbVertex
100
AcDbPolyFaceMeshVertex
 10
-22.5
 20
-10.30000019073486
 30
575.5
 70
   192
  0
VERTEX
  5
19E
330
17A
100
AcDbEntity
  8
Inox
100
AcDbVertex
100
AcDbPolyFaceMeshVertex
 10
-222.5
 20
-10.30000019073486
 30
574.9000244140625
 70
   192
  0
VERTEX
  5
19F
330
17A
100
AcDbEntity
  8
Inox
100
AcDbVertex
100
AcDbPolyFaceMeshVertex
 10
-222.5
 20
-10.30000019073486
 30
575.5
 70
   192
  0
VERTEX
  5
1A0
330
17A
100
AcDbEntity
  8
Inox
100
AcDbVertex
100
AcDbPolyFaceMeshVertex
 10
-122.5
 20
-10.30000019073486
 30
575.5
 70
   192
  0
VERTEX
  5
1A1
330
17A
100
AcDbEntity
  8
Inox
100
AcDbVertex
100
AcDbPolyFaceMeshVertex
 10
-22.5
 20
-10.30000019073486
 30
574.9000244140625
 70
   192
  0
VERTEX
  5
1A2
330
17A
100
AcDbEntity
  8
Inox
100
AcDbVertex
100
AcDbPolyFaceMeshVertex
 10
-122.5
 20
-10.30000019073486
 30
574.9000244140625
 70
   192
  0
VERTEX
  5
1A3
330
17A
100
AcDbEntity
  8
Inox
100
AcDbFaceRecord
 10
0.0
 20
0.0
 30
0.0
 70
   128
 71
     2
 72
     1
 73
     5
 74
     6
  0
VERTEX
  5
1A4
330
17A
100
AcDbEntity
  8
Inox
100
AcDbFaceRecord
 10
0.0
 20
0.0
 30
0.0
 70
   128
 71
     3
 72
     4
 73
     6
 74
     5
  0
VERTEX
  5
1A5
330
17A
100
AcDbEntity
  8
Inox
100
AcDbFaceRecord
 10
0.0
 20
0.0
 30
0.0
 70
   128
 71
    13
 72
    14
 73
     7
 74
     7
  0
VERTEX
  5
1A6
330
17A
100
AcDbEntity
  8
Inox
100
AcDbFaceRecord
 10
0.0
 20
0.0
 30
0.0
 70
   128
 71
    13
 72
     8
 73
    12
 74
    12
  0
VERTEX
  5
1A7
330
17A
100
AcDbEntity
  8
Inox
100
AcDbFaceRecord
 10
0.0
 20
0.0
 30
0.0
 70
   128
 71
    11
 72
    14
 73
    13
 74
    13
  0
VERTEX
  5
1A8
330
17A
100
AcDbEntity
  8
Inox
100
AcDbFaceRecord
 10
0.0
 20
0.0
 30
0.0
 70
   128
 71
    13
 72
    12
 73
    11
 74
    11
  0
VERTEX
  5
1A9
330
17A
100
AcDbEntity
  8
Inox
100
AcDbFaceRecord
 10
0.0
 20
0.0
 30
0.0
 70
   128
 71
    11
 72
    12
 73
    10
 74
    10
  0
VERTEX
  5
1AA
330
17A
100
AcDbEntity
  8
Inox
100
AcDbFaceRecord
 10
0.0
 20
0.0
 30
0.0
 70
   128
 71
     9
 72
    14
 73
    11
 74
    11
  0
VERTEX
  5
1AB
330
17A
100
AcDbEntity
  8
Inox
100
AcDbFaceRecord
 10
0.0
 20
0.0
 30
0.0
 70
   128
 71
    20
 72
    16
 73
    15
 74
    18
  0
VERTEX
  5
1AC
330
17A
100
AcDbEntity
  8
Inox
100
AcDbFaceRecord
 10
0.0
 20
0.0
 30
0.0
 70
   128
 71
    18
 72
    17
 73
    19
 74
    20
  0
VERTEX
  5
1AD
330
17A
100
AcDbEntity
  8
Inox
100
AcDbFaceRecord
 10
0.0
 20
0.0
 30
0.0
 70
   128
 71
    21
 72
    24
 73
    25
 74
    26
  0
VERTEX
  5
1AE
330
17A
100
AcDbEntity
  8
Inox
100
AcDbFaceRecord
 10
0.0
 20
0.0
 30
0.0
 70
   128
 71
    23
 72
    25
 73
    24
 74
    22
  0
VERTEX
  5
1AF
330
17A
100
AcDbEntity
  8
Inox
100
AcDbFaceRecord
 10
0.0
 20
0.0
 30
0.0
 70
   128
 71
    34
 72
    27
 73
    31
 74
    31
  0
VERTEX
  5
1B0
330
17A
100
AcDbEntity
  8
Inox
100
AcDbFaceRecord
 10
0.0
 20
0.0
 30
0.0
 70
   128
 71
    34
 72
    33
 73
    28
 74
    28
  0
VERTEX
  5
1B1
330
17A
100
AcDbEntity
  8
Inox
100
AcDbFaceRecord
 10
0.0
 20
0.0
 30
0.0
 70
   128
 71
    33
 72
    34
 73
    31
 74
    31
  0
VERTEX
  5
1B2
330
17A
100
AcDbEntity
  8
Inox
100
AcDbFaceRecord
 10
0.0
 20
0.0
 30
0.0
 70
   128
 71
    33
 72
    31
 73
    30
 74
    32
  0
VERTEX
  5
1B3
330
17A
100
AcDbEntity
  8
Inox
100
AcDbFaceRecord
 10
0.0
 20
0.0
 30
0.0
 70
   128
 71
    29
 72
    30
 73
    31
 74
    31
  0
VERTEX
  5
1B4
330
17A
100
AcDbEntity
  8
Inox
100
AcDbFaceRecord
 10
0.0
 20
0.0
 30
0.0
 70
   128
 71
    35
 72
    39
 73
    40
 74
    38
  0
VERTEX
  5
1B5
330
17A
100
AcDbEntity
  8
Inox
100
AcDbFaceRecord
 10
0.0
 20
0.0
 30
0.0
 70
   128
 71
    36
 72
    37
 73
    38
 74
    40
  0
SEQEND
  5
1B6
330
17A
100
AcDbEntity
  8
Inox
  0
POLYLINE
  5
1B7
330
1F
100
AcDbEntity
  8
Blanc
100
AcDbPolyFaceMesh
 66
     1
 10
0.0
 20
0.0
 30
0.0
 70
    64
 71
    40
 72
    20
  0
VERTEX
  5
1B8
330
1B7
100
AcDbEntity
  8
Blanc
100
AcDbVertex
100
AcDbPolyFaceMeshVertex
 10
-297.5
 20
0.0
 30
420.0
 70
   192
  0
VERTEX
  5
1B9
330
1B7
100
AcDbEntity
  8
Blanc
100
AcDbVertex
100
AcDbPolyFaceMeshVertex
 10
-297.5
 20
-10.0
 30
420.0
 70
   192
  0
VERTEX
  5
1BA
330
1B7
100
AcDbEntity
  8
Blanc
100
AcDbVertex
100
AcDbPolyFaceMeshVertex
 10
297.5
 20
0.0
 30
420.0
 70
   192
  0
VERTEX
  5
1BB
330
1B7
100
AcDbEntity
  8
Blanc
100
AcDbVertex
100
AcDbPolyFaceMeshVertex
 10
297.5
 20
-10.0
 30
420.0
 70
   192
  0
VERTEX
  5
1BC
330
1B7
100
AcDbEntity
  8
Blanc
100
AcDbVertex
100
AcDbPolyFaceMeshVertex
 10
0.0
 20
0.0
 30
420.0
 70
   192
  0
VERTEX
  5
1BD
330
1B7
100
AcDbEntity
  8
Blanc
100
AcDbVertex
100
AcDbPolyFaceMeshVertex
 10
0.0
 20
-10.0
 30
420.0
 70
   192
  0
VERTEX
  5
1BE
330
1B7
100
AcDbEntity
  8
Blanc
100
AcDbVertex
100
AcDbPolyFaceMeshVertex
 10
297.5
 20
0.0
 30
420.0
 70
   192
  0
VERTEX
  5
1BF
330
1B7
100
AcDbEntity
  8
Blanc
100
AcDbVertex
100
AcDbPolyFaceMeshVertex
 10
297.5
 20
-10.0
 30
420.0
 70
   192
  0
VERTEX
  5
1C0
330
1B7
100
AcDbEntity
  8
Blanc
100
AcDbVertex
100
AcDbPolyFaceMeshVertex
 10
297.5
 20
0.0
 30
628.0
 70
   192
  0
VERTEX
  5
1C1
330
1B7
100
AcDbEntity
  8
Blanc
100
AcDbVertex
100
AcDbPolyFaceMeshVertex
 10
297.5
 20
-10.0
 30
628.0
 70
   192
  0
VERTEX
  5
1C2
330
1B7
100
AcDbEntity
  8
Blanc
100
AcDbVertex
100
AcDbPolyFaceMeshVertex
 10
297.5
 20
0.0
 30
524.0
 70
   192
  0
VERTEX
  5
1C3
330
1B7
100
AcDbEntity
  8
Blanc
100
AcDbVertex
100
AcDbPolyFaceMeshVertex
 10
297.5
 20
-10.0
 30
524.0
 70
   192
  0
VERTEX
  5
1C4
330
1B7
100
AcDbEntity
  8
Blanc
100
AcDbVertex
100
AcDbPolyFaceMeshVertex
 10
297.5
 20
0.0
 30
628.0
 70
   192
  0
VERTEX
  5
1C5
330
1B7
100
AcDbEntity
  8
Blanc
100
AcDbVertex
100
AcDbPolyFaceMeshVertex
 10
297.5
 20
-10.0
 30
628.0
 70
   192
  0
VERTEX
  5
1C6
330
1B7
100
AcDbEntity
  8
Blanc
100
AcDbVertex
100
AcDbPolyFaceMeshVertex
 10
-297.5
 20
0.0
 30
628.0
 70
   192
  0
VERTEX
  5
1C7
330
1B7
100
AcDbEntity
  8
Blanc
100
AcDbVertex
100
AcDbPolyFaceMeshVertex
 10
-297.5
 20
-10.0
 30
628.0
 70
   192
  0
VERTEX
  5
1C8
330
1B7
100
AcDbEntity
  8
Blanc
100
AcDbVertex
100
AcDbPolyFaceMeshVertex
 10
0.0
 20
0.0
 30
628.0
 70
   192
  0
VERTEX
  5
1C9
330
1B7
100
AcDbEntity
  8
Blanc
100
AcDbVertex
100
AcDbPolyFaceMeshVertex
 10
0.0
 20
-10.0
 30
628.0
 70
   192
  0
VERTEX
  5
1CA
330
1B7
100
AcDbEntity
  8
Blanc
100
AcDbVertex
100
AcDbPolyFaceMeshVertex
 10
-297.5
 20
0.0
 30
628.0
 70
   192
  0
VERTEX
  5
1CB
330
1B7
100
AcDbEntity
  8
Blanc
100
AcDbVertex
100
AcDbPolyFaceMeshVertex
 10
-297.5
 20
-10.0
 30
628.0
 70
   192
  0
VERTEX
  5
1CC
330
1B7
100
AcDbEntity
  8
Blanc
100
AcDbVertex
100
AcDbPolyFaceMeshVertex
 10
-297.5
 20
0.0
 30
420.0
 70
   192
  0
VERTEX
  5
1CD
330
1B7
100
AcDbEntity
  8
Blanc
100
AcDbVertex
100
AcDbPolyFaceMeshVertex
 10
-297.5
 20
-10.0
 30
420.0
 70
   192
  0
VERTEX
  5
1CE
330
1B7
100
AcDbEntity
  8
Blanc
100
AcDbVertex
100
AcDbPolyFaceMeshVertex
 10
-297.5
 20
0.0
 30
524.0
 70
   192
  0
VERTEX
  5
1CF
330
1B7
100
AcDbEntity
  8
Blanc
100
AcDbVertex
100
AcDbPolyFaceMeshVertex
 10
-297.5
 20
-10.0
 30
524.0
 70
   192
  0
VERTEX
  5
1D0
330
1B7
100
AcDbEntity
  8
Blanc
100
AcDbVertex
100
AcDbPolyFaceMeshVertex
 10
-297.5
 20
0.0
 30
420.0
 70
   192
  0
VERTEX
  5
1D1
330
1B7
100
AcDbEntity
  8
Blanc
100
AcDbVertex
100
AcDbPolyFaceMeshVertex
 10
-297.5
 20
0.0
 30
628.0
 70
   192
  0
VERTEX
  5
1D2
330
1B7
100
AcDbEntity
  8
Blanc
100
AcDbVertex
100
AcDbPolyFaceMeshVertex
 10
297.5
 20
0.0
 30
420.0
 70
   192
  0
VERTEX
  5
1D3
330
1B7
100
AcDbEntity
  8
Blanc
100
AcDbVertex
100
AcDbPolyFaceMeshVertex
 10
297.5
 20
0.0
 30
628.0
 70
   192
  0
VERTEX
  5
1D4
330
1B7
100
AcDbEntity
  8
Blanc
100
AcDbVertex
100
AcDbPolyFaceMeshVertex
 10
0.0
 20
0.0
 30
420.0
 70
   192
  0
VERTEX
  5
1D5
330
1B7
100
AcDbEntity
  8
Blanc
100
AcDbVertex
100
AcDbPolyFaceMeshVertex
 10
297.5
 20
0.0
 30
524.0
 70
   192
  0
VERTEX
  5
1D6
330
1B7
100
AcDbEntity
  8
Blanc
100
AcDbVertex
100
AcDbPolyFaceMeshVertex
 10
0.0
 20
0.0
 30
628.0
 70
   192
  0
VERTEX
  5
1D7
330
1B7
100
AcDbEntity
  8
Blanc
100
AcDbVertex
100
AcDbPolyFaceMeshVertex
 10
-297.5
 20
0.0
 30
524.0
 70
   192
  0
VERTEX
  5
1D8
330
1B7
100
AcDbEntity
  8
Blanc
100
AcDbVertex
100
AcDbPolyFaceMeshVertex
 10
-297.5
 20
-10.0
 30
420.0
 70
   192
  0
VERTEX
  5
1D9
330
1B7
100
AcDbEntity
  8
Blanc
100
AcDbVertex
100
AcDbPolyFaceMeshVertex
 10
-297.5
 20
-10.0
 30
628.0
 70
   192
  0
VERTEX
  5
1DA
330
1B7
100
AcDbEntity
  8
Blanc
100
AcDbVertex
100
AcDbPolyFaceMeshVertex
 10
297.5
 20
-10.0
 30
420.0
 70
   192
  0
VERTEX
  5
1DB
330
1B7
100
AcDbEntity
  8
Blanc
100
AcDbVertex
100
AcDbPolyFaceMeshVertex
 10
297.5
 20
-10.0
 30
628.0
 70
   192
  0
VERTEX
  5
1DC
330
1B7
100
AcDbEntity
  8
Blanc
100
AcDbVertex
100
AcDbPolyFaceMeshVertex
 10
0.0
 20
-10.0
 30
420.0
 70
   192
  0
VERTEX
  5
1DD
330
1B7
100
AcDbEntity
  8
Blanc
100
AcDbVertex
100
AcDbPolyFaceMeshVertex
 10
297.5
 20
-10.0
 30
524.0
 70
   192
  0
VERTEX
  5
1DE
330
1B7
100
AcDbEntity
  8
Blanc
100
AcDbVertex
100
AcDbPolyFaceMeshVertex
 10
0.0
 20
-10.0
 30
628.0
 70
   192
  0
VERTEX
  5
1DF
330
1B7
100
AcDbEntity
  8
Blanc
100
AcDbVertex
100
AcDbPolyFaceMeshVertex
 10
-297.5
 20
-10.0
 30
524.0
 70
   192
  0
VERTEX
  5
1E0
330
1B7
100
AcDbEntity
  8
Blanc
100
AcDbFaceRecord
 10
0.0
 20
0.0
 30
0.0
 70
   128
 71
     2
 72
     1
 73
     5
 74
     6
  0
VERTEX
  5
1E1
330
1B7
100
AcDbEntity
  8
Blanc
100
AcDbFaceRecord
 10
0.0
 20
0.0
 30
0.0
 70
   128
 71
     3
 72
     4
 73
     6
 74
     5
  0
VERTEX
  5
1E2
330
1B7
100
AcDbEntity
  8
Blanc
100
AcDbFaceRecord
 10
0.0
 20
0.0
 30
0.0
 70
   128
 71
     8
 72
     7
 73
    11
 74
    12
  0
VERTEX
  5
1E3
330
1B7
100
AcDbEntity
  8
Blanc
100
AcDbFaceRecord
 10
0.0
 20
0.0
 30
0.0
 70
   128
 71
     9
 72
    10
 73
    12
 74
    11
  0
VERTEX
  5
1E4
330
1B7
100
AcDbEntity
  8
Blanc
100
AcDbFaceRecord
 10
0.0
 20
0.0
 30
0.0
 70
   128
 71
    14
 72
    13
 73
    17
 74
    18
  0
VERTEX
  5
1E5
330
1B7
100
AcDbEntity
  8
Blanc
100
AcDbFaceRecord
 10
0.0
 20
0.0
 30
0.0
 70
   128
 71
    15
 72
    16
 73
    18
 74
    17
  0
VERTEX
  5
1E6
330
1B7
100
AcDbEntity
  8
Blanc
100
AcDbFaceRecord
 10
0.0
 20
0.0
 30
0.0
 70
   128
 71
    20
 72
    19
 73
    23
 74
    24
  0
VERTEX
  5
1E7
330
1B7
100
AcDbEntity
  8
Blanc
100
AcDbFaceRecord
 10
0.0
 20
0.0
 30
0.0
 70
   128
 71
    21
 72
    22
 73
    24
 74
    23
  0
VERTEX
  5
1E8
330
1B7
100
AcDbEntity
  8
Blanc
100
AcDbFaceRecord
 10
0.0
 20
0.0
 30
0.0
 70
   128
 71
    32
 72
    29
 73
    25
 74
    25
  0
VERTEX
  5
1E9
330
1B7
100
AcDbEntity
  8
Blanc
100
AcDbFaceRecord
 10
0.0
 20
0.0
 30
0.0
 70
   128
 71
    32
 72
    26
 73
    31
 74
    31
  0
VERTEX
  5
1EA
330
1B7
100
AcDbEntity
  8
Blanc
100
AcDbFaceRecord
 10
0.0
 20
0.0
 30
0.0
 70
   128
 71
    30
 72
    29
 73
    32
 74
    32
  0
VERTEX
  5
1EB
330
1B7
100
AcDbEntity
  8
Blanc
100
AcDbFaceRecord
 10
0.0
 20
0.0
 30
0.0
 70
   128
 71
    32
 72
    31
 73
    30
 74
    30
  0
VERTEX
  5
1EC
330
1B7
100
AcDbEntity
  8
Blanc
100
AcDbFaceRecord
 10
0.0
 20
0.0
 30
0.0
 70
   128
 71
    30
 72
    31
 73
    28
 74
    28
  0
VERTEX
  5
1ED
330
1B7
100
AcDbEntity
  8
Blanc
100
AcDbFaceRecord
 10
0.0
 20
0.0
 30
0.0
 70
   128
 71
    27
 72
    29
 73
    30
 74
    30
  0
VERTEX
  5
1EE
330
1B7
100
AcDbEntity
  8
Blanc
100
AcDbFaceRecord
 10
0.0
 20
0.0
 30
0.0
 70
   128
 71
    40
 72
    33
 73
    37
 74
    37
  0
VERTEX
  5
1EF
330
1B7
100
AcDbEntity
  8
Blanc
100
AcDbFaceRecord
 10
0.0
 20
0.0
 30
0.0
 70
   128
 71
    40
 72
    39
 73
    34
 74
    34
  0
VERTEX
  5
1F0
330
1B7
100
AcDbEntity
  8
Blanc
100
AcDbFaceRecord
 10
0.0
 20
0.0
 30
0.0
 70
   128
 71
    38
 72
    40
 73
    37
 74
    37
  0
VERTEX
  5
1F1
330
1B7
100
AcDbEntity
  8
Blanc
100
AcDbFaceRecord
 10
0.0
 20
0.0
 30
0.0
 70
   128
 71
    40
 72
    38
 73
    39
 74
    39
  0
VERTEX
  5
1F2
330
1B7
100
AcDbEntity
  8
Blanc
100
AcDbFaceRecord
 10
0.0
 20
0.0
 30
0.0
 70
   128
 71
    38
 72
    36
 73
    39
 74
    39
  0
VERTEX
  5
1F3
330
1B7
100
AcDbEntity
  8
Blanc
100
AcDbFaceRecord
 10
0.0
 20
0.0
 30
0.0
 70
   128
 71
    35
 72
    38
 73
    37
 74
    37
  0
SEQEND
  5
1F4
330
1B7
100
AcDbEntity
  8
Blanc
  0
POLYLINE
  5
1F5
330
1F
100
AcDbEntity
  8
Blanc
100
AcDbPolyFaceMesh
 66
     1
 10
0.0
 20
0.0
 30
0.0
 70
    64
 71
    40
 72
    20
  0
VERTEX
  5
1F6
330
1F5
100
AcDbEntity
  8
Blanc
100
AcDbVertex
100
AcDbPolyFaceMeshVertex
 10
-297.5
 20
440.0
 30
0.0000000002868239
 70
   192
  0
VERTEX
  5
1F7
330
1F5
100
AcDbEntity
  8
Blanc
100
AcDbVertex
100
AcDbPolyFaceMeshVertex
 10
-287.5
 20
440.0
 30
0.0000000002868239
 70
   192
  0
VERTEX
  5
1F8
330
1F5
100
AcDbEntity
  8
Blanc
100
AcDbVertex
100
AcDbPolyFaceMeshVertex
 10
-297.5
 20
440.0
 30
634.0
 70
   192
  0
VERTEX
  5
1F9
330
1F5
100
AcDbEntity
  8
Blanc
100
AcDbVertex
100
AcDbPolyFaceMeshVertex
 10
-287.5
 20
440.0
 30
634.0
 70
   192
  0
VERTEX
  5
1FA
330
1F5
100
AcDbEntity
  8
Blanc
100
AcDbVertex
100
AcDbPolyFaceMeshVertex
 10
-297.5
 20
440.0
 30
317.0
 70
   192
  0
VERTEX
  5
1FB
330
1F5
100
AcDbEntity
  8
Blanc
100
AcDbVertex
100
AcDbPolyFaceMeshVertex
 10
-287.5
 20
440.0
 30
317.0
 70
   192
  0
VERTEX
  5
1FC
330
1F5
100
AcDbEntity
  8
Blanc
100
AcDbVertex
100
AcDbPolyFaceMeshVertex
 10
-297.5
 20
440.0
 30
634.0
 70
   192
  0
VERTEX
  5
1FD
330
1F5
100
AcDbEntity
  8
Blanc
100
AcDbVertex
100
AcDbPolyFaceMeshVertex
 10
-287.5
 20
440.0
 30
634.0
 70
   192
  0
VERTEX
  5
1FE
330
1F5
100
AcDbEntity
  8
Blanc
100
AcDbVertex
100
AcDbPolyFaceMeshVertex
 10
-297.5
 20
0.0
 30
634.0
 70
   192
  0
VERTEX
  5
1FF
330
1F5
100
AcDbEntity
  8
Blanc
100
AcDbVertex
100
AcDbPolyFaceMeshVertex
 10
-287.5
 20
0.0
 30
634.0
 70
   192
  0
VERTEX
  5
200
330
1F5
100
AcDbEntity
  8
Blanc
100
AcDbVertex
100
AcDbPolyFaceMeshVertex
 10
-297.5
 20
220.0
 30
634.0
 70
   192
  0
VERTEX
  5
201
330
1F5
100
AcDbEntity
  8
Blanc
100
AcDbVertex
100
AcDbPolyFaceMeshVertex
 10
-287.5
 20
220.0
 30
634.0
 70
   192
  0
VERTEX
  5
202
330
1F5
100
AcDbEntity
  8
Blanc
100
AcDbVertex
100
AcDbPolyFaceMeshVertex
 10
-297.5
 20
0.0
 30
634.0
 70
   192
  0
VERTEX
  5
203
330
1F5
100
AcDbEntity
  8
Blanc
100
AcDbVertex
100
AcDbPolyFaceMeshVertex
 10
-287.5
 20
0.0
 30
634.0
 70
   192
  0
VERTEX
  5
204
330
1F5
100
AcDbEntity
  8
Blanc
100
AcDbVertex
100
AcDbPolyFaceMeshVertex
 10
-297.5
 20
0.0
 30
0.0000000002868239
 70
   192
  0
VERTEX
  5
205
330
1F5
100
AcDbEntity
  8
Blanc
100
AcDbVertex
100
AcDbPolyFaceMeshVertex
 10
-287.5
 20
0.0
 30
0.0000000002868239
 70
   192
  0
VERTEX
  5
206
330
1F5
100
AcDbEntity
  8
Blanc
100
AcDbVertex
100
AcDbPolyFaceMeshVertex
 10
-297.5
 20
0.0
 30
317.0
 70
   192
  0
VERTEX
  5
207
330
1F5
100
AcDbEntity
  8
Blanc
100
AcDbVertex
100
AcDbPolyFaceMeshVertex
 10
-287.5
 20
0.0
 30
317.0
 70
   192
  0
VERTEX
  5
208
330
1F5
100
AcDbEntity
  8
Blanc
100
AcDbVertex
100
AcDbPolyFaceMeshVertex
 10
-297.5
 20
0.0
 30
0.0000000002868239
 70
   192
  0
VERTEX
  5
209
330
1F5
100
AcDbEntity
  8
Blanc
100
AcDbVertex
100
AcDbPolyFaceMeshVertex
 10
-287.5
 20
0.0
 30
0.0000000002868239
 70
   192
  0
VERTEX
  5
20A
330
1F5
100
AcDbEntity
  8
Blanc
100
AcDbVertex
100
AcDbPolyFaceMeshVertex
 10
-297.5
 20
440.0
 30
0.0000000002868239
 70
   192
  0
VERTEX
  5
20B
330
1F5
100
AcDbEntity
  8
Blanc
100
AcDbVertex
100
AcDbPolyFaceMeshVertex
 10
-287.5
 20
440.0
 30
0.0000000002868239
 70
   192
  0
VERTEX
  5
20C
330
1F5
100
AcDbEntity
  8
Blanc
100
AcDbVertex
100
AcDbPolyFaceMeshVertex
 10
-297.5
 20
220.0
 30
0.0000000002868239
 70
   192
  0
VERTEX
  5
20D
330
1F5
100
AcDbEntity
  8
Blanc
100
AcDbVertex
100
AcDbPolyFaceMeshVertex
 10
-287.5
 20
220.0
 30
0.0000000002868239
 70
   192
  0
VERTEX
  5
20E
330
1F5
100
AcDbEntity
  8
Blanc
100
AcDbVertex
100
AcDbPolyFaceMeshVertex
 10
-297.5
 20
0.0
 30
0.0000000002868239
 70
   192
  0
VERTEX
  5
20F
330
1F5
100
AcDbEntity
  8
Blanc
100
AcDbVertex
100
AcDbPolyFaceMeshVertex
 10
-297.5
 20
0.0
 30
634.0
 70
   192
  0
VERTEX
  5
210
330
1F5
100
AcDbEntity
  8
Blanc
100
AcDbVertex
100
AcDbPolyFaceMeshVertex
 10
-297.5
 20
440.0
 30
0.0000000002868239
 70
   192
  0
VERTEX
  5
211
330
1F5
100
AcDbEntity
  8
Blanc
100
AcDbVertex
100
AcDbPolyFaceMeshVertex
 10
-297.5
 20
440.0
 30
634.0
 70
   192
  0
VERTEX
  5
212
330
1F5
100
AcDbEntity
  8
Blanc
100
AcDbVertex
100
AcDbPolyFaceMeshVertex
 10
-297.5
 20
440.0
 30
317.0
 70
   192
  0
VERTEX
  5
213
330
1F5
100
AcDbEntity
  8
Blanc
100
AcDbVertex
100
AcDbPolyFaceMeshVertex
 10
-297.5
 20
220.0
 30
634.0
 70
   192
  0
VERTEX
  5
214
330
1F5
100
AcDbEntity
  8
Blanc
100
AcDbVertex
100
AcDbPolyFaceMeshVertex
 10
-297.5
 20
0.0
 30
317.0
 70
   192
  0
VERTEX
  5
215
330
1F5
100
AcDbEntity
  8
Blanc
100
AcDbVertex
100
AcDbPolyFaceMeshVertex
 10
-297.5
 20
220.0
 30
0.0000000002868239
 70
   192
  0
VERTEX
  5
216
330
1F5
100
AcDbEntity
  8
Blanc
100
AcDbVertex
100
AcDbPolyFaceMeshVertex
 10
-287.5
 20
0.0
 30
0.0000000002868239
 70
   192
  0
VERTEX
  5
217
330
1F5
100
AcDbEntity
  8
Blanc
100
AcDbVertex
100
AcDbPolyFaceMeshVertex
 10
-287.5
 20
0.0
 30
634.0
 70
   192
  0
VERTEX
  5
218
330
1F5
100
AcDbEntity
  8
Blanc
100
AcDbVertex
100
AcDbPolyFaceMeshVertex
 10
-287.5
 20
440.0
 30
0.0000000002868239
 70
   192
  0
VERTEX
  5
219
330
1F5
100
AcDbEntity
  8
Blanc
100
AcDbVertex
100
AcDbPolyFaceMeshVertex
 10
-287.5
 20
440.0
 30
634.0
 70
   192
  0
VERTEX
  5
21A
330
1F5
100
AcDbEntity
  8
Blanc
100
AcDbVertex
100
AcDbPolyFaceMeshVertex
 10
-287.5
 20
440.0
 30
317.0
 70
   192
  0
VERTEX
  5
21B
330
1F5
100
AcDbEntity
  8
Blanc
100
AcDbVertex
100
AcDbPolyFaceMeshVertex
 10
-287.5
 20
220.0
 30
634.0
 70
   192
  0
VERTEX
  5
21C
330
1F5
100
AcDbEntity
  8
Blanc
100
AcDbVertex
100
AcDbPolyFaceMeshVertex
 10
-287.5
 20
0.0
 30
317.0
 70
   192
  0
VERTEX
  5
21D
330
1F5
100
AcDbEntity
  8
Blanc
100
AcDbVertex
100
AcDbPolyFaceMeshVertex
 10
-287.5
 20
220.0
 30
0.0000000002868239
 70
   192
  0
VERTEX
  5
21E
330
1F5
100
AcDbEntity
  8
Blanc
100
AcDbFaceRecord
 10
0.0
 20
0.0
 30
0.0
 70
   128
 71
     2
 72
     1
 73
     5
 74
     6
  0
VERTEX
  5
21F
330
1F5
100
AcDbEntity
  8
Blanc
100
AcDbFaceRecord
 10
0.0
 20
0.0
 30
0.0
 70
   128
 71
     3
 72
     4
 73
     6
 74
     5
  0
VERTEX
  5
220
330
1F5
100
AcDbEntity
  8
Blanc
100
AcDbFaceRecord
 10
0.0
 20
0.0
 30
0.0
 70
   128
 71
     8
 72
     7
 73
    11
 74
    12
  0
VERTEX
  5
221
330
1F5
100
AcDbEntity
  8
Blanc
100
AcDbFaceRecord
 10
0.0
 20
0.0
 30
0.0
 70
   128
 71
     9
 72
    10
 73
    12
 74
    11
  0
VERTEX
  5
222
330
1F5
100
AcDbEntity
  8
Blanc
100
AcDbFaceRecord
 10
0.0
 20
0.0
 30
0.0
 70
   128
 71
    14
 72
    13
 73
    17
 74
    18
  0
VERTEX
  5
223
330
1F5
100
AcDbEntity
  8
Blanc
100
AcDbFaceRecord
 10
0.0
 20
0.0
 30
0.0
 70
   128
 71
    15
 72
    16
 73
    18
 74
    17
  0
VERTEX
  5
224
330
1F5
100
AcDbEntity
  8
Blanc
100
AcDbFaceRecord
 10
0.0
 20
0.0
 30
0.0
 70
   128
 71
    19
 72
    23
 73
    24
 74
    20
  0
VERTEX
  5
225
330
1F5
100
AcDbEntity
  8
Blanc
100
AcDbFaceRecord
 10
0.0
 20
0.0
 30
0.0
 70
   128
 71
    22
 72
    24
 73
    23
 74
    21
  0
VERTEX
  5
226
330
1F5
100
AcDbEntity
  8
Blanc
100
AcDbFaceRecord
 10
0.0
 20
0.0
 30
0.0
 70
   128
 71
    32
 72
    31
 73
    30
 74
    30
  0
VERTEX
  5
227
330
1F5
100
AcDbEntity
  8
Blanc
100
AcDbFaceRecord
 10
0.0
 20
0.0
 30
0.0
 70
   128
 71
    31
 72
    26
 73
    30
 74
    30
  0
VERTEX
  5
228
330
1F5
100
AcDbEntity
  8
Blanc
100
AcDbFaceRecord
 10
0.0
 20
0.0
 30
0.0
 70
   128
 71
    32
 72
    25
 73
    31
 74
    31
  0
VERTEX
  5
229
330
1F5
100
AcDbEntity
  8
Blanc
100
AcDbFaceRecord
 10
0.0
 20
0.0
 30
0.0
 70
   128
 71
    29
 72
    27
 73
    32
 74
    32
  0
VERTEX
  5
22A
330
1F5
100
AcDbEntity
  8
Blanc
100
AcDbFaceRecord
 10
0.0
 20
0.0
 30
0.0
 70
   128
 71
    29
 72
    30
 73
    28
 74
    28
  0
VERTEX
  5
22B
330
1F5
100
AcDbEntity
  8
Blanc
100
AcDbFaceRecord
 10
0.0
 20
0.0
 30
0.0
 70
   128
 71
    32
 72
    30
 73
    29
 74
    29
  0
VERTEX
  5
22C
330
1F5
100
AcDbEntity
  8
Blanc
100
AcDbFaceRecord
 10
0.0
 20
0.0
 30
0.0
 70
   128
 71
    40
 72
    38
 73
    39
 74
    39
  0
VERTEX
  5
22D
330
1F5
100
AcDbEntity
  8
Blanc
100
AcDbFaceRecord
 10
0.0
 20
0.0
 30
0.0
 70
   128
 71
    39
 72
    38
 73
    34
 74
    34
  0
VERTEX
  5
22E
330
1F5
100
AcDbEntity
  8
Blanc
100
AcDbFaceRecord
 10
0.0
 20
0.0
 30
0.0
 70
   128
 71
    40
 72
    39
 73
    33
 74
    33
  0
VERTEX
  5
22F
330
1F5
100
AcDbEntity
  8
Blanc
100
AcDbFaceRecord
 10
0.0
 20
0.0
 30
0.0
 70
   128
 71
    37
 72
    40
 73
    35
 74
    35
  0
VERTEX
  5
230
330
1F5
100
AcDbEntity
  8
Blanc
100
AcDbFaceRecord
 10
0.0
 20
0.0
 30
0.0
 70
   128
 71
    37
 72
    36
 73
    38
 74
    38
  0
VERTEX
  5
231
330
1F5
100
AcDbEntity
  8
Blanc
100
AcDbFaceRecord
 10
0.0
 20
0.0
 30
0.0
 70
   128
 71
    40
 72
    37
 73
    38
 74
    38
  0
SEQEND
  5
232
330
1F5
100
AcDbEntity
  8
Blanc
  0
POLYLINE
  5
233
330
1F
100
AcDbEntity
  8
Blanc
100
AcDbPolyFaceMesh
 66
     1
 10
0.0
 20
0.0
 30
0.0
 70
    64
 71
    40
 72
    20
  0
VERTEX
  5
234
330
233
100
AcDbEntity
  8
Blanc
100
AcDbVertex
100
AcDbPolyFaceMeshVertex
 10
297.5
 20
440.0
 30
0.0
 70
   192
  0
VERTEX
  5
235
330
233
100
AcDbEntity
  8
Blanc
100
AcDbVertex
100
AcDbPolyFaceMeshVertex
 10
287.5
 20
440.0
 30
0.0
 70
   192
  0
VERTEX
  5
236
330
233
100
AcDbEntity
  8
Blanc
100
AcDbVertex
100
AcDbPolyFaceMeshVertex
 10
297.5
 20
0.0
 30
0.0
 70
   192
  0
VERTEX
  5
237
330
233
100
AcDbEntity
  8
Blanc
100
AcDbVertex
100
AcDbPolyFaceMeshVertex
 10
287.5
 20
0.0
 30
0.0
 70
   192
  0
VERTEX
  5
238
330
233
100
AcDbEntity
  8
Blanc
100
AcDbVertex
100
AcDbPolyFaceMeshVertex
 10
297.5
 20
220.0
 30
0.0
 70
   192
  0
VERTEX
  5
239
330
233
100
AcDbEntity
  8
Blanc
100
AcDbVertex
100
AcDbPolyFaceMeshVertex
 10
287.5
 20
220.0
 30
0.0
 70
   192
  0
VERTEX
  5
23A
330
233
100
AcDbEntity
  8
Blanc
100
AcDbVertex
100
AcDbPolyFaceMeshVertex
 10
297.5
 20
0.0
 30
0.0
 70
   192
  0
VERTEX
  5
23B
330
233
100
AcDbEntity
  8
Blanc
100
AcDbVertex
100
AcDbPolyFaceMeshVertex
 10
287.5
 20
0.0
 30
0.0
 70
   192
  0
VERTEX
  5
23C
330
233
100
AcDbEntity
  8
Blanc
100
AcDbVertex
100
AcDbPolyFaceMeshVertex
 10
297.5
 20
0.0
 30
634.0
 70
   192
  0
VERTEX
  5
23D
330
233
100
AcDbEntity
  8
Blanc
100
AcDbVertex
100
AcDbPolyFaceMeshVertex
 10
287.5
 20
0.0
 30
634.0
 70
   192
  0
VERTEX
  5
23E
330
233
100
AcDbEntity
  8
Blanc
100
AcDbVertex
100
AcDbPolyFaceMeshVertex
 10
297.5
 20
0.0
 30
317.0
 70
   192
  0
VERTEX
  5
23F
330
233
100
AcDbEntity
  8
Blanc
100
AcDbVertex
100
AcDbPolyFaceMeshVertex
 10
287.5
 20
0.0
 30
317.0
 70
   192
  0
VERTEX
  5
240
330
233
100
AcDbEntity
  8
Blanc
100
AcDbVertex
100
AcDbPolyFaceMeshVertex
 10
297.5
 20
0.0
 30
634.0
 70
   192
  0
VERTEX
  5
241
330
233
100
AcDbEntity
  8
Blanc
100
AcDbVertex
100
AcDbPolyFaceMeshVertex
 10
287.5
 20
0.0
 30
634.0
 70
   192
  0
VERTEX
  5
242
330
233
100
AcDbEntity
  8
Blanc
100
AcDbVertex
100
AcDbPolyFaceMeshVertex
 10
297.5
 20
440.0
 30
634.0
 70
   192
  0
VERTEX
  5
243
330
233
100
AcDbEntity
  8
Blanc
100
AcDbVertex
100
AcDbPolyFaceMeshVertex
 10
287.5
 20
440.0
 30
634.0
 70
   192
  0
VERTEX
  5
244
330
233
100
AcDbEntity
  8
Blanc
100
AcDbVertex
100
AcDbPolyFaceMeshVertex
 10
297.5
 20
220.0
 30
634.0
 70
   192
  0
VERTEX
  5
245
330
233
100
AcDbEntity
  8
Blanc
100
AcDbVertex
100
AcDbPolyFaceMeshVertex
 10
287.5
 20
220.0
 30
634.0
 70
   192
  0
VERTEX
  5
246
330
233
100
AcDbEntity
  8
Blanc
100
AcDbVertex
100
AcDbPolyFaceMeshVertex
 10
297.5
 20
440.0
 30
634.0
 70
   192
  0
VERTEX
  5
247
330
233
100
AcDbEntity
  8
Blanc
100
AcDbVertex
100
AcDbPolyFaceMeshVertex
 10
287.5
 20
440.0
 30
634.0
 70
   192
  0
VERTEX
  5
248
330
233
100
AcDbEntity
  8
Blanc
100
AcDbVertex
100
AcDbPolyFaceMeshVertex
 10
297.5
 20
440.0
 30
0.0
 70
   192
  0
VERTEX
  5
249
330
233
100
AcDbEntity
  8
Blanc
100
AcDbVertex
100
AcDbPolyFaceMeshVertex
 10
287.5
 20
440.0
 30
0.0
 70
   192
  0
VERTEX
  5
24A
330
233
100
AcDbEntity
  8
Blanc
100
AcDbVertex
100
AcDbPolyFaceMeshVertex
 10
297.5
 20
440.0
 30
317.0
 70
   192
  0
VERTEX
  5
24B
330
233
100
AcDbEntity
  8
Blanc
100
AcDbVertex
100
AcDbPolyFaceMeshVertex
 10
287.5
 20
440.0
 30
317.0
 70
   192
  0
VERTEX
  5
24C
330
233
100
AcDbEntity
  8
Blanc
100
AcDbVertex
100
AcDbPolyFaceMeshVertex
 10
297.5
 20
440.0
 30
0.0
 70
   192
  0
VERTEX
  5
24D
330
233
100
AcDbEntity
  8
Blanc
100
AcDbVertex
100
AcDbPolyFaceMeshVertex
 10
297.5
 20
440.0
 30
634.0
 70
   192
  0
VERTEX
  5
24E
330
233
100
AcDbEntity
  8
Blanc
100
AcDbVertex
100
AcDbPolyFaceMeshVertex
 10
297.5
 20
0.0
 30
0.0
 70
   192
  0
VERTEX
  5
24F
330
233
100
AcDbEntity
  8
Blanc
100
AcDbVertex
100
AcDbPolyFaceMeshVertex
 10
297.5
 20
0.0
 30
634.0
 70
   192
  0
VERTEX
  5
250
330
233
100
AcDbEntity
  8
Blanc
100
AcDbVertex
100
AcDbPolyFaceMeshVertex
 10
297.5
 20
220.0
 30
0.0
 70
   192
  0
VERTEX
  5
251
330
233
100
AcDbEntity
  8
Blanc
100
AcDbVertex
100
AcDbPolyFaceMeshVertex
 10
297.5
 20
0.0
 30
317.0
 70
   192
  0
VERTEX
  5
252
330
233
100
AcDbEntity
  8
Blanc
100
AcDbVertex
100
AcDbPolyFaceMeshVertex
 10
297.5
 20
220.0
 30
634.0
 70
   192
  0
VERTEX
  5
253
330
233
100
AcDbEntity
  8
Blanc
100
AcDbVertex
100
AcDbPolyFaceMeshVertex
 10
297.5
 20
440.0
 30
317.0
 70
   192
  0
VERTEX
  5
254
330
233
100
AcDbEntity
  8
Blanc
100
AcDbVertex
100
AcDbPolyFaceMeshVertex
 10
287.5
 20
440.0
 30
0.0
 70
   192
  0
VERTEX
  5
255
330
233
100
AcDbEntity
  8
Blanc
100
AcDbVertex
100
AcDbPolyFaceMeshVertex
 10
287.5
 20
440.0
 30
634.0
 70
   192
  0
VERTEX
  5
256
330
233
100
AcDbEntity
  8
Blanc
100
AcDbVertex
100
AcDbPolyFaceMeshVertex
 10
287.5
 20
0.0
 30
0.0
 70
   192
  0
VERTEX
  5
257
330
233
100
AcDbEntity
  8
Blanc
100
AcDbVertex
100
AcDbPolyFaceMeshVertex
 10
287.5
 20
0.0
 30
634.0
 70
   192
  0
VERTEX
  5
258
330
233
100
AcDbEntity
  8
Blanc
100
AcDbVertex
100
AcDbPolyFaceMeshVertex
 10
287.5
 20
220.0
 30
0.0
 70
   192
  0
VERTEX
  5
259
330
233
100
AcDbEntity
  8
Blanc
100
AcDbVertex
100
AcDbPolyFaceMeshVertex
 10
287.5
 20
0.0
 30
317.0
 70
   192
  0
VERTEX
  5
25A
330
233
100
AcDbEntity
  8
Blanc
100
AcDbVertex
100
AcDbPolyFaceMeshVertex
 10
287.5
 20
220.0
 30
634.0
 70
   192
  0
VERTEX
  5
25B
330
233
100
AcDbEntity
  8
Blanc
100
AcDbVertex
100
AcDbPolyFaceMeshVertex
 10
287.5
 20
440.0
 30
317.0
 70
   192
  0
VERTEX
  5
25C
330
233
100
AcDbEntity
  8
Blanc
100
AcDbFaceRecord
 10
0.0
 20
0.0
 30
0.0
 70
   128
 71
     2
 72
     1
 73
     5
 74
     6
  0
VERTEX
  5
25D
330
233
100
AcDbEntity
  8
Blanc
100
AcDbFaceRecord
 10
0.0
 20
0.0
 30
0.0
 70
   128
 71
     3
 72
     4
 73
     6
 74
     5
  0
VERTEX
  5
25E
330
233
100
AcDbEntity
  8
Blanc
100
AcDbFaceRecord
 10
0.0
 20
0.0
 30
0.0
 70
   128
 71
     8
 72
     7
 73
    11
 74
    12
  0
VERTEX
  5
25F
330
233
100
AcDbEntity
  8
Blanc
100
AcDbFaceRecord
 10
0.0
 20
0.0
 30
0.0
 70
   128
 71
     9
 72
    10
 73
    12
 74
    11
  0
VERTEX
  5
260
330
233
100
AcDbEntity
  8
Blanc
100
AcDbFaceRecord
 10
0.0
 20
0.0
 30
0.0
 70
   128
 71
    14
 72
    13
 73
    17
 74
    18
  0
VERTEX
  5
261
330
233
100
AcDbEntity
  8
Blanc
100
AcDbFaceRecord
 10
0.0
 20
0.0
 30
0.0
 70
   128
 71
    15
 72
    16
 73
    18
 74
    17
  0
VERTEX
  5
262
330
233
100
AcDbEntity
  8
Blanc
100
AcDbFaceRecord
 10
0.0
 20
0.0
 30
0.0
 70
   128
 71
    20
 72
    19
 73
    23
 74
    24
  0
VERTEX
  5
263
330
233
100
AcDbEntity
  8
Blanc
100
AcDbFaceRecord
 10
0.0
 20
0.0
 30
0.0
 70
   128
 71
    21
 72
    22
 73
    24
 74
    23
  0
VERTEX
  5
264
330
233
100
AcDbEntity
  8
Blanc
100
AcDbFaceRecord
 10
0.0
 20
0.0
 30
0.0
 70
   128
 71
    32
 72
    29
 73
    25
 74
    25
  0
VERTEX
  5
265
330
233
100
AcDbEntity
  8
Blanc
100
AcDbFaceRecord
 10
0.0
 20
0.0
 30
0.0
 70
   128
 71
    32
 72
    26
 73
    31
 74
    31
  0
VERTEX
  5
266
330
233
100
AcDbEntity
  8
Blanc
100
AcDbFaceRecord
 10
0.0
 20
0.0
 30
0.0
 70
   128
 71
    30
 72
    29
 73
    32
 74
    32
  0
VERTEX
  5
267
330
233
100
AcDbEntity
  8
Blanc
100
AcDbFaceRecord
 10
0.0
 20
0.0
 30
0.0
 70
   128
 71
    32
 72
    31
 73
    30
 74
    30
  0
VERTEX
  5
268
330
233
100
AcDbEntity
  8
Blanc
100
AcDbFaceRecord
 10
0.0
 20
0.0
 30
0.0
 70
   128
 71
    30
 72
    31
 73
    28
 74
    28
  0
VERTEX
  5
269
330
233
100
AcDbEntity
  8
Blanc
100
AcDbFaceRecord
 10
0.0
 20
0.0
 30
0.0
 70
   128
 71
    27
 72
    29
 73
    30
 74
    30
  0
VERTEX
  5
26A
330
233
100
AcDbEntity
  8
Blanc
100
AcDbFaceRecord
 10
0.0
 20
0.0
 30
0.0
 70
   128
 71
    40
 72
    33
 73
    37
 74
    37
  0
VERTEX
  5
26B
330
233
100
AcDbEntity
  8
Blanc
100
AcDbFaceRecord
 10
0.0
 20
0.0
 30
0.0
 70
   128
 71
    40
 72
    39
 73
    34
 74
    34
  0
VERTEX
  5
26C
330
233
100
AcDbEntity
  8
Blanc
100
AcDbFaceRecord
 10
0.0
 20
0.0
 30
0.0
 70
   128
 71
    38
 72
    40
 73
    37
 74
    37
  0
VERTEX
  5
26D
330
233
100
AcDbEntity
  8
Blanc
100
AcDbFaceRecord
 10
0.0
 20
0.0
 30
0.0
 70
   128
 71
    40
 72
    38
 73
    39
 74
    39
  0
VERTEX
  5
26E
330
233
100
AcDbEntity
  8
Blanc
100
AcDbFaceRecord
 10
0.0
 20
0.0
 30
0.0
 70
   128
 71
    38
 72
    36
 73
    39
 74
    39
  0
VERTEX
  5
26F
330
233
100
AcDbEntity
  8
Blanc
100
AcDbFaceRecord
 10
0.0
 20
0.0
 30
0.0
 70
   128
 71
    35
 72
    38
 73
    37
 74
    37
  0
SEQEND
  5
270
330
233
100
AcDbEntity
  8
Blanc
  0
POLYLINE
  5
271
330
1F
100
AcDbEntity
  8
Blanc
100
AcDbPolyFaceMesh
 66
     1
 10
0.0
 20
0.0
 30
0.0
 70
    64
 71
    40
 72
    20
  0
VERTEX
  5
272
330
271
100
AcDbEntity
  8
Blanc
100
AcDbVertex
100
AcDbPolyFaceMeshVertex
 10
-297.5
 20
0.0
 30
0.0
 70
   192
  0
VERTEX
  5
273
330
271
100
AcDbEntity
  8
Blanc
100
AcDbVertex
100
AcDbPolyFaceMeshVertex
 10
-297.5
 20
-10.0
 30
0.0
 70
   192
  0
VERTEX
  5
274
330
271
100
AcDbEntity
  8
Blanc
100
AcDbVertex
100
AcDbPolyFaceMeshVertex
 10
297.5
 20
0.0
 30
0.0
 70
   192
  0
VERTEX
  5
275
330
271
100
AcDbEntity
  8
Blanc
100
AcDbVertex
100
AcDbPolyFaceMeshVertex
 10
297.5
 20
-10.0
 30
0.0
 70
   192
  0
VERTEX
  5
276
330
271
100
AcDbEntity
  8
Blanc
100
AcDbVertex
100
AcDbPolyFaceMeshVertex
 10
0.0
 20
0.0
 30
0.0
 70
   192
  0
VERTEX
  5
277
330
271
100
AcDbEntity
  8
Blanc
100
AcDbVertex
100
AcDbPolyFaceMeshVertex
 10
0.0
 20
-10.0
 30
0.0
 70
   192
  0
VERTEX
  5
278
330
271
100
AcDbEntity
  8
Blanc
100
AcDbVertex
100
AcDbPolyFaceMeshVertex
 10
297.5
 20
0.0
 30
0.0
 70
   192
  0
VERTEX
  5
279
330
271
100
AcDbEntity
  8
Blanc
100
AcDbVertex
100
AcDbPolyFaceMeshVertex
 10
297.5
 20
-10.0
 30
0.0
 70
   192
  0
VERTEX
  5
27A
330
271
100
AcDbEntity
  8
Blanc
100
AcDbVertex
100
AcDbPolyFaceMeshVertex
 10
297.5
 20
0.0
 30
208.0
 70
   192
  0
VERTEX
  5
27B
330
271
100
AcDbEntity
  8
Blanc
100
AcDbVertex
100
AcDbPolyFaceMeshVertex
 10
297.5
 20
-10.0
 30
208.0
 70
   192
  0
VERTEX
  5
27C
330
271
100
AcDbEntity
  8
Blanc
100
AcDbVertex
100
AcDbPolyFaceMeshVertex
 10
297.5
 20
0.0
 30
104.0
 70
   192
  0
VERTEX
  5
27D
330
271
100
AcDbEntity
  8
Blanc
100
AcDbVertex
100
AcDbPolyFaceMeshVertex
 10
297.5
 20
-10.0
 30
104.0
 70
   192
  0
VERTEX
  5
27E
330
271
100
AcDbEntity
  8
Blanc
100
AcDbVertex
100
AcDbPolyFaceMeshVertex
 10
297.5
 20
0.0
 30
208.0
 70
   192
  0
VERTEX
  5
27F
330
271
100
AcDbEntity
  8
Blanc
100
AcDbVertex
100
AcDbPolyFaceMeshVertex
 10
297.5
 20
-10.0
 30
208.0
 70
   192
  0
VERTEX
  5
280
330
271
100
AcDbEntity
  8
Blanc
100
AcDbVertex
100
AcDbPolyFaceMeshVertex
 10
-297.5
 20
0.0
 30
208.0
 70
   192
  0
VERTEX
  5
281
330
271
100
AcDbEntity
  8
Blanc
100
AcDbVertex
100
AcDbPolyFaceMeshVertex
 10
-297.5
 20
-10.0
 30
208.0
 70
   192
  0
VERTEX
  5
282
330
271
100
AcDbEntity
  8
Blanc
100
AcDbVertex
100
AcDbPolyFaceMeshVertex
 10
0.0
 20
0.0
 30
208.0
 70
   192
  0
VERTEX
  5
283
330
271
100
AcDbEntity
  8
Blanc
100
AcDbVertex
100
AcDbPolyFaceMeshVertex
 10
0.0
 20
-10.0
 30
208.0
 70
   192
  0
VERTEX
  5
284
330
271
100
AcDbEntity
  8
Blanc
100
AcDbVertex
100
AcDbPolyFaceMeshVertex
 10
-297.5
 20
0.0
 30
208.0
 70
   192
  0
VERTEX
  5
285
330
271
100
AcDbEntity
  8
Blanc
100
AcDbVertex
100
AcDbPolyFaceMeshVertex
 10
-297.5
 20
-10.0
 30
208.0
 70
   192
  0
VERTEX
  5
286
330
271
100
AcDbEntity
  8
Blanc
100
AcDbVertex
100
AcDbPolyFaceMeshVertex
 10
-297.5
 20
0.0
 30
0.0
 70
   192
  0
VERTEX
  5
287
330
271
100
AcDbEntity
  8
Blanc
100
AcDbVertex
100
AcDbPolyFaceMeshVertex
 10
-297.5
 20
-10.0
 30
0.0
 70
   192
  0
VERTEX
  5
288
330
271
100
AcDbEntity
  8
Blanc
100
AcDbVertex
100
AcDbPolyFaceMeshVertex
 10
-297.5
 20
0.0
 30
104.0
 70
   192
  0
VERTEX
  5
289
330
271
100
AcDbEntity
  8
Blanc
100
AcDbVertex
100
AcDbPolyFaceMeshVertex
 10
-297.5
 20
-10.0
 30
104.0
 70
   192
  0
VERTEX
  5
28A
330
271
100
AcDbEntity
  8
Blanc
100
AcDbVertex
100
AcDbPolyFaceMeshVertex
 10
-297.5
 20
0.0
 30
0.0
 70
   192
  0
VERTEX
  5
28B
330
271
100
AcDbEntity
  8
Blanc
100
AcDbVertex
100
AcDbPolyFaceMeshVertex
 10
-297.5
 20
0.0
 30
208.0
 70
   192
  0
VERTEX
  5
28C
330
271
100
AcDbEntity
  8
Blanc
100
AcDbVertex
100
AcDbPolyFaceMeshVertex
 10
297.5
 20
0.0
 30
0.0
 70
   192
  0
VERTEX
  5
28D
330
271
100
AcDbEntity
  8
Blanc
100
AcDbVertex
100
AcDbPolyFaceMeshVertex
 10
297.5
 20
0.0
 30
208.0
 70
   192
  0
VERTEX
  5
28E
330
271
100
AcDbEntity
  8
Blanc
100
AcDbVertex
100
AcDbPolyFaceMeshVertex
 10
0.0
 20
0.0
 30
0.0
 70
   192
  0
VERTEX
  5
28F
330
271
100
AcDbEntity
  8
Blanc
100
AcDbVertex
100
AcDbPolyFaceMeshVertex
 10
297.5
 20
0.0
 30
104.0
 70
   192
  0
VERTEX
  5
290
330
271
100
AcDbEntity
  8
Blanc
100
AcDbVertex
100
AcDbPolyFaceMeshVertex
 10
0.0
 20
0.0
 30
208.0
 70
   192
  0
VERTEX
  5
291
330
271
100
AcDbEntity
  8
Blanc
100
AcDbVertex
100
AcDbPolyFaceMeshVertex
 10
-297.5
 20
0.0
 30
104.0
 70
   192
  0
VERTEX
  5
292
330
271
100
AcDbEntity
  8
Blanc
100
AcDbVertex
100
AcDbPolyFaceMeshVertex
 10
-297.5
 20
-10.0
 30
0.0
 70
   192
  0
VERTEX
  5
293
330
271
100
AcDbEntity
  8
Blanc
100
AcDbVertex
100
AcDbPolyFaceMeshVertex
 10
-297.5
 20
-10.0
 30
208.0
 70
   192
  0
VERTEX
  5
294
330
271
100
AcDbEntity
  8
Blanc
100
AcDbVertex
100
AcDbPolyFaceMeshVertex
 10
297.5
 20
-10.0
 30
0.0
 70
   192
  0
VERTEX
  5
295
330
271
100
AcDbEntity
  8
Blanc
100
AcDbVertex
100
AcDbPolyFaceMeshVertex
 10
297.5
 20
-10.0
 30
208.0
 70
   192
  0
VERTEX
  5
296
330
271
100
AcDbEntity
  8
Blanc
100
AcDbVertex
100
AcDbPolyFaceMeshVertex
 10
0.0
 20
-10.0
 30
0.0
 70
   192
  0
VERTEX
  5
297
330
271
100
AcDbEntity
  8
Blanc
100
AcDbVertex
100
AcDbPolyFaceMeshVertex
 10
297.5
 20
-10.0
 30
104.0
 70
   192
  0
VERTEX
  5
298
330
271
100
AcDbEntity
  8
Blanc
100
AcDbVertex
100
AcDbPolyFaceMeshVertex
 10
0.0
 20
-10.0
 30
208.0
 70
   192
  0
VERTEX
  5
299
330
271
100
AcDbEntity
  8
Blanc
100
AcDbVertex
100
AcDbPolyFaceMeshVertex
 10
-297.5
 20
-10.0
 30
104.0
 70
   192
  0
VERTEX
  5
29A
330
271
100
AcDbEntity
  8
Blanc
100
AcDbFaceRecord
 10
0.0
 20
0.0
 30
0.0
 70
   128
 71
     2
 72
     1
 73
     5
 74
     6
  0
VERTEX
  5
29B
330
271
100
AcDbEntity
  8
Blanc
100
AcDbFaceRecord
 10
0.0
 20
0.0
 30
0.0
 70
   128
 71
     3
 72
     4
 73
     6
 74
     5
  0
VERTEX
  5
29C
330
271
100
AcDbEntity
  8
Blanc
100
AcDbFaceRecord
 10
0.0
 20
0.0
 30
0.0
 70
   128
 71
     8
 72
     7
 73
    11
 74
    12
  0
VERTEX
  5
29D
330
271
100
AcDbEntity
  8
Blanc
100
AcDbFaceRecord
 10
0.0
 20
0.0
 30
0.0
 70
   128
 71
     9
 72
    10
 73
    12
 74
    11
  0
VERTEX
  5
29E
330
271
100
AcDbEntity
  8
Blanc
100
AcDbFaceRecord
 10
0.0
 20
0.0
 30
0.0
 70
   128
 71
    14
 72
    13
 73
    17
 74
    18
  0
VERTEX
  5
29F
330
271
100
AcDbEntity
  8
Blanc
100
AcDbFaceRecord
 10
0.0
 20
0.0
 30
0.0
 70
   128
 71
    15
 72
    16
 73
    18
 74
    17
  0
VERTEX
  5
2A0
330
271
100
AcDbEntity
  8
Blanc
100
AcDbFaceRecord
 10
0.0
 20
0.0
 30
0.0
 70
   128
 71
    20
 72
    19
 73
    23
 74
    24
  0
VERTEX
  5
2A1
330
271
100
AcDbEntity
  8
Blanc
100
AcDbFaceRecord
 10
0.0
 20
0.0
 30
0.0
 70
   128
 71
    21
 72
    22
 73
    24
 74
    23
  0
VERTEX
  5
2A2
330
271
100
AcDbEntity
  8
Blanc
100
AcDbFaceRecord
 10
0.0
 20
0.0
 30
0.0
 70
   128
 71
    32
 72
    29
 73
    25
 74
    25
  0
VERTEX
  5
2A3
330
271
100
AcDbEntity
  8
Blanc
100
AcDbFaceRecord
 10
0.0
 20
0.0
 30
0.0
 70
   128
 71
    32
 72
    26
 73
    31
 74
    31
  0
VERTEX
  5
2A4
330
271
100
AcDbEntity
  8
Blanc
100
AcDbFaceRecord
 10
0.0
 20
0.0
 30
0.0
 70
   128
 71
    30
 72
    29
 73
    32
 74
    32
  0
VERTEX
  5
2A5
330
271
100
AcDbEntity
  8
Blanc
100
AcDbFaceRecord
 10
0.0
 20
0.0
 30
0.0
 70
   128
 71
    32
 72
    31
 73
    30
 74
    30
  0
VERTEX
  5
2A6
330
271
100
AcDbEntity
  8
Blanc
100
AcDbFaceRecord
 10
0.0
 20
0.0
 30
0.0
 70
   128
 71
    30
 72
    31
 73
    28
 74
    28
  0
VERTEX
  5
2A7
330
271
100
AcDbEntity
  8
Blanc
100
AcDbFaceRecord
 10
0.0
 20
0.0
 30
0.0
 70
   128
 71
    27
 72
    29
 73
    30
 74
    30
  0
VERTEX
  5
2A8
330
271
100
AcDbEntity
  8
Blanc
100
AcDbFaceRecord
 10
0.0
 20
0.0
 30
0.0
 70
   128
 71
    40
 72
    33
 73
    37
 74
    37
  0
VERTEX
  5
2A9
330
271
100
AcDbEntity
  8
Blanc
100
AcDbFaceRecord
 10
0.0
 20
0.0
 30
0.0
 70
   128
 71
    40
 72
    39
 73
    34
 74
    34
  0
VERTEX
  5
2AA
330
271
100
AcDbEntity
  8
Blanc
100
AcDbFaceRecord
 10
0.0
 20
0.0
 30
0.0
 70
   128
 71
    38
 72
    40
 73
    37
 74
    37
  0
VERTEX
  5
2AB
330
271
100
AcDbEntity
  8
Blanc
100
AcDbFaceRecord
 10
0.0
 20
0.0
 30
0.0
 70
   128
 71
    40
 72
    38
 73
    39
 74
    39
  0
VERTEX
  5
2AC
330
271
100
AcDbEntity
  8
Blanc
100
AcDbFaceRecord
 10
0.0
 20
0.0
 30
0.0
 70
   128
 71
    38
 72
    36
 73
    39
 74
    39
  0
VERTEX
  5
2AD
330
271
100
AcDbEntity
  8
Blanc
100
AcDbFaceRecord
 10
0.0
 20
0.0
 30
0.0
 70
   128
 71
    35
 72
    38
 73
    37
 74
    37
  0
SEQEND
  5
2AE
330
271
100
AcDbEntity
  8
Blanc
  0
POLYLINE
  5
2AF
330
1F
100
AcDbEntity
  8
Blanc
100
AcDbPolyFaceMesh
 66
     1
 10
0.0
 20
0.0
 30
0.0
 70
    64
 71
    40
 72
    20
  0
VERTEX
  5
2B0
330
2AF
100
AcDbEntity
  8
Blanc
100
AcDbVertex
100
AcDbPolyFaceMeshVertex
 10
-297.5
 20
0.0
 30
210.0
 70
   192
  0
VERTEX
  5
2B1
330
2AF
100
AcDbEntity
  8
Blanc
100
AcDbVertex
100
AcDbPolyFaceMeshVertex
 10
-297.5
 20
-10.0
 30
210.0
 70
   192
  0
VERTEX
  5
2B2
330
2AF
100
AcDbEntity
  8
Blanc
100
AcDbVertex
100
AcDbPolyFaceMeshVertex
 10
297.5
 20
0.0
 30
210.0
 70
   192
  0
VERTEX
  5
2B3
330
2AF
100
AcDbEntity
  8
Blanc
100
AcDbVertex
100
AcDbPolyFaceMeshVertex
 10
297.5
 20
-10.0
 30
210.0
 70
   192
  0
VERTEX
  5
2B4
330
2AF
100
AcDbEntity
  8
Blanc
100
AcDbVertex
100
AcDbPolyFaceMeshVertex
 10
0.0
 20
0.0
 30
210.0
 70
   192
  0
VERTEX
  5
2B5
330
2AF
100
AcDbEntity
  8
Blanc
100
AcDbVertex
100
AcDbPolyFaceMeshVertex
 10
0.0
 20
-10.0
 30
210.0
 70
   192
  0
VERTEX
  5
2B6
330
2AF
100
AcDbEntity
  8
Blanc
100
AcDbVertex
100
AcDbPolyFaceMeshVertex
 10
297.5
 20
0.0
 30
210.0
 70
   192
  0
VERTEX
  5
2B7
330
2AF
100
AcDbEntity
  8
Blanc
100
AcDbVertex
100
AcDbPolyFaceMeshVertex
 10
297.5
 20
-10.0
 30
210.0
 70
   192
  0
VERTEX
  5
2B8
330
2AF
100
AcDbEntity
  8
Blanc
100
AcDbVertex
100
AcDbPolyFaceMeshVertex
 10
297.5
 20
0.0
 30
418.0
 70
   192
  0
VERTEX
  5
2B9
330
2AF
100
AcDbEntity
  8
Blanc
100
AcDbVertex
100
AcDbPolyFaceMeshVertex
 10
297.5
 20
-10.0
 30
418.0
 70
   192
  0
VERTEX
  5
2BA
330
2AF
100
AcDbEntity
  8
Blanc
100
AcDbVertex
100
AcDbPolyFaceMeshVertex
 10
297.5
 20
0.0
 30
314.0
 70
   192
  0
VERTEX
  5
2BB
330
2AF
100
AcDbEntity
  8
Blanc
100
AcDbVertex
100
AcDbPolyFaceMeshVertex
 10
297.5
 20
-10.0
 30
314.0
 70
   192
  0
VERTEX
  5
2BC
330
2AF
100
AcDbEntity
  8
Blanc
100
AcDbVertex
100
AcDbPolyFaceMeshVertex
 10
297.5
 20
0.0
 30
418.0
 70
   192
  0
VERTEX
  5
2BD
330
2AF
100
AcDbEntity
  8
Blanc
100
AcDbVertex
100
AcDbPolyFaceMeshVertex
 10
297.5
 20
-10.0
 30
418.0
 70
   192
  0
VERTEX
  5
2BE
330
2AF
100
AcDbEntity
  8
Blanc
100
AcDbVertex
100
AcDbPolyFaceMeshVertex
 10
-297.5
 20
0.0
 30
418.0
 70
   192
  0
VERTEX
  5
2BF
330
2AF
100
AcDbEntity
  8
Blanc
100
AcDbVertex
100
AcDbPolyFaceMeshVertex
 10
-297.5
 20
-10.0
 30
418.0
 70
   192
  0
VERTEX
  5
2C0
330
2AF
100
AcDbEntity
  8
Blanc
100
AcDbVertex
100
AcDbPolyFaceMeshVertex
 10
0.0
 20
0.0
 30
418.0
 70
   192
  0
VERTEX
  5
2C1
330
2AF
100
AcDbEntity
  8
Blanc
100
AcDbVertex
100
AcDbPolyFaceMeshVertex
 10
0.0
 20
-10.0
 30
418.0
 70
   192
  0
VERTEX
  5
2C2
330
2AF
100
AcDbEntity
  8
Blanc
100
AcDbVertex
100
AcDbPolyFaceMeshVertex
 10
-297.5
 20
0.0
 30
418.0
 70
   192
  0
VERTEX
  5
2C3
330
2AF
100
AcDbEntity
  8
Blanc
100
AcDbVertex
100
AcDbPolyFaceMeshVertex
 10
-297.5
 20
-10.0
 30
418.0
 70
   192
  0
VERTEX
  5
2C4
330
2AF
100
AcDbEntity
  8
Blanc
100
AcDbVertex
100
AcDbPolyFaceMeshVertex
 10
-297.5
 20
0.0
 30
210.0
 70
   192
  0
VERTEX
  5
2C5
330
2AF
100
AcDbEntity
  8
Blanc
100
AcDbVertex
100
AcDbPolyFaceMeshVertex
 10
-297.5
 20
-10.0
 30
210.0
 70
   192
  0
VERTEX
  5
2C6
330
2AF
100
AcDbEntity
  8
Blanc
100
AcDbVertex
100
AcDbPolyFaceMeshVertex
 10
-297.5
 20
0.0
 30
314.0
 70
   192
  0
VERTEX
  5
2C7
330
2AF
100
AcDbEntity
  8
Blanc
100
AcDbVertex
100
AcDbPolyFaceMeshVertex
 10
-297.5
 20
-10.0
 30
314.0
 70
   192
  0
VERTEX
  5
2C8
330
2AF
100
AcDbEntity
  8
Blanc
100
AcDbVertex
100
AcDbPolyFaceMeshVertex
 10
-297.5
 20
0.0
 30
210.0
 70
   192
  0
VERTEX
  5
2C9
330
2AF
100
AcDbEntity
  8
Blanc
100
AcDbVertex
100
AcDbPolyFaceMeshVertex
 10
-297.5
 20
0.0
 30
418.0
 70
   192
  0
VERTEX
  5
2CA
330
2AF
100
AcDbEntity
  8
Blanc
100
AcDbVertex
100
AcDbPolyFaceMeshVertex
 10
297.5
 20
0.0
 30
210.0
 70
   192
  0
VERTEX
  5
2CB
330
2AF
100
AcDbEntity
  8
Blanc
100
AcDbVertex
100
AcDbPolyFaceMeshVertex
 10
297.5
 20
0.0
 30
418.0
 70
   192
  0
VERTEX
  5
2CC
330
2AF
100
AcDbEntity
  8
Blanc
100
AcDbVertex
100
AcDbPolyFaceMeshVertex
 10
0.0
 20
0.0
 30
210.0
 70
   192
  0
VERTEX
  5
2CD
330
2AF
100
AcDbEntity
  8
Blanc
100
AcDbVertex
100
AcDbPolyFaceMeshVertex
 10
297.5
 20
0.0
 30
314.0
 70
   192
  0
VERTEX
  5
2CE
330
2AF
100
AcDbEntity
  8
Blanc
100
AcDbVertex
100
AcDbPolyFaceMeshVertex
 10
0.0
 20
0.0
 30
418.0
 70
   192
  0
VERTEX
  5
2CF
330
2AF
100
AcDbEntity
  8
Blanc
100
AcDbVertex
100
AcDbPolyFaceMeshVertex
 10
-297.5
 20
0.0
 30
314.0
 70
   192
  0
VERTEX
  5
2D0
330
2AF
100
AcDbEntity
  8
Blanc
100
AcDbVertex
100
AcDbPolyFaceMeshVertex
 10
-297.5
 20
-10.0
 30
210.0
 70
   192
  0
VERTEX
  5
2D1
330
2AF
100
AcDbEntity
  8
Blanc
100
AcDbVertex
100
AcDbPolyFaceMeshVertex
 10
-297.5
 20
-10.0
 30
418.0
 70
   192
  0
VERTEX
  5
2D2
330
2AF
100
AcDbEntity
  8
Blanc
100
AcDbVertex
100
AcDbPolyFaceMeshVertex
 10
297.5
 20
-10.0
 30
210.0
 70
   192
  0
VERTEX
  5
2D3
330
2AF
100
AcDbEntity
  8
Blanc
100
AcDbVertex
100
AcDbPolyFaceMeshVertex
 10
297.5
 20
-10.0
 30
418.0
 70
   192
  0
VERTEX
  5
2D4
330
2AF
100
AcDbEntity
  8
Blanc
100
AcDbVertex
100
AcDbPolyFaceMeshVertex
 10
0.0
 20
-10.0
 30
210.0
 70
   192
  0
VERTEX
  5
2D5
330
2AF
100
AcDbEntity
  8
Blanc
100
AcDbVertex
100
AcDbPolyFaceMeshVertex
 10
297.5
 20
-10.0
 30
314.0
 70
   192
  0
VERTEX
  5
2D6
330
2AF
100
AcDbEntity
  8
Blanc
100
AcDbVertex
100
AcDbPolyFaceMeshVertex
 10
0.0
 20
-10.0
 30
418.0
 70
   192
  0
VERTEX
  5
2D7
330
2AF
100
AcDbEntity
  8
Blanc
100
AcDbVertex
100
AcDbPolyFaceMeshVertex
 10
-297.5
 20
-10.0
 30
314.0
 70
   192
  0
VERTEX
  5
2D8
330
2AF
100
AcDbEntity
  8
Blanc
100
AcDbFaceRecord
 10
0.0
 20
0.0
 30
0.0
 70
   128
 71
     2
 72
     1
 73
     5
 74
     6
  0
VERTEX
  5
2D9
330
2AF
100
AcDbEntity
  8
Blanc
100
AcDbFaceRecord
 10
0.0
 20
0.0
 30
0.0
 70
   128
 71
     3
 72
     4
 73
     6
 74
     5
  0
VERTEX
  5
2DA
330
2AF
100
AcDbEntity
  8
Blanc
100
AcDbFaceRecord
 10
0.0
 20
0.0
 30
0.0
 70
   128
 71
     8
 72
     7
 73
    11
 74
    12
  0
VERTEX
  5
2DB
330
2AF
100
AcDbEntity
  8
Blanc
100
AcDbFaceRecord
 10
0.0
 20
0.0
 30
0.0
 70
   128
 71
     9
 72
    10
 73
    12
 74
    11
  0
VERTEX
  5
2DC
330
2AF
100
AcDbEntity
  8
Blanc
100
AcDbFaceRecord
 10
0.0
 20
0.0
 30
0.0
 70
   128
 71
    14
 72
    13
 73
    17
 74
    18
  0
VERTEX
  5
2DD
330
2AF
100
AcDbEntity
  8
Blanc
100
AcDbFaceRecord
 10
0.0
 20
0.0
 30
0.0
 70
   128
 71
    15
 72
    16
 73
    18
 74
    17
  0
VERTEX
  5
2DE
330
2AF
100
AcDbEntity
  8
Blanc
100
AcDbFaceRecord
 10
0.0
 20
0.0
 30
0.0
 70
   128
 71
    20
 72
    19
 73
    23
 74
    24
  0
VERTEX
  5
2DF
330
2AF
100
AcDbEntity
  8
Blanc
100
AcDbFaceRecord
 10
0.0
 20
0.0
 30
0.0
 70
   128
 71
    21
 72
    22
 73
    24
 74
    23
  0
VERTEX
  5
2E0
330
2AF
100
AcDbEntity
  8
Blanc
100
AcDbFaceRecord
 10
0.0
 20
0.0
 30
0.0
 70
   128
 71
    32
 72
    29
 73
    25
 74
    25
  0
VERTEX
  5
2E1
330
2AF
100
AcDbEntity
  8
Blanc
100
AcDbFaceRecord
 10
0.0
 20
0.0
 30
0.0
 70
   128
 71
    32
 72
    26
 73
    31
 74
    31
  0
VERTEX
  5
2E2
330
2AF
100
AcDbEntity
  8
Blanc
100
AcDbFaceRecord
 10
0.0
 20
0.0
 30
0.0
 70
   128
 71
    30
 72
    29
 73
    32
 74
    32
  0
VERTEX
  5
2E3
330
2AF
100
AcDbEntity
  8
Blanc
100
AcDbFaceRecord
 10
0.0
 20
0.0
 30
0.0
 70
   128
 71
    32
 72
    31
 73
    30
 74
    30
  0
VERTEX
  5
2E4
330
2AF
100
AcDbEntity
  8
Blanc
100
AcDbFaceRecord
 10
0.0
 20
0.0
 30
0.0
 70
   128
 71
    30
 72
    31
 73
    28
 74
    28
  0
VERTEX
  5
2E5
330
2AF
100
AcDbEntity
  8
Blanc
100
AcDbFaceRecord
 10
0.0
 20
0.0
 30
0.0
 70
   128
 71
    27
 72
    29
 73
    30
 74
    30
  0
VERTEX
  5
2E6
330
2AF
100
AcDbEntity
  8
Blanc
100
AcDbFaceRecord
 10
0.0
 20
0.0
 30
0.0
 70
   128
 71
    40
 72
    33
 73
    37
 74
    37
  0
VERTEX
  5
2E7
330
2AF
100
AcDbEntity
  8
Blanc
100
AcDbFaceRecord
 10
0.0
 20
0.0
 30
0.0
 70
   128
 71
    40
 72
    39
 73
    34
 74
    34
  0
VERTEX
  5
2E8
330
2AF
100
AcDbEntity
  8
Blanc
100
AcDbFaceRecord
 10
0.0
 20
0.0
 30
0.0
 70
   128
 71
    38
 72
    40
 73
    37
 74
    37
  0
VERTEX
  5
2E9
330
2AF
100
AcDbEntity
  8
Blanc
100
AcDbFaceRecord
 10
0.0
 20
0.0
 30
0.0
 70
   128
 71
    40
 72
    38
 73
    39
 74
    39
  0
VERTEX
  5
2EA
330
2AF
100
AcDbEntity
  8
Blanc
100
AcDbFaceRecord
 10
0.0
 20
0.0
 30
0.0
 70
   128
 71
    38
 72
    36
 73
    39
 74
    39
  0
VERTEX
  5
2EB
330
2AF
100
AcDbEntity
  8
Blanc
100
AcDbFaceRecord
 10
0.0
 20
0.0
 30
0.0
 70
   128
 71
    35
 72
    38
 73
    37
 74
    37
  0
SEQEND
  5
2EC
330
2AF
100
AcDbEntity
  8
Blanc
  0
POLYLINE
  5
2ED
330
1F
100
AcDbEntity
  8
Inox
100
AcDbPolyFaceMesh
 66
     1
 10
0.0
 20
0.0
 30
0.0
 70
    64
 71
    40
 72
    20
  0
VERTEX
  5
2EE
330
2ED
100
AcDbEntity
  8
Inox
100
AcDbVertex
100
AcDbPolyFaceMeshVertex
 10
-222.5
 20
-10.30000019073486
 30
138.5
 70
   192
  0
VERTEX
  5
2EF
330
2ED
100
AcDbEntity
  8
Inox
100
AcDbVertex
100
AcDbPolyFaceMeshVertex
 10
-222.5
 20
-10.0
 30
138.5
 70
   192
  0
VERTEX
  5
2F0
330
2ED
100
AcDbEntity
  8
Inox
100
AcDbVertex
100
AcDbPolyFaceMeshVertex
 10
-222.5
 20
-10.30000019073486
 30
158.5
 70
   192
  0
VERTEX
  5
2F1
330
2ED
100
AcDbEntity
  8
Inox
100
AcDbVertex
100
AcDbPolyFaceMeshVertex
 10
-222.5
 20
-10.0
 30
158.5
 70
   192
  0
VERTEX
  5
2F2
330
2ED
100
AcDbEntity
  8
Inox
100
AcDbVertex
100
AcDbPolyFaceMeshVertex
 10
-222.5
 20
-10.30000019073486
 30
148.5
 70
   192
  0
VERTEX
  5
2F3
330
2ED
100
AcDbEntity
  8
Inox
100
AcDbVertex
100
AcDbPolyFaceMeshVertex
 10
-222.5
 20
-10.0
 30
148.5
 70
   192
  0
VERTEX
  5
2F4
330
2ED
100
AcDbEntity
  8
Inox
100
AcDbVertex
100
AcDbPolyFaceMeshVertex
 10
-222.5
 20
-10.30000019073486
 30
158.5
 70
   192
  0
VERTEX
  5
2F5
330
2ED
100
AcDbEntity
  8
Inox
100
AcDbVertex
100
AcDbPolyFaceMeshVertex
 10
-222.5
 20
-10.0
 30
158.5
 70
   192
  0
VERTEX
  5
2F6
330
2ED
100
AcDbEntity
  8
Inox
100
AcDbVertex
100
AcDbPolyFaceMeshVertex
 10
-22.5
 20
-10.30000019073486
 30
158.5
 70
   192
  0
VERTEX
  5
2F7
330
2ED
100
AcDbEntity
  8
Inox
100
AcDbVertex
100
AcDbPolyFaceMeshVertex
 10
-22.5
 20
-10.0
 30
158.5
 70
   192
  0
VERTEX
  5
2F8
330
2ED
100
AcDbEntity
  8
Inox
100
AcDbVertex
100
AcDbPolyFaceMeshVertex
 10
-122.5
 20
-10.30000019073486
 30
158.5
 70
   192
  0
VERTEX
  5
2F9
330
2ED
100
AcDbEntity
  8
Inox
100
AcDbVertex
100
AcDbPolyFaceMeshVertex
 10
-122.5
 20
-10.0
 30
158.5
 70
   192
  0
VERTEX
  5
2FA
330
2ED
100
AcDbEntity
  8
Inox
100
AcDbVertex
100
AcDbPolyFaceMeshVertex
 10
-22.5
 20
-10.30000019073486
 30
158.5
 70
   192
  0
VERTEX
  5
2FB
330
2ED
100
AcDbEntity
  8
Inox
100
AcDbVertex
100
AcDbPolyFaceMeshVertex
 10
-22.5
 20
-10.0
 30
158.5
 70
   192
  0
VERTEX
  5
2FC
330
2ED
100
AcDbEntity
  8
Inox
100
AcDbVertex
100
AcDbPolyFaceMeshVertex
 10
-22.5
 20
-10.30000019073486
 30
138.5
 70
   192
  0
VERTEX
  5
2FD
330
2ED
100
AcDbEntity
  8
Inox
100
AcDbVertex
100
AcDbPolyFaceMeshVertex
 10
-22.5
 20
-10.0
 30
138.5
 70
   192
  0
VERTEX
  5
2FE
330
2ED
100
AcDbEntity
  8
Inox
100
AcDbVertex
100
AcDbPolyFaceMeshVertex
 10
-22.5
 20
-10.30000019073486
 30
148.5
 70
   192
  0
VERTEX
  5
2FF
330
2ED
100
AcDbEntity
  8
Inox
100
AcDbVertex
100
AcDbPolyFaceMeshVertex
 10
-22.5
 20
-10.0
 30
148.5
 70
   192
  0
VERTEX
  5
300
330
2ED
100
AcDbEntity
  8
Inox
100
AcDbVertex
100
AcDbPolyFaceMeshVertex
 10
-22.5
 20
-10.30000019073486
 30
138.5
 70
   192
  0
VERTEX
  5
301
330
2ED
100
AcDbEntity
  8
Inox
100
AcDbVertex
100
AcDbPolyFaceMeshVertex
 10
-22.5
 20
-10.0
 30
138.5
 70
   192
  0
VERTEX
  5
302
330
2ED
100
AcDbEntity
  8
Inox
100
AcDbVertex
100
AcDbPolyFaceMeshVertex
 10
-222.5
 20
-10.30000019073486
 30
138.5
 70
   192
  0
VERTEX
  5
303
330
2ED
100
AcDbEntity
  8
Inox
100
AcDbVertex
100
AcDbPolyFaceMeshVertex
 10
-222.5
 20
-10.0
 30
138.5
 70
   192
  0
VERTEX
  5
304
330
2ED
100
AcDbEntity
  8
Inox
100
AcDbVertex
100
AcDbPolyFaceMeshVertex
 10
-122.5
 20
-10.30000019073486
 30
138.5
 70
   192
  0
VERTEX
  5
305
330
2ED
100
AcDbEntity
  8
Inox
100
AcDbVertex
100
AcDbPolyFaceMeshVertex
 10
-122.5
 20
-10.0
 30
138.5
 70
   192
  0
VERTEX
  5
306
330
2ED
100
AcDbEntity
  8
Inox
100
AcDbVertex
100
AcDbPolyFaceMeshVertex
 10
-22.5
 20
-10.30000019073486
 30
138.5
 70
   192
  0
VERTEX
  5
307
330
2ED
100
AcDbEntity
  8
Inox
100
AcDbVertex
100
AcDbPolyFaceMeshVertex
 10
-22.5
 20
-10.30000019073486
 30
158.5
 70
   192
  0
VERTEX
  5
308
330
2ED
100
AcDbEntity
  8
Inox
100
AcDbVertex
100
AcDbPolyFaceMeshVertex
 10
-222.5
 20
-10.30000019073486
 30
138.5
 70
   192
  0
VERTEX
  5
309
330
2ED
100
AcDbEntity
  8
Inox
100
AcDbVertex
100
AcDbPolyFaceMeshVertex
 10
-222.5
 20
-10.30000019073486
 30
158.5
 70
   192
  0
VERTEX
  5
30A
330
2ED
100
AcDbEntity
  8
Inox
100
AcDbVertex
100
AcDbPolyFaceMeshVertex
 10
-222.5
 20
-10.30000019073486
 30
148.5
 70
   192
  0
VERTEX
  5
30B
330
2ED
100
AcDbEntity
  8
Inox
100
AcDbVertex
100
AcDbPolyFaceMeshVertex
 10
-122.5
 20
-10.30000019073486
 30
158.5
 70
   192
  0
VERTEX
  5
30C
330
2ED
100
AcDbEntity
  8
Inox
100
AcDbVertex
100
AcDbPolyFaceMeshVertex
 10
-22.5
 20
-10.30000019073486
 30
148.5
 70
   192
  0
VERTEX
  5
30D
330
2ED
100
AcDbEntity
  8
Inox
100
AcDbVertex
100
AcDbPolyFaceMeshVertex
 10
-122.5
 20
-10.30000019073486
 30
138.5
 70
   192
  0
VERTEX
  5
30E
330
2ED
100
AcDbEntity
  8
Inox
100
AcDbVertex
100
AcDbPolyFaceMeshVertex
 10
-22.5
 20
-10.0
 30
138.5
 70
   192
  0
VERTEX
  5
30F
330
2ED
100
AcDbEntity
  8
Inox
100
AcDbVertex
100
AcDbPolyFaceMeshVertex
 10
-22.5
 20
-10.0
 30
158.5
 70
   192
  0
VERTEX
  5
310
330
2ED
100
AcDbEntity
  8
Inox
100
AcDbVertex
100
AcDbPolyFaceMeshVertex
 10
-222.5
 20
-10.0
 30
138.5
 70
   192
  0
VERTEX
  5
311
330
2ED
100
AcDbEntity
  8
Inox
100
AcDbVertex
100
AcDbPolyFaceMeshVertex
 10
-222.5
 20
-10.0
 30
158.5
 70
   192
  0
VERTEX
  5
312
330
2ED
100
AcDbEntity
  8
Inox
100
AcDbVertex
100
AcDbPolyFaceMeshVertex
 10
-222.5
 20
-10.0
 30
148.5
 70
   192
  0
VERTEX
  5
313
330
2ED
100
AcDbEntity
  8
Inox
100
AcDbVertex
100
AcDbPolyFaceMeshVertex
 10
-122.5
 20
-10.0
 30
158.5
 70
   192
  0
VERTEX
  5
314
330
2ED
100
AcDbEntity
  8
Inox
100
AcDbVertex
100
AcDbPolyFaceMeshVertex
 10
-22.5
 20
-10.0
 30
148.5
 70
   192
  0
VERTEX
  5
315
330
2ED
100
AcDbEntity
  8
Inox
100
AcDbVertex
100
AcDbPolyFaceMeshVertex
 10
-122.5
 20
-10.0
 30
138.5
 70
   192
  0
VERTEX
  5
316
330
2ED
100
AcDbEntity
  8
Inox
100
AcDbFaceRecord
 10
0.0
 20
0.0
 30
0.0
 70
   128
 71
     2
 72
     1
 73
     5
 74
     6
  0
VERTEX
  5
317
330
2ED
100
AcDbEntity
  8
Inox
100
AcDbFaceRecord
 10
0.0
 20
0.0
 30
0.0
 70
   128
 71
     3
 72
     4
 73
     6
 74
     5
  0
VERTEX
  5
318
330
2ED
100
AcDbEntity
  8
Inox
100
AcDbFaceRecord
 10
0.0
 20
0.0
 30
0.0
 70
   128
 71
     8
 72
     7
 73
    11
 74
    12
  0
VERTEX
  5
319
330
2ED
100
AcDbEntity
  8
Inox
100
AcDbFaceRecord
 10
0.0
 20
0.0
 30
0.0
 70
   128
 71
     9
 72
    10
 73
    12
 74
    11
  0
VERTEX
  5
31A
330
2ED
100
AcDbEntity
  8
Inox
100
AcDbFaceRecord
 10
0.0
 20
0.0
 30
0.0
 70
   128
 71
    14
 72
    13
 73
    17
 74
    18
  0
VERTEX
  5
31B
330
2ED
100
AcDbEntity
  8
Inox
100
AcDbFaceRecord
 10
0.0
 20
0.0
 30
0.0
 70
   128
 71
    15
 72
    16
 73
    18
 74
    17
  0
VERTEX
  5
31C
330
2ED
100
AcDbEntity
  8
Inox
100
AcDbFaceRecord
 10
0.0
 20
0.0
 30
0.0
 70
   128
 71
    20
 72
    19
 73
    23
 74
    24
  0
VERTEX
  5
31D
330
2ED
100
AcDbEntity
  8
Inox
100
AcDbFaceRecord
 10
0.0
 20
0.0
 30
0.0
 70
   128
 71
    21
 72
    22
 73
    24
 74
    23
  0
VERTEX
  5
31E
330
2ED
100
AcDbEntity
  8
Inox
100
AcDbFaceRecord
 10
0.0
 20
0.0
 30
0.0
 70
   128
 71
    31
 72
    32
 73
    25
 74
    25
  0
VERTEX
  5
31F
330
2ED
100
AcDbEntity
  8
Inox
100
AcDbFaceRecord
 10
0.0
 20
0.0
 30
0.0
 70
   128
 71
    31
 72
    26
 73
    30
 74
    30
  0
VERTEX
  5
320
330
2ED
100
AcDbEntity
  8
Inox
100
AcDbFaceRecord
 10
0.0
 20
0.0
 30
0.0
 70
   128
 71
    29
 72
    32
 73
    31
 74
    31
  0
VERTEX
  5
321
330
2ED
100
AcDbEntity
  8
Inox
100
AcDbFaceRecord
 10
0.0
 20
0.0
 30
0.0
 70
   128
 71
    31
 72
    30
 73
    29
 74
    29
  0
VERTEX
  5
322
330
2ED
100
AcDbEntity
  8
Inox
100
AcDbFaceRecord
 10
0.0
 20
0.0
 30
0.0
 70
   128
 71
    29
 72
    30
 73
    28
 74
    28
  0
VERTEX
  5
323
330
2ED
100
AcDbEntity
  8
Inox
100
AcDbFaceRecord
 10
0.0
 20
0.0
 30
0.0
 70
   128
 71
    27
 72
    32
 73
    29
 74
    29
  0
VERTEX
  5
324
330
2ED
100
AcDbEntity
  8
Inox
100
AcDbFaceRecord
 10
0.0
 20
0.0
 30
0.0
 70
   128
 71
    39
 72
    33
 73
    40
 74
    40
  0
VERTEX
  5
325
330
2ED
100
AcDbEntity
  8
Inox
100
AcDbFaceRecord
 10
0.0
 20
0.0
 30
0.0
 70
   128
 71
    39
 72
    38
 73
    34
 74
    34
  0
VERTEX
  5
326
330
2ED
100
AcDbEntity
  8
Inox
100
AcDbFaceRecord
 10
0.0
 20
0.0
 30
0.0
 70
   128
 71
    37
 72
    39
 73
    40
 74
    40
  0
VERTEX
  5
327
330
2ED
100
AcDbEntity
  8
Inox
100
AcDbFaceRecord
 10
0.0
 20
0.0
 30
0.0
 70
   128
 71
    39
 72
    37
 73
    38
 74
    38
  0
VERTEX
  5
328
330
2ED
100
AcDbEntity
  8
Inox
100
AcDbFaceRecord
 10
0.0
 20
0.0
 30
0.0
 70
   128
 71
    37
 72
    36
 73
    38
 74
    38
  0
VERTEX
  5
329
330
2ED
100
AcDbEntity
  8
Inox
100
AcDbFaceRecord
 10
0.0
 20
0.0
 30
0.0
 70
   128
 71
    35
 72
    37
 73
    40
 74
    40
  0
SEQEND
  5
32A
330
2ED
100
AcDbEntity
  8
Inox
  0
POLYLINE
  5
32B
330
1F
100
AcDbEntity
  8
Inox
100
AcDbPolyFaceMesh
 66
     1
 10
0.0
 20
0.0
 30
0.0
 70
    64
 71
    40
 72
    20
  0
VERTEX
  5
32C
330
32B
100
AcDbEntity
  8
Inox
100
AcDbVertex
100
AcDbPolyFaceMeshVertex
 10
-22.79999923706055
 20
-19.76854515075684
 30
138.5
 70
   192
  0
VERTEX
  5
32D
330
32B
100
AcDbEntity
  8
Inox
100
AcDbVertex
100
AcDbPolyFaceMeshVertex
 10
-22.79999923706055
 20
-10.30000019073486
 30
138.5
 70
   192
  0
VERTEX
  5
32E
330
32B
100
AcDbEntity
  8
Inox
100
AcDbVertex
100
AcDbPolyFaceMeshVertex
 10
-22.79999923706055
 20
-10.30000019073486
 30
138.8000030517578
 70
   192
  0
VERTEX
  5
32F
330
32B
100
AcDbEntity
  8
Inox
100
AcDbVertex
100
AcDbPolyFaceMeshVertex
 10
-22.79999923706055
 20
-19.59533882141113
 30
138.8000030517578
 70
   192
  0
VERTEX
  5
330
330
32B
100
AcDbEntity
  8
Inox
100
AcDbVertex
100
AcDbPolyFaceMeshVertex
 10
-22.79999923706055
 20
-15.03427219390869
 30
138.5
 70
   192
  0
VERTEX
  5
331
330
32B
100
AcDbEntity
  8
Inox
100
AcDbVertex
100
AcDbPolyFaceMeshVertex
 10
-22.79999923706055
 20
-14.94766998291016
 30
138.8000030517578
 70
   192
  0
VERTEX
  5
332
330
32B
100
AcDbEntity
  8
Inox
100
AcDbVertex
100
AcDbPolyFaceMeshVertex
 10
-22.79999923706055
 20
-10.30000019073486
 30
138.5
 70
   192
  0
VERTEX
  5
333
330
32B
100
AcDbEntity
  8
Inox
100
AcDbVertex
100
AcDbPolyFaceMeshVertex
 10
-22.79999923706055
 20
-10.30000019073486
 30
138.8000030517578
 70
   192
  0
VERTEX
  5
334
330
32B
100
AcDbEntity
  8
Inox
100
AcDbVertex
100
AcDbPolyFaceMeshVertex
 10
-222.1999969482422
 20
-10.30000019073486
 30
138.5
 70
   192
  0
VERTEX
  5
335
330
32B
100
AcDbEntity
  8
Inox
100
AcDbVertex
100
AcDbPolyFaceMeshVertex
 10
-222.1999969482422
 20
-10.30000019073486
 30
138.8000030517578
 70
   192
  0
VERTEX
  5
336
330
32B
100
AcDbEntity
  8
Inox
100
AcDbVertex
100
AcDbPolyFaceMeshVertex
 10
-122.5
 20
-10.30000019073486
 30
138.5
 70
   192
  0
VERTEX
  5
337
330
32B
100
AcDbEntity
  8
Inox
100
AcDbVertex
100
AcDbPolyFaceMeshVertex
 10
-122.5
 20
-10.30000019073486
 30
138.8000030517578
 70
   192
  0
VERTEX
  5
338
330
32B
100
AcDbEntity
  8
Inox
100
AcDbVertex
100
AcDbPolyFaceMeshVertex
 10
-222.1999969482422
 20
-10.30000019073486
 30
138.5
 70
   192
  0
VERTEX
  5
339
330
32B
100
AcDbEntity
  8
Inox
100
AcDbVertex
100
AcDbPolyFaceMeshVertex
 10
-222.1999969482422
 20
-10.30000019073486
 30
138.8000030517578
 70
   192
  0
VERTEX
  5
33A
330
32B
100
AcDbEntity
  8
Inox
100
AcDbVertex
100
AcDbPolyFaceMeshVertex
 10
-222.1999969482422
 20
-19.76854515075684
 30
138.5
 70
   192
  0
VERTEX
  5
33B
330
32B
100
AcDbEntity
  8
Inox
100
AcDbVertex
100
AcDbPolyFaceMeshVertex
 10
-222.1999969482422
 20
-15.03427219390869
 30
138.5
 70
   192
  0
VERTEX
  5
33C
330
32B
100
AcDbEntity
  8
Inox
100
AcDbVertex
100
AcDbPolyFaceMeshVertex
 10
-222.1999969482422
 20
-19.59533882141113
 30
138.8000030517578
 70
   192
  0
VERTEX
  5
33D
330
32B
100
AcDbEntity
  8
Inox
100
AcDbVertex
100
AcDbPolyFaceMeshVertex
 10
-222.1999969482422
 20
-14.94766998291016
 30
138.8000030517578
 70
   192
  0
VERTEX
  5
33E
330
32B
100
AcDbEntity
  8
Inox
100
AcDbVertex
100
AcDbPolyFaceMeshVertex
 10
-222.1999969482422
 20
-19.76854515075684
 30
138.5
 70
   192
  0
VERTEX
  5
33F
330
32B
100
AcDbEntity
  8
Inox
100
AcDbVertex
100
AcDbPolyFaceMeshVertex
 10
-222.1999969482422
 20
-10.30000019073486
 30
138.5
 70
   192
  0
VERTEX
  5
340
330
32B
100
AcDbEntity
  8
Inox
100
AcDbVertex
100
AcDbPolyFaceMeshVertex
 10
-22.79999923706055
 20
-10.30000019073486
 30
138.5
 70
   192
  0
VERTEX
  5
341
330
32B
100
AcDbEntity
  8
Inox
100
AcDbVertex
100
AcDbPolyFaceMeshVertex
 10
-122.5
 20
-10.30000019073486
 30
138.5
 70
   192
  0
VERTEX
  5
342
330
32B
100
AcDbEntity
  8
Inox
100
AcDbVertex
100
AcDbPolyFaceMeshVertex
 10
-222.1999969482422
 20
-15.03427219390869
 30
138.5
 70
   192
  0
VERTEX
  5
343
330
32B
100
AcDbEntity
  8
Inox
100
AcDbVertex
100
AcDbPolyFaceMeshVertex
 10
-122.5
 20
-19.76854515075684
 30
138.5
 70
   192
  0
VERTEX
  5
344
330
32B
100
AcDbEntity
  8
Inox
100
AcDbVertex
100
AcDbPolyFaceMeshVertex
 10
-22.79999923706055
 20
-19.76854515075684
 30
138.5
 70
   192
  0
VERTEX
  5
345
330
32B
100
AcDbEntity
  8
Inox
100
AcDbVertex
100
AcDbPolyFaceMeshVertex
 10
-22.79999923706055
 20
-15.03427219390869
 30
138.5
 70
   192
  0
VERTEX
  5
346
330
32B
100
AcDbEntity
  8
Inox
100
AcDbVertex
100
AcDbPolyFaceMeshVertex
 10
-222.1999969482422
 20
-19.59533882141113
 30
138.8000030517578
 70
   192
  0
VERTEX
  5
347
330
32B
100
AcDbEntity
  8
Inox
100
AcDbVertex
100
AcDbPolyFaceMeshVertex
 10
-222.1999969482422
 20
-10.30000019073486
 30
138.8000030517578
 70
   192
  0
VERTEX
  5
348
330
32B
100
AcDbEntity
  8
Inox
100
AcDbVertex
100
AcDbPolyFaceMeshVertex
 10
-22.79999923706055
 20
-10.30000019073486
 30
138.8000030517578
 70
   192
  0
VERTEX
  5
349
330
32B
100
AcDbEntity
  8
Inox
100
AcDbVertex
100
AcDbPolyFaceMeshVertex
 10
-122.5
 20
-10.30000019073486
 30
138.8000030517578
 70
   192
  0
VERTEX
  5
34A
330
32B
100
AcDbEntity
  8
Inox
100
AcDbVertex
100
AcDbPolyFaceMeshVertex
 10
-222.1999969482422
 20
-14.94766998291016
 30
138.8000030517578
 70
   192
  0
VERTEX
  5
34B
330
32B
100
AcDbEntity
  8
Inox
100
AcDbVertex
100
AcDbPolyFaceMeshVertex
 10
-122.5
 20
-19.59533882141113
 30
138.8000030517578
 70
   192
  0
VERTEX
  5
34C
330
32B
100
AcDbEntity
  8
Inox
100
AcDbVertex
100
AcDbPolyFaceMeshVertex
 10
-22.79999923706055
 20
-19.59533882141113
 30
138.8000030517578
 70
   192
  0
VERTEX
  5
34D
330
32B
100
AcDbEntity
  8
Inox
100
AcDbVertex
100
AcDbPolyFaceMeshVertex
 10
-22.79999923706055
 20
-14.94766998291016
 30
138.8000030517578
 70
   192
  0
VERTEX
  5
34E
330
32B
100
AcDbEntity
  8
Inox
100
AcDbVertex
100
AcDbPolyFaceMeshVertex
 10
-22.79999923706055
 20
-19.59533882141113
 30
138.8000030517578
 70
   192
  0
VERTEX
  5
34F
330
32B
100
AcDbEntity
  8
Inox
100
AcDbVertex
100
AcDbPolyFaceMeshVertex
 10
-22.79999923706055
 20
-19.76854515075684
 30
138.5
 70
   192
  0
VERTEX
  5
350
330
32B
100
AcDbEntity
  8
Inox
100
AcDbVertex
100
AcDbPolyFaceMeshVertex
 10
-222.1999969482422
 20
-19.76854515075684
 30
138.5
 70
   192
  0
VERTEX
  5
351
330
32B
100
AcDbEntity
  8
Inox
100
AcDbVertex
100
AcDbPolyFaceMeshVertex
 10
-222.1999969482422
 20
-19.59533882141113
 30
138.8000030517578
 70
   192
  0
VERTEX
  5
352
330
32B
100
AcDbEntity
  8
Inox
100
AcDbVertex
100
AcDbPolyFaceMeshVertex
 10
-122.5
 20
-19.76854515075684
 30
138.5
 70
   192
  0
VERTEX
  5
353
330
32B
100
AcDbEntity
  8
Inox
100
AcDbVertex
100
AcDbPolyFaceMeshVertex
 10
-122.5
 20
-19.59533882141113
 30
138.8000030517578
 70
   192
  0
VERTEX
  5
354
330
32B
100
AcDbEntity
  8
Inox
100
AcDbFaceRecord
 10
0.0
 20
0.0
 30
0.0
 70
   128
 71
     1
 72
     5
 73
     6
 74
     4
  0
VERTEX
  5
355
330
32B
100
AcDbEntity
  8
Inox
100
AcDbFaceRecord
 10
0.0
 20
0.0
 30
0.0
 70
   128
 71
     3
 72
     6
 73
     5
 74
     2
  0
VERTEX
  5
356
330
32B
100
AcDbEntity
  8
Inox
100
AcDbFaceRecord
 10
0.0
 20
0.0
 30
0.0
 70
   128
 71
     7
 72
    11
 73
    12
 74
     8
  0
VERTEX
  5
357
330
32B
100
AcDbEntity
  8
Inox
100
AcDbFaceRecord
 10
0.0
 20
0.0
 30
0.0
 70
   128
 71
    10
 72
    12
 73
    11
 74
     9
  0
VERTEX
  5
358
330
32B
100
AcDbEntity
  8
Inox
100
AcDbFaceRecord
 10
0.0
 20
0.0
 30
0.0
 70
   128
 71
    18
 72
    14
 73
    13
 74
    16
  0
VERTEX
  5
359
330
32B
100
AcDbEntity
  8
Inox
100
AcDbFaceRecord
 10
0.0
 20
0.0
 30
0.0
 70
   128
 71
    16
 72
    15
 73
    17
 74
    18
  0
VERTEX
  5
35A
330
32B
100
AcDbEntity
  8
Inox
100
AcDbFaceRecord
 10
0.0
 20
0.0
 30
0.0
 70
   128
 71
    26
 72
    23
 73
    22
 74
    22
  0
VERTEX
  5
35B
330
32B
100
AcDbEntity
  8
Inox
100
AcDbFaceRecord
 10
0.0
 20
0.0
 30
0.0
 70
   128
 71
    23
 72
    20
 73
    22
 74
    22
  0
VERTEX
  5
35C
330
32B
100
AcDbEntity
  8
Inox
100
AcDbFaceRecord
 10
0.0
 20
0.0
 30
0.0
 70
   128
 71
    24
 72
    19
 73
    23
 74
    23
  0
VERTEX
  5
35D
330
32B
100
AcDbEntity
  8
Inox
100
AcDbFaceRecord
 10
0.0
 20
0.0
 30
0.0
 70
   128
 71
    26
 72
    25
 73
    24
 74
    24
  0
VERTEX
  5
35E
330
32B
100
AcDbEntity
  8
Inox
100
AcDbFaceRecord
 10
0.0
 20
0.0
 30
0.0
 70
   128
 71
    26
 72
    22
 73
    21
 74
    21
  0
VERTEX
  5
35F
330
32B
100
AcDbEntity
  8
Inox
100
AcDbFaceRecord
 10
0.0
 20
0.0
 30
0.0
 70
   128
 71
    24
 72
    23
 73
    26
 74
    26
  0
VERTEX
  5
360
330
32B
100
AcDbEntity
  8
Inox
100
AcDbFaceRecord
 10
0.0
 20
0.0
 30
0.0
 70
   128
 71
    32
 72
    30
 73
    31
 74
    31
  0
VERTEX
  5
361
330
32B
100
AcDbEntity
  8
Inox
100
AcDbFaceRecord
 10
0.0
 20
0.0
 30
0.0
 70
   128
 71
    31
 72
    30
 73
    28
 74
    28
  0
VERTEX
  5
362
330
32B
100
AcDbEntity
  8
Inox
100
AcDbFaceRecord
 10
0.0
 20
0.0
 30
0.0
 70
   128
 71
    32
 72
    31
 73
    27
 74
    27
  0
VERTEX
  5
363
330
32B
100
AcDbEntity
  8
Inox
100
AcDbFaceRecord
 10
0.0
 20
0.0
 30
0.0
 70
   128
 71
    34
 72
    32
 73
    33
 74
    33
  0
VERTEX
  5
364
330
32B
100
AcDbEntity
  8
Inox
100
AcDbFaceRecord
 10
0.0
 20
0.0
 30
0.0
 70
   128
 71
    34
 72
    29
 73
    30
 74
    30
  0
VERTEX
  5
365
330
32B
100
AcDbEntity
  8
Inox
100
AcDbFaceRecord
 10
0.0
 20
0.0
 30
0.0
 70
   128
 71
    32
 72
    34
 73
    30
 74
    30
  0
VERTEX
  5
366
330
32B
100
AcDbEntity
  8
Inox
100
AcDbFaceRecord
 10
0.0
 20
0.0
 30
0.0
 70
   128
 71
    35
 72
    40
 73
    39
 74
    36
  0
VERTEX
  5
367
330
32B
100
AcDbEntity
  8
Inox
100
AcDbFaceRecord
 10
0.0
 20
0.0
 30
0.0
 70
   128
 71
    37
 72
    39
 73
    40
 74
    38
  0
SEQEND
  5
368
330
32B
100
AcDbEntity
  8
Inox
  0
POLYLINE
  5
369
330
1F
100
AcDbEntity
  8
Inox
100
AcDbPolyFaceMesh
 66
     1
 10
0.0
 20
0.0
 30
0.0
 70
    64
 71
    30
 72
    14
  0
VERTEX
  5
36A
330
369
100
AcDbEntity
  8
Inox
100
AcDbVertex
100
AcDbPolyFaceMeshVertex
 10
-222.1999969482422
 20
-10.30000019073486
 30
138.5
 70
   192
  0
VERTEX
  5
36B
330
369
100
AcDbEntity
  8
Inox
100
AcDbVertex
100
AcDbPolyFaceMeshVertex
 10
-222.5
 20
-10.30000019073486
 30
138.5
 70
   192
  0
VERTEX
  5
36C
330
369
100
AcDbEntity
  8
Inox
100
AcDbVertex
100
AcDbPolyFaceMeshVertex
 10
-222.1999969482422
 20
-19.76854515075684
 30
138.5
 70
   192
  0
VERTEX
  5
36D
330
369
100
AcDbEntity
  8
Inox
100
AcDbVertex
100
AcDbPolyFaceMeshVertex
 10
-222.5
 20
-19.76854515075684
 30
138.5
 70
   192
  0
VERTEX
  5
36E
330
369
100
AcDbEntity
  8
Inox
100
AcDbVertex
100
AcDbPolyFaceMeshVertex
 10
-222.1999969482422
 20
-15.03427219390869
 30
138.5
 70
   192
  0
VERTEX
  5
36F
330
369
100
AcDbEntity
  8
Inox
100
AcDbVertex
100
AcDbPolyFaceMeshVertex
 10
-222.5
 20
-15.03427219390869
 30
138.5
 70
   192
  0
VERTEX
  5
370
330
369
100
AcDbEntity
  8
Inox
100
AcDbVertex
100
AcDbPolyFaceMeshVertex
 10
-222.1999969482422
 20
-10.30000019073486
 30
138.5
 70
   192
  0
VERTEX
  5
371
330
369
100
AcDbEntity
  8
Inox
100
AcDbVertex
100
AcDbPolyFaceMeshVertex
 10
-222.5
 20
-10.30000019073486
 30
138.5
 70
   192
  0
VERTEX
  5
372
330
369
100
AcDbEntity
  8
Inox
100
AcDbVertex
100
AcDbPolyFaceMeshVertex
 10
-222.5
 20
-10.30000019073486
 30
154.8999938964844
 70
   192
  0
VERTEX
  5
373
330
369
100
AcDbEntity
  8
Inox
100
AcDbVertex
100
AcDbPolyFaceMeshVertex
 10
-222.1999969482422
 20
-10.30000019073486
 30
154.8999938964844
 70
   192
  0
VERTEX
  5
374
330
369
100
AcDbEntity
  8
Inox
100
AcDbVertex
100
AcDbPolyFaceMeshVertex
 10
-222.1999969482422
 20
-10.30000019073486
 30
146.6999969482422
 70
   192
  0
VERTEX
  5
375
330
369
100
AcDbEntity
  8
Inox
100
AcDbVertex
100
AcDbPolyFaceMeshVertex
 10
-222.5
 20
-10.30000019073486
 30
146.6999969482422
 70
   192
  0
VERTEX
  5
376
330
369
100
AcDbEntity
  8
Inox
100
AcDbVertex
100
AcDbPolyFaceMeshVertex
 10
-222.1999969482422
 20
-19.76854515075684
 30
138.5
 70
   192
  0
VERTEX
  5
377
330
369
100
AcDbEntity
  8
Inox
100
AcDbVertex
100
AcDbPolyFaceMeshVertex
 10
-222.1999969482422
 20
-10.30000019073486
 30
154.8999938964844
 70
   192
  0
VERTEX
  5
378
330
369
100
AcDbEntity
  8
Inox
100
AcDbVertex
100
AcDbPolyFaceMeshVertex
 10
-222.1999969482422
 20
-10.30000019073486
 30
138.5
 70
   192
  0
VERTEX
  5
379
330
369
100
AcDbEntity
  8
Inox
100
AcDbVertex
100
AcDbPolyFaceMeshVertex
 10
-222.1999969482422
 20
-15.03427219390869
 30
138.5
 70
   192
  0
VERTEX
  5
37A
330
369
100
AcDbEntity
  8
Inox
100
AcDbVertex
100
AcDbPolyFaceMeshVertex
 10
-222.1999969482422
 20
-15.03427219390869
 30
146.6999969482422
 70
   192
  0
VERTEX
  5
37B
330
369
100
AcDbEntity
  8
Inox
100
AcDbVertex
100
AcDbPolyFaceMeshVertex
 10
-222.1999969482422
 20
-10.30000019073486
 30
146.6999969482422
 70
   192
  0
VERTEX
  5
37C
330
369
100
AcDbEntity
  8
Inox
100
AcDbVertex
100
AcDbPolyFaceMeshVertex
 10
-222.5
 20
-19.76854515075684
 30
138.5
 70
   192
  0
VERTEX
  5
37D
330
369
100
AcDbEntity
  8
Inox
100
AcDbVertex
100
AcDbPolyFaceMeshVertex
 10
-222.5
 20
-10.30000019073486
 30
154.8999938964844
 70
   192
  0
VERTEX
  5
37E
330
369
100
AcDbEntity
  8
Inox
100
AcDbVertex
100
AcDbPolyFaceMeshVertex
 10
-222.5
 20
-10.30000019073486
 30
138.5
 70
   192
  0
VERTEX
  5
37F
330
369
100
AcDbEntity
  8
Inox
100
AcDbVertex
100
AcDbPolyFaceMeshVertex
 10
-222.5
 20
-15.03427219390869
 30
138.5
 70
   192
  0
VERTEX
  5
380
330
369
100
AcDbEntity
  8
Inox
100
AcDbVertex
100
AcDbPolyFaceMeshVertex
 10
-222.5
 20
-10.30000019073486
 30
146.6999969482422
 70
   192
  0
VERTEX
  5
381
330
369
100
AcDbEntity
  8
Inox
100
AcDbVertex
100
AcDbPolyFaceMeshVertex
 10
-222.5
 20
-15.03427219390869
 30
146.6999969482422
 70
   192
  0
VERTEX
  5
382
330
369
100
AcDbEntity
  8
Inox
100
AcDbVertex
100
AcDbPolyFaceMeshVertex
 10
-222.1999969482422
 20
-19.76854515075684
 30
138.5
 70
   192
  0
VERTEX
  5
383
330
369
100
AcDbEntity
  8
Inox
100
AcDbVertex
100
AcDbPolyFaceMeshVertex
 10
-222.5
 20
-10.30000019073486
 30
154.8999938964844
 70
   192
  0
VERTEX
  5
384
330
369
100
AcDbEntity
  8
Inox
100
AcDbVertex
100
AcDbPolyFaceMeshVertex
 10
-222.1999969482422
 20
-10.30000019073486
 30
154.8999938964844
 70
   192
  0
VERTEX
  5
385
330
369
100
AcDbEntity
  8
Inox
100
AcDbVertex
100
AcDbPolyFaceMeshVertex
 10
-222.1999969482422
 20
-15.03427219390869
 30
146.6999969482422
 70
   192
  0
VERTEX
  5
386
330
369
100
AcDbEntity
  8
Inox
100
AcDbVertex
100
AcDbPolyFaceMeshVertex
 10
-222.5
 20
-19.76854515075684
 30
138.5
 70
   192
  0
VERTEX
  5
387
330
369
100
AcDbEntity
  8
Inox
100
AcDbVertex
100
AcDbPolyFaceMeshVertex
 10
-222.5
 20
-15.03427219390869
 30
146.6999969482422
 70
   192
  0
VERTEX
  5
388
330
369
100
AcDbEntity
  8
Inox
100
AcDbFaceRecord
 10
0.0
 20
0.0
 30
0.0
 70
   128
 71
     2
 72
     1
 73
     5
 74
     6
  0
VERTEX
  5
389
330
369
100
AcDbEntity
  8
Inox
100
AcDbFaceRecord
 10
0.0
 20
0.0
 30
0.0
 70
   128
 71
     3
 72
     4
 73
     6
 74
     5
  0
VERTEX
  5
38A
330
369
100
AcDbEntity
  8
Inox
100
AcDbFaceRecord
 10
0.0
 20
0.0
 30
0.0
 70
   128
 71
    10
 72
    11
 73
    12
 74
     9
  0
VERTEX
  5
38B
330
369
100
AcDbEntity
  8
Inox
100
AcDbFaceRecord
 10
0.0
 20
0.0
 30
0.0
 70
   128
 71
     7
 72
     8
 73
    12
 74
    11
  0
VERTEX
  5
38C
330
369
100
AcDbEntity
  8
Inox
100
AcDbFaceRecord
 10
0.0
 20
0.0
 30
0.0
 70
   128
 71
    16
 72
    17
 73
    13
 74
    13
  0
VERTEX
  5
38D
330
369
100
AcDbEntity
  8
Inox
100
AcDbFaceRecord
 10
0.0
 20
0.0
 30
0.0
 70
   128
 71
    15
 72
    17
 73
    16
 74
    16
  0
VERTEX
  5
38E
330
369
100
AcDbEntity
  8
Inox
100
AcDbFaceRecord
 10
0.0
 20
0.0
 30
0.0
 70
   128
 71
    17
 72
    18
 73
    14
 74
    14
  0
VERTEX
  5
38F
330
369
100
AcDbEntity
  8
Inox
100
AcDbFaceRecord
 10
0.0
 20
0.0
 30
0.0
 70
   128
 71
    17
 72
    15
 73
    18
 74
    18
  0
VERTEX
  5
390
330
369
100
AcDbEntity
  8
Inox
100
AcDbFaceRecord
 10
0.0
 20
0.0
 30
0.0
 70
   128
 71
    22
 72
    19
 73
    24
 74
    24
  0
VERTEX
  5
391
330
369
100
AcDbEntity
  8
Inox
100
AcDbFaceRecord
 10
0.0
 20
0.0
 30
0.0
 70
   128
 71
    21
 72
    22
 73
    24
 74
    24
  0
VERTEX
  5
392
330
369
100
AcDbEntity
  8
Inox
100
AcDbFaceRecord
 10
0.0
 20
0.0
 30
0.0
 70
   128
 71
    24
 72
    20
 73
    23
 74
    23
  0
VERTEX
  5
393
330
369
100
AcDbEntity
  8
Inox
100
AcDbFaceRecord
 10
0.0
 20
0.0
 30
0.0
 70
   128
 71
    24
 72
    23
 73
    21
 74
    21
  0
VERTEX
  5
394
330
369
100
AcDbEntity
  8
Inox
100
AcDbFaceRecord
 10
0.0
 20
0.0
 30
0.0
 70
   128
 71
    28
 72
    30
 73
    29
 74
    25
  0
VERTEX
  5
395
330
369
100
AcDbEntity
  8
Inox
100
AcDbFaceRecord
 10
0.0
 20
0.0
 30
0.0
 70
   128
 71
    27
 72
    26
 73
    30
 74
    28
  0
SEQEND
  5
396
330
369
100
AcDbEntity
  8
Inox
  0
POLYLINE
  5
397
330
1F
100
AcDbEntity
  8
Inox
100
AcDbPolyFaceMesh
 66
     1
 10
0.0
 20
0.0
 30
0.0
 70
    64
 71
    30
 72
    14
  0
VERTEX
  5
398
330
397
100
AcDbEntity
  8
Inox
100
AcDbVertex
100
AcDbPolyFaceMeshVertex
 10
-22.79999923706055
 20
-10.30000019073486
 30
138.5
 70
   192
  0
VERTEX
  5
399
330
397
100
AcDbEntity
  8
Inox
100
AcDbVertex
100
AcDbPolyFaceMeshVertex
 10
-22.5
 20
-10.30000019073486
 30
138.5
 70
   192
  0
VERTEX
  5
39A
330
397
100
AcDbEntity
  8
Inox
100
AcDbVertex
100
AcDbPolyFaceMeshVertex
 10
-22.79999923706055
 20
-10.30000019073486
 30
146.6999969482422
 70
   192
  0
VERTEX
  5
39B
330
397
100
AcDbEntity
  8
Inox
100
AcDbVertex
100
AcDbPolyFaceMeshVertex
 10
-22.79999923706055
 20
-10.30000019073486
 30
154.8999938964844
 70
   192
  0
VERTEX
  5
39C
330
397
100
AcDbEntity
  8
Inox
100
AcDbVertex
100
AcDbPolyFaceMeshVertex
 10
-22.5
 20
-10.30000019073486
 30
154.8999938964844
 70
   192
  0
VERTEX
  5
39D
330
397
100
AcDbEntity
  8
Inox
100
AcDbVertex
100
AcDbPolyFaceMeshVertex
 10
-22.5
 20
-10.30000019073486
 30
146.6999969482422
 70
   192
  0
VERTEX
  5
39E
330
397
100
AcDbEntity
  8
Inox
100
AcDbVertex
100
AcDbPolyFaceMeshVertex
 10
-22.79999923706055
 20
-19.76854515075684
 30
138.5
 70
   192
  0
VERTEX
  5
39F
330
397
100
AcDbEntity
  8
Inox
100
AcDbVertex
100
AcDbPolyFaceMeshVertex
 10
-22.79999923706055
 20
-10.30000019073486
 30
138.5
 70
   192
  0
VERTEX
  5
3A0
330
397
100
AcDbEntity
  8
Inox
100
AcDbVertex
100
AcDbPolyFaceMeshVertex
 10
-22.5
 20
-10.30000019073486
 30
138.5
 70
   192
  0
VERTEX
  5
3A1
330
397
100
AcDbEntity
  8
Inox
100
AcDbVertex
100
AcDbPolyFaceMeshVertex
 10
-22.5
 20
-19.76854515075684
 30
138.5
 70
   192
  0
VERTEX
  5
3A2
330
397
100
AcDbEntity
  8
Inox
100
AcDbVertex
100
AcDbPolyFaceMeshVertex
 10
-22.79999923706055
 20
-15.03427219390869
 30
138.5
 70
   192
  0
VERTEX
  5
3A3
330
397
100
AcDbEntity
  8
Inox
100
AcDbVertex
100
AcDbPolyFaceMeshVertex
 10
-22.5
 20
-15.03427219390869
 30
138.5
 70
   192
  0
VERTEX
  5
3A4
330
397
100
AcDbEntity
  8
Inox
100
AcDbVertex
100
AcDbPolyFaceMeshVertex
 10
-22.79999923706055
 20
-10.30000019073486
 30
154.8999938964844
 70
   192
  0
VERTEX
  5
3A5
330
397
100
AcDbEntity
  8
Inox
100
AcDbVertex
100
AcDbPolyFaceMeshVertex
 10
-22.79999923706055
 20
-19.76854515075684
 30
138.5
 70
   192
  0
VERTEX
  5
3A6
330
397
100
AcDbEntity
  8
Inox
100
AcDbVertex
100
AcDbPolyFaceMeshVertex
 10
-22.79999923706055
 20
-10.30000019073486
 30
138.5
 70
   192
  0
VERTEX
  5
3A7
330
397
100
AcDbEntity
  8
Inox
100
AcDbVertex
100
AcDbPolyFaceMeshVertex
 10
-22.79999923706055
 20
-10.30000019073486
 30
146.6999969482422
 70
   192
  0
VERTEX
  5
3A8
330
397
100
AcDbEntity
  8
Inox
100
AcDbVertex
100
AcDbPolyFaceMeshVertex
 10
-22.79999923706055
 20
-15.03427219390869
 30
146.6999969482422
 70
   192
  0
VERTEX
  5
3A9
330
397
100
AcDbEntity
  8
Inox
100
AcDbVertex
100
AcDbPolyFaceMeshVertex
 10
-22.79999923706055
 20
-15.03427219390869
 30
138.5
 70
   192
  0
VERTEX
  5
3AA
330
397
100
AcDbEntity
  8
Inox
100
AcDbVertex
100
AcDbPolyFaceMeshVertex
 10
-22.5
 20
-10.30000019073486
 30
154.8999938964844
 70
   192
  0
VERTEX
  5
3AB
330
397
100
AcDbEntity
  8
Inox
100
AcDbVertex
100
AcDbPolyFaceMeshVertex
 10
-22.5
 20
-19.76854515075684
 30
138.5
 70
   192
  0
VERTEX
  5
3AC
330
397
100
AcDbEntity
  8
Inox
100
AcDbVertex
100
AcDbPolyFaceMeshVertex
 10
-22.5
 20
-10.30000019073486
 30
138.5
 70
   192
  0
VERTEX
  5
3AD
330
397
100
AcDbEntity
  8
Inox
100
AcDbVertex
100
AcDbPolyFaceMeshVertex
 10
-22.5
 20
-10.30000019073486
 30
146.6999969482422
 70
   192
  0
VERTEX
  5
3AE
330
397
100
AcDbEntity
  8
Inox
100
AcDbVertex
100
AcDbPolyFaceMeshVertex
 10
-22.5
 20
-15.03427219390869
 30
138.5
 70
   192
  0
VERTEX
  5
3AF
330
397
100
AcDbEntity
  8
Inox
100
AcDbVertex
100
AcDbPolyFaceMeshVertex
 10
-22.5
 20
-15.03427219390869
 30
146.6999969482422
 70
   192
  0
VERTEX
  5
3B0
330
397
100
AcDbEntity
  8
Inox
100
AcDbVertex
100
AcDbPolyFaceMeshVertex
 10
-22.79999923706055
 20
-19.76854515075684
 30
138.5
 70
   192
  0
VERTEX
  5
3B1
330
397
100
AcDbEntity
  8
Inox
100
AcDbVertex
100
AcDbPolyFaceMeshVertex
 10
-22.79999923706055
 20
-10.30000019073486
 30
154.8999938964844
 70
   192
  0
VERTEX
  5
3B2
330
397
100
AcDbEntity
  8
Inox
100
AcDbVertex
100
AcDbPolyFaceMeshVertex
 10
-22.5
 20
-19.76854515075684
 30
138.5
 70
   192
  0
VERTEX
  5
3B3
330
397
100
AcDbEntity
  8
Inox
100
AcDbVertex
100
AcDbPolyFaceMeshVertex
 10
-22.79999923706055
 20
-15.03427219390869
 30
146.6999969482422
 70
   192
  0
VERTEX
  5
3B4
330
397
100
AcDbEntity
  8
Inox
100
AcDbVertex
100
AcDbPolyFaceMeshVertex
 10
-22.5
 20
-10.30000019073486
 30
154.8999938964844
 70
   192
  0
VERTEX
  5
3B5
330
397
100
AcDbEntity
  8
Inox
100
AcDbVertex
100
AcDbPolyFaceMeshVertex
 10
-22.5
 20
-15.03427219390869
 30
146.6999969482422
 70
   192
  0
VERTEX
  5
3B6
330
397
100
AcDbEntity
  8
Inox
100
AcDbFaceRecord
 10
0.0
 20
0.0
 30
0.0
 70
   128
 71
     6
 72
     2
 73
     1
 74
     3
  0
VERTEX
  5
3B7
330
397
100
AcDbEntity
  8
Inox
100
AcDbFaceRecord
 10
0.0
 20
0.0
 30
0.0
 70
   128
 71
     3
 72
     4
 73
     5
 74
     6
  0
VERTEX
  5
3B8
330
397
100
AcDbEntity
  8
Inox
100
AcDbFaceRecord
 10
0.0
 20
0.0
 30
0.0
 70
   128
 71
     7
 72
    11
 73
    12
 74
    10
  0
VERTEX
  5
3B9
330
397
100
AcDbEntity
  8
Inox
100
AcDbFaceRecord
 10
0.0
 20
0.0
 30
0.0
 70
   128
 71
     9
 72
    12
 73
    11
 74
     8
  0
VERTEX
  5
3BA
330
397
100
AcDbEntity
  8
Inox
100
AcDbFaceRecord
 10
0.0
 20
0.0
 30
0.0
 70
   128
 71
    17
 72
    13
 73
    16
 74
    16
  0
VERTEX
  5
3BB
330
397
100
AcDbEntity
  8
Inox
100
AcDbFaceRecord
 10
0.0
 20
0.0
 30
0.0
 70
   128
 71
    17
 72
    16
 73
    15
 74
    15
  0
VERTEX
  5
3BC
330
397
100
AcDbEntity
  8
Inox
100
AcDbFaceRecord
 10
0.0
 20
0.0
 30
0.0
 70
   128
 71
    14
 72
    17
 73
    18
 74
    18
  0
VERTEX
  5
3BD
330
397
100
AcDbEntity
  8
Inox
100
AcDbFaceRecord
 10
0.0
 20
0.0
 30
0.0
 70
   128
 71
    15
 72
    18
 73
    17
 74
    17
  0
VERTEX
  5
3BE
330
397
100
AcDbEntity
  8
Inox
100
AcDbFaceRecord
 10
0.0
 20
0.0
 30
0.0
 70
   128
 71
    24
 72
    22
 73
    19
 74
    19
  0
VERTEX
  5
3BF
330
397
100
AcDbEntity
  8
Inox
100
AcDbFaceRecord
 10
0.0
 20
0.0
 30
0.0
 70
   128
 71
    24
 72
    21
 73
    22
 74
    22
  0
VERTEX
  5
3C0
330
397
100
AcDbEntity
  8
Inox
100
AcDbFaceRecord
 10
0.0
 20
0.0
 30
0.0
 70
   128
 71
    20
 72
    23
 73
    24
 74
    24
  0
VERTEX
  5
3C1
330
397
100
AcDbEntity
  8
Inox
100
AcDbFaceRecord
 10
0.0
 20
0.0
 30
0.0
 70
   128
 71
    21
 72
    24
 73
    23
 74
    23
  0
VERTEX
  5
3C2
330
397
100
AcDbEntity
  8
Inox
100
AcDbFaceRecord
 10
0.0
 20
0.0
 30
0.0
 70
   128
 71
    30
 72
    28
 73
    25
 74
    27
  0
VERTEX
  5
3C3
330
397
100
AcDbEntity
  8
Inox
100
AcDbFaceRecord
 10
0.0
 20
0.0
 30
0.0
 70
   128
 71
    29
 72
    26
 73
    28
 74
    30
  0
SEQEND
  5
3C4
330
397
100
AcDbEntity
  8
Inox
  0
POLYLINE
  5
3C5
330
1F
100
AcDbEntity
  8
Inox
100
AcDbPolyFaceMesh
 66
     1
 10
0.0
 20
0.0
 30
0.0
 70
    64
 71
    40
 72
    20
  0
VERTEX
  5
3C6
330
3C5
100
AcDbEntity
  8
Inox
100
AcDbVertex
100
AcDbPolyFaceMeshVertex
 10
-22.5
 20
-25.29999923706055
 30
129.5192413330078
 70
   192
  0
VERTEX
  5
3C7
330
3C5
100
AcDbEntity
  8
Inox
100
AcDbVertex
100
AcDbPolyFaceMeshVertex
 10
-22.5
 20
-25.04019165039062
 30
129.3692321777344
 70
   192
  0
VERTEX
  5
3C8
330
3C5
100
AcDbEntity
  8
Inox
100
AcDbVertex
100
AcDbPolyFaceMeshVertex
 10
-222.5
 20
-25.29999923706055
 30
129.5192413330078
 70
   192
  0
VERTEX
  5
3C9
330
3C5
100
AcDbEntity
  8
Inox
100
AcDbVertex
100
AcDbPolyFaceMeshVertex
 10
-222.5
 20
-25.04019165039062
 30
129.3692321777344
 70
   192
  0
VERTEX
  5
3CA
330
3C5
100
AcDbEntity
  8
Inox
100
AcDbVertex
100
AcDbPolyFaceMeshVertex
 10
-122.5
 20
-25.29999923706055
 30
129.5192413330078
 70
   192
  0
VERTEX
  5
3CB
330
3C5
100
AcDbEntity
  8
Inox
100
AcDbVertex
100
AcDbPolyFaceMeshVertex
 10
-122.5
 20
-25.04019165039062
 30
129.3692321777344
 70
   192
  0
VERTEX
  5
3CC
330
3C5
100
AcDbEntity
  8
Inox
100
AcDbVertex
100
AcDbPolyFaceMeshVertex
 10
-22.5
 20
-25.29999923706055
 30
129.5192413330078
 70
   192
  0
VERTEX
  5
3CD
330
3C5
100
AcDbEntity
  8
Inox
100
AcDbVertex
100
AcDbPolyFaceMeshVertex
 10
-22.5
 20
-10.30000019073486
 30
155.5
 70
   192
  0
VERTEX
  5
3CE
330
3C5
100
AcDbEntity
  8
Inox
100
AcDbVertex
100
AcDbPolyFaceMeshVertex
 10
-222.5
 20
-25.29999923706055
 30
129.5192413330078
 70
   192
  0
VERTEX
  5
3CF
330
3C5
100
AcDbEntity
  8
Inox
100
AcDbVertex
100
AcDbPolyFaceMeshVertex
 10
-222.5
 20
-10.30000019073486
 30
155.5
 70
   192
  0
VERTEX
  5
3D0
330
3C5
100
AcDbEntity
  8
Inox
100
AcDbVertex
100
AcDbPolyFaceMeshVertex
 10
-222.5
 20
-17.79999923706055
 30
142.5096130371094
 70
   192
  0
VERTEX
  5
3D1
330
3C5
100
AcDbEntity
  8
Inox
100
AcDbVertex
100
AcDbPolyFaceMeshVertex
 10
-122.5
 20
-10.30000019073486
 30
155.5
 70
   192
  0
VERTEX
  5
3D2
330
3C5
100
AcDbEntity
  8
Inox
100
AcDbVertex
100
AcDbPolyFaceMeshVertex
 10
-22.5
 20
-17.79999923706055
 30
142.5096130371094
 70
   192
  0
VERTEX
  5
3D3
330
3C5
100
AcDbEntity
  8
Inox
100
AcDbVertex
100
AcDbPolyFaceMeshVertex
 10
-122.5
 20
-25.29999923706055
 30
129.5192413330078
 70
   192
  0
VERTEX
  5
3D4
330
3C5
100
AcDbEntity
  8
Inox
100
AcDbVertex
100
AcDbPolyFaceMeshVertex
 10
-222.5
 20
-25.29999923706055
 30
129.5192413330078
 70
   192
  0
VERTEX
  5
3D5
330
3C5
100
AcDbEntity
  8
Inox
100
AcDbVertex
100
AcDbPolyFaceMeshVertex
 10
-222.5
 20
-25.04019165039062
 30
129.3692321777344
 70
   192
  0
VERTEX
  5
3D6
330
3C5
100
AcDbEntity
  8
Inox
100
AcDbVertex
100
AcDbPolyFaceMeshVertex
 10
-222.5
 20
-10.30000019073486
 30
155.5
 70
   192
  0
VERTEX
  5
3D7
330
3C5
100
AcDbEntity
  8
Inox
100
AcDbVertex
100
AcDbPolyFaceMeshVertex
 10
-222.5
 20
-17.79999923706055
 30
142.5096130371094
 70
   192
  0
VERTEX
  5
3D8
330
3C5
100
AcDbEntity
  8
Inox
100
AcDbVertex
100
AcDbPolyFaceMeshVertex
 10
-222.5
 20
-10.30000019073486
 30
154.8999938964844
 70
   192
  0
VERTEX
  5
3D9
330
3C5
100
AcDbEntity
  8
Inox
100
AcDbVertex
100
AcDbPolyFaceMeshVertex
 10
-222.5
 20
-17.67009544372559
 30
142.1346130371094
 70
   192
  0
VERTEX
  5
3DA
330
3C5
100
AcDbEntity
  8
Inox
100
AcDbVertex
100
AcDbPolyFaceMeshVertex
 10
-22.5
 20
-10.30000019073486
 30
155.5
 70
   192
  0
VERTEX
  5
3DB
330
3C5
100
AcDbEntity
  8
Inox
100
AcDbVertex
100
AcDbPolyFaceMeshVertex
 10
-22.5
 20
-25.29999923706055
 30
129.5192413330078
 70
   192
  0
VERTEX
  5
3DC
330
3C5
100
AcDbEntity
  8
Inox
100
AcDbVertex
100
AcDbPolyFaceMeshVertex
 10
-22.5
 20
-25.04019165039062
 30
129.3692321777344
 70
   192
  0
VERTEX
  5
3DD
330
3C5
100
AcDbEntity
  8
Inox
100
AcDbVertex
100
AcDbPolyFaceMeshVertex
 10
-22.5
 20
-17.79999923706055
 30
142.5096130371094
 70
   192
  0
VERTEX
  5
3DE
330
3C5
100
AcDbEntity
  8
Inox
100
AcDbVertex
100
AcDbPolyFaceMeshVertex
 10
-22.5
 20
-17.67009544372559
 30
142.1346130371094
 70
   192
  0
VERTEX
  5
3DF
330
3C5
100
AcDbEntity
  8
Inox
100
AcDbVertex
100
AcDbPolyFaceMeshVertex
 10
-22.5
 20
-10.30000019073486
 30
154.8999938964844
 70
   192
  0
VERTEX
  5
3E0
330
3C5
100
AcDbEntity
  8
Inox
100
AcDbVertex
100
AcDbPolyFaceMeshVertex
 10
-22.5
 20
-25.04019165039062
 30
129.3692321777344
 70
   192
  0
VERTEX
  5
3E1
330
3C5
100
AcDbEntity
  8
Inox
100
AcDbVertex
100
AcDbPolyFaceMeshVertex
 10
-22.5
 20
-10.30000019073486
 30
154.8999938964844
 70
   192
  0
VERTEX
  5
3E2
330
3C5
100
AcDbEntity
  8
Inox
100
AcDbVertex
100
AcDbPolyFaceMeshVertex
 10
-222.5
 20
-25.04019165039062
 30
129.3692321777344
 70
   192
  0
VERTEX
  5
3E3
330
3C5
100
AcDbEntity
  8
Inox
100
AcDbVertex
100
AcDbPolyFaceMeshVertex
 10
-222.5
 20
-17.67009544372559
 30
142.1346130371094
 70
   192
  0
VERTEX
  5
3E4
330
3C5
100
AcDbEntity
  8
Inox
100
AcDbVertex
100
AcDbPolyFaceMeshVertex
 10
-122.5
 20
-25.04019165039062
 30
129.3692321777344
 70
   192
  0
VERTEX
  5
3E5
330
3C5
100
AcDbEntity
  8
Inox
100
AcDbVertex
100
AcDbPolyFaceMeshVertex
 10
-222.5
 20
-10.30000019073486
 30
154.8999938964844
 70
   192
  0
VERTEX
  5
3E6
330
3C5
100
AcDbEntity
  8
Inox
100
AcDbVertex
100
AcDbPolyFaceMeshVertex
 10
-122.5
 20
-10.30000019073486
 30
154.8999938964844
 70
   192
  0
VERTEX
  5
3E7
330
3C5
100
AcDbEntity
  8
Inox
100
AcDbVertex
100
AcDbPolyFaceMeshVertex
 10
-22.5
 20
-17.67009544372559
 30
142.1346130371094
 70
   192
  0
VERTEX
  5
3E8
330
3C5
100
AcDbEntity
  8
Inox
100
AcDbVertex
100
AcDbPolyFaceMeshVertex
 10
-22.5
 20
-10.30000019073486
 30
155.5
 70
   192
  0
VERTEX
  5
3E9
330
3C5
100
AcDbEntity
  8
Inox
100
AcDbVertex
100
AcDbPolyFaceMeshVertex
 10
-222.5
 20
-10.30000019073486
 30
154.8999938964844
 70
   192
  0
VERTEX
  5
3EA
330
3C5
100
AcDbEntity
  8
Inox
100
AcDbVertex
100
AcDbPolyFaceMeshVertex
 10
-222.5
 20
-10.30000019073486
 30
155.5
 70
   192
  0
VERTEX
  5
3EB
330
3C5
100
AcDbEntity
  8
Inox
100
AcDbVertex
100
AcDbPolyFaceMeshVertex
 10
-122.5
 20
-10.30000019073486
 30
155.5
 70
   192
  0
VERTEX
  5
3EC
330
3C5
100
AcDbEntity
  8
Inox
100
AcDbVertex
100
AcDbPolyFaceMeshVertex
 10
-22.5
 20
-10.30000019073486
 30
154.8999938964844
 70
   192
  0
VERTEX
  5
3ED
330
3C5
100
AcDbEntity
  8
Inox
100
AcDbVertex
100
AcDbPolyFaceMeshVertex
 10
-122.5
 20
-10.30000019073486
 30
154.8999938964844
 70
   192
  0
VERTEX
  5
3EE
330
3C5
100
AcDbEntity
  8
Inox
100
AcDbFaceRecord
 10
0.0
 20
0.0
 30
0.0
 70
   128
 71
     2
 72
     1
 73
     5
 74
     6
  0
VERTEX
  5
3EF
330
3C5
100
AcDbEntity
  8
Inox
100
AcDbFaceRecord
 10
0.0
 20
0.0
 30
0.0
 70
   128
 71
     3
 72
     4
 73
     6
 74
     5
  0
VERTEX
  5
3F0
330
3C5
100
AcDbEntity
  8
Inox
100
AcDbFaceRecord
 10
0.0
 20
0.0
 30
0.0
 70
   128
 71
    13
 72
    14
 73
     7
 74
     7
  0
VERTEX
  5
3F1
330
3C5
100
AcDbEntity
  8
Inox
100
AcDbFaceRecord
 10
0.0
 20
0.0
 30
0.0
 70
   128
 71
    13
 72
     8
 73
    12
 74
    12
  0
VERTEX
  5
3F2
330
3C5
100
AcDbEntity
  8
Inox
100
AcDbFaceRecord
 10
0.0
 20
0.0
 30
0.0
 70
   128
 71
    11
 72
    14
 73
    13
 74
    13
  0
VERTEX
  5
3F3
330
3C5
100
AcDbEntity
  8
Inox
100
AcDbFaceRecord
 10
0.0
 20
0.0
 30
0.0
 70
   128
 71
    13
 72
    12
 73
    11
 74
    11
  0
VERTEX
  5
3F4
330
3C5
100
AcDbEntity
  8
Inox
100
AcDbFaceRecord
 10
0.0
 20
0.0
 30
0.0
 70
   128
 71
    11
 72
    12
 73
    10
 74
    10
  0
VERTEX
  5
3F5
330
3C5
100
AcDbEntity
  8
Inox
100
AcDbFaceRecord
 10
0.0
 20
0.0
 30
0.0
 70
   128
 71
     9
 72
    14
 73
    11
 74
    11
  0
VERTEX
  5
3F6
330
3C5
100
AcDbEntity
  8
Inox
100
AcDbFaceRecord
 10
0.0
 20
0.0
 30
0.0
 70
   128
 71
    20
 72
    16
 73
    15
 74
    18
  0
VERTEX
  5
3F7
330
3C5
100
AcDbEntity
  8
Inox
100
AcDbFaceRecord
 10
0.0
 20
0.0
 30
0.0
 70
   128
 71
    18
 72
    17
 73
    19
 74
    20
  0
VERTEX
  5
3F8
330
3C5
100
AcDbEntity
  8
Inox
100
AcDbFaceRecord
 10
0.0
 20
0.0
 30
0.0
 70
   128
 71
    21
 72
    24
 73
    25
 74
    26
  0
VERTEX
  5
3F9
330
3C5
100
AcDbEntity
  8
Inox
100
AcDbFaceRecord
 10
0.0
 20
0.0
 30
0.0
 70
   128
 71
    23
 72
    25
 73
    24
 74
    22
  0
VERTEX
  5
3FA
330
3C5
100
AcDbEntity
  8
Inox
100
AcDbFaceRecord
 10
0.0
 20
0.0
 30
0.0
 70
   128
 71
    34
 72
    27
 73
    31
 74
    31
  0
VERTEX
  5
3FB
330
3C5
100
AcDbEntity
  8
Inox
100
AcDbFaceRecord
 10
0.0
 20
0.0
 30
0.0
 70
   128
 71
    34
 72
    33
 73
    28
 74
    28
  0
VERTEX
  5
3FC
330
3C5
100
AcDbEntity
  8
Inox
100
AcDbFaceRecord
 10
0.0
 20
0.0
 30
0.0
 70
   128
 71
    30
 72
    34
 73
    31
 74
    31
  0
VERTEX
  5
3FD
330
3C5
100
AcDbEntity
  8
Inox
100
AcDbFaceRecord
 10
0.0
 20
0.0
 30
0.0
 70
   128
 71
    34
 72
    30
 73
    33
 74
    33
  0
VERTEX
  5
3FE
330
3C5
100
AcDbEntity
  8
Inox
100
AcDbFaceRecord
 10
0.0
 20
0.0
 30
0.0
 70
   128
 71
    30
 72
    32
 73
    33
 74
    33
  0
VERTEX
  5
3FF
330
3C5
100
AcDbEntity
  8
Inox
100
AcDbFaceRecord
 10
0.0
 20
0.0
 30
0.0
 70
   128
 71
    29
 72
    30
 73
    31
 74
    31
  0
VERTEX
  5
400
330
3C5
100
AcDbEntity
  8
Inox
100
AcDbFaceRecord
 10
0.0
 20
0.0
 30
0.0
 70
   128
 71
    35
 72
    39
 73
    40
 74
    38
  0
VERTEX
  5
401
330
3C5
100
AcDbEntity
  8
Inox
100
AcDbFaceRecord
 10
0.0
 20
0.0
 30
0.0
 70
   128
 71
    36
 72
    37
 73
    38
 74
    40
  0
SEQEND
  5
402
330
3C5
100
AcDbEntity
  8
Inox
  0
POLYLINE
  5
403
330
1F
100
AcDbEntity
  8
Inox
100
AcDbPolyFaceMesh
 66
     1
 10
0.0
 20
0.0
 30
0.0
 70
    64
 71
    40
 72
    20
  0
VERTEX
  5
404
330
403
100
AcDbEntity
  8
Inox
100
AcDbVertex
100
AcDbPolyFaceMeshVertex
 10
-22.5
 20
-25.29999923706055
 30
339.5192260742188
 70
   192
  0
VERTEX
  5
405
330
403
100
AcDbEntity
  8
Inox
100
AcDbVertex
100
AcDbPolyFaceMeshVertex
 10
-22.5
 20
-25.04019165039062
 30
339.3692321777344
 70
   192
  0
VERTEX
  5
406
330
403
100
AcDbEntity
  8
Inox
100
AcDbVertex
100
AcDbPolyFaceMeshVertex
 10
-222.5
 20
-25.29999923706055
 30
339.5192260742188
 70
   192
  0
VERTEX
  5
407
330
403
100
AcDbEntity
  8
Inox
100
AcDbVertex
100
AcDbPolyFaceMeshVertex
 10
-222.5
 20
-25.04019165039062
 30
339.3692321777344
 70
   192
  0
VERTEX
  5
408
330
403
100
AcDbEntity
  8
Inox
100
AcDbVertex
100
AcDbPolyFaceMeshVertex
 10
-122.5
 20
-25.29999923706055
 30
339.5192260742188
 70
   192
  0
VERTEX
  5
409
330
403
100
AcDbEntity
  8
Inox
100
AcDbVertex
100
AcDbPolyFaceMeshVertex
 10
-122.5
 20
-25.04019165039062
 30
339.3692321777344
 70
   192
  0
VERTEX
  5
40A
330
403
100
AcDbEntity
  8
Inox
100
AcDbVertex
100
AcDbPolyFaceMeshVertex
 10
-22.5
 20
-25.29999923706055
 30
339.5192260742188
 70
   192
  0
VERTEX
  5
40B
330
403
100
AcDbEntity
  8
Inox
100
AcDbVertex
100
AcDbPolyFaceMeshVertex
 10
-22.5
 20
-10.30000019073486
 30
365.5
 70
   192
  0
VERTEX
  5
40C
330
403
100
AcDbEntity
  8
Inox
100
AcDbVertex
100
AcDbPolyFaceMeshVertex
 10
-222.5
 20
-25.29999923706055
 30
339.5192260742188
 70
   192
  0
VERTEX
  5
40D
330
403
100
AcDbEntity
  8
Inox
100
AcDbVertex
100
AcDbPolyFaceMeshVertex
 10
-222.5
 20
-10.30000019073486
 30
365.5
 70
   192
  0
VERTEX
  5
40E
330
403
100
AcDbEntity
  8
Inox
100
AcDbVertex
100
AcDbPolyFaceMeshVertex
 10
-222.5
 20
-17.79999923706055
 30
352.5096130371094
 70
   192
  0
VERTEX
  5
40F
330
403
100
AcDbEntity
  8
Inox
100
AcDbVertex
100
AcDbPolyFaceMeshVertex
 10
-122.5
 20
-10.30000019073486
 30
365.5
 70
   192
  0
VERTEX
  5
410
330
403
100
AcDbEntity
  8
Inox
100
AcDbVertex
100
AcDbPolyFaceMeshVertex
 10
-22.5
 20
-17.79999923706055
 30
352.5096130371094
 70
   192
  0
VERTEX
  5
411
330
403
100
AcDbEntity
  8
Inox
100
AcDbVertex
100
AcDbPolyFaceMeshVertex
 10
-122.5
 20
-25.29999923706055
 30
339.5192260742188
 70
   192
  0
VERTEX
  5
412
330
403
100
AcDbEntity
  8
Inox
100
AcDbVertex
100
AcDbPolyFaceMeshVertex
 10
-222.5
 20
-25.29999923706055
 30
339.5192260742188
 70
   192
  0
VERTEX
  5
413
330
403
100
AcDbEntity
  8
Inox
100
AcDbVertex
100
AcDbPolyFaceMeshVertex
 10
-222.5
 20
-25.04019165039062
 30
339.3692321777344
 70
   192
  0
VERTEX
  5
414
330
403
100
AcDbEntity
  8
Inox
100
AcDbVertex
100
AcDbPolyFaceMeshVertex
 10
-222.5
 20
-10.30000019073486
 30
365.5
 70
   192
  0
VERTEX
  5
415
330
403
100
AcDbEntity
  8
Inox
100
AcDbVertex
100
AcDbPolyFaceMeshVertex
 10
-222.5
 20
-17.79999923706055
 30
352.5096130371094
 70
   192
  0
VERTEX
  5
416
330
403
100
AcDbEntity
  8
Inox
100
AcDbVertex
100
AcDbPolyFaceMeshVertex
 10
-222.5
 20
-10.30000019073486
 30
364.8999938964844
 70
   192
  0
VERTEX
  5
417
330
403
100
AcDbEntity
  8
Inox
100
AcDbVertex
100
AcDbPolyFaceMeshVertex
 10
-222.5
 20
-17.67009544372559
 30
352.1346130371094
 70
   192
  0
VERTEX
  5
418
330
403
100
AcDbEntity
  8
Inox
100
AcDbVertex
100
AcDbPolyFaceMeshVertex
 10
-22.5
 20
-10.30000019073486
 30
365.5
 70
   192
  0
VERTEX
  5
419
330
403
100
AcDbEntity
  8
Inox
100
AcDbVertex
100
AcDbPolyFaceMeshVertex
 10
-22.5
 20
-25.29999923706055
 30
339.5192260742188
 70
   192
  0
VERTEX
  5
41A
330
403
100
AcDbEntity
  8
Inox
100
AcDbVertex
100
AcDbPolyFaceMeshVertex
 10
-22.5
 20
-25.04019165039062
 30
339.3692321777344
 70
   192
  0
VERTEX
  5
41B
330
403
100
AcDbEntity
  8
Inox
100
AcDbVertex
100
AcDbPolyFaceMeshVertex
 10
-22.5
 20
-17.79999923706055
 30
352.5096130371094
 70
   192
  0
VERTEX
  5
41C
330
403
100
AcDbEntity
  8
Inox
100
AcDbVertex
100
AcDbPolyFaceMeshVertex
 10
-22.5
 20
-17.67009544372559
 30
352.1346130371094
 70
   192
  0
VERTEX
  5
41D
330
403
100
AcDbEntity
  8
Inox
100
AcDbVertex
100
AcDbPolyFaceMeshVertex
 10
-22.5
 20
-10.30000019073486
 30
364.8999938964844
 70
   192
  0
VERTEX
  5
41E
330
403
100
AcDbEntity
  8
Inox
100
AcDbVertex
100
AcDbPolyFaceMeshVertex
 10
-22.5
 20
-25.04019165039062
 30
339.3692321777344
 70
   192
  0
VERTEX
  5
41F
330
403
100
AcDbEntity
  8
Inox
100
AcDbVertex
100
AcDbPolyFaceMeshVertex
 10
-22.5
 20
-10.30000019073486
 30
364.8999938964844
 70
   192
  0
VERTEX
  5
420
330
403
100
AcDbEntity
  8
Inox
100
AcDbVertex
100
AcDbPolyFaceMeshVertex
 10
-222.5
 20
-25.04019165039062
 30
339.3692321777344
 70
   192
  0
VERTEX
  5
421
330
403
100
AcDbEntity
  8
Inox
100
AcDbVertex
100
AcDbPolyFaceMeshVertex
 10
-222.5
 20
-17.67009544372559
 30
352.1346130371094
 70
   192
  0
VERTEX
  5
422
330
403
100
AcDbEntity
  8
Inox
100
AcDbVertex
100
AcDbPolyFaceMeshVertex
 10
-122.5
 20
-25.04019165039062
 30
339.3692321777344
 70
   192
  0
VERTEX
  5
423
330
403
100
AcDbEntity
  8
Inox
100
AcDbVertex
100
AcDbPolyFaceMeshVertex
 10
-222.5
 20
-10.30000019073486
 30
364.8999938964844
 70
   192
  0
VERTEX
  5
424
330
403
100
AcDbEntity
  8
Inox
100
AcDbVertex
100
AcDbPolyFaceMeshVertex
 10
-122.5
 20
-10.30000019073486
 30
364.8999938964844
 70
   192
  0
VERTEX
  5
425
330
403
100
AcDbEntity
  8
Inox
100
AcDbVertex
100
AcDbPolyFaceMeshVertex
 10
-22.5
 20
-17.67009544372559
 30
352.1346130371094
 70
   192
  0
VERTEX
  5
426
330
403
100
AcDbEntity
  8
Inox
100
AcDbVertex
100
AcDbPolyFaceMeshVertex
 10
-22.5
 20
-10.30000019073486
 30
365.5
 70
   192
  0
VERTEX
  5
427
330
403
100
AcDbEntity
  8
Inox
100
AcDbVertex
100
AcDbPolyFaceMeshVertex
 10
-222.5
 20
-10.30000019073486
 30
364.8999938964844
 70
   192
  0
VERTEX
  5
428
330
403
100
AcDbEntity
  8
Inox
100
AcDbVertex
100
AcDbPolyFaceMeshVertex
 10
-222.5
 20
-10.30000019073486
 30
365.5
 70
   192
  0
VERTEX
  5
429
330
403
100
AcDbEntity
  8
Inox
100
AcDbVertex
100
AcDbPolyFaceMeshVertex
 10
-122.5
 20
-10.30000019073486
 30
365.5
 70
   192
  0
VERTEX
  5
42A
330
403
100
AcDbEntity
  8
Inox
100
AcDbVertex
100
AcDbPolyFaceMeshVertex
 10
-22.5
 20
-10.30000019073486
 30
364.8999938964844
 70
   192
  0
VERTEX
  5
42B
330
403
100
AcDbEntity
  8
Inox
100
AcDbVertex
100
AcDbPolyFaceMeshVertex
 10
-122.5
 20
-10.30000019073486
 30
364.8999938964844
 70
   192
  0
VERTEX
  5
42C
330
403
100
AcDbEntity
  8
Inox
100
AcDbFaceRecord
 10
0.0
 20
0.0
 30
0.0
 70
   128
 71
     2
 72
     1
 73
     5
 74
     6
  0
VERTEX
  5
42D
330
403
100
AcDbEntity
  8
Inox
100
AcDbFaceRecord
 10
0.0
 20
0.0
 30
0.0
 70
   128
 71
     3
 72
     4
 73
     6
 74
     5
  0
VERTEX
  5
42E
330
403
100
AcDbEntity
  8
Inox
100
AcDbFaceRecord
 10
0.0
 20
0.0
 30
0.0
 70
   128
 71
    13
 72
    14
 73
     7
 74
     7
  0
VERTEX
  5
42F
330
403
100
AcDbEntity
  8
Inox
100
AcDbFaceRecord
 10
0.0
 20
0.0
 30
0.0
 70
   128
 71
    13
 72
     8
 73
    12
 74
    12
  0
VERTEX
  5
430
330
403
100
AcDbEntity
  8
Inox
100
AcDbFaceRecord
 10
0.0
 20
0.0
 30
0.0
 70
   128
 71
    11
 72
    14
 73
    13
 74
    13
  0
VERTEX
  5
431
330
403
100
AcDbEntity
  8
Inox
100
AcDbFaceRecord
 10
0.0
 20
0.0
 30
0.0
 70
   128
 71
    13
 72
    12
 73
    11
 74
    11
  0
VERTEX
  5
432
330
403
100
AcDbEntity
  8
Inox
100
AcDbFaceRecord
 10
0.0
 20
0.0
 30
0.0
 70
   128
 71
    11
 72
    12
 73
    10
 74
    10
  0
VERTEX
  5
433
330
403
100
AcDbEntity
  8
Inox
100
AcDbFaceRecord
 10
0.0
 20
0.0
 30
0.0
 70
   128
 71
     9
 72
    14
 73
    11
 74
    11
  0
VERTEX
  5
434
330
403
100
AcDbEntity
  8
Inox
100
AcDbFaceRecord
 10
0.0
 20
0.0
 30
0.0
 70
   128
 71
    20
 72
    16
 73
    15
 74
    18
  0
VERTEX
  5
435
330
403
100
AcDbEntity
  8
Inox
100
AcDbFaceRecord
 10
0.0
 20
0.0
 30
0.0
 70
   128
 71
    18
 72
    17
 73
    19
 74
    20
  0
VERTEX
  5
436
330
403
100
AcDbEntity
  8
Inox
100
AcDbFaceRecord
 10
0.0
 20
0.0
 30
0.0
 70
   128
 71
    21
 72
    24
 73
    25
 74
    26
  0
VERTEX
  5
437
330
403
100
AcDbEntity
  8
Inox
100
AcDbFaceRecord
 10
0.0
 20
0.0
 30
0.0
 70
   128
 71
    23
 72
    25
 73
    24
 74
    22
  0
VERTEX
  5
438
330
403
100
AcDbEntity
  8
Inox
100
AcDbFaceRecord
 10
0.0
 20
0.0
 30
0.0
 70
   128
 71
    34
 72
    27
 73
    31
 74
    31
  0
VERTEX
  5
439
330
403
100
AcDbEntity
  8
Inox
100
AcDbFaceRecord
 10
0.0
 20
0.0
 30
0.0
 70
   128
 71
    34
 72
    33
 73
    28
 74
    28
  0
VERTEX
  5
43A
330
403
100
AcDbEntity
  8
Inox
100
AcDbFaceRecord
 10
0.0
 20
0.0
 30
0.0
 70
   128
 71
    30
 72
    34
 73
    31
 74
    31
  0
VERTEX
  5
43B
330
403
100
AcDbEntity
  8
Inox
100
AcDbFaceRecord
 10
0.0
 20
0.0
 30
0.0
 70
   128
 71
    34
 72
    30
 73
    33
 74
    33
  0
VERTEX
  5
43C
330
403
100
AcDbEntity
  8
Inox
100
AcDbFaceRecord
 10
0.0
 20
0.0
 30
0.0
 70
   128
 71
    30
 72
    32
 73
    33
 74
    33
  0
VERTEX
  5
43D
330
403
100
AcDbEntity
  8
Inox
100
AcDbFaceRecord
 10
0.0
 20
0.0
 30
0.0
 70
   128
 71
    29
 72
    30
 73
    31
 74
    31
  0
VERTEX
  5
43E
330
403
100
AcDbEntity
  8
Inox
100
AcDbFaceRecord
 10
0.0
 20
0.0
 30
0.0
 70
   128
 71
    35
 72
    39
 73
    40
 74
    38
  0
VERTEX
  5
43F
330
403
100
AcDbEntity
  8
Inox
100
AcDbFaceRecord
 10
0.0
 20
0.0
 30
0.0
 70
   128
 71
    36
 72
    37
 73
    38
 74
    40
  0
SEQEND
  5
440
330
403
100
AcDbEntity
  8
Inox
  0
POLYLINE
  5
441
330
1F
100
AcDbEntity
  8
Inox
100
AcDbPolyFaceMesh
 66
     1
 10
0.0
 20
0.0
 30
0.0
 70
    64
 71
    30
 72
    14
  0
VERTEX
  5
442
330
441
100
AcDbEntity
  8
Inox
100
AcDbVertex
100
AcDbPolyFaceMeshVertex
 10
-22.79999923706055
 20
-10.30000019073486
 30
348.5
 70
   192
  0
VERTEX
  5
443
330
441
100
AcDbEntity
  8
Inox
100
AcDbVertex
100
AcDbPolyFaceMeshVertex
 10
-22.5
 20
-10.30000019073486
 30
348.5
 70
   192
  0
VERTEX
  5
444
330
441
100
AcDbEntity
  8
Inox
100
AcDbVertex
100
AcDbPolyFaceMeshVertex
 10
-22.79999923706055
 20
-10.30000019073486
 30
356.7000122070312
 70
   192
  0
VERTEX
  5
445
330
441
100
AcDbEntity
  8
Inox
100
AcDbVertex
100
AcDbPolyFaceMeshVertex
 10
-22.79999923706055
 20
-10.30000019073486
 30
364.8999938964844
 70
   192
  0
VERTEX
  5
446
330
441
100
AcDbEntity
  8
Inox
100
AcDbVertex
100
AcDbPolyFaceMeshVertex
 10
-22.5
 20
-10.30000019073486
 30
364.8999938964844
 70
   192
  0
VERTEX
  5
447
330
441
100
AcDbEntity
  8
Inox
100
AcDbVertex
100
AcDbPolyFaceMeshVertex
 10
-22.5
 20
-10.30000019073486
 30
356.7000122070312
 70
   192
  0
VERTEX
  5
448
330
441
100
AcDbEntity
  8
Inox
100
AcDbVertex
100
AcDbPolyFaceMeshVertex
 10
-22.79999923706055
 20
-19.76854515075684
 30
348.5
 70
   192
  0
VERTEX
  5
449
330
441
100
AcDbEntity
  8
Inox
100
AcDbVertex
100
AcDbPolyFaceMeshVertex
 10
-22.79999923706055
 20
-10.30000019073486
 30
348.5
 70
   192
  0
VERTEX
  5
44A
330
441
100
AcDbEntity
  8
Inox
100
AcDbVertex
100
AcDbPolyFaceMeshVertex
 10
-22.5
 20
-10.30000019073486
 30
348.5
 70
   192
  0
VERTEX
  5
44B
330
441
100
AcDbEntity
  8
Inox
100
AcDbVertex
100
AcDbPolyFaceMeshVertex
 10
-22.5
 20
-19.76854515075684
 30
348.5
 70
   192
  0
VERTEX
  5
44C
330
441
100
AcDbEntity
  8
Inox
100
AcDbVertex
100
AcDbPolyFaceMeshVertex
 10
-22.79999923706055
 20
-15.03427219390869
 30
348.5
 70
   192
  0
VERTEX
  5
44D
330
441
100
AcDbEntity
  8
Inox
100
AcDbVertex
100
AcDbPolyFaceMeshVertex
 10
-22.5
 20
-15.03427219390869
 30
348.5
 70
   192
  0
VERTEX
  5
44E
330
441
100
AcDbEntity
  8
Inox
100
AcDbVertex
100
AcDbPolyFaceMeshVertex
 10
-22.79999923706055
 20
-10.30000019073486
 30
364.8999938964844
 70
   192
  0
VERTEX
  5
44F
330
441
100
AcDbEntity
  8
Inox
100
AcDbVertex
100
AcDbPolyFaceMeshVertex
 10
-22.79999923706055
 20
-19.76854515075684
 30
348.5
 70
   192
  0
VERTEX
  5
450
330
441
100
AcDbEntity
  8
Inox
100
AcDbVertex
100
AcDbPolyFaceMeshVertex
 10
-22.79999923706055
 20
-10.30000019073486
 30
348.5
 70
   192
  0
VERTEX
  5
451
330
441
100
AcDbEntity
  8
Inox
100
AcDbVertex
100
AcDbPolyFaceMeshVertex
 10
-22.79999923706055
 20
-10.30000019073486
 30
356.7000122070312
 70
   192
  0
VERTEX
  5
452
330
441
100
AcDbEntity
  8
Inox
100
AcDbVertex
100
AcDbPolyFaceMeshVertex
 10
-22.79999923706055
 20
-15.03427219390869
 30
356.7000122070312
 70
   192
  0
VERTEX
  5
453
330
441
100
AcDbEntity
  8
Inox
100
AcDbVertex
100
AcDbPolyFaceMeshVertex
 10
-22.79999923706055
 20
-15.03427219390869
 30
348.5
 70
   192
  0
VERTEX
  5
454
330
441
100
AcDbEntity
  8
Inox
100
AcDbVertex
100
AcDbPolyFaceMeshVertex
 10
-22.5
 20
-10.30000019073486
 30
364.8999938964844
 70
   192
  0
VERTEX
  5
455
330
441
100
AcDbEntity
  8
Inox
100
AcDbVertex
100
AcDbPolyFaceMeshVertex
 10
-22.5
 20
-19.76854515075684
 30
348.5
 70
   192
  0
VERTEX
  5
456
330
441
100
AcDbEntity
  8
Inox
100
AcDbVertex
100
AcDbPolyFaceMeshVertex
 10
-22.5
 20
-10.30000019073486
 30
348.5
 70
   192
  0
VERTEX
  5
457
330
441
100
AcDbEntity
  8
Inox
100
AcDbVertex
100
AcDbPolyFaceMeshVertex
 10
-22.5
 20
-10.30000019073486
 30
356.7000122070312
 70
   192
  0
VERTEX
  5
458
330
441
100
AcDbEntity
  8
Inox
100
AcDbVertex
100
AcDbPolyFaceMeshVertex
 10
-22.5
 20
-15.03427219390869
 30
348.5
 70
   192
  0
VERTEX
  5
459
330
441
100
AcDbEntity
  8
Inox
100
AcDbVertex
100
AcDbPolyFaceMeshVertex
 10
-22.5
 20
-15.03427219390869
 30
356.7000122070312
 70
   192
  0
VERTEX
  5
45A
330
441
100
AcDbEntity
  8
Inox
100
AcDbVertex
100
AcDbPolyFaceMeshVertex
 10
-22.79999923706055
 20
-19.76854515075684
 30
348.5
 70
   192
  0
VERTEX
  5
45B
330
441
100
AcDbEntity
  8
Inox
100
AcDbVertex
100
AcDbPolyFaceMeshVertex
 10
-22.79999923706055
 20
-10.30000019073486
 30
364.8999938964844
 70
   192
  0
VERTEX
  5
45C
330
441
100
AcDbEntity
  8
Inox
100
AcDbVertex
100
AcDbPolyFaceMeshVertex
 10
-22.5
 20
-19.76854515075684
 30
348.5
 70
   192
  0
VERTEX
  5
45D
330
441
100
AcDbEntity
  8
Inox
100
AcDbVertex
100
AcDbPolyFaceMeshVertex
 10
-22.79999923706055
 20
-15.03427219390869
 30
356.7000122070312
 70
   192
  0
VERTEX
  5
45E
330
441
100
AcDbEntity
  8
Inox
100
AcDbVertex
100
AcDbPolyFaceMeshVertex
 10
-22.5
 20
-10.30000019073486
 30
364.8999938964844
 70
   192
  0
VERTEX
  5
45F
330
441
100
AcDbEntity
  8
Inox
100
AcDbVertex
100
AcDbPolyFaceMeshVertex
 10
-22.5
 20
-15.03427219390869
 30
356.7000122070312
 70
   192
  0
VERTEX
  5
460
330
441
100
AcDbEntity
  8
Inox
100
AcDbFaceRecord
 10
0.0
 20
0.0
 30
0.0
 70
   128
 71
     6
 72
     2
 73
     1
 74
     3
  0
VERTEX
  5
461
330
441
100
AcDbEntity
  8
Inox
100
AcDbFaceRecord
 10
0.0
 20
0.0
 30
0.0
 70
   128
 71
     3
 72
     4
 73
     5
 74
     6
  0
VERTEX
  5
462
330
441
100
AcDbEntity
  8
Inox
100
AcDbFaceRecord
 10
0.0
 20
0.0
 30
0.0
 70
   128
 71
     7
 72
    11
 73
    12
 74
    10
  0
VERTEX
  5
463
330
441
100
AcDbEntity
  8
Inox
100
AcDbFaceRecord
 10
0.0
 20
0.0
 30
0.0
 70
   128
 71
     9
 72
    12
 73
    11
 74
     8
  0
VERTEX
  5
464
330
441
100
AcDbEntity
  8
Inox
100
AcDbFaceRecord
 10
0.0
 20
0.0
 30
0.0
 70
   128
 71
    17
 72
    13
 73
    16
 74
    16
  0
VERTEX
  5
465
330
441
100
AcDbEntity
  8
Inox
100
AcDbFaceRecord
 10
0.0
 20
0.0
 30
0.0
 70
   128
 71
    17
 72
    16
 73
    15
 74
    15
  0
VERTEX
  5
466
330
441
100
AcDbEntity
  8
Inox
100
AcDbFaceRecord
 10
0.0
 20
0.0
 30
0.0
 70
   128
 71
    14
 72
    17
 73
    18
 74
    18
  0
VERTEX
  5
467
330
441
100
AcDbEntity
  8
Inox
100
AcDbFaceRecord
 10
0.0
 20
0.0
 30
0.0
 70
   128
 71
    15
 72
    18
 73
    17
 74
    17
  0
VERTEX
  5
468
330
441
100
AcDbEntity
  8
Inox
100
AcDbFaceRecord
 10
0.0
 20
0.0
 30
0.0
 70
   128
 71
    24
 72
    22
 73
    19
 74
    19
  0
VERTEX
  5
469
330
441
100
AcDbEntity
  8
Inox
100
AcDbFaceRecord
 10
0.0
 20
0.0
 30
0.0
 70
   128
 71
    24
 72
    21
 73
    22
 74
    22
  0
VERTEX
  5
46A
330
441
100
AcDbEntity
  8
Inox
100
AcDbFaceRecord
 10
0.0
 20
0.0
 30
0.0
 70
   128
 71
    20
 72
    23
 73
    24
 74
    24
  0
VERTEX
  5
46B
330
441
100
AcDbEntity
  8
Inox
100
AcDbFaceRecord
 10
0.0
 20
0.0
 30
0.0
 70
   128
 71
    21
 72
    24
 73
    23
 74
    23
  0
VERTEX
  5
46C
330
441
100
AcDbEntity
  8
Inox
100
AcDbFaceRecord
 10
0.0
 20
0.0
 30
0.0
 70
   128
 71
    30
 72
    28
 73
    25
 74
    27
  0
VERTEX
  5
46D
330
441
100
AcDbEntity
  8
Inox
100
AcDbFaceRecord
 10
0.0
 20
0.0
 30
0.0
 70
   128
 71
    29
 72
    26
 73
    28
 74
    30
  0
SEQEND
  5
46E
330
441
100
AcDbEntity
  8
Inox
  0
POLYLINE
  5
46F
330
1F
100
AcDbEntity
  8
Inox
100
AcDbPolyFaceMesh
 66
     1
 10
0.0
 20
0.0
 30
0.0
 70
    64
 71
    30
 72
    14
  0
VERTEX
  5
470
330
46F
100
AcDbEntity
  8
Inox
100
AcDbVertex
100
AcDbPolyFaceMeshVertex
 10
-222.1999969482422
 20
-10.30000019073486
 30
348.5
 70
   192
  0
VERTEX
  5
471
330
46F
100
AcDbEntity
  8
Inox
100
AcDbVertex
100
AcDbPolyFaceMeshVertex
 10
-222.5
 20
-10.30000019073486
 30
348.5
 70
   192
  0
VERTEX
  5
472
330
46F
100
AcDbEntity
  8
Inox
100
AcDbVertex
100
AcDbPolyFaceMeshVertex
 10
-222.1999969482422
 20
-19.76854515075684
 30
348.5
 70
   192
  0
VERTEX
  5
473
330
46F
100
AcDbEntity
  8
Inox
100
AcDbVertex
100
AcDbPolyFaceMeshVertex
 10
-222.5
 20
-19.76854515075684
 30
348.5
 70
   192
  0
VERTEX
  5
474
330
46F
100
AcDbEntity
  8
Inox
100
AcDbVertex
100
AcDbPolyFaceMeshVertex
 10
-222.1999969482422
 20
-15.03427219390869
 30
348.5
 70
   192
  0
VERTEX
  5
475
330
46F
100
AcDbEntity
  8
Inox
100
AcDbVertex
100
AcDbPolyFaceMeshVertex
 10
-222.5
 20
-15.03427219390869
 30
348.5
 70
   192
  0
VERTEX
  5
476
330
46F
100
AcDbEntity
  8
Inox
100
AcDbVertex
100
AcDbPolyFaceMeshVertex
 10
-222.1999969482422
 20
-10.30000019073486
 30
348.5
 70
   192
  0
VERTEX
  5
477
330
46F
100
AcDbEntity
  8
Inox
100
AcDbVertex
100
AcDbPolyFaceMeshVertex
 10
-222.5
 20
-10.30000019073486
 30
348.5
 70
   192
  0
VERTEX
  5
478
330
46F
100
AcDbEntity
  8
Inox
100
AcDbVertex
100
AcDbPolyFaceMeshVertex
 10
-222.5
 20
-10.30000019073486
 30
364.8999938964844
 70
   192
  0
VERTEX
  5
479
330
46F
100
AcDbEntity
  8
Inox
100
AcDbVertex
100
AcDbPolyFaceMeshVertex
 10
-222.1999969482422
 20
-10.30000019073486
 30
364.8999938964844
 70
   192
  0
VERTEX
  5
47A
330
46F
100
AcDbEntity
  8
Inox
100
AcDbVertex
100
AcDbPolyFaceMeshVertex
 10
-222.1999969482422
 20
-10.30000019073486
 30
356.7000122070312
 70
   192
  0
VERTEX
  5
47B
330
46F
100
AcDbEntity
  8
Inox
100
AcDbVertex
100
AcDbPolyFaceMeshVertex
 10
-222.5
 20
-10.30000019073486
 30
356.7000122070312
 70
   192
  0
VERTEX
  5
47C
330
46F
100
AcDbEntity
  8
Inox
100
AcDbVertex
100
AcDbPolyFaceMeshVertex
 10
-222.1999969482422
 20
-19.76854515075684
 30
348.5
 70
   192
  0
VERTEX
  5
47D
330
46F
100
AcDbEntity
  8
Inox
100
AcDbVertex
100
AcDbPolyFaceMeshVertex
 10
-222.1999969482422
 20
-10.30000019073486
 30
364.8999938964844
 70
   192
  0
VERTEX
  5
47E
330
46F
100
AcDbEntity
  8
Inox
100
AcDbVertex
100
AcDbPolyFaceMeshVertex
 10
-222.1999969482422
 20
-10.30000019073486
 30
348.5
 70
   192
  0
VERTEX
  5
47F
330
46F
100
AcDbEntity
  8
Inox
100
AcDbVertex
100
AcDbPolyFaceMeshVertex
 10
-222.1999969482422
 20
-15.03427219390869
 30
348.5
 70
   192
  0
VERTEX
  5
480
330
46F
100
AcDbEntity
  8
Inox
100
AcDbVertex
100
AcDbPolyFaceMeshVertex
 10
-222.1999969482422
 20
-15.03427219390869
 30
356.7000122070312
 70
   192
  0
VERTEX
  5
481
330
46F
100
AcDbEntity
  8
Inox
100
AcDbVertex
100
AcDbPolyFaceMeshVertex
 10
-222.1999969482422
 20
-10.30000019073486
 30
356.7000122070312
 70
   192
  0
VERTEX
  5
482
330
46F
100
AcDbEntity
  8
Inox
100
AcDbVertex
100
AcDbPolyFaceMeshVertex
 10
-222.5
 20
-19.76854515075684
 30
348.5
 70
   192
  0
VERTEX
  5
483
330
46F
100
AcDbEntity
  8
Inox
100
AcDbVertex
100
AcDbPolyFaceMeshVertex
 10
-222.5
 20
-10.30000019073486
 30
364.8999938964844
 70
   192
  0
VERTEX
  5
484
330
46F
100
AcDbEntity
  8
Inox
100
AcDbVertex
100
AcDbPolyFaceMeshVertex
 10
-222.5
 20
-10.30000019073486
 30
348.5
 70
   192
  0
VERTEX
  5
485
330
46F
100
AcDbEntity
  8
Inox
100
AcDbVertex
100
AcDbPolyFaceMeshVertex
 10
-222.5
 20
-15.03427219390869
 30
348.5
 70
   192
  0
VERTEX
  5
486
330
46F
100
AcDbEntity
  8
Inox
100
AcDbVertex
100
AcDbPolyFaceMeshVertex
 10
-222.5
 20
-10.30000019073486
 30
356.7000122070312
 70
   192
  0
VERTEX
  5
487
330
46F
100
AcDbEntity
  8
Inox
100
AcDbVertex
100
AcDbPolyFaceMeshVertex
 10
-222.5
 20
-15.03427219390869
 30
356.7000122070312
 70
   192
  0
VERTEX
  5
488
330
46F
100
AcDbEntity
  8
Inox
100
AcDbVertex
100
AcDbPolyFaceMeshVertex
 10
-222.1999969482422
 20
-19.76854515075684
 30
348.5
 70
   192
  0
VERTEX
  5
489
330
46F
100
AcDbEntity
  8
Inox
100
AcDbVertex
100
AcDbPolyFaceMeshVertex
 10
-222.5
 20
-10.30000019073486
 30
364.8999938964844
 70
   192
  0
VERTEX
  5
48A
330
46F
100
AcDbEntity
  8
Inox
100
AcDbVertex
100
AcDbPolyFaceMeshVertex
 10
-222.1999969482422
 20
-10.30000019073486
 30
364.8999938964844
 70
   192
  0
VERTEX
  5
48B
330
46F
100
AcDbEntity
  8
Inox
100
AcDbVertex
100
AcDbPolyFaceMeshVertex
 10
-222.1999969482422
 20
-15.03427219390869
 30
356.7000122070312
 70
   192
  0
VERTEX
  5
48C
330
46F
100
AcDbEntity
  8
Inox
100
AcDbVertex
100
AcDbPolyFaceMeshVertex
 10
-222.5
 20
-19.76854515075684
 30
348.5
 70
   192
  0
VERTEX
  5
48D
330
46F
100
AcDbEntity
  8
Inox
100
AcDbVertex
100
AcDbPolyFaceMeshVertex
 10
-222.5
 20
-15.03427219390869
 30
356.7000122070312
 70
   192
  0
VERTEX
  5
48E
330
46F
100
AcDbEntity
  8
Inox
100
AcDbFaceRecord
 10
0.0
 20
0.0
 30
0.0
 70
   128
 71
     2
 72
     1
 73
     5
 74
     6
  0
VERTEX
  5
48F
330
46F
100
AcDbEntity
  8
Inox
100
AcDbFaceRecord
 10
0.0
 20
0.0
 30
0.0
 70
   128
 71
     3
 72
     4
 73
     6
 74
     5
  0
VERTEX
  5
490
330
46F
100
AcDbEntity
  8
Inox
100
AcDbFaceRecord
 10
0.0
 20
0.0
 30
0.0
 70
   128
 71
    12
 72
     9
 73
    10
 74
    11
  0
VERTEX
  5
491
330
46F
100
AcDbEntity
  8
Inox
100
AcDbFaceRecord
 10
0.0
 20
0.0
 30
0.0
 70
   128
 71
    11
 72
     7
 73
     8
 74
    12
  0
VERTEX
  5
492
330
46F
100
AcDbEntity
  8
Inox
100
AcDbFaceRecord
 10
0.0
 20
0.0
 30
0.0
 70
   128
 71
    16
 72
    17
 73
    13
 74
    13
  0
VERTEX
  5
493
330
46F
100
AcDbEntity
  8
Inox
100
AcDbFaceRecord
 10
0.0
 20
0.0
 30
0.0
 70
   128
 71
    15
 72
    17
 73
    16
 74
    16
  0
VERTEX
  5
494
330
46F
100
AcDbEntity
  8
Inox
100
AcDbFaceRecord
 10
0.0
 20
0.0
 30
0.0
 70
   128
 71
    17
 72
    18
 73
    14
 74
    14
  0
VERTEX
  5
495
330
46F
100
AcDbEntity
  8
Inox
100
AcDbFaceRecord
 10
0.0
 20
0.0
 30
0.0
 70
   128
 71
    17
 72
    15
 73
    18
 74
    18
  0
VERTEX
  5
496
330
46F
100
AcDbEntity
  8
Inox
100
AcDbFaceRecord
 10
0.0
 20
0.0
 30
0.0
 70
   128
 71
    22
 72
    19
 73
    24
 74
    24
  0
VERTEX
  5
497
330
46F
100
AcDbEntity
  8
Inox
100
AcDbFaceRecord
 10
0.0
 20
0.0
 30
0.0
 70
   128
 71
    21
 72
    22
 73
    24
 74
    24
  0
VERTEX
  5
498
330
46F
100
AcDbEntity
  8
Inox
100
AcDbFaceRecord
 10
0.0
 20
0.0
 30
0.0
 70
   128
 71
    24
 72
    20
 73
    23
 74
    23
  0
VERTEX
  5
499
330
46F
100
AcDbEntity
  8
Inox
100
AcDbFaceRecord
 10
0.0
 20
0.0
 30
0.0
 70
   128
 71
    24
 72
    23
 73
    21
 74
    21
  0
VERTEX
  5
49A
330
46F
100
AcDbEntity
  8
Inox
100
AcDbFaceRecord
 10
0.0
 20
0.0
 30
0.0
 70
   128
 71
    28
 72
    30
 73
    29
 74
    25
  0
VERTEX
  5
49B
330
46F
100
AcDbEntity
  8
Inox
100
AcDbFaceRecord
 10
0.0
 20
0.0
 30
0.0
 70
   128
 71
    27
 72
    26
 73
    30
 74
    28
  0
SEQEND
  5
49C
330
46F
100
AcDbEntity
  8
Inox
  0
POLYLINE
  5
49D
330
1F
100
AcDbEntity
  8
Inox
100
AcDbPolyFaceMesh
 66
     1
 10
0.0
 20
0.0
 30
0.0
 70
    64
 71
    40
 72
    20
  0
VERTEX
  5
49E
330
49D
100
AcDbEntity
  8
Inox
100
AcDbVertex
100
AcDbPolyFaceMeshVertex
 10
-22.79999923706055
 20
-19.76854515075684
 30
348.5
 70
   192
  0
VERTEX
  5
49F
330
49D
100
AcDbEntity
  8
Inox
100
AcDbVertex
100
AcDbPolyFaceMeshVertex
 10
-22.79999923706055
 20
-10.30000019073486
 30
348.5
 70
   192
  0
VERTEX
  5
4A0
330
49D
100
AcDbEntity
  8
Inox
100
AcDbVertex
100
AcDbPolyFaceMeshVertex
 10
-22.79999923706055
 20
-10.30000019073486
 30
348.7999877929688
 70
   192
  0
VERTEX
  5
4A1
330
49D
100
AcDbEntity
  8
Inox
100
AcDbVertex
100
AcDbPolyFaceMeshVertex
 10
-22.79999923706055
 20
-19.59533882141113
 30
348.7999877929688
 70
   192
  0
VERTEX
  5
4A2
330
49D
100
AcDbEntity
  8
Inox
100
AcDbVertex
100
AcDbPolyFaceMeshVertex
 10
-22.79999923706055
 20
-15.03427219390869
 30
348.5
 70
   192
  0
VERTEX
  5
4A3
330
49D
100
AcDbEntity
  8
Inox
100
AcDbVertex
100
AcDbPolyFaceMeshVertex
 10
-22.79999923706055
 20
-14.94766998291016
 30
348.7999877929688
 70
   192
  0
VERTEX
  5
4A4
330
49D
100
AcDbEntity
  8
Inox
100
AcDbVertex
100
AcDbPolyFaceMeshVertex
 10
-22.79999923706055
 20
-10.30000019073486
 30
348.5
 70
   192
  0
VERTEX
  5
4A5
330
49D
100
AcDbEntity
  8
Inox
100
AcDbVertex
100
AcDbPolyFaceMeshVertex
 10
-22.79999923706055
 20
-10.30000019073486
 30
348.7999877929688
 70
   192
  0
VERTEX
  5
4A6
330
49D
100
AcDbEntity
  8
Inox
100
AcDbVertex
100
AcDbPolyFaceMeshVertex
 10
-222.1999969482422
 20
-10.30000019073486
 30
348.5
 70
   192
  0
VERTEX
  5
4A7
330
49D
100
AcDbEntity
  8
Inox
100
AcDbVertex
100
AcDbPolyFaceMeshVertex
 10
-222.1999969482422
 20
-10.30000019073486
 30
348.7999877929688
 70
   192
  0
VERTEX
  5
4A8
330
49D
100
AcDbEntity
  8
Inox
100
AcDbVertex
100
AcDbPolyFaceMeshVertex
 10
-122.5
 20
-10.30000019073486
 30
348.5
 70
   192
  0
VERTEX
  5
4A9
330
49D
100
AcDbEntity
  8
Inox
100
AcDbVertex
100
AcDbPolyFaceMeshVertex
 10
-122.5
 20
-10.30000019073486
 30
348.7999877929688
 70
   192
  0
VERTEX
  5
4AA
330
49D
100
AcDbEntity
  8
Inox
100
AcDbVertex
100
AcDbPolyFaceMeshVertex
 10
-222.1999969482422
 20
-10.30000019073486
 30
348.5
 70
   192
  0
VERTEX
  5
4AB
330
49D
100
AcDbEntity
  8
Inox
100
AcDbVertex
100
AcDbPolyFaceMeshVertex
 10
-222.1999969482422
 20
-10.30000019073486
 30
348.7999877929688
 70
   192
  0
VERTEX
  5
4AC
330
49D
100
AcDbEntity
  8
Inox
100
AcDbVertex
100
AcDbPolyFaceMeshVertex
 10
-222.1999969482422
 20
-19.76854515075684
 30
348.5
 70
   192
  0
VERTEX
  5
4AD
330
49D
100
AcDbEntity
  8
Inox
100
AcDbVertex
100
AcDbPolyFaceMeshVertex
 10
-222.1999969482422
 20
-15.03427219390869
 30
348.5
 70
   192
  0
VERTEX
  5
4AE
330
49D
100
AcDbEntity
  8
Inox
100
AcDbVertex
100
AcDbPolyFaceMeshVertex
 10
-222.1999969482422
 20
-19.59533882141113
 30
348.7999877929688
 70
   192
  0
VERTEX
  5
4AF
330
49D
100
AcDbEntity
  8
Inox
100
AcDbVertex
100
AcDbPolyFaceMeshVertex
 10
-222.1999969482422
 20
-14.94766998291016
 30
348.7999877929688
 70
   192
  0
VERTEX
  5
4B0
330
49D
100
AcDbEntity
  8
Inox
100
AcDbVertex
100
AcDbPolyFaceMeshVertex
 10
-222.1999969482422
 20
-19.76854515075684
 30
348.5
 70
   192
  0
VERTEX
  5
4B1
330
49D
100
AcDbEntity
  8
Inox
100
AcDbVertex
100
AcDbPolyFaceMeshVertex
 10
-222.1999969482422
 20
-10.30000019073486
 30
348.5
 70
   192
  0
VERTEX
  5
4B2
330
49D
100
AcDbEntity
  8
Inox
100
AcDbVertex
100
AcDbPolyFaceMeshVertex
 10
-22.79999923706055
 20
-10.30000019073486
 30
348.5
 70
   192
  0
VERTEX
  5
4B3
330
49D
100
AcDbEntity
  8
Inox
100
AcDbVertex
100
AcDbPolyFaceMeshVertex
 10
-122.5
 20
-10.30000019073486
 30
348.5
 70
   192
  0
VERTEX
  5
4B4
330
49D
100
AcDbEntity
  8
Inox
100
AcDbVertex
100
AcDbPolyFaceMeshVertex
 10
-222.1999969482422
 20
-15.03427219390869
 30
348.5
 70
   192
  0
VERTEX
  5
4B5
330
49D
100
AcDbEntity
  8
Inox
100
AcDbVertex
100
AcDbPolyFaceMeshVertex
 10
-122.5
 20
-19.76854515075684
 30
348.5
 70
   192
  0
VERTEX
  5
4B6
330
49D
100
AcDbEntity
  8
Inox
100
AcDbVertex
100
AcDbPolyFaceMeshVertex
 10
-22.79999923706055
 20
-19.76854515075684
 30
348.5
 70
   192
  0
VERTEX
  5
4B7
330
49D
100
AcDbEntity
  8
Inox
100
AcDbVertex
100
AcDbPolyFaceMeshVertex
 10
-22.79999923706055
 20
-15.03427219390869
 30
348.5
 70
   192
  0
VERTEX
  5
4B8
330
49D
100
AcDbEntity
  8
Inox
100
AcDbVertex
100
AcDbPolyFaceMeshVertex
 10
-222.1999969482422
 20
-19.59533882141113
 30
348.7999877929688
 70
   192
  0
VERTEX
  5
4B9
330
49D
100
AcDbEntity
  8
Inox
100
AcDbVertex
100
AcDbPolyFaceMeshVertex
 10
-222.1999969482422
 20
-10.30000019073486
 30
348.7999877929688
 70
   192
  0
VERTEX
  5
4BA
330
49D
100
AcDbEntity
  8
Inox
100
AcDbVertex
100
AcDbPolyFaceMeshVertex
 10
-22.79999923706055
 20
-10.30000019073486
 30
348.7999877929688
 70
   192
  0
VERTEX
  5
4BB
330
49D
100
AcDbEntity
  8
Inox
100
AcDbVertex
100
AcDbPolyFaceMeshVertex
 10
-122.5
 20
-10.30000019073486
 30
348.7999877929688
 70
   192
  0
VERTEX
  5
4BC
330
49D
100
AcDbEntity
  8
Inox
100
AcDbVertex
100
AcDbPolyFaceMeshVertex
 10
-222.1999969482422
 20
-14.94766998291016
 30
348.7999877929688
 70
   192
  0
VERTEX
  5
4BD
330
49D
100
AcDbEntity
  8
Inox
100
AcDbVertex
100
AcDbPolyFaceMeshVertex
 10
-122.5
 20
-19.59533882141113
 30
348.7999877929688
 70
   192
  0
VERTEX
  5
4BE
330
49D
100
AcDbEntity
  8
Inox
100
AcDbVertex
100
AcDbPolyFaceMeshVertex
 10
-22.79999923706055
 20
-19.59533882141113
 30
348.7999877929688
 70
   192
  0
VERTEX
  5
4BF
330
49D
100
AcDbEntity
  8
Inox
100
AcDbVertex
100
AcDbPolyFaceMeshVertex
 10
-22.79999923706055
 20
-14.94766998291016
 30
348.7999877929688
 70
   192
  0
VERTEX
  5
4C0
330
49D
100
AcDbEntity
  8
Inox
100
AcDbVertex
100
AcDbPolyFaceMeshVertex
 10
-22.79999923706055
 20
-19.59533882141113
 30
348.7999877929688
 70
   192
  0
VERTEX
  5
4C1
330
49D
100
AcDbEntity
  8
Inox
100
AcDbVertex
100
AcDbPolyFaceMeshVertex
 10
-22.79999923706055
 20
-19.76854515075684
 30
348.5
 70
   192
  0
VERTEX
  5
4C2
330
49D
100
AcDbEntity
  8
Inox
100
AcDbVertex
100
AcDbPolyFaceMeshVertex
 10
-222.1999969482422
 20
-19.76854515075684
 30
348.5
 70
   192
  0
VERTEX
  5
4C3
330
49D
100
AcDbEntity
  8
Inox
100
AcDbVertex
100
AcDbPolyFaceMeshVertex
 10
-222.1999969482422
 20
-19.59533882141113
 30
348.7999877929688
 70
   192
  0
VERTEX
  5
4C4
330
49D
100
AcDbEntity
  8
Inox
100
AcDbVertex
100
AcDbPolyFaceMeshVertex
 10
-122.5
 20
-19.76854515075684
 30
348.5
 70
   192
  0
VERTEX
  5
4C5
330
49D
100
AcDbEntity
  8
Inox
100
AcDbVertex
100
AcDbPolyFaceMeshVertex
 10
-122.5
 20
-19.59533882141113
 30
348.7999877929688
 70
   192
  0
VERTEX
  5
4C6
330
49D
100
AcDbEntity
  8
Inox
100
AcDbFaceRecord
 10
0.0
 20
0.0
 30
0.0
 70
   128
 71
     1
 72
     5
 73
     6
 74
     4
  0
VERTEX
  5
4C7
330
49D
100
AcDbEntity
  8
Inox
100
AcDbFaceRecord
 10
0.0
 20
0.0
 30
0.0
 70
   128
 71
     3
 72
     6
 73
     5
 74
     2
  0
VERTEX
  5
4C8
330
49D
100
AcDbEntity
  8
Inox
100
AcDbFaceRecord
 10
0.0
 20
0.0
 30
0.0
 70
   128
 71
     8
 72
     7
 73
    11
 74
    12
  0
VERTEX
  5
4C9
330
49D
100
AcDbEntity
  8
Inox
100
AcDbFaceRecord
 10
0.0
 20
0.0
 30
0.0
 70
   128
 71
     9
 72
    10
 73
    12
 74
    11
  0
VERTEX
  5
4CA
330
49D
100
AcDbEntity
  8
Inox
100
AcDbFaceRecord
 10
0.0
 20
0.0
 30
0.0
 70
   128
 71
    18
 72
    14
 73
    13
 74
    16
  0
VERTEX
  5
4CB
330
49D
100
AcDbEntity
  8
Inox
100
AcDbFaceRecord
 10
0.0
 20
0.0
 30
0.0
 70
   128
 71
    16
 72
    15
 73
    17
 74
    18
  0
VERTEX
  5
4CC
330
49D
100
AcDbEntity
  8
Inox
100
AcDbFaceRecord
 10
0.0
 20
0.0
 30
0.0
 70
   128
 71
    26
 72
    23
 73
    22
 74
    22
  0
VERTEX
  5
4CD
330
49D
100
AcDbEntity
  8
Inox
100
AcDbFaceRecord
 10
0.0
 20
0.0
 30
0.0
 70
   128
 71
    23
 72
    20
 73
    22
 74
    22
  0
VERTEX
  5
4CE
330
49D
100
AcDbEntity
  8
Inox
100
AcDbFaceRecord
 10
0.0
 20
0.0
 30
0.0
 70
   128
 71
    24
 72
    19
 73
    23
 74
    23
  0
VERTEX
  5
4CF
330
49D
100
AcDbEntity
  8
Inox
100
AcDbFaceRecord
 10
0.0
 20
0.0
 30
0.0
 70
   128
 71
    26
 72
    25
 73
    24
 74
    24
  0
VERTEX
  5
4D0
330
49D
100
AcDbEntity
  8
Inox
100
AcDbFaceRecord
 10
0.0
 20
0.0
 30
0.0
 70
   128
 71
    26
 72
    22
 73
    21
 74
    21
  0
VERTEX
  5
4D1
330
49D
100
AcDbEntity
  8
Inox
100
AcDbFaceRecord
 10
0.0
 20
0.0
 30
0.0
 70
   128
 71
    24
 72
    23
 73
    26
 74
    26
  0
VERTEX
  5
4D2
330
49D
100
AcDbEntity
  8
Inox
100
AcDbFaceRecord
 10
0.0
 20
0.0
 30
0.0
 70
   128
 71
    32
 72
    30
 73
    31
 74
    31
  0
VERTEX
  5
4D3
330
49D
100
AcDbEntity
  8
Inox
100
AcDbFaceRecord
 10
0.0
 20
0.0
 30
0.0
 70
   128
 71
    31
 72
    30
 73
    28
 74
    28
  0
VERTEX
  5
4D4
330
49D
100
AcDbEntity
  8
Inox
100
AcDbFaceRecord
 10
0.0
 20
0.0
 30
0.0
 70
   128
 71
    32
 72
    31
 73
    27
 74
    27
  0
VERTEX
  5
4D5
330
49D
100
AcDbEntity
  8
Inox
100
AcDbFaceRecord
 10
0.0
 20
0.0
 30
0.0
 70
   128
 71
    34
 72
    32
 73
    33
 74
    33
  0
VERTEX
  5
4D6
330
49D
100
AcDbEntity
  8
Inox
100
AcDbFaceRecord
 10
0.0
 20
0.0
 30
0.0
 70
   128
 71
    34
 72
    29
 73
    30
 74
    30
  0
VERTEX
  5
4D7
330
49D
100
AcDbEntity
  8
Inox
100
AcDbFaceRecord
 10
0.0
 20
0.0
 30
0.0
 70
   128
 71
    32
 72
    34
 73
    30
 74
    30
  0
VERTEX
  5
4D8
330
49D
100
AcDbEntity
  8
Inox
100
AcDbFaceRecord
 10
0.0
 20
0.0
 30
0.0
 70
   128
 71
    35
 72
    40
 73
    39
 74
    36
  0
VERTEX
  5
4D9
330
49D
100
AcDbEntity
  8
Inox
100
AcDbFaceRecord
 10
0.0
 20
0.0
 30
0.0
 70
   128
 71
    37
 72
    39
 73
    40
 74
    38
  0
SEQEND
  5
4DA
330
49D
100
AcDbEntity
  8
Inox
  0
POLYLINE
  5
4DB
330
1F
100
AcDbEntity
  8
Inox
100
AcDbPolyFaceMesh
 66
     1
 10
0.0
 20
0.0
 30
0.0
 70
    64
 71
    40
 72
    20
  0
VERTEX
  5
4DC
330
4DB
100
AcDbEntity
  8
Inox
100
AcDbVertex
100
AcDbPolyFaceMeshVertex
 10
-222.5
 20
-10.30000019073486
 30
348.5
 70
   192
  0
VERTEX
  5
4DD
330
4DB
100
AcDbEntity
  8
Inox
100
AcDbVertex
100
AcDbPolyFaceMeshVertex
 10
-222.5
 20
-10.0
 30
348.5
 70
   192
  0
VERTEX
  5
4DE
330
4DB
100
AcDbEntity
  8
Inox
100
AcDbVertex
100
AcDbPolyFaceMeshVertex
 10
-222.5
 20
-10.30000019073486
 30
368.5
 70
   192
  0
VERTEX
  5
4DF
330
4DB
100
AcDbEntity
  8
Inox
100
AcDbVertex
100
AcDbPolyFaceMeshVertex
 10
-222.5
 20
-10.0
 30
368.5
 70
   192
  0
VERTEX
  5
4E0
330
4DB
100
AcDbEntity
  8
Inox
100
AcDbVertex
100
AcDbPolyFaceMeshVertex
 10
-222.5
 20
-10.30000019073486
 30
358.5
 70
   192
  0
VERTEX
  5
4E1
330
4DB
100
AcDbEntity
  8
Inox
100
AcDbVertex
100
AcDbPolyFaceMeshVertex
 10
-222.5
 20
-10.0
 30
358.5
 70
   192
  0
VERTEX
  5
4E2
330
4DB
100
AcDbEntity
  8
Inox
100
AcDbVertex
100
AcDbPolyFaceMeshVertex
 10
-222.5
 20
-10.30000019073486
 30
368.5
 70
   192
  0
VERTEX
  5
4E3
330
4DB
100
AcDbEntity
  8
Inox
100
AcDbVertex
100
AcDbPolyFaceMeshVertex
 10
-222.5
 20
-10.0
 30
368.5
 70
   192
  0
VERTEX
  5
4E4
330
4DB
100
AcDbEntity
  8
Inox
100
AcDbVertex
100
AcDbPolyFaceMeshVertex
 10
-22.5
 20
-10.30000019073486
 30
368.5
 70
   192
  0
VERTEX
  5
4E5
330
4DB
100
AcDbEntity
  8
Inox
100
AcDbVertex
100
AcDbPolyFaceMeshVertex
 10
-22.5
 20
-10.0
 30
368.5
 70
   192
  0
VERTEX
  5
4E6
330
4DB
100
AcDbEntity
  8
Inox
100
AcDbVertex
100
AcDbPolyFaceMeshVertex
 10
-122.5
 20
-10.30000019073486
 30
368.5
 70
   192
  0
VERTEX
  5
4E7
330
4DB
100
AcDbEntity
  8
Inox
100
AcDbVertex
100
AcDbPolyFaceMeshVertex
 10
-122.5
 20
-10.0
 30
368.5
 70
   192
  0
VERTEX
  5
4E8
330
4DB
100
AcDbEntity
  8
Inox
100
AcDbVertex
100
AcDbPolyFaceMeshVertex
 10
-22.5
 20
-10.30000019073486
 30
368.5
 70
   192
  0
VERTEX
  5
4E9
330
4DB
100
AcDbEntity
  8
Inox
100
AcDbVertex
100
AcDbPolyFaceMeshVertex
 10
-22.5
 20
-10.0
 30
368.5
 70
   192
  0
VERTEX
  5
4EA
330
4DB
100
AcDbEntity
  8
Inox
100
AcDbVertex
100
AcDbPolyFaceMeshVertex
 10
-22.5
 20
-10.30000019073486
 30
348.5
 70
   192
  0
VERTEX
  5
4EB
330
4DB
100
AcDbEntity
  8
Inox
100
AcDbVertex
100
AcDbPolyFaceMeshVertex
 10
-22.5
 20
-10.0
 30
348.5
 70
   192
  0
VERTEX
  5
4EC
330
4DB
100
AcDbEntity
  8
Inox
100
AcDbVertex
100
AcDbPolyFaceMeshVertex
 10
-22.5
 20
-10.30000019073486
 30
358.5
 70
   192
  0
VERTEX
  5
4ED
330
4DB
100
AcDbEntity
  8
Inox
100
AcDbVertex
100
AcDbPolyFaceMeshVertex
 10
-22.5
 20
-10.0
 30
358.5
 70
   192
  0
VERTEX
  5
4EE
330
4DB
100
AcDbEntity
  8
Inox
100
AcDbVertex
100
AcDbPolyFaceMeshVertex
 10
-22.5
 20
-10.30000019073486
 30
348.5
 70
   192
  0
VERTEX
  5
4EF
330
4DB
100
AcDbEntity
  8
Inox
100
AcDbVertex
100
AcDbPolyFaceMeshVertex
 10
-22.5
 20
-10.0
 30
348.5
 70
   192
  0
VERTEX
  5
4F0
330
4DB
100
AcDbEntity
  8
Inox
100
AcDbVertex
100
AcDbPolyFaceMeshVertex
 10
-222.5
 20
-10.30000019073486
 30
348.5
 70
   192
  0
VERTEX
  5
4F1
330
4DB
100
AcDbEntity
  8
Inox
100
AcDbVertex
100
AcDbPolyFaceMeshVertex
 10
-222.5
 20
-10.0
 30
348.5
 70
   192
  0
VERTEX
  5
4F2
330
4DB
100
AcDbEntity
  8
Inox
100
AcDbVertex
100
AcDbPolyFaceMeshVertex
 10
-122.5
 20
-10.30000019073486
 30
348.5
 70
   192
  0
VERTEX
  5
4F3
330
4DB
100
AcDbEntity
  8
Inox
100
AcDbVertex
100
AcDbPolyFaceMeshVertex
 10
-122.5
 20
-10.0
 30
348.5
 70
   192
  0
VERTEX
  5
4F4
330
4DB
100
AcDbEntity
  8
Inox
100
AcDbVertex
100
AcDbPolyFaceMeshVertex
 10
-22.5
 20
-10.30000019073486
 30
348.5
 70
   192
  0
VERTEX
  5
4F5
330
4DB
100
AcDbEntity
  8
Inox
100
AcDbVertex
100
AcDbPolyFaceMeshVertex
 10
-22.5
 20
-10.30000019073486
 30
368.5
 70
   192
  0
VERTEX
  5
4F6
330
4DB
100
AcDbEntity
  8
Inox
100
AcDbVertex
100
AcDbPolyFaceMeshVertex
 10
-222.5
 20
-10.30000019073486
 30
348.5
 70
   192
  0
VERTEX
  5
4F7
330
4DB
100
AcDbEntity
  8
Inox
100
AcDbVertex
100
AcDbPolyFaceMeshVertex
 10
-222.5
 20
-10.30000019073486
 30
368.5
 70
   192
  0
VERTEX
  5
4F8
330
4DB
100
AcDbEntity
  8
Inox
100
AcDbVertex
100
AcDbPolyFaceMeshVertex
 10
-222.5
 20
-10.30000019073486
 30
358.5
 70
   192
  0
VERTEX
  5
4F9
330
4DB
100
AcDbEntity
  8
Inox
100
AcDbVertex
100
AcDbPolyFaceMeshVertex
 10
-122.5
 20
-10.30000019073486
 30
368.5
 70
   192
  0
VERTEX
  5
4FA
330
4DB
100
AcDbEntity
  8
Inox
100
AcDbVertex
100
AcDbPolyFaceMeshVertex
 10
-22.5
 20
-10.30000019073486
 30
358.5
 70
   192
  0
VERTEX
  5
4FB
330
4DB
100
AcDbEntity
  8
Inox
100
AcDbVertex
100
AcDbPolyFaceMeshVertex
 10
-122.5
 20
-10.30000019073486
 30
348.5
 70
   192
  0
VERTEX
  5
4FC
330
4DB
100
AcDbEntity
  8
Inox
100
AcDbVertex
100
AcDbPolyFaceMeshVertex
 10
-22.5
 20
-10.0
 30
348.5
 70
   192
  0
VERTEX
  5
4FD
330
4DB
100
AcDbEntity
  8
Inox
100
AcDbVertex
100
AcDbPolyFaceMeshVertex
 10
-22.5
 20
-10.0
 30
368.5
 70
   192
  0
VERTEX
  5
4FE
330
4DB
100
AcDbEntity
  8
Inox
100
AcDbVertex
100
AcDbPolyFaceMeshVertex
 10
-222.5
 20
-10.0
 30
348.5
 70
   192
  0
VERTEX
  5
4FF
330
4DB
100
AcDbEntity
  8
Inox
100
AcDbVertex
100
AcDbPolyFaceMeshVertex
 10
-222.5
 20
-10.0
 30
368.5
 70
   192
  0
VERTEX
  5
500
330
4DB
100
AcDbEntity
  8
Inox
100
AcDbVertex
100
AcDbPolyFaceMeshVertex
 10
-222.5
 20
-10.0
 30
358.5
 70
   192
  0
VERTEX
  5
501
330
4DB
100
AcDbEntity
  8
Inox
100
AcDbVertex
100
AcDbPolyFaceMeshVertex
 10
-122.5
 20
-10.0
 30
368.5
 70
   192
  0
VERTEX
  5
502
330
4DB
100
AcDbEntity
  8
Inox
100
AcDbVertex
100
AcDbPolyFaceMeshVertex
 10
-22.5
 20
-10.0
 30
358.5
 70
   192
  0
VERTEX
  5
503
330
4DB
100
AcDbEntity
  8
Inox
100
AcDbVertex
100
AcDbPolyFaceMeshVertex
 10
-122.5
 20
-10.0
 30
348.5
 70
   192
  0
VERTEX
  5
504
330
4DB
100
AcDbEntity
  8
Inox
100
AcDbFaceRecord
 10
0.0
 20
0.0
 30
0.0
 70
   128
 71
     2
 72
     1
 73
     5
 74
     6
  0
VERTEX
  5
505
330
4DB
100
AcDbEntity
  8
Inox
100
AcDbFaceRecord
 10
0.0
 20
0.0
 30
0.0
 70
   128
 71
     3
 72
     4
 73
     6
 74
     5
  0
VERTEX
  5
506
330
4DB
100
AcDbEntity
  8
Inox
100
AcDbFaceRecord
 10
0.0
 20
0.0
 30
0.0
 70
   128
 71
     8
 72
     7
 73
    11
 74
    12
  0
VERTEX
  5
507
330
4DB
100
AcDbEntity
  8
Inox
100
AcDbFaceRecord
 10
0.0
 20
0.0
 30
0.0
 70
   128
 71
     9
 72
    10
 73
    12
 74
    11
  0
VERTEX
  5
508
330
4DB
100
AcDbEntity
  8
Inox
100
AcDbFaceRecord
 10
0.0
 20
0.0
 30
0.0
 70
   128
 71
    14
 72
    13
 73
    17
 74
    18
  0
VERTEX
  5
509
330
4DB
100
AcDbEntity
  8
Inox
100
AcDbFaceRecord
 10
0.0
 20
0.0
 30
0.0
 70
   128
 71
    15
 72
    16
 73
    18
 74
    17
  0
VERTEX
  5
50A
330
4DB
100
AcDbEntity
  8
Inox
100
AcDbFaceRecord
 10
0.0
 20
0.0
 30
0.0
 70
   128
 71
    20
 72
    19
 73
    23
 74
    24
  0
VERTEX
  5
50B
330
4DB
100
AcDbEntity
  8
Inox
100
AcDbFaceRecord
 10
0.0
 20
0.0
 30
0.0
 70
   128
 71
    21
 72
    22
 73
    24
 74
    23
  0
VERTEX
  5
50C
330
4DB
100
AcDbEntity
  8
Inox
100
AcDbFaceRecord
 10
0.0
 20
0.0
 30
0.0
 70
   128
 71
    31
 72
    32
 73
    25
 74
    25
  0
VERTEX
  5
50D
330
4DB
100
AcDbEntity
  8
Inox
100
AcDbFaceRecord
 10
0.0
 20
0.0
 30
0.0
 70
   128
 71
    31
 72
    26
 73
    30
 74
    30
  0
VERTEX
  5
50E
330
4DB
100
AcDbEntity
  8
Inox
100
AcDbFaceRecord
 10
0.0
 20
0.0
 30
0.0
 70
   128
 71
    29
 72
    32
 73
    31
 74
    31
  0
VERTEX
  5
50F
330
4DB
100
AcDbEntity
  8
Inox
100
AcDbFaceRecord
 10
0.0
 20
0.0
 30
0.0
 70
   128
 71
    31
 72
    30
 73
    29
 74
    29
  0
VERTEX
  5
510
330
4DB
100
AcDbEntity
  8
Inox
100
AcDbFaceRecord
 10
0.0
 20
0.0
 30
0.0
 70
   128
 71
    29
 72
    30
 73
    28
 74
    28
  0
VERTEX
  5
511
330
4DB
100
AcDbEntity
  8
Inox
100
AcDbFaceRecord
 10
0.0
 20
0.0
 30
0.0
 70
   128
 71
    27
 72
    32
 73
    29
 74
    29
  0
VERTEX
  5
512
330
4DB
100
AcDbEntity
  8
Inox
100
AcDbFaceRecord
 10
0.0
 20
0.0
 30
0.0
 70
   128
 71
    39
 72
    33
 73
    40
 74
    40
  0
VERTEX
  5
513
330
4DB
100
AcDbEntity
  8
Inox
100
AcDbFaceRecord
 10
0.0
 20
0.0
 30
0.0
 70
   128
 71
    39
 72
    38
 73
    34
 74
    34
  0
VERTEX
  5
514
330
4DB
100
AcDbEntity
  8
Inox
100
AcDbFaceRecord
 10
0.0
 20
0.0
 30
0.0
 70
   128
 71
    37
 72
    39
 73
    40
 74
    40
  0
VERTEX
  5
515
330
4DB
100
AcDbEntity
  8
Inox
100
AcDbFaceRecord
 10
0.0
 20
0.0
 30
0.0
 70
   128
 71
    39
 72
    37
 73
    38
 74
    38
  0
VERTEX
  5
516
330
4DB
100
AcDbEntity
  8
Inox
100
AcDbFaceRecord
 10
0.0
 20
0.0
 30
0.0
 70
   128
 71
    37
 72
    36
 73
    38
 74
    38
  0
VERTEX
  5
517
330
4DB
100
AcDbEntity
  8
Inox
100
AcDbFaceRecord
 10
0.0
 20
0.0
 30
0.0
 70
   128
 71
    35
 72
    37
 73
    40
 74
    40
  0
SEQEND
  5
518
330
4DB
100
AcDbEntity
  8
Inox
  0
POLYLINE
  5
519
330
1F
100
AcDbEntity
  8
Blanc
100
AcDbPolyFaceMesh
 66
     1
 10
0.0
 20
0.0
 30
0.0
 70
    64
 71
    40
 72
    20
  0
VERTEX
  5
51A
330
519
100
AcDbEntity
  8
Blanc
100
AcDbVertex
100
AcDbPolyFaceMeshVertex
 10
-287.5
 20
430.0
 30
10.0
 70
   192
  0
VERTEX
  5
51B
330
519
100
AcDbEntity
  8
Blanc
100
AcDbVertex
100
AcDbPolyFaceMeshVertex
 10
-287.5
 20
430.0
 30
210.0
 70
   192
  0
VERTEX
  5
51C
330
519
100
AcDbEntity
  8
Blanc
100
AcDbVertex
100
AcDbPolyFaceMeshVertex
 10
287.5
 20
430.0
 30
10.0
 70
   192
  0
VERTEX
  5
51D
330
519
100
AcDbEntity
  8
Blanc
100
AcDbVertex
100
AcDbPolyFaceMeshVertex
 10
287.5
 20
430.0
 30
210.0
 70
   192
  0
VERTEX
  5
51E
330
519
100
AcDbEntity
  8
Blanc
100
AcDbVertex
100
AcDbPolyFaceMeshVertex
 10
0.0
 20
430.0
 30
10.0
 70
   192
  0
VERTEX
  5
51F
330
519
100
AcDbEntity
  8
Blanc
100
AcDbVertex
100
AcDbPolyFaceMeshVertex
 10
287.5
 20
430.0
 30
110.0
 70
   192
  0
VERTEX
  5
520
330
519
100
AcDbEntity
  8
Blanc
100
AcDbVertex
100
AcDbPolyFaceMeshVertex
 10
0.0
 20
430.0
 30
210.0
 70
   192
  0
VERTEX
  5
521
330
519
100
AcDbEntity
  8
Blanc
100
AcDbVertex
100
AcDbPolyFaceMeshVertex
 10
-287.5
 20
430.0
 30
110.0
 70
   192
  0
VERTEX
  5
522
330
519
100
AcDbEntity
  8
Blanc
100
AcDbVertex
100
AcDbPolyFaceMeshVertex
 10
287.5
 20
430.0
 30
10.0
 70
   192
  0
VERTEX
  5
523
330
519
100
AcDbEntity
  8
Blanc
100
AcDbVertex
100
AcDbPolyFaceMeshVertex
 10
287.5
 20
430.0
 30
210.0
 70
   192
  0
VERTEX
  5
524
330
519
100
AcDbEntity
  8
Blanc
100
AcDbVertex
100
AcDbPolyFaceMeshVertex
 10
287.5
 20
440.0
 30
10.0
 70
   192
  0
VERTEX
  5
525
330
519
100
AcDbEntity
  8
Blanc
100
AcDbVertex
100
AcDbPolyFaceMeshVertex
 10
287.5
 20
440.0
 30
210.0
 70
   192
  0
VERTEX
  5
526
330
519
100
AcDbEntity
  8
Blanc
100
AcDbVertex
100
AcDbPolyFaceMeshVertex
 10
287.5
 20
430.0
 30
110.0
 70
   192
  0
VERTEX
  5
527
330
519
100
AcDbEntity
  8
Blanc
100
AcDbVertex
100
AcDbPolyFaceMeshVertex
 10
287.5
 20
440.0
 30
110.0
 70
   192
  0
VERTEX
  5
528
330
519
100
AcDbEntity
  8
Blanc
100
AcDbVertex
100
AcDbPolyFaceMeshVertex
 10
287.5
 20
440.0
 30
10.0
 70
   192
  0
VERTEX
  5
529
330
519
100
AcDbEntity
  8
Blanc
100
AcDbVertex
100
AcDbPolyFaceMeshVertex
 10
287.5
 20
440.0
 30
210.0
 70
   192
  0
VERTEX
  5
52A
330
519
100
AcDbEntity
  8
Blanc
100
AcDbVertex
100
AcDbPolyFaceMeshVertex
 10
-287.5
 20
440.0
 30
10.0
 70
   192
  0
VERTEX
  5
52B
330
519
100
AcDbEntity
  8
Blanc
100
AcDbVertex
100
AcDbPolyFaceMeshVertex
 10
-287.5
 20
440.0
 30
210.0
 70
   192
  0
VERTEX
  5
52C
330
519
100
AcDbEntity
  8
Blanc
100
AcDbVertex
100
AcDbPolyFaceMeshVertex
 10
287.5
 20
440.0
 30
110.0
 70
   192
  0
VERTEX
  5
52D
330
519
100
AcDbEntity
  8
Blanc
100
AcDbVertex
100
AcDbPolyFaceMeshVertex
 10
0.0
 20
440.0
 30
10.0
 70
   192
  0
VERTEX
  5
52E
330
519
100
AcDbEntity
  8
Blanc
100
AcDbVertex
100
AcDbPolyFaceMeshVertex
 10
-287.5
 20
440.0
 30
110.0
 70
   192
  0
VERTEX
  5
52F
330
519
100
AcDbEntity
  8
Blanc
100
AcDbVertex
100
AcDbPolyFaceMeshVertex
 10
0.0
 20
440.0
 30
210.0
 70
   192
  0
VERTEX
  5
530
330
519
100
AcDbEntity
  8
Blanc
100
AcDbVertex
100
AcDbPolyFaceMeshVertex
 10
-287.5
 20
440.0
 30
10.0
 70
   192
  0
VERTEX
  5
531
330
519
100
AcDbEntity
  8
Blanc
100
AcDbVertex
100
AcDbPolyFaceMeshVertex
 10
-287.5
 20
440.0
 30
210.0
 70
   192
  0
VERTEX
  5
532
330
519
100
AcDbEntity
  8
Blanc
100
AcDbVertex
100
AcDbPolyFaceMeshVertex
 10
-287.5
 20
430.0
 30
10.0
 70
   192
  0
VERTEX
  5
533
330
519
100
AcDbEntity
  8
Blanc
100
AcDbVertex
100
AcDbPolyFaceMeshVertex
 10
-287.5
 20
430.0
 30
210.0
 70
   192
  0
VERTEX
  5
534
330
519
100
AcDbEntity
  8
Blanc
100
AcDbVertex
100
AcDbPolyFaceMeshVertex
 10
-287.5
 20
430.0
 30
110.0
 70
   192
  0
VERTEX
  5
535
330
519
100
AcDbEntity
  8
Blanc
100
AcDbVertex
100
AcDbPolyFaceMeshVertex
 10
-287.5
 20
440.0
 30
110.0
 70
   192
  0
VERTEX
  5
536
330
519
100
AcDbEntity
  8
Blanc
100
AcDbVertex
100
AcDbPolyFaceMeshVertex
 10
-287.5
 20
430.0
 30
10.0
 70
   192
  0
VERTEX
  5
537
330
519
100
AcDbEntity
  8
Blanc
100
AcDbVertex
100
AcDbPolyFaceMeshVertex
 10
-287.5
 20
440.0
 30
10.0
 70
   192
  0
VERTEX
  5
538
330
519
100
AcDbEntity
  8
Blanc
100
AcDbVertex
100
AcDbPolyFaceMeshVertex
 10
287.5
 20
430.0
 30
10.0
 70
   192
  0
VERTEX
  5
539
330
519
100
AcDbEntity
  8
Blanc
100
AcDbVertex
100
AcDbPolyFaceMeshVertex
 10
287.5
 20
440.0
 30
10.0
 70
   192
  0
VERTEX
  5
53A
330
519
100
AcDbEntity
  8
Blanc
100
AcDbVertex
100
AcDbPolyFaceMeshVertex
 10
0.0
 20
430.0
 30
10.0
 70
   192
  0
VERTEX
  5
53B
330
519
100
AcDbEntity
  8
Blanc
100
AcDbVertex
100
AcDbPolyFaceMeshVertex
 10
0.0
 20
440.0
 30
10.0
 70
   192
  0
VERTEX
  5
53C
330
519
100
AcDbEntity
  8
Blanc
100
AcDbVertex
100
AcDbPolyFaceMeshVertex
 10
-287.5
 20
430.0
 30
210.0
 70
   192
  0
VERTEX
  5
53D
330
519
100
AcDbEntity
  8
Blanc
100
AcDbVertex
100
AcDbPolyFaceMeshVertex
 10
-287.5
 20
440.0
 30
210.0
 70
   192
  0
VERTEX
  5
53E
330
519
100
AcDbEntity
  8
Blanc
100
AcDbVertex
100
AcDbPolyFaceMeshVertex
 10
287.5
 20
430.0
 30
210.0
 70
   192
  0
VERTEX
  5
53F
330
519
100
AcDbEntity
  8
Blanc
100
AcDbVertex
100
AcDbPolyFaceMeshVertex
 10
287.5
 20
440.0
 30
210.0
 70
   192
  0
VERTEX
  5
540
330
519
100
AcDbEntity
  8
Blanc
100
AcDbVertex
100
AcDbPolyFaceMeshVertex
 10
0.0
 20
430.0
 30
210.0
 70
   192
  0
VERTEX
  5
541
330
519
100
AcDbEntity
  8
Blanc
100
AcDbVertex
100
AcDbPolyFaceMeshVertex
 10
0.0
 20
440.0
 30
210.0
 70
   192
  0
VERTEX
  5
542
330
519
100
AcDbEntity
  8
Blanc
100
AcDbFaceRecord
 10
0.0
 20
0.0
 30
0.0
 70
   128
 71
     8
 72
     1
 73
     5
 74
     5
  0
VERTEX
  5
543
330
519
100
AcDbEntity
  8
Blanc
100
AcDbFaceRecord
 10
0.0
 20
0.0
 30
0.0
 70
   128
 71
     8
 72
     7
 73
     2
 74
     2
  0
VERTEX
  5
544
330
519
100
AcDbEntity
  8
Blanc
100
AcDbFaceRecord
 10
0.0
 20
0.0
 30
0.0
 70
   128
 71
     6
 72
     8
 73
     5
 74
     5
  0
VERTEX
  5
545
330
519
100
AcDbEntity
  8
Blanc
100
AcDbFaceRecord
 10
0.0
 20
0.0
 30
0.0
 70
   128
 71
     8
 72
     6
 73
     7
 74
     7
  0
VERTEX
  5
546
330
519
100
AcDbEntity
  8
Blanc
100
AcDbFaceRecord
 10
0.0
 20
0.0
 30
0.0
 70
   128
 71
     6
 72
     4
 73
     7
 74
     7
  0
VERTEX
  5
547
330
519
100
AcDbEntity
  8
Blanc
100
AcDbFaceRecord
 10
0.0
 20
0.0
 30
0.0
 70
   128
 71
     3
 72
     6
 73
     5
 74
     5
  0
VERTEX
  5
548
330
519
100
AcDbEntity
  8
Blanc
100
AcDbFaceRecord
 10
0.0
 20
0.0
 30
0.0
 70
   128
 71
    13
 72
     9
 73
    11
 74
    14
  0
VERTEX
  5
549
330
519
100
AcDbEntity
  8
Blanc
100
AcDbFaceRecord
 10
0.0
 20
0.0
 30
0.0
 70
   128
 71
    10
 72
    13
 73
    14
 74
    12
  0
VERTEX
  5
54A
330
519
100
AcDbEntity
  8
Blanc
100
AcDbFaceRecord
 10
0.0
 20
0.0
 30
0.0
 70
   128
 71
    19
 72
    15
 73
    20
 74
    20
  0
VERTEX
  5
54B
330
519
100
AcDbEntity
  8
Blanc
100
AcDbFaceRecord
 10
0.0
 20
0.0
 30
0.0
 70
   128
 71
    19
 72
    22
 73
    16
 74
    16
  0
VERTEX
  5
54C
330
519
100
AcDbEntity
  8
Blanc
100
AcDbFaceRecord
 10
0.0
 20
0.0
 30
0.0
 70
   128
 71
    21
 72
    19
 73
    20
 74
    20
  0
VERTEX
  5
54D
330
519
100
AcDbEntity
  8
Blanc
100
AcDbFaceRecord
 10
0.0
 20
0.0
 30
0.0
 70
   128
 71
    19
 72
    21
 73
    22
 74
    22
  0
VERTEX
  5
54E
330
519
100
AcDbEntity
  8
Blanc
100
AcDbFaceRecord
 10
0.0
 20
0.0
 30
0.0
 70
   128
 71
    21
 72
    18
 73
    22
 74
    22
  0
VERTEX
  5
54F
330
519
100
AcDbEntity
  8
Blanc
100
AcDbFaceRecord
 10
0.0
 20
0.0
 30
0.0
 70
   128
 71
    17
 72
    21
 73
    20
 74
    20
  0
VERTEX
  5
550
330
519
100
AcDbEntity
  8
Blanc
100
AcDbFaceRecord
 10
0.0
 20
0.0
 30
0.0
 70
   128
 71
    28
 72
    23
 73
    25
 74
    27
  0
VERTEX
  5
551
330
519
100
AcDbEntity
  8
Blanc
100
AcDbFaceRecord
 10
0.0
 20
0.0
 30
0.0
 70
   128
 71
    24
 72
    28
 73
    27
 74
    26
  0
VERTEX
  5
552
330
519
100
AcDbEntity
  8
Blanc
100
AcDbFaceRecord
 10
0.0
 20
0.0
 30
0.0
 70
   128
 71
    30
 72
    34
 73
    33
 74
    29
  0
VERTEX
  5
553
330
519
100
AcDbEntity
  8
Blanc
100
AcDbFaceRecord
 10
0.0
 20
0.0
 30
0.0
 70
   128
 71
    31
 72
    33
 73
    34
 74
    32
  0
VERTEX
  5
554
330
519
100
AcDbEntity
  8
Blanc
100
AcDbFaceRecord
 10
0.0
 20
0.0
 30
0.0
 70
   128
 71
    36
 72
    35
 73
    39
 74
    40
  0
VERTEX
  5
555
330
519
100
AcDbEntity
  8
Blanc
100
AcDbFaceRecord
 10
0.0
 20
0.0
 30
0.0
 70
   128
 71
    37
 72
    38
 73
    40
 74
    39
  0
SEQEND
  5
556
330
519
100
AcDbEntity
  8
Blanc
  0
POLYLINE
  5
557
330
1F
100
AcDbEntity
  8
Blanc
100
AcDbPolyFaceMesh
 66
     1
 10
0.0
 20
0.0
 30
0.0
 70
    64
 71
    40
 72
    20
  0
VERTEX
  5
558
330
557
100
AcDbEntity
  8
Blanc
100
AcDbVertex
100
AcDbPolyFaceMeshVertex
 10
287.5
 20
430.0
 30
10.0
 70
   192
  0
VERTEX
  5
559
330
557
100
AcDbEntity
  8
Blanc
100
AcDbVertex
100
AcDbPolyFaceMeshVertex
 10
287.5
 20
430.0
 30
0.0
 70
   192
  0
VERTEX
  5
55A
330
557
100
AcDbEntity
  8
Blanc
100
AcDbVertex
100
AcDbPolyFaceMeshVertex
 10
287.5
 20
0.0
 30
10.0
 70
   192
  0
VERTEX
  5
55B
330
557
100
AcDbEntity
  8
Blanc
100
AcDbVertex
100
AcDbPolyFaceMeshVertex
 10
287.5
 20
0.0
 30
0.0
 70
   192
  0
VERTEX
  5
55C
330
557
100
AcDbEntity
  8
Blanc
100
AcDbVertex
100
AcDbPolyFaceMeshVertex
 10
287.5
 20
215.0
 30
10.0
 70
   192
  0
VERTEX
  5
55D
330
557
100
AcDbEntity
  8
Blanc
100
AcDbVertex
100
AcDbPolyFaceMeshVertex
 10
287.5
 20
215.0
 30
0.0
 70
   192
  0
VERTEX
  5
55E
330
557
100
AcDbEntity
  8
Blanc
100
AcDbVertex
100
AcDbPolyFaceMeshVertex
 10
287.5
 20
0.0
 30
10.0
 70
   192
  0
VERTEX
  5
55F
330
557
100
AcDbEntity
  8
Blanc
100
AcDbVertex
100
AcDbPolyFaceMeshVertex
 10
287.5
 20
0.0
 30
0.0
 70
   192
  0
VERTEX
  5
560
330
557
100
AcDbEntity
  8
Blanc
100
AcDbVertex
100
AcDbPolyFaceMeshVertex
 10
-287.5
 20
0.0
 30
10.0
 70
   192
  0
VERTEX
  5
561
330
557
100
AcDbEntity
  8
Blanc
100
AcDbVertex
100
AcDbPolyFaceMeshVertex
 10
-287.5
 20
0.0
 30
0.0
 70
   192
  0
VERTEX
  5
562
330
557
100
AcDbEntity
  8
Blanc
100
AcDbVertex
100
AcDbPolyFaceMeshVertex
 10
0.0
 20
0.0
 30
10.0
 70
   192
  0
VERTEX
  5
563
330
557
100
AcDbEntity
  8
Blanc
100
AcDbVertex
100
AcDbPolyFaceMeshVertex
 10
0.0
 20
0.0
 30
0.0
 70
   192
  0
VERTEX
  5
564
330
557
100
AcDbEntity
  8
Blanc
100
AcDbVertex
100
AcDbPolyFaceMeshVertex
 10
-287.5
 20
0.0
 30
10.0
 70
   192
  0
VERTEX
  5
565
330
557
100
AcDbEntity
  8
Blanc
100
AcDbVertex
100
AcDbPolyFaceMeshVertex
 10
-287.5
 20
0.0
 30
0.0
 70
   192
  0
VERTEX
  5
566
330
557
100
AcDbEntity
  8
Blanc
100
AcDbVertex
100
AcDbPolyFaceMeshVertex
 10
-287.5
 20
430.0
 30
10.0
 70
   192
  0
VERTEX
  5
567
330
557
100
AcDbEntity
  8
Blanc
100
AcDbVertex
100
AcDbPolyFaceMeshVertex
 10
-287.5
 20
430.0
 30
0.0
 70
   192
  0
VERTEX
  5
568
330
557
100
AcDbEntity
  8
Blanc
100
AcDbVertex
100
AcDbPolyFaceMeshVertex
 10
-287.5
 20
215.0
 30
10.0
 70
   192
  0
VERTEX
  5
569
330
557
100
AcDbEntity
  8
Blanc
100
AcDbVertex
100
AcDbPolyFaceMeshVertex
 10
-287.5
 20
215.0
 30
0.0
 70
   192
  0
VERTEX
  5
56A
330
557
100
AcDbEntity
  8
Blanc
100
AcDbVertex
100
AcDbPolyFaceMeshVertex
 10
-287.5
 20
430.0
 30
10.0
 70
   192
  0
VERTEX
  5
56B
330
557
100
AcDbEntity
  8
Blanc
100
AcDbVertex
100
AcDbPolyFaceMeshVertex
 10
-287.5
 20
430.0
 30
0.0
 70
   192
  0
VERTEX
  5
56C
330
557
100
AcDbEntity
  8
Blanc
100
AcDbVertex
100
AcDbPolyFaceMeshVertex
 10
287.5
 20
430.0
 30
10.0
 70
   192
  0
VERTEX
  5
56D
330
557
100
AcDbEntity
  8
Blanc
100
AcDbVertex
100
AcDbPolyFaceMeshVertex
 10
287.5
 20
430.0
 30
0.0
 70
   192
  0
VERTEX
  5
56E
330
557
100
AcDbEntity
  8
Blanc
100
AcDbVertex
100
AcDbPolyFaceMeshVertex
 10
0.0
 20
430.0
 30
10.0
 70
   192
  0
VERTEX
  5
56F
330
557
100
AcDbEntity
  8
Blanc
100
AcDbVertex
100
AcDbPolyFaceMeshVertex
 10
0.0
 20
430.0
 30
0.0
 70
   192
  0
VERTEX
  5
570
330
557
100
AcDbEntity
  8
Blanc
100
AcDbVertex
100
AcDbPolyFaceMeshVertex
 10
287.5
 20
430.0
 30
10.0
 70
   192
  0
VERTEX
  5
571
330
557
100
AcDbEntity
  8
Blanc
100
AcDbVertex
100
AcDbPolyFaceMeshVertex
 10
-287.5
 20
430.0
 30
10.0
 70
   192
  0
VERTEX
  5
572
330
557
100
AcDbEntity
  8
Blanc
100
AcDbVertex
100
AcDbPolyFaceMeshVertex
 10
287.5
 20
0.0
 30
10.0
 70
   192
  0
VERTEX
  5
573
330
557
100
AcDbEntity
  8
Blanc
100
AcDbVertex
100
AcDbPolyFaceMeshVertex
 10
-287.5
 20
0.0
 30
10.0
 70
   192
  0
VERTEX
  5
574
330
557
100
AcDbEntity
  8
Blanc
100
AcDbVertex
100
AcDbPolyFaceMeshVertex
 10
287.5
 20
215.0
 30
10.0
 70
   192
  0
VERTEX
  5
575
330
557
100
AcDbEntity
  8
Blanc
100
AcDbVertex
100
AcDbPolyFaceMeshVertex
 10
0.0
 20
0.0
 30
10.0
 70
   192
  0
VERTEX
  5
576
330
557
100
AcDbEntity
  8
Blanc
100
AcDbVertex
100
AcDbPolyFaceMeshVertex
 10
-287.5
 20
215.0
 30
10.0
 70
   192
  0
VERTEX
  5
577
330
557
100
AcDbEntity
  8
Blanc
100
AcDbVertex
100
AcDbPolyFaceMeshVertex
 10
0.0
 20
430.0
 30
10.0
 70
   192
  0
VERTEX
  5
578
330
557
100
AcDbEntity
  8
Blanc
100
AcDbVertex
100
AcDbPolyFaceMeshVertex
 10
287.5
 20
430.0
 30
0.0
 70
   192
  0
VERTEX
  5
579
330
557
100
AcDbEntity
  8
Blanc
100
AcDbVertex
100
AcDbPolyFaceMeshVertex
 10
-287.5
 20
430.0
 30
0.0
 70
   192
  0
VERTEX
  5
57A
330
557
100
AcDbEntity
  8
Blanc
100
AcDbVertex
100
AcDbPolyFaceMeshVertex
 10
287.5
 20
0.0
 30
0.0
 70
   192
  0
VERTEX
  5
57B
330
557
100
AcDbEntity
  8
Blanc
100
AcDbVertex
100
AcDbPolyFaceMeshVertex
 10
-287.5
 20
0.0
 30
0.0
 70
   192
  0
VERTEX
  5
57C
330
557
100
AcDbEntity
  8
Blanc
100
AcDbVertex
100
AcDbPolyFaceMeshVertex
 10
287.5
 20
215.0
 30
0.0
 70
   192
  0
VERTEX
  5
57D
330
557
100
AcDbEntity
  8
Blanc
100
AcDbVertex
100
AcDbPolyFaceMeshVertex
 10
0.0
 20
0.0
 30
0.0
 70
   192
  0
VERTEX
  5
57E
330
557
100
AcDbEntity
  8
Blanc
100
AcDbVertex
100
AcDbPolyFaceMeshVertex
 10
-287.5
 20
215.0
 30
0.0
 70
   192
  0
VERTEX
  5
57F
330
557
100
AcDbEntity
  8
Blanc
100
AcDbVertex
100
AcDbPolyFaceMeshVertex
 10
0.0
 20
430.0
 30
0.0
 70
   192
  0
VERTEX
  5
580
330
557
100
AcDbEntity
  8
Blanc
100
AcDbFaceRecord
 10
0.0
 20
0.0
 30
0.0
 70
   128
 71
     2
 72
     1
 73
     5
 74
     6
  0
VERTEX
  5
581
330
557
100
AcDbEntity
  8
Blanc
100
AcDbFaceRecord
 10
0.0
 20
0.0
 30
0.0
 70
   128
 71
     3
 72
     4
 73
     6
 74
     5
  0
VERTEX
  5
582
330
557
100
AcDbEntity
  8
Blanc
100
AcDbFaceRecord
 10
0.0
 20
0.0
 30
0.0
 70
   128
 71
     8
 72
     7
 73
    11
 74
    12
  0
VERTEX
  5
583
330
557
100
AcDbEntity
  8
Blanc
100
AcDbFaceRecord
 10
0.0
 20
0.0
 30
0.0
 70
   128
 71
     9
 72
    10
 73
    12
 74
    11
  0
VERTEX
  5
584
330
557
100
AcDbEntity
  8
Blanc
100
AcDbFaceRecord
 10
0.0
 20
0.0
 30
0.0
 70
   128
 71
    14
 72
    13
 73
    17
 74
    18
  0
VERTEX
  5
585
330
557
100
AcDbEntity
  8
Blanc
100
AcDbFaceRecord
 10
0.0
 20
0.0
 30
0.0
 70
   128
 71
    15
 72
    16
 73
    18
 74
    17
  0
VERTEX
  5
586
330
557
100
AcDbEntity
  8
Blanc
100
AcDbFaceRecord
 10
0.0
 20
0.0
 30
0.0
 70
   128
 71
    20
 72
    19
 73
    23
 74
    24
  0
VERTEX
  5
587
330
557
100
AcDbEntity
  8
Blanc
100
AcDbFaceRecord
 10
0.0
 20
0.0
 30
0.0
 70
   128
 71
    21
 72
    22
 73
    24
 74
    23
  0
VERTEX
  5
588
330
557
100
AcDbEntity
  8
Blanc
100
AcDbFaceRecord
 10
0.0
 20
0.0
 30
0.0
 70
   128
 71
    32
 72
    29
 73
    25
 74
    25
  0
VERTEX
  5
589
330
557
100
AcDbEntity
  8
Blanc
100
AcDbFaceRecord
 10
0.0
 20
0.0
 30
0.0
 70
   128
 71
    32
 72
    26
 73
    31
 74
    31
  0
VERTEX
  5
58A
330
557
100
AcDbEntity
  8
Blanc
100
AcDbFaceRecord
 10
0.0
 20
0.0
 30
0.0
 70
   128
 71
    30
 72
    29
 73
    32
 74
    32
  0
VERTEX
  5
58B
330
557
100
AcDbEntity
  8
Blanc
100
AcDbFaceRecord
 10
0.0
 20
0.0
 30
0.0
 70
   128
 71
    32
 72
    31
 73
    30
 74
    30
  0
VERTEX
  5
58C
330
557
100
AcDbEntity
  8
Blanc
100
AcDbFaceRecord
 10
0.0
 20
0.0
 30
0.0
 70
   128
 71
    30
 72
    31
 73
    28
 74
    28
  0
VERTEX
  5
58D
330
557
100
AcDbEntity
  8
Blanc
100
AcDbFaceRecord
 10
0.0
 20
0.0
 30
0.0
 70
   128
 71
    27
 72
    29
 73
    30
 74
    30
  0
VERTEX
  5
58E
330
557
100
AcDbEntity
  8
Blanc
100
AcDbFaceRecord
 10
0.0
 20
0.0
 30
0.0
 70
   128
 71
    40
 72
    33
 73
    37
 74
    37
  0
VERTEX
  5
58F
330
557
100
AcDbEntity
  8
Blanc
100
AcDbFaceRecord
 10
0.0
 20
0.0
 30
0.0
 70
   128
 71
    40
 72
    39
 73
    34
 74
    34
  0
VERTEX
  5
590
330
557
100
AcDbEntity
  8
Blanc
100
AcDbFaceRecord
 10
0.0
 20
0.0
 30
0.0
 70
   128
 71
    38
 72
    40
 73
    37
 74
    37
  0
VERTEX
  5
591
330
557
100
AcDbEntity
  8
Blanc
100
AcDbFaceRecord
 10
0.0
 20
0.0
 30
0.0
 70
   128
 71
    40
 72
    38
 73
    39
 74
    39
  0
VERTEX
  5
592
330
557
100
AcDbEntity
  8
Blanc
100
AcDbFaceRecord
 10
0.0
 20
0.0
 30
0.0
 70
   128
 71
    38
 72
    36
 73
    39
 74
    39
  0
VERTEX
  5
593
330
557
100
AcDbEntity
  8
Blanc
100
AcDbFaceRecord
 10
0.0
 20
0.0
 30
0.0
 70
   128
 71
    35
 72
    38
 73
    37
 74
    37
  0
SEQEND
  5
594
330
557
100
AcDbEntity
  8
Blanc
  0
ENDSEC
  0
SECTION
  2
OBJECTS
  0
DICTIONARY
  5
C
330
0
100
AcDbDictionary
281
     1
  3
ACAD_GROUP
350
D
  3
ACAD_LAYOUT
350
1A
  3
ACAD_MATERIAL
350
3B
  3
ACAD_MLEADERSTYLE
350
5BF
  3
ACAD_MLINESTYLE
350
17
  3
ACAD_PLOTSETTINGS
350
19
  3
ACAD_PLOTSTYLENAME
350
E
  3
ACAD_SCALELIST
350
3F
  3
ACAD_TABLESTYLE
350
5BE
  3
ACAD_VISUALSTYLE
350
2A
  3
AcDbVariableDictionary
350
595
  0
DICTIONARY
  5
D
102
{ACAD_REACTORS
330
C
102
}
330
C
100
AcDbDictionary
281
     1
  0
DICTIONARY
  5
1A
102
{ACAD_REACTORS
330
C
102
}
330
C
100
AcDbDictionary
281
     1
  3
Layout1
350
1E
  3
Layout2
350
26
  3
Model
350
22
  0
DICTIONARY
  5
3B
102
{ACAD_REACTORS
330
C
102
}
330
C
100
AcDbDictionary
281
     1
  3
ByBlock
350
3D
  3
ByLayer
350
3C
  3
Global
350
3E
  0
DICTIONARY
  5
5BF
102
{ACAD_REACTORS
330
C
102
}
330
C
100
AcDbDictionary
281
     1
  0
DICTIONARY
  5
17
102
{ACAD_REACTORS
330
C
102
}
330
C
100
AcDbDictionary
281
     1
  3
Standard
350
18
  0
DICTIONARY
  5
19
102
{ACAD_REACTORS
330
C
102
}
330
C
100
AcDbDictionary
281
     1
  0
ACDBDICTIONARYWDFLT
  5
E
102
{ACAD_REACTORS
330
C
102
}
330
C
100
AcDbDictionary
281
     1
  3
Normal
350
F
100
AcDbDictionaryWithDefault
340
F
  0
DICTIONARY
  5
3F
102
{ACAD_REACTORS
330
C
102
}
330
C
100
AcDbDictionary
281
     1
  3
A0
350
40
  3
A1
350
41
  3
A2
350
42
  3
A3
350
43
  3
A4
350
44
  3
A5
350
45
  3
A6
350
46
  3
A7
350
47
  3
A8
350
48
  3
A9
350
49
  3
B0
350
4A
  3
B1
350
4B
  3
B2
350
4C
  3
B3
350
4D
  3
B4
350
4E
  3
B5
350
4F
  3
B6
350
50
  3
B7
350
51
  3
B8
350
52
  3
B9
350
53
  3
C0
350
54
  3
C1
350
55
  3
C2
350
56
  3
C3
350
57
  3
C4
350
58
  3
C5
350
59
  3
C6
350
5A
  3
C7
350
5B
  3
C8
350
5C
  3
C9
350
5D
  3
D0
350
5E
  3
D1
350
5F
  3
D2
350
60
  0
DICTIONARY
  5
5BE
102
{ACAD_REACTORS
330
C
102
}
330
C
100
AcDbDictionary
281
     1
  0
DICTIONARY
  5
2A
102
{ACAD_REACTORS
330
C
102
}
330
C
100
AcDbDictionary
281
     1
  3
2dWireframe
350
2F
  3
3D Hidden
350
31
  3
3dWireframe
350
30
  3
Basic
350
32
  3
Brighten
350
36
  3
ColorChange
350
3A
  3
Conceptual
350
34
  3
Dim
350
35
  3
Facepattern
350
39
  3
Flat
350
2B
  3
FlatWithEdges
350
2C
  3
Gouraud
350
2D
  3
GouraudWithEdges
350
2E
  3
Linepattern
350
38
  3
Realistic
350
33
  3
Thicken
350
37
  0
DICTIONARY
  5
595
102
{ACAD_REACTORS
330
C
102
}
330
C
100
AcDbDictionary
281
     1
  3
CANNOSCALE
350
596
  3
MSLTSCALE
350
597
  0
LAYOUT
  5
1E
102
{ACAD_REACTORS
330
1A
102
}
330
1A
100
AcDbPlotSettings
  1

  2
none_device
  4

  6

 40
0.0
 41
0.0
 42
0.0
 43
0.0
 44
0.0
 45
0.0
 46
0.0
 47
0.0
 48
0.0
 49
0.0
140
0.0
141
0.0
142
1.0
143
1.0
 70
   688
 72
     0
 73
     0
 74
     5
  7

 75
    16
 76
     0
 77
     2
 78
   300
147
1.0
148
0.0
149
0.0
100
AcDbLayout
  1
Layout1
 70
     1
 71
     1
 10
0.0
 20
0.0
 11
12.0
 21
9.0
 12
0.0
 22
0.0
 32
0.0
 14
1.000000000000000E+20
 24
1.000000000000000E+20
 34
1.000000000000000E+20
 15
-1.000000000000000E+20
 25
-1.000000000000000E+20
 35
-1.000000000000000E+20
146
0.0
 13
0.0
 23
0.0
 33
0.0
 16
1.0
 26
0.0
 36
0.0
 17
0.0
 27
1.0
 37
0.0
 76
     0
330
1B
  0
LAYOUT
  5
26
102
{ACAD_REACTORS
330
1A
102
}
330
1A
100
AcDbPlotSettings
  1

  2
none_device
  4

  6

 40
0.0
 41
0.0
 42
0.0
 43
0.0
 44
0.0
 45
0.0
 46
0.0
 47
0.0
 48
0.0
 49
0.0
140
0.0
141
0.0
142
1.0
143
1.0
 70
   688
 72
     0
 73
     0
 74
     5
  7

 75
    16
 76
     0
 77
     2
 78
   300
147
1.0
148
0.0
149
0.0
100
AcDbLayout
  1
Layout2
 70
     1
 71
     2
 10
0.0
 20
0.0
 11
0.0
 21
0.0
 12
0.0
 22
0.0
 32
0.0
 14
0.0
 24
0.0
 34
0.0
 15
0.0
 25
0.0
 35
0.0
146
0.0
 13
0.0
 23
0.0
 33
0.0
 16
1.0
 26
0.0
 36
0.0
 17
0.0
 27
1.0
 37
0.0
 76
     0
330
23
  0
LAYOUT
  5
22
102
{ACAD_REACTORS
330
1A
102
}
330
1A
100
AcDbPlotSettings
  1

  2
none_device
  4
Letter_(8.50_x_11.00_Inches)
  6

 40
6.35
 41
6.35
 42
6.35000508
 43
6.35000508
 44
215.9
 45
279.4
 46
0.0
 47
0.0
 48
0.0
 49
0.0
140
0.0
141
0.0
142
1.0
143
1.0
 70
  1712
 72
     0
 73
     0
 74
     0
  7

 75
     0
 76
     0
 77
     2
 78
   300
147
1.0
148
0.0
149
0.0
100
AcDbLayout
  1
Model
 70
     1
 71
     0
 10
0.0
 20
0.0
 11
12.0
 21
9.0
 12
0.0
 22
0.0
 32
0.0
 14
-297.5
 24
-25.29999923706055
 34
0.0
 15
297.5
 25
440.0
 35
634.0
146
0.0
 13
0.0
 23
0.0
 33
0.0
 16
1.0
 26
0.0
 36
0.0
 17
0.0
 27
1.0
 37
0.0
 76
     0
330
1F
331
29
  0
MATERIAL
  5
3D
102
{ACAD_REACTORS
330
3B
102
}
102
{ACAD_XDICTIONARY
360
5BA
102
}
330
3B
100
AcDbMaterial
  1
ByBlock
  0
MATERIAL
  5
3C
102
{ACAD_REACTORS
330
3B
102
}
102
{ACAD_XDICTIONARY
360
5B8
102
}
330
3B
100
AcDbMaterial
  1
ByLayer
  0
MATERIAL
  5
3E
102
{ACAD_REACTORS
330
3B
102
}
102
{ACAD_XDICTIONARY
360
5BC
102
}
330
3B
100
AcDbMaterial
  1
Global
  0
MLINESTYLE
  5
18
102
{ACAD_REACTORS
330
17
102
}
330
17
100
AcDbMlineStyle
  2
Standard
 70
     0
  3

 62
   256
 51
90.0
 52
90.0
 71
     2
 49
0.5
 62
   256
  6
BYLAYER
 49
-0.5
 62
   256
  6
BYLAYER
  0
ACDBPLACEHOLDER
  5
F
102
{ACAD_REACTORS
330
E
102
}
330
E
  0
SCALE
  5
40
102
{ACAD_REACTORS
330
3F
102
}
330
3F
100
AcDbScale
 70
     0
300
1:1
140
1.0
141
1.0
290
     1
  0
SCALE
  5
41
102
{ACAD_REACTORS
330
3F
102
}
330
3F
100
AcDbScale
 70
     0
300
1:2
140
1.0
141
2.0
290
     0
  0
SCALE
  5
42
102
{ACAD_REACTORS
330
3F
102
}
330
3F
100
AcDbScale
 70
     0
300
1:4
140
1.0
141
4.0
290
     0
  0
SCALE
  5
43
102
{ACAD_REACTORS
330
3F
102
}
330
3F
100
AcDbScale
 70
     0
300
1:5
140
1.0
141
5.0
290
     0
  0
SCALE
  5
44
102
{ACAD_REACTORS
330
3F
102
}
330
3F
100
AcDbScale
 70
     0
300
1:8
140
1.0
141
8.0
290
     0
  0
SCALE
  5
45
102
{ACAD_REACTORS
330
3F
102
}
330
3F
100
AcDbScale
 70
     0
300
1:10
140
1.0
141
10.0
290
     0
  0
SCALE
  5
46
102
{ACAD_REACTORS
330
3F
102
}
330
3F
100
AcDbScale
 70
     0
300
1:16
140
1.0
141
16.0
290
     0
  0
SCALE
  5
47
102
{ACAD_REACTORS
330
3F
102
}
330
3F
100
AcDbScale
 70
     0
300
1:20
140
1.0
141
20.0
290
     0
  0
SCALE
  5
48
102
{ACAD_REACTORS
330
3F
102
}
330
3F
100
AcDbScale
 70
     0
300
1:30
140
1.0
141
30.0
290
     0
  0
SCALE
  5
49
102
{ACAD_REACTORS
330
3F
102
}
330
3F
100
AcDbScale
 70
     0
300
1:40
140
1.0
141
40.0
290
     0
  0
SCALE
  5
4A
102
{ACAD_REACTORS
330
3F
102
}
330
3F
100
AcDbScale
 70
     0
300
1:50
140
1.0
141
50.0
290
     0
  0
SCALE
  5
4B
102
{ACAD_REACTORS
330
3F
102
}
330
3F
100
AcDbScale
 70
     0
300
1:100
140
1.0
141
100.0
290
     0
  0
SCALE
  5
4C
102
{ACAD_REACTORS
330
3F
102
}
330
3F
100
AcDbScale
 70
     0
300
2:1
140
2.0
141
1.0
290
     0
  0
SCALE
  5
4D
102
{ACAD_REACTORS
330
3F
102
}
330
3F
100
AcDbScale
 70
     0
300
4:1
140
4.0
141
1.0
290
     0
  0
SCALE
  5
4E
102
{ACAD_REACTORS
330
3F
102
}
330
3F
100
AcDbScale
 70
     0
300
8:1
140
8.0
141
1.0
290
     0
  0
SCALE
  5
4F
102
{ACAD_REACTORS
330
3F
102
}
330
3F
100
AcDbScale
 70
     0
300
10:1
140
10.0
141
1.0
290
     0
  0
SCALE
  5
50
102
{ACAD_REACTORS
330
3F
102
}
330
3F
100
AcDbScale
 70
     0
300
100:1
140
100.0
141
1.0
290
     0
  0
SCALE
  5
51
102
{ACAD_REACTORS
330
3F
102
}
330
3F
100
AcDbScale
 70
     0
300
1/128" = 1'-0"
140
0.0078125
141
12.0
290
     0
  0
SCALE
  5
52
102
{ACAD_REACTORS
330
3F
102
}
330
3F
100
AcDbScale
 70
     0
300
1/64" = 1'-0"
140
0.015625
141
12.0
290
     0
  0
SCALE
  5
53
102
{ACAD_REACTORS
330
3F
102
}
330
3F
100
AcDbScale
 70
     0
300
1/32" = 1'-0"
140
0.03125
141
12.0
290
     0
  0
SCALE
  5
54
102
{ACAD_REACTORS
330
3F
102
}
330
3F
100
AcDbScale
 70
     0
300
1/16" = 1'-0"
140
0.0625
141
12.0
290
     0
  0
SCALE
  5
55
102
{ACAD_REACTORS
330
3F
102
}
330
3F
100
AcDbScale
 70
     0
300
3/32" = 1'-0"
140
0.09375
141
12.0
290
     0
  0
SCALE
  5
56
102
{ACAD_REACTORS
330
3F
102
}
330
3F
100
AcDbScale
 70
     0
300
1/8" = 1'-0"
140
0.125
141
12.0
290
     0
  0
SCALE
  5
57
102
{ACAD_REACTORS
330
3F
102
}
330
3F
100
AcDbScale
 70
     0
300
3/16" = 1'-0"
140
0.1875
141
12.0
290
     0
  0
SCALE
  5
58
102
{ACAD_REACTORS
330
3F
102
}
330
3F
100
AcDbScale
 70
     0
300
1/4" = 1'-0"
140
0.25
141
12.0
290
     0
  0
SCALE
  5
59
102
{ACAD_REACTORS
330
3F
102
}
330
3F
100
AcDbScale
 70
     0
300
3/8" = 1'-0"
140
0.375
141
12.0
290
     0
  0
SCALE
  5
5A
102
{ACAD_REACTORS
330
3F
102
}
330
3F
100
AcDbScale
 70
     0
300
1/2" = 1'-0"
140
0.5
141
12.0
290
     0
  0
SCALE
  5
5B
102
{ACAD_REACTORS
330
3F
102
}
330
3F
100
AcDbScale
 70
     0
300
3/4" = 1'-0"
140
0.75
141
12.0
290
     0
  0
SCALE
  5
5C
102
{ACAD_REACTORS
330
3F
102
}
330
3F
100
AcDbScale
 70
     0
300
1" = 1'-0"
140
1.0
141
12.0
290
     0
  0
SCALE
  5
5D
102
{ACAD_REACTORS
330
3F
102
}
330
3F
100
AcDbScale
 70
     0
300
1-1/2" = 1'-0"
140
1.5
141
12.0
290
     0
  0
SCALE
  5
5E
102
{ACAD_REACTORS
330
3F
102
}
330
3F
100
AcDbScale
 70
     0
300
3" = 1'-0"
140
3.0
141
12.0
290
     0
  0
SCALE
  5
5F
102
{ACAD_REACTORS
330
3F
102
}
330
3F
100
AcDbScale
 70
     0
300
6" = 1'-0"
140
6.0
141
12.0
290
     0
  0
SCALE
  5
60
102
{ACAD_REACTORS
330
3F
102
}
330
3F
100
AcDbScale
 70
     0
300
1'-0" = 1'-0"
140
12.0
141
12.0
290
     0
  0
VISUALSTYLE
  5
2F
102
{ACAD_REACTORS
330
2A
102
}
102
{ACAD_XDICTIONARY
360
5A0
102
}
330
2A
100
AcDbVisualStyle
  2
2dWireframe
 70
     4
 71
     0
 72
     2
 73
     0
 90
        0
 40
0.6
 41
30.0
 62
     5
 63
     7
421
 16777215
 74
     1
 91
        4
 64
     7
 65
   257
 75
     1
175
     1
 42
1.0
 92
        0
 66
   257
 43
1.0
 76
     1
 77
     6
 78
     2
 67
     7
 79
     5
170
     0
171
     0
290
     0
174
     0
 93
        1
 44
0.0
173
     0
291
     0
 45
0.0
1001
ACAD
1000
AcDbSavedByObjectVersion
1070
     0
  0
VISUALSTYLE
  5
31
102
{ACAD_REACTORS
330
2A
102
}
102
{ACAD_XDICTIONARY
360
5A4
102
}
330
2A
100
AcDbVisualStyle
  2
3D Hidden
 70
     6
 71
     1
 72
     2
 73
     2
 90
        0
 40
0.6
 41
30.0
 62
     5
 63
     7
421
 16777215
 74
     2
 91
        2
 64
     7
 65
   257
 75
     2
175
     1
 42
40.0
 92
        0
 66
   257
 43
1.0
 76
     1
 77
     6
 78
     2
 67
     7
 79
     3
170
     0
171
     0
290
     0
174
     0
 93
        1
 44
0.0
173
     0
291
     0
 45
0.0
1001
ACAD
1000
AcDbSavedByObjectVersion
1070
     0
  0
VISUALSTYLE
  5
30
102
{ACAD_REACTORS
330
2A
102
}
102
{ACAD_XDICTIONARY
360
5A2
102
}
330
2A
100
AcDbVisualStyle
  2
3dWireframe
 70
     5
 71
     0
 72
     2
 73
     0
 90
        0
 40
0.6
 41
30.0
 62
     5
 63
     7
421
 16777215
 74
     1
 91
        4
 64
     7
 65
   257
 75
     1
175
     1
 42
1.0
 92
        0
 66
   257
 43
1.0
 76
     1
 77
     6
 78
     2
 67
     7
 79
     5
170
     0
171
     0
290
     0
174
     0
 93
        1
 44
0.0
173
     0
291
     0
 45
0.0
1001
ACAD
1000
AcDbSavedByObjectVersion
1070
     0
  0
VISUALSTYLE
  5
32
102
{ACAD_REACTORS
330
2A
102
}
102
{ACAD_XDICTIONARY
360
5A6
102
}
330
2A
100
AcDbVisualStyle
  2
Basic
 70
     7
 71
     1
 72
     0
 73
     1
 90
        0
 40
0.6
 41
30.0
 62
     5
 63
     7
421
 16777215
 74
     0
 91
        4
 64
     7
 65
   257
 75
     1
175
     1
 42
1.0
 92
        8
 66
     7
 43
1.0
 76
     1
 77
     6
 78
     2
 67
     7
 79
     5
170
     0
171
     0
290
     0
174
     0
 93
        1
 44
0.0
173
     0
291
     1
 45
0.0
1001
ACAD
1000
AcDbSavedByObjectVersion
1070
     0
  0
VISUALSTYLE
  5
36
102
{ACAD_REACTORS
330
2A
102
}
102
{ACAD_XDICTIONARY
360
5AE
102
}
330
2A
100
AcDbVisualStyle
  2
Brighten
 70
    12
 71
     2
 72
     2
 73
     0
 90
        0
 40
0.6
 41
30.0
 62
     5
 63
     7
421
 16777215
 74
     1
 91
        4
 64
     7
 65
   257
 75
     1
175
     1
 42
1.0
 92
        8
 66
     7
 43
1.0
 76
     1
 77
     6
 78
     2
 67
     7
 79
     5
170
     0
171
     0
290
     0
174
     0
 93
        1
 44
50.0
173
     0
291
     1
 45
0.0
1001
ACAD
1000
AcDbSavedByObjectVersion
1070
     0
  0
VISUALSTYLE
  5
3A
102
{ACAD_REACTORS
330
2A
102
}
102
{ACAD_XDICTIONARY
360
5B6
102
}
330
2A
100
AcDbVisualStyle
  2
ColorChange
 70
    16
 71
     2
 72
     2
 73
     3
 90
        0
 40
0.6
 41
30.0
 62
     5
 63
     8
421
  8421504
 74
     1
 91
        4
 64
     7
 65
   257
 75
     1
175
     1
 42
1.0
 92
        8
 66
     8
424
  8421504
 43
1.0
 76
     1
 77
     6
 78
     2
 67
     7
 79
     5
170
     0
171
     0
290
     0
174
     0
 93
        1
 44
0.0
173
     0
291
     1
 45
0.0
1001
ACAD
1000
AcDbSavedByObjectVersion
1070
     0
  0
VISUALSTYLE
  5
34
102
{ACAD_REACTORS
330
2A
102
}
102
{ACAD_XDICTIONARY
360
5AA
102
}
330
2A
100
AcDbVisualStyle
  2
Conceptual
 70
     9
 71
     3
 72
     2
 73
     0
 90
        0
 40
0.6
 41
30.0
 62
     5
 63
     7
421
 16777215
 74
     2
 91
        2
 64
     7
 65
   257
 75
     1
175
     1
 42
40.0
 92
        8
 66
     7
 43
1.0
 76
     1
 77
     6
 78
     2
 67
     7
 79
     3
170
     0
171
     0
290
     0
174
     0
 93
        1
 44
0.0
173
     0
291
     0
 45
0.0
1001
ACAD
1000
AcDbSavedByObjectVersion
1070
     0
  0
VISUALSTYLE
  5
35
102
{ACAD_REACTORS
330
2A
102
}
102
{ACAD_XDICTIONARY
360
5AC
102
}
330
2A
100
AcDbVisualStyle
  2
Dim
 70
    11
 71
     2
 72
     2
 73
     0
 90
        0
 40
0.6
 41
30.0
 62
     5
 63
     7
421
 16777215
 74
     1
 91
        4
 64
     7
 65
   257
 75
     1
175
     1
 42
1.0
 92
        8
 66
     7
 43
1.0
 76
     1
 77
     6
 78
     2
 67
     7
 79
     5
170
     0
171
     0
290
     0
174
     0
 93
        1
 44
-50.0
173
     0
291
     1
 45
0.0
1001
ACAD
1000
AcDbSavedByObjectVersion
1070
     0
  0
VISUALSTYLE
  5
39
102
{ACAD_REACTORS
330
2A
102
}
102
{ACAD_XDICTIONARY
360
5B4
102
}
330
2A
100
AcDbVisualStyle
  2
Facepattern
 70
    15
 71
     2
 72
     2
 73
     0
 90
        0
 40
0.6
 41
30.0
 62
     5
 63
     7
421
 16777215
 74
     1
 91
        4
 64
     7
 65
   257
 75
     1
175
     1
 42
1.0
 92
        8
 66
     7
 43
1.0
 76
     1
 77
     6
 78
     2
 67
     7
 79
     5
170
     0
171
     0
290
     0
174
     0
 93
        1
 44
0.0
173
     0
291
     1
 45
0.0
1001
ACAD
1000
AcDbSavedByObjectVersion
1070
     0
  0
VISUALSTYLE
  5
2B
102
{ACAD_REACTORS
330
2A
102
}
102
{ACAD_XDICTIONARY
360
598
102
}
330
2A
100
AcDbVisualStyle
  2
Flat
 70
     0
 71
     2
 72
     1
 73
     1
 90
        2
 40
0.6
 41
30.0
 62
     5
 63
     7
421
 16777215
 74
     0
 91
        4
 64
     7
 65
   257
 75
     1
175
     1
 42
1.0
 92
        8
 66
     7
 43
1.0
 76
     1
 77
     6
 78
     2
 67
     7
 79
     5
170
     0
171
     0
290
     0
174
     0
 93
       13
 44
0.0
173
     0
291
     1
 45
0.0
1001
ACAD
1000
AcDbSavedByObjectVersion
1070
     0
  0
VISUALSTYLE
  5
2C
102
{ACAD_REACTORS
330
2A
102
}
102
{ACAD_XDICTIONARY
360
59A
102
}
330
2A
100
AcDbVisualStyle
  2
FlatWithEdges
 70
     1
 71
     2
 72
     1
 73
     1
 90
        2
 40
0.6
 41
30.0
 62
     5
 63
     7
421
 16777215
 74
     1
 91
        4
 64
     7
 65
   257
 75
     1
175
     1
 42
1.0
 92
        0
 66
   257
 43
1.0
 76
     1
 77
     6
 78
     2
 67
     7
 79
     5
170
     0
171
     0
290
     0
174
     0
 93
       13
 44
0.0
173
     0
291
     1
 45
0.0
1001
ACAD
1000
AcDbSavedByObjectVersion
1070
     0
  0
VISUALSTYLE
  5
2D
102
{ACAD_REACTORS
330
2A
102
}
102
{ACAD_XDICTIONARY
360
59C
102
}
330
2A
100
AcDbVisualStyle
  2
Gouraud
 70
     2
 71
     2
 72
     2
 73
     1
 90
        2
 40
0.6
 41
30.0
 62
     5
 63
     7
421
 16777215
 74
     0
 91
        4
 64
     7
 65
   257
 75
     1
175
     1
 42
1.0
 92
        0
 66
     7
 43
1.0
 76
     1
 77
     6
 78
     2
 67
     7
 79
     5
170
     0
171
     0
290
     0
174
     0
 93
       13
 44
0.0
173
     0
291
     1
 45
0.0
1001
ACAD
1000
AcDbSavedByObjectVersion
1070
     0
  0
VISUALSTYLE
  5
2E
102
{ACAD_REACTORS
330
2A
102
}
102
{ACAD_XDICTIONARY
360
59E
102
}
330
2A
100
AcDbVisualStyle
  2
GouraudWithEdges
 70
     3
 71
     2
 72
     2
 73
     1
 90
        2
 40
0.6
 41
30.0
 62
     5
 63
     7
421
 16777215
 74
     1
 91
        4
 64
     7
 65
   257
 75
     1
175
     1
 42
1.0
 92
        0
 66
   257
 43
1.0
 76
     1
 77
     6
 78
     2
 67
     7
 79
     5
170
     0
171
     0
290
     0
174
     0
 93
       13
 44
0.0
173
     0
291
     1
 45
0.0
1001
ACAD
1000
AcDbSavedByObjectVersion
1070
     0
  0
VISUALSTYLE
  5
38
102
{ACAD_REACTORS
330
2A
102
}
102
{ACAD_XDICTIONARY
360
5B2
102
}
330
2A
100
AcDbVisualStyle
  2
Linepattern
 70
    14
 71
     2
 72
     2
 73
     0
 90
        0
 40
0.6
 41
30.0
 62
     5
 63
     7
421
 16777215
 74
     1
 91
        4
 64
     7
 65
   257
 75
     7
175
     7
 42
1.0
 92
        8
 66
     7
 43
1.0
 76
     1
 77
     6
 78
     2
 67
     7
 79
     5
170
     0
171
     0
290
     0
174
     0
 93
        1
 44
0.0
173
     0
291
     1
 45
0.0
1001
ACAD
1000
AcDbSavedByObjectVersion
1070
     0
  0
VISUALSTYLE
  5
33
102
{ACAD_REACTORS
330
2A
102
}
102
{ACAD_XDICTIONARY
360
5A8
102
}
330
2A
100
AcDbVisualStyle
  2
Realistic
 70
     8
 71
     2
 72
     3
 73
     0
 90
        2
 40
0.6
 41
30.0
 62
     5
 63
     7
421
 16777215
 74
     0
 91
        0
 64
     7
 65
   257
 75
     1
175
     1
 42
1.0
 92
        8
 66
   257
 43
1.0
 76
     1
 77
     6
 78
     2
 67
     7
 79
     3
170
     0
171
     0
290
     0
174
     0
 93
       13
 44
0.0
173
     0
291
     0
 45
0.0
1001
ACAD
1000
AcDbSavedByObjectVersion
1070
     0
  0
VISUALSTYLE
  5
37
102
{ACAD_REACTORS
330
2A
102
}
102
{ACAD_XDICTIONARY
360
5B0
102
}
330
2A
100
AcDbVisualStyle
  2
Thicken
 70
    13
 71
     2
 72
     2
 73
     0
 90
        0
 40
0.6
 41
30.0
 62
     5
 63
     7
421
 16777215
 74
     1
 91
        4
 64
     7
 65
   257
 75
     1
175
     1
 42
1.0
 92
       12
 66
     7
 43
1.0
 76
     1
 77
     6
 78
     2
 67
     7
 79
     5
170
     0
171
     0
290
     0
174
     0
 93
        1
 44
0.0
173
     0
291
     1
 45
0.0
1001
ACAD
1000
AcDbSavedByObjectVersion
1070
     0
  0
DICTIONARYVAR
  5
596
102
{ACAD_REACTORS
330
595
102
}
330
595
100
DictionaryVariables
280
     0
  1
1:1
  0
DICTIONARYVAR
  5
597
102
{ACAD_REACTORS
330
595
102
}
330
595
100
DictionaryVariables
280
     0
  1
1
  0
DICTIONARY
  5
5BA
330
3D
100
AcDbDictionary
280
     1
281
     1
  3
ACAD_XREC_ROUNDTRIP
360
5BB
  0
DICTIONARY
  5
5B8
330
3C
100
AcDbDictionary
280
     1
281
     1
  3
ACAD_XREC_ROUNDTRIP
360
5B9
  0
DICTIONARY
  5
5BC
330
3E
100
AcDbDictionary
280
     1
281
     1
  3
ACAD_XREC_ROUNDTRIP
360
5BD
  0
DICTIONARY
  5
5A0
330
2F
100
AcDbDictionary
280
     1
281
     1
  3
ACAD_XREC_ROUNDTRIP
360
5A1
  0
DICTIONARY
  5
5A4
330
31
100
AcDbDictionary
280
     1
281
     1
  3
ACAD_XREC_ROUNDTRIP
360
5A5
  0
DICTIONARY
  5
5A2
330
30
100
AcDbDictionary
280
     1
281
     1
  3
ACAD_XREC_ROUNDTRIP
360
5A3
  0
DICTIONARY
  5
5A6
330
32
100
AcDbDictionary
280
     1
281
     1
  3
ACAD_XREC_ROUNDTRIP
360
5A7
  0
DICTIONARY
  5
5AE
330
36
100
AcDbDictionary
280
     1
281
     1
  3
ACAD_XREC_ROUNDTRIP
360
5AF
  0
DICTIONARY
  5
5B6
330
3A
100
AcDbDictionary
280
     1
281
     1
  3
ACAD_XREC_ROUNDTRIP
360
5B7
  0
DICTIONARY
  5
5AA
330
34
100
AcDbDictionary
280
     1
281
     1
  3
ACAD_XREC_ROUNDTRIP
360
5AB
  0
DICTIONARY
  5
5AC
330
35
100
AcDbDictionary
280
     1
281
     1
  3
ACAD_XREC_ROUNDTRIP
360
5AD
  0
DICTIONARY
  5
5B4
330
39
100
AcDbDictionary
280
     1
281
     1
  3
ACAD_XREC_ROUNDTRIP
360
5B5
  0
DICTIONARY
  5
598
330
2B
100
AcDbDictionary
280
     1
281
     1
  3
ACAD_XREC_ROUNDTRIP
360
599
  0
DICTIONARY
  5
59A
330
2C
100
AcDbDictionary
280
     1
281
     1
  3
ACAD_XREC_ROUNDTRIP
360
59B
  0
DICTIONARY
  5
59C
330
2D
100
AcDbDictionary
280
     1
281
     1
  3
ACAD_XREC_ROUNDTRIP
360
59D
  0
DICTIONARY
  5
59E
330
2E
100
AcDbDictionary
280
     1
281
     1
  3
ACAD_XREC_ROUNDTRIP
360
59F
  0
DICTIONARY
  5
5B2
330
38
100
AcDbDictionary
280
     1
281
     1
  3
ACAD_XREC_ROUNDTRIP
360
5B3
  0
DICTIONARY
  5
5A8
330
33
100
AcDbDictionary
280
     1
281
     1
  3
ACAD_XREC_ROUNDTRIP
360
5A9
  0
DICTIONARY
  5
5B0
330
37
100
AcDbDictionary
280
     1
281
     1
  3
ACAD_XREC_ROUNDTRIP
360
5B1
  0
XRECORD
  5
5BB
102
{ACAD_REACTORS
330
5BA
102
}
330
5BA
100
AcDbXrecord
280
     1
102
MATERIAL
148
0.0
149
0.0
149
0.0
 93
        0
 94
      127
282
     0
 72
     1
 77
     1
171
     1
175
     1
179
     1
273
     0
  0
XRECORD
  5
5B9
102
{ACAD_REACTORS
330
5B8
102
}
330
5B8
100
AcDbXrecord
280
     1
102
MATERIAL
148
0.0
149
0.0
149
0.0
 93
        0
 94
      127
282
     0
 72
     1
 77
     1
171
     1
175
     1
179
     1
273
     0
  0
XRECORD
  5
5BD
102
{ACAD_REACTORS
330
5BC
102
}
330
5BC
100
AcDbXrecord
280
     1
102
MATERIAL
148
0.0
149
0.0
149
0.0
 93
        0
 94
      127
282
     0
 72
     1
 77
     1
171
     1
175
     1
179
     1
273
     0
  0
XRECORD
  5
5A1
102
{ACAD_REACTORS
330
5A0
102
}
330
5A0
100
AcDbXrecord
280
     1
102
RTVSPropertyOp0
 70
     1
102
RTVSPropertyOp1
 70
     1
102
RTVSPropertyOp2
 70
     1
102
RTVSPropertyOp3
 70
     1
102
RTVSPropertyOp4
 70
     1
102
RTVSPropertyOp5
 70
     1
102
RTVSPropertyOp6
 70
     1
102
RTVSPropertyOp7
 70
     1
102
RTVSPropertyOp8
 70
     1
102
RTVSPropertyOp9
 70
     1
102
RTVSPropertyOp10
 70
     1
102
RTVSPropertyOp11
 70
     1
102
RTVSPropertyOp12
 70
     1
102
RTVSPropertyOp13
 70
     1
102
RTVSPropertyOp14
 70
     1
102
RTVSPropertyOp15
 70
     1
102
RTVSPropertyOp16
 70
     1
102
RTVSPropertyOp17
 70
     1
102
RTVSPropertyOp18
 70
     1
102
RTVSPropertyOp19
 70
     1
102
RTVSPropertyOp20
 70
     1
102
RTVSPropertyOp21
 70
     1
102
RTVSPropertyOp22
 70
     1
102
RTVSPropertyOp23
 70
     1
102
RTVSPropertyOp24
 70
     1
102
RTVSPropertyOp25
 70
     1
102
RTVSPropertyOp26
 70
     1
102
RTVSPropertyOp27
 70
     1
102
RTVSPropertyOp28
 70
     1
102
RTVSPropertyOp29
 70
     1
102
RTVSPropertyOp30
 70
     1
102
RTVSPropertyOp31
 70
     1
102
RTVSPropertyOp32
 70
     1
102
RTVSPropertyOp33
 70
     1
102
RTVSPropertyOp34
 70
     1
102
RTVSPropertyOp35
 70
     1
102
RTVSPropertyOp36
 70
     1
102
RTVSPropertyOp37
 70
     1
102
RTVSPropertyOp38
 70
     1
102
RTVSPropertyOp39
 70
     1
102
RTVSPropertyOp40
 70
     1
102
RTVSPropertyOp41
 70
     1
102
RTVSPropertyOp42
 70
     1
102
RTVSPropertyOp43
 70
     1
102
RTVSPropertyOp44
 70
     1
102
RTVSPropertyOp45
 70
     1
102
RTVSPropertyOp46
 70
     1
102
RTVSPropertyOp47
 70
     1
102
RTVSPropertyOp48
 70
     1
102
RTVSPropertyOp49
 70
     1
102
RTVSPropertyOp50
 70
     1
102
RTVSPropertyOp51
 70
     0
102
RTVSPropertyOp52
 70
     0
102
RTVSPropertyOp53
 70
     1
102
RTVSPropertyOp54
 70
     1
102
RTVSPropertyOp55
 70
     1
102
RTVSPropertyOp56
 70
     1
102
RTVSPropertyOp57
 70
     1
102
RTVSPost2010Prop28
280
     1
102
RTVSPost2010PropOp28
 70
     1
102
RTVSPost2010Prop29
280
     1
102
RTVSPost2010PropOp29
 70
     1
102
RTVSPost2010Prop30
280
     0
102
RTVSPost2010PropOp30
 70
     1
102
RTVSPost2010Prop31
280
     0
102
RTVSPost2010PropOp31
 70
     1
102
RTVSPost2010Prop32
280
     0
102
RTVSPost2010PropOp32
 70
     1
102
RTVSPost2010Prop33
280
     0
102
RTVSPost2010PropOp33
 70
     1
102
RTVSPost2010Prop34
280
     0
102
RTVSPost2010PropOp34
 70
     1
102
RTVSPost2010Prop35
280
     0
102
RTVSPost2010PropOp35
 70
     1
102
RTVSPost2010Prop36
280
     0
102
RTVSPost2010PropOp36
 70
     1
102
RTVSPost2010Prop37
 90
       50
102
RTVSPost2010PropOp37
 70
     1
102
RTVSPost2010Prop38
140
0.0
102
RTVSPost2010PropOp38
 70
     1
102
RTVSPost2010Prop39
140
1.0
102
RTVSPost2010PropOp39
 70
     1
102
RTVSPost2010Prop40
 90
        0
102
RTVSPost2010PropOp40
 70
     1
102
RTVSPost2010Prop41ColorIndex
 90
       18
102
RTVSPost2010Prop41ColorRGB
 90
        0
102
RTVSPost2010PropOp41
 70
     1
102
RTVSPost2010Prop42
 90
       50
102
RTVSPost2010PropOp42
 70
     1
102
RTVSPost2010Prop43
 90
        3
102
RTVSPost2010PropOp43
 70
     1
102
RTVSPost2010Prop44ColorIndex
 90
        5
102
RTVSPost2010Prop44ColorRGB
 90
      255
102
RTVSPost2010PropOp44
 70
     1
102
RTVSPost2010Prop45
280
     0
102
RTVSPost2010PropOp45
 70
     1
102
RTVSPost2010Prop46
 90
       50
102
RTVSPost2010PropOp46
 70
     1
102
RTVSPost2010Prop47
 90
       50
102
RTVSPost2010PropOp47
 70
     1
102
RTVSPost2010Prop48
 90
       50
102
RTVSPost2010PropOp48
 70
     1
102
RTVSPost2010Prop49
280
     0
102
RTVSPost2010PropOp49
 70
     1
102
RTVSPost2010Prop50
 90
       50
102
RTVSPost2010PropOp50
 70
     1
102
RTVSPost2010Prop51ColorIndex
 90
      256
102
RTVSPost2010Prop51ColorRGB
 90
-16777216
102
RTVSPost2010PropOp51
 70
     0
102
RTVSPost2010Prop52
140
1.0
102
RTVSPost2010PropOp52
 70
     0
102
RTVSPost2010Prop53
 90
        2
102
RTVSPost2010PropOp53
 70
     1
102
RTVSPost2010Prop54
  1
strokes_ogs.tif
102
RTVSPost2010PropOp54
 70
     1
102
RTVSPost2010Prop55
280
     0
102
RTVSPost2010PropOp55
 70
     1
102
RTVSPost2010Prop56
140
1.0
102
RTVSPost2010PropOp56
 70
     1
102
RTVSPost2010Prop57
140
1.0
102
RTVSPost2010PropOp57
 70
     1
  0
XRECORD
  5
5A5
102
{ACAD_REACTORS
330
5A4
102
}
330
5A4
100
AcDbXrecord
280
     1
102
RTVSPropertyOp0
 70
     1
102
RTVSPropertyOp1
 70
     1
102
RTVSPropertyOp2
 70
     1
102
RTVSPropertyOp3
 70
     1
102
RTVSPropertyOp4
 70
     1
102
RTVSPropertyOp5
 70
     1
102
RTVSPropertyOp6
 70
     1
102
RTVSPropertyOp7
 70
     1
102
RTVSPropertyOp8
 70
     1
102
RTVSPropertyOp9
 70
     1
102
RTVSPropertyOp10
 70
     1
102
RTVSPropertyOp11
 70
     1
102
RTVSPropertyOp12
 70
     1
102
RTVSPropertyOp13
 70
     1
102
RTVSPropertyOp14
 70
     1
102
RTVSPropertyOp15
 70
     1
102
RTVSPropertyOp16
 70
     1
102
RTVSPropertyOp17
 70
     1
102
RTVSPropertyOp18
 70
     1
102
RTVSPropertyOp19
 70
     1
102
RTVSPropertyOp20
 70
     1
102
RTVSPropertyOp21
 70
     1
102
RTVSPropertyOp22
 70
     1
102
RTVSPropertyOp23
 70
     1
102
RTVSPropertyOp24
 70
     1
102
RTVSPropertyOp25
 70
     1
102
RTVSPropertyOp26
 70
     1
102
RTVSPropertyOp27
 70
     1
102
RTVSPropertyOp28
 70
     1
102
RTVSPropertyOp29
 70
     1
102
RTVSPropertyOp30
 70
     1
102
RTVSPropertyOp31
 70
     1
102
RTVSPropertyOp32
 70
     1
102
RTVSPropertyOp33
 70
     1
102
RTVSPropertyOp34
 70
     1
102
RTVSPropertyOp35
 70
     1
102
RTVSPropertyOp36
 70
     1
102
RTVSPropertyOp37
 70
     1
102
RTVSPropertyOp38
 70
     1
102
RTVSPropertyOp39
 70
     1
102
RTVSPropertyOp40
 70
     1
102
RTVSPropertyOp41
 70
     1
102
RTVSPropertyOp42
 70
     1
102
RTVSPropertyOp43
 70
     1
102
RTVSPropertyOp44
 70
     1
102
RTVSPropertyOp45
 70
     1
102
RTVSPropertyOp46
 70
     1
102
RTVSPropertyOp47
 70
     1
102
RTVSPropertyOp48
 70
     1
102
RTVSPropertyOp49
 70
     1
102
RTVSPropertyOp50
 70
     1
102
RTVSPropertyOp51
 70
     0
102
RTVSPropertyOp52
 70
     0
102
RTVSPropertyOp53
 70
     1
102
RTVSPropertyOp54
 70
     1
102
RTVSPropertyOp55
 70
     1
102
RTVSPropertyOp56
 70
     1
102
RTVSPropertyOp57
 70
     1
102
RTVSPost2010Prop28
280
     0
102
RTVSPost2010PropOp28
 70
     1
102
RTVSPost2010Prop29
280
     1
102
RTVSPost2010PropOp29
 70
     1
102
RTVSPost2010Prop30
280
     1
102
RTVSPost2010PropOp30
 70
     1
102
RTVSPost2010Prop31
280
     0
102
RTVSPost2010PropOp31
 70
     1
102
RTVSPost2010Prop32
280
     0
102
RTVSPost2010PropOp32
 70
     1
102
RTVSPost2010Prop33
280
     0
102
RTVSPost2010PropOp33
 70
     1
102
RTVSPost2010Prop34
280
     0
102
RTVSPost2010PropOp34
 70
     1
102
RTVSPost2010Prop35
280
     0
102
RTVSPost2010PropOp35
 70
     1
102
RTVSPost2010Prop36
280
     0
102
RTVSPost2010PropOp36
 70
     1
102
RTVSPost2010Prop37
 90
       50
102
RTVSPost2010PropOp37
 70
     1
102
RTVSPost2010Prop38
140
0.0
102
RTVSPost2010PropOp38
 70
     1
102
RTVSPost2010Prop39
140
1.0
102
RTVSPost2010PropOp39
 70
     1
102
RTVSPost2010Prop40
 90
        0
102
RTVSPost2010PropOp40
 70
     1
102
RTVSPost2010Prop41ColorIndex
 90
       18
102
RTVSPost2010Prop41ColorRGB
 90
        0
102
RTVSPost2010PropOp41
 70
     1
102
RTVSPost2010Prop42
 90
       50
102
RTVSPost2010PropOp42
 70
     1
102
RTVSPost2010Prop43
 90
        3
102
RTVSPost2010PropOp43
 70
     1
102
RTVSPost2010Prop44ColorIndex
 90
        5
102
RTVSPost2010Prop44ColorRGB
 90
      255
102
RTVSPost2010PropOp44
 70
     1
102
RTVSPost2010Prop45
280
     0
102
RTVSPost2010PropOp45
 70
     1
102
RTVSPost2010Prop46
 90
       50
102
RTVSPost2010PropOp46
 70
     1
102
RTVSPost2010Prop47
 90
       50
102
RTVSPost2010PropOp47
 70
     1
102
RTVSPost2010Prop48
 90
       50
102
RTVSPost2010PropOp48
 70
     1
102
RTVSPost2010Prop49
280
     0
102
RTVSPost2010PropOp49
 70
     1
102
RTVSPost2010Prop50
 90
       50
102
RTVSPost2010PropOp50
 70
     1
102
RTVSPost2010Prop51ColorIndex
 90
      256
102
RTVSPost2010Prop51ColorRGB
 90
-16777216
102
RTVSPost2010PropOp51
 70
     0
102
RTVSPost2010Prop52
140
1.0
102
RTVSPost2010PropOp52
 70
     0
102
RTVSPost2010Prop53
 90
        2
102
RTVSPost2010PropOp53
 70
     1
102
RTVSPost2010Prop54
  1
strokes_ogs.tif
102
RTVSPost2010PropOp54
 70
     1
102
RTVSPost2010Prop55
280
     0
102
RTVSPost2010PropOp55
 70
     1
102
RTVSPost2010Prop56
140
1.0
102
RTVSPost2010PropOp56
 70
     1
102
RTVSPost2010Prop57
140
1.0
102
RTVSPost2010PropOp57
 70
     1
  0
XRECORD
  5
5A3
102
{ACAD_REACTORS
330
5A2
102
}
330
5A2
100
AcDbXrecord
280
     1
102
RTVSPropertyOp0
 70
     1
102
RTVSPropertyOp1
 70
     1
102
RTVSPropertyOp2
 70
     1
102
RTVSPropertyOp3
 70
     1
102
RTVSPropertyOp4
 70
     1
102
RTVSPropertyOp5
 70
     1
102
RTVSPropertyOp6
 70
     1
102
RTVSPropertyOp7
 70
     1
102
RTVSPropertyOp8
 70
     1
102
RTVSPropertyOp9
 70
     1
102
RTVSPropertyOp10
 70
     1
102
RTVSPropertyOp11
 70
     1
102
RTVSPropertyOp12
 70
     1
102
RTVSPropertyOp13
 70
     1
102
RTVSPropertyOp14
 70
     1
102
RTVSPropertyOp15
 70
     1
102
RTVSPropertyOp16
 70
     1
102
RTVSPropertyOp17
 70
     1
102
RTVSPropertyOp18
 70
     1
102
RTVSPropertyOp19
 70
     1
102
RTVSPropertyOp20
 70
     1
102
RTVSPropertyOp21
 70
     1
102
RTVSPropertyOp22
 70
     1
102
RTVSPropertyOp23
 70
     1
102
RTVSPropertyOp24
 70
     1
102
RTVSPropertyOp25
 70
     1
102
RTVSPropertyOp26
 70
     1
102
RTVSPropertyOp27
 70
     1
102
RTVSPropertyOp28
 70
     1
102
RTVSPropertyOp29
 70
     1
102
RTVSPropertyOp30
 70
     1
102
RTVSPropertyOp31
 70
     1
102
RTVSPropertyOp32
 70
     1
102
RTVSPropertyOp33
 70
     1
102
RTVSPropertyOp34
 70
     1
102
RTVSPropertyOp35
 70
     1
102
RTVSPropertyOp36
 70
     1
102
RTVSPropertyOp37
 70
     1
102
RTVSPropertyOp38
 70
     1
102
RTVSPropertyOp39
 70
     1
102
RTVSPropertyOp40
 70
     1
102
RTVSPropertyOp41
 70
     1
102
RTVSPropertyOp42
 70
     1
102
RTVSPropertyOp43
 70
     1
102
RTVSPropertyOp44
 70
     1
102
RTVSPropertyOp45
 70
     1
102
RTVSPropertyOp46
 70
     1
102
RTVSPropertyOp47
 70
     1
102
RTVSPropertyOp48
 70
     1
102
RTVSPropertyOp49
 70
     1
102
RTVSPropertyOp50
 70
     1
102
RTVSPropertyOp51
 70
     0
102
RTVSPropertyOp52
 70
     0
102
RTVSPropertyOp53
 70
     1
102
RTVSPropertyOp54
 70
     1
102
RTVSPropertyOp55
 70
     1
102
RTVSPropertyOp56
 70
     1
102
RTVSPropertyOp57
 70
     1
102
RTVSPost2010Prop28
280
     0
102
RTVSPost2010PropOp28
 70
     1
102
RTVSPost2010Prop29
280
     1
102
RTVSPost2010PropOp29
 70
     1
102
RTVSPost2010Prop30
280
     1
102
RTVSPost2010PropOp30
 70
     1
102
RTVSPost2010Prop31
280
     0
102
RTVSPost2010PropOp31
 70
     1
102
RTVSPost2010Prop32
280
     0
102
RTVSPost2010PropOp32
 70
     1
102
RTVSPost2010Prop33
280
     0
102
RTVSPost2010PropOp33
 70
     1
102
RTVSPost2010Prop34
280
     0
102
RTVSPost2010PropOp34
 70
     1
102
RTVSPost2010Prop35
280
     0
102
RTVSPost2010PropOp35
 70
     1
102
RTVSPost2010Prop36
280
     0
102
RTVSPost2010PropOp36
 70
     1
102
RTVSPost2010Prop37
 90
       50
102
RTVSPost2010PropOp37
 70
     1
102
RTVSPost2010Prop38
140
0.0
102
RTVSPost2010PropOp38
 70
     1
102
RTVSPost2010Prop39
140
1.0
102
RTVSPost2010PropOp39
 70
     1
102
RTVSPost2010Prop40
 90
        0
102
RTVSPost2010PropOp40
 70
     1
102
RTVSPost2010Prop41ColorIndex
 90
       18
102
RTVSPost2010Prop41ColorRGB
 90
        0
102
RTVSPost2010PropOp41
 70
     1
102
RTVSPost2010Prop42
 90
       50
102
RTVSPost2010PropOp42
 70
     1
102
RTVSPost2010Prop43
 90
        3
102
RTVSPost2010PropOp43
 70
     1
102
RTVSPost2010Prop44ColorIndex
 90
        5
102
RTVSPost2010Prop44ColorRGB
 90
      255
102
RTVSPost2010PropOp44
 70
     1
102
RTVSPost2010Prop45
280
     0
102
RTVSPost2010PropOp45
 70
     1
102
RTVSPost2010Prop46
 90
       50
102
RTVSPost2010PropOp46
 70
     1
102
RTVSPost2010Prop47
 90
       50
102
RTVSPost2010PropOp47
 70
     1
102
RTVSPost2010Prop48
 90
       50
102
RTVSPost2010PropOp48
 70
     1
102
RTVSPost2010Prop49
280
     0
102
RTVSPost2010PropOp49
 70
     1
102
RTVSPost2010Prop50
 90
       50
102
RTVSPost2010PropOp50
 70
     1
102
RTVSPost2010Prop51ColorIndex
 90
      256
102
RTVSPost2010Prop51ColorRGB
 90
-16777216
102
RTVSPost2010PropOp51
 70
     0
102
RTVSPost2010Prop52
140
1.0
102
RTVSPost2010PropOp52
 70
     0
102
RTVSPost2010Prop53
 90
        2
102
RTVSPost2010PropOp53
 70
     1
102
RTVSPost2010Prop54
  1
strokes_ogs.tif
102
RTVSPost2010PropOp54
 70
     1
102
RTVSPost2010Prop55
280
     0
102
RTVSPost2010PropOp55
 70
     1
102
RTVSPost2010Prop56
140
1.0
102
RTVSPost2010PropOp56
 70
     1
102
RTVSPost2010Prop57
140
1.0
102
RTVSPost2010PropOp57
 70
     1
  0
XRECORD
  5
5A7
102
{ACAD_REACTORS
330
5A6
102
}
330
5A6
100
AcDbXrecord
280
     1
102
RTVSPropertyOp0
 70
     1
102
RTVSPropertyOp1
 70
     1
102
RTVSPropertyOp2
 70
     1
102
RTVSPropertyOp3
 70
     1
102
RTVSPropertyOp4
 70
     1
102
RTVSPropertyOp5
 70
     1
102
RTVSPropertyOp6
 70
     1
102
RTVSPropertyOp7
 70
     1
102
RTVSPropertyOp8
 70
     1
102
RTVSPropertyOp9
 70
     1
102
RTVSPropertyOp10
 70
     1
102
RTVSPropertyOp11
 70
     1
102
RTVSPropertyOp12
 70
     1
102
RTVSPropertyOp13
 70
     1
102
RTVSPropertyOp14
 70
     1
102
RTVSPropertyOp15
 70
     1
102
RTVSPropertyOp16
 70
     1
102
RTVSPropertyOp17
 70
     1
102
RTVSPropertyOp18
 70
     1
102
RTVSPropertyOp19
 70
     1
102
RTVSPropertyOp20
 70
     1
102
RTVSPropertyOp21
 70
     1
102
RTVSPropertyOp22
 70
     1
102
RTVSPropertyOp23
 70
     1
102
RTVSPropertyOp24
 70
     1
102
RTVSPropertyOp25
 70
     1
102
RTVSPropertyOp26
 70
     1
102
RTVSPropertyOp27
 70
     1
102
RTVSPropertyOp28
 70
     1
102
RTVSPropertyOp29
 70
     1
102
RTVSPropertyOp30
 70
     1
102
RTVSPropertyOp31
 70
     1
102
RTVSPropertyOp32
 70
     1
102
RTVSPropertyOp33
 70
     1
102
RTVSPropertyOp34
 70
     1
102
RTVSPropertyOp35
 70
     1
102
RTVSPropertyOp36
 70
     1
102
RTVSPropertyOp37
 70
     1
102
RTVSPropertyOp38
 70
     1
102
RTVSPropertyOp39
 70
     1
102
RTVSPropertyOp40
 70
     1
102
RTVSPropertyOp41
 70
     1
102
RTVSPropertyOp42
 70
     1
102
RTVSPropertyOp43
 70
     1
102
RTVSPropertyOp44
 70
     1
102
RTVSPropertyOp45
 70
     1
102
RTVSPropertyOp46
 70
     1
102
RTVSPropertyOp47
 70
     1
102
RTVSPropertyOp48
 70
     1
102
RTVSPropertyOp49
 70
     1
102
RTVSPropertyOp50
 70
     1
102
RTVSPropertyOp51
 70
     0
102
RTVSPropertyOp52
 70
     0
102
RTVSPropertyOp53
 70
     1
102
RTVSPropertyOp54
 70
     1
102
RTVSPropertyOp55
 70
     1
102
RTVSPropertyOp56
 70
     1
102
RTVSPropertyOp57
 70
     1
102
RTVSPost2010Prop28
280
     0
102
RTVSPost2010PropOp28
 70
     1
102
RTVSPost2010Prop29
280
     1
102
RTVSPost2010PropOp29
 70
     1
102
RTVSPost2010Prop30
280
     1
102
RTVSPost2010PropOp30
 70
     1
102
RTVSPost2010Prop31
280
     0
102
RTVSPost2010PropOp31
 70
     1
102
RTVSPost2010Prop32
280
     0
102
RTVSPost2010PropOp32
 70
     1
102
RTVSPost2010Prop33
280
     0
102
RTVSPost2010PropOp33
 70
     1
102
RTVSPost2010Prop34
280
     0
102
RTVSPost2010PropOp34
 70
     1
102
RTVSPost2010Prop35
280
     0
102
RTVSPost2010PropOp35
 70
     1
102
RTVSPost2010Prop36
280
     0
102
RTVSPost2010PropOp36
 70
     1
102
RTVSPost2010Prop37
 90
       50
102
RTVSPost2010PropOp37
 70
     1
102
RTVSPost2010Prop38
140
0.0
102
RTVSPost2010PropOp38
 70
     1
102
RTVSPost2010Prop39
140
1.0
102
RTVSPost2010PropOp39
 70
     1
102
RTVSPost2010Prop40
 90
        0
102
RTVSPost2010PropOp40
 70
     1
102
RTVSPost2010Prop41ColorIndex
 90
       18
102
RTVSPost2010Prop41ColorRGB
 90
        0
102
RTVSPost2010PropOp41
 70
     1
102
RTVSPost2010Prop42
 90
       50
102
RTVSPost2010PropOp42
 70
     1
102
RTVSPost2010Prop43
 90
        3
102
RTVSPost2010PropOp43
 70
     1
102
RTVSPost2010Prop44ColorIndex
 90
        5
102
RTVSPost2010Prop44ColorRGB
 90
      255
102
RTVSPost2010PropOp44
 70
     1
102
RTVSPost2010Prop45
280
     0
102
RTVSPost2010PropOp45
 70
     1
102
RTVSPost2010Prop46
 90
       50
102
RTVSPost2010PropOp46
 70
     1
102
RTVSPost2010Prop47
 90
       50
102
RTVSPost2010PropOp47
 70
     1
102
RTVSPost2010Prop48
 90
       50
102
RTVSPost2010PropOp48
 70
     1
102
RTVSPost2010Prop49
280
     0
102
RTVSPost2010PropOp49
 70
     1
102
RTVSPost2010Prop50
 90
       50
102
RTVSPost2010PropOp50
 70
     1
102
RTVSPost2010Prop51ColorIndex
 90
      256
102
RTVSPost2010Prop51ColorRGB
 90
-16777216
102
RTVSPost2010PropOp51
 70
     0
102
RTVSPost2010Prop52
140
1.0
102
RTVSPost2010PropOp52
 70
     0
102
RTVSPost2010Prop53
 90
        2
102
RTVSPost2010PropOp53
 70
     1
102
RTVSPost2010Prop54
  1
strokes_ogs.tif
102
RTVSPost2010PropOp54
 70
     1
102
RTVSPost2010Prop55
280
     0
102
RTVSPost2010PropOp55
 70
     1
102
RTVSPost2010Prop56
140
1.0
102
RTVSPost2010PropOp56
 70
     1
102
RTVSPost2010Prop57
140
1.0
102
RTVSPost2010PropOp57
 70
     1
  0
XRECORD
  5
5AF
102
{ACAD_REACTORS
330
5AE
102
}
330
5AE
100
AcDbXrecord
280
     1
102
RTVSPropertyOp0
 70
     1
102
RTVSPropertyOp1
 70
     1
102
RTVSPropertyOp2
 70
     1
102
RTVSPropertyOp3
 70
     1
102
RTVSPropertyOp4
 70
     1
102
RTVSPropertyOp5
 70
     1
102
RTVSPropertyOp6
 70
     1
102
RTVSPropertyOp7
 70
     1
102
RTVSPropertyOp8
 70
     1
102
RTVSPropertyOp9
 70
     1
102
RTVSPropertyOp10
 70
     1
102
RTVSPropertyOp11
 70
     1
102
RTVSPropertyOp12
 70
     1
102
RTVSPropertyOp13
 70
     1
102
RTVSPropertyOp14
 70
     1
102
RTVSPropertyOp15
 70
     1
102
RTVSPropertyOp16
 70
     1
102
RTVSPropertyOp17
 70
     1
102
RTVSPropertyOp18
 70
     1
102
RTVSPropertyOp19
 70
     1
102
RTVSPropertyOp20
 70
     1
102
RTVSPropertyOp21
 70
     1
102
RTVSPropertyOp22
 70
     1
102
RTVSPropertyOp23
 70
     1
102
RTVSPropertyOp24
 70
     1
102
RTVSPropertyOp25
 70
     1
102
RTVSPropertyOp26
 70
     1
102
RTVSPropertyOp27
 70
     1
102
RTVSPropertyOp28
 70
     1
102
RTVSPropertyOp29
 70
     1
102
RTVSPropertyOp30
 70
     1
102
RTVSPropertyOp31
 70
     1
102
RTVSPropertyOp32
 70
     1
102
RTVSPropertyOp33
 70
     1
102
RTVSPropertyOp34
 70
     1
102
RTVSPropertyOp35
 70
     1
102
RTVSPropertyOp36
 70
     1
102
RTVSPropertyOp37
 70
     1
102
RTVSPropertyOp38
 70
     1
102
RTVSPropertyOp39
 70
     1
102
RTVSPropertyOp40
 70
     1
102
RTVSPropertyOp41
 70
     1
102
RTVSPropertyOp42
 70
     1
102
RTVSPropertyOp43
 70
     1
102
RTVSPropertyOp44
 70
     1
102
RTVSPropertyOp45
 70
     1
102
RTVSPropertyOp46
 70
     1
102
RTVSPropertyOp47
 70
     1
102
RTVSPropertyOp48
 70
     1
102
RTVSPropertyOp49
 70
     1
102
RTVSPropertyOp50
 70
     1
102
RTVSPropertyOp51
 70
     0
102
RTVSPropertyOp52
 70
     0
102
RTVSPropertyOp53
 70
     1
102
RTVSPropertyOp54
 70
     1
102
RTVSPropertyOp55
 70
     1
102
RTVSPropertyOp56
 70
     1
102
RTVSPropertyOp57
 70
     1
102
RTVSPost2010Prop28
280
     0
102
RTVSPost2010PropOp28
 70
     1
102
RTVSPost2010Prop29
280
     1
102
RTVSPost2010PropOp29
 70
     1
102
RTVSPost2010Prop30
280
     1
102
RTVSPost2010PropOp30
 70
     1
102
RTVSPost2010Prop31
280
     0
102
RTVSPost2010PropOp31
 70
     1
102
RTVSPost2010Prop32
280
     0
102
RTVSPost2010PropOp32
 70
     1
102
RTVSPost2010Prop33
280
     0
102
RTVSPost2010PropOp33
 70
     1
102
RTVSPost2010Prop34
280
     0
102
RTVSPost2010PropOp34
 70
     1
102
RTVSPost2010Prop35
280
     0
102
RTVSPost2010PropOp35
 70
     1
102
RTVSPost2010Prop36
280
     0
102
RTVSPost2010PropOp36
 70
     1
102
RTVSPost2010Prop37
 90
       50
102
RTVSPost2010PropOp37
 70
     1
102
RTVSPost2010Prop38
140
0.0
102
RTVSPost2010PropOp38
 70
     1
102
RTVSPost2010Prop39
140
1.0
102
RTVSPost2010PropOp39
 70
     1
102
RTVSPost2010Prop40
 90
        0
102
RTVSPost2010PropOp40
 70
     1
102
RTVSPost2010Prop41ColorIndex
 90
       18
102
RTVSPost2010Prop41ColorRGB
 90
        0
102
RTVSPost2010PropOp41
 70
     1
102
RTVSPost2010Prop42
 90
       50
102
RTVSPost2010PropOp42
 70
     1
102
RTVSPost2010Prop43
 90
        3
102
RTVSPost2010PropOp43
 70
     1
102
RTVSPost2010Prop44ColorIndex
 90
        5
102
RTVSPost2010Prop44ColorRGB
 90
      255
102
RTVSPost2010PropOp44
 70
     1
102
RTVSPost2010Prop45
280
     0
102
RTVSPost2010PropOp45
 70
     1
102
RTVSPost2010Prop46
 90
       50
102
RTVSPost2010PropOp46
 70
     1
102
RTVSPost2010Prop47
 90
       50
102
RTVSPost2010PropOp47
 70
     1
102
RTVSPost2010Prop48
 90
       50
102
RTVSPost2010PropOp48
 70
     1
102
RTVSPost2010Prop49
280
     0
102
RTVSPost2010PropOp49
 70
     1
102
RTVSPost2010Prop50
 90
       50
102
RTVSPost2010PropOp50
 70
     1
102
RTVSPost2010Prop51ColorIndex
 90
      256
102
RTVSPost2010Prop51ColorRGB
 90
-16777216
102
RTVSPost2010PropOp51
 70
     0
102
RTVSPost2010Prop52
140
1.0
102
RTVSPost2010PropOp52
 70
     0
102
RTVSPost2010Prop53
 90
        2
102
RTVSPost2010PropOp53
 70
     1
102
RTVSPost2010Prop54
  1
strokes_ogs.tif
102
RTVSPost2010PropOp54
 70
     1
102
RTVSPost2010Prop55
280
     0
102
RTVSPost2010PropOp55
 70
     1
102
RTVSPost2010Prop56
140
1.0
102
RTVSPost2010PropOp56
 70
     1
102
RTVSPost2010Prop57
140
1.0
102
RTVSPost2010PropOp57
 70
     1
  0
XRECORD
  5
5B7
102
{ACAD_REACTORS
330
5B6
102
}
330
5B6
100
AcDbXrecord
280
     1
102
RTVSPropertyOp0
 70
     1
102
RTVSPropertyOp1
 70
     1
102
RTVSPropertyOp2
 70
     1
102
RTVSPropertyOp3
 70
     1
102
RTVSPropertyOp4
 70
     1
102
RTVSPropertyOp5
 70
     1
102
RTVSPropertyOp6
 70
     1
102
RTVSPropertyOp7
 70
     1
102
RTVSPropertyOp8
 70
     1
102
RTVSPropertyOp9
 70
     1
102
RTVSPropertyOp10
 70
     1
102
RTVSPropertyOp11
 70
     1
102
RTVSPropertyOp12
 70
     1
102
RTVSPropertyOp13
 70
     1
102
RTVSPropertyOp14
 70
     1
102
RTVSPropertyOp15
 70
     1
102
RTVSPropertyOp16
 70
     1
102
RTVSPropertyOp17
 70
     1
102
RTVSPropertyOp18
 70
     1
102
RTVSPropertyOp19
 70
     1
102
RTVSPropertyOp20
 70
     1
102
RTVSPropertyOp21
 70
     1
102
RTVSPropertyOp22
 70
     1
102
RTVSPropertyOp23
 70
     1
102
RTVSPropertyOp24
 70
     1
102
RTVSPropertyOp25
 70
     1
102
RTVSPropertyOp26
 70
     1
102
RTVSPropertyOp27
 70
     1
102
RTVSPropertyOp28
 70
     1
102
RTVSPropertyOp29
 70
     1
102
RTVSPropertyOp30
 70
     1
102
RTVSPropertyOp31
 70
     1
102
RTVSPropertyOp32
 70
     1
102
RTVSPropertyOp33
 70
     1
102
RTVSPropertyOp34
 70
     1
102
RTVSPropertyOp35
 70
     1
102
RTVSPropertyOp36
 70
     1
102
RTVSPropertyOp37
 70
     1
102
RTVSPropertyOp38
 70
     1
102
RTVSPropertyOp39
 70
     1
102
RTVSPropertyOp40
 70
     1
102
RTVSPropertyOp41
 70
     1
102
RTVSPropertyOp42
 70
     1
102
RTVSPropertyOp43
 70
     1
102
RTVSPropertyOp44
 70
     1
102
RTVSPropertyOp45
 70
     1
102
RTVSPropertyOp46
 70
     1
102
RTVSPropertyOp47
 70
     1
102
RTVSPropertyOp48
 70
     1
102
RTVSPropertyOp49
 70
     1
102
RTVSPropertyOp50
 70
     1
102
RTVSPropertyOp51
 70
     0
102
RTVSPropertyOp52
 70
     0
102
RTVSPropertyOp53
 70
     1
102
RTVSPropertyOp54
 70
     1
102
RTVSPropertyOp55
 70
     1
102
RTVSPropertyOp56
 70
     1
102
RTVSPropertyOp57
 70
     1
102
RTVSPost2010Prop28
280
     0
102
RTVSPost2010PropOp28
 70
     1
102
RTVSPost2010Prop29
280
     1
102
RTVSPost2010PropOp29
 70
     1
102
RTVSPost2010Prop30
280
     1
102
RTVSPost2010PropOp30
 70
     1
102
RTVSPost2010Prop31
280
     0
102
RTVSPost2010PropOp31
 70
     1
102
RTVSPost2010Prop32
280
     0
102
RTVSPost2010PropOp32
 70
     1
102
RTVSPost2010Prop33
280
     0
102
RTVSPost2010PropOp33
 70
     1
102
RTVSPost2010Prop34
280
     0
102
RTVSPost2010PropOp34
 70
     1
102
RTVSPost2010Prop35
280
     0
102
RTVSPost2010PropOp35
 70
     1
102
RTVSPost2010Prop36
280
     0
102
RTVSPost2010PropOp36
 70
     1
102
RTVSPost2010Prop37
 90
       50
102
RTVSPost2010PropOp37
 70
     1
102
RTVSPost2010Prop38
140
0.0
102
RTVSPost2010PropOp38
 70
     1
102
RTVSPost2010Prop39
140
1.0
102
RTVSPost2010PropOp39
 70
     1
102
RTVSPost2010Prop40
 90
        0
102
RTVSPost2010PropOp40
 70
     1
102
RTVSPost2010Prop41ColorIndex
 90
       18
102
RTVSPost2010Prop41ColorRGB
 90
        0
102
RTVSPost2010PropOp41
 70
     1
102
RTVSPost2010Prop42
 90
       50
102
RTVSPost2010PropOp42
 70
     1
102
RTVSPost2010Prop43
 90
        3
102
RTVSPost2010PropOp43
 70
     1
102
RTVSPost2010Prop44ColorIndex
 90
        5
102
RTVSPost2010Prop44ColorRGB
 90
      255
102
RTVSPost2010PropOp44
 70
     1
102
RTVSPost2010Prop45
280
     0
102
RTVSPost2010PropOp45
 70
     1
102
RTVSPost2010Prop46
 90
       50
102
RTVSPost2010PropOp46
 70
     1
102
RTVSPost2010Prop47
 90
       50
102
RTVSPost2010PropOp47
 70
     1
102
RTVSPost2010Prop48
 90
       50
102
RTVSPost2010PropOp48
 70
     1
102
RTVSPost2010Prop49
280
     0
102
RTVSPost2010PropOp49
 70
     1
102
RTVSPost2010Prop50
 90
       50
102
RTVSPost2010PropOp50
 70
     1
102
RTVSPost2010Prop51ColorIndex
 90
      256
102
RTVSPost2010Prop51ColorRGB
 90
-16777216
102
RTVSPost2010PropOp51
 70
     0
102
RTVSPost2010Prop52
140
1.0
102
RTVSPost2010PropOp52
 70
     0
102
RTVSPost2010Prop53
 90
        2
102
RTVSPost2010PropOp53
 70
     1
102
RTVSPost2010Prop54
  1
strokes_ogs.tif
102
RTVSPost2010PropOp54
 70
     1
102
RTVSPost2010Prop55
280
     0
102
RTVSPost2010PropOp55
 70
     1
102
RTVSPost2010Prop56
140
1.0
102
RTVSPost2010PropOp56
 70
     1
102
RTVSPost2010Prop57
140
1.0
102
RTVSPost2010PropOp57
 70
     1
  0
XRECORD
  5
5AB
102
{ACAD_REACTORS
330
5AA
102
}
330
5AA
100
AcDbXrecord
280
     1
102
RTVSPropertyOp0
 70
     1
102
RTVSPropertyOp1
 70
     1
102
RTVSPropertyOp2
 70
     1
102
RTVSPropertyOp3
 70
     1
102
RTVSPropertyOp4
 70
     1
102
RTVSPropertyOp5
 70
     1
102
RTVSPropertyOp6
 70
     1
102
RTVSPropertyOp7
 70
     1
102
RTVSPropertyOp8
 70
     1
102
RTVSPropertyOp9
 70
     1
102
RTVSPropertyOp10
 70
     1
102
RTVSPropertyOp11
 70
     1
102
RTVSPropertyOp12
 70
     1
102
RTVSPropertyOp13
 70
     1
102
RTVSPropertyOp14
 70
     1
102
RTVSPropertyOp15
 70
     1
102
RTVSPropertyOp16
 70
     1
102
RTVSPropertyOp17
 70
     1
102
RTVSPropertyOp18
 70
     1
102
RTVSPropertyOp19
 70
     1
102
RTVSPropertyOp20
 70
     1
102
RTVSPropertyOp21
 70
     1
102
RTVSPropertyOp22
 70
     1
102
RTVSPropertyOp23
 70
     1
102
RTVSPropertyOp24
 70
     1
102
RTVSPropertyOp25
 70
     1
102
RTVSPropertyOp26
 70
     1
102
RTVSPropertyOp27
 70
     1
102
RTVSPropertyOp28
 70
     1
102
RTVSPropertyOp29
 70
     1
102
RTVSPropertyOp30
 70
     1
102
RTVSPropertyOp31
 70
     1
102
RTVSPropertyOp32
 70
     1
102
RTVSPropertyOp33
 70
     1
102
RTVSPropertyOp34
 70
     1
102
RTVSPropertyOp35
 70
     1
102
RTVSPropertyOp36
 70
     1
102
RTVSPropertyOp37
 70
     1
102
RTVSPropertyOp38
 70
     1
102
RTVSPropertyOp39
 70
     1
102
RTVSPropertyOp40
 70
     1
102
RTVSPropertyOp41
 70
     1
102
RTVSPropertyOp42
 70
     1
102
RTVSPropertyOp43
 70
     1
102
RTVSPropertyOp44
 70
     1
102
RTVSPropertyOp45
 70
     1
102
RTVSPropertyOp46
 70
     1
102
RTVSPropertyOp47
 70
     1
102
RTVSPropertyOp48
 70
     1
102
RTVSPropertyOp49
 70
     1
102
RTVSPropertyOp50
 70
     1
102
RTVSPropertyOp51
 70
     0
102
RTVSPropertyOp52
 70
     0
102
RTVSPropertyOp53
 70
     1
102
RTVSPropertyOp54
 70
     1
102
RTVSPropertyOp55
 70
     1
102
RTVSPropertyOp56
 70
     1
102
RTVSPropertyOp57
 70
     1
102
RTVSPost2010Prop28
280
     0
102
RTVSPost2010PropOp28
 70
     1
102
RTVSPost2010Prop29
280
     1
102
RTVSPost2010PropOp29
 70
     1
102
RTVSPost2010Prop30
280
     1
102
RTVSPost2010PropOp30
 70
     1
102
RTVSPost2010Prop31
280
     0
102
RTVSPost2010PropOp31
 70
     1
102
RTVSPost2010Prop32
280
     0
102
RTVSPost2010PropOp32
 70
     1
102
RTVSPost2010Prop33
280
     0
102
RTVSPost2010PropOp33
 70
     1
102
RTVSPost2010Prop34
280
     0
102
RTVSPost2010PropOp34
 70
     1
102
RTVSPost2010Prop35
280
     0
102
RTVSPost2010PropOp35
 70
     1
102
RTVSPost2010Prop36
280
     0
102
RTVSPost2010PropOp36
 70
     1
102
RTVSPost2010Prop37
 90
       50
102
RTVSPost2010PropOp37
 70
     1
102
RTVSPost2010Prop38
140
0.0
102
RTVSPost2010PropOp38
 70
     1
102
RTVSPost2010Prop39
140
1.0
102
RTVSPost2010PropOp39
 70
     1
102
RTVSPost2010Prop40
 90
        0
102
RTVSPost2010PropOp40
 70
     1
102
RTVSPost2010Prop41ColorIndex
 90
       18
102
RTVSPost2010Prop41ColorRGB
 90
        0
102
RTVSPost2010PropOp41
 70
     1
102
RTVSPost2010Prop42
 90
       50
102
RTVSPost2010PropOp42
 70
     1
102
RTVSPost2010Prop43
 90
        3
102
RTVSPost2010PropOp43
 70
     1
102
RTVSPost2010Prop44ColorIndex
 90
        5
102
RTVSPost2010Prop44ColorRGB
 90
      255
102
RTVSPost2010PropOp44
 70
     1
102
RTVSPost2010Prop45
280
     0
102
RTVSPost2010PropOp45
 70
     1
102
RTVSPost2010Prop46
 90
       50
102
RTVSPost2010PropOp46
 70
     1
102
RTVSPost2010Prop47
 90
       50
102
RTVSPost2010PropOp47
 70
     1
102
RTVSPost2010Prop48
 90
       50
102
RTVSPost2010PropOp48
 70
     1
102
RTVSPost2010Prop49
280
     0
102
RTVSPost2010PropOp49
 70
     1
102
RTVSPost2010Prop50
 90
       50
102
RTVSPost2010PropOp50
 70
     1
102
RTVSPost2010Prop51ColorIndex
 90
      256
102
RTVSPost2010Prop51ColorRGB
 90
-16777216
102
RTVSPost2010PropOp51
 70
     0
102
RTVSPost2010Prop52
140
1.0
102
RTVSPost2010PropOp52
 70
     0
102
RTVSPost2010Prop53
 90
        2
102
RTVSPost2010PropOp53
 70
     1
102
RTVSPost2010Prop54
  1
strokes_ogs.tif
102
RTVSPost2010PropOp54
 70
     1
102
RTVSPost2010Prop55
280
     0
102
RTVSPost2010PropOp55
 70
     1
102
RTVSPost2010Prop56
140
1.0
102
RTVSPost2010PropOp56
 70
     1
102
RTVSPost2010Prop57
140
1.0
102
RTVSPost2010PropOp57
 70
     1
  0
XRECORD
  5
5AD
102
{ACAD_REACTORS
330
5AC
102
}
330
5AC
100
AcDbXrecord
280
     1
102
RTVSPropertyOp0
 70
     1
102
RTVSPropertyOp1
 70
     1
102
RTVSPropertyOp2
 70
     1
102
RTVSPropertyOp3
 70
     1
102
RTVSPropertyOp4
 70
     1
102
RTVSPropertyOp5
 70
     1
102
RTVSPropertyOp6
 70
     1
102
RTVSPropertyOp7
 70
     1
102
RTVSPropertyOp8
 70
     1
102
RTVSPropertyOp9
 70
     1
102
RTVSPropertyOp10
 70
     1
102
RTVSPropertyOp11
 70
     1
102
RTVSPropertyOp12
 70
     1
102
RTVSPropertyOp13
 70
     1
102
RTVSPropertyOp14
 70
     1
102
RTVSPropertyOp15
 70
     1
102
RTVSPropertyOp16
 70
     1
102
RTVSPropertyOp17
 70
     1
102
RTVSPropertyOp18
 70
     1
102
RTVSPropertyOp19
 70
     1
102
RTVSPropertyOp20
 70
     1
102
RTVSPropertyOp21
 70
     1
102
RTVSPropertyOp22
 70
     1
102
RTVSPropertyOp23
 70
     1
102
RTVSPropertyOp24
 70
     1
102
RTVSPropertyOp25
 70
     1
102
RTVSPropertyOp26
 70
     1
102
RTVSPropertyOp27
 70
     1
102
RTVSPropertyOp28
 70
     1
102
RTVSPropertyOp29
 70
     1
102
RTVSPropertyOp30
 70
     1
102
RTVSPropertyOp31
 70
     1
102
RTVSPropertyOp32
 70
     1
102
RTVSPropertyOp33
 70
     1
102
RTVSPropertyOp34
 70
     1
102
RTVSPropertyOp35
 70
     1
102
RTVSPropertyOp36
 70
     1
102
RTVSPropertyOp37
 70
     1
102
RTVSPropertyOp38
 70
     1
102
RTVSPropertyOp39
 70
     1
102
RTVSPropertyOp40
 70
     1
102
RTVSPropertyOp41
 70
     1
102
RTVSPropertyOp42
 70
     1
102
RTVSPropertyOp43
 70
     1
102
RTVSPropertyOp44
 70
     1
102
RTVSPropertyOp45
 70
     1
102
RTVSPropertyOp46
 70
     1
102
RTVSPropertyOp47
 70
     1
102
RTVSPropertyOp48
 70
     1
102
RTVSPropertyOp49
 70
     1
102
RTVSPropertyOp50
 70
     1
102
RTVSPropertyOp51
 70
     0
102
RTVSPropertyOp52
 70
     0
102
RTVSPropertyOp53
 70
     1
102
RTVSPropertyOp54
 70
     1
102
RTVSPropertyOp55
 70
     1
102
RTVSPropertyOp56
 70
     1
102
RTVSPropertyOp57
 70
     1
102
RTVSPost2010Prop28
280
     0
102
RTVSPost2010PropOp28
 70
     1
102
RTVSPost2010Prop29
280
     1
102
RTVSPost2010PropOp29
 70
     1
102
RTVSPost2010Prop30
280
     1
102
RTVSPost2010PropOp30
 70
     1
102
RTVSPost2010Prop31
280
     0
102
RTVSPost2010PropOp31
 70
     1
102
RTVSPost2010Prop32
280
     0
102
RTVSPost2010PropOp32
 70
     1
102
RTVSPost2010Prop33
280
     0
102
RTVSPost2010PropOp33
 70
     1
102
RTVSPost2010Prop34
280
     0
102
RTVSPost2010PropOp34
 70
     1
102
RTVSPost2010Prop35
280
     0
102
RTVSPost2010PropOp35
 70
     1
102
RTVSPost2010Prop36
280
     0
102
RTVSPost2010PropOp36
 70
     1
102
RTVSPost2010Prop37
 90
       50
102
RTVSPost2010PropOp37
 70
     1
102
RTVSPost2010Prop38
140
0.0
102
RTVSPost2010PropOp38
 70
     1
102
RTVSPost2010Prop39
140
1.0
102
RTVSPost2010PropOp39
 70
     1
102
RTVSPost2010Prop40
 90
        0
102
RTVSPost2010PropOp40
 70
     1
102
RTVSPost2010Prop41ColorIndex
 90
       18
102
RTVSPost2010Prop41ColorRGB
 90
        0
102
RTVSPost2010PropOp41
 70
     1
102
RTVSPost2010Prop42
 90
       50
102
RTVSPost2010PropOp42
 70
     1
102
RTVSPost2010Prop43
 90
        3
102
RTVSPost2010PropOp43
 70
     1
102
RTVSPost2010Prop44ColorIndex
 90
        5
102
RTVSPost2010Prop44ColorRGB
 90
      255
102
RTVSPost2010PropOp44
 70
     1
102
RTVSPost2010Prop45
280
     0
102
RTVSPost2010PropOp45
 70
     1
102
RTVSPost2010Prop46
 90
       50
102
RTVSPost2010PropOp46
 70
     1
102
RTVSPost2010Prop47
 90
       50
102
RTVSPost2010PropOp47
 70
     1
102
RTVSPost2010Prop48
 90
       50
102
RTVSPost2010PropOp48
 70
     1
102
RTVSPost2010Prop49
280
     0
102
RTVSPost2010PropOp49
 70
     1
102
RTVSPost2010Prop50
 90
       50
102
RTVSPost2010PropOp50
 70
     1
102
RTVSPost2010Prop51ColorIndex
 90
      256
102
RTVSPost2010Prop51ColorRGB
 90
-16777216
102
RTVSPost2010PropOp51
 70
     0
102
RTVSPost2010Prop52
140
1.0
102
RTVSPost2010PropOp52
 70
     0
102
RTVSPost2010Prop53
 90
        2
102
RTVSPost2010PropOp53
 70
     1
102
RTVSPost2010Prop54
  1
strokes_ogs.tif
102
RTVSPost2010PropOp54
 70
     1
102
RTVSPost2010Prop55
280
     0
102
RTVSPost2010PropOp55
 70
     1
102
RTVSPost2010Prop56
140
1.0
102
RTVSPost2010PropOp56
 70
     1
102
RTVSPost2010Prop57
140
1.0
102
RTVSPost2010PropOp57
 70
     1
  0
XRECORD
  5
5B5
102
{ACAD_REACTORS
330
5B4
102
}
330
5B4
100
AcDbXrecord
280
     1
102
RTVSPropertyOp0
 70
     1
102
RTVSPropertyOp1
 70
     1
102
RTVSPropertyOp2
 70
     1
102
RTVSPropertyOp3
 70
     1
102
RTVSPropertyOp4
 70
     1
102
RTVSPropertyOp5
 70
     1
102
RTVSPropertyOp6
 70
     1
102
RTVSPropertyOp7
 70
     1
102
RTVSPropertyOp8
 70
     1
102
RTVSPropertyOp9
 70
     1
102
RTVSPropertyOp10
 70
     1
102
RTVSPropertyOp11
 70
     1
102
RTVSPropertyOp12
 70
     1
102
RTVSPropertyOp13
 70
     1
102
RTVSPropertyOp14
 70
     1
102
RTVSPropertyOp15
 70
     1
102
RTVSPropertyOp16
 70
     1
102
RTVSPropertyOp17
 70
     1
102
RTVSPropertyOp18
 70
     1
102
RTVSPropertyOp19
 70
     1
102
RTVSPropertyOp20
 70
     1
102
RTVSPropertyOp21
 70
     1
102
RTVSPropertyOp22
 70
     1
102
RTVSPropertyOp23
 70
     1
102
RTVSPropertyOp24
 70
     1
102
RTVSPropertyOp25
 70
     1
102
RTVSPropertyOp26
 70
     1
102
RTVSPropertyOp27
 70
     1
102
RTVSPropertyOp28
 70
     1
102
RTVSPropertyOp29
 70
     1
102
RTVSPropertyOp30
 70
     1
102
RTVSPropertyOp31
 70
     1
102
RTVSPropertyOp32
 70
     1
102
RTVSPropertyOp33
 70
     1
102
RTVSPropertyOp34
 70
     1
102
RTVSPropertyOp35
 70
     1
102
RTVSPropertyOp36
 70
     1
102
RTVSPropertyOp37
 70
     1
102
RTVSPropertyOp38
 70
     1
102
RTVSPropertyOp39
 70
     1
102
RTVSPropertyOp40
 70
     1
102
RTVSPropertyOp41
 70
     1
102
RTVSPropertyOp42
 70
     1
102
RTVSPropertyOp43
 70
     1
102
RTVSPropertyOp44
 70
     1
102
RTVSPropertyOp45
 70
     1
102
RTVSPropertyOp46
 70
     1
102
RTVSPropertyOp47
 70
     1
102
RTVSPropertyOp48
 70
     1
102
RTVSPropertyOp49
 70
     1
102
RTVSPropertyOp50
 70
     1
102
RTVSPropertyOp51
 70
     0
102
RTVSPropertyOp52
 70
     0
102
RTVSPropertyOp53
 70
     1
102
RTVSPropertyOp54
 70
     1
102
RTVSPropertyOp55
 70
     1
102
RTVSPropertyOp56
 70
     1
102
RTVSPropertyOp57
 70
     1
102
RTVSPost2010Prop28
280
     0
102
RTVSPost2010PropOp28
 70
     1
102
RTVSPost2010Prop29
280
     1
102
RTVSPost2010PropOp29
 70
     1
102
RTVSPost2010Prop30
280
     1
102
RTVSPost2010PropOp30
 70
     1
102
RTVSPost2010Prop31
280
     0
102
RTVSPost2010PropOp31
 70
     1
102
RTVSPost2010Prop32
280
     0
102
RTVSPost2010PropOp32
 70
     1
102
RTVSPost2010Prop33
280
     0
102
RTVSPost2010PropOp33
 70
     1
102
RTVSPost2010Prop34
280
     0
102
RTVSPost2010PropOp34
 70
     1
102
RTVSPost2010Prop35
280
     0
102
RTVSPost2010PropOp35
 70
     1
102
RTVSPost2010Prop36
280
     0
102
RTVSPost2010PropOp36
 70
     1
102
RTVSPost2010Prop37
 90
       50
102
RTVSPost2010PropOp37
 70
     1
102
RTVSPost2010Prop38
140
0.0
102
RTVSPost2010PropOp38
 70
     1
102
RTVSPost2010Prop39
140
1.0
102
RTVSPost2010PropOp39
 70
     1
102
RTVSPost2010Prop40
 90
        0
102
RTVSPost2010PropOp40
 70
     1
102
RTVSPost2010Prop41ColorIndex
 90
       18
102
RTVSPost2010Prop41ColorRGB
 90
        0
102
RTVSPost2010PropOp41
 70
     1
102
RTVSPost2010Prop42
 90
       50
102
RTVSPost2010PropOp42
 70
     1
102
RTVSPost2010Prop43
 90
        3
102
RTVSPost2010PropOp43
 70
     1
102
RTVSPost2010Prop44ColorIndex
 90
        5
102
RTVSPost2010Prop44ColorRGB
 90
      255
102
RTVSPost2010PropOp44
 70
     1
102
RTVSPost2010Prop45
280
     0
102
RTVSPost2010PropOp45
 70
     1
102
RTVSPost2010Prop46
 90
       50
102
RTVSPost2010PropOp46
 70
     1
102
RTVSPost2010Prop47
 90
       50
102
RTVSPost2010PropOp47
 70
     1
102
RTVSPost2010Prop48
 90
       50
102
RTVSPost2010PropOp48
 70
     1
102
RTVSPost2010Prop49
280
     0
102
RTVSPost2010PropOp49
 70
     1
102
RTVSPost2010Prop50
 90
       50
102
RTVSPost2010PropOp50
 70
     1
102
RTVSPost2010Prop51ColorIndex
 90
      256
102
RTVSPost2010Prop51ColorRGB
 90
-16777216
102
RTVSPost2010PropOp51
 70
     0
102
RTVSPost2010Prop52
140
1.0
102
RTVSPost2010PropOp52
 70
     0
102
RTVSPost2010Prop53
 90
        2
102
RTVSPost2010PropOp53
 70
     1
102
RTVSPost2010Prop54
  1
strokes_ogs.tif
102
RTVSPost2010PropOp54
 70
     1
102
RTVSPost2010Prop55
280
     0
102
RTVSPost2010PropOp55
 70
     1
102
RTVSPost2010Prop56
140
1.0
102
RTVSPost2010PropOp56
 70
     1
102
RTVSPost2010Prop57
140
1.0
102
RTVSPost2010PropOp57
 70
     1
  0
XRECORD
  5
599
102
{ACAD_REACTORS
330
598
102
}
330
598
100
AcDbXrecord
280
     1
102
RTVSPropertyOp0
 70
     1
102
RTVSPropertyOp1
 70
     1
102
RTVSPropertyOp2
 70
     1
102
RTVSPropertyOp3
 70
     1
102
RTVSPropertyOp4
 70
     1
102
RTVSPropertyOp5
 70
     1
102
RTVSPropertyOp6
 70
     1
102
RTVSPropertyOp7
 70
     1
102
RTVSPropertyOp8
 70
     1
102
RTVSPropertyOp9
 70
     1
102
RTVSPropertyOp10
 70
     1
102
RTVSPropertyOp11
 70
     1
102
RTVSPropertyOp12
 70
     1
102
RTVSPropertyOp13
 70
     1
102
RTVSPropertyOp14
 70
     1
102
RTVSPropertyOp15
 70
     1
102
RTVSPropertyOp16
 70
     1
102
RTVSPropertyOp17
 70
     1
102
RTVSPropertyOp18
 70
     1
102
RTVSPropertyOp19
 70
     1
102
RTVSPropertyOp20
 70
     1
102
RTVSPropertyOp21
 70
     1
102
RTVSPropertyOp22
 70
     1
102
RTVSPropertyOp23
 70
     1
102
RTVSPropertyOp24
 70
     1
102
RTVSPropertyOp25
 70
     1
102
RTVSPropertyOp26
 70
     1
102
RTVSPropertyOp27
 70
     1
102
RTVSPropertyOp28
 70
     1
102
RTVSPropertyOp29
 70
     1
102
RTVSPropertyOp30
 70
     1
102
RTVSPropertyOp31
 70
     1
102
RTVSPropertyOp32
 70
     1
102
RTVSPropertyOp33
 70
     1
102
RTVSPropertyOp34
 70
     1
102
RTVSPropertyOp35
 70
     1
102
RTVSPropertyOp36
 70
     1
102
RTVSPropertyOp37
 70
     1
102
RTVSPropertyOp38
 70
     1
102
RTVSPropertyOp39
 70
     1
102
RTVSPropertyOp40
 70
     1
102
RTVSPropertyOp41
 70
     1
102
RTVSPropertyOp42
 70
     1
102
RTVSPropertyOp43
 70
     1
102
RTVSPropertyOp44
 70
     1
102
RTVSPropertyOp45
 70
     1
102
RTVSPropertyOp46
 70
     1
102
RTVSPropertyOp47
 70
     1
102
RTVSPropertyOp48
 70
     1
102
RTVSPropertyOp49
 70
     1
102
RTVSPropertyOp50
 70
     1
102
RTVSPropertyOp51
 70
     0
102
RTVSPropertyOp52
 70
     0
102
RTVSPropertyOp53
 70
     1
102
RTVSPropertyOp54
 70
     1
102
RTVSPropertyOp55
 70
     1
102
RTVSPropertyOp56
 70
     1
102
RTVSPropertyOp57
 70
     1
102
RTVSPost2010Prop28
280
     0
102
RTVSPost2010PropOp28
 70
     1
102
RTVSPost2010Prop29
280
     1
102
RTVSPost2010PropOp29
 70
     1
102
RTVSPost2010Prop30
280
     1
102
RTVSPost2010PropOp30
 70
     1
102
RTVSPost2010Prop31
280
     0
102
RTVSPost2010PropOp31
 70
     1
102
RTVSPost2010Prop32
280
     0
102
RTVSPost2010PropOp32
 70
     1
102
RTVSPost2010Prop33
280
     0
102
RTVSPost2010PropOp33
 70
     1
102
RTVSPost2010Prop34
280
     0
102
RTVSPost2010PropOp34
 70
     1
102
RTVSPost2010Prop35
280
     0
102
RTVSPost2010PropOp35
 70
     1
102
RTVSPost2010Prop36
280
     0
102
RTVSPost2010PropOp36
 70
     1
102
RTVSPost2010Prop37
 90
       50
102
RTVSPost2010PropOp37
 70
     1
102
RTVSPost2010Prop38
140
0.0
102
RTVSPost2010PropOp38
 70
     1
102
RTVSPost2010Prop39
140
1.0
102
RTVSPost2010PropOp39
 70
     1
102
RTVSPost2010Prop40
 90
        0
102
RTVSPost2010PropOp40
 70
     1
102
RTVSPost2010Prop41ColorIndex
 90
       18
102
RTVSPost2010Prop41ColorRGB
 90
        0
102
RTVSPost2010PropOp41
 70
     1
102
RTVSPost2010Prop42
 90
       50
102
RTVSPost2010PropOp42
 70
     1
102
RTVSPost2010Prop43
 90
        3
102
RTVSPost2010PropOp43
 70
     1
102
RTVSPost2010Prop44ColorIndex
 90
        5
102
RTVSPost2010Prop44ColorRGB
 90
      255
102
RTVSPost2010PropOp44
 70
     1
102
RTVSPost2010Prop45
280
     0
102
RTVSPost2010PropOp45
 70
     1
102
RTVSPost2010Prop46
 90
       50
102
RTVSPost2010PropOp46
 70
     1
102
RTVSPost2010Prop47
 90
       50
102
RTVSPost2010PropOp47
 70
     1
102
RTVSPost2010Prop48
 90
       50
102
RTVSPost2010PropOp48
 70
     1
102
RTVSPost2010Prop49
280
     0
102
RTVSPost2010PropOp49
 70
     1
102
RTVSPost2010Prop50
 90
       50
102
RTVSPost2010PropOp50
 70
     1
102
RTVSPost2010Prop51ColorIndex
 90
      256
102
RTVSPost2010Prop51ColorRGB
 90
-16777216
102
RTVSPost2010PropOp51
 70
     0
102
RTVSPost2010Prop52
140
1.0
102
RTVSPost2010PropOp52
 70
     0
102
RTVSPost2010Prop53
 90
        2
102
RTVSPost2010PropOp53
 70
     1
102
RTVSPost2010Prop54
  1
strokes_ogs.tif
102
RTVSPost2010PropOp54
 70
     1
102
RTVSPost2010Prop55
280
     0
102
RTVSPost2010PropOp55
 70
     1
102
RTVSPost2010Prop56
140
1.0
102
RTVSPost2010PropOp56
 70
     1
102
RTVSPost2010Prop57
140
1.0
102
RTVSPost2010PropOp57
 70
     1
  0
XRECORD
  5
59B
102
{ACAD_REACTORS
330
59A
102
}
330
59A
100
AcDbXrecord
280
     1
102
RTVSPropertyOp0
 70
     1
102
RTVSPropertyOp1
 70
     1
102
RTVSPropertyOp2
 70
     1
102
RTVSPropertyOp3
 70
     1
102
RTVSPropertyOp4
 70
     1
102
RTVSPropertyOp5
 70
     1
102
RTVSPropertyOp6
 70
     1
102
RTVSPropertyOp7
 70
     1
102
RTVSPropertyOp8
 70
     1
102
RTVSPropertyOp9
 70
     1
102
RTVSPropertyOp10
 70
     1
102
RTVSPropertyOp11
 70
     1
102
RTVSPropertyOp12
 70
     1
102
RTVSPropertyOp13
 70
     1
102
RTVSPropertyOp14
 70
     1
102
RTVSPropertyOp15
 70
     1
102
RTVSPropertyOp16
 70
     1
102
RTVSPropertyOp17
 70
     1
102
RTVSPropertyOp18
 70
     1
102
RTVSPropertyOp19
 70
     1
102
RTVSPropertyOp20
 70
     1
102
RTVSPropertyOp21
 70
     1
102
RTVSPropertyOp22
 70
     1
102
RTVSPropertyOp23
 70
     1
102
RTVSPropertyOp24
 70
     1
102
RTVSPropertyOp25
 70
     1
102
RTVSPropertyOp26
 70
     1
102
RTVSPropertyOp27
 70
     1
102
RTVSPropertyOp28
 70
     1
102
RTVSPropertyOp29
 70
     1
102
RTVSPropertyOp30
 70
     1
102
RTVSPropertyOp31
 70
     1
102
RTVSPropertyOp32
 70
     1
102
RTVSPropertyOp33
 70
     1
102
RTVSPropertyOp34
 70
     1
102
RTVSPropertyOp35
 70
     1
102
RTVSPropertyOp36
 70
     1
102
RTVSPropertyOp37
 70
     1
102
RTVSPropertyOp38
 70
     1
102
RTVSPropertyOp39
 70
     1
102
RTVSPropertyOp40
 70
     1
102
RTVSPropertyOp41
 70
     1
102
RTVSPropertyOp42
 70
     1
102
RTVSPropertyOp43
 70
     1
102
RTVSPropertyOp44
 70
     1
102
RTVSPropertyOp45
 70
     1
102
RTVSPropertyOp46
 70
     1
102
RTVSPropertyOp47
 70
     1
102
RTVSPropertyOp48
 70
     1
102
RTVSPropertyOp49
 70
     1
102
RTVSPropertyOp50
 70
     1
102
RTVSPropertyOp51
 70
     0
102
RTVSPropertyOp52
 70
     0
102
RTVSPropertyOp53
 70
     1
102
RTVSPropertyOp54
 70
     1
102
RTVSPropertyOp55
 70
     1
102
RTVSPropertyOp56
 70
     1
102
RTVSPropertyOp57
 70
     1
102
RTVSPost2010Prop28
280
     0
102
RTVSPost2010PropOp28
 70
     1
102
RTVSPost2010Prop29
280
     1
102
RTVSPost2010PropOp29
 70
     1
102
RTVSPost2010Prop30
280
     1
102
RTVSPost2010PropOp30
 70
     1
102
RTVSPost2010Prop31
280
     0
102
RTVSPost2010PropOp31
 70
     1
102
RTVSPost2010Prop32
280
     0
102
RTVSPost2010PropOp32
 70
     1
102
RTVSPost2010Prop33
280
     0
102
RTVSPost2010PropOp33
 70
     1
102
RTVSPost2010Prop34
280
     0
102
RTVSPost2010PropOp34
 70
     1
102
RTVSPost2010Prop35
280
     0
102
RTVSPost2010PropOp35
 70
     1
102
RTVSPost2010Prop36
280
     0
102
RTVSPost2010PropOp36
 70
     1
102
RTVSPost2010Prop37
 90
       50
102
RTVSPost2010PropOp37
 70
     1
102
RTVSPost2010Prop38
140
0.0
102
RTVSPost2010PropOp38
 70
     1
102
RTVSPost2010Prop39
140
1.0
102
RTVSPost2010PropOp39
 70
     1
102
RTVSPost2010Prop40
 90
        0
102
RTVSPost2010PropOp40
 70
     1
102
RTVSPost2010Prop41ColorIndex
 90
       18
102
RTVSPost2010Prop41ColorRGB
 90
        0
102
RTVSPost2010PropOp41
 70
     1
102
RTVSPost2010Prop42
 90
       50
102
RTVSPost2010PropOp42
 70
     1
102
RTVSPost2010Prop43
 90
        3
102
RTVSPost2010PropOp43
 70
     1
102
RTVSPost2010Prop44ColorIndex
 90
        5
102
RTVSPost2010Prop44ColorRGB
 90
      255
102
RTVSPost2010PropOp44
 70
     1
102
RTVSPost2010Prop45
280
     0
102
RTVSPost2010PropOp45
 70
     1
102
RTVSPost2010Prop46
 90
       50
102
RTVSPost2010PropOp46
 70
     1
102
RTVSPost2010Prop47
 90
       50
102
RTVSPost2010PropOp47
 70
     1
102
RTVSPost2010Prop48
 90
       50
102
RTVSPost2010PropOp48
 70
     1
102
RTVSPost2010Prop49
280
     0
102
RTVSPost2010PropOp49
 70
     1
102
RTVSPost2010Prop50
 90
       50
102
RTVSPost2010PropOp50
 70
     1
102
RTVSPost2010Prop51ColorIndex
 90
      256
102
RTVSPost2010Prop51ColorRGB
 90
-16777216
102
RTVSPost2010PropOp51
 70
     0
102
RTVSPost2010Prop52
140
1.0
102
RTVSPost2010PropOp52
 70
     0
102
RTVSPost2010Prop53
 90
        2
102
RTVSPost2010PropOp53
 70
     1
102
RTVSPost2010Prop54
  1
strokes_ogs.tif
102
RTVSPost2010PropOp54
 70
     1
102
RTVSPost2010Prop55
280
     0
102
RTVSPost2010PropOp55
 70
     1
102
RTVSPost2010Prop56
140
1.0
102
RTVSPost2010PropOp56
 70
     1
102
RTVSPost2010Prop57
140
1.0
102
RTVSPost2010PropOp57
 70
     1
  0
XRECORD
  5
59D
102
{ACAD_REACTORS
330
59C
102
}
330
59C
100
AcDbXrecord
280
     1
102
RTVSPropertyOp0
 70
     1
102
RTVSPropertyOp1
 70
     1
102
RTVSPropertyOp2
 70
     1
102
RTVSPropertyOp3
 70
     1
102
RTVSPropertyOp4
 70
     1
102
RTVSPropertyOp5
 70
     1
102
RTVSPropertyOp6
 70
     1
102
RTVSPropertyOp7
 70
     1
102
RTVSPropertyOp8
 70
     1
102
RTVSPropertyOp9
 70
     1
102
RTVSPropertyOp10
 70
     1
102
RTVSPropertyOp11
 70
     1
102
RTVSPropertyOp12
 70
     1
102
RTVSPropertyOp13
 70
     1
102
RTVSPropertyOp14
 70
     1
102
RTVSPropertyOp15
 70
     1
102
RTVSPropertyOp16
 70
     1
102
RTVSPropertyOp17
 70
     1
102
RTVSPropertyOp18
 70
     1
102
RTVSPropertyOp19
 70
     1
102
RTVSPropertyOp20
 70
     1
102
RTVSPropertyOp21
 70
     1
102
RTVSPropertyOp22
 70
     1
102
RTVSPropertyOp23
 70
     1
102
RTVSPropertyOp24
 70
     1
102
RTVSPropertyOp25
 70
     1
102
RTVSPropertyOp26
 70
     1
102
RTVSPropertyOp27
 70
     1
102
RTVSPropertyOp28
 70
     1
102
RTVSPropertyOp29
 70
     1
102
RTVSPropertyOp30
 70
     1
102
RTVSPropertyOp31
 70
     1
102
RTVSPropertyOp32
 70
     1
102
RTVSPropertyOp33
 70
     1
102
RTVSPropertyOp34
 70
     1
102
RTVSPropertyOp35
 70
     1
102
RTVSPropertyOp36
 70
     1
102
RTVSPropertyOp37
 70
     1
102
RTVSPropertyOp38
 70
     1
102
RTVSPropertyOp39
 70
     1
102
RTVSPropertyOp40
 70
     1
102
RTVSPropertyOp41
 70
     1
102
RTVSPropertyOp42
 70
     1
102
RTVSPropertyOp43
 70
     1
102
RTVSPropertyOp44
 70
     1
102
RTVSPropertyOp45
 70
     1
102
RTVSPropertyOp46
 70
     1
102
RTVSPropertyOp47
 70
     1
102
RTVSPropertyOp48
 70
     1
102
RTVSPropertyOp49
 70
     1
102
RTVSPropertyOp50
 70
     1
102
RTVSPropertyOp51
 70
     0
102
RTVSPropertyOp52
 70
     0
102
RTVSPropertyOp53
 70
     1
102
RTVSPropertyOp54
 70
     1
102
RTVSPropertyOp55
 70
     1
102
RTVSPropertyOp56
 70
     1
102
RTVSPropertyOp57
 70
     1
102
RTVSPost2010Prop28
280
     0
102
RTVSPost2010PropOp28
 70
     1
102
RTVSPost2010Prop29
280
     1
102
RTVSPost2010PropOp29
 70
     1
102
RTVSPost2010Prop30
280
     1
102
RTVSPost2010PropOp30
 70
     1
102
RTVSPost2010Prop31
280
     0
102
RTVSPost2010PropOp31
 70
     1
102
RTVSPost2010Prop32
280
     0
102
RTVSPost2010PropOp32
 70
     1
102
RTVSPost2010Prop33
280
     0
102
RTVSPost2010PropOp33
 70
     1
102
RTVSPost2010Prop34
280
     0
102
RTVSPost2010PropOp34
 70
     1
102
RTVSPost2010Prop35
280
     0
102
RTVSPost2010PropOp35
 70
     1
102
RTVSPost2010Prop36
280
     0
102
RTVSPost2010PropOp36
 70
     1
102
RTVSPost2010Prop37
 90
       50
102
RTVSPost2010PropOp37
 70
     1
102
RTVSPost2010Prop38
140
0.0
102
RTVSPost2010PropOp38
 70
     1
102
RTVSPost2010Prop39
140
1.0
102
RTVSPost2010PropOp39
 70
     1
102
RTVSPost2010Prop40
 90
        0
102
RTVSPost2010PropOp40
 70
     1
102
RTVSPost2010Prop41ColorIndex
 90
       18
102
RTVSPost2010Prop41ColorRGB
 90
        0
102
RTVSPost2010PropOp41
 70
     1
102
RTVSPost2010Prop42
 90
       50
102
RTVSPost2010PropOp42
 70
     1
102
RTVSPost2010Prop43
 90
        3
102
RTVSPost2010PropOp43
 70
     1
102
RTVSPost2010Prop44ColorIndex
 90
        5
102
RTVSPost2010Prop44ColorRGB
 90
      255
102
RTVSPost2010PropOp44
 70
     1
102
RTVSPost2010Prop45
280
     0
102
RTVSPost2010PropOp45
 70
     1
102
RTVSPost2010Prop46
 90
       50
102
RTVSPost2010PropOp46
 70
     1
102
RTVSPost2010Prop47
 90
       50
102
RTVSPost2010PropOp47
 70
     1
102
RTVSPost2010Prop48
 90
       50
102
RTVSPost2010PropOp48
 70
     1
102
RTVSPost2010Prop49
280
     0
102
RTVSPost2010PropOp49
 70
     1
102
RTVSPost2010Prop50
 90
       50
102
RTVSPost2010PropOp50
 70
     1
102
RTVSPost2010Prop51ColorIndex
 90
      256
102
RTVSPost2010Prop51ColorRGB
 90
-16777216
102
RTVSPost2010PropOp51
 70
     0
102
RTVSPost2010Prop52
140
1.0
102
RTVSPost2010PropOp52
 70
     0
102
RTVSPost2010Prop53
 90
        2
102
RTVSPost2010PropOp53
 70
     1
102
RTVSPost2010Prop54
  1
strokes_ogs.tif
102
RTVSPost2010PropOp54
 70
     1
102
RTVSPost2010Prop55
280
     0
102
RTVSPost2010PropOp55
 70
     1
102
RTVSPost2010Prop56
140
1.0
102
RTVSPost2010PropOp56
 70
     1
102
RTVSPost2010Prop57
140
1.0
102
RTVSPost2010PropOp57
 70
     1
  0
XRECORD
  5
59F
102
{ACAD_REACTORS
330
59E
102
}
330
59E
100
AcDbXrecord
280
     1
102
RTVSPropertyOp0
 70
     1
102
RTVSPropertyOp1
 70
     1
102
RTVSPropertyOp2
 70
     1
102
RTVSPropertyOp3
 70
     1
102
RTVSPropertyOp4
 70
     1
102
RTVSPropertyOp5
 70
     1
102
RTVSPropertyOp6
 70
     1
102
RTVSPropertyOp7
 70
     1
102
RTVSPropertyOp8
 70
     1
102
RTVSPropertyOp9
 70
     1
102
RTVSPropertyOp10
 70
     1
102
RTVSPropertyOp11
 70
     1
102
RTVSPropertyOp12
 70
     1
102
RTVSPropertyOp13
 70
     1
102
RTVSPropertyOp14
 70
     1
102
RTVSPropertyOp15
 70
     1
102
RTVSPropertyOp16
 70
     1
102
RTVSPropertyOp17
 70
     1
102
RTVSPropertyOp18
 70
     1
102
RTVSPropertyOp19
 70
     1
102
RTVSPropertyOp20
 70
     1
102
RTVSPropertyOp21
 70
     1
102
RTVSPropertyOp22
 70
     1
102
RTVSPropertyOp23
 70
     1
102
RTVSPropertyOp24
 70
     1
102
RTVSPropertyOp25
 70
     1
102
RTVSPropertyOp26
 70
     1
102
RTVSPropertyOp27
 70
     1
102
RTVSPropertyOp28
 70
     1
102
RTVSPropertyOp29
 70
     1
102
RTVSPropertyOp30
 70
     1
102
RTVSPropertyOp31
 70
     1
102
RTVSPropertyOp32
 70
     1
102
RTVSPropertyOp33
 70
     1
102
RTVSPropertyOp34
 70
     1
102
RTVSPropertyOp35
 70
     1
102
RTVSPropertyOp36
 70
     1
102
RTVSPropertyOp37
 70
     1
102
RTVSPropertyOp38
 70
     1
102
RTVSPropertyOp39
 70
     1
102
RTVSPropertyOp40
 70
     1
102
RTVSPropertyOp41
 70
     1
102
RTVSPropertyOp42
 70
     1
102
RTVSPropertyOp43
 70
     1
102
RTVSPropertyOp44
 70
     1
102
RTVSPropertyOp45
 70
     1
102
RTVSPropertyOp46
 70
     1
102
RTVSPropertyOp47
 70
     1
102
RTVSPropertyOp48
 70
     1
102
RTVSPropertyOp49
 70
     1
102
RTVSPropertyOp50
 70
     1
102
RTVSPropertyOp51
 70
     0
102
RTVSPropertyOp52
 70
     0
102
RTVSPropertyOp53
 70
     1
102
RTVSPropertyOp54
 70
     1
102
RTVSPropertyOp55
 70
     1
102
RTVSPropertyOp56
 70
     1
102
RTVSPropertyOp57
 70
     1
102
RTVSPost2010Prop28
280
     0
102
RTVSPost2010PropOp28
 70
     1
102
RTVSPost2010Prop29
280
     1
102
RTVSPost2010PropOp29
 70
     1
102
RTVSPost2010Prop30
280
     1
102
RTVSPost2010PropOp30
 70
     1
102
RTVSPost2010Prop31
280
     0
102
RTVSPost2010PropOp31
 70
     1
102
RTVSPost2010Prop32
280
     0
102
RTVSPost2010PropOp32
 70
     1
102
RTVSPost2010Prop33
280
     0
102
RTVSPost2010PropOp33
 70
     1
102
RTVSPost2010Prop34
280
     0
102
RTVSPost2010PropOp34
 70
     1
102
RTVSPost2010Prop35
280
     0
102
RTVSPost2010PropOp35
 70
     1
102
RTVSPost2010Prop36
280
     0
102
RTVSPost2010PropOp36
 70
     1
102
RTVSPost2010Prop37
 90
       50
102
RTVSPost2010PropOp37
 70
     1
102
RTVSPost2010Prop38
140
0.0
102
RTVSPost2010PropOp38
 70
     1
102
RTVSPost2010Prop39
140
1.0
102
RTVSPost2010PropOp39
 70
     1
102
RTVSPost2010Prop40
 90
        0
102
RTVSPost2010PropOp40
 70
     1
102
RTVSPost2010Prop41ColorIndex
 90
       18
102
RTVSPost2010Prop41ColorRGB
 90
        0
102
RTVSPost2010PropOp41
 70
     1
102
RTVSPost2010Prop42
 90
       50
102
RTVSPost2010PropOp42
 70
     1
102
RTVSPost2010Prop43
 90
        3
102
RTVSPost2010PropOp43
 70
     1
102
RTVSPost2010Prop44ColorIndex
 90
        5
102
RTVSPost2010Prop44ColorRGB
 90
      255
102
RTVSPost2010PropOp44
 70
     1
102
RTVSPost2010Prop45
280
     0
102
RTVSPost2010PropOp45
 70
     1
102
RTVSPost2010Prop46
 90
       50
102
RTVSPost2010PropOp46
 70
     1
102
RTVSPost2010Prop47
 90
       50
102
RTVSPost2010PropOp47
 70
     1
102
RTVSPost2010Prop48
 90
       50
102
RTVSPost2010PropOp48
 70
     1
102
RTVSPost2010Prop49
280
     0
102
RTVSPost2010PropOp49
 70
     1
102
RTVSPost2010Prop50
 90
       50
102
RTVSPost2010PropOp50
 70
     1
102
RTVSPost2010Prop51ColorIndex
 90
      256
102
RTVSPost2010Prop51ColorRGB
 90
-16777216
102
RTVSPost2010PropOp51
 70
     0
102
RTVSPost2010Prop52
140
1.0
102
RTVSPost2010PropOp52
 70
     0
102
RTVSPost2010Prop53
 90
        2
102
RTVSPost2010PropOp53
 70
     1
102
RTVSPost2010Prop54
  1
strokes_ogs.tif
102
RTVSPost2010PropOp54
 70
     1
102
RTVSPost2010Prop55
280
     0
102
RTVSPost2010PropOp55
 70
     1
102
RTVSPost2010Prop56
140
1.0
102
RTVSPost2010PropOp56
 70
     1
102
RTVSPost2010Prop57
140
1.0
102
RTVSPost2010PropOp57
 70
     1
  0
XRECORD
  5
5B3
102
{ACAD_REACTORS
330
5B2
102
}
330
5B2
100
AcDbXrecord
280
     1
102
RTVSPropertyOp0
 70
     1
102
RTVSPropertyOp1
 70
     1
102
RTVSPropertyOp2
 70
     1
102
RTVSPropertyOp3
 70
     1
102
RTVSPropertyOp4
 70
     1
102
RTVSPropertyOp5
 70
     1
102
RTVSPropertyOp6
 70
     1
102
RTVSPropertyOp7
 70
     1
102
RTVSPropertyOp8
 70
     1
102
RTVSPropertyOp9
 70
     1
102
RTVSPropertyOp10
 70
     1
102
RTVSPropertyOp11
 70
     1
102
RTVSPropertyOp12
 70
     1
102
RTVSPropertyOp13
 70
     1
102
RTVSPropertyOp14
 70
     1
102
RTVSPropertyOp15
 70
     1
102
RTVSPropertyOp16
 70
     1
102
RTVSPropertyOp17
 70
     1
102
RTVSPropertyOp18
 70
     1
102
RTVSPropertyOp19
 70
     1
102
RTVSPropertyOp20
 70
     1
102
RTVSPropertyOp21
 70
     1
102
RTVSPropertyOp22
 70
     1
102
RTVSPropertyOp23
 70
     1
102
RTVSPropertyOp24
 70
     1
102
RTVSPropertyOp25
 70
     1
102
RTVSPropertyOp26
 70
     1
102
RTVSPropertyOp27
 70
     1
102
RTVSPropertyOp28
 70
     1
102
RTVSPropertyOp29
 70
     1
102
RTVSPropertyOp30
 70
     1
102
RTVSPropertyOp31
 70
     1
102
RTVSPropertyOp32
 70
     1
102
RTVSPropertyOp33
 70
     1
102
RTVSPropertyOp34
 70
     1
102
RTVSPropertyOp35
 70
     1
102
RTVSPropertyOp36
 70
     1
102
RTVSPropertyOp37
 70
     1
102
RTVSPropertyOp38
 70
     1
102
RTVSPropertyOp39
 70
     1
102
RTVSPropertyOp40
 70
     1
102
RTVSPropertyOp41
 70
     1
102
RTVSPropertyOp42
 70
     1
102
RTVSPropertyOp43
 70
     1
102
RTVSPropertyOp44
 70
     1
102
RTVSPropertyOp45
 70
     1
102
RTVSPropertyOp46
 70
     1
102
RTVSPropertyOp47
 70
     1
102
RTVSPropertyOp48
 70
     1
102
RTVSPropertyOp49
 70
     1
102
RTVSPropertyOp50
 70
     1
102
RTVSPropertyOp51
 70
     0
102
RTVSPropertyOp52
 70
     0
102
RTVSPropertyOp53
 70
     1
102
RTVSPropertyOp54
 70
     1
102
RTVSPropertyOp55
 70
     1
102
RTVSPropertyOp56
 70
     1
102
RTVSPropertyOp57
 70
     1
102
RTVSPost2010Prop28
280
     0
102
RTVSPost2010PropOp28
 70
     1
102
RTVSPost2010Prop29
280
     1
102
RTVSPost2010PropOp29
 70
     1
102
RTVSPost2010Prop30
280
     1
102
RTVSPost2010PropOp30
 70
     1
102
RTVSPost2010Prop31
280
     0
102
RTVSPost2010PropOp31
 70
     1
102
RTVSPost2010Prop32
280
     0
102
RTVSPost2010PropOp32
 70
     1
102
RTVSPost2010Prop33
280
     0
102
RTVSPost2010PropOp33
 70
     1
102
RTVSPost2010Prop34
280
     0
102
RTVSPost2010PropOp34
 70
     1
102
RTVSPost2010Prop35
280
     0
102
RTVSPost2010PropOp35
 70
     1
102
RTVSPost2010Prop36
280
     0
102
RTVSPost2010PropOp36
 70
     1
102
RTVSPost2010Prop37
 90
       50
102
RTVSPost2010PropOp37
 70
     1
102
RTVSPost2010Prop38
140
0.0
102
RTVSPost2010PropOp38
 70
     1
102
RTVSPost2010Prop39
140
1.0
102
RTVSPost2010PropOp39
 70
     1
102
RTVSPost2010Prop40
 90
        0
102
RTVSPost2010PropOp40
 70
     1
102
RTVSPost2010Prop41ColorIndex
 90
       18
102
RTVSPost2010Prop41ColorRGB
 90
        0
102
RTVSPost2010PropOp41
 70
     1
102
RTVSPost2010Prop42
 90
       50
102
RTVSPost2010PropOp42
 70
     1
102
RTVSPost2010Prop43
 90
        3
102
RTVSPost2010PropOp43
 70
     1
102
RTVSPost2010Prop44ColorIndex
 90
        5
102
RTVSPost2010Prop44ColorRGB
 90
      255
102
RTVSPost2010PropOp44
 70
     1
102
RTVSPost2010Prop45
280
     0
102
RTVSPost2010PropOp45
 70
     1
102
RTVSPost2010Prop46
 90
       50
102
RTVSPost2010PropOp46
 70
     1
102
RTVSPost2010Prop47
 90
       50
102
RTVSPost2010PropOp47
 70
     1
102
RTVSPost2010Prop48
 90
       50
102
RTVSPost2010PropOp48
 70
     1
102
RTVSPost2010Prop49
280
     0
102
RTVSPost2010PropOp49
 70
     1
102
RTVSPost2010Prop50
 90
       50
102
RTVSPost2010PropOp50
 70
     1
102
RTVSPost2010Prop51ColorIndex
 90
      256
102
RTVSPost2010Prop51ColorRGB
 90
-16777216
102
RTVSPost2010PropOp51
 70
     0
102
RTVSPost2010Prop52
140
1.0
102
RTVSPost2010PropOp52
 70
     0
102
RTVSPost2010Prop53
 90
        2
102
RTVSPost2010PropOp53
 70
     1
102
RTVSPost2010Prop54
  1
strokes_ogs.tif
102
RTVSPost2010PropOp54
 70
     1
102
RTVSPost2010Prop55
280
     0
102
RTVSPost2010PropOp55
 70
     1
102
RTVSPost2010Prop56
140
1.0
102
RTVSPost2010PropOp56
 70
     1
102
RTVSPost2010Prop57
140
1.0
102
RTVSPost2010PropOp57
 70
     1
  0
XRECORD
  5
5A9
102
{ACAD_REACTORS
330
5A8
102
}
330
5A8
100
AcDbXrecord
280
     1
102
RTVSPropertyOp0
 70
     1
102
RTVSPropertyOp1
 70
     1
102
RTVSPropertyOp2
 70
     1
102
RTVSPropertyOp3
 70
     1
102
RTVSPropertyOp4
 70
     1
102
RTVSPropertyOp5
 70
     1
102
RTVSPropertyOp6
 70
     1
102
RTVSPropertyOp7
 70
     1
102
RTVSPropertyOp8
 70
     1
102
RTVSPropertyOp9
 70
     1
102
RTVSPropertyOp10
 70
     1
102
RTVSPropertyOp11
 70
     1
102
RTVSPropertyOp12
 70
     1
102
RTVSPropertyOp13
 70
     1
102
RTVSPropertyOp14
 70
     1
102
RTVSPropertyOp15
 70
     1
102
RTVSPropertyOp16
 70
     1
102
RTVSPropertyOp17
 70
     1
102
RTVSPropertyOp18
 70
     1
102
RTVSPropertyOp19
 70
     1
102
RTVSPropertyOp20
 70
     1
102
RTVSPropertyOp21
 70
     1
102
RTVSPropertyOp22
 70
     1
102
RTVSPropertyOp23
 70
     1
102
RTVSPropertyOp24
 70
     1
102
RTVSPropertyOp25
 70
     1
102
RTVSPropertyOp26
 70
     1
102
RTVSPropertyOp27
 70
     1
102
RTVSPropertyOp28
 70
     1
102
RTVSPropertyOp29
 70
     1
102
RTVSPropertyOp30
 70
     1
102
RTVSPropertyOp31
 70
     1
102
RTVSPropertyOp32
 70
     1
102
RTVSPropertyOp33
 70
     1
102
RTVSPropertyOp34
 70
     1
102
RTVSPropertyOp35
 70
     1
102
RTVSPropertyOp36
 70
     1
102
RTVSPropertyOp37
 70
     1
102
RTVSPropertyOp38
 70
     1
102
RTVSPropertyOp39
 70
     1
102
RTVSPropertyOp40
 70
     1
102
RTVSPropertyOp41
 70
     1
102
RTVSPropertyOp42
 70
     1
102
RTVSPropertyOp43
 70
     1
102
RTVSPropertyOp44
 70
     1
102
RTVSPropertyOp45
 70
     1
102
RTVSPropertyOp46
 70
     1
102
RTVSPropertyOp47
 70
     1
102
RTVSPropertyOp48
 70
     1
102
RTVSPropertyOp49
 70
     1
102
RTVSPropertyOp50
 70
     1
102
RTVSPropertyOp51
 70
     0
102
RTVSPropertyOp52
 70
     0
102
RTVSPropertyOp53
 70
     1
102
RTVSPropertyOp54
 70
     1
102
RTVSPropertyOp55
 70
     1
102
RTVSPropertyOp56
 70
     1
102
RTVSPropertyOp57
 70
     1
102
RTVSPost2010Prop28
280
     0
102
RTVSPost2010PropOp28
 70
     1
102
RTVSPost2010Prop29
280
     1
102
RTVSPost2010PropOp29
 70
     1
102
RTVSPost2010Prop30
280
     1
102
RTVSPost2010PropOp30
 70
     1
102
RTVSPost2010Prop31
280
     0
102
RTVSPost2010PropOp31
 70
     1
102
RTVSPost2010Prop32
280
     0
102
RTVSPost2010PropOp32
 70
     1
102
RTVSPost2010Prop33
280
     0
102
RTVSPost2010PropOp33
 70
     1
102
RTVSPost2010Prop34
280
     0
102
RTVSPost2010PropOp34
 70
     1
102
RTVSPost2010Prop35
280
     0
102
RTVSPost2010PropOp35
 70
     1
102
RTVSPost2010Prop36
280
     0
102
RTVSPost2010PropOp36
 70
     1
102
RTVSPost2010Prop37
 90
       50
102
RTVSPost2010PropOp37
 70
     1
102
RTVSPost2010Prop38
140
0.0
102
RTVSPost2010PropOp38
 70
     1
102
RTVSPost2010Prop39
140
1.0
102
RTVSPost2010PropOp39
 70
     1
102
RTVSPost2010Prop40
 90
        0
102
RTVSPost2010PropOp40
 70
     1
102
RTVSPost2010Prop41ColorIndex
 90
       18
102
RTVSPost2010Prop41ColorRGB
 90
        0
102
RTVSPost2010PropOp41
 70
     1
102
RTVSPost2010Prop42
 90
       50
102
RTVSPost2010PropOp42
 70
     1
102
RTVSPost2010Prop43
 90
        3
102
RTVSPost2010PropOp43
 70
     1
102
RTVSPost2010Prop44ColorIndex
 90
        5
102
RTVSPost2010Prop44ColorRGB
 90
      255
102
RTVSPost2010PropOp44
 70
     1
102
RTVSPost2010Prop45
280
     0
102
RTVSPost2010PropOp45
 70
     1
102
RTVSPost2010Prop46
 90
       50
102
RTVSPost2010PropOp46
 70
     1
102
RTVSPost2010Prop47
 90
       50
102
RTVSPost2010PropOp47
 70
     1
102
RTVSPost2010Prop48
 90
       50
102
RTVSPost2010PropOp48
 70
     1
102
RTVSPost2010Prop49
280
     0
102
RTVSPost2010PropOp49
 70
     1
102
RTVSPost2010Prop50
 90
       50
102
RTVSPost2010PropOp50
 70
     1
102
RTVSPost2010Prop51ColorIndex
 90
      256
102
RTVSPost2010Prop51ColorRGB
 90
-16777216
102
RTVSPost2010PropOp51
 70
     0
102
RTVSPost2010Prop52
140
1.0
102
RTVSPost2010PropOp52
 70
     0
102
RTVSPost2010Prop53
 90
        2
102
RTVSPost2010PropOp53
 70
     1
102
RTVSPost2010Prop54
  1
strokes_ogs.tif
102
RTVSPost2010PropOp54
 70
     1
102
RTVSPost2010Prop55
280
     0
102
RTVSPost2010PropOp55
 70
     1
102
RTVSPost2010Prop56
140
1.0
102
RTVSPost2010PropOp56
 70
     1
102
RTVSPost2010Prop57
140
1.0
102
RTVSPost2010PropOp57
 70
     1
  0
XRECORD
  5
5B1
102
{ACAD_REACTORS
330
5B0
102
}
330
5B0
100
AcDbXrecord
280
     1
102
RTVSPropertyOp0
 70
     1
102
RTVSPropertyOp1
 70
     1
102
RTVSPropertyOp2
 70
     1
102
RTVSPropertyOp3
 70
     1
102
RTVSPropertyOp4
 70
     1
102
RTVSPropertyOp5
 70
     1
102
RTVSPropertyOp6
 70
     1
102
RTVSPropertyOp7
 70
     1
102
RTVSPropertyOp8
 70
     1
102
RTVSPropertyOp9
 70
     1
102
RTVSPropertyOp10
 70
     1
102
RTVSPropertyOp11
 70
     1
102
RTVSPropertyOp12
 70
     1
102
RTVSPropertyOp13
 70
     1
102
RTVSPropertyOp14
 70
     1
102
RTVSPropertyOp15
 70
     1
102
RTVSPropertyOp16
 70
     1
102
RTVSPropertyOp17
 70
     1
102
RTVSPropertyOp18
 70
     1
102
RTVSPropertyOp19
 70
     1
102
RTVSPropertyOp20
 70
     1
102
RTVSPropertyOp21
 70
     1
102
RTVSPropertyOp22
 70
     1
102
RTVSPropertyOp23
 70
     1
102
RTVSPropertyOp24
 70
     1
102
RTVSPropertyOp25
 70
     1
102
RTVSPropertyOp26
 70
     1
102
RTVSPropertyOp27
 70
     1
102
RTVSPropertyOp28
 70
     1
102
RTVSPropertyOp29
 70
     1
102
RTVSPropertyOp30
 70
     1
102
RTVSPropertyOp31
 70
     1
102
RTVSPropertyOp32
 70
     1
102
RTVSPropertyOp33
 70
     1
102
RTVSPropertyOp34
 70
     1
102
RTVSPropertyOp35
 70
     1
102
RTVSPropertyOp36
 70
     1
102
RTVSPropertyOp37
 70
     1
102
RTVSPropertyOp38
 70
     1
102
RTVSPropertyOp39
 70
     1
102
RTVSPropertyOp40
 70
     1
102
RTVSPropertyOp41
 70
     1
102
RTVSPropertyOp42
 70
     1
102
RTVSPropertyOp43
 70
     1
102
RTVSPropertyOp44
 70
     1
102
RTVSPropertyOp45
 70
     1
102
RTVSPropertyOp46
 70
     1
102
RTVSPropertyOp47
 70
     1
102
RTVSPropertyOp48
 70
     1
102
RTVSPropertyOp49
 70
     1
102
RTVSPropertyOp50
 70
     1
102
RTVSPropertyOp51
 70
     0
102
RTVSPropertyOp52
 70
     0
102
RTVSPropertyOp53
 70
     1
102
RTVSPropertyOp54
 70
     1
102
RTVSPropertyOp55
 70
     1
102
RTVSPropertyOp56
 70
     1
102
RTVSPropertyOp57
 70
     1
102
RTVSPost2010Prop28
280
     0
102
RTVSPost2010PropOp28
 70
     1
102
RTVSPost2010Prop29
280
     1
102
RTVSPost2010PropOp29
 70
     1
102
RTVSPost2010Prop30
280
     1
102
RTVSPost2010PropOp30
 70
     1
102
RTVSPost2010Prop31
280
     0
102
RTVSPost2010PropOp31
 70
     1
102
RTVSPost2010Prop32
280
     0
102
RTVSPost2010PropOp32
 70
     1
102
RTVSPost2010Prop33
280
     0
102
RTVSPost2010PropOp33
 70
     1
102
RTVSPost2010Prop34
280
     0
102
RTVSPost2010PropOp34
 70
     1
102
RTVSPost2010Prop35
280
     0
102
RTVSPost2010PropOp35
 70
     1
102
RTVSPost2010Prop36
280
     0
102
RTVSPost2010PropOp36
 70
     1
102
RTVSPost2010Prop37
 90
       50
102
RTVSPost2010PropOp37
 70
     1
102
RTVSPost2010Prop38
140
0.0
102
RTVSPost2010PropOp38
 70
     1
102
RTVSPost2010Prop39
140
1.0
102
RTVSPost2010PropOp39
 70
     1
102
RTVSPost2010Prop40
 90
        0
102
RTVSPost2010PropOp40
 70
     1
102
RTVSPost2010Prop41ColorIndex
 90
       18
102
RTVSPost2010Prop41ColorRGB
 90
        0
102
RTVSPost2010PropOp41
 70
     1
102
RTVSPost2010Prop42
 90
       50
102
RTVSPost2010PropOp42
 70
     1
102
RTVSPost2010Prop43
 90
        3
102
RTVSPost2010PropOp43
 70
     1
102
RTVSPost2010Prop44ColorIndex
 90
        5
102
RTVSPost2010Prop44ColorRGB
 90
      255
102
RTVSPost2010PropOp44
 70
     1
102
RTVSPost2010Prop45
280
     0
102
RTVSPost2010PropOp45
 70
     1
102
RTVSPost2010Prop46
 90
       50
102
RTVSPost2010PropOp46
 70
     1
102
RTVSPost2010Prop47
 90
       50
102
RTVSPost2010PropOp47
 70
     1
102
RTVSPost2010Prop48
 90
       50
102
RTVSPost2010PropOp48
 70
     1
102
RTVSPost2010Prop49
280
     0
102
RTVSPost2010PropOp49
 70
     1
102
RTVSPost2010Prop50
 90
       50
102
RTVSPost2010PropOp50
 70
     1
102
RTVSPost2010Prop51ColorIndex
 90
      256
102
RTVSPost2010Prop51ColorRGB
 90
-16777216
102
RTVSPost2010PropOp51
 70
     0
102
RTVSPost2010Prop52
140
1.0
102
RTVSPost2010PropOp52
 70
     0
102
RTVSPost2010Prop53
 90
        2
102
RTVSPost2010PropOp53
 70
     1
102
RTVSPost2010Prop54
  1
strokes_ogs.tif
102
RTVSPost2010PropOp54
 70
     1
102
RTVSPost2010Prop55
280
     0
102
RTVSPost2010PropOp55
 70
     1
102
RTVSPost2010Prop56
140
1.0
102
RTVSPost2010PropOp56
 70
     1
102
RTVSPost2010Prop57
140
1.0
102
RTVSPost2010PropOp57
 70
     1
  0
ENDSEC
  0
EOF
