  0
SECTION
  2
HEADER
  9
$ACADVER
  1
AC1018
  9
$ACADMAINTVER
 70
     0
  9
$DWGCODEPAGE
  3
ANSI_936
  9
$INSBASE
 10
0.0
 20
0.0
 30
0.0
  9
$EXTMIN
 10
608.1487748388022
 20
1163.731393894453
 30
0.0
  9
$EXTMAX
 10
707.8704184152282
 20
1514.83433809836
 30
0.0
  9
$LIMMIN
 10
0.0
 20
0.0
  9
$LIMMAX
 10
12.0
 20
9.0
  9
$ORTHOMODE
 70
     0
  9
$REGENMODE
 70
     1
  9
$FILLMODE
 70
     1
  9
$QTEXTMODE
 70
     0
  9
$MIRRTEXT
 70
     1
  9
$LTSCALE
 40
1.0
  9
$ATTMODE
 70
     1
  9
$TEXTSIZE
 40
0.2
  9
$TRACEWID
 40
0.05
  9
$TEXTSTYLE
  7
Standard
  9
$CLAYER
  8
0
  9
$CELTYPE
  6
ByLayer
  9
$CECOLOR
 62
   256
  9
$CELTSCALE
 40
1.0
  9
$DISPSILH
 70
     0
  9
$DIMSCALE
 40
1.0
  9
$DIMASZ
 40
0.18
  9
$DIMEXO
 40
0.0625
  9
$DIMDLI
 40
0.38
  9
$DIMRND
 40
0.0
  9
$DIMDLE
 40
0.0
  9
$DIMEXE
 40
0.18
  9
$DIMTP
 40
0.0
  9
$DIMTM
 40
0.0
  9
$DIMTXT
 40
0.18
  9
$DIMCEN
 40
0.09
  9
$DIMTSZ
 40
0.0
  9
$DIMTOL
 70
     0
  9
$DIMLIM
 70
     0
  9
$DIMTIH
 70
     1
  9
$DIMTOH
 70
     1
  9
$DIMSE1
 70
     0
  9
$DIMSE2
 70
     0
  9
$DIMTAD
 70
     0
  9
$DIMZIN
 70
     0
  9
$DIMBLK
  1

  9
$DIMASO
 70
     1
  9
$DIMSHO
 70
     1
  9
$DIMPOST
  1

  9
$DIMAPOST
  1

  9
$DIMALT
 70
     0
  9
$DIMALTD
 70
     2
  9
$DIMALTF
 40
25.4
  9
$DIMLFAC
 40
1.0
  9
$DIMTOFL
 70
     0
  9
$DIMTVP
 40
0.0
  9
$DIMTIX
 70
     0
  9
$DIMSOXD
 70
     0
  9
$DIMSAH
 70
     0
  9
$DIMBLK1
  1

  9
$DIMBLK2
  1

  9
$DIMSTYLE
  2
Standard
  9
$DIMCLRD
 70
     0
  9
$DIMCLRE
 70
     0
  9
$DIMCLRT
 70
     0
  9
$DIMTFAC
 40
1.0
  9
$DIMGAP
 40
0.09
  9
$DIMJUST
 70
     0
  9
$DIMSD1
 70
     0
  9
$DIMSD2
 70
     0
  9
$DIMTOLJ
 70
     1
  9
$DIMTZIN
 70
     0
  9
$DIMALTZ
 70
     0
  9
$DIMALTTZ
 70
     0
  9
$DIMUPT
 70
     0
  9
$DIMDEC
 70
     4
  9
$DIMTDEC
 70
     4
  9
$DIMALTU
 70
     2
  9
$DIMALTTD
 70
     2
  9
$DIMTXSTY
  7
Standard
  9
$DIMAUNIT
 70
     0
  9
$DIMADEC
 70
     0
  9
$DIMALTRND
 40
0.0
  9
$DIMAZIN
 70
     0
  9
$DIMDSEP
 70
    46
  9
$DIMATFIT
 70
     3
  9
$DIMFRAC
 70
     0
  9
$DIMLDRBLK
  1

  9
$DIMLUNIT
 70
     2
  9
$DIMLWD
 70
    -2
  9
$DIMLWE
 70
    -2
  9
$DIMTMOVE
 70
     2
  9
$LUNITS
 70
     2
  9
$LUPREC
 70
     3
  9
$SKETCHINC
 40
0.1
  9
$FILLETRAD
 40
0.5
  9
$AUNITS
 70
     0
  9
$AUPREC
 70
     0
  9
$MENU
  1
.
  9
$ELEVATION
 40
0.0
  9
$PELEVATION
 40
0.0
  9
$THICKNESS
 40
0.0
  9
$LIMCHECK
 70
     0
  9
$CHAMFERA
 40
0.5
  9
$CHAMFERB
 40
0.5
  9
$CHAMFERC
 40
1.0
  9
$CHAMFERD
 40
0.0
  9
$SKPOLY
 70
     0
  9
$TDCREATE
 40
2457514.466617963
  9
$TDUCREATE
 40
2457514.13328463
  9
$TDUPDATE
 40
2457514.466618148
  9
$TDUUPDATE
 40
2457514.133284815
  9
$TDINDWG
 40
0.0000000116
  9
$TDUSRTIMER
 40
0.0000000116
  9
$USRTIMER
 70
     1
  9
$ANGBASE
 50
0.0
  9
$ANGDIR
 70
     0
  9
$PDMODE
 70
     0
  9
$PDSIZE
 40
0.0
  9
$PLINEWID
 40
0.0
  9
$SPLFRAME
 70
     0
  9
$SPLINETYPE
 70
     6
  9
$SPLINESEGS
 70
     8
  9
$HANDSEED
  5
577
  9
$SURFTAB1
 70
     6
  9
$SURFTAB2
 70
     6
  9
$SURFTYPE
 70
     6
  9
$SURFU
 70
     6
  9
$SURFV
 70
     6
  9
$UCSBASE
  2

  9
$UCSNAME
  2

  9
$UCSORG
 10
0.0
 20
0.0
 30
0.0
  9
$UCSXDIR
 10
1.0
 20
0.0
 30
0.0
  9
$UCSYDIR
 10
0.0
 20
1.0
 30
0.0
  9
$UCSORTHOREF
  2

  9
$UCSORTHOVIEW
 70
     0
  9
$UCSORGTOP
 10
0.0
 20
0.0
 30
0.0
  9
$UCSORGBOTTOM
 10
0.0
 20
0.0
 30
0.0
  9
$UCSORGLEFT
 10
0.0
 20
0.0
 30
0.0
  9
$UCSORGRIGHT
 10
0.0
 20
0.0
 30
0.0
  9
$UCSORGFRONT
 10
0.0
 20
0.0
 30
0.0
  9
$UCSORGBACK
 10
0.0
 20
0.0
 30
0.0
  9
$PUCSBASE
  2

  9
$PUCSNAME
  2

  9
$PUCSORG
 10
0.0
 20
0.0
 30
0.0
  9
$PUCSXDIR
 10
1.0
 20
0.0
 30
0.0
  9
$PUCSYDIR
 10
0.0
 20
1.0
 30
0.0
  9
$PUCSORTHOREF
  2

  9
$PUCSORTHOVIEW
 70
     0
  9
$PUCSORGTOP
 10
0.0
 20
0.0
 30
0.0
  9
$PUCSORGBOTTOM
 10
0.0
 20
0.0
 30
0.0
  9
$PUCSORGLEFT
 10
0.0
 20
0.0
 30
0.0
  9
$PUCSORGRIGHT
 10
0.0
 20
0.0
 30
0.0
  9
$PUCSORGFRONT
 10
0.0
 20
0.0
 30
0.0
  9
$PUCSORGBACK
 10
0.0
 20
0.0
 30
0.0
  9
$USERI1
 70
     0
  9
$USERI2
 70
     0
  9
$USERI3
 70
     0
  9
$USERI4
 70
     0
  9
$USERI5
 70
     0
  9
$USERR1
 40
0.0
  9
$USERR2
 40
0.0
  9
$USERR3
 40
0.0
  9
$USERR4
 40
0.0
  9
$USERR5
 40
0.0
  9
$WORLDVIEW
 70
     1
  9
$SHADEDGE
 70
     3
  9
$SHADEDIF
 70
    70
  9
$TILEMODE
 70
     1
  9
$MAXACTVP
 70
    64
  9
$PINSBASE
 10
0.0
 20
0.0
 30
0.0
  9
$PLIMCHECK
 70
     0
  9
$PEXTMIN
 10
1.000000000000000E+20
 20
1.000000000000000E+20
 30
1.000000000000000E+20
  9
$PEXTMAX
 10
-1.000000000000000E+20
 20
-1.000000000000000E+20
 30
-1.000000000000000E+20
  9
$PLIMMIN
 10
0.0
 20
0.0
  9
$PLIMMAX
 10
12.0
 20
9.0
  9
$UNITMODE
 70
     0
  9
$VISRETAIN
 70
     1
  9
$PLINEGEN
 70
     0
  9
$PSLTSCALE
 70
     1
  9
$TREEDEPTH
 70
  3020
  9
$CMLSTYLE
  2
Standard
  9
$CMLJUST
 70
     0
  9
$CMLSCALE
 40
1.0
  9
$PROXYGRAPHICS
 70
     1
  9
$MEASUREMENT
 70
     0
  9
$CELWEIGHT
370
    -1
  9
$ENDCAPS
280
     0
  9
$JOINSTYLE
280
     0
  9
$LWDISPLAY
290
     0
  9
$INSUNITS
 70
     4
  9
$HYPERLINKBASE
  1

  9
$STYLESHEET
  1

  9
$XEDIT
290
     1
  9
$CEPSNTYPE
380
     0
  9
$PSTYLEMODE
290
     1
  9
$FINGERPRINTGUID
  2
{AB3C1067-0AC0-476F-8CCA-8475EB188C23}
  9
$VERSIONGUID
  2
{FAEB1C32-E019-11D5-929B-00C0DF256EC4}
  9
$EXTNAMES
290
     1
  9
$PSVPSCALE
 40
0.0
  9
$OLESTARTUP
290
     0
  9
$SORTENTS
280
   127
  9
$INDEXCTL
280
     0
  9
$HIDETEXT
280
     1
  9
$XCLIPFRAME
290
     0
  9
$HALOGAP
280
     0
  9
$OBSCOLOR
 70
   257
  9
$OBSLTYPE
280
     0
  9
$INTERSECTIONDISPLAY
280
     0
  9
$INTERSECTIONCOLOR
 70
   257
  9
$DIMASSOC
280
     2
  9
$PROJECTNAME
  1

  0
ENDSEC
  0
SECTION
  2
CLASSES
  0
CLASS
  1
ACDBDICTIONARYWDFLT
  2
AcDbDictionaryWithDefault
  3
ObjectDBX Classes
 90
        0
 91
        4
280
     0
281
     0
  0
CLASS
  1
VISUALSTYLE
  2
AcDbVisualStyle
  3
ObjectDBX Classes
 90
     4095
 91
        4
280
     0
281
     0
  0
CLASS
  1
MATERIAL
  2
AcDbMaterial
  3
ObjectDBX Classes
 90
     1153
 91
        4
280
     0
281
     0
  0
CLASS
  1
SCALE
  2
AcDbScale
  3
ObjectDBX Classes
 90
     1153
 91
        4
280
     0
281
     0
  0
CLASS
  1
SUN
  2
AcDbSun
  3
SCENEOE
 90
     1153
 91
        4
280
     0
281
     0
  0
CLASS
  1
DICTIONARYVAR
  2
AcDbDictionaryVar
  3
ObjectDBX Classes
 90
        0
 91
        4
280
     0
281
     0
  0
ENDSEC
  0
SECTION
  2
TABLES
  0
TABLE
  2
VPORT
  5
8
330
0
100
AcDbSymbolTable
 70
     1
  0
VPORT
  5
29
330
8
100
AcDbSymbolTableRecord
100
AcDbViewportTableRecord
  2
*Active
 70
     0
 10
0.0
 20
0.0
 11
1.0
 21
1.0
 12
658.0086470902893
 22
1339.25833663709
 13
0.0
 23
0.0
 14
0.5
 24
0.5
 15
0.5
 25
0.5
 16
0.0
 26
0.0
 36
1.0
 17
0.0
 27
0.0
 37
0.0
 40
358.0749631949785
 41
0.2840582275998125
 42
50.0
 43
0.0
 44
0.0
 50
0.0
 51
0.0
 71
     0
 72
   100
 73
     1
 74
     3
 75
     0
 76
     0
 77
     0
 78
     0
281
     0
 65
     1
110
0.0
120
0.0
130
0.0
111
1.0
121
0.0
131
0.0
112
0.0
122
1.0
132
0.0
 79
     0
146
0.0
  0
ENDTAB
  0
TABLE
  2
LTYPE
  5
5
330
0
100
AcDbSymbolTable
 70
     1
  0
LTYPE
  5
14
330
5
100
AcDbSymbolTableRecord
100
AcDbLinetypeTableRecord
  2
ByBlock
 70
     0
  3

 72
    65
 73
     0
 40
0.0
  0
LTYPE
  5
15
330
5
100
AcDbSymbolTableRecord
100
AcDbLinetypeTableRecord
  2
ByLayer
 70
     0
  3

 72
    65
 73
     0
 40
0.0
  0
LTYPE
  5
16
330
5
100
AcDbSymbolTableRecord
100
AcDbLinetypeTableRecord
  2
Continuous
 70
     0
  3
Solid line
 72
    65
 73
     0
 40
0.0
  0
ENDTAB
  0
TABLE
  2
LAYER
  5
2
330
0
100
AcDbSymbolTable
 70
     2
  0
LAYER
  5
10
330
2
100
AcDbSymbolTableRecord
100
AcDbLayerTableRecord
  2
0
 70
     0
 62
     7
  6
Continuous
370
    -3
390
F
  0
LAYER
  5
62
330
2
100
AcDbSymbolTableRecord
100
AcDbLayerTableRecord
  2
Make2D$可见线$普通线
 70
     0
 62
    18
420
        0
  6
Continuous
370
    -3
390
F
  0
ENDTAB
  0
TABLE
  2
STYLE
  5
3
330
0
100
AcDbSymbolTable
 70
     1
  0
STYLE
  5
11
330
3
100
AcDbSymbolTableRecord
100
AcDbTextStyleTableRecord
  2
Standard
 70
     0
 40
0.0
 41
1.0
 50
0.0
 71
     0
 42
0.2
  3
txt
  4

  0
ENDTAB
  0
TABLE
  2
VIEW
  5
6
330
0
100
AcDbSymbolTable
 70
     0
  0
ENDTAB
  0
TABLE
  2
UCS
  5
7
330
0
100
AcDbSymbolTable
 70
     0
  0
ENDTAB
  0
TABLE
  2
APPID
  5
9
330
0
100
AcDbSymbolTable
 70
     1
  0
APPID
  5
12
330
9
100
AcDbSymbolTableRecord
100
AcDbRegAppTableRecord
  2
ACAD
 70
     0
  0
ENDTAB
  0
TABLE
  2
DIMSTYLE
  5
A
330
0
100
AcDbSymbolTable
 70
     1
100
AcDbDimStyleTable
  0
DIMSTYLE
105
27
330
A
100
AcDbSymbolTableRecord
100
AcDbDimStyleTableRecord
  2
Standard
 70
     0
178
     0
340
11
  0
ENDTAB
  0
TABLE
  2
BLOCK_RECORD
  5
1
330
0
100
AcDbSymbolTable
 70
     1
  0
BLOCK_RECORD
  5
1F
330
1
100
AcDbSymbolTableRecord
100
AcDbBlockTableRecord
  2
*Model_Space
340
22
  0
BLOCK_RECORD
  5
1B
330
1
100
AcDbSymbolTableRecord
100
AcDbBlockTableRecord
  2
*Paper_Space
340
1E
  0
BLOCK_RECORD
  5
23
330
1
100
AcDbSymbolTableRecord
100
AcDbBlockTableRecord
  2
*Paper_Space0
340
26
  0
ENDTAB
  0
ENDSEC
  0
SECTION
  2
BLOCKS
  0
BLOCK
  5
20
330
1F
100
AcDbEntity
  8
0
100
AcDbBlockBegin
  2
*Model_Space
 70
     0
 10
0.0
 20
0.0
 30
0.0
  3
*Model_Space
  1
*Model_Space
  0
ENDBLK
  5
21
330
1F
100
AcDbEntity
  8
0
100
AcDbBlockEnd
  0
BLOCK
  5
1C
330
1B
100
AcDbEntity
 67
     1
  8
0
100
AcDbBlockBegin
  2
*Paper_Space
 70
     0
 10
0.0
 20
0.0
 30
0.0
  3
*Paper_Space
  1
*Paper_Space
  0
ENDBLK
  5
1D
330
1B
100
AcDbEntity
 67
     1
  8
0
100
AcDbBlockEnd
  0
BLOCK
  5
24
330
23
100
AcDbEntity
  8
0
100
AcDbBlockBegin
  2
*Paper_Space0
 70
     0
 10
0.0
 20
0.0
 30
0.0
  3
*Paper_Space0
  1
*Paper_Space0
  0
ENDBLK
  5
25
330
23
100
AcDbEntity
  8
0
100
AcDbBlockEnd
  0
ENDSEC
  0
SECTION
  2
ENTITIES
  0
POLYLINE
  5
63
330
1F
100
AcDbEntity
  8
Make2D$可见线$普通线
100
AcDb2dPolyline
 66
     1
 10
0.0
 20
0.0
 30
0.0
  0
VERTEX
  5
64
330
63
100
AcDbEntity
  8
Make2D$可见线$普通线
100
AcDbVertex
100
AcDb2dVertex
 10
644.6488176777648
 20
1397.534168404134
 30
0.0
  0
VERTEX
  5
65
330
63
100
AcDbEntity
  8
Make2D$可见线$普通线
100
AcDbVertex
100
AcDb2dVertex
 10
644.6471611755194
 20
1397.10231700112
 30
0.0
  0
VERTEX
  5
66
330
63
100
AcDbEntity
  8
Make2D$可见线$普通线
100
AcDbVertex
100
AcDb2dVertex
 10
644.6374322157101
 20
1396.670588891551
 30
0.0
  0
VERTEX
  5
67
330
63
100
AcDbEntity
  8
Make2D$可见线$普通线
100
AcDbVertex
100
AcDb2dVertex
 10
644.6200291723462
 20
1396.325236873561
 30
0.0
  0
VERTEX
  5
68
330
63
100
AcDbEntity
  8
Make2D$可见线$普通线
100
AcDbVertex
100
AcDb2dVertex
 10
644.5923936080742
 20
1395.980558030349
 30
0.0
  0
VERTEX
  5
69
330
63
100
AcDbEntity
  8
Make2D$可见线$普通线
100
AcDbVertex
100
AcDb2dVertex
 10
644.5536213956003
 20
1395.637557459342
 30
0.0
  0
VERTEX
  5
6A
330
63
100
AcDbEntity
  8
Make2D$可见线$普通线
100
AcDbVertex
100
AcDb2dVertex
 10
644.5032420216032
 20
1395.296077134561
 30
0.0
  0
VERTEX
  5
6B
330
63
100
AcDbEntity
  8
Make2D$可见线$普通线
100
AcDbVertex
100
AcDb2dVertex
 10
644.4736078385876
 20
1395.126054866932
 30
0.0
  0
VERTEX
  5
6C
330
63
100
AcDbEntity
  8
Make2D$可见线$普通线
100
AcDbVertex
100
AcDb2dVertex
 10
644.4409616926558
 20
1394.956590023769
 30
0.0
  0
VERTEX
  5
6D
330
63
100
AcDbEntity
  8
Make2D$可见线$普通线
100
AcDbVertex
100
AcDb2dVertex
 10
644.4052668596298
 20
1394.787741726044
 30
0.0
  0
VERTEX
  5
6E
330
63
100
AcDbEntity
  8
Make2D$可见线$普通线
100
AcDbVertex
100
AcDb2dVertex
 10
644.3664866153309
 20
1394.619569094727
 30
0.0
  0
VERTEX
  5
6F
330
63
100
AcDbEntity
  8
Make2D$可见线$普通线
100
AcDbVertex
100
AcDb2dVertex
 10
644.3224277689662
 20
1394.443852578189
 30
0.0
  0
VERTEX
  5
70
330
63
100
AcDbEntity
  8
Make2D$可见线$普通线
100
AcDbVertex
100
AcDb2dVertex
 10
644.2749056884987
 20
1394.2690340924
 30
0.0
  0
VERTEX
  5
71
330
63
100
AcDbEntity
  8
Make2D$可见线$普通线
100
AcDbVertex
100
AcDb2dVertex
 10
644.2238965661909
 20
1394.095202207048
 30
0.0
  0
VERTEX
  5
72
330
63
100
AcDbEntity
  8
Make2D$可见线$普通线
100
AcDbVertex
100
AcDb2dVertex
 10
644.1693765943057
 20
1393.922445491819
 30
0.0
  0
VERTEX
  5
73
330
63
100
AcDbEntity
  8
Make2D$可见线$普通线
100
AcDbVertex
100
AcDb2dVertex
 10
644.1157113573996
 20
1393.763511202604
 30
0.0
  0
VERTEX
  5
74
330
63
100
AcDbEntity
  8
Make2D$可见线$普通线
100
AcDbVertex
100
AcDb2dVertex
 10
644.0588428168674
 20
1393.605708254781
 30
0.0
  0
VERTEX
  5
75
330
63
100
AcDbEntity
  8
Make2D$可见线$普通线
100
AcDbVertex
100
AcDb2dVertex
 10
643.9985988543642
 20
1393.449170011531
 30
0.0
  0
VERTEX
  5
76
330
63
100
AcDbEntity
  8
Make2D$可见线$普通线
100
AcDbVertex
100
AcDb2dVertex
 10
643.9348073515453
 20
1393.294029836036
 30
0.0
  0
VERTEX
  5
77
330
63
100
AcDbEntity
  8
Make2D$可见线$普通线
100
AcDbVertex
100
AcDb2dVertex
 10
643.8720509167518
 20
1393.15099856175
 30
0.0
  0
VERTEX
  5
78
330
63
100
AcDbEntity
  8
Make2D$可见线$普通线
100
AcDbVertex
100
AcDb2dVertex
 10
643.8057666416582
 20
1393.009572477291
 30
0.0
  0
VERTEX
  5
79
330
63
100
AcDbEntity
  8
Make2D$可见线$普通线
100
AcDbVertex
100
AcDb2dVertex
 10
643.7356506485703
 20
1392.870029425941
 30
0.0
  0
VERTEX
  5
7A
330
63
100
AcDbEntity
  8
Make2D$可见线$普通线
100
AcDbVertex
100
AcDb2dVertex
 10
643.6613990597939
 20
1392.732647250982
 30
0.0
  0
VERTEX
  5
7B
330
63
100
AcDbEntity
  8
Make2D$可见线$普通线
100
AcDbVertex
100
AcDb2dVertex
 10
643.5965311492187
 20
1392.620797189998
 30
0.0
  0
VERTEX
  5
7C
330
63
100
AcDbEntity
  8
Make2D$可见线$普通线
100
AcDbVertex
100
AcDb2dVertex
 10
643.5281431618615
 20
1392.511090935858
 30
0.0
  0
VERTEX
  5
7D
330
63
100
AcDbEntity
  8
Make2D$可见线$普通线
100
AcDbVertex
100
AcDb2dVertex
 10
643.4924799697276
 20
1392.45718934666
 30
0.0
  0
VERTEX
  5
7E
330
63
100
AcDbEntity
  8
Make2D$可见线$普通线
100
AcDbVertex
100
AcDb2dVertex
 10
643.4557577548034
 20
1392.40400084154
 30
0.0
  0
VERTEX
  5
7F
330
63
100
AcDbEntity
  8
Make2D$可见线$普通线
100
AcDbVertex
100
AcDb2dVertex
 10
643.4179168492241
 20
1392.351584464622
 30
0.0
  0
VERTEX
  5
80
330
63
100
AcDbEntity
  8
Make2D$可见线$普通线
100
AcDbVertex
100
AcDb2dVertex
 10
643.3788975851248
 20
1392.299999260027
 30
0.0
  0
VERTEX
  5
81
330
63
100
AcDbEntity
  8
Make2D$可见线$普通线
100
AcDbVertex
100
AcDb2dVertex
 10
643.3290954370312
 20
1392.23713225799
 30
0.0
  0
VERTEX
  5
82
330
63
100
AcDbEntity
  8
Make2D$可见线$普通线
100
AcDbVertex
100
AcDb2dVertex
 10
643.2790745633704
 20
1392.177600649025
 30
0.0
  0
VERTEX
  5
83
330
63
100
AcDbEntity
  8
Make2D$可见线$普通线
100
AcDbVertex
100
AcDb2dVertex
 10
643.2290776159427
 20
1392.121363271487
 30
0.0
  0
VERTEX
  5
84
330
63
100
AcDbEntity
  8
Make2D$可见线$普通线
100
AcDbVertex
100
AcDb2dVertex
 10
643.1793472465486
 20
1392.068378963726
 30
0.0
  0
VERTEX
  5
85
330
63
100
AcDbEntity
  8
Make2D$可见线$普通线
100
AcDbVertex
100
AcDb2dVertex
 10
643.1301261069885
 20
1392.018606564095
 30
0.0
  0
VERTEX
  5
86
330
63
100
AcDbEntity
  8
Make2D$可见线$普通线
100
AcDbVertex
100
AcDb2dVertex
 10
643.0816568490629
 20
1391.972004910948
 30
0.0
  0
VERTEX
  5
87
330
63
100
AcDbEntity
  8
Make2D$可见线$普通线
100
AcDbVertex
100
AcDb2dVertex
 10
643.0341821245722
 20
1391.928532842637
 30
0.0
  0
VERTEX
  5
88
330
63
100
AcDbEntity
  8
Make2D$可见线$普通线
100
AcDbVertex
100
AcDb2dVertex
 10
642.9879445853169
 20
1391.888149197514
 30
0.0
  0
VERTEX
  5
89
330
63
100
AcDbEntity
  8
Make2D$可见线$普通线
100
AcDbVertex
100
AcDb2dVertex
 10
642.9410755620968
 20
1391.849001108265
 30
0.0
  0
VERTEX
  5
8A
330
63
100
AcDbEntity
  8
Make2D$可见线$普通线
100
AcDbVertex
100
AcDb2dVertex
 10
642.8934667482646
 20
1391.810872693025
 30
0.0
  0
VERTEX
  5
8B
330
63
100
AcDbEntity
  8
Make2D$可见线$普通线
100
AcDbVertex
100
AcDb2dVertex
 10
642.8450930077717
 20
1391.773696874692
 30
0.0
  0
VERTEX
  5
8C
330
63
100
AcDbEntity
  8
Make2D$可见线$普通线
100
AcDbVertex
100
AcDb2dVertex
 10
642.7959292045696
 20
1391.737406576166
 30
0.0
  0
VERTEX
  5
8D
330
63
100
AcDbEntity
  8
Make2D$可见线$普通线
100
AcDbVertex
100
AcDb2dVertex
 10
642.7459502026096
 20
1391.701934720343
 30
0.0
  0
VERTEX
  5
8E
330
63
100
AcDbEntity
  8
Make2D$可见线$普通线
100
AcDbVertex
100
AcDb2dVertex
 10
642.6951308658433
 20
1391.667214230122
 30
0.0
  0
VERTEX
  5
8F
330
63
100
AcDbEntity
  8
Make2D$可见线$普通线
100
AcDbVertex
100
AcDb2dVertex
 10
642.5908706436971
 20
1391.59975903808
 30
0.0
  0
VERTEX
  5
90
330
63
100
AcDbEntity
  8
Make2D$可见线$普通线
100
AcDbVertex
100
AcDb2dVertex
 10
642.482560081891
 20
1391.534278222845
 30
0.0
  0
VERTEX
  5
91
330
63
100
AcDbEntity
  8
Make2D$可见线$普通线
100
AcDbVertex
100
AcDb2dVertex
 10
642.3702715105507
 20
1391.470674031537
 30
0.0
  0
VERTEX
  5
92
330
63
100
AcDbEntity
  8
Make2D$可见线$普通线
100
AcDbVertex
100
AcDb2dVertex
 10
642.2537788078255
 20
1391.408772450775
 30
0.0
  0
VERTEX
  5
93
330
63
100
AcDbEntity
  8
Make2D$可见线$普通线
100
AcDbVertex
100
AcDb2dVertex
 10
642.1328558518652
 20
1391.34839946718
 30
0.0
  0
VERTEX
  5
94
330
63
100
AcDbEntity
  8
Make2D$可见线$普通线
100
AcDbVertex
100
AcDb2dVertex
 10
642.0072765208197
 20
1391.289381067372
 30
0.0
  0
VERTEX
  5
95
330
63
100
AcDbEntity
  8
Make2D$可见线$普通线
100
AcDbVertex
100
AcDb2dVertex
 10
641.8768146928383
 20
1391.231543237972
 30
0.0
  0
VERTEX
  5
96
330
63
100
AcDbEntity
  8
Make2D$可见线$普通线
100
AcDbVertex
100
AcDb2dVertex
 10
641.741244246071
 20
1391.174711965599
 30
0.0
  0
VERTEX
  5
97
330
63
100
AcDbEntity
  8
Make2D$可见线$普通线
100
AcDbVertex
100
AcDb2dVertex
 10
641.6003390586675
 20
1391.118713236875
 30
0.0
  0
VERTEX
  5
98
330
63
100
AcDbEntity
  8
Make2D$可见线$普通线
100
AcDbVertex
100
AcDb2dVertex
 10
641.3067660051179
 20
1391.010799008528
 30
0.0
  0
VERTEX
  5
99
330
63
100
AcDbEntity
  8
Make2D$可见线$普通线
100
AcDbVertex
100
AcDb2dVertex
 10
640.9950798539364
 20
1390.907402906983
 30
0.0
  0
VERTEX
  5
9A
330
63
100
AcDbEntity
  8
Make2D$可见线$普通线
100
AcDbVertex
100
AcDb2dVertex
 10
640.6654850692769
 20
1390.808510899119
 30
0.0
  0
VERTEX
  5
9B
330
63
100
AcDbEntity
  8
Make2D$可见线$普通线
100
AcDbVertex
100
AcDb2dVertex
 10
640.318186115293
 20
1390.714108951815
 30
0.0
  0
VERTEX
  5
9C
330
63
100
AcDbEntity
  8
Make2D$可见线$普通线
100
AcDbVertex
100
AcDb2dVertex
 10
639.9347527892517
 20
1390.620306945357
 30
0.0
  0
VERTEX
  5
9D
330
63
100
AcDbEntity
  8
Make2D$可见线$普通线
100
AcDbVertex
100
AcDb2dVertex
 10
639.5494069697473
 20
1390.534322615272
 30
0.0
  0
VERTEX
  5
9E
330
63
100
AcDbEntity
  8
Make2D$可见线$普通线
100
AcDbVertex
100
AcDb2dVertex
 10
639.1623883155842
 20
1390.456212008057
 30
0.0
  0
VERTEX
  5
9F
330
63
100
AcDbEntity
  8
Make2D$可见线$普通线
100
AcDbVertex
100
AcDb2dVertex
 10
638.7739385708708
 20
1390.38602135507
 30
0.0
 42
-0.0160431410217236
  0
VERTEX
  5
A0
330
63
100
AcDbEntity
  8
Make2D$可见线$普通线
100
AcDbVertex
100
AcDb2dVertex
 10
637.0202319341042
 20
1390.143382091826
 30
0.0
 42
-0.0137924093295019
  0
VERTEX
  5
A1
330
63
100
AcDbEntity
  8
Make2D$可见线$普通线
100
AcDbVertex
100
AcDb2dVertex
 10
635.1216742319498
 20
1389.994311694541
 30
0.0
 42
-0.0254939266694484
  0
VERTEX
  5
A2
330
63
100
AcDbEntity
  8
Make2D$可见线$普通线
100
AcDbVertex
100
AcDb2dVertex
 10
631.1758959998149
 20
1389.994310446306
 30
0.0
 42
-0.0137935499097014
  0
VERTEX
  5
A3
330
63
100
AcDbEntity
  8
Make2D$可见线$普通线
100
AcDbVertex
100
AcDb2dVertex
 10
629.2772123919776
 20
1390.143395284638
 30
0.0
 42
-0.0160438790640304
  0
VERTEX
  5
A4
330
63
100
AcDbEntity
  8
Make2D$可见线$普通线
100
AcDbVertex
100
AcDb2dVertex
 10
627.5236659691454
 20
1390.38601519524
 30
0.0
  0
VERTEX
  5
A5
330
63
100
AcDbEntity
  8
Make2D$可见线$普通线
100
AcDbVertex
100
AcDb2dVertex
 10
627.1352158410276
 20
1390.45620381783
 30
0.0
  0
VERTEX
  5
A6
330
63
100
AcDbEntity
  8
Make2D$可见线$普通线
100
AcDbVertex
100
AcDb2dVertex
 10
626.7481968387852
 20
1390.534312827075
 30
0.0
  0
VERTEX
  5
A7
330
63
100
AcDbEntity
  8
Make2D$可见线$普通线
100
AcDbVertex
100
AcDb2dVertex
 10
626.362850732674
 20
1390.620295987791
 30
0.0
  0
VERTEX
  5
A8
330
63
100
AcDbEntity
  8
Make2D$可见线$普通线
100
AcDbVertex
100
AcDb2dVertex
 10
625.9794172073455
 20
1390.714097248071
 30
0.0
  0
VERTEX
  5
A9
330
63
100
AcDbEntity
  8
Make2D$可见线$普通线
100
AcDbVertex
100
AcDb2dVertex
 10
625.6321236175163
 20
1390.808496022804
 30
0.0
  0
VERTEX
  5
AA
330
63
100
AcDbEntity
  8
Make2D$可见线$普通线
100
AcDbVertex
100
AcDb2dVertex
 10
625.3025154071944
 20
1390.907391279443
 30
0.0
  0
VERTEX
  5
AB
330
63
100
AcDbEntity
  8
Make2D$可见线$普通线
100
AcDbVertex
100
AcDb2dVertex
 10
624.9908149316057
 20
1391.010790345396
 30
0.0
  0
VERTEX
  5
AC
330
63
100
AcDbEntity
  8
Make2D$可见线$普通线
100
AcDbVertex
100
AcDb2dVertex
 10
624.697244545976
 20
1391.118700548071
 30
0.0
  0
VERTEX
  5
AD
330
63
100
AcDbEntity
  8
Make2D$可见线$普通线
100
AcDbVertex
100
AcDb2dVertex
 10
624.556337381755
 20
1391.174698905078
 30
0.0
  0
VERTEX
  5
AE
330
63
100
AcDbEntity
  8
Make2D$可见线$普通线
100
AcDbVertex
100
AcDb2dVertex
 10
624.4207578279193
 20
1391.231533444717
 30
0.0
  0
VERTEX
  5
AF
330
63
100
AcDbEntity
  8
Make2D$可见线$普通线
100
AcDbVertex
100
AcDb2dVertex
 10
624.2902820283678
 20
1391.289377301116
 30
0.0
  0
VERTEX
  5
B0
330
63
100
AcDbEntity
  8
Make2D$可见线$普通线
100
AcDbVertex
100
AcDb2dVertex
 10
624.1646861269994
 20
1391.348403608403
 30
0.0
  0
VERTEX
  5
B1
330
63
100
AcDbEntity
  8
Make2D$可见线$普通线
100
AcDbVertex
100
AcDb2dVertex
 10
624.0437462677131
 20
1391.408785500708
 30
0.0
  0
VERTEX
  5
B2
330
63
100
AcDbEntity
  8
Make2D$可见线$普通线
100
AcDbVertex
100
AcDb2dVertex
 10
623.927238594408
 20
1391.470696112158
 30
0.0
  0
VERTEX
  5
B3
330
63
100
AcDbEntity
  8
Make2D$可见线$普通线
100
AcDbVertex
100
AcDb2dVertex
 10
623.8149392509829
 20
1391.534308576883
 30
0.0
  0
VERTEX
  5
B4
330
63
100
AcDbEntity
  8
Make2D$可见线$普通线
100
AcDbVertex
100
AcDb2dVertex
 10
623.706624381337
 20
1391.59979602901
 30
0.0
  0
VERTEX
  5
B5
330
63
100
AcDbEntity
  8
Make2D$可见线$普通线
100
AcDbVertex
100
AcDb2dVertex
 10
623.602387134423
 20
1391.667240614448
 30
0.0
  0
VERTEX
  5
B6
330
63
100
AcDbEntity
  8
Make2D$可见线$普通线
100
AcDbVertex
100
AcDb2dVertex
 10
623.5515774930087
 20
1391.701955854074
 30
0.0
  0
VERTEX
  5
B7
330
63
100
AcDbEntity
  8
Make2D$可见线$普通线
100
AcDbVertex
100
AcDb2dVertex
 10
623.5016072143686
 20
1391.737422445806
 30
0.0
  0
VERTEX
  5
B8
330
63
100
AcDbEntity
  8
Make2D$可见线$普通线
100
AcDbVertex
100
AcDb2dVertex
 10
623.4524513295617
 20
1391.773707430267
 30
0.0
  0
VERTEX
  5
B9
330
63
100
AcDbEntity
  8
Make2D$可见线$普通线
100
AcDbVertex
100
AcDb2dVertex
 10
623.404084869647
 20
1391.810877848084
 30
0.0
  0
VERTEX
  5
BA
330
63
100
AcDbEntity
  8
Make2D$可见线$普通线
100
AcDbVertex
100
AcDb2dVertex
 10
623.3564828656837
 20
1391.84900073988
 30
0.0
  0
VERTEX
  5
BB
330
63
100
AcDbEntity
  8
Make2D$可见线$普通线
100
AcDbVertex
100
AcDb2dVertex
 10
623.309620348731
 20
1391.888143146283
 30
0.0
  0
VERTEX
  5
BC
330
63
100
AcDbEntity
  8
Make2D$可见线$普通线
100
AcDbVertex
100
AcDb2dVertex
 10
623.2633794581138
 20
1391.928529404225
 30
0.0
  0
VERTEX
  5
BD
330
63
100
AcDbEntity
  8
Make2D$可见线$普通线
100
AcDbVertex
100
AcDb2dVertex
 10
623.2159029267257
 20
1391.972002896128
 30
0.0
  0
VERTEX
  5
BE
330
63
100
AcDbEntity
  8
Make2D$可见线$普通线
100
AcDbVertex
100
AcDb2dVertex
 10
623.1674329893656
 20
1392.018605174174
 30
0.0
  0
VERTEX
  5
BF
330
63
100
AcDbEntity
  8
Make2D$可见线$普通线
100
AcDbVertex
100
AcDb2dVertex
 10
623.1182118808326
 20
1392.068377790545
 30
0.0
  0
VERTEX
  5
C0
330
63
100
AcDbEntity
  8
Make2D$可见线$普通线
100
AcDbVertex
100
AcDb2dVertex
 10
623.0684818359263
 20
1392.121362297423
 30
0.0
  0
VERTEX
  5
C1
330
63
100
AcDbEntity
  8
Make2D$可见线$普通线
100
AcDbVertex
100
AcDb2dVertex
 10
623.0184850894457
 20
1392.177600246989
 30
0.0
  0
VERTEX
  5
C2
330
63
100
AcDbEntity
  8
Make2D$可见线$普通线
100
AcDbVertex
100
AcDb2dVertex
 10
622.9684638761903
 20
1392.237133191426
 30
0.0
  0
VERTEX
  5
C3
330
63
100
AcDbEntity
  8
Make2D$可见线$普通线
100
AcDbVertex
100
AcDb2dVertex
 10
622.9186604309593
 20
1392.300002682915
 30
0.0
  0
VERTEX
  5
C4
330
63
100
AcDbEntity
  8
Make2D$可见线$普通线
100
AcDbVertex
100
AcDb2dVertex
 10
622.8796452051324
 20
1392.351582744765
 30
0.0
  0
VERTEX
  5
C5
330
63
100
AcDbEntity
  8
Make2D$可见线$普通线
100
AcDbVertex
100
AcDb2dVertex
 10
622.8418079785508
 20
1392.403993766468
 30
0.0
  0
VERTEX
  5
C6
330
63
100
AcDbEntity
  8
Make2D$可见线$普通线
100
AcDbVertex
100
AcDb2dVertex
 10
622.8050891243349
 20
1392.457176728888
 30
0.0
  0
VERTEX
  5
C7
330
63
100
AcDbEntity
  8
Make2D$可见线$普通线
100
AcDbVertex
100
AcDb2dVertex
 10
622.7694290156046
 20
1392.511072612889
 30
0.0
  0
VERTEX
  5
C8
330
63
100
AcDbEntity
  8
Make2D$可见线$普通线
100
AcDbVertex
100
AcDb2dVertex
 10
622.701046527081
 20
1392.620767069093
 30
0.0
  0
VERTEX
  5
C9
330
63
100
AcDbEntity
  8
Make2D$可见线$普通线
100
AcDbVertex
100
AcDb2dVertex
 10
622.6361834979402
 20
1392.732604981994
 30
0.0
  0
VERTEX
  5
CA
330
63
100
AcDbEntity
  8
Make2D$可见线$普通线
100
AcDbVertex
100
AcDb2dVertex
 10
622.5619303466817
 20
1392.869985688865
 30
0.0
  0
VERTEX
  5
CB
330
63
100
AcDbEntity
  8
Make2D$可见线$普通线
100
AcDbVertex
100
AcDb2dVertex
 10
622.4918131022207
 20
1393.009527476446
 30
0.0
  0
VERTEX
  5
CC
330
63
100
AcDbEntity
  8
Make2D$可见线$普通线
100
AcDbVertex
100
AcDb2dVertex
 10
622.425527758717
 20
1393.150952451649
 30
0.0
  0
VERTEX
  5
CD
330
63
100
AcDbEntity
  8
Make2D$可见线$普通线
100
AcDbVertex
100
AcDb2dVertex
 10
622.362770310329
 20
1393.293982721386
 30
0.0
  0
VERTEX
  5
CE
330
63
100
AcDbEntity
  8
Make2D$可见线$普通线
100
AcDbVertex
100
AcDb2dVertex
 10
622.2989763487935
 20
1393.449125226827
 30
0.0
  0
VERTEX
  5
CF
330
63
100
AcDbEntity
  8
Make2D$可见线$普通线
100
AcDbVertex
100
AcDb2dVertex
 10
622.2387300933017
 20
1393.605665916396
 30
0.0
  0
VERTEX
  5
D0
330
63
100
AcDbEntity
  8
Make2D$可见线$普通线
100
AcDbVertex
100
AcDb2dVertex
 10
622.1818595164444
 20
1393.763471414316
 30
0.0
  0
VERTEX
  5
D1
330
63
100
AcDbEntity
  8
Make2D$可见线$普通线
100
AcDbVertex
100
AcDb2dVertex
 10
622.1281925908135
 20
1393.922408344807
 30
0.0
  0
VERTEX
  5
D2
330
63
100
AcDbEntity
  8
Make2D$可见线$普通线
100
AcDbVertex
100
AcDb2dVertex
 10
622.0736706725627
 20
1394.095169866957
 30
0.0
  0
VERTEX
  5
D3
330
63
100
AcDbEntity
  8
Make2D$可见线$普通线
100
AcDbVertex
100
AcDb2dVertex
 10
622.0226600075088
 20
1394.269006656636
 30
0.0
  0
VERTEX
  5
D4
330
63
100
AcDbEntity
  8
Make2D$可见线$普通线
100
AcDbVertex
100
AcDb2dVertex
 10
621.9751366039945
 20
1394.443830124854
 30
0.0
  0
VERTEX
  5
D5
330
63
100
AcDbEntity
  8
Make2D$可见线$普通线
100
AcDbVertex
100
AcDb2dVertex
 10
621.9310764703631
 20
1394.619551682622
 30
0.0
  0
VERTEX
  5
D6
330
63
100
AcDbEntity
  8
Make2D$可见线$普通线
100
AcDbVertex
100
AcDb2dVertex
 10
621.8922954884988
 20
1394.787726526826
 30
0.0
  0
VERTEX
  5
D7
330
63
100
AcDbEntity
  8
Make2D$可见线$普通线
100
AcDbVertex
100
AcDb2dVertex
 10
621.8565997870342
 20
1394.956577050064
 30
0.0
  0
VERTEX
  5
D8
330
63
100
AcDbEntity
  8
Make2D$可见线$普通线
100
AcDbVertex
100
AcDb2dVertex
 10
621.823952742815
 20
1395.126044131066
 30
0.0
  0
VERTEX
  5
D9
330
63
100
AcDbEntity
  8
Make2D$可见线$普通线
100
AcDbVertex
100
AcDb2dVertex
 10
621.7943177326872
 20
1395.296068648566
 30
0.0
  0
VERTEX
  5
DA
330
63
100
AcDbEntity
  8
Make2D$可见线$普通线
100
AcDbVertex
100
AcDb2dVertex
 10
621.7439373220902
 20
1395.637553507985
 30
0.0
  0
VERTEX
  5
DB
330
63
100
AcDbEntity
  8
Make2D$可见线$普通线
100
AcDbVertex
100
AcDb2dVertex
 10
621.7051655700113
 20
1395.98055865818
 30
0.0
  0
VERTEX
  5
DC
330
63
100
AcDbEntity
  8
Make2D$可见线$普通线
100
AcDbVertex
100
AcDb2dVertex
 10
621.6775313079429
 20
1396.325246968614
 30
0.0
  0
VERTEX
  5
DD
330
63
100
AcDbEntity
  8
Make2D$可见线$普通线
100
AcDbVertex
100
AcDb2dVertex
 10
621.6601260236163
 20
1396.670608416765
 30
0.0
  0
VERTEX
  5
DE
330
63
100
AcDbEntity
  8
Make2D$可见线$普通线
100
AcDbVertex
100
AcDb2dVertex
 10
621.650387983794
 20
1397.102312817551
 30
0.0
  0
VERTEX
  5
DF
330
63
100
AcDbEntity
  8
Make2D$可见线$普通线
100
AcDbVertex
100
AcDb2dVertex
 10
621.6487406070316
 20
1397.534140644379
 30
0.0
  0
SEQEND
  5
E0
330
63
100
AcDbEntity
  8
Make2D$可见线$普通线
  0
LINE
  5
E1
330
1F
100
AcDbEntity
  8
Make2D$可见线$普通线
100
AcDbLine
 10
622.0704277356986
 20
1421.70534916809
 30
0.0
 11
622.0807122025368
 21
1421.71491989871
 31
0.0
  0
LINE
  5
E2
330
1F
100
AcDbEntity
  8
Make2D$可见线$普通线
100
AcDbLine
 10
644.216845899657
 20
1421.71491989871
 30
0.0
 11
644.2271303664991
 21
1421.705349168086
 31
0.0
  0
POLYLINE
  5
E3
330
1F
100
AcDbEntity
  8
Make2D$可见线$普通线
100
AcDb2dPolyline
 66
     1
 10
0.0
 20
0.0
 30
0.0
  0
VERTEX
  5
E4
330
E3
100
AcDbEntity
  8
Make2D$可见线$普通线
100
AcDbVertex
100
AcDb2dVertex
 10
698.5511487558325
 20
1230.152196387419
 30
0.0
  0
VERTEX
  5
E5
330
E3
100
AcDbEntity
  8
Make2D$可见线$普通线
100
AcDbVertex
100
AcDb2dVertex
 10
698.5509569547546
 20
1230.151866534408
 30
0.0
  0
VERTEX
  5
E6
330
E3
100
AcDbEntity
  8
Make2D$可见线$普通线
100
AcDbVertex
100
AcDb2dVertex
 10
698.5509083079387
 20
1230.151785202319
 30
0.0
  0
VERTEX
  5
E7
330
E3
100
AcDbEntity
  8
Make2D$可见线$普通线
100
AcDbVertex
100
AcDb2dVertex
 10
698.5509011086979
 20
1230.151773667713
 30
0.0
  0
VERTEX
  5
E8
330
E3
100
AcDbEntity
  8
Make2D$可见线$普通线
100
AcDbVertex
100
AcDb2dVertex
 10
698.5508959018639
 20
1230.151765669212
 30
0.0
  0
VERTEX
  5
E9
330
E3
100
AcDbEntity
  8
Make2D$可见线$普通线
100
AcDbVertex
100
AcDb2dVertex
 10
698.550894046759
 20
1230.151762998615
 30
0.0
  0
VERTEX
  5
EA
330
E3
100
AcDbEntity
  8
Make2D$可见线$普通线
100
AcDbVertex
100
AcDb2dVertex
 10
698.5508933064876
 20
1230.151761995938
 30
0.0
  0
VERTEX
  5
EB
330
E3
100
AcDbEntity
  8
Make2D$可见线$普通线
100
AcDbVertex
100
AcDb2dVertex
 10
698.5508926911475
 20
1230.151761215184
 30
0.0
  0
VERTEX
  5
EC
330
E3
100
AcDbEntity
  8
Make2D$可见线$普通线
100
AcDbVertex
100
AcDb2dVertex
 10
698.5508922007967
 20
1230.151760656481
 30
0.0
  0
VERTEX
  5
ED
330
E3
100
AcDbEntity
  8
Make2D$可见线$普通线
100
AcDbVertex
100
AcDb2dVertex
 10
698.5508918354931
 20
1230.151760319962
 30
0.0
  0
VERTEX
  5
EE
330
E3
100
AcDbEntity
  8
Make2D$可见线$普通线
100
AcDbVertex
100
AcDb2dVertex
 10
698.5508914802596
 20
1230.151760313998
 30
0.0
  0
VERTEX
  5
EF
330
E3
100
AcDbEntity
  8
Make2D$可见线$普通线
100
AcDbVertex
100
AcDb2dVertex
 10
698.5508916259109
 20
1230.151761198336
 30
0.0
  0
VERTEX
  5
F0
330
E3
100
AcDbEntity
  8
Make2D$可见线$普通线
100
AcDbVertex
100
AcDb2dVertex
 10
698.5508918867133
 20
1230.151761974696
 30
0.0
  0
VERTEX
  5
F1
330
E3
100
AcDbEntity
  8
Make2D$可见线$普通线
100
AcDbVertex
100
AcDb2dVertex
 10
698.5508922729109
 20
1230.151762974023
 30
0.0
  0
VERTEX
  5
F2
330
E3
100
AcDbEntity
  8
Make2D$可见线$普通线
100
AcDbVertex
100
AcDb2dVertex
 10
698.5508927845616
 20
1230.15176419645
 30
0.0
  0
VERTEX
  5
F3
330
E3
100
AcDbEntity
  8
Make2D$可见线$普通线
100
AcDbVertex
100
AcDb2dVertex
 10
698.5508934217235
 20
1230.151765642106
 30
0.0
  0
VERTEX
  5
F4
330
E3
100
AcDbEntity
  8
Make2D$可见线$普通线
100
AcDbVertex
100
AcDb2dVertex
 10
698.5508950728123
 20
1230.15176920363
 30
0.0
  0
VERTEX
  5
F5
330
E3
100
AcDbEntity
  8
Make2D$可见线$普通线
100
AcDbVertex
100
AcDb2dVertex
 10
698.5509067092083
 20
1230.151792405059
 30
0.0
  0
VERTEX
  5
F6
330
E3
100
AcDbEntity
  8
Make2D$可见线$普通线
100
AcDbVertex
100
AcDb2dVertex
 10
698.5509542322761
 20
1230.15188201112
 30
0.0
  0
VERTEX
  5
F7
330
E3
100
AcDbEntity
  8
Make2D$可见线$普通线
100
AcDbVertex
100
AcDb2dVertex
 10
698.5511471107334
 20
1230.152235910708
 30
0.0
  0
VERTEX
  5
F8
330
E3
100
AcDbEntity
  8
Make2D$可见线$普通线
100
AcDbVertex
100
AcDb2dVertex
 10
698.5571850707225
 20
1230.163481458988
 30
0.0
 42
0.0258466318139853
  0
VERTEX
  5
F9
330
E3
100
AcDbEntity
  8
Make2D$可见线$普通线
100
AcDbVertex
100
AcDb2dVertex
 10
698.797518972879
 20
1230.713062806389
 30
0.0
 42
0.012798486611632
  0
VERTEX
  5
FA
330
E3
100
AcDbEntity
  8
Make2D$可见线$普通线
100
AcDbVertex
100
AcDb2dVertex
 10
698.9682544949737
 20
1231.198055926317
 30
0.0
 42
0.0092305351021651
  0
VERTEX
  5
FB
330
E3
100
AcDbEntity
  8
Make2D$可见线$普通线
100
AcDbVertex
100
AcDb2dVertex
 10
699.1023202934857
 20
1231.64011587663
 30
0.0
 42
0.0166154988988244
  0
VERTEX
  5
FC
330
E3
100
AcDbEntity
  8
Make2D$可见线$普通线
100
AcDbVertex
100
AcDb2dVertex
 10
699.3675310032821
 20
1232.720263108893
 30
0.0
 42
0.0048086859734666
  0
VERTEX
  5
FD
330
E3
100
AcDbEntity
  8
Make2D$可见线$普通线
100
AcDbVertex
100
AcDb2dVertex
 10
699.4437207557191
 20
1233.09799165851
 30
0.0
 42
0.0087295398412835
  0
VERTEX
  5
FE
330
E3
100
AcDbEntity
  8
Make2D$可见线$普通线
100
AcDbVertex
100
AcDb2dVertex
 10
699.5793856398778
 20
1233.88107097128
 30
0.0
 42
0.0111901450099274
  0
VERTEX
  5
FF
330
E3
100
AcDbEntity
  8
Make2D$可见线$普通线
100
AcDbVertex
100
AcDb2dVertex
 10
699.7395235575747
 20
1235.092561482611
 30
0.0
 42
0.0095930882267447
  0
VERTEX
  5
100
330
E3
100
AcDbEntity
  8
Make2D$可见线$普通线
100
AcDbVertex
100
AcDb2dVertex
 10
699.8515551501819
 20
1236.337204172124
 30
0.0
 42
0.008121909751679
  0
VERTEX
  5
101
330
E3
100
AcDbEntity
  8
Make2D$可见线$普通线
100
AcDbVertex
100
AcDb2dVertex
 10
699.9209302635218
 20
1237.609271858943
 30
0.0
 42
0.0100853204886327
  0
VERTEX
  5
102
330
E3
100
AcDbEntity
  8
Make2D$可见线$普通线
100
AcDbVertex
100
AcDb2dVertex
 10
699.9581935038159
 20
1240.17575440106
 30
0.0
  0
SEQEND
  5
103
330
E3
100
AcDbEntity
  8
Make2D$可见线$普通线
  0
ARC
  5
104
330
1F
100
AcDbEntity
  8
Make2D$可见线$普通线
100
AcDbCircle
 10
3695.84984917933
 20
1253.261037843602
 30
0.0
 40
2995.920154031312
100
AcDbArc
 50
179.7813230666699
 51
180.2499597347276
  0
LINE
  5
105
330
1F
100
AcDbEntity
  8
Make2D$可见线$普通线
100
AcDbLine
 10
699.951573269039
 20
1264.710381085412
 30
0.0
 11
699.856346663041
 21
1277.869784551829
 31
0.0
  0
ARC
  5
106
330
1F
100
AcDbEntity
  8
Make2D$可见线$普通线
100
AcDbCircle
 10
679.1409725649195
 20
1207.711735897526
 30
0.0
 40
21.85462656496793
100
AcDbArc
 50
77.94409675830558
 51
82.08939346273037
  0
LINE
  5
107
330
1F
100
AcDbEntity
  8
Make2D$可见线$普通线
100
AcDbLine
 10
682.1300018711975
 20
1230.368275914599
 30
0.0
 11
682.1239442987803
 21
1230.392118012647
 31
0.0
  0
LINE
  5
108
330
1F
100
AcDbEntity
  8
Make2D$可见线$普通线
100
AcDbLine
 10
623.1487790510969
 20
1268.931393894453
 30
0.0
 11
623.1487790510969
 21
1268.731393894453
 31
0.0
  0
LINE
  5
109
330
1F
100
AcDbEntity
  8
Make2D$可见线$普通线
100
AcDbLine
 10
621.6487790510971
 20
1420.968243969608
 30
0.0
 11
621.6487790510971
 21
1420.939672020721
 31
0.0
  0
LINE
  5
10A
330
1F
100
AcDbEntity
  8
Make2D$可见线$普通线
100
AcDbLine
 10
644.6487790510972
 20
1420.968243969608
 30
0.0
 11
644.6487790510972
 21
1420.939672020721
 31
0.0
  0
ARC
  5
10B
330
1F
100
AcDbEntity
  8
Make2D$可见线$普通线
100
AcDbCircle
 10
691.0812863855018
 20
1229.617320830108
 30
0.0
 40
8.147158069902865
100
AcDbArc
 50
300.8347767794771
 51
313.6470797565991
  0
ARC
  5
10C
330
1F
100
AcDbEntity
  8
Make2D$可见线$普通线
100
AcDbCircle
 10
679.1270088848379
 20
1212.819424505112
 30
0.0
 40
21.92427078284559
100
AcDbArc
 50
277.922159690046
 51
302.6020802662155
  0
LINE
  5
10D
330
1F
100
AcDbEntity
  8
Make2D$可见线$普通线
100
AcDbLine
 10
643.1487790510969
 20
1268.931393894453
 30
0.0
 11
643.1487790510969
 21
1268.731393894453
 31
0.0
  0
LINE
  5
10E
330
1F
100
AcDbEntity
  8
Make2D$可见线$普通线
100
AcDbLine
 10
621.6494841570706
 20
1392.190991221956
 30
0.0
 11
623.0158131472203
 21
1392.180694834562
 31
0.0
  0
LINE
  5
10F
330
1F
100
AcDbEntity
  8
Make2D$可见线$普通线
100
AcDbLine
 10
643.2817462037713
 20
1392.180694838867
 30
0.0
 11
644.6480739451232
 21
1392.190520028914
 31
0.0
  0
LINE
  5
110
330
1F
100
AcDbEntity
  8
Make2D$可见线$普通线
100
AcDbLine
 10
698.5256616284346
 20
1232.411197861158
 30
0.0
 11
698.5257408960227
 21
1232.411241685579
 31
0.0
  0
POLYLINE
  5
111
330
1F
100
AcDbEntity
  8
Make2D$可见线$普通线
100
AcDb2dPolyline
 66
     1
 10
0.0
 20
0.0
 30
0.0
  0
VERTEX
  5
112
330
111
100
AcDbEntity
  8
Make2D$可见线$普通线
100
AcDbVertex
100
AcDb2dVertex
 10
621.6487790510969
 20
1421.036057501565
 30
0.0
  0
VERTEX
  5
113
330
111
100
AcDbEntity
  8
Make2D$可见线$普通线
100
AcDbVertex
100
AcDb2dVertex
 10
621.648779051097
 20
1503.334016403202
 30
0.0
 42
-1.000027973491976
  0
VERTEX
  5
114
330
111
100
AcDbEntity
  8
Make2D$可见线$普通线
100
AcDbVertex
100
AcDb2dVertex
 10
644.6487790510972
 20
1503.334016403202
 30
0.0
  0
VERTEX
  5
115
330
111
100
AcDbEntity
  8
Make2D$可见线$普通线
100
AcDbVertex
100
AcDb2dVertex
 10
644.6487790510969
 20
1421.036057501565
 30
0.0
  0
SEQEND
  5
116
330
111
100
AcDbEntity
  8
Make2D$可见线$普通线
  0
LINE
  5
117
330
1F
100
AcDbEntity
  8
Make2D$可见线$普通线
100
AcDbLine
 10
644.648779051097
 20
1397.207310237305
 30
0.0
 11
644.6487790510969
 21
1268.981393894453
 31
0.0
  0
POLYLINE
  5
118
330
1F
100
AcDbEntity
  8
Make2D$可见线$普通线
100
AcDb2dPolyline
 66
     1
 10
0.0
 20
0.0
 30
0.0
  0
VERTEX
  5
119
330
118
100
AcDbEntity
  8
Make2D$可见线$普通线
100
AcDbVertex
100
AcDb2dVertex
 10
621.6487790510969
 20
1397.207330446253
 30
0.0
  0
VERTEX
  5
11A
330
118
100
AcDbEntity
  8
Make2D$可见线$普通线
100
AcDbVertex
100
AcDb2dVertex
 10
621.648779051097
 20
1392.190873423696
 30
0.0
  0
VERTEX
  5
11B
330
118
100
AcDbEntity
  8
Make2D$可见线$普通线
100
AcDbVertex
100
AcDb2dVertex
 10
621.6489692298085
 20
1268.981203246191
 30
0.0
  0
VERTEX
  5
11C
330
118
100
AcDbEntity
  8
Make2D$可见线$普通线
100
AcDbVertex
100
AcDb2dVertex
 10
621.6991583288656
 20
1268.931393894439
 30
0.0
  0
VERTEX
  5
11D
330
118
100
AcDbEntity
  8
Make2D$可见线$普通线
100
AcDbVertex
100
AcDb2dVertex
 10
644.5983834798898
 20
1268.931393894453
 30
0.0
  0
VERTEX
  5
11E
330
118
100
AcDbEntity
  8
Make2D$可见线$普通线
100
AcDbVertex
100
AcDb2dVertex
 10
644.6481818400946
 20
1268.981193387651
 30
0.0
  0
VERTEX
  5
11F
330
118
100
AcDbEntity
  8
Make2D$可见线$普通线
100
AcDbVertex
100
AcDb2dVertex
 10
633.1487790510969
 20
1268.981301391766
 30
0.0
  0
VERTEX
  5
120
330
118
100
AcDbEntity
  8
Make2D$可见线$普通线
100
AcDbVertex
100
AcDb2dVertex
 10
621.6495429042877
 20
1268.981394994318
 30
0.0
  0
SEQEND
  5
121
330
118
100
AcDbEntity
  8
Make2D$可见线$普通线
  0
POLYLINE
  5
122
330
1F
100
AcDbEntity
  8
Make2D$可见线$普通线
100
AcDb2dPolyline
 66
     1
 10
0.0
 20
0.0
 30
0.0
  0
VERTEX
  5
123
330
122
100
AcDbEntity
  8
Make2D$可见线$普通线
100
AcDbVertex
100
AcDb2dVertex
 10
703.9313711521005
 20
1290.449350059043
 30
0.0
 42
-0.0748827426753679
  0
VERTEX
  5
124
330
122
100
AcDbEntity
  8
Make2D$可见线$普通线
100
AcDbVertex
100
AcDb2dVertex
 10
707.0809548647853
 20
1279.823161589257
 30
0.0
 42
-0.0198497958625326
  0
VERTEX
  5
125
330
122
100
AcDbEntity
  8
Make2D$可见线$普通线
100
AcDbVertex
100
AcDb2dVertex
 10
707.637566981881
 20
1274.501951381799
 30
0.0
 42
-0.0049514909617784
  0
VERTEX
  5
126
330
122
100
AcDbEntity
  8
Make2D$可见线$普通线
100
AcDbVertex
100
AcDb2dVertex
 10
707.7402223174971
 20
1272.720103176259
 30
0.0
 42
-0.0044173000514853
  0
VERTEX
  5
127
330
122
100
AcDbEntity
  8
Make2D$可见线$普通线
100
AcDbVertex
100
AcDb2dVertex
 10
707.8094543668227
 20
1270.93692962805
 30
0.0
 42
-0.0078894959749157
  0
VERTEX
  5
128
330
122
100
AcDbEntity
  8
Make2D$可见线$普通线
100
AcDbVertex
100
AcDb2dVertex
 10
707.8685193417763
 20
1265.589292324058
 30
0.0
  0
VERTEX
  5
129
330
122
100
AcDbEntity
  8
Make2D$可见线$普通线
100
AcDbVertex
100
AcDb2dVertex
 10
707.8684401427224
 20
1216.775719357089
 30
0.0
 42
-0.008259605054343
  0
VERTEX
  5
12A
330
122
100
AcDbEntity
  8
Make2D$可见线$普通线
100
AcDbVertex
100
AcDb2dVertex
 10
707.8069740542587
 20
1211.629226892545
 30
0.0
  0
VERTEX
  5
12B
330
122
100
AcDbEntity
  8
Make2D$可见线$普通线
100
AcDbVertex
100
AcDb2dVertex
 10
707.7602245726962
 20
1210.344124779732
 30
0.0
  0
VERTEX
  5
12C
330
122
100
AcDbEntity
  8
Make2D$可见线$普通线
100
AcDbVertex
100
AcDb2dVertex
 10
707.6992786147471
 20
1209.062471556411
 30
0.0
 42
-0.0058723508943788
  0
VERTEX
  5
12D
330
122
100
AcDbEntity
  8
Make2D$可见线$普通线
100
AcDbVertex
100
AcDb2dVertex
 10
707.5472193659589
 20
1206.727481332843
 30
0.0
  0
VERTEX
  5
12E
330
122
100
AcDbEntity
  8
Make2D$可见线$普通线
100
AcDbVertex
100
AcDb2dVertex
 10
707.5299115527085
 20
1206.515419718193
 30
0.0
  0
VERTEX
  5
12F
330
122
100
AcDbEntity
  8
Make2D$可见线$普通线
100
AcDbVertex
100
AcDb2dVertex
 10
707.4165905148891
 20
1205.263355811319
 30
0.0
  0
VERTEX
  5
130
330
122
100
AcDbEntity
  8
Make2D$可见线$普通线
100
AcDbVertex
100
AcDb2dVertex
 10
707.2849750903166
 20
1204.062763042999
 30
0.0
  0
VERTEX
  5
131
330
122
100
AcDbEntity
  8
Make2D$可见线$普通线
100
AcDbVertex
100
AcDb2dVertex
 10
707.1343689190625
 20
1202.909380443604
 30
0.0
  0
VERTEX
  5
132
330
122
100
AcDbEntity
  8
Make2D$可见线$普通线
100
AcDbVertex
100
AcDb2dVertex
 10
706.9640756411982
 20
1201.798947043501
 30
0.0
  0
VERTEX
  5
133
330
122
100
AcDbEntity
  8
Make2D$可见线$普通线
100
AcDbVertex
100
AcDb2dVertex
 10
706.7733988967955
 20
1200.727201873059
 30
0.0
  0
VERTEX
  5
134
330
122
100
AcDbEntity
  8
Make2D$可见线$普通线
100
AcDbVertex
100
AcDb2dVertex
 10
706.5616423259258
 20
1199.689883962645
 30
0.0
  0
VERTEX
  5
135
330
122
100
AcDbEntity
  8
Make2D$可见线$普通线
100
AcDbVertex
100
AcDb2dVertex
 10
706.3281095686607
 20
1198.682732342629
 30
0.0
  0
VERTEX
  5
136
330
122
100
AcDbEntity
  8
Make2D$可见线$普通线
100
AcDbVertex
100
AcDb2dVertex
 10
706.0721042650719
 20
1197.701486043379
 30
0.0
  0
VERTEX
  5
137
330
122
100
AcDbEntity
  8
Make2D$可见线$普通线
100
AcDbVertex
100
AcDb2dVertex
 10
705.7929300552307
 20
1196.741884095262
 30
0.0
  0
VERTEX
  5
138
330
122
100
AcDbEntity
  8
Make2D$可见线$普通线
100
AcDbVertex
100
AcDb2dVertex
 10
705.4898905792089
 20
1195.799665528648
 30
0.0
  0
VERTEX
  5
139
330
122
100
AcDbEntity
  8
Make2D$可见线$普通线
100
AcDbVertex
100
AcDb2dVertex
 10
705.1622894770779
 20
1194.870569373905
 30
0.0
  0
VERTEX
  5
13A
330
122
100
AcDbEntity
  8
Make2D$可见线$普通线
100
AcDbVertex
100
AcDb2dVertex
 10
704.8094303889094
 20
1193.950334661401
 30
0.0
  0
VERTEX
  5
13B
330
122
100
AcDbEntity
  8
Make2D$可见线$普通线
100
AcDbVertex
100
AcDb2dVertex
 10
704.4306169547749
 20
1193.034700421504
 30
0.0
  0
VERTEX
  5
13C
330
122
100
AcDbEntity
  8
Make2D$可见线$普通线
100
AcDbVertex
100
AcDb2dVertex
 10
704.025152814746
 20
1192.119405684583
 30
0.0
  0
VERTEX
  5
13D
330
122
100
AcDbEntity
  8
Make2D$可见线$普通线
100
AcDbVertex
100
AcDb2dVertex
 10
703.5923416088942
 20
1191.200189481007
 30
0.0
  0
VERTEX
  5
13E
330
122
100
AcDbEntity
  8
Make2D$可见线$普通线
100
AcDbVertex
100
AcDb2dVertex
 10
703.131486977291
 20
1190.272790841143
 30
0.0
  0
SEQEND
  5
13F
330
122
100
AcDbEntity
  8
Make2D$可见线$普通线
  0
POLYLINE
  5
140
330
1F
100
AcDbEntity
  8
Make2D$可见线$普通线
100
AcDb2dPolyline
 66
     1
 10
0.0
 20
0.0
 30
0.0
  0
VERTEX
  5
141
330
140
100
AcDbEntity
  8
Make2D$可见线$普通线
100
AcDbVertex
100
AcDb2dVertex
 10
699.8560706457413
 20
1277.904558500271
 30
0.0
  0
VERTEX
  5
142
330
140
100
AcDbEntity
  8
Make2D$可见线$普通线
100
AcDbVertex
100
AcDb2dVertex
 10
699.8549624224829
 20
1285.609532373295
 30
0.0
  0
VERTEX
  5
143
330
140
100
AcDbEntity
  8
Make2D$可见线$普通线
100
AcDbVertex
100
AcDb2dVertex
 10
699.8549622552287
 20
1285.610383012011
 30
0.0
 42
-0.1040841452093042
  0
VERTEX
  5
144
330
140
100
AcDbEntity
  8
Make2D$可见线$普通线
100
AcDbVertex
100
AcDb2dVertex
 10
700.4975223491599
 20
1288.528985940161
 30
0.0
 42
-0.0128138697664322
  0
VERTEX
  5
145
330
140
100
AcDbEntity
  8
Make2D$可见线$普通线
100
AcDbVertex
100
AcDb2dVertex
 10
701.3300042193448
 20
1290.449760229474
 30
0.0
  0
VERTEX
  5
146
330
140
100
AcDbEntity
  8
Make2D$可见线$普通线
100
AcDbVertex
100
AcDb2dVertex
 10
701.3304630883057
 20
1290.450777464307
 30
0.0
  0
VERTEX
  5
147
330
140
100
AcDbEntity
  8
Make2D$可见线$普通线
100
AcDbVertex
100
AcDb2dVertex
 10
701.3653742790361
 20
1290.524467092182
 30
0.0
  0
VERTEX
  5
148
330
140
100
AcDbEntity
  8
Make2D$可见线$普通线
100
AcDbVertex
100
AcDb2dVertex
 10
701.3836517872002
 20
1290.560996757854
 30
0.0
  0
VERTEX
  5
149
330
140
100
AcDbEntity
  8
Make2D$可见线$普通线
100
AcDbVertex
100
AcDb2dVertex
 10
701.402769965631
 20
1290.597196678654
 30
0.0
  0
VERTEX
  5
14A
330
140
100
AcDbEntity
  8
Make2D$可见线$普通线
100
AcDbVertex
100
AcDb2dVertex
 10
701.4229483606293
 20
1290.632977120057
 30
0.0
  0
VERTEX
  5
14B
330
140
100
AcDbEntity
  8
Make2D$可见线$普通线
100
AcDbVertex
100
AcDb2dVertex
 10
701.4335037475602
 20
1290.650681993947
 30
0.0
  0
VERTEX
  5
14C
330
140
100
AcDbEntity
  8
Make2D$可见线$普通线
100
AcDbVertex
100
AcDb2dVertex
 10
701.4444065184957
 20
1290.668248347543
 30
0.0
  0
VERTEX
  5
14D
330
140
100
AcDbEntity
  8
Make2D$可见线$普通线
100
AcDbVertex
100
AcDb2dVertex
 10
701.4556841167234
 20
1290.685664964028
 30
0.0
  0
VERTEX
  5
14E
330
140
100
AcDbEntity
  8
Make2D$可见线$普通线
100
AcDbVertex
100
AcDb2dVertex
 10
701.4673639855309
 20
1290.702920626588
 30
0.0
  0
VERTEX
  5
14F
330
140
100
AcDbEntity
  8
Make2D$可见线$普通线
100
AcDbVertex
100
AcDb2dVertex
 10
701.4794735682059
 20
1290.720004118407
 30
0.0
  0
VERTEX
  5
150
330
140
100
AcDbEntity
  8
Make2D$可见线$普通线
100
AcDbVertex
100
AcDb2dVertex
 10
701.4920403080357
 20
1290.736904222671
 30
0.0
  0
VERTEX
  5
151
330
140
100
AcDbEntity
  8
Make2D$可见线$普通线
100
AcDbVertex
100
AcDb2dVertex
 10
701.505972718857
 20
1290.754552360648
 30
0.0
  0
VERTEX
  5
152
330
140
100
AcDbEntity
  8
Make2D$可见线$普通线
100
AcDbVertex
100
AcDb2dVertex
 10
701.5203456555872
 20
1290.771900963623
 30
0.0
  0
VERTEX
  5
153
330
140
100
AcDbEntity
  8
Make2D$可见线$普通线
100
AcDbVertex
100
AcDb2dVertex
 10
701.5351494125152
 20
1290.788933760077
 30
0.0
  0
VERTEX
  5
154
330
140
100
AcDbEntity
  8
Make2D$可见线$普通线
100
AcDbVertex
100
AcDb2dVertex
 10
701.5503734908483
 20
1290.805634901882
 30
0.0
  0
VERTEX
  5
155
330
140
100
AcDbEntity
  8
Make2D$可见线$普通线
100
AcDbVertex
100
AcDb2dVertex
 10
701.566006622146
 20
1290.821989012226
 30
0.0
  0
VERTEX
  5
156
330
140
100
AcDbEntity
  8
Make2D$可见线$普通线
100
AcDbVertex
100
AcDb2dVertex
 10
701.5820367952058
 20
1290.837981231958
 30
0.0
  0
VERTEX
  5
157
330
140
100
AcDbEntity
  8
Make2D$可见线$普通线
100
AcDbVertex
100
AcDb2dVertex
 10
701.5984512862744
 20
1290.853597264046
 30
0.0
  0
VERTEX
  5
158
330
140
100
AcDbEntity
  8
Make2D$可见线$普通线
100
AcDbVertex
100
AcDb2dVertex
 10
701.6152366924268
 20
1290.868823415894
 30
0.0
  0
VERTEX
  5
159
330
140
100
AcDbEntity
  8
Make2D$可见线$普通线
100
AcDbVertex
100
AcDb2dVertex
 10
701.6323789679318
 20
1290.883646639239
 30
0.0
  0
VERTEX
  5
15A
330
140
100
AcDbEntity
  8
Make2D$可见线$普通线
100
AcDbVertex
100
AcDb2dVertex
 10
701.6498634633969
 20
1290.898054567388
 30
0.0
  0
VERTEX
  5
15B
330
140
100
AcDbEntity
  8
Make2D$可见线$普通线
100
AcDbVertex
100
AcDb2dVertex
 10
701.6676749674648
 20
1290.912035549582
 30
0.0
  0
VERTEX
  5
15C
330
140
100
AcDbEntity
  8
Make2D$可见线$普通线
100
AcDbVertex
100
AcDb2dVertex
 10
701.6857977508121
 20
1290.925578682273
 30
0.0
  0
VERTEX
  5
15D
330
140
100
AcDbEntity
  8
Make2D$可见线$普通线
100
AcDbVertex
100
AcDb2dVertex
 10
701.7042156121823
 20
1290.938673837149
 30
0.0
  0
VERTEX
  5
15E
330
140
100
AcDbEntity
  8
Make2D$可见线$普通线
100
AcDbVertex
100
AcDb2dVertex
 10
701.7229119261746
 20
1290.951311685752
 30
0.0
  0
VERTEX
  5
15F
330
140
100
AcDbEntity
  8
Make2D$可见线$普通线
100
AcDbVertex
100
AcDb2dVertex
 10
701.7418696924935
 20
1290.963483720572
 30
0.0
  0
VERTEX
  5
160
330
140
100
AcDbEntity
  8
Make2D$可见线$普通线
100
AcDbVertex
100
AcDb2dVertex
 10
701.7610715863555
 20
1290.97518227251
 30
0.0
  0
VERTEX
  5
161
330
140
100
AcDbEntity
  8
Make2D$可见线$普通线
100
AcDbVertex
100
AcDb2dVertex
 10
701.7824477315874
 20
1290.987730209642
 30
0.0
  0
VERTEX
  5
162
330
140
100
AcDbEntity
  8
Make2D$可见线$普通线
100
AcDbVertex
100
AcDb2dVertex
 10
701.8040970670455
 20
1290.999801032537
 30
0.0
  0
VERTEX
  5
163
330
140
100
AcDbEntity
  8
Make2D$可见线$普通线
100
AcDbVertex
100
AcDb2dVertex
 10
701.8264503047737
 20
1291.011640777548
 30
0.0
  0
VERTEX
  5
164
330
140
100
AcDbEntity
  8
Make2D$可见线$普通线
100
AcDbVertex
100
AcDb2dVertex
 10
701.8490470770253
 20
1291.02300881864
 30
0.0
  0
VERTEX
  5
165
330
140
100
AcDbEntity
  8
Make2D$可见线$普通线
100
AcDbVertex
100
AcDb2dVertex
 10
701.8726572780495
 20
1291.034283074097
 30
0.0
  0
VERTEX
  5
166
330
140
100
AcDbEntity
  8
Make2D$可见线$普通线
100
AcDbVertex
100
AcDb2dVertex
 10
701.8964916819625
 20
1291.04507668594
 30
0.0
  0
VERTEX
  5
167
330
140
100
AcDbEntity
  8
Make2D$可见线$普通线
100
AcDbVertex
100
AcDb2dVertex
 10
701.9205336283146
 20
1291.055401443462
 30
0.0
  0
VERTEX
  5
168
330
140
100
AcDbEntity
  8
Make2D$可见线$普通线
100
AcDbVertex
100
AcDb2dVertex
 10
701.9447664566558
 20
1291.065269135958
 30
0.0
  0
VERTEX
  5
169
330
140
100
AcDbEntity
  8
Make2D$可见线$普通线
100
AcDbVertex
100
AcDb2dVertex
 10
701.9706365831273
 20
1291.075239319793
 30
0.0
  0
VERTEX
  5
16A
330
140
100
AcDbEntity
  8
Make2D$可见线$普通线
100
AcDbVertex
100
AcDb2dVertex
 10
701.9966899700789
 20
1291.084718918112
 30
0.0
  0
VERTEX
  5
16B
330
140
100
AcDbEntity
  8
Make2D$可见线$普通线
100
AcDbVertex
100
AcDb2dVertex
 10
702.0229142397081
 20
1291.093717358087
 30
0.0
  0
VERTEX
  5
16C
330
140
100
AcDbEntity
  8
Make2D$可见线$普通线
100
AcDbVertex
100
AcDb2dVertex
 10
702.0492970142125
 20
1291.102244066886
 30
0.0
  0
VERTEX
  5
16D
330
140
100
AcDbEntity
  8
Make2D$可见线$普通线
100
AcDbVertex
100
AcDb2dVertex
 10
702.1024885666352
 20
1291.117919999639
 30
0.0
  0
VERTEX
  5
16E
330
140
100
AcDbEntity
  8
Make2D$可见线$普通线
100
AcDbVertex
100
AcDb2dVertex
 10
702.156165604927
 20
1291.131822133733
 30
0.0
  0
VERTEX
  5
16F
330
140
100
AcDbEntity
  8
Make2D$可见线$普通线
100
AcDbVertex
100
AcDb2dVertex
 10
702.2145043259153
 20
1291.144679016541
 30
0.0
  0
VERTEX
  5
170
330
140
100
AcDbEntity
  8
Make2D$可见线$普通线
100
AcDbVertex
100
AcDb2dVertex
 10
702.2732696086238
 20
1291.155838581147
 30
0.0
  0
VERTEX
  5
171
330
140
100
AcDbEntity
  8
Make2D$可见线$普通线
100
AcDbVertex
100
AcDb2dVertex
 10
702.3323871250611
 20
1291.165280985509
 30
0.0
  0
VERTEX
  5
172
330
140
100
AcDbEntity
  8
Make2D$可见线$普通线
100
AcDbVertex
100
AcDb2dVertex
 10
702.3917813841546
 20
1291.172990744465
 30
0.0
  0
VERTEX
  5
173
330
140
100
AcDbEntity
  8
Make2D$可见线$普通线
100
AcDbVertex
100
AcDb2dVertex
 10
702.4513760521656
 20
1291.178956810263
 30
0.0
  0
VERTEX
  5
174
330
140
100
AcDbEntity
  8
Make2D$可见线$普通线
100
AcDbVertex
100
AcDb2dVertex
 10
702.5110942793515
 20
1291.183172624728
 30
0.0
  0
VERTEX
  5
175
330
140
100
AcDbEntity
  8
Make2D$可见线$普通线
100
AcDbVertex
100
AcDb2dVertex
 10
702.5708590299485
 20
1291.185636142564
 30
0.0
  0
VERTEX
  5
176
330
140
100
AcDbEntity
  8
Make2D$可见线$普通线
100
AcDbVertex
100
AcDb2dVertex
 10
702.630593412498
 20
1291.186349825619
 30
0.0
  0
VERTEX
  5
177
330
140
100
AcDbEntity
  8
Make2D$可见线$普通线
100
AcDbVertex
100
AcDb2dVertex
 10
702.6903267014272
 20
1291.185649413593
 30
0.0
  0
VERTEX
  5
178
330
140
100
AcDbEntity
  8
Make2D$可见线$普通线
100
AcDbVertex
100
AcDb2dVertex
 10
702.7500907625359
 20
1291.183198859557
 30
0.0
  0
VERTEX
  5
179
330
140
100
AcDbEntity
  8
Make2D$可见线$普通线
100
AcDbVertex
100
AcDb2dVertex
 10
702.8098086757004
 20
1291.178995682979
 30
0.0
  0
VERTEX
  5
17A
330
140
100
AcDbEntity
  8
Make2D$可见线$普通线
100
AcDbVertex
100
AcDb2dVertex
 10
702.8694033753675
 20
1291.173041913055
 30
0.0
  0
VERTEX
  5
17B
330
140
100
AcDbEntity
  8
Make2D$可见线$普通线
100
AcDbVertex
100
AcDb2dVertex
 10
702.9287979811379
 20
1291.165344094527
 30
0.0
  0
VERTEX
  5
17C
330
140
100
AcDbEntity
  8
Make2D$可见线$普通线
100
AcDbVertex
100
AcDb2dVertex
 10
702.9879161280111
 20
1291.155913264427
 30
0.0
  0
VERTEX
  5
17D
330
140
100
AcDbEntity
  8
Make2D$可见线$普通线
100
AcDbVertex
100
AcDb2dVertex
 10
703.0466822933142
 20
1291.144764899936
 30
0.0
  0
VERTEX
  5
17E
330
140
100
AcDbEntity
  8
Make2D$可见线$普通线
100
AcDbVertex
100
AcDb2dVertex
 10
703.1050221173812
 20
1291.131918837848
 30
0.0
  0
VERTEX
  5
17F
330
140
100
AcDbEntity
  8
Make2D$可见线$普通线
100
AcDbVertex
100
AcDb2dVertex
 10
703.1586463620343
 20
1291.118041171439
 30
0.0
  0
VERTEX
  5
180
330
140
100
AcDbEntity
  8
Make2D$可见线$普通线
100
AcDbVertex
100
AcDb2dVertex
 10
703.211887995596
 20
1291.102360288048
 30
0.0
  0
VERTEX
  5
181
330
140
100
AcDbEntity
  8
Make2D$可见线$普通线
100
AcDbVertex
100
AcDb2dVertex
 10
703.2382719773145
 20
1291.093837000101
 30
0.0
  0
VERTEX
  5
182
330
140
100
AcDbEntity
  8
Make2D$可见线$普通线
100
AcDbVertex
100
AcDb2dVertex
 10
703.2644951703005
 20
1291.08484131989
 30
0.0
  0
VERTEX
  5
183
330
140
100
AcDbEntity
  8
Make2D$可见线$普通线
100
AcDbVertex
100
AcDb2dVertex
 10
703.2905471597132
 20
1291.07536426344
 30
0.0
  0
VERTEX
  5
184
330
140
100
AcDbEntity
  8
Make2D$可见线$普通线
100
AcDbVertex
100
AcDb2dVertex
 10
703.3164175307122
 20
1291.065396846774
 30
0.0
  0
VERTEX
  5
185
330
140
100
AcDbEntity
  8
Make2D$可见线$普通线
100
AcDbVertex
100
AcDb2dVertex
 10
703.3401341987595
 20
1291.055749061768
 30
0.0
  0
VERTEX
  5
186
330
140
100
AcDbEntity
  8
Make2D$可见线$普通线
100
AcDbVertex
100
AcDb2dVertex
 10
703.3636698890789
 20
1291.04566401149
 30
0.0
  0
VERTEX
  5
187
330
140
100
AcDbEntity
  8
Make2D$可见线$普通线
100
AcDbVertex
100
AcDb2dVertex
 10
703.3870073612832
 20
1291.03513019698
 30
0.0
  0
VERTEX
  5
188
330
140
100
AcDbEntity
  8
Make2D$可见线$普通线
100
AcDbVertex
100
AcDb2dVertex
 10
703.4101293749856
 20
1291.024136119276
 30
0.0
  0
VERTEX
  5
189
330
140
100
AcDbEntity
  8
Make2D$可见线$普通线
100
AcDbVertex
100
AcDb2dVertex
 10
703.4330186897987
 20
1291.012670279415
 30
0.0
  0
VERTEX
  5
18A
330
140
100
AcDbEntity
  8
Make2D$可见线$普通线
100
AcDbVertex
100
AcDb2dVertex
 10
703.4556580653357
 20
1291.000721178436
 30
0.0
  0
VERTEX
  5
18B
330
140
100
AcDbEntity
  8
Make2D$可见线$普通线
100
AcDbVertex
100
AcDb2dVertex
 10
703.4780302612093
 20
1290.988277317378
 30
0.0
  0
VERTEX
  5
18C
330
140
100
AcDbEntity
  8
Make2D$可见线$普通线
100
AcDbVertex
100
AcDb2dVertex
 10
703.5001180370323
 20
1290.975327197279
 30
0.0
  0
VERTEX
  5
18D
330
140
100
AcDbEntity
  8
Make2D$可见线$普通线
100
AcDbVertex
100
AcDb2dVertex
 10
703.519321101613
 20
1290.963628398708
 30
0.0
  0
VERTEX
  5
18E
330
140
100
AcDbEntity
  8
Make2D$可见线$普通线
100
AcDbVertex
100
AcDb2dVertex
 10
703.5382799563716
 20
1290.951455906181
 30
0.0
  0
VERTEX
  5
18F
330
140
100
AcDbEntity
  8
Make2D$可见线$普通线
100
AcDbVertex
100
AcDb2dVertex
 10
703.5569772622167
 20
1290.938817393746
 30
0.0
  0
VERTEX
  5
190
330
140
100
AcDbEntity
  8
Make2D$可见线$普通线
100
AcDbVertex
100
AcDb2dVertex
 10
703.5753960048528
 20
1290.925721374882
 30
0.0
  0
VERTEX
  5
191
330
140
100
AcDbEntity
  8
Make2D$可见线$普通线
100
AcDbVertex
100
AcDb2dVertex
 10
703.5935195452686
 20
1290.912177184996
 30
0.0
  0
VERTEX
  5
192
330
140
100
AcDbEntity
  8
Make2D$可见线$普通线
100
AcDbVertex
100
AcDb2dVertex
 10
703.6113316690638
 20
1290.898194960311
 30
0.0
  0
VERTEX
  5
193
330
140
100
AcDbEntity
  8
Make2D$可见线$普通线
100
AcDbVertex
100
AcDb2dVertex
 10
703.6288166343124
 20
1290.883785613203
 30
0.0
  0
VERTEX
  5
194
330
140
100
AcDbEntity
  8
Make2D$可见线$普通线
100
AcDbVertex
100
AcDb2dVertex
 10
703.6459592176686
 20
1290.868960804143
 30
0.0
  0
VERTEX
  5
195
330
140
100
AcDbEntity
  8
Make2D$可见线$普通线
100
AcDbVertex
100
AcDb2dVertex
 10
703.6627447584332
 20
1290.853732910361
 30
0.0
  0
VERTEX
  5
196
330
140
100
AcDbEntity
  8
Make2D$可见线$普通线
100
AcDbVertex
100
AcDb2dVertex
 10
703.6791592003132
 20
1290.838114991435
 30
0.0
  0
VERTEX
  5
197
330
140
100
AcDbEntity
  8
Make2D$可见线$普通线
100
AcDbVertex
100
AcDb2dVertex
 10
703.6951891306259
 20
1290.82212075199
 30
0.0
  0
VERTEX
  5
198
330
140
100
AcDbEntity
  8
Make2D$可见线$普通线
100
AcDbVertex
100
AcDb2dVertex
 10
703.7108218167184
 20
1290.805764501735
 30
0.0
  0
VERTEX
  5
199
330
140
100
AcDbEntity
  8
Make2D$可见线$普通线
100
AcDbVertex
100
AcDb2dVertex
 10
703.7260452393913
 20
1290.789061113082
 30
0.0
  0
VERTEX
  5
19A
330
140
100
AcDbEntity
  8
Make2D$可见线$普通线
100
AcDbVertex
100
AcDb2dVertex
 10
703.7408481231517
 20
1290.772025976604
 30
0.0
  0
VERTEX
  5
19B
330
140
100
AcDbEntity
  8
Make2D$可见线$普通线
100
AcDbVertex
100
AcDb2dVertex
 10
703.7552199631333
 20
1290.754674954628
 30
0.0
  0
VERTEX
  5
19C
330
140
100
AcDbEntity
  8
Make2D$可见线$普通线
100
AcDbVertex
100
AcDb2dVertex
 10
703.7691510485561
 20
1290.737024333216
 30
0.0
  0
VERTEX
  5
19D
330
140
100
AcDbEntity
  8
Make2D$可见线$普通线
100
AcDbVertex
100
AcDb2dVertex
 10
703.7817178891385
 20
1290.72012031972
 30
0.0
  0
VERTEX
  5
19E
330
140
100
AcDbEntity
  8
Make2D$可见线$普通线
100
AcDbVertex
100
AcDb2dVertex
 10
703.793827382674
 20
1290.703033100464
 30
0.0
  0
VERTEX
  5
19F
330
140
100
AcDbEntity
  8
Make2D$可见线$普通线
100
AcDbVertex
100
AcDb2dVertex
 10
703.8055067926841
 20
1290.685774337235
 30
0.0
  0
VERTEX
  5
1A0
330
140
100
AcDbEntity
  8
Make2D$可见线$普通线
100
AcDbVertex
100
AcDb2dVertex
 10
703.8167833826908
 20
1290.668355691817
 30
0.0
  0
VERTEX
  5
1A1
330
140
100
AcDbEntity
  8
Make2D$可见线$普通线
100
AcDbVertex
100
AcDb2dVertex
 10
703.8276844162161
 20
1290.650788825996
 30
0.0
  0
VERTEX
  5
1A2
330
140
100
AcDbEntity
  8
Make2D$可见线$普通线
100
AcDbVertex
100
AcDb2dVertex
 10
703.8382371567819
 20
1290.633085401556
 30
0.0
  0
VERTEX
  5
1A3
330
140
100
AcDbEntity
  8
Make2D$可见线$普通线
100
AcDbVertex
100
AcDb2dVertex
 10
703.8584068131227
 20
1290.597315523963
 30
0.0
  0
VERTEX
  5
1A4
330
140
100
AcDbEntity
  8
Make2D$可见线$普通线
100
AcDbVertex
100
AcDb2dVertex
 10
703.8775104598883
 20
1290.56113935332
 30
0.0
  0
VERTEX
  5
1A5
330
140
100
AcDbEntity
  8
Make2D$可见线$普通线
100
AcDbVertex
100
AcDb2dVertex
 10
703.8957662052544
 20
1290.524650183907
 30
0.0
  0
VERTEX
  5
1A6
330
140
100
AcDbEntity
  8
Make2D$可见线$普通线
100
AcDbVertex
100
AcDb2dVertex
 10
703.9306064244884
 20
1290.451106025902
 30
0.0
  0
SEQEND
  5
1A7
330
140
100
AcDbEntity
  8
Make2D$可见线$普通线
  0
POLYLINE
  5
1A8
330
1F
100
AcDbEntity
  8
Make2D$可见线$普通线
100
AcDb2dPolyline
 66
     1
 10
0.0
 20
0.0
 30
0.0
  0
VERTEX
  5
1A9
330
1A8
100
AcDbEntity
  8
Make2D$可见线$普通线
100
AcDbVertex
100
AcDb2dVertex
 10
682.1370840567702
 20
1230.338904362571
 30
0.0
  0
VERTEX
  5
1AA
330
1A8
100
AcDbEntity
  8
Make2D$可见线$普通线
100
AcDbVertex
100
AcDb2dVertex
 10
682.1435899332519
 20
1230.303182945087
 30
0.0
  0
VERTEX
  5
1AB
330
1A8
100
AcDbEntity
  8
Make2D$可见线$普通线
100
AcDbVertex
100
AcDb2dVertex
 10
682.1451723930179
 20
1230.292983282773
 30
0.0
  0
VERTEX
  5
1AC
330
1A8
100
AcDbEntity
  8
Make2D$可见线$普通线
100
AcDbVertex
100
AcDb2dVertex
 10
682.1478047166718
 20
1230.269253209608
 30
0.0
  0
VERTEX
  5
1AD
330
1A8
100
AcDbEntity
  8
Make2D$可见线$普通线
100
AcDbVertex
100
AcDb2dVertex
 10
682.1487790510971
 20
1230.231394540503
 30
0.0
  0
VERTEX
  5
1AE
330
1A8
100
AcDbEntity
  8
Make2D$可见线$普通线
100
AcDbVertex
100
AcDb2dVertex
 10
682.1487790510968
 20
1190.231393894451
 30
0.0
 42
-0.4142131482968403
  0
VERTEX
  5
1AF
330
1A8
100
AcDbEntity
  8
Make2D$可见线$普通线
100
AcDbVertex
100
AcDb2dVertex
 10
681.648779051097
 20
1189.731393232252
 30
0.0
  0
VERTEX
  5
1B0
330
1A8
100
AcDbEntity
  8
Make2D$可见线$普通线
100
AcDbVertex
100
AcDb2dVertex
 10
664.7178111850914
 20
1189.731394161102
 30
0.0
  0
VERTEX
  5
1B1
330
1A8
100
AcDbEntity
  8
Make2D$可见线$普通线
100
AcDbVertex
100
AcDb2dVertex
 10
664.7173051944617
 20
1189.731394426371
 30
0.0
  0
VERTEX
  5
1B2
330
1A8
100
AcDbEntity
  8
Make2D$可见线$普通线
100
AcDbVertex
100
AcDb2dVertex
 10
664.4350962080985
 20
1189.729951688307
 30
0.0
  0
VERTEX
  5
1B3
330
1A8
100
AcDbEntity
  8
Make2D$可见线$普通线
100
AcDbVertex
100
AcDb2dVertex
 10
664.2941975722111
 20
1189.72654344277
 30
0.0
  0
VERTEX
  5
1B4
330
1A8
100
AcDbEntity
  8
Make2D$可见线$普通线
100
AcDbVertex
100
AcDb2dVertex
 10
664.1534205632177
 20
1189.720358460482
 30
0.0
  0
VERTEX
  5
1B5
330
1A8
100
AcDbEntity
  8
Make2D$可见线$普通线
100
AcDbVertex
100
AcDb2dVertex
 10
664.0391843420509
 20
1189.712808238737
 30
0.0
  0
VERTEX
  5
1B6
330
1A8
100
AcDbEntity
  8
Make2D$可见线$普通线
100
AcDbVertex
100
AcDb2dVertex
 10
663.9251318937208
 20
1189.702701586245
 30
0.0
  0
VERTEX
  5
1B7
330
1A8
100
AcDbEntity
  8
Make2D$可见线$普通线
100
AcDbVertex
100
AcDb2dVertex
 10
663.8113744836498
 20
1189.689801294782
 30
0.0
  0
VERTEX
  5
1B8
330
1A8
100
AcDbEntity
  8
Make2D$可见线$普通线
100
AcDbVertex
100
AcDb2dVertex
 10
663.6980233772606
 20
1189.673870156123
 30
0.0
  0
VERTEX
  5
1B9
330
1A8
100
AcDbEntity
  8
Make2D$可见线$普通线
100
AcDbVertex
100
AcDb2dVertex
 10
663.5847022465578
 20
1189.654632077213
 30
0.0
  0
VERTEX
  5
1BA
330
1A8
100
AcDbEntity
  8
Make2D$可见线$普通线
100
AcDbVertex
100
AcDb2dVertex
 10
663.4719783947202
 20
1189.632161237625
 30
0.0
  0
VERTEX
  5
1BB
330
1A8
100
AcDbEntity
  8
Make2D$可见线$普通线
100
AcDbVertex
100
AcDb2dVertex
 10
663.3599270944056
 20
1189.60652094903
 30
0.0
  0
VERTEX
  5
1BC
330
1A8
100
AcDbEntity
  8
Make2D$可见线$普通线
100
AcDbVertex
100
AcDb2dVertex
 10
663.248623618272
 20
1189.577774523102
 30
0.0
  0
VERTEX
  5
1BD
330
1A8
100
AcDbEntity
  8
Make2D$可见线$普通线
100
AcDbVertex
100
AcDb2dVertex
 10
663.1381432389767
 20
1189.545985271515
 30
0.0
  0
VERTEX
  5
1BE
330
1A8
100
AcDbEntity
  8
Make2D$可见线$普通线
100
AcDbVertex
100
AcDb2dVertex
 10
663.0285612291777
 20
1189.51121650594
 30
0.0
  0
VERTEX
  5
1BF
330
1A8
100
AcDbEntity
  8
Make2D$可见线$普通线
100
AcDbVertex
100
AcDb2dVertex
 10
662.9199528615327
 20
1189.473531538053
 30
0.0
  0
VERTEX
  5
1C0
330
1A8
100
AcDbEntity
  8
Make2D$可见线$普通线
100
AcDbVertex
100
AcDb2dVertex
 10
662.8123934086994
 20
1189.432993679524
 30
0.0
  0
VERTEX
  5
1C1
330
1A8
100
AcDbEntity
  8
Make2D$可见线$普通线
100
AcDbVertex
100
AcDb2dVertex
 10
662.6989495104177
 20
1189.386716443294
 30
0.0
  0
VERTEX
  5
1C2
330
1A8
100
AcDbEntity
  8
Make2D$可见线$普通线
100
AcDbVertex
100
AcDb2dVertex
 10
662.586790538366
 20
1189.337412496286
 30
0.0
  0
VERTEX
  5
1C3
330
1A8
100
AcDbEntity
  8
Make2D$可见线$普通线
100
AcDbVertex
100
AcDb2dVertex
 10
662.4759236861344
 20
1189.285225716433
 30
0.0
  0
VERTEX
  5
1C4
330
1A8
100
AcDbEntity
  8
Make2D$可见线$普通线
100
AcDbVertex
100
AcDb2dVertex
 10
662.3663561473124
 20
1189.230299981668
 30
0.0
  0
VERTEX
  5
1C5
330
1A8
100
AcDbEntity
  8
Make2D$可见线$普通线
100
AcDbVertex
100
AcDb2dVertex
 10
662.2580951154904
 20
1189.172779169924
 30
0.0
  0
VERTEX
  5
1C6
330
1A8
100
AcDbEntity
  8
Make2D$可见线$普通线
100
AcDbVertex
100
AcDb2dVertex
 10
662.1511477842578
 20
1189.112807159133
 30
0.0
  0
VERTEX
  5
1C7
330
1A8
100
AcDbEntity
  8
Make2D$可见线$普通线
100
AcDbVertex
100
AcDb2dVertex
 10
662.0455213472046
 20
1189.050527827229
 30
0.0
  0
VERTEX
  5
1C8
330
1A8
100
AcDbEntity
  8
Make2D$可见线$普通线
100
AcDbVertex
100
AcDb2dVertex
 10
661.9412229979208
 20
1188.986085052145
 30
0.0
  0
VERTEX
  5
1C9
330
1A8
100
AcDbEntity
  8
Make2D$可见线$普通线
100
AcDbVertex
100
AcDb2dVertex
 10
661.8185262461233
 20
1188.906547376611
 30
0.0
  0
VERTEX
  5
1CA
330
1A8
100
AcDbEntity
  8
Make2D$可见线$普通线
100
AcDbVertex
100
AcDb2dVertex
 10
661.6977066973648
 20
1188.824253544629
 30
0.0
  0
VERTEX
  5
1CB
330
1A8
100
AcDbEntity
  8
Make2D$可见线$普通线
100
AcDbVertex
100
AcDb2dVertex
 10
661.5787407989719
 20
1188.73932222471
 30
0.0
  0
VERTEX
  5
1CC
330
1A8
100
AcDbEntity
  8
Make2D$可见线$普通线
100
AcDbVertex
100
AcDb2dVertex
 10
661.4616049982717
 20
1188.651872085365
 30
0.0
  0
VERTEX
  5
1CD
330
1A8
100
AcDbEntity
  8
Make2D$可见线$普通线
100
AcDbVertex
100
AcDb2dVertex
 10
661.3462757425907
 20
1188.562021795106
 30
0.0
  0
VERTEX
  5
1CE
330
1A8
100
AcDbEntity
  8
Make2D$可见线$普通线
100
AcDbVertex
100
AcDb2dVertex
 10
661.2327294792562
 20
1188.469890022445
 30
0.0
  0
VERTEX
  5
1CF
330
1A8
100
AcDbEntity
  8
Make2D$可见线$普通线
100
AcDbVertex
100
AcDb2dVertex
 10
661.120942655595
 20
1188.375595435893
 30
0.0
  0
VERTEX
  5
1D0
330
1A8
100
AcDbEntity
  8
Make2D$可见线$普通线
100
AcDbVertex
100
AcDb2dVertex
 10
661.0108917189336
 20
1188.279256703962
 30
0.0
  0
VERTEX
  5
1D1
330
1A8
100
AcDbEntity
  8
Make2D$可见线$普通线
100
AcDbVertex
100
AcDb2dVertex
 10
660.8866540846901
 20
1188.16595294086
 30
0.0
  0
VERTEX
  5
1D2
330
1A8
100
AcDbEntity
  8
Make2D$可见线$普通线
100
AcDbVertex
100
AcDb2dVertex
 10
660.7644375774244
 20
1188.050350315395
 30
0.0
  0
VERTEX
  5
1D3
330
1A8
100
AcDbEntity
  8
Make2D$可见线$普通线
100
AcDbVertex
100
AcDb2dVertex
 10
660.6443054793848
 20
1187.932503451106
 30
0.0
  0
VERTEX
  5
1D4
330
1A8
100
AcDbEntity
  8
Make2D$可见线$普通线
100
AcDbVertex
100
AcDb2dVertex
 10
660.5263190836978
 20
1187.812469275963
 30
0.0
  0
VERTEX
  5
1D5
330
1A8
100
AcDbEntity
  8
Make2D$可见线$普通线
100
AcDbVertex
100
AcDb2dVertex
 10
660.4105375903067
 20
1187.690306930873
 30
0.0
  0
VERTEX
  5
1D6
330
1A8
100
AcDbEntity
  8
Make2D$可见线$普通线
100
AcDbVertex
100
AcDb2dVertex
 10
660.2970180070085
 20
1187.566077672605
 30
0.0
  0
VERTEX
  5
1D7
330
1A8
100
AcDbEntity
  8
Make2D$可见线$普通线
100
AcDbVertex
100
AcDb2dVertex
 10
660.1858150559373
 20
1187.439844771443
 30
0.0
  0
VERTEX
  5
1D8
330
1A8
100
AcDbEntity
  8
Make2D$可见线$普通线
100
AcDbVertex
100
AcDb2dVertex
 10
660.076981085816
 20
1187.311673403958
 30
0.0
  0
VERTEX
  5
1D9
330
1A8
100
AcDbEntity
  8
Make2D$可见线$普通线
100
AcDbVertex
100
AcDb2dVertex
 10
659.9474093499675
 20
1187.153474188925
 30
0.0
  0
VERTEX
  5
1DA
330
1A8
100
AcDbEntity
  8
Make2D$可见线$普通线
100
AcDbVertex
100
AcDb2dVertex
 10
659.8209453950058
 20
1186.992672730094
 30
0.0
  0
VERTEX
  5
1DB
330
1A8
100
AcDbEntity
  8
Make2D$可见线$普通线
100
AcDbVertex
100
AcDb2dVertex
 10
659.6977222090565
 20
1186.829342552799
 30
0.0
  0
VERTEX
  5
1DC
330
1A8
100
AcDbEntity
  8
Make2D$可见线$普通线
100
AcDbVertex
100
AcDb2dVertex
 10
659.5778727802456
 20
1186.663557182379
 30
0.0
  0
VERTEX
  5
1DD
330
1A8
100
AcDbEntity
  8
Make2D$可见线$普通线
100
AcDbVertex
100
AcDb2dVertex
 10
659.3838289318898
 20
1186.378820868491
 30
0.0
  0
VERTEX
  5
1DE
330
1A8
100
AcDbEntity
  8
Make2D$可见线$普通线
100
AcDbVertex
100
AcDb2dVertex
 10
659.1998207851211
 20
1186.087498340869
 30
0.0
  0
VERTEX
  5
1DF
330
1A8
100
AcDbEntity
  8
Make2D$可见线$普通线
100
AcDbVertex
100
AcDb2dVertex
 10
659.1018156286246
 20
1185.922570695218
 30
0.0
  0
VERTEX
  5
1E0
330
1A8
100
AcDbEntity
  8
Make2D$可见线$普通线
100
AcDbVertex
100
AcDb2dVertex
 10
659.0071370276106
 20
1185.755676262276
 30
0.0
  0
VERTEX
  5
1E1
330
1A8
100
AcDbEntity
  8
Make2D$可见线$普通线
100
AcDbVertex
100
AcDb2dVertex
 10
658.91597855218
 20
1185.586833768598
 30
0.0
  0
VERTEX
  5
1E2
330
1A8
100
AcDbEntity
  8
Make2D$可见线$普通线
100
AcDbVertex
100
AcDb2dVertex
 10
658.828533772434
 20
1185.416061940741
 30
0.0
  0
VERTEX
  5
1E3
330
1A8
100
AcDbEntity
  8
Make2D$可见线$普通线
100
AcDbVertex
100
AcDb2dVertex
 10
658.7449962584735
 20
1185.243379505263
 30
0.0
  0
VERTEX
  5
1E4
330
1A8
100
AcDbEntity
  8
Make2D$可见线$普通线
100
AcDbVertex
100
AcDb2dVertex
 10
658.6655595803998
 20
1185.068805188719
 30
0.0
  0
VERTEX
  5
1E5
330
1A8
100
AcDbEntity
  8
Make2D$可见线$普通线
100
AcDbVertex
100
AcDb2dVertex
 10
658.590417308314
 20
1184.892357717668
 30
0.0
  0
VERTEX
  5
1E6
330
1A8
100
AcDbEntity
  8
Make2D$可见线$普通线
100
AcDbVertex
100
AcDb2dVertex
 10
658.5197630123172
 20
1184.714055818666
 30
0.0
  0
VERTEX
  5
1E7
330
1A8
100
AcDbEntity
  8
Make2D$可见线$普通线
100
AcDbVertex
100
AcDb2dVertex
 10
658.462501396139
 20
1184.558547360627
 30
0.0
  0
VERTEX
  5
1E8
330
1A8
100
AcDbEntity
  8
Make2D$可见线$普通线
100
AcDbVertex
100
AcDb2dVertex
 10
658.4089463403458
 20
1184.40171371324
 30
0.0
  0
VERTEX
  5
1E9
330
1A8
100
AcDbEntity
  8
Make2D$可见线$普通线
100
AcDbVertex
100
AcDb2dVertex
 10
658.3593104461995
 20
1184.243599718629
 30
0.0
  0
VERTEX
  5
1EA
330
1A8
100
AcDbEntity
  8
Make2D$可见线$普通线
100
AcDbVertex
100
AcDb2dVertex
 10
658.3138063149615
 20
1184.084250218921
 30
0.0
  0
VERTEX
  5
1EB
330
1A8
100
AcDbEntity
  8
Make2D$可见线$普通线
100
AcDbVertex
100
AcDb2dVertex
 10
658.2731929671652
 20
1183.926017676176
 30
0.0
  0
VERTEX
  5
1EC
330
1A8
100
AcDbEntity
  8
Make2D$可见线$普通线
100
AcDbVertex
100
AcDb2dVertex
 10
658.2369505640327
 20
1183.766731848395
 30
0.0
  0
VERTEX
  5
1ED
330
1A8
100
AcDbEntity
  8
Make2D$可见线$普通线
100
AcDbVertex
100
AcDb2dVertex
 10
658.2052287059812
 20
1183.606496397353
 30
0.0
  0
VERTEX
  5
1EE
330
1A8
100
AcDbEntity
  8
Make2D$可见线$普通线
100
AcDbVertex
100
AcDb2dVertex
 10
658.1781769934271
 20
1183.445414984827
 30
0.0
  0
VERTEX
  5
1EF
330
1A8
100
AcDbEntity
  8
Make2D$可见线$普通线
100
AcDbVertex
100
AcDb2dVertex
 10
658.1577993569742
 20
1183.298907311201
 30
0.0
  0
VERTEX
  5
1F0
330
1A8
100
AcDbEntity
  8
Make2D$可见线$普通线
100
AcDbVertex
100
AcDb2dVertex
 10
658.1412760228263
 20
1183.1519053717
 30
0.0
  0
VERTEX
  5
1F1
330
1A8
100
AcDbEntity
  8
Make2D$可见线$普通线
100
AcDbVertex
100
AcDb2dVertex
 10
658.1285088190191
 20
1183.004523629734
 30
0.0
  0
VERTEX
  5
1F2
330
1A8
100
AcDbEntity
  8
Make2D$可见线$普通线
100
AcDbVertex
100
AcDb2dVertex
 10
658.1193995735878
 20
1182.856876548714
 30
0.0
  0
VERTEX
  5
1F3
330
1A8
100
AcDbEntity
  8
Make2D$可见线$普通线
100
AcDbVertex
100
AcDb2dVertex
 10
658.113119250257
 20
1182.685876893979
 30
0.0
  0
VERTEX
  5
1F4
330
1A8
100
AcDbEntity
  8
Make2D$可见线$普通线
100
AcDbVertex
100
AcDb2dVertex
 10
658.1107194106726
 20
1182.172497525216
 30
0.0
  0
SEQEND
  5
1F5
330
1A8
100
AcDbEntity
  8
Make2D$可见线$普通线
  0
POLYLINE
  5
1F6
330
1F
100
AcDbEntity
  8
Make2D$可见线$普通线
100
AcDb2dPolyline
 66
     1
 10
0.0
 20
0.0
 30
0.0
  0
VERTEX
  5
1F7
330
1F6
100
AcDbEntity
  8
Make2D$可见线$普通线
100
AcDbVertex
100
AcDb2dVertex
 10
658.1487895779267
 20
1165.28138311231
 30
0.0
  0
VERTEX
  5
1F8
330
1F6
100
AcDbEntity
  8
Make2D$可见线$普通线
100
AcDbVertex
100
AcDb2dVertex
 10
658.0987895562591
 20
1165.231393894453
 30
0.0
  0
VERTEX
  5
1F9
330
1F6
100
AcDbEntity
  8
Make2D$可见线$普通线
100
AcDbVertex
100
AcDb2dVertex
 10
608.1987748467169
 20
1165.231393894453
 30
0.0
  0
VERTEX
  5
1FA
330
1F6
100
AcDbEntity
  8
Make2D$可见线$普通线
100
AcDbVertex
100
AcDb2dVertex
 10
608.1487748388022
 20
1165.281389989014
 30
0.0
  0
SEQEND
  5
1FB
330
1F6
100
AcDbEntity
  8
Make2D$可见线$普通线
  0
POLYLINE
  5
1FC
330
1F
100
AcDbEntity
  8
Make2D$可见线$普通线
100
AcDb2dPolyline
 66
     1
 10
0.0
 20
0.0
 30
0.0
  0
VERTEX
  5
1FD
330
1FC
100
AcDbEntity
  8
Make2D$可见线$普通线
100
AcDbVertex
100
AcDb2dVertex
 10
644.2018805743157
 20
1421.728846638883
 30
0.0
  0
VERTEX
  5
1FE
330
1FC
100
AcDbEntity
  8
Make2D$可见线$普通线
100
AcDbVertex
100
AcDb2dVertex
 10
644.1789992666189
 20
1421.750211463306
 30
0.0
 42
0.0426365689158477
  0
VERTEX
  5
1FF
330
1FC
100
AcDbEntity
  8
Make2D$可见线$普通线
100
AcDbVertex
100
AcDb2dVertex
 10
643.7952235767642
 20
1422.045859571052
 30
0.0
 42
0.0534618468995162
  0
VERTEX
  5
200
330
1FC
100
AcDbEntity
  8
Make2D$可见线$普通线
100
AcDbVertex
100
AcDb2dVertex
 10
642.5872783009703
 20
1422.632482772096
 30
0.0
 42
0.0282791284209875
  0
VERTEX
  5
201
330
1FC
100
AcDbEntity
  8
Make2D$可见线$普通线
100
AcDbVertex
100
AcDb2dVertex
 10
641.1364291238382
 20
1423.078443495634
 30
0.0
 42
0.028617656262677
  0
VERTEX
  5
202
330
1FC
100
AcDbEntity
  8
Make2D$可见线$普通线
100
AcDbVertex
100
AcDb2dVertex
 10
638.3253833219433
 20
1423.598273571189
 30
0.0
  0
VERTEX
  5
203
330
1FC
100
AcDbEntity
  8
Make2D$可见线$普通线
100
AcDbVertex
100
AcDb2dVertex
 10
638.2964639116032
 20
1423.602059664421
 30
0.0
  0
VERTEX
  5
204
330
1FC
100
AcDbEntity
  8
Make2D$可见线$普通线
100
AcDbVertex
100
AcDb2dVertex
 10
638.1904924617322
 20
1423.615707474719
 30
0.0
 42
0.0160934009442945
  0
VERTEX
  5
205
330
1FC
100
AcDbEntity
  8
Make2D$可见线$普通线
100
AcDbVertex
100
AcDb2dVertex
 10
635.8215299637665
 20
1423.836566022698
 30
0.0
 42
0.0306377480100193
  0
VERTEX
  5
206
330
1FC
100
AcDbEntity
  8
Make2D$可见线$普通线
100
AcDbVertex
100
AcDb2dVertex
 10
630.4760281384275
 20
1423.836566022698
 30
0.0
 42
0.0160934009447106
  0
VERTEX
  5
207
330
1FC
100
AcDbEntity
  8
Make2D$可见线$普通线
100
AcDbVertex
100
AcDb2dVertex
 10
628.1070656404615
 20
1423.615707474719
 30
0.0
  0
VERTEX
  5
208
330
1FC
100
AcDbEntity
  8
Make2D$可见线$普通线
100
AcDbVertex
100
AcDb2dVertex
 10
628.0010941905907
 20
1423.602059664421
 30
0.0
  0
VERTEX
  5
209
330
1FC
100
AcDbEntity
  8
Make2D$可见线$普通线
100
AcDbVertex
100
AcDb2dVertex
 10
627.9721747802505
 20
1423.598273571189
 30
0.0
 42
0.0286176562626506
  0
VERTEX
  5
20A
330
1FC
100
AcDbEntity
  8
Make2D$可见线$普通线
100
AcDbVertex
100
AcDb2dVertex
 10
625.1611289783556
 20
1423.078443495634
 30
0.0
 42
0.0282791284204742
  0
VERTEX
  5
20B
330
1FC
100
AcDbEntity
  8
Make2D$可见线$普通线
100
AcDbVertex
100
AcDb2dVertex
 10
623.710279801224
 20
1422.632482772096
 30
0.0
 42
0.0534618468998317
  0
VERTEX
  5
20C
330
1FC
100
AcDbEntity
  8
Make2D$可见线$普通线
100
AcDbVertex
100
AcDb2dVertex
 10
622.5023345254301
 20
1422.045859571051
 30
0.0
 42
0.0426365689579904
  0
VERTEX
  5
20D
330
1FC
100
AcDbEntity
  8
Make2D$可见线$普通线
100
AcDbVertex
100
AcDb2dVertex
 10
622.1185588355789
 20
1421.75021146331
 30
0.0
  0
VERTEX
  5
20E
330
1FC
100
AcDbEntity
  8
Make2D$可见线$普通线
100
AcDbVertex
100
AcDb2dVertex
 10
622.0956775278777
 20
1421.728846638883
 30
0.0
  0
SEQEND
  5
20F
330
1FC
100
AcDbEntity
  8
Make2D$可见线$普通线
  0
POLYLINE
  5
210
330
1F
100
AcDbEntity
  8
Make2D$可见线$普通线
100
AcDb2dPolyline
 66
     1
 10
0.0
 20
0.0
 30
0.0
  0
VERTEX
  5
211
330
210
100
AcDbEntity
  8
Make2D$可见线$普通线
100
AcDbVertex
100
AcDb2dVertex
 10
682.1555816584926
 20
1230.266934869497
 30
0.0
  0
VERTEX
  5
212
330
210
100
AcDbEntity
  8
Make2D$可见线$普通线
100
AcDbVertex
100
AcDb2dVertex
 10
682.1429316804101
 20
1230.316964690474
 30
0.0
  0
VERTEX
  5
213
330
210
100
AcDbEntity
  8
Make2D$可见线$普通线
100
AcDbVertex
100
AcDb2dVertex
 10
682.1329893426196
 20
1230.356054473443
 30
0.0
 42
0.3422056557950308
  0
VERTEX
  5
214
330
210
100
AcDbEntity
  8
Make2D$可见线$普通线
100
AcDbVertex
100
AcDb2dVertex
 10
681.648779051097
 20
1230.731394556655
 30
0.0
  0
VERTEX
  5
215
330
210
100
AcDbEntity
  8
Make2D$可见线$普通线
100
AcDbVertex
100
AcDb2dVertex
 10
659.7102850943149
 20
1230.731393646922
 30
0.0
  0
VERTEX
  5
216
330
210
100
AcDbEntity
  8
Make2D$可见线$普通线
100
AcDbVertex
100
AcDb2dVertex
 10
659.1533462965642
 20
1230.737696731917
 30
0.0
  0
VERTEX
  5
217
330
210
100
AcDbEntity
  8
Make2D$可见线$普通线
100
AcDbVertex
100
AcDb2dVertex
 10
658.9240825327123
 20
1230.748066745485
 30
0.0
  0
VERTEX
  5
218
330
210
100
AcDbEntity
  8
Make2D$可见线$普通线
100
AcDbVertex
100
AcDb2dVertex
 10
658.6952280019598
 20
1230.765076108104
 30
0.0
  0
VERTEX
  5
219
330
210
100
AcDbEntity
  8
Make2D$可见线$普通线
100
AcDbVertex
100
AcDb2dVertex
 10
658.4771524875442
 20
1230.788369599087
 30
0.0
  0
VERTEX
  5
21A
330
210
100
AcDbEntity
  8
Make2D$可见线$普通线
100
AcDbVertex
100
AcDb2dVertex
 10
658.2599321624983
 20
1230.818651617875
 30
0.0
  0
VERTEX
  5
21B
330
210
100
AcDbEntity
  8
Make2D$可见线$普通线
100
AcDbVertex
100
AcDb2dVertex
 10
658.0437888569634
 20
1230.855851178678
 30
0.0
  0
VERTEX
  5
21C
330
210
100
AcDbEntity
  8
Make2D$可见线$普通线
100
AcDbVertex
100
AcDb2dVertex
 10
657.8289444010807
 20
1230.899897295708
 30
0.0
  0
VERTEX
  5
21D
330
210
100
AcDbEntity
  8
Make2D$可见线$普通线
100
AcDbVertex
100
AcDb2dVertex
 10
657.6014466840278
 20
1230.95429224445
 30
0.0
  0
VERTEX
  5
21E
330
210
100
AcDbEntity
  8
Make2D$可见线$普通线
100
AcDbVertex
100
AcDb2dVertex
 10
657.3758064512806
 20
1231.016003370942
 30
0.0
  0
VERTEX
  5
21F
330
210
100
AcDbEntity
  8
Make2D$可见线$普通线
100
AcDbVertex
100
AcDb2dVertex
 10
657.1521511711078
 20
1231.084638559868
 30
0.0
  0
VERTEX
  5
220
330
210
100
AcDbEntity
  8
Make2D$可见线$普通线
100
AcDbVertex
100
AcDb2dVertex
 10
656.9306083117788
 20
1231.159805695909
 30
0.0
  0
VERTEX
  5
221
330
210
100
AcDbEntity
  8
Make2D$可见线$普通线
100
AcDbVertex
100
AcDb2dVertex
 10
656.6999215680291
 20
1231.245539254927
 30
0.0
  0
VERTEX
  5
222
330
210
100
AcDbEntity
  8
Make2D$可见线$普通线
100
AcDbVertex
100
AcDb2dVertex
 10
656.4717556629869
 20
1231.337780727336
 30
0.0
  0
VERTEX
  5
223
330
210
100
AcDbEntity
  8
Make2D$可见线$普通线
100
AcDbVertex
100
AcDb2dVertex
 10
656.2371640395071
 20
1231.440335003916
 30
0.0
  0
VERTEX
  5
224
330
210
100
AcDbEntity
  8
Make2D$可见线$普通线
100
AcDbVertex
100
AcDb2dVertex
 10
656.0055319075377
 20
1231.549360392229
 30
0.0
  0
VERTEX
  5
225
330
210
100
AcDbEntity
  8
Make2D$可见线$普通线
100
AcDbVertex
100
AcDb2dVertex
 10
655.8257570058928
 20
1231.63937678692
 30
0.0
  0
VERTEX
  5
226
330
210
100
AcDbEntity
  8
Make2D$可见线$普通线
100
AcDbVertex
100
AcDb2dVertex
 10
655.6476726620184
 20
1231.73294103663
 30
0.0
  0
VERTEX
  5
227
330
210
100
AcDbEntity
  8
Make2D$可见线$普通线
100
AcDbVertex
100
AcDb2dVertex
 10
655.4713833974525
 20
1231.830004584641
 30
0.0
  0
VERTEX
  5
228
330
210
100
AcDbEntity
  8
Make2D$可见线$普通线
100
AcDbVertex
100
AcDb2dVertex
 10
655.2969918350558
 20
1231.930514787206
 30
0.0
  0
VERTEX
  5
229
330
210
100
AcDbEntity
  8
Make2D$可见线$普通线
100
AcDbVertex
100
AcDb2dVertex
 10
655.1245985001729
 20
1232.034415008298
 30
0.0
  0
VERTEX
  5
22A
330
210
100
AcDbEntity
  8
Make2D$可见线$普通线
100
AcDbVertex
100
AcDb2dVertex
 10
654.9543016275755
 20
1232.141644725901
 30
0.0
  0
VERTEX
  5
22B
330
210
100
AcDbEntity
  8
Make2D$可见线$普通线
100
AcDbVertex
100
AcDb2dVertex
 10
654.7861969749687
 20
1232.252139649445
 30
0.0
  0
VERTEX
  5
22C
330
210
100
AcDbEntity
  8
Make2D$可见线$普通线
100
AcDbVertex
100
AcDb2dVertex
 10
654.6203776437997
 20
1232.365831847881
 30
0.0
  0
VERTEX
  5
22D
330
210
100
AcDbEntity
  8
Make2D$可见线$普通线
100
AcDbVertex
100
AcDb2dVertex
 10
654.341101964917
 20
1232.56803407706
 30
0.0
  0
VERTEX
  5
22E
330
210
100
AcDbEntity
  8
Make2D$可见线$普通线
100
AcDbVertex
100
AcDb2dVertex
 10
654.0660909146576
 20
1232.78160475703
 30
0.0
  0
VERTEX
  5
22F
330
210
100
AcDbEntity
  8
Make2D$可见线$普通线
100
AcDbVertex
100
AcDb2dVertex
 10
653.9307102235773
 20
1232.892491759826
 30
0.0
  0
VERTEX
  5
230
330
210
100
AcDbEntity
  8
Make2D$可见线$普通线
100
AcDbVertex
100
AcDb2dVertex
 10
653.7970264076316
 20
1233.006027067838
 30
0.0
  0
VERTEX
  5
231
330
210
100
AcDbEntity
  8
Make2D$可见线$普通线
100
AcDbVertex
100
AcDb2dVertex
 10
653.6652497061468
 20
1233.12214607857
 30
0.0
  0
VERTEX
  5
232
330
210
100
AcDbEntity
  8
Make2D$可见线$普通线
100
AcDbVertex
100
AcDb2dVertex
 10
653.535590358449
 20
1233.240784189529
 30
0.0
  0
VERTEX
  5
233
330
210
100
AcDbEntity
  8
Make2D$可见线$普通线
100
AcDbVertex
100
AcDb2dVertex
 10
653.4082586038645
 20
1233.36187679822
 30
0.0
  0
VERTEX
  5
234
330
210
100
AcDbEntity
  8
Make2D$可见线$普通线
100
AcDbVertex
100
AcDb2dVertex
 10
653.2834646817198
 20
1233.485359302149
 30
0.0
  0
VERTEX
  5
235
330
210
100
AcDbEntity
  8
Make2D$可见线$普通线
100
AcDbVertex
100
AcDb2dVertex
 10
653.161418831341
 20
1233.611167098823
 30
0.0
  0
VERTEX
  5
236
330
210
100
AcDbEntity
  8
Make2D$可见线$普通线
100
AcDbVertex
100
AcDb2dVertex
 10
653.0423312920543
 20
1233.739235585746
 30
0.0
  0
VERTEX
  5
237
330
210
100
AcDbEntity
  8
Make2D$可见线$普通线
100
AcDbVertex
100
AcDb2dVertex
 10
652.926412303186
 20
1233.869500160426
 30
0.0
  0
VERTEX
  5
238
330
210
100
AcDbEntity
  8
Make2D$可见线$普通线
100
AcDbVertex
100
AcDb2dVertex
 10
652.8138721040624
 20
1234.001896220366
 30
0.0
  0
VERTEX
  5
239
330
210
100
AcDbEntity
  8
Make2D$可见线$普通线
100
AcDbVertex
100
AcDb2dVertex
 10
652.7049209340098
 20
1234.136359163073
 30
0.0
  0
VERTEX
  5
23A
330
210
100
AcDbEntity
  8
Make2D$可见线$普通线
100
AcDbVertex
100
AcDb2dVertex
 10
652.5997690323543
 20
1234.272824386053
 30
0.0
  0
VERTEX
  5
23B
330
210
100
AcDbEntity
  8
Make2D$可见线$普通线
100
AcDbVertex
100
AcDb2dVertex
 10
652.5160121178517
 20
1234.38688583107
 30
0.0
  0
VERTEX
  5
23C
330
210
100
AcDbEntity
  8
Make2D$可见线$普通线
100
AcDbVertex
100
AcDb2dVertex
 10
652.4349471277039
 20
1234.502451350549
 30
0.0
  0
VERTEX
  5
23D
330
210
100
AcDbEntity
  8
Make2D$可见线$普通线
100
AcDbVertex
100
AcDb2dVertex
 10
652.3566377134348
 20
1234.619594258229
 30
0.0
  0
VERTEX
  5
23E
330
210
100
AcDbEntity
  8
Make2D$可见线$普通线
100
AcDbVertex
100
AcDb2dVertex
 10
652.281147526568
 20
1234.738387867852
 30
0.0
  0
VERTEX
  5
23F
330
210
100
AcDbEntity
  8
Make2D$可见线$普通线
100
AcDbVertex
100
AcDb2dVertex
 10
652.208540218627
 20
1234.858905493159
 30
0.0
  0
VERTEX
  5
240
330
210
100
AcDbEntity
  8
Make2D$可见线$普通线
100
AcDbVertex
100
AcDb2dVertex
 10
652.1388794411355
 20
1234.98122044789
 30
0.0
  0
VERTEX
  5
241
330
210
100
AcDbEntity
  8
Make2D$可见线$普通线
100
AcDbVertex
100
AcDb2dVertex
 10
652.072228845617
 20
1235.105406045786
 30
0.0
  0
VERTEX
  5
242
330
210
100
AcDbEntity
  8
Make2D$可见线$普通线
100
AcDbVertex
100
AcDb2dVertex
 10
652.0086520835953
 20
1235.231535600587
 30
0.0
  0
VERTEX
  5
243
330
210
100
AcDbEntity
  8
Make2D$可见线$普通线
100
AcDbVertex
100
AcDb2dVertex
 10
651.9652100734941
 20
1235.322571935754
 30
0.0
  0
VERTEX
  5
244
330
210
100
AcDbEntity
  8
Make2D$可见线$普通线
100
AcDbVertex
100
AcDb2dVertex
 10
651.9245189461919
 20
1235.41184886742
 30
0.0
  0
VERTEX
  5
245
330
210
100
AcDbEntity
  8
Make2D$可见线$普通线
100
AcDbVertex
100
AcDb2dVertex
 10
651.8863572145669
 20
1235.499673132101
 30
0.0
  0
VERTEX
  5
246
330
210
100
AcDbEntity
  8
Make2D$可见线$普通线
100
AcDbVertex
100
AcDb2dVertex
 10
651.8505033914968
 20
1235.586351466313
 30
0.0
  0
VERTEX
  5
247
330
210
100
AcDbEntity
  8
Make2D$可见线$普通线
100
AcDbVertex
100
AcDb2dVertex
 10
651.7848335225324
 20
1235.75749728939
 30
0.0
  0
VERTEX
  5
248
330
210
100
AcDbEntity
  8
Make2D$可见线$普通线
100
AcDbVertex
100
AcDb2dVertex
 10
651.7257374423214
 20
1235.927740228776
 30
0.0
  0
VERTEX
  5
249
330
210
100
AcDbEntity
  8
Make2D$可见线$普通线
100
AcDbVertex
100
AcDb2dVertex
 10
651.6714432538865
 20
1236.099534176595
 30
0.0
  0
VERTEX
  5
24A
330
210
100
AcDbEntity
  8
Make2D$可见线$普通线
100
AcDbVertex
100
AcDb2dVertex
 10
651.6201790602506
 20
1236.275333024971
 30
0.0
  0
VERTEX
  5
24B
330
210
100
AcDbEntity
  8
Make2D$可见线$普通线
100
AcDbVertex
100
AcDb2dVertex
 10
651.5196530694659
 20
1236.64876099189
 30
0.0
  0
VERTEX
  5
24C
330
210
100
AcDbEntity
  8
Make2D$可见线$普通线
100
AcDbVertex
100
AcDb2dVertex
 10
651.1162787700127
 20
1238.180393894453
 30
0.0
  0
VERTEX
  5
24D
330
210
100
AcDbEntity
  8
Make2D$可见线$普通线
100
AcDbVertex
100
AcDb2dVertex
 10
650.1411837794442
 20
1241.811321505597
 30
0.0
  0
VERTEX
  5
24E
330
210
100
AcDbEntity
  8
Make2D$可见线$普通线
100
AcDbVertex
100
AcDb2dVertex
 10
649.1482396904686
 20
1245.437218069595
 30
0.0
  0
VERTEX
  5
24F
330
210
100
AcDbEntity
  8
Make2D$可见线$普通线
100
AcDbVertex
100
AcDb2dVertex
 10
647.1378882914855
 20
1252.695393894453
 30
0.0
  0
VERTEX
  5
250
330
210
100
AcDbEntity
  8
Make2D$可见线$普通线
100
AcDbVertex
100
AcDb2dVertex
 10
646.4135428444336
 20
1255.356692988139
 30
0.0
  0
VERTEX
  5
251
330
210
100
AcDbEntity
  8
Make2D$可见线$普通线
100
AcDbVertex
100
AcDb2dVertex
 10
646.070383501231
 20
1256.691648310222
 30
0.0
  0
VERTEX
  5
252
330
210
100
AcDbEntity
  8
Make2D$可见线$普通线
100
AcDbVertex
100
AcDb2dVertex
 10
645.7496169327605
 20
1258.030587856514
 30
0.0
  0
VERTEX
  5
253
330
210
100
AcDbEntity
  8
Make2D$可见线$普通线
100
AcDbVertex
100
AcDb2dVertex
 10
645.4585310299094
 20
1259.374346907548
 30
0.0
  0
VERTEX
  5
254
330
210
100
AcDbEntity
  8
Make2D$可见线$普通线
100
AcDbVertex
100
AcDb2dVertex
 10
645.3263957939935
 20
1260.04829477251
 30
0.0
  0
VERTEX
  5
255
330
210
100
AcDbEntity
  8
Make2D$可见线$普通线
100
AcDbVertex
100
AcDb2dVertex
 10
645.2044136835652
 20
1260.723760743859
 30
0.0
  0
VERTEX
  5
256
330
210
100
AcDbEntity
  8
Make2D$可见线$普通线
100
AcDbVertex
100
AcDb2dVertex
 10
645.0934956849853
 20
1261.400849231661
 30
0.0
  0
VERTEX
  5
257
330
210
100
AcDbEntity
  8
Make2D$可见线$普通线
100
AcDbVertex
100
AcDb2dVertex
 10
644.994552784615
 20
1262.079664645983
 30
0.0
  0
VERTEX
  5
258
330
210
100
AcDbEntity
  8
Make2D$可见线$普通线
100
AcDbVertex
100
AcDb2dVertex
 10
644.908495968815
 20
1262.760311396891
 30
0.0
  0
VERTEX
  5
259
330
210
100
AcDbEntity
  8
Make2D$可见线$普通线
100
AcDbVertex
100
AcDb2dVertex
 10
644.8362362239463
 20
1263.442893894453
 30
0.0
  0
VERTEX
  5
25A
330
210
100
AcDbEntity
  8
Make2D$可见线$普通线
100
AcDbVertex
100
AcDb2dVertex
 10
644.781870567557
 20
1264.079784124342
 30
0.0
  0
VERTEX
  5
25B
330
210
100
AcDbEntity
  8
Make2D$可见线$普通线
100
AcDbVertex
100
AcDb2dVertex
 10
644.7389326064726
 20
1264.719560857215
 30
0.0
  0
VERTEX
  5
25C
330
210
100
AcDbEntity
  8
Make2D$可见线$普通线
100
AcDbVertex
100
AcDb2dVertex
 10
644.6821526931518
 20
1266.012259794682
 30
0.0
  0
VERTEX
  5
25D
330
210
100
AcDbEntity
  8
Make2D$可见线$普通线
100
AcDbVertex
100
AcDb2dVertex
 10
644.6555223298506
 20
1267.329962632391
 30
0.0
  0
VERTEX
  5
25E
330
210
100
AcDbEntity
  8
Make2D$可见线$普通线
100
AcDbVertex
100
AcDb2dVertex
 10
644.6486673624357
 20
1268.68164129588
 30
0.0
  0
VERTEX
  5
25F
330
210
100
AcDbEntity
  8
Make2D$可见线$普通线
100
AcDbVertex
100
AcDb2dVertex
 10
644.5985510032172
 20
1268.731393894453
 30
0.0
  0
VERTEX
  5
260
330
210
100
AcDbEntity
  8
Make2D$可见线$普通线
100
AcDbVertex
100
AcDb2dVertex
 10
621.6987722940971
 20
1268.731393894453
 30
0.0
  0
VERTEX
  5
261
330
210
100
AcDbEntity
  8
Make2D$可见线$普通线
100
AcDbVertex
100
AcDb2dVertex
 10
621.6487722941321
 20
1268.68140656365
 30
0.0
  0
SEQEND
  5
262
330
210
100
AcDbEntity
  8
Make2D$可见线$普通线
  0
POLYLINE
  5
263
330
1F
100
AcDbEntity
  8
Make2D$可见线$普通线
100
AcDb2dPolyline
 66
     1
 10
0.0
 20
0.0
 30
0.0
  0
VERTEX
  5
264
330
263
100
AcDbEntity
  8
Make2D$可见线$普通线
100
AcDbVertex
100
AcDb2dVertex
 10
683.7056409776258
 20
1213.857983794895
 30
0.0
  0
VERTEX
  5
265
330
263
100
AcDbEntity
  8
Make2D$可见线$普通线
100
AcDbVertex
100
AcDb2dVertex
 10
683.7056409776258
 20
1230.292716982515
 30
0.0
 42
-0.414213463667585
  0
VERTEX
  5
266
330
263
100
AcDbEntity
  8
Make2D$可见线$普通线
100
AcDbVertex
100
AcDb2dVertex
 10
684.2056409775945
 20
1230.792717017353
 30
0.0
  0
VERTEX
  5
267
330
263
100
AcDbEntity
  8
Make2D$可见线$普通线
100
AcDbVertex
100
AcDb2dVertex
 10
684.644820625369
 20
1230.79271701735
 30
0.0
 42
0.0109187734077908
  0
VERTEX
  5
268
330
263
100
AcDbEntity
  8
Make2D$可见线$普通线
100
AcDbVertex
100
AcDb2dVertex
 10
691.484750890178
 20
1230.876610160801
 30
0.0
 42
0.0272394938091083
  0
VERTEX
  5
269
330
263
100
AcDbEntity
  8
Make2D$可见线$普通线
100
AcDbVertex
100
AcDb2dVertex
 10
695.1179279135735
 20
1231.244972955082
 30
0.0
 42
0.0873375005314874
  0
VERTEX
  5
26A
330
263
100
AcDbEntity
  8
Make2D$可见线$普通线
100
AcDbVertex
100
AcDb2dVertex
 10
698.5257368522869
 20
1232.411248998675
 30
0.0
 42
0.0325990978962975
  0
VERTEX
  5
26B
330
263
100
AcDbEntity
  8
Make2D$可见线$普通线
100
AcDbVertex
100
AcDb2dVertex
 10
699.4132934514514
 20
1232.979080212094
 30
0.0
  0
VERTEX
  5
26C
330
263
100
AcDbEntity
  8
Make2D$可见线$普通线
100
AcDbVertex
100
AcDb2dVertex
 10
699.4218494762811
 20
1232.985668106978
 30
0.0
  0
SEQEND
  5
26D
330
263
100
AcDbEntity
  8
Make2D$可见线$普通线
  0
POLYLINE
  5
26E
330
1F
100
AcDbEntity
  8
Make2D$可见线$普通线
100
AcDb2dPolyline
 66
     1
 10
0.0
 20
0.0
 30
0.0
  0
VERTEX
  5
26F
330
26E
100
AcDbEntity
  8
Make2D$可见线$普通线
100
AcDbVertex
100
AcDb2dVertex
 10
694.5952113270637
 20
1222.270382624736
 30
0.0
  0
VERTEX
  5
270
330
26E
100
AcDbEntity
  8
Make2D$可见线$普通线
100
AcDbVertex
100
AcDb2dVertex
 10
694.7813303653911
 20
1222.361253436896
 30
0.0
  0
VERTEX
  5
271
330
26E
100
AcDbEntity
  8
Make2D$可见线$普通线
100
AcDbVertex
100
AcDb2dVertex
 10
694.9651786711443
 20
1222.456771450294
 30
0.0
  0
VERTEX
  5
272
330
26E
100
AcDbEntity
  8
Make2D$可见线$普通线
100
AcDbVertex
100
AcDb2dVertex
 10
695.1465878104113
 20
1222.556918617168
 30
0.0
  0
VERTEX
  5
273
330
26E
100
AcDbEntity
  8
Make2D$可见线$普通线
100
AcDbVertex
100
AcDb2dVertex
 10
695.3253893492807
 20
1222.661676889757
 30
0.0
  0
VERTEX
  5
274
330
26E
100
AcDbEntity
  8
Make2D$可见线$普通线
100
AcDbVertex
100
AcDb2dVertex
 10
695.5014148538407
 20
1222.7710282203
 30
0.0
  0
VERTEX
  5
275
330
26E
100
AcDbEntity
  8
Make2D$可见线$普通线
100
AcDbVertex
100
AcDb2dVertex
 10
695.6744958901797
 20
1222.884954561037
 30
0.0
  0
VERTEX
  5
276
330
26E
100
AcDbEntity
  8
Make2D$可见线$普通线
100
AcDbVertex
100
AcDb2dVertex
 10
695.8444640243861
 20
1223.003437864205
 30
0.0
  0
VERTEX
  5
277
330
26E
100
AcDbEntity
  8
Make2D$可见线$普通线
100
AcDbVertex
100
AcDb2dVertex
 10
696.011150822548
 20
1223.126460082045
 30
0.0
  0
VERTEX
  5
278
330
26E
100
AcDbEntity
  8
Make2D$可见线$普通线
100
AcDbVertex
100
AcDb2dVertex
 10
696.189110839716
 20
1223.265824498384
 30
0.0
  0
VERTEX
  5
279
330
26E
100
AcDbEntity
  8
Make2D$可见线$普通线
100
AcDbVertex
100
AcDb2dVertex
 10
696.3628819689404
 20
1223.410384922365
 30
0.0
  0
VERTEX
  5
27A
330
26E
100
AcDbEntity
  8
Make2D$可见线$普通线
100
AcDbVertex
100
AcDb2dVertex
 10
696.5323825753147
 20
1223.559954873934
 30
0.0
  0
VERTEX
  5
27B
330
26E
100
AcDbEntity
  8
Make2D$可见线$普通线
100
AcDbVertex
100
AcDb2dVertex
 10
696.6975310239327
 20
1223.714347873036
 30
0.0
  0
VERTEX
  5
27C
330
26E
100
AcDbEntity
  8
Make2D$可见线$普通线
100
AcDbVertex
100
AcDb2dVertex
 10
696.8582456798879
 20
1223.873377439618
 30
0.0
  0
VERTEX
  5
27D
330
26E
100
AcDbEntity
  8
Make2D$可见线$普通线
100
AcDbVertex
100
AcDb2dVertex
 10
697.0144449082738
 20
1224.036857093623
 30
0.0
  0
VERTEX
  5
27E
330
26E
100
AcDbEntity
  8
Make2D$可见线$普通线
100
AcDbVertex
100
AcDb2dVertex
 10
697.1660470741842
 20
1224.204600354999
 30
0.0
  0
VERTEX
  5
27F
330
26E
100
AcDbEntity
  8
Make2D$可见线$普通线
100
AcDbVertex
100
AcDb2dVertex
 10
697.3129705427126
 20
1224.376420743689
 30
0.0
  0
VERTEX
  5
280
330
26E
100
AcDbEntity
  8
Make2D$可见线$普通线
100
AcDbVertex
100
AcDb2dVertex
 10
697.4568733030892
 20
1224.554312010383
 30
0.0
  0
VERTEX
  5
281
330
26E
100
AcDbEntity
  8
Make2D$可见线$普通线
100
AcDbVertex
100
AcDb2dVertex
 10
697.5959504732679
 20
1224.735984111883
 30
0.0
  0
VERTEX
  5
282
330
26E
100
AcDbEntity
  8
Make2D$可见线$普通线
100
AcDbVertex
100
AcDb2dVertex
 10
697.7302544914774
 20
1224.921231041999
 30
0.0
  0
VERTEX
  5
283
330
26E
100
AcDbEntity
  8
Make2D$可见线$普通线
100
AcDbVertex
100
AcDb2dVertex
 10
697.8598377959463
 20
1225.109846794538
 30
0.0
  0
VERTEX
  5
284
330
26E
100
AcDbEntity
  8
Make2D$可见线$普通线
100
AcDbVertex
100
AcDb2dVertex
 10
697.9847528249034
 20
1225.30162536331
 30
0.0
  0
VERTEX
  5
285
330
26E
100
AcDbEntity
  8
Make2D$可见线$普通线
100
AcDbVertex
100
AcDb2dVertex
 10
698.1050520165772
 20
1225.496360742121
 30
0.0
  0
VERTEX
  5
286
330
26E
100
AcDbEntity
  8
Make2D$可见线$普通线
100
AcDbVertex
100
AcDb2dVertex
 10
698.2207878091964
 20
1225.693846924782
 30
0.0
  0
VERTEX
  5
287
330
26E
100
AcDbEntity
  8
Make2D$可见线$普通线
100
AcDbVertex
100
AcDb2dVertex
 10
698.3320126409898
 20
1225.893877905099
 30
0.0
  0
VERTEX
  5
288
330
26E
100
AcDbEntity
  8
Make2D$可见线$普通线
100
AcDbVertex
100
AcDb2dVertex
 10
698.4370110697843
 20
1226.092778049488
 30
0.0
  0
VERTEX
  5
289
330
26E
100
AcDbEntity
  8
Make2D$可见线$普通线
100
AcDbVertex
100
AcDb2dVertex
 10
698.5378680623651
 20
1226.293783661406
 30
0.0
  0
VERTEX
  5
28A
330
26E
100
AcDbEntity
  8
Make2D$可见线$普通线
100
AcDbVertex
100
AcDb2dVertex
 10
698.6347496342717
 20
1226.496740663614
 30
0.0
  0
VERTEX
  5
28B
330
26E
100
AcDbEntity
  8
Make2D$可见线$普通线
100
AcDbVertex
100
AcDb2dVertex
 10
698.7278218010429
 20
1226.701494978877
 30
0.0
  0
VERTEX
  5
28C
330
26E
100
AcDbEntity
  8
Make2D$可见线$普通线
100
AcDbVertex
100
AcDb2dVertex
 10
698.8349158836845
 20
1226.949895392219
 30
0.0
  0
VERTEX
  5
28D
330
26E
100
AcDbEntity
  8
Make2D$可见线$普通线
100
AcDbVertex
100
AcDb2dVertex
 10
698.936911244775
 20
1227.200466128287
 30
0.0
  0
VERTEX
  5
28E
330
26E
100
AcDbEntity
  8
Make2D$可见线$普通线
100
AcDbVertex
100
AcDb2dVertex
 10
699.0339779804565
 20
1227.453001175979
 30
0.0
  0
VERTEX
  5
28F
330
26E
100
AcDbEntity
  8
Make2D$可见线$普通线
100
AcDbVertex
100
AcDb2dVertex
 10
699.1262861868703
 20
1227.707294524191
 30
0.0
  0
VERTEX
  5
290
330
26E
100
AcDbEntity
  8
Make2D$可见线$普通线
100
AcDbVertex
100
AcDb2dVertex
 10
699.2178480133633
 20
1227.97470002166
 30
0.0
  0
VERTEX
  5
291
330
26E
100
AcDbEntity
  8
Make2D$可见线$普通线
100
AcDbVertex
100
AcDb2dVertex
 10
699.3046020209313
 20
1228.243676212751
 30
0.0
  0
VERTEX
  5
292
330
26E
100
AcDbEntity
  8
Make2D$可见线$普通线
100
AcDbVertex
100
AcDb2dVertex
 10
699.464497314907
 20
1228.78584313961
 30
0.0
  0
VERTEX
  5
293
330
26E
100
AcDbEntity
  8
Make2D$可见线$普通线
100
AcDbVertex
100
AcDb2dVertex
 10
699.6075935400279
 20
1229.332800232392
 30
0.0
  0
VERTEX
  5
294
330
26E
100
AcDbEntity
  8
Make2D$可见线$普通线
100
AcDbVertex
100
AcDb2dVertex
 10
699.7355121675246
 20
1229.883552418723
 30
0.0
  0
VERTEX
  5
295
330
26E
100
AcDbEntity
  8
Make2D$可见线$普通线
100
AcDbVertex
100
AcDb2dVertex
 10
699.8768939096951
 20
1230.578759929297
 30
0.0
  0
VERTEX
  5
296
330
26E
100
AcDbEntity
  8
Make2D$可见线$普通线
100
AcDbVertex
100
AcDb2dVertex
 10
699.999140398193
 20
1231.277565661091
 30
0.0
  0
VERTEX
  5
297
330
26E
100
AcDbEntity
  8
Make2D$可见线$普通线
100
AcDbVertex
100
AcDb2dVertex
 10
700.1069145053408
 20
1231.997693244501
 30
0.0
  0
VERTEX
  5
298
330
26E
100
AcDbEntity
  8
Make2D$可见线$普通线
100
AcDbVertex
100
AcDb2dVertex
 10
700.198561867244
 20
1232.720085336358
 30
0.0
  0
VERTEX
  5
299
330
26E
100
AcDbEntity
  8
Make2D$可见线$普通线
100
AcDbVertex
100
AcDb2dVertex
 10
700.2765378846818
 20
1233.453420541691
 30
0.0
  0
VERTEX
  5
29A
330
26E
100
AcDbEntity
  8
Make2D$可见线$普通线
100
AcDbVertex
100
AcDb2dVertex
 10
700.3406094861571
 20
1234.188094534806
 30
0.0
  0
VERTEX
  5
29B
330
26E
100
AcDbEntity
  8
Make2D$可见线$普通线
100
AcDbVertex
100
AcDb2dVertex
 10
700.3912136126153
 20
1234.91509537906
 30
0.0
  0
VERTEX
  5
29C
330
26E
100
AcDbEntity
  8
Make2D$可见线$普通线
100
AcDbVertex
100
AcDb2dVertex
 10
700.4304087330772
 20
1235.642811615865
 30
0.0
  0
VERTEX
  5
29D
330
26E
100
AcDbEntity
  8
Make2D$可见线$普通线
100
AcDbVertex
100
AcDb2dVertex
 10
700.4642429899292
 20
1236.519315137151
 30
0.0
  0
VERTEX
  5
29E
330
26E
100
AcDbEntity
  8
Make2D$可见线$普通线
100
AcDbVertex
100
AcDb2dVertex
 10
700.4854220111249
 20
1237.396228444729
 30
0.0
  0
VERTEX
  5
29F
330
26E
100
AcDbEntity
  8
Make2D$可见线$普通线
100
AcDbVertex
100
AcDb2dVertex
 10
700.4978274481441
 20
1239.150532468932
 30
0.0
  0
VERTEX
  5
2A0
330
26E
100
AcDbEntity
  8
Make2D$可见线$普通线
100
AcDbVertex
100
AcDb2dVertex
 10
700.4978274505579
 20
1265.589292288631
 30
0.0
  0
SEQEND
  5
2A1
330
26E
100
AcDbEntity
  8
Make2D$可见线$普通线
  0
POLYLINE
  5
2A2
330
1F
100
AcDbEntity
  8
Make2D$可见线$普通线
100
AcDb2dPolyline
 66
     1
 10
0.0
 20
0.0
 30
0.0
  0
VERTEX
  5
2A3
330
2A2
100
AcDbEntity
  8
Make2D$可见线$普通线
100
AcDbVertex
100
AcDb2dVertex
 10
703.1305913841306
 20
1190.271032356744
 30
0.0
  0
VERTEX
  5
2A4
330
2A2
100
AcDbEntity
  8
Make2D$可见线$普通线
100
AcDbVertex
100
AcDb2dVertex
 10
703.0974356574161
 20
1190.207937417232
 30
0.0
  0
VERTEX
  5
2A5
330
2A2
100
AcDbEntity
  8
Make2D$可见线$普通线
100
AcDbVertex
100
AcDb2dVertex
 10
703.0798839013478
 20
1190.176707646455
 30
0.0
  0
VERTEX
  5
2A6
330
2A2
100
AcDbEntity
  8
Make2D$可见线$普通线
100
AcDbVertex
100
AcDb2dVertex
 10
703.0614331011079
 20
1190.145846036521
 30
0.0
  0
VERTEX
  5
2A7
330
2A2
100
AcDbEntity
  8
Make2D$可见线$普通线
100
AcDbVertex
100
AcDb2dVertex
 10
703.0518120166822
 20
1190.130589939101
 30
0.0
  0
VERTEX
  5
2A8
330
2A2
100
AcDbEntity
  8
Make2D$可见线$普通线
100
AcDbVertex
100
AcDb2dVertex
 10
703.0418959199238
 20
1190.115469858571
 30
0.0
  0
VERTEX
  5
2A9
330
2A2
100
AcDbEntity
  8
Make2D$可见线$普通线
100
AcDbVertex
100
AcDb2dVertex
 10
703.0316613937362
 20
1190.100500453823
 30
0.0
  0
VERTEX
  5
2AA
330
2A2
100
AcDbEntity
  8
Make2D$可见线$普通线
100
AcDbVertex
100
AcDb2dVertex
 10
703.0210850210226
 20
1190.08569638375
 30
0.0
  0
VERTEX
  5
2AB
330
2A2
100
AcDbEntity
  8
Make2D$可见线$普通线
100
AcDbVertex
100
AcDb2dVertex
 10
703.0101433846864
 20
1190.071072307243
 30
0.0
  0
VERTEX
  5
2AC
330
2A2
100
AcDbEntity
  8
Make2D$可见线$普通线
100
AcDbVertex
100
AcDb2dVertex
 10
702.9988130676313
 20
1190.056642883198
 30
0.0
  0
VERTEX
  5
2AD
330
2A2
100
AcDbEntity
  8
Make2D$可见线$普通线
100
AcDbVertex
100
AcDb2dVertex
 10
702.9870706527604
 20
1190.042422770505
 30
0.0
  0
VERTEX
  5
2AE
330
2A2
100
AcDbEntity
  8
Make2D$可见线$普通线
100
AcDbVertex
100
AcDb2dVertex
 10
702.9748927229771
 20
1190.028426628058
 30
0.0
  0
VERTEX
  5
2AF
330
2A2
100
AcDbEntity
  8
Make2D$可见线$普通线
100
AcDbVertex
100
AcDb2dVertex
 10
702.9622620622852
 20
1190.014668168595
 30
0.0
  0
VERTEX
  5
2B0
330
2A2
100
AcDbEntity
  8
Make2D$可见线$普通线
100
AcDbVertex
100
AcDb2dVertex
 10
702.9491864443416
 20
1190.001157520219
 30
0.0
  0
VERTEX
  5
2B1
330
2A2
100
AcDbEntity
  8
Make2D$可见线$普通线
100
AcDbVertex
100
AcDb2dVertex
 10
702.9356798461336
 20
1189.987903863719
 30
0.0
  0
VERTEX
  5
2B2
330
2A2
100
AcDbEntity
  8
Make2D$可见线$普通线
100
AcDbVertex
100
AcDb2dVertex
 10
702.9217562446482
 20
1189.974916379884
 30
0.0
  0
VERTEX
  5
2B3
330
2A2
100
AcDbEntity
  8
Make2D$可见线$普通线
100
AcDbVertex
100
AcDb2dVertex
 10
702.9074296168728
 20
1189.962204249502
 30
0.0
  0
VERTEX
  5
2B4
330
2A2
100
AcDbEntity
  8
Make2D$可见线$普通线
100
AcDbVertex
100
AcDb2dVertex
 10
702.8927139397945
 20
1189.949776653364
 30
0.0
  0
VERTEX
  5
2B5
330
2A2
100
AcDbEntity
  8
Make2D$可见线$普通线
100
AcDbVertex
100
AcDb2dVertex
 10
702.8776231904002
 20
1189.937642772257
 30
0.0
  0
VERTEX
  5
2B6
330
2A2
100
AcDbEntity
  8
Make2D$可见线$普通线
100
AcDbVertex
100
AcDb2dVertex
 10
702.8621713456773
 20
1189.925811786971
 30
0.0
  0
VERTEX
  5
2B7
330
2A2
100
AcDbEntity
  8
Make2D$可见线$普通线
100
AcDbVertex
100
AcDb2dVertex
 10
702.846372382613
 20
1189.914292878294
 30
0.0
  0
VERTEX
  5
2B8
330
2A2
100
AcDbEntity
  8
Make2D$可见线$普通线
100
AcDbVertex
100
AcDb2dVertex
 10
702.8302402781942
 20
1189.903095227016
 30
0.0
  0
VERTEX
  5
2B9
330
2A2
100
AcDbEntity
  8
Make2D$可见线$普通线
100
AcDbVertex
100
AcDb2dVertex
 10
702.8137890094083
 20
1189.892228013926
 30
0.0
  0
VERTEX
  5
2BA
330
2A2
100
AcDbEntity
  8
Make2D$可见线$普通线
100
AcDbVertex
100
AcDb2dVertex
 10
702.7970325532424
 20
1189.881700419812
 30
0.0
  0
VERTEX
  5
2BB
330
2A2
100
AcDbEntity
  8
Make2D$可见线$普通线
100
AcDbVertex
100
AcDb2dVertex
 10
702.7799848866837
 20
1189.871521625463
 30
0.0
  0
VERTEX
  5
2BC
330
2A2
100
AcDbEntity
  8
Make2D$可见线$普通线
100
AcDbVertex
100
AcDb2dVertex
 10
702.7626599867192
 20
1189.861700811668
 30
0.0
  0
VERTEX
  5
2BD
330
2A2
100
AcDbEntity
  8
Make2D$可见线$普通线
100
AcDbVertex
100
AcDb2dVertex
 10
702.7450718303362
 20
1189.852247159217
 30
0.0
  0
VERTEX
  5
2BE
330
2A2
100
AcDbEntity
  8
Make2D$可见线$普通线
100
AcDbVertex
100
AcDb2dVertex
 10
702.7272343945217
 20
1189.843169848898
 30
0.0
  0
VERTEX
  5
2BF
330
2A2
100
AcDbEntity
  8
Make2D$可见线$普通线
100
AcDbVertex
100
AcDb2dVertex
 10
702.7091628199896
 20
1189.834476140397
 30
0.0
  0
VERTEX
  5
2C0
330
2A2
100
AcDbEntity
  8
Make2D$可见线$普通线
100
AcDbVertex
100
AcDb2dVertex
 10
702.6908769023601
 20
1189.826165608991
 30
0.0
  0
VERTEX
  5
2C1
330
2A2
100
AcDbEntity
  8
Make2D$可见线$普通线
100
AcDbVertex
100
AcDb2dVertex
 10
702.6723976009798
 20
1189.818235908852
 30
0.0
  0
VERTEX
  5
2C2
330
2A2
100
AcDbEntity
  8
Make2D$可见线$普通线
100
AcDbVertex
100
AcDb2dVertex
 10
702.6537458751955
 20
1189.810684694154
 30
0.0
  0
VERTEX
  5
2C3
330
2A2
100
AcDbEntity
  8
Make2D$可见线$普通线
100
AcDbVertex
100
AcDb2dVertex
 10
702.634942684354
 20
1189.80350961907
 30
0.0
  0
VERTEX
  5
2C4
330
2A2
100
AcDbEntity
  8
Make2D$可见线$普通线
100
AcDbVertex
100
AcDb2dVertex
 10
702.6160089878019
 20
1189.796708337773
 30
0.0
  0
VERTEX
  5
2C5
330
2A2
100
AcDbEntity
  8
Make2D$可见线$普通线
100
AcDbVertex
100
AcDb2dVertex
 10
702.5969657448863
 20
1189.790278504438
 30
0.0
  0
VERTEX
  5
2C6
330
2A2
100
AcDbEntity
  8
Make2D$可见线$普通线
100
AcDbVertex
100
AcDb2dVertex
 10
702.5778339149537
 20
1189.784217773235
 30
0.0
  0
VERTEX
  5
2C7
330
2A2
100
AcDbEntity
  8
Make2D$可见线$普通线
100
AcDbVertex
100
AcDb2dVertex
 10
702.5586344573508
 20
1189.778523798339
 30
0.0
  0
VERTEX
  5
2C8
330
2A2
100
AcDbEntity
  8
Make2D$可见线$普通线
100
AcDbVertex
100
AcDb2dVertex
 10
702.5393883314244
 20
1189.773194233924
 30
0.0
  0
VERTEX
  5
2C9
330
2A2
100
AcDbEntity
  8
Make2D$可见线$普通线
100
AcDbVertex
100
AcDb2dVertex
 10
702.5201164965214
 20
1189.768226734162
 30
0.0
  0
VERTEX
  5
2CA
330
2A2
100
AcDbEntity
  8
Make2D$可见线$普通线
100
AcDbVertex
100
AcDb2dVertex
 10
702.5008399119884
 20
1189.763618953227
 30
0.0
  0
VERTEX
  5
2CB
330
2A2
100
AcDbEntity
  8
Make2D$可见线$普通线
100
AcDbVertex
100
AcDb2dVertex
 10
702.4623563314194
 20
1189.75547316453
 30
0.0
  0
VERTEX
  5
2CC
330
2A2
100
AcDbEntity
  8
Make2D$可见线$普通线
100
AcDbVertex
100
AcDb2dVertex
 10
702.4241052644917
 20
1189.748738101217
 30
0.0
  0
VERTEX
  5
2CD
330
2A2
100
AcDbEntity
  8
Make2D$可见线$普通线
100
AcDbVertex
100
AcDb2dVertex
 10
702.3862231555067
 20
1189.743371564559
 30
0.0
  0
VERTEX
  5
2CE
330
2A2
100
AcDbEntity
  8
Make2D$可见线$普通线
100
AcDbVertex
100
AcDb2dVertex
 10
702.3487214728175
 20
1189.73923762005
 30
0.0
  0
VERTEX
  5
2CF
330
2A2
100
AcDbEntity
  8
Make2D$可见线$普通线
100
AcDbVertex
100
AcDb2dVertex
 10
702.3115804544955
 20
1189.736176901732
 30
0.0
  0
VERTEX
  5
2D0
330
2A2
100
AcDbEntity
  8
Make2D$可见线$普通线
100
AcDbVertex
100
AcDb2dVertex
 10
702.2747803386121
 20
1189.734030043646
 30
0.0
  0
VERTEX
  5
2D1
330
2A2
100
AcDbEntity
  8
Make2D$可见线$普通线
100
AcDbVertex
100
AcDb2dVertex
 10
702.2021237664467
 20
1189.731840444336
 30
0.0
  0
VERTEX
  5
2D2
330
2A2
100
AcDbEntity
  8
Make2D$可见线$普通线
100
AcDbVertex
100
AcDb2dVertex
 10
702.1305936608923
 20
1189.731393894452
 30
0.0
  0
VERTEX
  5
2D3
330
2A2
100
AcDbEntity
  8
Make2D$可见线$普通线
100
AcDbVertex
100
AcDb2dVertex
 10
693.4119191478969
 20
1189.731395541794
 30
0.0
 42
-0.2914394942685942
  0
VERTEX
  5
2D4
330
2A2
100
AcDbEntity
  8
Make2D$可见线$普通线
100
AcDbVertex
100
AcDb2dVertex
 10
692.9587704399536
 20
1190.020080170471
 30
0.0
  0
VERTEX
  5
2D5
330
2A2
100
AcDbEntity
  8
Make2D$可见线$普通线
100
AcDbVertex
100
AcDb2dVertex
 10
685.3921008125973
 20
1206.246855543181
 30
0.0
 42
-0.0557744599103916
  0
VERTEX
  5
2D6
330
2A2
100
AcDbEntity
  8
Make2D$可见线$普通线
100
AcDbVertex
100
AcDb2dVertex
 10
684.1121103501291
 20
1210.050419899337
 30
0.0
 42
-0.0530012937299537
  0
VERTEX
  5
2D7
330
2A2
100
AcDbEntity
  8
Make2D$可见线$普通线
100
AcDbVertex
100
AcDb2dVertex
 10
683.7056409775914
 20
1213.853984255493
 30
0.0
  0
SEQEND
  5
2D8
330
2A2
100
AcDbEntity
  8
Make2D$可见线$普通线
  0
POLYLINE
  5
2D9
330
1F
100
AcDbEntity
  8
Make2D$可见线$普通线
100
AcDb2dPolyline
 66
     1
 10
0.0
 20
0.0
 30
0.0
  0
VERTEX
  5
2DA
330
2D9
100
AcDbEntity
  8
Make2D$可见线$普通线
100
AcDbVertex
100
AcDb2dVertex
 10
644.6472891183569
 20
1420.954622670144
 30
0.0
  0
VERTEX
  5
2DB
330
2D9
100
AcDbEntity
  8
Make2D$可见线$普通线
100
AcDbVertex
100
AcDb2dVertex
 10
644.648423046744
 20
1420.978950792489
 30
0.0
  0
VERTEX
  5
2DC
330
2D9
100
AcDbEntity
  8
Make2D$可见线$普通线
100
AcDbVertex
100
AcDb2dVertex
 10
644.6487790510969
 20
1421.003302716772
 30
0.0
  0
VERTEX
  5
2DD
330
2D9
100
AcDbEntity
  8
Make2D$可见线$普通线
100
AcDbVertex
100
AcDb2dVertex
 10
644.6486074112693
 20
1421.019680307982
 30
0.0
  0
VERTEX
  5
2DE
330
2D9
100
AcDbEntity
  8
Make2D$可见线$普通线
100
AcDbVertex
100
AcDb2dVertex
 10
644.6480847990094
 20
1421.03605750018
 30
0.0
  0
VERTEX
  5
2DF
330
2D9
100
AcDbEntity
  8
Make2D$可见线$普通线
100
AcDbVertex
100
AcDb2dVertex
 10
644.6472115275712
 20
1421.05243379951
 30
0.0
  0
VERTEX
  5
2E0
330
2D9
100
AcDbEntity
  8
Make2D$可见线$普通线
100
AcDbVertex
100
AcDb2dVertex
 10
644.6459879102081
 20
1421.068808712115
 30
0.0
  0
VERTEX
  5
2E1
330
2D9
100
AcDbEntity
  8
Make2D$可见线$普通线
100
AcDbVertex
100
AcDb2dVertex
 10
644.6444142601734
 20
1421.085181744138
 30
0.0
  0
VERTEX
  5
2E2
330
2D9
100
AcDbEntity
  8
Make2D$可见线$普通线
100
AcDbVertex
100
AcDb2dVertex
 10
644.6424908907211
 20
1421.101552401722
 30
0.0
  0
VERTEX
  5
2E3
330
2D9
100
AcDbEntity
  8
Make2D$可见线$普通线
100
AcDbVertex
100
AcDb2dVertex
 10
644.6402181151045
 20
1421.117920191009
 30
0.0
  0
VERTEX
  5
2E4
330
2D9
100
AcDbEntity
  8
Make2D$可见线$普通线
100
AcDbVertex
100
AcDb2dVertex
 10
644.6375962465776
 20
1421.134284618144
 30
0.0
  0
VERTEX
  5
2E5
330
2D9
100
AcDbEntity
  8
Make2D$可见线$普通线
100
AcDbVertex
100
AcDb2dVertex
 10
644.6346255983935
 20
1421.150645189269
 30
0.0
  0
VERTEX
  5
2E6
330
2D9
100
AcDbEntity
  8
Make2D$可见线$普通线
100
AcDbVertex
100
AcDb2dVertex
 10
644.6313064838062
 20
1421.167001410528
 30
0.0
  0
VERTEX
  5
2E7
330
2D9
100
AcDbEntity
  8
Make2D$可见线$普通线
100
AcDbVertex
100
AcDb2dVertex
 10
644.6276392160689
 20
1421.183352788062
 30
0.0
  0
VERTEX
  5
2E8
330
2D9
100
AcDbEntity
  8
Make2D$可见线$普通线
100
AcDbVertex
100
AcDb2dVertex
 10
644.6236241084355
 20
1421.199698828015
 30
0.0
  0
VERTEX
  5
2E9
330
2D9
100
AcDbEntity
  8
Make2D$可见线$普通线
100
AcDbVertex
100
AcDb2dVertex
 10
644.6192614741594
 20
1421.216039036531
 30
0.0
  0
VERTEX
  5
2EA
330
2D9
100
AcDbEntity
  8
Make2D$可见线$普通线
100
AcDbVertex
100
AcDb2dVertex
 10
644.6145516264944
 20
1421.232372919752
 30
0.0
  0
VERTEX
  5
2EB
330
2D9
100
AcDbEntity
  8
Make2D$可见线$普通线
100
AcDbVertex
100
AcDb2dVertex
 10
644.609494878694
 20
1421.248699983821
 30
0.0
  0
VERTEX
  5
2EC
330
2D9
100
AcDbEntity
  8
Make2D$可见线$普通线
100
AcDbVertex
100
AcDb2dVertex
 10
644.6040915440117
 20
1421.265019734881
 30
0.0
  0
VERTEX
  5
2ED
330
2D9
100
AcDbEntity
  8
Make2D$可见线$普通线
100
AcDbVertex
100
AcDb2dVertex
 10
644.5983419357012
 20
1421.281331679075
 30
0.0
  0
VERTEX
  5
2EE
330
2D9
100
AcDbEntity
  8
Make2D$可见线$普通线
100
AcDbVertex
100
AcDb2dVertex
 10
644.5922463670161
 20
1421.297635322547
 30
0.0
  0
VERTEX
  5
2EF
330
2D9
100
AcDbEntity
  8
Make2D$可见线$普通线
100
AcDbVertex
100
AcDb2dVertex
 10
644.5858051512098
 20
1421.31393017144
 30
0.0
  0
VERTEX
  5
2F0
330
2D9
100
AcDbEntity
  8
Make2D$可见线$普通线
100
AcDbVertex
100
AcDb2dVertex
 10
644.5790186015362
 20
1421.330215731895
 30
0.0
  0
VERTEX
  5
2F1
330
2D9
100
AcDbEntity
  8
Make2D$可见线$普通线
100
AcDbVertex
100
AcDb2dVertex
 10
644.5718870312487
 20
1421.346491510057
 30
0.0
  0
VERTEX
  5
2F2
330
2D9
100
AcDbEntity
  8
Make2D$可见线$普通线
100
AcDbVertex
100
AcDb2dVertex
 10
644.5644107536008
 20
1421.362757012068
 30
0.0
  0
VERTEX
  5
2F3
330
2D9
100
AcDbEntity
  8
Make2D$可见线$普通线
100
AcDbVertex
100
AcDb2dVertex
 10
644.5484253292386
 20
1421.395255212211
 30
0.0
  0
VERTEX
  5
2F4
330
2D9
100
AcDbEntity
  8
Make2D$可见线$普通线
100
AcDbVertex
100
AcDb2dVertex
 10
644.5310648344786
 20
1421.427706381468
 30
0.0
  0
VERTEX
  5
2F5
330
2D9
100
AcDbEntity
  8
Make2D$可见线$普通线
100
AcDbVertex
100
AcDb2dVertex
 10
644.5123317753494
 20
1421.460106568984
 30
0.0
  0
VERTEX
  5
2F6
330
2D9
100
AcDbEntity
  8
Make2D$可见线$普通线
100
AcDbVertex
100
AcDb2dVertex
 10
644.4922286578797
 20
1421.492451823902
 30
0.0
  0
VERTEX
  5
2F7
330
2D9
100
AcDbEntity
  8
Make2D$可见线$普通线
100
AcDbVertex
100
AcDb2dVertex
 10
644.4707579880982
 20
1421.524738195366
 30
0.0
  0
VERTEX
  5
2F8
330
2D9
100
AcDbEntity
  8
Make2D$可见线$普通线
100
AcDbVertex
100
AcDb2dVertex
 10
644.4479222720338
 20
1421.556961732521
 30
0.0
  0
VERTEX
  5
2F9
330
2D9
100
AcDbEntity
  8
Make2D$可见线$普通线
100
AcDbVertex
100
AcDb2dVertex
 10
644.423724015715
 20
1421.589118484511
 30
0.0
  0
VERTEX
  5
2FA
330
2D9
100
AcDbEntity
  8
Make2D$可见线$普通线
100
AcDbVertex
100
AcDb2dVertex
 10
644.3981657251708
 20
1421.621204500481
 30
0.0
  0
VERTEX
  5
2FB
330
2D9
100
AcDbEntity
  8
Make2D$可见线$普通线
100
AcDbVertex
100
AcDb2dVertex
 10
644.3712499064296
 20
1421.653215829574
 30
0.0
  0
VERTEX
  5
2FC
330
2D9
100
AcDbEntity
  8
Make2D$可见线$普通线
100
AcDbVertex
100
AcDb2dVertex
 10
644.3429790655205
 20
1421.685148520935
 30
0.0
  0
VERTEX
  5
2FD
330
2D9
100
AcDbEntity
  8
Make2D$可见线$普通线
100
AcDbVertex
100
AcDb2dVertex
 10
644.3133557084722
 20
1421.716998623707
 30
0.0
  0
VERTEX
  5
2FE
330
2D9
100
AcDbEntity
  8
Make2D$可见线$普通线
100
AcDbVertex
100
AcDb2dVertex
 10
644.2823823413132
 20
1421.748762187036
 30
0.0
  0
VERTEX
  5
2FF
330
2D9
100
AcDbEntity
  8
Make2D$可见线$普通线
100
AcDbVertex
100
AcDb2dVertex
 10
644.2500614700726
 20
1421.780435260066
 30
0.0
  0
VERTEX
  5
300
330
2D9
100
AcDbEntity
  8
Make2D$可见线$普通线
100
AcDbVertex
100
AcDb2dVertex
 10
644.2163956007789
 20
1421.812013891939
 30
0.0
  0
VERTEX
  5
301
330
2D9
100
AcDbEntity
  8
Make2D$可见线$普通线
100
AcDbVertex
100
AcDb2dVertex
 10
644.1813872394608
 20
1421.843494131802
 30
0.0
  0
VERTEX
  5
302
330
2D9
100
AcDbEntity
  8
Make2D$可见线$普通线
100
AcDbVertex
100
AcDb2dVertex
 10
644.1450388921471
 20
1421.874872028798
 30
0.0
  0
VERTEX
  5
303
330
2D9
100
AcDbEntity
  8
Make2D$可见线$普通线
100
AcDbVertex
100
AcDb2dVertex
 10
644.1073530648666
 20
1421.906143632071
 30
0.0
  0
VERTEX
  5
304
330
2D9
100
AcDbEntity
  8
Make2D$可见线$普通线
100
AcDbVertex
100
AcDb2dVertex
 10
644.068332263648
 20
1421.937304990765
 30
0.0
  0
VERTEX
  5
305
330
2D9
100
AcDbEntity
  8
Make2D$可见线$普通线
100
AcDbVertex
100
AcDb2dVertex
 10
644.02797899452
 20
1421.968352154025
 30
0.0
  0
VERTEX
  5
306
330
2D9
100
AcDbEntity
  8
Make2D$可见线$普通线
100
AcDbVertex
100
AcDb2dVertex
 10
643.9432850766511
 20
1422.030088090818
 30
0.0
  0
VERTEX
  5
307
330
2D9
100
AcDbEntity
  8
Make2D$可见线$普通线
100
AcDbVertex
100
AcDb2dVertex
 10
643.8902321248858
 20
1422.066682319012
 30
0.0
  0
VERTEX
  5
308
330
2D9
100
AcDbEntity
  8
Make2D$可见线$普通线
100
AcDbVertex
100
AcDb2dVertex
 10
643.8353066084051
 20
1422.103091319206
 30
0.0
  0
VERTEX
  5
309
330
2D9
100
AcDbEntity
  8
Make2D$可见线$普通线
100
AcDbVertex
100
AcDb2dVertex
 10
643.7198932989763
 20
1422.175330575267
 30
0.0
  0
VERTEX
  5
30A
330
2D9
100
AcDbEntity
  8
Make2D$可见线$普通线
100
AcDbVertex
100
AcDb2dVertex
 10
643.5971559837212
 20
1422.246759738349
 30
0.0
  0
VERTEX
  5
30B
330
2D9
100
AcDbEntity
  8
Make2D$可见线$普通线
100
AcDbVertex
100
AcDb2dVertex
 10
643.467205497996
 20
1422.3173326878
 30
0.0
  0
VERTEX
  5
30C
330
2D9
100
AcDbEntity
  8
Make2D$可见线$普通线
100
AcDbVertex
100
AcDb2dVertex
 10
643.3301526771575
 20
1422.387003302968
 30
0.0
  0
VERTEX
  5
30D
330
2D9
100
AcDbEntity
  8
Make2D$可见线$普通线
100
AcDbVertex
100
AcDb2dVertex
 10
643.1861083565618
 20
1422.4557254632
 30
0.0
  0
VERTEX
  5
30E
330
2D9
100
AcDbEntity
  8
Make2D$可见线$普通线
100
AcDbVertex
100
AcDb2dVertex
 10
643.0351833715655
 20
1422.523453047844
 30
0.0
  0
VERTEX
  5
30F
330
2D9
100
AcDbEntity
  8
Make2D$可见线$普通线
100
AcDbVertex
100
AcDb2dVertex
 10
642.8774885575251
 20
1422.590139936248
 30
0.0
  0
VERTEX
  5
310
330
2D9
100
AcDbEntity
  8
Make2D$可见线$普通线
100
AcDbVertex
100
AcDb2dVertex
 10
642.7131347497971
 20
1422.65574000776
 30
0.0
  0
VERTEX
  5
311
330
2D9
100
AcDbEntity
  8
Make2D$可见线$普通线
100
AcDbVertex
100
AcDb2dVertex
 10
642.5422327837376
 20
1422.720207141728
 30
0.0
  0
VERTEX
  5
312
330
2D9
100
AcDbEntity
  8
Make2D$可见线$普通线
100
AcDbVertex
100
AcDb2dVertex
 10
642.1812277180509
 20
1422.845558114421
 30
0.0
  0
VERTEX
  5
313
330
2D9
100
AcDbEntity
  8
Make2D$可见线$普通线
100
AcDbVertex
100
AcDb2dVertex
 10
641.7953600433166
 20
1422.96582388911
 30
0.0
  0
VERTEX
  5
314
330
2D9
100
AcDbEntity
  8
Make2D$可见线$普通线
100
AcDbVertex
100
AcDb2dVertex
 10
641.385516442386
 20
1423.080635500577
 30
0.0
  0
VERTEX
  5
315
330
2D9
100
AcDbEntity
  8
Make2D$可见线$普通线
100
AcDbVertex
100
AcDb2dVertex
 10
640.951477893962
 20
1423.189930222243
 30
0.0
  0
VERTEX
  5
316
330
2D9
100
AcDbEntity
  8
Make2D$可见线$普通线
100
AcDbVertex
100
AcDb2dVertex
 10
640.4956398421059
 20
1423.293129694321
 30
0.0
  0
VERTEX
  5
317
330
2D9
100
AcDbEntity
  8
Make2D$可见线$普通线
100
AcDbVertex
100
AcDb2dVertex
 10
640.0194161475536
 20
1423.389993099046
 30
0.0
  0
VERTEX
  5
318
330
2D9
100
AcDbEntity
  8
Make2D$可见线$普通线
100
AcDbVertex
100
AcDb2dVertex
 10
639.5242206710404
 20
1423.480279618655
 30
0.0
  0
VERTEX
  5
319
330
2D9
100
AcDbEntity
  8
Make2D$可见线$普通线
100
AcDbVertex
100
AcDb2dVertex
 10
639.0114672733022
 20
1423.563748435384
 30
0.0
  0
VERTEX
  5
31A
330
2D9
100
AcDbEntity
  8
Make2D$可见线$普通线
100
AcDbVertex
100
AcDb2dVertex
 10
638.4825698150742
 20
1423.640158731471
 30
0.0
  0
VERTEX
  5
31B
330
2D9
100
AcDbEntity
  8
Make2D$可见线$普通线
100
AcDbVertex
100
AcDb2dVertex
 10
637.3819981600911
 20
1423.770840490661
 30
0.0
  0
VERTEX
  5
31C
330
2D9
100
AcDbEntity
  8
Make2D$可见线$普通线
100
AcDbVertex
100
AcDb2dVertex
 10
636.3570056164895
 20
1423.861580352549
 30
0.0
  0
VERTEX
  5
31D
330
2D9
100
AcDbEntity
  8
Make2D$可见线$普通线
100
AcDbVertex
100
AcDb2dVertex
 10
635.3034477979694
 20
1423.926947852444
 30
0.0
  0
VERTEX
  5
31E
330
2D9
100
AcDbEntity
  8
Make2D$可见线$普通线
100
AcDbVertex
100
AcDb2dVertex
 10
634.2308603832618
 20
1423.966478258522
 30
0.0
  0
VERTEX
  5
31F
330
2D9
100
AcDbEntity
  8
Make2D$可见线$普通线
100
AcDbVertex
100
AcDb2dVertex
 10
633.1487790510969
 20
1423.97970683896
 30
0.0
  0
VERTEX
  5
320
330
2D9
100
AcDbEntity
  8
Make2D$可见线$普通线
100
AcDbVertex
100
AcDb2dVertex
 10
632.0666977189321
 20
1423.966478258522
 30
0.0
  0
VERTEX
  5
321
330
2D9
100
AcDbEntity
  8
Make2D$可见线$普通线
100
AcDbVertex
100
AcDb2dVertex
 10
630.9941103042245
 20
1423.926947852444
 30
0.0
  0
VERTEX
  5
322
330
2D9
100
AcDbEntity
  8
Make2D$可见线$普通线
100
AcDbVertex
100
AcDb2dVertex
 10
629.9405524857045
 20
1423.861580352549
 30
0.0
  0
VERTEX
  5
323
330
2D9
100
AcDbEntity
  8
Make2D$可见线$普通线
100
AcDbVertex
100
AcDb2dVertex
 10
628.9155599421028
 20
1423.770840490661
 30
0.0
  0
VERTEX
  5
324
330
2D9
100
AcDbEntity
  8
Make2D$可见线$普通线
100
AcDbVertex
100
AcDb2dVertex
 10
627.8149882871198
 20
1423.640158731471
 30
0.0
  0
VERTEX
  5
325
330
2D9
100
AcDbEntity
  8
Make2D$可见线$普通线
100
AcDbVertex
100
AcDb2dVertex
 10
627.2860908288918
 20
1423.563748435384
 30
0.0
  0
VERTEX
  5
326
330
2D9
100
AcDbEntity
  8
Make2D$可见线$普通线
100
AcDbVertex
100
AcDb2dVertex
 10
626.7733374311535
 20
1423.480279618655
 30
0.0
  0
VERTEX
  5
327
330
2D9
100
AcDbEntity
  8
Make2D$可见线$普通线
100
AcDbVertex
100
AcDb2dVertex
 10
626.2781419546404
 20
1423.389993099045
 30
0.0
  0
VERTEX
  5
328
330
2D9
100
AcDbEntity
  8
Make2D$可见线$普通线
100
AcDbVertex
100
AcDb2dVertex
 10
625.8019182600881
 20
1423.29312969432
 30
0.0
  0
VERTEX
  5
329
330
2D9
100
AcDbEntity
  8
Make2D$可见线$普通线
100
AcDbVertex
100
AcDb2dVertex
 10
625.346080208232
 20
1423.189930222243
 30
0.0
  0
VERTEX
  5
32A
330
2D9
100
AcDbEntity
  8
Make2D$可见线$普通线
100
AcDbVertex
100
AcDb2dVertex
 10
624.912041659808
 20
1423.080635500576
 30
0.0
  0
VERTEX
  5
32B
330
2D9
100
AcDbEntity
  8
Make2D$可见线$普通线
100
AcDbVertex
100
AcDb2dVertex
 10
624.5021980588774
 20
1422.965823889109
 30
0.0
  0
VERTEX
  5
32C
330
2D9
100
AcDbEntity
  8
Make2D$可见线$普通线
100
AcDbVertex
100
AcDb2dVertex
 10
624.1163303841431
 20
1422.84555811442
 30
0.0
  0
VERTEX
  5
32D
330
2D9
100
AcDbEntity
  8
Make2D$可见线$普通线
100
AcDbVertex
100
AcDb2dVertex
 10
623.7553253184564
 20
1422.720207141727
 30
0.0
  0
VERTEX
  5
32E
330
2D9
100
AcDbEntity
  8
Make2D$可见线$普通线
100
AcDbVertex
100
AcDb2dVertex
 10
623.5844233523969
 20
1422.65574000776
 30
0.0
  0
VERTEX
  5
32F
330
2D9
100
AcDbEntity
  8
Make2D$可见线$普通线
100
AcDbVertex
100
AcDb2dVertex
 10
623.4200695446689
 20
1422.590139936248
 30
0.0
  0
VERTEX
  5
330
330
2D9
100
AcDbEntity
  8
Make2D$可见线$普通线
100
AcDbVertex
100
AcDb2dVertex
 10
623.2623747306285
 20
1422.523453047844
 30
0.0
  0
VERTEX
  5
331
330
2D9
100
AcDbEntity
  8
Make2D$可见线$普通线
100
AcDbVertex
100
AcDb2dVertex
 10
623.1114497456322
 20
1422.4557254632
 30
0.0
  0
VERTEX
  5
332
330
2D9
100
AcDbEntity
  8
Make2D$可见线$普通线
100
AcDbVertex
100
AcDb2dVertex
 10
622.9674054250365
 20
1422.387003302968
 30
0.0
  0
VERTEX
  5
333
330
2D9
100
AcDbEntity
  8
Make2D$可见线$普通线
100
AcDbVertex
100
AcDb2dVertex
 10
622.830352604198
 20
1422.3173326878
 30
0.0
  0
VERTEX
  5
334
330
2D9
100
AcDbEntity
  8
Make2D$可见线$普通线
100
AcDbVertex
100
AcDb2dVertex
 10
622.7004021184728
 20
1422.246759738349
 30
0.0
  0
VERTEX
  5
335
330
2D9
100
AcDbEntity
  8
Make2D$可见线$普通线
100
AcDbVertex
100
AcDb2dVertex
 10
622.5776648032177
 20
1422.175330575267
 30
0.0
  0
VERTEX
  5
336
330
2D9
100
AcDbEntity
  8
Make2D$可见线$普通线
100
AcDbVertex
100
AcDb2dVertex
 10
622.4622514937889
 20
1422.103091319206
 30
0.0
  0
VERTEX
  5
337
330
2D9
100
AcDbEntity
  8
Make2D$可见线$普通线
100
AcDbVertex
100
AcDb2dVertex
 10
622.4073259773082
 20
1422.066682319012
 30
0.0
  0
VERTEX
  5
338
330
2D9
100
AcDbEntity
  8
Make2D$可见线$普通线
100
AcDbVertex
100
AcDb2dVertex
 10
622.3542730255429
 20
1422.030088090818
 30
0.0
  0
VERTEX
  5
339
330
2D9
100
AcDbEntity
  8
Make2D$可见线$普通线
100
AcDbVertex
100
AcDb2dVertex
 10
622.269579107674
 20
1421.968352154024
 30
0.0
  0
VERTEX
  5
33A
330
2D9
100
AcDbEntity
  8
Make2D$可见线$普通线
100
AcDbVertex
100
AcDb2dVertex
 10
622.229225838546
 20
1421.937304990764
 30
0.0
  0
VERTEX
  5
33B
330
2D9
100
AcDbEntity
  8
Make2D$可见线$普通线
100
AcDbVertex
100
AcDb2dVertex
 10
622.1902050373274
 20
1421.90614363207
 30
0.0
  0
VERTEX
  5
33C
330
2D9
100
AcDbEntity
  8
Make2D$可见线$普通线
100
AcDbVertex
100
AcDb2dVertex
 10
622.1525192100469
 20
1421.874872028797
 30
0.0
  0
VERTEX
  5
33D
330
2D9
100
AcDbEntity
  8
Make2D$可见线$普通线
100
AcDbVertex
100
AcDb2dVertex
 10
622.1161708627332
 20
1421.843494131802
 30
0.0
  0
VERTEX
  5
33E
330
2D9
100
AcDbEntity
  8
Make2D$可见线$普通线
100
AcDbVertex
100
AcDb2dVertex
 10
622.0811625014151
 20
1421.812013891939
 30
0.0
  0
VERTEX
  5
33F
330
2D9
100
AcDbEntity
  8
Make2D$可见线$普通线
100
AcDbVertex
100
AcDb2dVertex
 10
622.0474966321214
 20
1421.780435260065
 30
0.0
  0
VERTEX
  5
340
330
2D9
100
AcDbEntity
  8
Make2D$可见线$普通线
100
AcDbVertex
100
AcDb2dVertex
 10
622.0151757608808
 20
1421.748762187036
 30
0.0
  0
VERTEX
  5
341
330
2D9
100
AcDbEntity
  8
Make2D$可见线$普通线
100
AcDbVertex
100
AcDb2dVertex
 10
621.9842023937218
 20
1421.716998623707
 30
0.0
  0
VERTEX
  5
342
330
2D9
100
AcDbEntity
  8
Make2D$可见线$普通线
100
AcDbVertex
100
AcDb2dVertex
 10
621.9545790366735
 20
1421.685148520934
 30
0.0
  0
VERTEX
  5
343
330
2D9
100
AcDbEntity
  8
Make2D$可见线$普通线
100
AcDbVertex
100
AcDb2dVertex
 10
621.9263081957644
 20
1421.653215829574
 30
0.0
  0
VERTEX
  5
344
330
2D9
100
AcDbEntity
  8
Make2D$可见线$普通线
100
AcDbVertex
100
AcDb2dVertex
 10
621.8993923770232
 20
1421.62120450048
 30
0.0
  0
VERTEX
  5
345
330
2D9
100
AcDbEntity
  8
Make2D$可见线$普通线
100
AcDbVertex
100
AcDb2dVertex
 10
621.873834086479
 20
1421.589118484511
 30
0.0
  0
VERTEX
  5
346
330
2D9
100
AcDbEntity
  8
Make2D$可见线$普通线
100
AcDbVertex
100
AcDb2dVertex
 10
621.8496358301602
 20
1421.55696173252
 30
0.0
  0
VERTEX
  5
347
330
2D9
100
AcDbEntity
  8
Make2D$可见线$普通线
100
AcDbVertex
100
AcDb2dVertex
 10
621.8268001140958
 20
1421.524738195365
 30
0.0
  0
VERTEX
  5
348
330
2D9
100
AcDbEntity
  8
Make2D$可见线$普通线
100
AcDbVertex
100
AcDb2dVertex
 10
621.8053294443143
 20
1421.492451823901
 30
0.0
  0
VERTEX
  5
349
330
2D9
100
AcDbEntity
  8
Make2D$可见线$普通线
100
AcDbVertex
100
AcDb2dVertex
 10
621.7852263268446
 20
1421.460106568983
 30
0.0
  0
VERTEX
  5
34A
330
2D9
100
AcDbEntity
  8
Make2D$可见线$普通线
100
AcDbVertex
100
AcDb2dVertex
 10
621.7664932677154
 20
1421.427706381468
 30
0.0
  0
VERTEX
  5
34B
330
2D9
100
AcDbEntity
  8
Make2D$可见线$普通线
100
AcDbVertex
100
AcDb2dVertex
 10
621.7491327729554
 20
1421.395255212211
 30
0.0
  0
VERTEX
  5
34C
330
2D9
100
AcDbEntity
  8
Make2D$可见线$普通线
100
AcDbVertex
100
AcDb2dVertex
 10
621.7331473485932
 20
1421.362757012068
 30
0.0
  0
VERTEX
  5
34D
330
2D9
100
AcDbEntity
  8
Make2D$可见线$普通线
100
AcDbVertex
100
AcDb2dVertex
 10
621.7256710709453
 20
1421.346491510057
 30
0.0
  0
VERTEX
  5
34E
330
2D9
100
AcDbEntity
  8
Make2D$可见线$普通线
100
AcDbVertex
100
AcDb2dVertex
 10
621.7185395006578
 20
1421.330215731895
 30
0.0
  0
VERTEX
  5
34F
330
2D9
100
AcDbEntity
  8
Make2D$可见线$普通线
100
AcDbVertex
100
AcDb2dVertex
 10
621.7117529509842
 20
1421.313930171439
 30
0.0
  0
VERTEX
  5
350
330
2D9
100
AcDbEntity
  8
Make2D$可见线$普通线
100
AcDbVertex
100
AcDb2dVertex
 10
621.7053117351779
 20
1421.297635322547
 30
0.0
  0
VERTEX
  5
351
330
2D9
100
AcDbEntity
  8
Make2D$可见线$普通线
100
AcDbVertex
100
AcDb2dVertex
 10
621.6992161664928
 20
1421.281331679075
 30
0.0
  0
VERTEX
  5
352
330
2D9
100
AcDbEntity
  8
Make2D$可见线$普通线
100
AcDbVertex
100
AcDb2dVertex
 10
621.6934665581823
 20
1421.265019734881
 30
0.0
  0
VERTEX
  5
353
330
2D9
100
AcDbEntity
  8
Make2D$可见线$普通线
100
AcDbVertex
100
AcDb2dVertex
 10
621.6880632235
 20
1421.24869998382
 30
0.0
  0
VERTEX
  5
354
330
2D9
100
AcDbEntity
  8
Make2D$可见线$普通线
100
AcDbVertex
100
AcDb2dVertex
 10
621.6830064756996
 20
1421.232372919751
 30
0.0
  0
VERTEX
  5
355
330
2D9
100
AcDbEntity
  8
Make2D$可见线$普通线
100
AcDbVertex
100
AcDb2dVertex
 10
621.6782966280346
 20
1421.216039036531
 30
0.0
  0
VERTEX
  5
356
330
2D9
100
AcDbEntity
  8
Make2D$可见线$普通线
100
AcDbVertex
100
AcDb2dVertex
 10
621.6739339937585
 20
1421.199698828015
 30
0.0
  0
VERTEX
  5
357
330
2D9
100
AcDbEntity
  8
Make2D$可见线$普通线
100
AcDbVertex
100
AcDb2dVertex
 10
621.6699188861251
 20
1421.183352788062
 30
0.0
  0
VERTEX
  5
358
330
2D9
100
AcDbEntity
  8
Make2D$可见线$普通线
100
AcDbVertex
100
AcDb2dVertex
 10
621.6662516183878
 20
1421.167001410528
 30
0.0
  0
VERTEX
  5
359
330
2D9
100
AcDbEntity
  8
Make2D$可见线$普通线
100
AcDbVertex
100
AcDb2dVertex
 10
621.6629325038004
 20
1421.150645189269
 30
0.0
  0
VERTEX
  5
35A
330
2D9
100
AcDbEntity
  8
Make2D$可见线$普通线
100
AcDbVertex
100
AcDb2dVertex
 10
621.6599618556163
 20
1421.134284618144
 30
0.0
  0
VERTEX
  5
35B
330
2D9
100
AcDbEntity
  8
Make2D$可见线$普通线
100
AcDbVertex
100
AcDb2dVertex
 10
621.6573399870892
 20
1421.117920191009
 30
0.0
  0
VERTEX
  5
35C
330
2D9
100
AcDbEntity
  8
Make2D$可见线$普通线
100
AcDbVertex
100
AcDb2dVertex
 10
621.6550672114727
 20
1421.101552401722
 30
0.0
  0
VERTEX
  5
35D
330
2D9
100
AcDbEntity
  8
Make2D$可见线$普通线
100
AcDbVertex
100
AcDb2dVertex
 10
621.6531438420204
 20
1421.085181744138
 30
0.0
  0
VERTEX
  5
35E
330
2D9
100
AcDbEntity
  8
Make2D$可见线$普通线
100
AcDbVertex
100
AcDb2dVertex
 10
621.6515701919859
 20
1421.068808712115
 30
0.0
  0
VERTEX
  5
35F
330
2D9
100
AcDbEntity
  8
Make2D$可见线$普通线
100
AcDbVertex
100
AcDb2dVertex
 10
621.6503465746226
 20
1421.05243379951
 30
0.0
  0
VERTEX
  5
360
330
2D9
100
AcDbEntity
  8
Make2D$可见线$普通线
100
AcDbVertex
100
AcDb2dVertex
 10
621.6494733031843
 20
1421.03605750018
 30
0.0
  0
VERTEX
  5
361
330
2D9
100
AcDbEntity
  8
Make2D$可见线$普通线
100
AcDbVertex
100
AcDb2dVertex
 10
621.6489506909245
 20
1421.019680307982
 30
0.0
  0
VERTEX
  5
362
330
2D9
100
AcDbEntity
  8
Make2D$可见线$普通线
100
AcDbVertex
100
AcDb2dVertex
 10
621.6487790510969
 20
1421.003302716772
 30
0.0
  0
VERTEX
  5
363
330
2D9
100
AcDbEntity
  8
Make2D$可见线$普通线
100
AcDbVertex
100
AcDb2dVertex
 10
621.6491350554497
 20
1420.97895079249
 30
0.0
  0
VERTEX
  5
364
330
2D9
100
AcDbEntity
  8
Make2D$可见线$普通线
100
AcDbVertex
100
AcDb2dVertex
 10
621.6502689838367
 20
1420.954622670146
 30
0.0
  0
VERTEX
  5
365
330
2D9
100
AcDbEntity
  8
Make2D$可见线$普通线
100
AcDbVertex
100
AcDb2dVertex
 10
621.6487790510969
 20
1420.906712919223
 30
0.0
  0
VERTEX
  5
366
330
2D9
100
AcDbEntity
  8
Make2D$可见线$普通线
100
AcDbVertex
100
AcDb2dVertex
 10
621.6491935137893
 20
1397.570668843212
 30
0.0
  0
VERTEX
  5
367
330
2D9
100
AcDbEntity
  8
Make2D$可见线$普通线
100
AcDbVertex
100
AcDb2dVertex
 10
621.6503944942701
 20
1397.590100866973
 30
0.0
  0
VERTEX
  5
368
330
2D9
100
AcDbEntity
  8
Make2D$可见线$普通线
100
AcDbVertex
100
AcDb2dVertex
 10
621.652095791336
 20
1397.609483878131
 30
0.0
  0
VERTEX
  5
369
330
2D9
100
AcDbEntity
  8
Make2D$可见线$普通线
100
AcDbVertex
100
AcDb2dVertex
 10
621.6542873425158
 20
1397.628810127757
 30
0.0
  0
VERTEX
  5
36A
330
2D9
100
AcDbEntity
  8
Make2D$可见线$普通线
100
AcDbVertex
100
AcDb2dVertex
 10
621.6569590853381
 20
1397.648071866918
 30
0.0
  0
VERTEX
  5
36B
330
2D9
100
AcDbEntity
  8
Make2D$可见线$普通线
100
AcDbVertex
100
AcDb2dVertex
 10
621.6601009573315
 20
1397.667261346682
 30
0.0
  0
VERTEX
  5
36C
330
2D9
100
AcDbEntity
  8
Make2D$可见线$普通线
100
AcDbVertex
100
AcDb2dVertex
 10
621.6637028960243
 20
1397.686370818119
 30
0.0
  0
VERTEX
  5
36D
330
2D9
100
AcDbEntity
  8
Make2D$可见线$普通线
100
AcDbVertex
100
AcDb2dVertex
 10
621.6677548389455
 20
1397.705392532295
 30
0.0
  0
VERTEX
  5
36E
330
2D9
100
AcDbEntity
  8
Make2D$可见线$普通线
100
AcDbVertex
100
AcDb2dVertex
 10
621.6722467236234
 20
1397.72431874028
 30
0.0
  0
VERTEX
  5
36F
330
2D9
100
AcDbEntity
  8
Make2D$可见线$普通线
100
AcDbVertex
100
AcDb2dVertex
 10
621.6771684875868
 20
1397.743141693142
 30
0.0
  0
VERTEX
  5
370
330
2D9
100
AcDbEntity
  8
Make2D$可见线$普通线
100
AcDbVertex
100
AcDb2dVertex
 10
621.6825100683641
 20
1397.761853641949
 30
0.0
  0
VERTEX
  5
371
330
2D9
100
AcDbEntity
  8
Make2D$可见线$普通线
100
AcDbVertex
100
AcDb2dVertex
 10
621.6882614034841
 20
1397.78044683777
 30
0.0
  0
VERTEX
  5
372
330
2D9
100
AcDbEntity
  8
Make2D$可见线$普通线
100
AcDbVertex
100
AcDb2dVertex
 10
621.6944124304753
 20
1397.798913531673
 30
0.0
  0
VERTEX
  5
373
330
2D9
100
AcDbEntity
  8
Make2D$可见线$普通线
100
AcDbVertex
100
AcDb2dVertex
 10
621.7009530868663
 20
1397.817245974726
 30
0.0
  0
VERTEX
  5
374
330
2D9
100
AcDbEntity
  8
Make2D$可见线$普通线
100
AcDbVertex
100
AcDb2dVertex
 10
621.7078733101856
 20
1397.835436417998
 30
0.0
  0
VERTEX
  5
375
330
2D9
100
AcDbEntity
  8
Make2D$可见线$普通线
100
AcDbVertex
100
AcDb2dVertex
 10
621.7151630379619
 20
1397.853477112557
 30
0.0
  0
VERTEX
  5
376
330
2D9
100
AcDbEntity
  8
Make2D$可见线$普通线
100
AcDbVertex
100
AcDb2dVertex
 10
621.7228122077239
 20
1397.871360309472
 30
0.0
  0
VERTEX
  5
377
330
2D9
100
AcDbEntity
  8
Make2D$可见线$普通线
100
AcDbVertex
100
AcDb2dVertex
 10
621.7310835049068
 20
1397.889667935671
 30
0.0
  0
VERTEX
  5
378
330
2D9
100
AcDbEntity
  8
Make2D$可见线$普通线
100
AcDbVertex
100
AcDb2dVertex
 10
621.7397167645647
 20
1397.90779963484
 30
0.0
  0
VERTEX
  5
379
330
2D9
100
AcDbEntity
  8
Make2D$可见线$普通线
100
AcDbVertex
100
AcDb2dVertex
 10
621.7487008689873
 20
1397.92575593627
 30
0.0
  0
VERTEX
  5
37A
330
2D9
100
AcDbEntity
  8
Make2D$可见线$普通线
100
AcDbVertex
100
AcDb2dVertex
 10
621.7580247004634
 20
1397.943537369251
 30
0.0
  0
VERTEX
  5
37B
330
2D9
100
AcDbEntity
  8
Make2D$可见线$普通线
100
AcDbVertex
100
AcDb2dVertex
 10
621.7676771412825
 20
1397.961144463074
 30
0.0
  0
VERTEX
  5
37C
330
2D9
100
AcDbEntity
  8
Make2D$可见线$普通线
100
AcDbVertex
100
AcDb2dVertex
 10
621.777647073734
 20
1397.978577747029
 30
0.0
  0
VERTEX
  5
37D
330
2D9
100
AcDbEntity
  8
Make2D$可见线$普通线
100
AcDbVertex
100
AcDb2dVertex
 10
621.7984949426914
 20
1398.012925002496
 30
0.0
  0
VERTEX
  5
37E
330
2D9
100
AcDbEntity
  8
Make2D$可见线$普通线
100
AcDbVertex
100
AcDb2dVertex
 10
621.8204793656497
 20
1398.046583369975
 30
0.0
  0
VERTEX
  5
37F
330
2D9
100
AcDbEntity
  8
Make2D$可见线$普通线
100
AcDbVertex
100
AcDb2dVertex
 10
621.8435114009236
 20
1398.079557083791
 30
0.0
  0
VERTEX
  5
380
330
2D9
100
AcDbEntity
  8
Make2D$可见线$普通线
100
AcDbVertex
100
AcDb2dVertex
 10
621.8675021068273
 20
1398.111850378266
 30
0.0
  0
VERTEX
  5
381
330
2D9
100
AcDbEntity
  8
Make2D$可见线$普通线
100
AcDbVertex
100
AcDb2dVertex
 10
621.8923625416753
 20
1398.143467487724
 30
0.0
  0
VERTEX
  5
382
330
2D9
100
AcDbEntity
  8
Make2D$可见线$普通线
100
AcDbVertex
100
AcDb2dVertex
 10
621.9245484856351
 20
1398.182057924637
 30
0.0
  0
VERTEX
  5
383
330
2D9
100
AcDbEntity
  8
Make2D$可见线$普通线
100
AcDbVertex
100
AcDb2dVertex
 10
621.957875092985
 20
1398.219637060731
 30
0.0
  0
VERTEX
  5
384
330
2D9
100
AcDbEntity
  8
Make2D$可见线$普通线
100
AcDbVertex
100
AcDb2dVertex
 10
621.9922625115856
 20
1398.256243978947
 30
0.0
  0
VERTEX
  5
385
330
2D9
100
AcDbEntity
  8
Make2D$可见线$普通线
100
AcDbVertex
100
AcDb2dVertex
 10
622.0276308892978
 20
1398.291917762229
 30
0.0
  0
VERTEX
  5
386
330
2D9
100
AcDbEntity
  8
Make2D$可见线$普通线
100
AcDbVertex
100
AcDb2dVertex
 10
622.0639003739825
 20
1398.326697493517
 30
0.0
  0
VERTEX
  5
387
330
2D9
100
AcDbEntity
  8
Make2D$可见线$普通线
100
AcDbVertex
100
AcDb2dVertex
 10
622.1009911135004
 20
1398.360622255754
 30
0.0
  0
VERTEX
  5
388
330
2D9
100
AcDbEntity
  8
Make2D$可见线$普通线
100
AcDbVertex
100
AcDb2dVertex
 10
622.1388232557123
 20
1398.39373113188
 30
0.0
  0
VERTEX
  5
389
330
2D9
100
AcDbEntity
  8
Make2D$可见线$普通线
100
AcDbVertex
100
AcDb2dVertex
 10
622.177316948479
 20
1398.426063204839
 30
0.0
  0
VERTEX
  5
38A
330
2D9
100
AcDbEntity
  8
Make2D$可见线$普通线
100
AcDbVertex
100
AcDb2dVertex
 10
622.2238066683287
 20
1398.46351112411
 30
0.0
  0
VERTEX
  5
38B
330
2D9
100
AcDbEntity
  8
Make2D$可见线$普通线
100
AcDbVertex
100
AcDb2dVertex
 10
622.2710660266902
 20
1398.49996102275
 30
0.0
  0
VERTEX
  5
38C
330
2D9
100
AcDbEntity
  8
Make2D$可见线$普通线
100
AcDbVertex
100
AcDb2dVertex
 10
622.3190438283877
 20
1398.535455875939
 30
0.0
  0
VERTEX
  5
38D
330
2D9
100
AcDbEntity
  8
Make2D$可见线$普通线
100
AcDbVertex
100
AcDb2dVertex
 10
622.3676888782456
 20
1398.570038658855
 30
0.0
  0
VERTEX
  5
38E
330
2D9
100
AcDbEntity
  8
Make2D$可见线$普通线
100
AcDbVertex
100
AcDb2dVertex
 10
622.4667759417409
 20
1398.636639914588
 30
0.0
  0
VERTEX
  5
38F
330
2D9
100
AcDbEntity
  8
Make2D$可见线$普通线
100
AcDbVertex
100
AcDb2dVertex
 10
622.5679176557716
 20
1398.700108591382
 30
0.0
  0
VERTEX
  5
390
330
2D9
100
AcDbEntity
  8
Make2D$可见线$普通线
100
AcDbVertex
100
AcDb2dVertex
 10
622.6883197319578
 20
1398.770777010892
 30
0.0
  0
VERTEX
  5
391
330
2D9
100
AcDbEntity
  8
Make2D$可见线$普通线
100
AcDbVertex
100
AcDb2dVertex
 10
622.8107101599018
 20
1398.837933435447
 30
0.0
  0
VERTEX
  5
392
330
2D9
100
AcDbEntity
  8
Make2D$可见线$普通线
100
AcDbVertex
100
AcDb2dVertex
 10
622.9348274900312
 20
1398.901879763957
 30
0.0
  0
VERTEX
  5
393
330
2D9
100
AcDbEntity
  8
Make2D$可见线$普通线
100
AcDbVertex
100
AcDb2dVertex
 10
623.0604102727738
 20
1398.962917895328
 30
0.0
  0
VERTEX
  5
394
330
2D9
100
AcDbEntity
  8
Make2D$可见线$普通线
100
AcDbVertex
100
AcDb2dVertex
 10
623.2058890245703
 20
1399.029673872453
 30
0.0
  0
VERTEX
  5
395
330
2D9
100
AcDbEntity
  8
Make2D$可见线$普通线
100
AcDbVertex
100
AcDb2dVertex
 10
623.35277804675
 20
1399.093259306067
 30
0.0
  0
VERTEX
  5
396
330
2D9
100
AcDbEntity
  8
Make2D$可见线$普通线
100
AcDbVertex
100
AcDb2dVertex
 10
623.5009050940256
 20
1399.153929314931
 30
0.0
  0
VERTEX
  5
397
330
2D9
100
AcDbEntity
  8
Make2D$可见线$普通线
100
AcDbVertex
100
AcDb2dVertex
 10
623.6500979211098
 20
1399.211939017805
 30
0.0
  0
VERTEX
  5
398
330
2D9
100
AcDbEntity
  8
Make2D$可见线$普通线
100
AcDbVertex
100
AcDb2dVertex
 10
623.9888002837563
 20
1399.333759306917
 30
0.0
  0
VERTEX
  5
399
330
2D9
100
AcDbEntity
  8
Make2D$可见线$普通线
100
AcDbVertex
100
AcDb2dVertex
 10
624.3311783866922
 20
1399.444894711095
 30
0.0
  0
VERTEX
  5
39A
330
2D9
100
AcDbEntity
  8
Make2D$可见线$普通线
100
AcDbVertex
100
AcDb2dVertex
 10
624.7128601333204
 20
1399.556966834676
 30
0.0
  0
VERTEX
  5
39B
330
2D9
100
AcDbEntity
  8
Make2D$可见线$普通线
100
AcDbVertex
100
AcDb2dVertex
 10
625.0972939859881
 20
1399.659238517322
 30
0.0
  0
VERTEX
  5
39C
330
2D9
100
AcDbEntity
  8
Make2D$可见线$普通线
100
AcDbVertex
100
AcDb2dVertex
 10
625.5334270734672
 20
1399.764435422054
 30
0.0
  0
VERTEX
  5
39D
330
2D9
100
AcDbEntity
  8
Make2D$可见线$普通线
100
AcDbVertex
100
AcDb2dVertex
 10
625.9718008513728
 20
1399.859874238055
 30
0.0
  0
VERTEX
  5
39E
330
2D9
100
AcDbEntity
  8
Make2D$可见线$普通线
100
AcDbVertex
100
AcDb2dVertex
 10
626.4120541342409
 20
1399.946431060283
 30
0.0
  0
VERTEX
  5
39F
330
2D9
100
AcDbEntity
  8
Make2D$可见线$普通线
100
AcDbVertex
100
AcDb2dVertex
 10
626.8538257366079
 20
1400.024981983694
 30
0.0
  0
VERTEX
  5
3A0
330
2D9
100
AcDbEntity
  8
Make2D$可见线$普通线
100
AcDbVertex
100
AcDb2dVertex
 10
627.7989148771978
 20
1400.168862934375
 30
0.0
  0
VERTEX
  5
3A1
330
2D9
100
AcDbEntity
  8
Make2D$可见线$普通线
100
AcDbVertex
100
AcDb2dVertex
 10
628.7479551755976
 20
1400.283965663259
 30
0.0
  0
VERTEX
  5
3A2
330
2D9
100
AcDbEntity
  8
Make2D$可见线$普通线
100
AcDbVertex
100
AcDb2dVertex
 10
629.8253741958251
 20
1400.383578738909
 30
0.0
  0
VERTEX
  5
3A3
330
2D9
100
AcDbEntity
  8
Make2D$可见线$普通线
100
AcDbVertex
100
AcDb2dVertex
 10
630.905166676078
 20
1400.45332308135
 30
0.0
  0
VERTEX
  5
3A4
330
2D9
100
AcDbEntity
  8
Make2D$可见线$普通线
100
AcDbVertex
100
AcDb2dVertex
 10
632.0266003078711
 20
1400.49634322721
 30
0.0
  0
VERTEX
  5
3A5
330
2D9
100
AcDbEntity
  8
Make2D$可见线$普通线
100
AcDbVertex
100
AcDb2dVertex
 10
633.1487790507174
 20
1400.510538811761
 30
0.0
  0
VERTEX
  5
3A6
330
2D9
100
AcDbEntity
  8
Make2D$可见线$普通线
100
AcDbVertex
100
AcDb2dVertex
 10
634.2431767765775
 20
1400.497037486132
 30
0.0
  0
VERTEX
  5
3A7
330
2D9
100
AcDbEntity
  8
Make2D$可见线$普通线
100
AcDbVertex
100
AcDb2dVertex
 10
635.3368861881676
 20
1400.456150096211
 30
0.0
  0
VERTEX
  5
3A8
330
2D9
100
AcDbEntity
  8
Make2D$可见线$普通线
100
AcDbVertex
100
AcDb2dVertex
 10
636.392129356358
 20
1400.389741690027
 30
0.0
  0
VERTEX
  5
3A9
330
2D9
100
AcDbEntity
  8
Make2D$可见线$普通线
100
AcDbVertex
100
AcDb2dVertex
 10
637.445185605203
 20
1400.295002528482
 30
0.0
  0
VERTEX
  5
3AA
330
2D9
100
AcDbEntity
  8
Make2D$可见线$普通线
100
AcDbVertex
100
AcDb2dVertex
 10
638.446585684046
 20
1400.175913118927
 30
0.0
  0
VERTEX
  5
3AB
330
2D9
100
AcDbEntity
  8
Make2D$可见线$普通线
100
AcDbVertex
100
AcDb2dVertex
 10
639.443657855224
 20
1400.024985719896
 30
0.0
  0
VERTEX
  5
3AC
330
2D9
100
AcDbEntity
  8
Make2D$可见线$普通线
100
AcDbVertex
100
AcDb2dVertex
 10
639.885433692465
 20
1399.946435932283
 30
0.0
  0
VERTEX
  5
3AD
330
2D9
100
AcDbEntity
  8
Make2D$可见线$普通线
100
AcDbVertex
100
AcDb2dVertex
 10
640.3256928117323
 20
1399.859885278892
 30
0.0
  0
VERTEX
  5
3AE
330
2D9
100
AcDbEntity
  8
Make2D$可见线$普通线
100
AcDbVertex
100
AcDb2dVertex
 10
640.764072495497
 20
1399.764452759154
 30
0.0
  0
VERTEX
  5
3AF
330
2D9
100
AcDbEntity
  8
Make2D$可见线$普通线
100
AcDbVertex
100
AcDb2dVertex
 10
641.2002100262301
 20
1399.659257372501
 30
0.0
  0
VERTEX
  5
3B0
330
2D9
100
AcDbEntity
  8
Make2D$可见线$普通线
100
AcDbVertex
100
AcDb2dVertex
 10
641.5846614120609
 20
1399.55697690506
 30
0.0
  0
VERTEX
  5
3B1
330
2D9
100
AcDbEntity
  8
Make2D$可见线$普通线
100
AcDbVertex
100
AcDb2dVertex
 10
641.9663610414716
 20
1399.444896752945
 30
0.0
  0
VERTEX
  5
3B2
330
2D9
100
AcDbEntity
  8
Make2D$可见线$普通线
100
AcDbVertex
100
AcDb2dVertex
 10
642.3087379480717
 20
1399.333766203752
 30
0.0
  0
VERTEX
  5
3B3
330
2D9
100
AcDbEntity
  8
Make2D$可见线$普通线
100
AcDbVertex
100
AcDb2dVertex
 10
642.6474391185457
 20
1399.211951011767
 30
0.0
  0
VERTEX
  5
3B4
330
2D9
100
AcDbEntity
  8
Make2D$可见线$普通线
100
AcDbVertex
100
AcDb2dVertex
 10
642.79663747101
 20
1399.153938928969
 30
0.0
  0
VERTEX
  5
3B5
330
2D9
100
AcDbEntity
  8
Make2D$可见线$普通线
100
AcDbVertex
100
AcDb2dVertex
 10
642.9447696642317
 20
1399.093265425992
 30
0.0
  0
VERTEX
  5
3B6
330
2D9
100
AcDbEntity
  8
Make2D$可见线$普通线
100
AcDbVertex
100
AcDb2dVertex
 10
643.0916637368769
 20
1399.029676183288
 30
0.0
  0
VERTEX
  5
3B7
330
2D9
100
AcDbEntity
  8
Make2D$可见线$普通线
100
AcDbVertex
100
AcDb2dVertex
 10
643.2371477276114
 20
1398.96291688131
 30
0.0
  0
VERTEX
  5
3B8
330
2D9
100
AcDbEntity
  8
Make2D$可见线$普通线
100
AcDbVertex
100
AcDb2dVertex
 10
643.3627467638635
 20
1398.901870995647
 30
0.0
  0
VERTEX
  5
3B9
330
2D9
100
AcDbEntity
  8
Make2D$可见线$普通线
100
AcDbVertex
100
AcDb2dVertex
 10
643.486880169869
 20
1398.837916754152
 30
0.0
  0
VERTEX
  5
3BA
330
2D9
100
AcDbEntity
  8
Make2D$可见线$普通线
100
AcDbVertex
100
AcDb2dVertex
 10
643.609286178349
 20
1398.770751597557
 30
0.0
  0
VERTEX
  5
3BB
330
2D9
100
AcDbEntity
  8
Make2D$可见线$普通线
100
AcDbVertex
100
AcDb2dVertex
 10
643.7297030220242
 20
1398.700072966594
 30
0.0
  0
VERTEX
  5
3BC
330
2D9
100
AcDbEntity
  8
Make2D$可见线$普通线
100
AcDbVertex
100
AcDb2dVertex
 10
643.8308274597357
 20
1398.636612801921
 30
0.0
  0
VERTEX
  5
3BD
330
2D9
100
AcDbEntity
  8
Make2D$可见线$普通线
100
AcDbVertex
100
AcDb2dVertex
 10
643.9298975864971
 20
1398.570020519591
 30
0.0
  0
VERTEX
  5
3BE
330
2D9
100
AcDbEntity
  8
Make2D$可见线$普通线
100
AcDbVertex
100
AcDb2dVertex
 10
643.97853436184
 20
1398.53544252426
 30
0.0
  0
VERTEX
  5
3BF
330
2D9
100
AcDbEntity
  8
Make2D$可见线$普通线
100
AcDbVertex
100
AcDb2dVertex
 10
644.0265040537276
 20
1398.499952727461
 30
0.0
  0
VERTEX
  5
3C0
330
2D9
100
AcDbEntity
  8
Make2D$可见线$普通线
100
AcDbVertex
100
AcDb2dVertex
 10
644.0737554935874
 20
1398.463508205175
 30
0.0
  0
VERTEX
  5
3C1
330
2D9
100
AcDbEntity
  8
Make2D$可见线$普通线
100
AcDbVertex
100
AcDb2dVertex
 10
644.1202375128469
 20
1398.426066033386
 30
0.0
  0
VERTEX
  5
3C2
330
2D9
100
AcDbEntity
  8
Make2D$可见线$普通线
100
AcDbVertex
100
AcDb2dVertex
 10
644.1587304070725
 20
1398.393734416718
 30
0.0
  0
VERTEX
  5
3C3
330
2D9
100
AcDbEntity
  8
Make2D$可见线$普通线
100
AcDbVertex
100
AcDb2dVertex
 10
644.1965617750576
 20
1398.360626077347
 30
0.0
  0
VERTEX
  5
3C4
330
2D9
100
AcDbEntity
  8
Make2D$可见线$普通线
100
AcDbVertex
100
AcDb2dVertex
 10
644.233651782973
 20
1398.326701925653
 30
0.0
  0
VERTEX
  5
3C5
330
2D9
100
AcDbEntity
  8
Make2D$可见线$普通线
100
AcDbVertex
100
AcDb2dVertex
 10
644.2699205969896
 20
1398.291922872016
 30
0.0
  0
VERTEX
  5
3C6
330
2D9
100
AcDbEntity
  8
Make2D$可见线$普通线
100
AcDbVertex
100
AcDb2dVertex
 10
644.3052883832781
 20
1398.256249826815
 30
0.0
  0
VERTEX
  5
3C7
330
2D9
100
AcDbEntity
  8
Make2D$可见线$普通线
100
AcDbVertex
100
AcDb2dVertex
 10
644.3396753080096
 20
1398.21964370043
 30
0.0
  0
VERTEX
  5
3C8
330
2D9
100
AcDbEntity
  8
Make2D$可见线$普通线
100
AcDbVertex
100
AcDb2dVertex
 10
644.3730015373549
 20
1398.182065403241
 30
0.0
  0
VERTEX
  5
3C9
330
2D9
100
AcDbEntity
  8
Make2D$可见线$普通线
100
AcDbVertex
100
AcDb2dVertex
 10
644.4051872374848
 20
1398.143475845628
 30
0.0
  0
VERTEX
  5
3CA
330
2D9
100
AcDbEntity
  8
Make2D$可见线$普通线
100
AcDbVertex
100
AcDb2dVertex
 10
644.4300487166822
 20
1398.111857983904
 30
0.0
  0
VERTEX
  5
3CB
330
2D9
100
AcDbEntity
  8
Make2D$可见线$普通线
100
AcDbVertex
100
AcDb2dVertex
 10
644.4540404736542
 20
1398.079563899967
 30
0.0
  0
VERTEX
  5
3CC
330
2D9
100
AcDbEntity
  8
Make2D$可见线$普通线
100
AcDbVertex
100
AcDb2dVertex
 10
644.4770735482751
 20
1398.04658936303
 30
0.0
  0
VERTEX
  5
3CD
330
2D9
100
AcDbEntity
  8
Make2D$可见线$普通线
100
AcDbVertex
100
AcDb2dVertex
 10
644.4990589804195
 20
1398.012930142307
 30
0.0
  0
VERTEX
  5
3CE
330
2D9
100
AcDbEntity
  8
Make2D$可见线$普通线
100
AcDbVertex
100
AcDb2dVertex
 10
644.5199078099615
 20
1397.978582007014
 30
0.0
  0
VERTEX
  5
3CF
330
2D9
100
AcDbEntity
  8
Make2D$可见线$普通线
100
AcDbVertex
100
AcDb2dVertex
 10
644.5298781987173
 20
1397.961148274282
 30
0.0
  0
VERTEX
  5
3D0
330
2D9
100
AcDbEntity
  8
Make2D$可见线$普通线
100
AcDbVertex
100
AcDb2dVertex
 10
644.5395310767753
 20
1397.943540726364
 30
0.0
  0
VERTEX
  5
3D1
330
2D9
100
AcDbEntity
  8
Make2D$可见线$普通线
100
AcDbVertex
100
AcDb2dVertex
 10
644.5488553241198
 20
1397.92575883441
 30
0.0
  0
VERTEX
  5
3D2
330
2D9
100
AcDbEntity
  8
Make2D$可见线$普通线
100
AcDbVertex
100
AcDb2dVertex
 10
644.5578398207352
 20
1397.907802069572
 30
0.0
  0
VERTEX
  5
3D3
330
2D9
100
AcDbEntity
  8
Make2D$可见线$普通线
100
AcDbVertex
100
AcDb2dVertex
 10
644.5664734466058
 20
1397.889669903003
 30
0.0
  0
VERTEX
  5
3D4
330
2D9
100
AcDbEntity
  8
Make2D$可见线$普通线
100
AcDbVertex
100
AcDb2dVertex
 10
644.5747450817156
 20
1397.871361805854
 30
0.0
  0
VERTEX
  5
3D5
330
2D9
100
AcDbEntity
  8
Make2D$可见线$普通线
100
AcDbVertex
100
AcDb2dVertex
 10
644.5823937240498
 20
1397.853480135136
 30
0.0
  0
VERTEX
  5
3D6
330
2D9
100
AcDbEntity
  8
Make2D$可见线$普通线
100
AcDbVertex
100
AcDb2dVertex
 10
644.5896829764213
 20
1397.835440996048
 30
0.0
  0
VERTEX
  5
3D7
330
2D9
100
AcDbEntity
  8
Make2D$可见线$普通线
100
AcDbVertex
100
AcDb2dVertex
 10
644.5966027798029
 20
1397.817252133183
 30
0.0
  0
VERTEX
  5
3D8
330
2D9
100
AcDbEntity
  8
Make2D$可见线$普通线
100
AcDbVertex
100
AcDb2dVertex
 10
644.6031430751673
 20
1397.798921291134
 30
0.0
  0
VERTEX
  5
3D9
330
2D9
100
AcDbEntity
  8
Make2D$可见线$普通线
100
AcDbVertex
100
AcDb2dVertex
 10
644.6092938034876
 20
1397.780456214494
 30
0.0
  0
VERTEX
  5
3DA
330
2D9
100
AcDbEntity
  8
Make2D$可见线$普通线
100
AcDbVertex
100
AcDb2dVertex
 10
644.6150449057366
 20
1397.761864647856
 30
0.0
  0
VERTEX
  5
3DB
330
2D9
100
AcDbEntity
  8
Make2D$可见线$普通线
100
AcDbVertex
100
AcDb2dVertex
 10
644.6203863228868
 20
1397.743154335814
 30
0.0
  0
VERTEX
  5
3DC
330
2D9
100
AcDbEntity
  8
Make2D$可见线$普通线
100
AcDbVertex
100
AcDb2dVertex
 10
644.6253079959114
 20
1397.724333022961
 30
0.0
  0
VERTEX
  5
3DD
330
2D9
100
AcDbEntity
  8
Make2D$可见线$普通线
100
AcDbVertex
100
AcDb2dVertex
 10
644.6297998657828
 20
1397.70540845389
 30
0.0
  0
VERTEX
  5
3DE
330
2D9
100
AcDbEntity
  8
Make2D$可见线$普通线
100
AcDbVertex
100
AcDb2dVertex
 10
644.6338518734742
 20
1397.686388373194
 30
0.0
  0
VERTEX
  5
3DF
330
2D9
100
AcDbEntity
  8
Make2D$可见线$普通线
100
AcDbVertex
100
AcDb2dVertex
 10
644.6374539599583
 20
1397.667280525467
 30
0.0
  0
VERTEX
  5
3E0
330
2D9
100
AcDbEntity
  8
Make2D$可见线$普通线
100
AcDbVertex
100
AcDb2dVertex
 10
644.6405960662078
 20
1397.648092655301
 30
0.0
  0
VERTEX
  5
3E1
330
2D9
100
AcDbEntity
  8
Make2D$可见线$普通线
100
AcDbVertex
100
AcDb2dVertex
 10
644.6432681331955
 20
1397.62883250729
 30
0.0
  0
VERTEX
  5
3E2
330
2D9
100
AcDbEntity
  8
Make2D$可见线$普通线
100
AcDbVertex
100
AcDb2dVertex
 10
644.6454601018944
 20
1397.609507826026
 30
0.0
  0
VERTEX
  5
3E3
330
2D9
100
AcDbEntity
  8
Make2D$可见线$普通线
100
AcDbVertex
100
AcDb2dVertex
 10
644.6471619132772
 20
1397.590126356105
 30
0.0
  0
VERTEX
  5
3E4
330
2D9
100
AcDbEntity
  8
Make2D$可见线$普通线
100
AcDbVertex
100
AcDb2dVertex
 10
644.6483635083166
 20
1397.570695842117
 30
0.0
  0
VERTEX
  5
3E5
330
2D9
100
AcDbEntity
  8
Make2D$可见线$普通线
100
AcDbVertex
100
AcDb2dVertex
 10
644.6487790510969
 20
1420.906712919223
 30
0.0
  0
VERTEX
  5
3E6
330
2D9
100
AcDbEntity
  8
Make2D$可见线$普通线
100
AcDbVertex
100
AcDb2dVertex
 10
644.6472891183569
 20
1420.954622670144
 30
0.0
  0
SEQEND
  5
3E7
330
2D9
100
AcDbEntity
  8
Make2D$可见线$普通线
  0
POLYLINE
  5
3E8
330
1F
100
AcDbEntity
  8
Make2D$可见线$普通线
100
AcDb2dPolyline
 66
     1
 10
0.0
 20
0.0
 30
0.0
  0
VERTEX
  5
3E9
330
3E8
100
AcDbEntity
  8
Make2D$可见线$普通线
100
AcDbVertex
100
AcDb2dVertex
 10
622.092690440863
 20
1421.725689070007
 30
0.0
  0
VERTEX
  5
3EA
330
3E8
100
AcDbEntity
  8
Make2D$可见线$普通线
100
AcDbVertex
100
AcDb2dVertex
 10
622.055176780716
 20
1421.690972063265
 30
0.0
  0
VERTEX
  5
3EB
330
3E8
100
AcDbEntity
  8
Make2D$可见线$普通线
100
AcDbVertex
100
AcDb2dVertex
 10
622.0858216110349
 20
1421.719451904948
 30
0.0
  0
VERTEX
  5
3EC
330
3E8
100
AcDbEntity
  8
Make2D$可见线$普通线
100
AcDbVertex
100
AcDb2dVertex
 10
622.1176415033418
 20
1421.747925001134
 30
0.0
  0
VERTEX
  5
3ED
330
3E8
100
AcDbEntity
  8
Make2D$可见线$普通线
100
AcDbVertex
100
AcDb2dVertex
 10
622.1506404616347
 20
1421.776386766388
 30
0.0
  0
VERTEX
  5
3EE
330
3E8
100
AcDbEntity
  8
Make2D$可见线$普通线
100
AcDbVertex
100
AcDb2dVertex
 10
622.1848221544158
 20
1421.804832572066
 30
0.0
  0
VERTEX
  5
3EF
330
3E8
100
AcDbEntity
  8
Make2D$可见线$普通线
100
AcDbVertex
100
AcDb2dVertex
 10
622.2567467029269
 20
1421.861657585696
 30
0.0
  0
VERTEX
  5
3F0
330
3E8
100
AcDbEntity
  8
Make2D$可见线$普通线
100
AcDbVertex
100
AcDb2dVertex
 10
622.333437555803
 20
1421.918362223357
 30
0.0
  0
VERTEX
  5
3F1
330
3E8
100
AcDbEntity
  8
Make2D$可见线$普通线
100
AcDbVertex
100
AcDb2dVertex
 10
622.4149113746048
 20
1421.97490810443
 30
0.0
  0
VERTEX
  5
3F2
330
3E8
100
AcDbEntity
  8
Make2D$可见线$普通线
100
AcDbVertex
100
AcDb2dVertex
 10
622.5011789056499
 20
1422.031256356429
 30
0.0
  0
VERTEX
  5
3F3
330
3E8
100
AcDbEntity
  8
Make2D$可见线$普通线
100
AcDbVertex
100
AcDb2dVertex
 10
622.5922448247902
 20
1422.087367688608
 30
0.0
  0
VERTEX
  5
3F4
330
3E8
100
AcDbEntity
  8
Make2D$可见线$普通线
100
AcDbVertex
100
AcDb2dVertex
 10
622.6881075980052
 20
1422.143202468864
 30
0.0
  0
VERTEX
  5
3F5
330
3E8
100
AcDbEntity
  8
Make2D$可见线$普通线
100
AcDbVertex
100
AcDb2dVertex
 10
622.7887593589307
 20
1422.198720803683
 30
0.0
  0
VERTEX
  5
3F6
330
3E8
100
AcDbEntity
  8
Make2D$可见线$普通线
100
AcDbVertex
100
AcDb2dVertex
 10
622.894185804371
 20
1422.25388262085
 30
0.0
  0
VERTEX
  5
3F7
330
3E8
100
AcDbEntity
  8
Make2D$可见线$普通线
100
AcDbVertex
100
AcDb2dVertex
 10
623.0043661087615
 20
1422.308647754605
 30
0.0
  0
VERTEX
  5
3F8
330
3E8
100
AcDbEntity
  8
Make2D$可见线$普通线
100
AcDbVertex
100
AcDb2dVertex
 10
623.1192728584658
 20
1422.362976032925
 30
0.0
  0
VERTEX
  5
3F9
330
3E8
100
AcDbEntity
  8
Make2D$可见线$普通线
100
AcDbVertex
100
AcDb2dVertex
 10
623.2388720066888
 20
1422.41682736656
 30
0.0
  0
VERTEX
  5
3FA
330
3E8
100
AcDbEntity
  8
Make2D$可见线$普通线
100
AcDbVertex
100
AcDb2dVertex
 10
623.3631228496828
 20
1422.47016183946
 30
0.0
  0
VERTEX
  5
3FB
330
3E8
100
AcDbEntity
  8
Make2D$可见线$普通线
100
AcDbVertex
100
AcDb2dVertex
 10
623.6253835308767
 20
1422.57512195397
 30
0.0
  0
VERTEX
  5
3FC
330
3E8
100
AcDbEntity
  8
Make2D$可见线$普通线
100
AcDbVertex
100
AcDb2dVertex
 10
623.9055966187884
 20
1422.677543997209
 30
0.0
  0
VERTEX
  5
3FD
330
3E8
100
AcDbEntity
  8
Make2D$可见线$普通线
100
AcDbVertex
100
AcDb2dVertex
 10
624.2031995340006
 20
1422.777124235087
 30
0.0
  0
VERTEX
  5
3FE
330
3E8
100
AcDbEntity
  8
Make2D$可见线$普通线
100
AcDbVertex
100
AcDb2dVertex
 10
624.5175285928551
 20
1422.873570471154
 30
0.0
  0
VERTEX
  5
3FF
330
3E8
100
AcDbEntity
  8
Make2D$可见线$普通线
100
AcDbVertex
100
AcDb2dVertex
 10
624.8478236275002
 20
1422.966604837696
 30
0.0
  0
VERTEX
  5
400
330
3E8
100
AcDbEntity
  8
Make2D$可见线$普通线
100
AcDbVertex
100
AcDb2dVertex
 10
625.1932339735756
 20
1423.055966430679
 30
0.0
  0
VERTEX
  5
401
330
3E8
100
AcDbEntity
  8
Make2D$可见线$普通线
100
AcDbVertex
100
AcDb2dVertex
 10
625.5528257294409
 20
1423.14141373672
 30
0.0
  0
VERTEX
  5
402
330
3E8
100
AcDbEntity
  8
Make2D$可见线$普通线
100
AcDbVertex
100
AcDb2dVertex
 10
626.310453071463
 20
1423.299709122721
 30
0.0
  0
VERTEX
  5
403
330
3E8
100
AcDbEntity
  8
Make2D$可见线$普通线
100
AcDbVertex
100
AcDb2dVertex
 10
627.1119120824789
 20
1423.440021572738
 30
0.0
  0
VERTEX
  5
404
330
3E8
100
AcDbEntity
  8
Make2D$可见线$普通线
100
AcDbVertex
100
AcDb2dVertex
 10
627.9477007267564
 20
1423.56129754796
 30
0.0
  0
VERTEX
  5
405
330
3E8
100
AcDbEntity
  8
Make2D$可见线$普通线
100
AcDbVertex
100
AcDb2dVertex
 10
628.8079655687075
 20
1423.662919679837
 30
0.0
  0
VERTEX
  5
406
330
3E8
100
AcDbEntity
  8
Make2D$可见线$普通线
100
AcDbVertex
100
AcDb2dVertex
 10
629.682856707457
 20
1423.744703640249
 30
0.0
  0
VERTEX
  5
407
330
3E8
100
AcDbEntity
  8
Make2D$可见线$普通线
100
AcDbVertex
100
AcDb2dVertex
 10
630.562855894559
 20
1423.806873592031
 30
0.0
  0
VERTEX
  5
408
330
3E8
100
AcDbEntity
  8
Make2D$可见线$普通线
100
AcDbVertex
100
AcDb2dVertex
 10
631.439058004532
 20
1423.850019973341
 30
0.0
  0
VERTEX
  5
409
330
3E8
100
AcDbEntity
  8
Make2D$可见线$普通线
100
AcDbVertex
100
AcDb2dVertex
 10
632.3033925579819
 20
1423.87504448497
 30
0.0
  0
VERTEX
  5
40A
330
3E8
100
AcDbEntity
  8
Make2D$可见线$普通线
100
AcDbVertex
100
AcDb2dVertex
 10
633.1487790510969
 20
1423.883097563093
 30
0.0
  0
VERTEX
  5
40B
330
3E8
100
AcDbEntity
  8
Make2D$可见线$普通线
100
AcDbVertex
100
AcDb2dVertex
 10
633.994165544212
 20
1423.87504448497
 30
0.0
  0
VERTEX
  5
40C
330
3E8
100
AcDbEntity
  8
Make2D$可见线$普通线
100
AcDbVertex
100
AcDb2dVertex
 10
634.8585000976617
 20
1423.850019973341
 30
0.0
  0
VERTEX
  5
40D
330
3E8
100
AcDbEntity
  8
Make2D$可见线$普通线
100
AcDbVertex
100
AcDb2dVertex
 10
635.7347022076345
 20
1423.806873592031
 30
0.0
  0
VERTEX
  5
40E
330
3E8
100
AcDbEntity
  8
Make2D$可见线$普通线
100
AcDbVertex
100
AcDb2dVertex
 10
636.6147013947368
 20
1423.744703640249
 30
0.0
  0
VERTEX
  5
40F
330
3E8
100
AcDbEntity
  8
Make2D$可见线$普通线
100
AcDbVertex
100
AcDb2dVertex
 10
637.4895925334862
 20
1423.662919679837
 30
0.0
  0
VERTEX
  5
410
330
3E8
100
AcDbEntity
  8
Make2D$可见线$普通线
100
AcDbVertex
100
AcDb2dVertex
 10
638.3498573754374
 20
1423.56129754796
 30
0.0
  0
VERTEX
  5
411
330
3E8
100
AcDbEntity
  8
Make2D$可见线$普通线
100
AcDbVertex
100
AcDb2dVertex
 10
639.185646019715
 20
1423.440021572738
 30
0.0
  0
VERTEX
  5
412
330
3E8
100
AcDbEntity
  8
Make2D$可见线$普通线
100
AcDbVertex
100
AcDb2dVertex
 10
639.9871050307307
 20
1423.299709122721
 30
0.0
  0
VERTEX
  5
413
330
3E8
100
AcDbEntity
  8
Make2D$可见线$普通线
100
AcDbVertex
100
AcDb2dVertex
 10
640.7447323727529
 20
1423.14141373672
 30
0.0
  0
VERTEX
  5
414
330
3E8
100
AcDbEntity
  8
Make2D$可见线$普通线
100
AcDbVertex
100
AcDb2dVertex
 10
641.1043241286183
 20
1423.055966430679
 30
0.0
  0
VERTEX
  5
415
330
3E8
100
AcDbEntity
  8
Make2D$可见线$普通线
100
AcDbVertex
100
AcDb2dVertex
 10
641.4497344746934
 20
1422.966604837696
 30
0.0
  0
VERTEX
  5
416
330
3E8
100
AcDbEntity
  8
Make2D$可见线$普通线
100
AcDbVertex
100
AcDb2dVertex
 10
641.7800295093384
 20
1422.873570471154
 30
0.0
  0
VERTEX
  5
417
330
3E8
100
AcDbEntity
  8
Make2D$可见线$普通线
100
AcDbVertex
100
AcDb2dVertex
 10
642.0943585681929
 20
1422.777124235087
 30
0.0
  0
VERTEX
  5
418
330
3E8
100
AcDbEntity
  8
Make2D$可见线$普通线
100
AcDbVertex
100
AcDb2dVertex
 10
642.3919614834053
 20
1422.677543997209
 30
0.0
  0
VERTEX
  5
419
330
3E8
100
AcDbEntity
  8
Make2D$可见线$普通线
100
AcDbVertex
100
AcDb2dVertex
 10
642.6721745713171
 20
1422.57512195397
 30
0.0
  0
VERTEX
  5
41A
330
3E8
100
AcDbEntity
  8
Make2D$可见线$普通线
100
AcDbVertex
100
AcDb2dVertex
 10
642.9344352525109
 20
1422.47016183946
 30
0.0
  0
VERTEX
  5
41B
330
3E8
100
AcDbEntity
  8
Make2D$可见线$普通线
100
AcDbVertex
100
AcDb2dVertex
 10
643.0586860955051
 20
1422.41682736656
 30
0.0
  0
VERTEX
  5
41C
330
3E8
100
AcDbEntity
  8
Make2D$可见线$普通线
100
AcDbVertex
100
AcDb2dVertex
 10
643.1782852437278
 20
1422.362976032925
 30
0.0
  0
VERTEX
  5
41D
330
3E8
100
AcDbEntity
  8
Make2D$可见线$普通线
100
AcDbVertex
100
AcDb2dVertex
 10
643.2931919934321
 20
1422.308647754605
 30
0.0
  0
VERTEX
  5
41E
330
3E8
100
AcDbEntity
  8
Make2D$可见线$普通线
100
AcDbVertex
100
AcDb2dVertex
 10
643.4033722978228
 20
1422.25388262085
 30
0.0
  0
VERTEX
  5
41F
330
3E8
100
AcDbEntity
  8
Make2D$可见线$普通线
100
AcDbVertex
100
AcDb2dVertex
 10
643.5087987432631
 20
1422.198720803683
 30
0.0
  0
VERTEX
  5
420
330
3E8
100
AcDbEntity
  8
Make2D$可见线$普通线
100
AcDbVertex
100
AcDb2dVertex
 10
643.6094505041884
 20
1422.143202468864
 30
0.0
  0
VERTEX
  5
421
330
3E8
100
AcDbEntity
  8
Make2D$可见线$普通线
100
AcDbVertex
100
AcDb2dVertex
 10
643.7053132774032
 20
1422.087367688608
 30
0.0
  0
VERTEX
  5
422
330
3E8
100
AcDbEntity
  8
Make2D$可见线$普通线
100
AcDbVertex
100
AcDb2dVertex
 10
643.7963791965439
 20
1422.031256356429
 30
0.0
  0
VERTEX
  5
423
330
3E8
100
AcDbEntity
  8
Make2D$可见线$普通线
100
AcDbVertex
100
AcDb2dVertex
 10
643.8826467275892
 20
1421.97490810443
 30
0.0
  0
VERTEX
  5
424
330
3E8
100
AcDbEntity
  8
Make2D$可见线$普通线
100
AcDbVertex
100
AcDb2dVertex
 10
643.9641205463906
 20
1421.918362223357
 30
0.0
  0
VERTEX
  5
425
330
3E8
100
AcDbEntity
  8
Make2D$可见线$普通线
100
AcDbVertex
100
AcDb2dVertex
 10
644.0408113992669
 20
1421.861657585696
 30
0.0
  0
VERTEX
  5
426
330
3E8
100
AcDbEntity
  8
Make2D$可见线$普通线
100
AcDbVertex
100
AcDb2dVertex
 10
644.1127359477779
 20
1421.804832572066
 30
0.0
  0
VERTEX
  5
427
330
3E8
100
AcDbEntity
  8
Make2D$可见线$普通线
100
AcDbVertex
100
AcDb2dVertex
 10
644.1469176405591
 20
1421.776386766388
 30
0.0
  0
VERTEX
  5
428
330
3E8
100
AcDbEntity
  8
Make2D$可见线$普通线
100
AcDbVertex
100
AcDb2dVertex
 10
644.179916598852
 20
1421.747925001134
 30
0.0
  0
VERTEX
  5
429
330
3E8
100
AcDbEntity
  8
Make2D$可见线$普通线
100
AcDbVertex
100
AcDb2dVertex
 10
644.2117364911588
 20
1421.719451904948
 30
0.0
  0
VERTEX
  5
42A
330
3E8
100
AcDbEntity
  8
Make2D$可见线$普通线
100
AcDbVertex
100
AcDb2dVertex
 10
644.2423813214779
 20
1421.690972063265
 30
0.0
  0
VERTEX
  5
42B
330
3E8
100
AcDbEntity
  8
Make2D$可见线$普通线
100
AcDbVertex
100
AcDb2dVertex
 10
644.2048676613309
 20
1421.725689070007
 30
0.0
  0
SEQEND
  5
42C
330
3E8
100
AcDbEntity
  8
Make2D$可见线$普通线
  0
POLYLINE
  5
42D
330
1F
100
AcDbEntity
  8
Make2D$可见线$普通线
100
AcDb2dPolyline
 66
     1
 10
0.0
 20
0.0
 30
0.0
  0
VERTEX
  5
42E
330
42D
100
AcDbEntity
  8
Make2D$可见线$普通线
100
AcDbVertex
100
AcDb2dVertex
 10
655.1487790510969
 20
1165.231393894453
 30
0.0
  0
VERTEX
  5
42F
330
42D
100
AcDbEntity
  8
Make2D$可见线$普通线
100
AcDbVertex
100
AcDb2dVertex
 10
655.1487790510969
 20
1163.731393894453
 30
0.0
  0
VERTEX
  5
430
330
42D
100
AcDbEntity
  8
Make2D$可见线$普通线
100
AcDbVertex
100
AcDb2dVertex
 10
611.1487790510969
 20
1163.731393894453
 30
0.0
  0
VERTEX
  5
431
330
42D
100
AcDbEntity
  8
Make2D$可见线$普通线
100
AcDbVertex
100
AcDb2dVertex
 10
611.1487790510969
 20
1165.231393894453
 30
0.0
  0
SEQEND
  5
432
330
42D
100
AcDbEntity
  8
Make2D$可见线$普通线
  0
POLYLINE
  5
433
330
1F
100
AcDbEntity
  8
Make2D$可见线$普通线
100
AcDb2dPolyline
 66
     1
 10
0.0
 20
0.0
 30
0.0
  0
VERTEX
  5
434
330
433
100
AcDbEntity
  8
Make2D$可见线$普通线
100
AcDbVertex
100
AcDb2dVertex
 10
651.519105607396
 20
1236.648410657569
 30
0.0
  0
VERTEX
  5
435
330
433
100
AcDbEntity
  8
Make2D$可见线$普通线
100
AcDbVertex
100
AcDb2dVertex
 10
651.5196095188776
 20
1236.648956776489
 30
0.0
  0
VERTEX
  5
436
330
433
100
AcDbEntity
  8
Make2D$可见线$普通线
100
AcDbVertex
100
AcDb2dVertex
 10
650.7652773584982
 20
1235.824153602852
 30
0.0
  0
VERTEX
  5
437
330
433
100
AcDbEntity
  8
Make2D$可见线$普通线
100
AcDbVertex
100
AcDb2dVertex
 10
650.2315595499551
 20
1235.215329835711
 30
0.0
  0
VERTEX
  5
438
330
433
100
AcDbEntity
  8
Make2D$可见线$普通线
100
AcDbVertex
100
AcDb2dVertex
 10
649.7088305604212
 20
1234.597049407846
 30
0.0
  0
VERTEX
  5
439
330
433
100
AcDbEntity
  8
Make2D$可见线$普通线
100
AcDbVertex
100
AcDb2dVertex
 10
649.0205021669472
 20
1233.747761566249
 30
0.0
  0
VERTEX
  5
43A
330
433
100
AcDbEntity
  8
Make2D$可见线$普通线
100
AcDbVertex
100
AcDb2dVertex
 10
647.9224169206183
 20
1232.336370687883
 30
0.0
  0
VERTEX
  5
43B
330
433
100
AcDbEntity
  8
Make2D$可见线$普通线
100
AcDbVertex
100
AcDb2dVertex
 10
646.8761145423246
 20
1230.945029404665
 30
0.0
  0
VERTEX
  5
43C
330
433
100
AcDbEntity
  8
Make2D$可见线$普通线
100
AcDbVertex
100
AcDb2dVertex
 10
646.1284338675373
 20
1229.916314437931
 30
0.0
  0
VERTEX
  5
43D
330
433
100
AcDbEntity
  8
Make2D$可见线$普通线
100
AcDbVertex
100
AcDb2dVertex
 10
645.6216036635941
 20
1229.198911271939
 30
0.0
  0
VERTEX
  5
43E
330
433
100
AcDbEntity
  8
Make2D$可见线$普通线
100
AcDbVertex
100
AcDb2dVertex
 10
644.9744966922494
 20
1228.255929339322
 30
0.0
  0
VERTEX
  5
43F
330
433
100
AcDbEntity
  8
Make2D$可见线$普通线
100
AcDbVertex
100
AcDb2dVertex
 10
644.3439665111141
 20
1227.30180146737
 30
0.0
  0
VERTEX
  5
440
330
433
100
AcDbEntity
  8
Make2D$可见线$普通线
100
AcDbVertex
100
AcDb2dVertex
 10
643.832217444417
 20
1226.496077575942
 30
0.0
  0
VERTEX
  5
441
330
433
100
AcDbEntity
  8
Make2D$可见线$普通线
100
AcDbVertex
100
AcDb2dVertex
 10
643.3353984423461
 20
1225.681075378073
 30
0.0
  0
VERTEX
  5
442
330
433
100
AcDbEntity
  8
Make2D$可见线$普通线
100
AcDbVertex
100
AcDb2dVertex
 10
642.9025670082808
 20
1224.939164645454
 30
0.0
  0
VERTEX
  5
443
330
433
100
AcDbEntity
  8
Make2D$可见线$普通线
100
AcDbVertex
100
AcDb2dVertex
 10
642.4849516305237
 20
1224.188596121243
 30
0.0
  0
VERTEX
  5
444
330
433
100
AcDbEntity
  8
Make2D$可见线$普通线
100
AcDbVertex
100
AcDb2dVertex
 10
642.0471637365504
 20
1223.355991300222
 30
0.0
  0
VERTEX
  5
445
330
433
100
AcDbEntity
  8
Make2D$可见线$普通线
100
AcDbVertex
100
AcDb2dVertex
 10
641.6322724178327
 20
1222.511767766654
 30
0.0
  0
VERTEX
  5
446
330
433
100
AcDbEntity
  8
Make2D$可见线$普通线
100
AcDbVertex
100
AcDb2dVertex
 10
641.2874818896984
 20
1221.757241738065
 30
0.0
  0
VERTEX
  5
447
330
433
100
AcDbEntity
  8
Make2D$可见线$普通线
100
AcDbVertex
100
AcDb2dVertex
 10
640.9646414304041
 20
1220.993107920475
 30
0.0
  0
VERTEX
  5
448
330
433
100
AcDbEntity
  8
Make2D$可见线$普通线
100
AcDbVertex
100
AcDb2dVertex
 10
640.6958533967639
 20
1220.300292618136
 30
0.0
  0
VERTEX
  5
449
330
433
100
AcDbEntity
  8
Make2D$可见线$普通线
100
AcDbVertex
100
AcDb2dVertex
 10
640.448035590497
 20
1219.599679805759
 30
0.0
  0
VERTEX
  5
44A
330
433
100
AcDbEntity
  8
Make2D$可见线$普通线
100
AcDbVertex
100
AcDb2dVertex
 10
640.2245066341563
 20
1218.89716742853
 30
0.0
  0
VERTEX
  5
44B
330
433
100
AcDbEntity
  8
Make2D$可见线$普通线
100
AcDbVertex
100
AcDb2dVertex
 10
640.0246385843564
 20
1218.18759826005
 30
0.0
  0
VERTEX
  5
44C
330
433
100
AcDbEntity
  8
Make2D$可见线$普通线
100
AcDbVertex
100
AcDb2dVertex
 10
639.9340276383995
 20
1217.83034402591
 30
0.0
  0
VERTEX
  5
44D
330
433
100
AcDbEntity
  8
Make2D$可见线$普通线
100
AcDbVertex
100
AcDb2dVertex
 10
639.8498722058661
 20
1217.47153757014
 30
0.0
  0
VERTEX
  5
44E
330
433
100
AcDbEntity
  8
Make2D$可见线$普通线
100
AcDbVertex
100
AcDb2dVertex
 10
639.7723523823523
 20
1217.111249551467
 30
0.0
  0
VERTEX
  5
44F
330
433
100
AcDbEntity
  8
Make2D$可见线$普通线
100
AcDbVertex
100
AcDb2dVertex
 10
639.7016482634543
 20
1216.749550628619
 30
0.0
  0
VERTEX
  5
450
330
433
100
AcDbEntity
  8
Make2D$可见线$普通线
100
AcDbVertex
100
AcDb2dVertex
 10
639.6411613070901
 20
1216.406011503641
 30
0.0
  0
VERTEX
  5
451
330
433
100
AcDbEntity
  8
Make2D$可见线$普通线
100
AcDbVertex
100
AcDb2dVertex
 10
639.5870171621283
 20
1216.061394524014
 30
0.0
  0
VERTEX
  5
452
330
433
100
AcDbEntity
  8
Make2D$可见线$普通线
100
AcDbVertex
100
AcDb2dVertex
 10
639.5392926131633
 20
1215.715822271585
 30
0.0
  0
VERTEX
  5
453
330
433
100
AcDbEntity
  8
Make2D$可见线$普通线
100
AcDbVertex
100
AcDb2dVertex
 10
639.4980644447892
 20
1215.369417328204
 30
0.0
  0
VERTEX
  5
454
330
433
100
AcDbEntity
  8
Make2D$可见线$普通线
100
AcDbVertex
100
AcDb2dVertex
 10
639.4634094416003
 20
1215.022302275717
 30
0.0
  0
VERTEX
  5
455
330
433
100
AcDbEntity
  8
Make2D$可见线$普通线
100
AcDbVertex
100
AcDb2dVertex
 10
639.4354043881908
 20
1214.674599695974
 30
0.0
  0
VERTEX
  5
456
330
433
100
AcDbEntity
  8
Make2D$可见线$普通线
100
AcDbVertex
100
AcDb2dVertex
 10
639.4141260691549
 20
1214.326432170822
 30
0.0
  0
VERTEX
  5
457
330
433
100
AcDbEntity
  8
Make2D$可见线$普通线
100
AcDbVertex
100
AcDb2dVertex
 10
639.3996512690871
 20
1213.977922282111
 30
0.0
  0
VERTEX
  5
458
330
433
100
AcDbEntity
  8
Make2D$可见线$普通线
100
AcDbVertex
100
AcDb2dVertex
 10
639.3921001238078
 20
1213.634344438414
 30
0.0
  0
VERTEX
  5
459
330
433
100
AcDbEntity
  8
Make2D$可见线$普通线
100
AcDbVertex
100
AcDb2dVertex
 10
639.3911907913897
 20
1213.290679282429
 30
0.0
  0
VERTEX
  5
45A
330
433
100
AcDbEntity
  8
Make2D$可见线$普通线
100
AcDbVertex
100
AcDb2dVertex
 10
639.3968864704962
 20
1212.947052840892
 30
0.0
  0
VERTEX
  5
45B
330
433
100
AcDbEntity
  8
Make2D$可见线$普通线
100
AcDbVertex
100
AcDb2dVertex
 10
639.4091503597907
 20
1212.603591140542
 30
0.0
  0
VERTEX
  5
45C
330
433
100
AcDbEntity
  8
Make2D$可见线$普通线
100
AcDbVertex
100
AcDb2dVertex
 10
639.4279456579367
 20
1212.260420208116
 30
0.0
  0
VERTEX
  5
45D
330
433
100
AcDbEntity
  8
Make2D$可见线$普通线
100
AcDbVertex
100
AcDb2dVertex
 10
639.4532355635973
 20
1211.917666070352
 30
0.0
  0
VERTEX
  5
45E
330
433
100
AcDbEntity
  8
Make2D$可见线$普通线
100
AcDbVertex
100
AcDb2dVertex
 10
639.4849832754362
 20
1211.575454753986
 30
0.0
  0
VERTEX
  5
45F
330
433
100
AcDbEntity
  8
Make2D$可见线$普通线
100
AcDbVertex
100
AcDb2dVertex
 10
639.5231519921168
 20
1211.233912285757
 30
0.0
  0
VERTEX
  5
460
330
433
100
AcDbEntity
  8
Make2D$可见线$普通线
100
AcDbVertex
100
AcDb2dVertex
 10
639.5703245262139
 20
1210.874420501546
 30
0.0
  0
VERTEX
  5
461
330
433
100
AcDbEntity
  8
Make2D$可见线$普通线
100
AcDbVertex
100
AcDb2dVertex
 10
639.6244515928181
 20
1210.515910725462
 30
0.0
  0
VERTEX
  5
462
330
433
100
AcDbEntity
  8
Make2D$可见线$普通线
100
AcDbVertex
100
AcDb2dVertex
 10
639.6853811478036
 20
1210.158480150603
 30
0.0
  0
VERTEX
  5
463
330
433
100
AcDbEntity
  8
Make2D$可见线$普通线
100
AcDbVertex
100
AcDb2dVertex
 10
639.7529611470443
 20
1209.802225970069
 30
0.0
  0
VERTEX
  5
464
330
433
100
AcDbEntity
  8
Make2D$可见线$普通线
100
AcDbVertex
100
AcDb2dVertex
 10
639.8270395464143
 20
1209.447245376957
 30
0.0
  0
VERTEX
  5
465
330
433
100
AcDbEntity
  8
Make2D$可见线$普通线
100
AcDbVertex
100
AcDb2dVertex
 10
639.9074643017877
 20
1209.093635564366
 30
0.0
  0
VERTEX
  5
466
330
433
100
AcDbEntity
  8
Make2D$可见线$普通线
100
AcDbVertex
100
AcDb2dVertex
 10
640.0867447040412
 20
1208.39091705314
 30
0.0
  0
VERTEX
  5
467
330
433
100
AcDbEntity
  8
Make2D$可见线$普通线
100
AcDbVertex
100
AcDb2dVertex
 10
640.2948810000967
 20
1207.677512341537
 30
0.0
  0
VERTEX
  5
468
330
433
100
AcDbEntity
  8
Make2D$可见线$普通线
100
AcDbVertex
100
AcDb2dVertex
 10
640.5262064227028
 20
1206.971274418891
 30
0.0
  0
VERTEX
  5
469
330
433
100
AcDbEntity
  8
Make2D$可见线$普通线
100
AcDbVertex
100
AcDb2dVertex
 10
640.7791457910957
 20
1206.272343396469
 30
0.0
  0
VERTEX
  5
46A
330
433
100
AcDbEntity
  8
Make2D$可见线$普通线
100
AcDbVertex
100
AcDb2dVertex
 10
641.0519784372608
 20
1205.580906842006
 30
0.0
  0
VERTEX
  5
46B
330
433
100
AcDbEntity
  8
Make2D$可见线$普通线
100
AcDbVertex
100
AcDb2dVertex
 10
641.3827862935151
 20
1204.807233030757
 30
0.0
  0
VERTEX
  5
46C
330
433
100
AcDbEntity
  8
Make2D$可见线$普通线
100
AcDbVertex
100
AcDb2dVertex
 10
641.7349413195642
 20
1204.043031519811
 30
0.0
  0
VERTEX
  5
46D
330
433
100
AcDbEntity
  8
Make2D$可见线$普通线
100
AcDbVertex
100
AcDb2dVertex
 10
642.106521443862
 20
1203.287983097667
 30
0.0
  0
VERTEX
  5
46E
330
433
100
AcDbEntity
  8
Make2D$可见线$普通线
100
AcDbVertex
100
AcDb2dVertex
 10
642.495604594862
 20
1202.541768552822
 30
0.0
  0
VERTEX
  5
46F
330
433
100
AcDbEntity
  8
Make2D$可见线$普通线
100
AcDbVertex
100
AcDb2dVertex
 10
642.9445472612003
 20
1201.725588189403
 30
0.0
  0
VERTEX
  5
470
330
433
100
AcDbEntity
  8
Make2D$可见线$普通线
100
AcDbVertex
100
AcDb2dVertex
 10
643.4108003283201
 20
1200.919176107133
 30
0.0
  0
VERTEX
  5
471
330
433
100
AcDbEntity
  8
Make2D$可见线$普通线
100
AcDbVertex
100
AcDb2dVertex
 10
643.892580588888
 20
1200.121866330063
 30
0.0
  0
VERTEX
  5
472
330
433
100
AcDbEntity
  8
Make2D$可见线$普通线
100
AcDbVertex
100
AcDb2dVertex
 10
644.3881048355715
 20
1199.332992882244
 30
0.0
  0
VERTEX
  5
473
330
433
100
AcDbEntity
  8
Make2D$可见线$普通线
100
AcDbVertex
100
AcDb2dVertex
 10
644.9958327776144
 20
1198.40071320776
 30
0.0
  0
VERTEX
  5
474
330
433
100
AcDbEntity
  8
Make2D$可见线$普通线
100
AcDbVertex
100
AcDb2dVertex
 10
645.6188561099484
 20
1197.478598750466
 30
0.0
  0
VERTEX
  5
475
330
433
100
AcDbEntity
  8
Make2D$可见线$普通线
100
AcDbVertex
100
AcDb2dVertex
 10
646.3182463929373
 20
1196.477052102137
 30
0.0
  0
VERTEX
  5
476
330
433
100
AcDbEntity
  8
Make2D$可见线$普通线
100
AcDbVertex
100
AcDb2dVertex
 10
647.0317545575073
 20
1195.485479845652
 30
0.0
  0
VERTEX
  5
477
330
433
100
AcDbEntity
  8
Make2D$可见线$普通线
100
AcDbVertex
100
AcDb2dVertex
 10
647.8694658203964
 20
1194.353074826503
 30
0.0
  0
VERTEX
  5
478
330
433
100
AcDbEntity
  8
Make2D$可见线$普通线
100
AcDbVertex
100
AcDb2dVertex
 10
648.7213441212403
 20
1193.231287408365
 30
0.0
  0
VERTEX
  5
479
330
433
100
AcDbEntity
  8
Make2D$可见线$普通线
100
AcDbVertex
100
AcDb2dVertex
 10
649.5856718310558
 20
1192.119013328066
 30
0.0
  0
VERTEX
  5
47A
330
433
100
AcDbEntity
  8
Make2D$可见线$普通线
100
AcDbVertex
100
AcDb2dVertex
 10
650.4607313208596
 20
1191.015148322433
 30
0.0
  0
VERTEX
  5
47B
330
433
100
AcDbEntity
  8
Make2D$可见线$普通线
100
AcDbVertex
100
AcDb2dVertex
 10
651.4841517281606
 20
1189.747749427906
 30
0.0
  0
VERTEX
  5
47C
330
433
100
AcDbEntity
  8
Make2D$可见线$普通线
100
AcDbVertex
100
AcDb2dVertex
 10
653.1255856635582
 20
1187.760521011644
 30
0.0
  0
VERTEX
  5
47D
330
433
100
AcDbEntity
  8
Make2D$可见线$普通线
100
AcDbVertex
100
AcDb2dVertex
 10
653.7766106499223
 20
1186.983953912965
 30
0.0
  0
VERTEX
  5
47E
330
433
100
AcDbEntity
  8
Make2D$可见线$普通线
100
AcDbVertex
100
AcDb2dVertex
 10
654.7011786614473
 20
1185.90038780317
 30
0.0
  0
VERTEX
  5
47F
330
433
100
AcDbEntity
  8
Make2D$可见线$普通线
100
AcDbVertex
100
AcDb2dVertex
 10
655.5343292435585
 20
1184.95075444403
 30
0.0
  0
VERTEX
  5
480
330
433
100
AcDbEntity
  8
Make2D$可见线$普通线
100
AcDbVertex
100
AcDb2dVertex
 10
656.3804540261041
 20
1184.012653461022
 30
0.0
  0
VERTEX
  5
481
330
433
100
AcDbEntity
  8
Make2D$可见线$普通线
100
AcDbVertex
100
AcDb2dVertex
 10
657.2393219848828
 20
1183.086190663349
 30
0.0
  0
VERTEX
  5
482
330
433
100
AcDbEntity
  8
Make2D$可见线$普通线
100
AcDbVertex
100
AcDb2dVertex
 10
658.1107020956936
 20
1182.171471860212
 30
0.0
 42
-0.0016362127188513
  0
VERTEX
  5
483
330
433
100
AcDbEntity
  8
Make2D$可见线$普通线
100
AcDbVertex
100
AcDb2dVertex
 10
658.1487787450947
 20
1165.28139394514
 30
0.0
  0
VERTEX
  5
484
330
433
100
AcDbEntity
  8
Make2D$可见线$普通线
100
AcDbVertex
100
AcDb2dVertex
 10
608.1487787949309
 20
1165.28139394514
 30
0.0
  0
VERTEX
  5
485
330
433
100
AcDbEntity
  8
Make2D$可见线$普通线
100
AcDbVertex
100
AcDb2dVertex
 10
608.1585681324648
 20
1176.156060102929
 30
0.0
  0
VERTEX
  5
486
330
433
100
AcDbEntity
  8
Make2D$可见线$普通线
100
AcDbVertex
100
AcDb2dVertex
 10
608.171227301365
 20
1179.691163070225
 30
0.0
  0
VERTEX
  5
487
330
433
100
AcDbEntity
  8
Make2D$可见线$普通线
100
AcDbVertex
100
AcDb2dVertex
 10
608.1958599759794
 20
1183.226213849582
 30
0.0
  0
VERTEX
  5
488
330
433
100
AcDbEntity
  8
Make2D$可见线$普通线
100
AcDbVertex
100
AcDb2dVertex
 10
608.2282434986992
 20
1186.018563715488
 30
0.0
  0
VERTEX
  5
489
330
433
100
AcDbEntity
  8
Make2D$可见线$普通线
100
AcDbVertex
100
AcDb2dVertex
 10
608.2758993586551
 20
1188.810670495876
 30
0.0
  0
VERTEX
  5
48A
330
433
100
AcDbEntity
  8
Make2D$可见线$普通线
100
AcDbVertex
100
AcDb2dVertex
 10
608.3424441771806
 20
1191.602345399071
 30
0.0
  0
VERTEX
  5
48B
330
433
100
AcDbEntity
  8
Make2D$可见线$普通线
100
AcDbVertex
100
AcDb2dVertex
 10
608.4314945756087
 20
1194.393399633399
 30
0.0
  0
VERTEX
  5
48C
330
433
100
AcDbEntity
  8
Make2D$可见线$普通线
100
AcDbVertex
100
AcDb2dVertex
 10
608.5334591546974
 20
1196.891980259717
 30
0.0
  0
VERTEX
  5
48D
330
433
100
AcDbEntity
  8
Make2D$可见线$普通线
100
AcDbVertex
100
AcDb2dVertex
 10
608.659925577153
 20
1199.389409877729
 30
0.0
  0
VERTEX
  5
48E
330
433
100
AcDbEntity
  8
Make2D$可见线$普通线
100
AcDbVertex
100
AcDb2dVertex
 10
608.8144488703847
 20
1201.88518656765
 30
0.0
  0
VERTEX
  5
48F
330
433
100
AcDbEntity
  8
Make2D$可见线$普通线
100
AcDbVertex
100
AcDb2dVertex
 10
609.0005840618019
 20
1204.378808409697
 30
0.0
  0
VERTEX
  5
490
330
433
100
AcDbEntity
  8
Make2D$可见线$普通线
100
AcDbVertex
100
AcDb2dVertex
 10
609.1640073239091
 20
1206.258202878123
 30
0.0
  0
VERTEX
  5
491
330
433
100
AcDbEntity
  8
Make2D$可见线$普通线
100
AcDbVertex
100
AcDb2dVertex
 10
609.3485253853686
 20
1208.135647968101
 30
0.0
  0
VERTEX
  5
492
330
433
100
AcDbEntity
  8
Make2D$可见线$普通线
100
AcDbVertex
100
AcDb2dVertex
 10
609.6017267421253
 20
1210.409220782139
 30
0.0
  0
VERTEX
  5
493
330
433
100
AcDbEntity
  8
Make2D$可见线$普通线
100
AcDbVertex
100
AcDb2dVertex
 10
609.8869788111855
 20
1212.678965689613
 30
0.0
  0
VERTEX
  5
494
330
433
100
AcDbEntity
  8
Make2D$可见线$普通线
100
AcDbVertex
100
AcDb2dVertex
 10
610.1707674621543
 20
1214.718812170013
 30
0.0
  0
VERTEX
  5
495
330
433
100
AcDbEntity
  8
Make2D$可见线$普通线
100
AcDbVertex
100
AcDb2dVertex
 10
610.4798587522636
 20
1216.755001301702
 30
0.0
  0
VERTEX
  5
496
330
433
100
AcDbEntity
  8
Make2D$可见线$普通线
100
AcDbVertex
100
AcDb2dVertex
 10
610.814033143544
 20
1218.787235912583
 30
0.0
  0
VERTEX
  5
497
330
433
100
AcDbEntity
  8
Make2D$可见线$普通线
100
AcDbVertex
100
AcDb2dVertex
 10
611.173071098026
 20
1220.815218830559
 30
0.0
  0
VERTEX
  5
498
330
433
100
AcDbEntity
  8
Make2D$可见线$普通线
100
AcDbVertex
100
AcDb2dVertex
 10
611.6008994838662
 20
1223.063271069645
 30
0.0
  0
VERTEX
  5
499
330
433
100
AcDbEntity
  8
Make2D$可见线$普通线
100
AcDbVertex
100
AcDb2dVertex
 10
612.058789064142
 20
1225.305386208146
 30
0.0
  0
VERTEX
  5
49A
330
433
100
AcDbEntity
  8
Make2D$可见线$普通线
100
AcDbVertex
100
AcDb2dVertex
 10
612.5526559155287
 20
1227.571681098873
 30
0.0
  0
VERTEX
  5
49B
330
433
100
AcDbEntity
  8
Make2D$可见线$普通线
100
AcDbVertex
100
AcDb2dVertex
 10
613.0734037014993
 20
1229.831969821664
 30
0.0
  0
VERTEX
  5
49C
330
433
100
AcDbEntity
  8
Make2D$可见线$普通线
100
AcDbVertex
100
AcDb2dVertex
 10
613.5381789559015
 20
1231.764019524877
 30
0.0
  0
VERTEX
  5
49D
330
433
100
AcDbEntity
  8
Make2D$可见线$普通线
100
AcDbVertex
100
AcDb2dVertex
 10
614.0177351793918
 20
1233.692461525946
 30
0.0
  0
VERTEX
  5
49E
330
433
100
AcDbEntity
  8
Make2D$可见线$普通线
100
AcDbVertex
100
AcDb2dVertex
 10
614.5097847852824
 20
1235.617786234041
 30
0.0
  0
VERTEX
  5
49F
330
433
100
AcDbEntity
  8
Make2D$可见线$普通线
100
AcDbVertex
100
AcDb2dVertex
 10
615.0120401868846
 20
1237.540484058331
 30
0.0
  0
VERTEX
  5
4A0
330
433
100
AcDbEntity
  8
Make2D$可见线$普通线
100
AcDbVertex
100
AcDb2dVertex
 10
615.7753523668545
 20
1240.402999124355
 30
0.0
  0
VERTEX
  5
4A1
330
433
100
AcDbEntity
  8
Make2D$可见线$普通线
100
AcDbVertex
100
AcDb2dVertex
 10
616.5518675289766
 20
1243.261956175108
 30
0.0
  0
VERTEX
  5
4A2
330
433
100
AcDbEntity
  8
Make2D$可见线$普通线
100
AcDbVertex
100
AcDb2dVertex
 10
619.7423462126312
 20
1254.823576186145
 30
0.0
  0
VERTEX
  5
4A3
330
433
100
AcDbEntity
  8
Make2D$可见线$普通线
100
AcDbVertex
100
AcDb2dVertex
 10
620.023544142831
 20
1255.889867300469
 30
0.0
  0
VERTEX
  5
4A4
330
433
100
AcDbEntity
  8
Make2D$可见线$普通线
100
AcDbVertex
100
AcDb2dVertex
 10
620.2931771041693
 20
1256.95913248621
 30
0.0
  0
VERTEX
  5
4A5
330
433
100
AcDbEntity
  8
Make2D$可见线$普通线
100
AcDbVertex
100
AcDb2dVertex
 10
620.5476833750712
 20
1258.030030123904
 30
0.0
  0
VERTEX
  5
4A6
330
433
100
AcDbEntity
  8
Make2D$可见线$普通线
100
AcDbVertex
100
AcDb2dVertex
 10
620.7836397367023
 20
1259.10513306345
 30
0.0
  0
VERTEX
  5
4A7
330
433
100
AcDbEntity
  8
Make2D$可见线$普通线
100
AcDbVertex
100
AcDb2dVertex
 10
620.9965244117673
 20
1260.182744836301
 30
0.0
  0
VERTEX
  5
4A8
330
433
100
AcDbEntity
  8
Make2D$可见线$普通线
100
AcDbVertex
100
AcDb2dVertex
 10
621.1828725135115
 20
1261.26526153247
 30
0.0
  0
VERTEX
  5
4A9
330
433
100
AcDbEntity
  8
Make2D$可见线$普通线
100
AcDbVertex
100
AcDb2dVertex
 10
621.2738626240483
 20
1261.871311513002
 30
0.0
  0
VERTEX
  5
4AA
330
433
100
AcDbEntity
  8
Make2D$可见线$普通线
100
AcDbVertex
100
AcDb2dVertex
 10
621.3548250093926
 20
1262.478778798651
 30
0.0
  0
VERTEX
  5
4AB
330
433
100
AcDbEntity
  8
Make2D$可见线$普通线
100
AcDbVertex
100
AcDb2dVertex
 10
621.4252178499667
 20
1263.087522219653
 30
0.0
  0
VERTEX
  5
4AC
330
433
100
AcDbEntity
  8
Make2D$可见线$普通线
100
AcDbVertex
100
AcDb2dVertex
 10
621.4844993261931
 20
1263.697400606241
 30
0.0
  0
VERTEX
  5
4AD
330
433
100
AcDbEntity
  8
Make2D$可见线$普通线
100
AcDbVertex
100
AcDb2dVertex
 10
621.566414884368
 20
1264.853805706908
 30
0.0
  0
VERTEX
  5
4AE
330
433
100
AcDbEntity
  8
Make2D$可见线$普通线
100
AcDbVertex
100
AcDb2dVertex
 10
621.6154050513783
 20
1266.012236077575
 30
0.0
  0
VERTEX
  5
4AF
330
433
100
AcDbEntity
  8
Make2D$可见线$普通线
100
AcDbVertex
100
AcDb2dVertex
 10
621.6421934255816
 20
1267.346675234175
 30
0.0
  0
VERTEX
  5
4B0
330
433
100
AcDbEntity
  8
Make2D$可见线$普通线
100
AcDbVertex
100
AcDb2dVertex
 10
621.6487726703065
 20
1268.681406187383
 30
0.0
  0
VERTEX
  5
4B1
330
433
100
AcDbEntity
  8
Make2D$可见线$普通线
100
AcDbVertex
100
AcDb2dVertex
 10
644.6480797633716
 20
1268.681406187383
 30
0.0
  0
SEQEND
  5
4B2
330
433
100
AcDbEntity
  8
Make2D$可见线$普通线
  0
POLYLINE
  5
4B3
330
1F
100
AcDbEntity
  8
Make2D$可见线$普通线
100
AcDb2dPolyline
 66
     1
 10
0.0
 20
0.0
 30
0.0
  0
VERTEX
  5
4B4
330
4B3
100
AcDbEntity
  8
Make2D$可见线$普通线
100
AcDbVertex
100
AcDb2dVertex
 10
641.1382413811725
 20
1393.622724487609
 30
0.0
  0
VERTEX
  5
4B5
330
4B3
100
AcDbEntity
  8
Make2D$可见线$普通线
100
AcDbVertex
100
AcDb2dVertex
 10
641.1407092236096
 20
1393.609580163553
 30
0.0
  0
VERTEX
  5
4B6
330
4B3
100
AcDbEntity
  8
Make2D$可见线$普通线
100
AcDbVertex
100
AcDb2dVertex
 10
641.1428522887257
 20
1393.596366471803
 30
0.0
  0
VERTEX
  5
4B7
330
4B3
100
AcDbEntity
  8
Make2D$可见线$普通线
100
AcDbVertex
100
AcDb2dVertex
 10
641.1446678420464
 20
1393.58309547943
 30
0.0
  0
VERTEX
  5
4B8
330
4B3
100
AcDbEntity
  8
Make2D$可见线$普通线
100
AcDbVertex
100
AcDb2dVertex
 10
641.1461537485804
 20
1393.569779389351
 30
0.0
  0
VERTEX
  5
4B9
330
4B3
100
AcDbEntity
  8
Make2D$可见线$普通线
100
AcDbVertex
100
AcDb2dVertex
 10
641.1473084807931
 20
1393.556430503003
 30
0.0
  0
VERTEX
  5
4BA
330
4B3
100
AcDbEntity
  8
Make2D$可见线$普通线
100
AcDbVertex
100
AcDb2dVertex
 10
641.1481311237826
 20
1393.543061182492
 30
0.0
  0
VERTEX
  5
4BB
330
4B3
100
AcDbEntity
  8
Make2D$可见线$普通线
100
AcDbVertex
100
AcDb2dVertex
 10
641.1486213776286
 20
1393.529683812462
 30
0.0
  0
VERTEX
  5
4BC
330
4B3
100
AcDbEntity
  8
Make2D$可见线$普通线
100
AcDbVertex
100
AcDb2dVertex
 10
641.1487795568937
 20
1393.516310761931
 30
0.0
  0
VERTEX
  5
4BD
330
4B3
100
AcDbEntity
  8
Make2D$可见线$普通线
100
AcDbVertex
100
AcDb2dVertex
 10
641.1486559851286
 20
1393.504116272272
 30
0.0
  0
VERTEX
  5
4BE
330
4B3
100
AcDbEntity
  8
Make2D$可见线$普通线
100
AcDbVertex
100
AcDb2dVertex
 10
641.1482513710798
 20
1393.491922204293
 30
0.0
  0
VERTEX
  5
4BF
330
4B3
100
AcDbEntity
  8
Make2D$可见线$普通线
100
AcDbVertex
100
AcDb2dVertex
 10
641.1475660281455
 20
1393.479728976244
 30
0.0
  0
VERTEX
  5
4C0
330
4B3
100
AcDbEntity
  8
Make2D$可见线$普通线
100
AcDbVertex
100
AcDb2dVertex
 10
641.146600269724
 20
1393.467537006377
 30
0.0
  0
VERTEX
  5
4C1
330
4B3
100
AcDbEntity
  8
Make2D$可见线$普通线
100
AcDbVertex
100
AcDb2dVertex
 10
641.1453544092135
 20
1393.455346712942
 30
0.0
  0
VERTEX
  5
4C2
330
4B3
100
AcDbEntity
  8
Make2D$可见线$普通线
100
AcDbVertex
100
AcDb2dVertex
 10
641.1438287600123
 20
1393.443158514189
 30
0.0
  0
VERTEX
  5
4C3
330
4B3
100
AcDbEntity
  8
Make2D$可见线$普通线
100
AcDbVertex
100
AcDb2dVertex
 10
641.1420236355185
 20
1393.430972828369
 30
0.0
  0
VERTEX
  5
4C4
330
4B3
100
AcDbEntity
  8
Make2D$可见线$普通线
100
AcDbVertex
100
AcDb2dVertex
 10
641.1399393491305
 20
1393.418790073732
 30
0.0
  0
VERTEX
  5
4C5
330
4B3
100
AcDbEntity
  8
Make2D$可见线$普通线
100
AcDbVertex
100
AcDb2dVertex
 10
641.1375762142465
 20
1393.406610668529
 30
0.0
  0
VERTEX
  5
4C6
330
4B3
100
AcDbEntity
  8
Make2D$可见线$普通线
100
AcDbVertex
100
AcDb2dVertex
 10
641.1349345442648
 20
1393.39443503101
 30
0.0
  0
VERTEX
  5
4C7
330
4B3
100
AcDbEntity
  8
Make2D$可见线$普通线
100
AcDbVertex
100
AcDb2dVertex
 10
641.1320146525836
 20
1393.382263579426
 30
0.0
  0
VERTEX
  5
4C8
330
4B3
100
AcDbEntity
  8
Make2D$可见线$普通线
100
AcDbVertex
100
AcDb2dVertex
 10
641.1288168526012
 20
1393.370096732027
 30
0.0
  0
VERTEX
  5
4C9
330
4B3
100
AcDbEntity
  8
Make2D$可见线$普通线
100
AcDbVertex
100
AcDb2dVertex
 10
641.1253414577158
 20
1393.357934907064
 30
0.0
  0
VERTEX
  5
4CA
330
4B3
100
AcDbEntity
  8
Make2D$可见线$普通线
100
AcDbVertex
100
AcDb2dVertex
 10
641.1215887813256
 20
1393.345778522788
 30
0.0
  0
VERTEX
  5
4CB
330
4B3
100
AcDbEntity
  8
Make2D$可见线$普通线
100
AcDbVertex
100
AcDb2dVertex
 10
641.117559136829
 20
1393.333627997448
 30
0.0
  0
VERTEX
  5
4CC
330
4B3
100
AcDbEntity
  8
Make2D$可见线$普通线
100
AcDbVertex
100
AcDb2dVertex
 10
641.1132528376241
 20
1393.321483749296
 30
0.0
  0
VERTEX
  5
4CD
330
4B3
100
AcDbEntity
  8
Make2D$可见线$普通线
100
AcDbVertex
100
AcDb2dVertex
 10
641.1086701971093
 20
1393.309346196582
 30
0.0
  0
VERTEX
  5
4CE
330
4B3
100
AcDbEntity
  8
Make2D$可见线$普通线
100
AcDbVertex
100
AcDb2dVertex
 10
641.1038115286827
 20
1393.297215757555
 30
0.0
  0
VERTEX
  5
4CF
330
4B3
100
AcDbEntity
  8
Make2D$可见线$普通线
100
AcDbVertex
100
AcDb2dVertex
 10
641.0986771457428
 20
1393.285092850468
 30
0.0
  0
VERTEX
  5
4D0
330
4B3
100
AcDbEntity
  8
Make2D$可见线$普通线
100
AcDbVertex
100
AcDb2dVertex
 10
641.0932673616876
 20
1393.27297789357
 30
0.0
  0
VERTEX
  5
4D1
330
4B3
100
AcDbEntity
  8
Make2D$可见线$普通线
100
AcDbVertex
100
AcDb2dVertex
 10
641.0875824899153
 20
1393.260871305112
 30
0.0
  0
VERTEX
  5
4D2
330
4B3
100
AcDbEntity
  8
Make2D$可见线$普通线
100
AcDbVertex
100
AcDb2dVertex
 10
641.0816228438244
 20
1393.248773503345
 30
0.0
  0
VERTEX
  5
4D3
330
4B3
100
AcDbEntity
  8
Make2D$可见线$普通线
100
AcDbVertex
100
AcDb2dVertex
 10
641.075388736813
 20
1393.236684906518
 30
0.0
  0
VERTEX
  5
4D4
330
4B3
100
AcDbEntity
  8
Make2D$可见线$普通线
100
AcDbVertex
100
AcDb2dVertex
 10
641.0688804822794
 20
1393.224605932883
 30
0.0
  0
VERTEX
  5
4D5
330
4B3
100
AcDbEntity
  8
Make2D$可见线$普通线
100
AcDbVertex
100
AcDb2dVertex
 10
641.0550427842384
 20
1393.200478528189
 30
0.0
  0
VERTEX
  5
4D6
330
4B3
100
AcDbEntity
  8
Make2D$可见线$普通线
100
AcDbVertex
100
AcDb2dVertex
 10
641.0401122568876
 20
1393.176394635266
 30
0.0
  0
VERTEX
  5
4D7
330
4B3
100
AcDbEntity
  8
Make2D$可见线$普通线
100
AcDbVertex
100
AcDb2dVertex
 10
641.024091407413
 20
1393.15235760012
 30
0.0
  0
VERTEX
  5
4D8
330
4B3
100
AcDbEntity
  8
Make2D$可见线$普通线
100
AcDbVertex
100
AcDb2dVertex
 10
641.0069827430005
 20
1393.128370768753
 30
0.0
  0
VERTEX
  5
4D9
330
4B3
100
AcDbEntity
  8
Make2D$可见线$普通线
100
AcDbVertex
100
AcDb2dVertex
 10
640.9887887708362
 20
1393.104437487169
 30
0.0
  0
VERTEX
  5
4DA
330
4B3
100
AcDbEntity
  8
Make2D$可见线$普通线
100
AcDbVertex
100
AcDb2dVertex
 10
640.9695119981061
 20
1393.080561101375
 30
0.0
  0
VERTEX
  5
4DB
330
4B3
100
AcDbEntity
  8
Make2D$可见线$普通线
100
AcDbVertex
100
AcDb2dVertex
 10
640.9491549319961
 20
1393.056744957372
 30
0.0
  0
VERTEX
  5
4DC
330
4B3
100
AcDbEntity
  8
Make2D$可见线$普通线
100
AcDbVertex
100
AcDb2dVertex
 10
640.9277200796923
 20
1393.032992401165
 30
0.0
  0
VERTEX
  5
4DD
330
4B3
100
AcDbEntity
  8
Make2D$可见线$普通线
100
AcDbVertex
100
AcDb2dVertex
 10
640.9052099483808
 20
1393.009306778758
 30
0.0
  0
VERTEX
  5
4DE
330
4B3
100
AcDbEntity
  8
Make2D$可见线$普通线
100
AcDbVertex
100
AcDb2dVertex
 10
640.8816270452473
 20
1392.985691436156
 30
0.0
  0
VERTEX
  5
4DF
330
4B3
100
AcDbEntity
  8
Make2D$可见线$普通线
100
AcDbVertex
100
AcDb2dVertex
 10
640.8569738774781
 20
1392.962149719362
 30
0.0
  0
VERTEX
  5
4E0
330
4B3
100
AcDbEntity
  8
Make2D$可见线$普通线
100
AcDbVertex
100
AcDb2dVertex
 10
640.8312529522592
 20
1392.93868497438
 30
0.0
  0
VERTEX
  5
4E1
330
4B3
100
AcDbEntity
  8
Make2D$可见线$普通线
100
AcDbVertex
100
AcDb2dVertex
 10
640.8044667767765
 20
1392.915300547214
 30
0.0
  0
VERTEX
  5
4E2
330
4B3
100
AcDbEntity
  8
Make2D$可见线$普通线
100
AcDbVertex
100
AcDb2dVertex
 10
640.776617858216
 20
1392.891999783869
 30
0.0
  0
VERTEX
  5
4E3
330
4B3
100
AcDbEntity
  8
Make2D$可见线$普通线
100
AcDbVertex
100
AcDb2dVertex
 10
640.7477087037637
 20
1392.868786030348
 30
0.0
  0
VERTEX
  5
4E4
330
4B3
100
AcDbEntity
  8
Make2D$可见线$普通线
100
AcDbVertex
100
AcDb2dVertex
 10
640.7177418206059
 20
1392.845662632657
 30
0.0
  0
VERTEX
  5
4E5
330
4B3
100
AcDbEntity
  8
Make2D$可见线$普通线
100
AcDbVertex
100
AcDb2dVertex
 10
640.6867197159281
 20
1392.822632936798
 30
0.0
  0
VERTEX
  5
4E6
330
4B3
100
AcDbEntity
  8
Make2D$可见线$普通线
100
AcDbVertex
100
AcDb2dVertex
 10
640.6546448969166
 20
1392.799700288775
 30
0.0
  0
VERTEX
  5
4E7
330
4B3
100
AcDbEntity
  8
Make2D$可见线$普通线
100
AcDbVertex
100
AcDb2dVertex
 10
640.5873471446364
 20
1392.754139520256
 30
0.0
  0
VERTEX
  5
4E8
330
4B3
100
AcDbEntity
  8
Make2D$可见线$普通线
100
AcDbVertex
100
AcDb2dVertex
 10
640.5097190913332
 20
1392.705257635575
 30
0.0
  0
VERTEX
  5
4E9
330
4B3
100
AcDbEntity
  8
Make2D$可见线$普通线
100
AcDbVertex
100
AcDb2dVertex
 10
640.4272557927441
 20
1392.656907711736
 30
0.0
  0
VERTEX
  5
4EA
330
4B3
100
AcDbEntity
  8
Make2D$可见线$普通线
100
AcDbVertex
100
AcDb2dVertex
 10
640.3400301720558
 20
1392.609118840255
 30
0.0
  0
VERTEX
  5
4EB
330
4B3
100
AcDbEntity
  8
Make2D$可见线$普通线
100
AcDbVertex
100
AcDb2dVertex
 10
640.2481151524551
 20
1392.561920112648
 30
0.0
  0
VERTEX
  5
4EC
330
4B3
100
AcDbEntity
  8
Make2D$可见线$普通线
100
AcDbVertex
100
AcDb2dVertex
 10
640.1515836571289
 20
1392.515340620429
 30
0.0
  0
VERTEX
  5
4ED
330
4B3
100
AcDbEntity
  8
Make2D$可见线$普通线
100
AcDbVertex
100
AcDb2dVertex
 10
640.0505086092642
 20
1392.469409455115
 30
0.0
  0
VERTEX
  5
4EE
330
4B3
100
AcDbEntity
  8
Make2D$可见线$普通线
100
AcDbVertex
100
AcDb2dVertex
 10
639.9449629320479
 20
1392.424155708221
 30
0.0
  0
VERTEX
  5
4EF
330
4B3
100
AcDbEntity
  8
Make2D$可见线$普通线
100
AcDbVertex
100
AcDb2dVertex
 10
639.8350195486669
 20
1392.379608471264
 30
0.0
  0
VERTEX
  5
4F0
330
4B3
100
AcDbEntity
  8
Make2D$可见线$普通线
100
AcDbVertex
100
AcDb2dVertex
 10
639.7207513823078
 20
1392.335796835757
 30
0.0
  0
VERTEX
  5
4F1
330
4B3
100
AcDbEntity
  8
Make2D$可见线$普通线
100
AcDbVertex
100
AcDb2dVertex
 10
639.6022313561577
 20
1392.292749893217
 30
0.0
  0
VERTEX
  5
4F2
330
4B3
100
AcDbEntity
  8
Make2D$可见线$普通线
100
AcDbVertex
100
AcDb2dVertex
 10
639.352727417232
 20
1392.209066453101
 30
0.0
  0
VERTEX
  5
4F3
330
4B3
100
AcDbEntity
  8
Make2D$可见线$普通线
100
AcDbVertex
100
AcDb2dVertex
 10
639.0870911173845
 20
1392.128790883039
 30
0.0
  0
VERTEX
  5
4F4
330
4B3
100
AcDbEntity
  8
Make2D$可见线$普通线
100
AcDbVertex
100
AcDb2dVertex
 10
638.80590584211
 20
1392.052155915156
 30
0.0
  0
VERTEX
  5
4F5
330
4B3
100
AcDbEntity
  8
Make2D$可见线$普通线
100
AcDbVertex
100
AcDb2dVertex
 10
638.5098076128369
 20
1391.979380657139
 30
0.0
  0
VERTEX
  5
4F6
330
4B3
100
AcDbEntity
  8
Make2D$可见线$普通线
100
AcDbVertex
100
AcDb2dVertex
 10
638.1996430117324
 20
1391.910629723024
 30
0.0
  0
VERTEX
  5
4F7
330
4B3
100
AcDbEntity
  8
Make2D$可见线$普通线
100
AcDbVertex
100
AcDb2dVertex
 10
637.8763112571814
 20
1391.846054102339
 30
0.0
  0
VERTEX
  5
4F8
330
4B3
100
AcDbEntity
  8
Make2D$可见线$普通线
100
AcDbVertex
100
AcDb2dVertex
 10
637.5407115675685
 20
1391.785804784608
 30
0.0
  0
VERTEX
  5
4F9
330
4B3
100
AcDbEntity
  8
Make2D$可见线$普通线
100
AcDbVertex
100
AcDb2dVertex
 10
636.8363052566947
 20
1391.678889016114
 30
0.0
  0
VERTEX
  5
4FA
330
4B3
100
AcDbEntity
  8
Make2D$可见线$普通线
100
AcDbVertex
100
AcDb2dVertex
 10
636.0936178261882
 20
1391.591090333748
 30
0.0
  0
VERTEX
  5
4FB
330
4B3
100
AcDbEntity
  8
Make2D$可见线$普通线
100
AcDbVertex
100
AcDb2dVertex
 10
635.3805805419778
 20
1391.527963590219
 30
0.0
  0
VERTEX
  5
4FC
330
4B3
100
AcDbEntity
  8
Make2D$可见线$普通线
100
AcDbVertex
100
AcDb2dVertex
 10
634.6476822699515
 20
1391.482481896072
 30
0.0
  0
VERTEX
  5
4FD
330
4B3
100
AcDbEntity
  8
Make2D$可见线$普通线
100
AcDbVertex
100
AcDb2dVertex
 10
633.9015422087199
 20
1391.454977488228
 30
0.0
  0
VERTEX
  5
4FE
330
4B3
100
AcDbEntity
  8
Make2D$可见线$普通线
100
AcDbVertex
100
AcDb2dVertex
 10
633.1487795568935
 20
1391.445782603607
 30
0.0
  0
VERTEX
  5
4FF
330
4B3
100
AcDbEntity
  8
Make2D$可见线$普通线
100
AcDbVertex
100
AcDb2dVertex
 10
632.3960169125082
 20
1391.454977491288
 30
0.0
  0
VERTEX
  5
500
330
4B3
100
AcDbEntity
  8
Make2D$可见线$普通线
100
AcDbVertex
100
AcDb2dVertex
 10
631.6498768584254
 20
1391.482481901808
 30
0.0
  0
VERTEX
  5
501
330
4B3
100
AcDbEntity
  8
Make2D$可见线$普通线
100
AcDbVertex
100
AcDb2dVertex
 10
630.916978593106
 20
1391.527963598232
 30
0.0
  0
VERTEX
  5
502
330
4B3
100
AcDbEntity
  8
Make2D$可见线$普通线
100
AcDbVertex
100
AcDb2dVertex
 10
630.2039413150112
 20
1391.591090343624
 30
0.0
  0
VERTEX
  5
503
330
4B3
100
AcDbEntity
  8
Make2D$可见线$普通线
100
AcDbVertex
100
AcDb2dVertex
 10
629.4612538816771
 20
1391.678889028691
 30
0.0
  0
VERTEX
  5
504
330
4B3
100
AcDbEntity
  8
Make2D$可见线$普通线
100
AcDbVertex
100
AcDb2dVertex
 10
628.7568475678993
 20
1391.785804799838
 30
0.0
  0
VERTEX
  5
505
330
4B3
100
AcDbEntity
  8
Make2D$可见线$普通线
100
AcDbVertex
100
AcDb2dVertex
 10
628.4212478768222
 20
1391.846054118866
 30
0.0
  0
VERTEX
  5
506
330
4B3
100
AcDbEntity
  8
Make2D$可见线$普通线
100
AcDbVertex
100
AcDb2dVertex
 10
628.0979161208086
 20
1391.910629740825
 30
0.0
  0
VERTEX
  5
507
330
4B3
100
AcDbEntity
  8
Make2D$可见线$普通线
100
AcDbVertex
100
AcDb2dVertex
 10
627.7877515182497
 20
1391.979380676185
 30
0.0
  0
VERTEX
  5
508
330
4B3
100
AcDbEntity
  8
Make2D$可见线$普通线
100
AcDbVertex
100
AcDb2dVertex
 10
627.4916532875368
 20
1392.052155935416
 30
0.0
  0
VERTEX
  5
509
330
4B3
100
AcDbEntity
  8
Make2D$可见线$普通线
100
AcDbVertex
100
AcDb2dVertex
 10
627.2104680105356
 20
1392.128790904565
 30
0.0
  0
VERTEX
  5
50A
330
4B3
100
AcDbEntity
  8
Make2D$可见线$普通线
100
AcDbVertex
100
AcDb2dVertex
 10
626.9448317090246
 20
1392.209066475862
 30
0.0
  0
VERTEX
  5
50B
330
4B3
100
AcDbEntity
  8
Make2D$可见线$普通线
100
AcDbVertex
100
AcDb2dVertex
 10
626.6953277685072
 20
1392.292749917176
 30
0.0
  0
VERTEX
  5
50C
330
4B3
100
AcDbEntity
  8
Make2D$可见线$普通线
100
AcDbVertex
100
AcDb2dVertex
 10
626.5768077415909
 20
1392.3357968603
 30
0.0
  0
VERTEX
  5
50D
330
4B3
100
AcDbEntity
  8
Make2D$可见线$普通线
100
AcDbVertex
100
AcDb2dVertex
 10
626.4625395744868
 20
1392.379608496379
 30
0.0
  0
VERTEX
  5
50E
330
4B3
100
AcDbEntity
  8
Make2D$可见线$普通线
100
AcDbVertex
100
AcDb2dVertex
 10
626.3525961903827
 20
1392.424155733898
 30
0.0
  0
VERTEX
  5
50F
330
4B3
100
AcDbEntity
  8
Make2D$可见线$普通线
100
AcDbVertex
100
AcDb2dVertex
 10
626.2470505124664
 20
1392.469409481341
 30
0.0
  0
VERTEX
  5
510
330
4B3
100
AcDbEntity
  8
Make2D$可见线$普通线
100
AcDbVertex
100
AcDb2dVertex
 10
626.145975463926
 20
1392.515340647191
 30
0.0
  0
VERTEX
  5
511
330
4B3
100
AcDbEntity
  8
Make2D$可见线$普通线
100
AcDbVertex
100
AcDb2dVertex
 10
626.0494439679494
 20
1392.561920139933
 30
0.0
  0
VERTEX
  5
512
330
4B3
100
AcDbEntity
  8
Make2D$可见线$普通线
100
AcDbVertex
100
AcDb2dVertex
 10
625.9575289477244
 20
1392.609118868049
 30
0.0
  0
VERTEX
  5
513
330
4B3
100
AcDbEntity
  8
Make2D$可见线$普通线
100
AcDbVertex
100
AcDb2dVertex
 10
625.8703033264391
 20
1392.656907740025
 30
0.0
  0
VERTEX
  5
514
330
4B3
100
AcDbEntity
  8
Make2D$可见线$普通线
100
AcDbVertex
100
AcDb2dVertex
 10
625.7878400272809
 20
1392.705257664343
 30
0.0
  0
VERTEX
  5
515
330
4B3
100
AcDbEntity
  8
Make2D$可见线$普通线
100
AcDbVertex
100
AcDb2dVertex
 10
625.7102119734384
 20
1392.754139549488
 30
0.0
  0
VERTEX
  5
516
330
4B3
100
AcDbEntity
  8
Make2D$可见线$普通线
100
AcDbVertex
100
AcDb2dVertex
 10
625.6429142206534
 20
1392.799700318443
 30
0.0
  0
VERTEX
  5
517
330
4B3
100
AcDbEntity
  8
Make2D$可见线$普通线
100
AcDbVertex
100
AcDb2dVertex
 10
625.610839401401
 20
1392.82263296668
 30
0.0
  0
VERTEX
  5
518
330
4B3
100
AcDbEntity
  8
Make2D$可见线$普通线
100
AcDbVertex
100
AcDb2dVertex
 10
625.5798172964899
 20
1392.845662662749
 30
0.0
  0
VERTEX
  5
519
330
4B3
100
AcDbEntity
  8
Make2D$可见线$普通线
100
AcDbVertex
100
AcDb2dVertex
 10
625.5498504131062
 20
1392.868786060647
 30
0.0
  0
VERTEX
  5
51A
330
4B3
100
AcDbEntity
  8
Make2D$可见线$普通线
100
AcDbVertex
100
AcDb2dVertex
 10
625.520941258436
 20
1392.89199981437
 30
0.0
  0
VERTEX
  5
51B
330
4B3
100
AcDbEntity
  8
Make2D$可见线$普通线
100
AcDbVertex
100
AcDb2dVertex
 10
625.4930923396653
 20
1392.915300577915
 30
0.0
  0
VERTEX
  5
51C
330
4B3
100
AcDbEntity
  8
Make2D$可见线$普通线
100
AcDbVertex
100
AcDb2dVertex
 10
625.46630616398
 20
1392.938685005276
 30
0.0
  0
VERTEX
  5
51D
330
4B3
100
AcDbEntity
  8
Make2D$可见线$普通线
100
AcDbVertex
100
AcDb2dVertex
 10
625.4405852385663
 20
1392.96214975045
 30
0.0
  0
VERTEX
  5
51E
330
4B3
100
AcDbEntity
  8
Make2D$可见线$普通线
100
AcDbVertex
100
AcDb2dVertex
 10
625.4159320706102
 20
1392.985691467433
 30
0.0
  0
VERTEX
  5
51F
330
4B3
100
AcDbEntity
  8
Make2D$可见线$普通线
100
AcDbVertex
100
AcDb2dVertex
 10
625.3923491672977
 20
1393.00930681022
 30
0.0
  0
VERTEX
  5
520
330
4B3
100
AcDbEntity
  8
Make2D$可见线$普通线
100
AcDbVertex
100
AcDb2dVertex
 10
625.369839035815
 20
1393.032992432808
 30
0.0
  0
VERTEX
  5
521
330
4B3
100
AcDbEntity
  8
Make2D$可见线$普通线
100
AcDbVertex
100
AcDb2dVertex
 10
625.348404183348
 20
1393.056744989193
 30
0.0
  0
VERTEX
  5
522
330
4B3
100
AcDbEntity
  8
Make2D$可见线$普通线
100
AcDbVertex
100
AcDb2dVertex
 10
625.3280471170826
 20
1393.08056113337
 30
0.0
  0
VERTEX
  5
523
330
4B3
100
AcDbEntity
  8
Make2D$可见线$普通线
100
AcDbVertex
100
AcDb2dVertex
 10
625.3087703442052
 20
1393.104437519335
 30
0.0
  0
VERTEX
  5
524
330
4B3
100
AcDbEntity
  8
Make2D$可见线$普通线
100
AcDbVertex
100
AcDb2dVertex
 10
625.2905763719016
 20
1393.128370801084
 30
0.0
  0
VERTEX
  5
525
330
4B3
100
AcDbEntity
  8
Make2D$可见线$普通线
100
AcDbVertex
100
AcDb2dVertex
 10
625.2734677073579
 20
1393.152357632614
 30
0.0
  0
VERTEX
  5
526
330
4B3
100
AcDbEntity
  8
Make2D$可见线$普通线
100
AcDbVertex
100
AcDb2dVertex
 10
625.25744685776
 20
1393.176394667919
 30
0.0
  0
VERTEX
  5
527
330
4B3
100
AcDbEntity
  8
Make2D$可见线$普通线
100
AcDbVertex
100
AcDb2dVertex
 10
625.242516330294
 20
1393.200478560997
 30
0.0
  0
VERTEX
  5
528
330
4B3
100
AcDbEntity
  8
Make2D$可见线$普通线
100
AcDbVertex
100
AcDb2dVertex
 10
625.2286786321462
 20
1393.224605965842
 30
0.0
  0
VERTEX
  5
529
330
4B3
100
AcDbEntity
  8
Make2D$可见线$普通线
100
AcDbVertex
100
AcDb2dVertex
 10
625.2221703775621
 20
1393.236684939551
 30
0.0
  0
VERTEX
  5
52A
330
4B3
100
AcDbEntity
  8
Make2D$可见线$普通线
100
AcDbVertex
100
AcDb2dVertex
 10
625.2159362705022
 20
1393.248773536451
 30
0.0
  0
VERTEX
  5
52B
330
4B3
100
AcDbEntity
  8
Make2D$可见线$普通线
100
AcDbVertex
100
AcDb2dVertex
 10
625.209976624365
 20
1393.260871338291
 30
0.0
  0
VERTEX
  5
52C
330
4B3
100
AcDbEntity
  8
Make2D$可见线$普通线
100
AcDbVertex
100
AcDb2dVertex
 10
625.2042917525484
 20
1393.27297792682
 30
0.0
  0
VERTEX
  5
52D
330
4B3
100
AcDbEntity
  8
Make2D$可见线$普通线
100
AcDbVertex
100
AcDb2dVertex
 10
625.1988819684509
 20
1393.285092883787
 30
0.0
  0
VERTEX
  5
52E
330
4B3
100
AcDbEntity
  8
Make2D$可见线$普通线
100
AcDbVertex
100
AcDb2dVertex
 10
625.1937475854709
 20
1393.297215790944
 30
0.0
  0
VERTEX
  5
52F
330
4B3
100
AcDbEntity
  8
Make2D$可见线$普通线
100
AcDbVertex
100
AcDb2dVertex
 10
625.1888889170062
 20
1393.309346230038
 30
0.0
  0
VERTEX
  5
530
330
4B3
100
AcDbEntity
  8
Make2D$可见线$普通线
100
AcDbVertex
100
AcDb2dVertex
 10
625.1843062764553
 20
1393.32148378282
 30
0.0
  0
VERTEX
  5
531
330
4B3
100
AcDbEntity
  8
Make2D$可见线$普通线
100
AcDbVertex
100
AcDb2dVertex
 10
625.1799999772165
 20
1393.333628031038
 30
0.0
  0
VERTEX
  5
532
330
4B3
100
AcDbEntity
  8
Make2D$可见线$普通线
100
AcDbVertex
100
AcDb2dVertex
 10
625.1759703326879
 20
1393.345778556443
 30
0.0
  0
VERTEX
  5
533
330
4B3
100
AcDbEntity
  8
Make2D$可见线$普通线
100
AcDbVertex
100
AcDb2dVertex
 10
625.172217656268
 20
1393.357934940783
 30
0.0
  0
VERTEX
  5
534
330
4B3
100
AcDbEntity
  8
Make2D$可见线$普通线
100
AcDbVertex
100
AcDb2dVertex
 10
625.168742261355
 20
1393.370096765809
 30
0.0
  0
VERTEX
  5
535
330
4B3
100
AcDbEntity
  8
Make2D$可见线$普通线
100
AcDbVertex
100
AcDb2dVertex
 10
625.1655444613469
 20
1393.38226361327
 30
0.0
  0
VERTEX
  5
536
330
4B3
100
AcDbEntity
  8
Make2D$可见线$普通线
100
AcDbVertex
100
AcDb2dVertex
 10
625.1626245696423
 20
1393.394435064915
 30
0.0
  0
VERTEX
  5
537
330
4B3
100
AcDbEntity
  8
Make2D$可见线$普通线
100
AcDbVertex
100
AcDb2dVertex
 10
625.1599828996391
 20
1393.406610702494
 30
0.0
  0
VERTEX
  5
538
330
4B3
100
AcDbEntity
  8
Make2D$可见线$普通线
100
AcDbVertex
100
AcDb2dVertex
 10
625.1576197647357
 20
1393.418790107756
 30
0.0
  0
VERTEX
  5
539
330
4B3
100
AcDbEntity
  8
Make2D$可见线$普通线
100
AcDbVertex
100
AcDb2dVertex
 10
625.1555354783304
 20
1393.430972862451
 30
0.0
  0
VERTEX
  5
53A
330
4B3
100
AcDbEntity
  8
Make2D$可见线$普通线
100
AcDbVertex
100
AcDb2dVertex
 10
625.1537303538215
 20
1393.443158548328
 30
0.0
  0
VERTEX
  5
53B
330
4B3
100
AcDbEntity
  8
Make2D$可见线$普通线
100
AcDbVertex
100
AcDb2dVertex
 10
625.1522047046072
 20
1393.455346747137
 30
0.0
  0
VERTEX
  5
53C
330
4B3
100
AcDbEntity
  8
Make2D$可见线$普通线
100
AcDbVertex
100
AcDb2dVertex
 10
625.1509588440858
 20
1393.467537040627
 30
0.0
  0
VERTEX
  5
53D
330
4B3
100
AcDbEntity
  8
Make2D$可见线$普通线
100
AcDbVertex
100
AcDb2dVertex
 10
625.1499930856555
 20
1393.479729010548
 30
0.0
  0
VERTEX
  5
53E
330
4B3
100
AcDbEntity
  8
Make2D$可见线$普通线
100
AcDbVertex
100
AcDb2dVertex
 10
625.1493077427144
 20
1393.491922238648
 30
0.0
  0
VERTEX
  5
53F
330
4B3
100
AcDbEntity
  8
Make2D$可见线$普通线
100
AcDbVertex
100
AcDb2dVertex
 10
625.1489031286612
 20
1393.504116306679
 30
0.0
  0
VERTEX
  5
540
330
4B3
100
AcDbEntity
  8
Make2D$可见线$普通线
100
AcDbVertex
100
AcDb2dVertex
 10
625.1487795568937
 20
1393.516310796389
 30
0.0
  0
VERTEX
  5
541
330
4B3
100
AcDbEntity
  8
Make2D$可见线$普通线
100
AcDbVertex
100
AcDb2dVertex
 10
625.1489377360301
 20
1393.529683842061
 30
0.0
  0
VERTEX
  5
542
330
4B3
100
AcDbEntity
  8
Make2D$可见线$普通线
100
AcDbVertex
100
AcDb2dVertex
 10
625.1494279895104
 20
1393.543061207227
 30
0.0
  0
VERTEX
  5
543
330
4B3
100
AcDbEntity
  8
Make2D$可见线$普通线
100
AcDbVertex
100
AcDb2dVertex
 10
625.1502506318972
 20
1393.556430522884
 30
0.0
  0
VERTEX
  5
544
330
4B3
100
AcDbEntity
  8
Make2D$可见线$普通线
100
AcDbVertex
100
AcDb2dVertex
 10
625.1514053632698
 20
1393.5697794044
 30
0.0
  0
VERTEX
  5
545
330
4B3
100
AcDbEntity
  8
Make2D$可见线$普通线
100
AcDbVertex
100
AcDb2dVertex
 10
625.1528912687288
 20
1393.583095489682
 30
0.0
  0
VERTEX
  5
546
330
4B3
100
AcDbEntity
  8
Make2D$可见线$普通线
100
AcDbVertex
100
AcDb2dVertex
 10
625.1547068207409
 20
1393.596366477306
 30
0.0
  0
VERTEX
  5
547
330
4B3
100
AcDbEntity
  8
Make2D$可见线$普通线
100
AcDbVertex
100
AcDb2dVertex
 10
625.1568498843185
 20
1393.609580164368
 30
0.0
  0
VERTEX
  5
548
330
4B3
100
AcDbEntity
  8
Make2D$可见线$普通线
100
AcDbVertex
100
AcDb2dVertex
 10
625.1593177249904
 20
1393.62272448381
 30
0.0
  0
SEQEND
  5
549
330
4B3
100
AcDbEntity
  8
Make2D$可见线$普通线
  0
SPLINE
  5
54A
330
1F
100
AcDbEntity
  8
Make2D$可见线$普通线
100
AcDbSpline
210
0.0
220
0.0
230
1.0
 70
    11
 71
     3
 72
    29
 73
    25
 74
     0
 42
0.000000001
 43
0.0000000001
 12
1.0
 22
0.0
 32
0.0
 13
1.0
 23
0.0
 33
0.0
 40
0.0
 40
0.0
 40
0.0
 40
0.0
 40
3.392552551739301
 40
7.068405072456737
 40
10.74425756244762
 40
14.13680977118517
 40
14.13680977118517
 40
14.13680977118517
 40
17.5293625044418
 40
21.20521486886963
 40
24.88106719842143
 40
28.27361954237847
 40
28.27361954237847
 40
28.27361954237847
 40
31.66617191972069
 40
35.34202424132913
 40
39.01787659366408
 40
42.41042931357241
 40
42.41042931357241
 40
42.41042931357241
 40
45.8029815093975
 40
49.47883398729545
 40
53.15468650006967
 40
56.54723908478546
 40
56.54723908478546
 40
56.54723908478546
 40
56.54723908478546
 10
633.1487795570024
 20
1390.22103964614
 30
0.0
 10
632.0179782475047
 20
1390.22093371883
 30
0.0
 10
629.6619676397695
 20
1390.337233700802
 30
0.0
 10
626.6049254321738
 20
1390.856729703036
 30
0.0
 10
624.5977240170646
 20
1391.647941305225
 30
0.0
 10
624.1483702734461
 20
1392.257714646541
 30
0.0
 10
624.1487795421706
 20
1392.550384151889
 30
0.0
 10
624.1483702727421
 20
1392.84305370263
 30
0.0
 10
624.5977241141863
 20
1393.452827078069
 30
0.0
 10
626.6049257226878
 20
1394.244038667885
 30
0.0
 10
629.6619678415364
 20
1394.763534616853
 30
0.0
 10
632.0179783167157
 20
1394.879834585046
 30
0.0
 10
633.1487795566757
 20
1394.879728659657
 30
0.0
 10
634.2795808081205
 20
1394.879834585063
 30
0.0
 10
636.6355912915405
 20
1394.763534615277
 30
0.0
 10
639.6926334075022
 20
1394.244038663121
 30
0.0
 10
641.6998350029185
 20
1393.452827074797
 30
0.0
 10
642.1491888410105
 20
1392.843053701501
 30
0.0
 10
642.1487795716396
 20
1392.550384152002
 30
0.0
 10
642.1491888403468
 20
1392.257714647446
 30
0.0
 10
641.699835100153
 20
1391.647941309053
 30
0.0
 10
639.6926336979714
 20
1390.856729707078
 30
0.0
 10
636.6355914935093
 20
1390.337233703749
 30
0.0
 10
634.2795808774565
 20
1390.220933716534
 30
0.0
 10
633.1487795570024
 20
1390.22103964614
 30
0.0
  0
SPLINE
  5
54B
330
1F
100
AcDbEntity
  8
Make2D$可见线$普通线
100
AcDbSpline
210
0.0
220
0.0
230
1.0
 70
    11
 71
     3
 72
    57
 73
    53
 74
     0
 42
0.000000001
 43
0.0000000001
 12
1.0
 22
0.0
 32
0.0
 13
1.0
 23
0.0
 33
0.0
 40
0.0
 40
0.0
 40
0.0
 40
0.0
 40
1.951726064061645
 40
3.833763771843669
 40
5.579366594974783
 40
7.128918568256856
 40
7.81436841573997
 40
8.433623053148196
 40
8.983343940753496
 40
9.46191491840796
 40
9.870254896191831
 40
10.21375236319302
 40
10.50434406885578
 40
10.76399045311866
 40
11.02365627943757
 40
11.31424823831137
 40
11.65774465354117
 40
12.06614911547214
 40
12.54467635476198
 40
13.09435689162718
 40
13.71362936361733
 40
14.39904230080543
 40
15.94859273876941
 40
17.69434742697469
 40
19.57618478932592
 40
21.52800568529376
 40
21.52800568529376
 40
21.52800568529376
 40
23.47981453920839
 40
25.36177684445927
 40
27.10737279456096
 40
28.65692414339356
 40
29.34237392420879
 40
29.96162857065453
 40
30.51134945214664
 40
30.98992043310207
 40
31.39826040321113
 40
31.74175790014927
 40
32.03234953041679
 40
32.29199653461966
 40
32.55166214740308
 40
32.84225341607277
 40
33.18575005036035
 40
33.59415443541335
 40
34.07268165930645
 40
34.62236217191625
 40
35.24163462153142
 40
35.92704753590269
 40
37.47659794206369
 40
39.22235262501017
 40
41.10419068871688
 40
43.05601135145018
 40
43.05601135145018
 40
43.05601135145018
 40
43.05601135145018
 10
633.148779050767
 20
1395.138542642459
 30
0.0
 10
633.7993577147988
 20
1395.138515784933
 30
0.0
 10
635.0772810496421
 20
1395.106531509417
 30
0.0
 10
636.9322521707666
 20
1394.963641940941
 30
0.0
 10
638.643222509142
 20
1394.732140033754
 30
0.0
 10
639.9436587027647
 20
1394.463533144915
 30
0.0
 10
640.8597280174868
 20
1394.204952365642
 30
0.0
 10
641.4441945676867
 20
1394.002942332955
 30
0.0
 10
641.9499485181694
 20
1393.787782598418
 30
0.0
 10
642.3723346491987
 20
1393.56080893829
 30
0.0
 10
642.708347824322
 20
1393.323910270074
 30
0.0
 10
642.9557983098388
 20
1393.077492535174
 30
0.0
 10
643.1115217420183
 20
1392.819853089145
 30
0.0
 10
643.1665505781614
 20
1392.550469329012
 30
0.0
 10
643.1115611149959
 20
1392.28078843624
 30
0.0
 10
642.9557280683315
 20
1392.023358165613
 30
0.0
 10
642.7083609171727
 20
1391.776854147936
 30
0.0
 10
642.3723304657768
 20
1391.539933847127
 30
0.0
 10
641.9499115796523
 20
1391.31304066064
 30
0.0
 10
641.4442582040055
 20
1391.097725468487
 30
0.0
 10
640.8596725945621
 20
1390.895984004345
 30
0.0
 10
639.943770870063
 20
1390.637097963132
 30
0.0
 10
638.6431617975331
 20
1390.368734853068
 30
0.0
 10
636.9322955046894
 20
1390.137073689822
 30
0.0
 10
635.0772752237665
 20
1389.994246327783
 30
0.0
 10
633.7993909743268
 20
1389.962253845672
 30
0.0
 10
633.1487790510969
 20
1389.962221522685
 30
0.0
 10
632.4981705367165
 20
1389.962253176866
 30
0.0
 10
631.220250547146
 20
1389.994248116685
 30
0.0
 10
629.3652733141703
 20
1390.137130389866
 30
0.0
 10
627.6543344397268
 20
1390.368636198506
 30
0.0
 10
626.353898267868
 20
1390.637238188829
 30
0.0
 10
625.4378304540575
 20
1390.89582122117
 30
0.0
 10
624.8533632798654
 20
1391.097830086727
 30
0.0
 10
624.3476097182772
 20
1391.312990526574
 30
0.0
 10
623.9252233634436
 20
1391.539963775536
 30
0.0
 10
623.5892103038684
 20
1391.776862679651
 30
0.0
 10
623.3417598098886
 20
1392.023280304568
 30
0.0
 10
623.1860362072382
 20
1392.280919961929
 30
0.0
 10
623.131007696566
 20
1392.550303836916
 30
0.0
 10
623.185997006965
 20
1392.819984703929
 30
0.0
 10
623.3418302537241
 20
1393.077414577667
 30
0.0
 10
623.5891969529796
 20
1393.323918715904
 30
0.0
 10
623.9252276432537
 20
1393.560838877863
 30
0.0
 10
624.3476463389503
 20
1393.78773219204
 30
0.0
 10
624.853299790561
 20
1394.003047295955
 30
0.0
 10
625.437885313007
 20
1394.204788822816
 30
0.0
 10
626.3537871104367
 20
1394.463674714978
 30
0.0
 10
627.6543951962408
 20
1394.732039383256
 30
0.0
 10
629.3652645146788
 20
1394.963696300271
 30
0.0
 10
631.2202795765818
 20
1395.10653127697
 30
0.0
 10
632.4981692842
 20
1395.138516219089
 30
0.0
 10
633.148779050767
 20
1395.138542642459
 30
0.0
  0
ENDSEC
  0
SECTION
  2
OBJECTS
  0
DICTIONARY
  5
C
330
0
100
AcDbDictionary
281
     1
  3
ACAD_GROUP
350
D
  3
ACAD_LAYOUT
350
1A
  3
ACAD_MATERIAL
350
3B
  3
ACAD_MLEADERSTYLE
350
576
  3
ACAD_MLINESTYLE
350
17
  3
ACAD_PLOTSETTINGS
350
19
  3
ACAD_PLOTSTYLENAME
350
E
  3
ACAD_SCALELIST
350
3F
  3
ACAD_TABLESTYLE
350
575
  3
ACAD_VISUALSTYLE
350
2A
  3
AcDbVariableDictionary
350
54C
  0
DICTIONARY
  5
D
102
{ACAD_REACTORS
330
C
102
}
330
C
100
AcDbDictionary
281
     1
  0
DICTIONARY
  5
1A
102
{ACAD_REACTORS
330
C
102
}
330
C
100
AcDbDictionary
281
     1
  3
Layout1
350
1E
  3
Layout2
350
26
  3
Model
350
22
  0
DICTIONARY
  5
3B
102
{ACAD_REACTORS
330
C
102
}
330
C
100
AcDbDictionary
281
     1
  3
ByBlock
350
3D
  3
ByLayer
350
3C
  3
Global
350
3E
  0
DICTIONARY
  5
576
102
{ACAD_REACTORS
330
C
102
}
330
C
100
AcDbDictionary
281
     1
  0
DICTIONARY
  5
17
102
{ACAD_REACTORS
330
C
102
}
330
C
100
AcDbDictionary
281
     1
  3
Standard
350
18
  0
DICTIONARY
  5
19
102
{ACAD_REACTORS
330
C
102
}
330
C
100
AcDbDictionary
281
     1
  0
ACDBDICTIONARYWDFLT
  5
E
102
{ACAD_REACTORS
330
C
102
}
330
C
100
AcDbDictionary
281
     1
  3
Normal
350
F
100
AcDbDictionaryWithDefault
340
F
  0
DICTIONARY
  5
3F
102
{ACAD_REACTORS
330
C
102
}
330
C
100
AcDbDictionary
281
     1
  3
A0
350
40
  3
A1
350
41
  3
A2
350
42
  3
A3
350
43
  3
A4
350
44
  3
A5
350
45
  3
A6
350
46
  3
A7
350
47
  3
A8
350
48
  3
A9
350
49
  3
B0
350
4A
  3
B1
350
4B
  3
B2
350
4C
  3
B3
350
4D
  3
B4
350
4E
  3
B5
350
4F
  3
B6
350
50
  3
B7
350
51
  3
B8
350
52
  3
B9
350
53
  3
C0
350
54
  3
C1
350
55
  3
C2
350
56
  3
C3
350
57
  3
C4
350
58
  3
C5
350
59
  3
C6
350
5A
  3
C7
350
5B
  3
C8
350
5C
  3
C9
350
5D
  3
D0
350
5E
  3
D1
350
5F
  3
D2
350
60
  0
DICTIONARY
  5
575
102
{ACAD_REACTORS
330
C
102
}
330
C
100
AcDbDictionary
281
     1
  0
DICTIONARY
  5
2A
102
{ACAD_REACTORS
330
C
102
}
330
C
100
AcDbDictionary
281
     1
  3
2dWireframe
350
2F
  3
3D Hidden
350
31
  3
3dWireframe
350
30
  3
Basic
350
32
  3
Brighten
350
36
  3
ColorChange
350
3A
  3
Conceptual
350
34
  3
Dim
350
35
  3
Facepattern
350
39
  3
Flat
350
2B
  3
FlatWithEdges
350
2C
  3
Gouraud
350
2D
  3
GouraudWithEdges
350
2E
  3
Linepattern
350
38
  3
Realistic
350
33
  3
Thicken
350
37
  0
DICTIONARY
  5
54C
102
{ACAD_REACTORS
330
C
102
}
330
C
100
AcDbDictionary
281
     1
  3
CANNOSCALE
350
54D
  3
MSLTSCALE
350
54E
  0
LAYOUT
  5
1E
102
{ACAD_REACTORS
330
1A
102
}
330
1A
100
AcDbPlotSettings
  1

  2
none_device
  4

  6

 40
0.0
 41
0.0
 42
0.0
 43
0.0
 44
0.0
 45
0.0
 46
0.0
 47
0.0
 48
0.0
 49
0.0
140
0.0
141
0.0
142
1.0
143
1.0
 70
   688
 72
     0
 73
     0
 74
     5
  7

 75
    16
 76
     0
 77
     2
 78
   300
147
1.0
148
0.0
149
0.0
100
AcDbLayout
  1
Layout1
 70
     1
 71
     1
 10
0.0
 20
0.0
 11
12.0
 21
9.0
 12
0.0
 22
0.0
 32
0.0
 14
1.000000000000000E+20
 24
1.000000000000000E+20
 34
1.000000000000000E+20
 15
-1.000000000000000E+20
 25
-1.000000000000000E+20
 35
-1.000000000000000E+20
146
0.0
 13
0.0
 23
0.0
 33
0.0
 16
1.0
 26
0.0
 36
0.0
 17
0.0
 27
1.0
 37
0.0
 76
     0
330
1B
  0
LAYOUT
  5
26
102
{ACAD_REACTORS
330
1A
102
}
330
1A
100
AcDbPlotSettings
  1

  2
none_device
  4

  6

 40
0.0
 41
0.0
 42
0.0
 43
0.0
 44
0.0
 45
0.0
 46
0.0
 47
0.0
 48
0.0
 49
0.0
140
0.0
141
0.0
142
1.0
143
1.0
 70
   688
 72
     0
 73
     0
 74
     5
  7

 75
    16
 76
     0
 77
     2
 78
   300
147
1.0
148
0.0
149
0.0
100
AcDbLayout
  1
Layout2
 70
     1
 71
     2
 10
0.0
 20
0.0
 11
0.0
 21
0.0
 12
0.0
 22
0.0
 32
0.0
 14
0.0
 24
0.0
 34
0.0
 15
0.0
 25
0.0
 35
0.0
146
0.0
 13
0.0
 23
0.0
 33
0.0
 16
1.0
 26
0.0
 36
0.0
 17
0.0
 27
1.0
 37
0.0
 76
     0
330
23
  0
LAYOUT
  5
22
102
{ACAD_REACTORS
330
1A
102
}
330
1A
100
AcDbPlotSettings
  1

  2
none_device
  4
Letter_(8.50_x_11.00_Inches)
  6

 40
6.35
 41
6.35
 42
6.35000508
 43
6.35000508
 44
215.9
 45
279.4
 46
0.0
 47
0.0
 48
0.0
 49
0.0
140
0.0
141
0.0
142
1.0
143
1.0
 70
  1712
 72
     0
 73
     0
 74
     0
  7

 75
     0
 76
     0
 77
     2
 78
   300
147
1.0
148
0.0
149
0.0
100
AcDbLayout
  1
Model
 70
     1
 71
     0
 10
0.0
 20
0.0
 11
12.0
 21
9.0
 12
0.0
 22
0.0
 32
0.0
 14
608.1487748388022
 24
1163.731393894453
 34
0.0
 15
707.8704184152282
 25
1514.83433809836
 35
0.0
146
0.0
 13
0.0
 23
0.0
 33
0.0
 16
1.0
 26
0.0
 36
0.0
 17
0.0
 27
1.0
 37
0.0
 76
     0
330
1F
331
29
  0
MATERIAL
  5
3D
102
{ACAD_REACTORS
330
3B
102
}
102
{ACAD_XDICTIONARY
360
571
102
}
330
3B
100
AcDbMaterial
  1
ByBlock
  0
MATERIAL
  5
3C
102
{ACAD_REACTORS
330
3B
102
}
102
{ACAD_XDICTIONARY
360
56F
102
}
330
3B
100
AcDbMaterial
  1
ByLayer
  0
MATERIAL
  5
3E
102
{ACAD_REACTORS
330
3B
102
}
102
{ACAD_XDICTIONARY
360
573
102
}
330
3B
100
AcDbMaterial
  1
Global
  0
MLINESTYLE
  5
18
102
{ACAD_REACTORS
330
17
102
}
330
17
100
AcDbMlineStyle
  2
Standard
 70
     0
  3

 62
   256
 51
90.0
 52
90.0
 71
     2
 49
0.5
 62
   256
  6
BYLAYER
 49
-0.5
 62
   256
  6
BYLAYER
  0
ACDBPLACEHOLDER
  5
F
102
{ACAD_REACTORS
330
E
102
}
330
E
  0
SCALE
  5
40
102
{ACAD_REACTORS
330
3F
102
}
330
3F
100
AcDbScale
 70
     0
300
1:1
140
1.0
141
1.0
290
     1
  0
SCALE
  5
41
102
{ACAD_REACTORS
330
3F
102
}
330
3F
100
AcDbScale
 70
     0
300
1:2
140
1.0
141
2.0
290
     0
  0
SCALE
  5
42
102
{ACAD_REACTORS
330
3F
102
}
330
3F
100
AcDbScale
 70
     0
300
1:4
140
1.0
141
4.0
290
     0
  0
SCALE
  5
43
102
{ACAD_REACTORS
330
3F
102
}
330
3F
100
AcDbScale
 70
     0
300
1:5
140
1.0
141
5.0
290
     0
  0
SCALE
  5
44
102
{ACAD_REACTORS
330
3F
102
}
330
3F
100
AcDbScale
 70
     0
300
1:8
140
1.0
141
8.0
290
     0
  0
SCALE
  5
45
102
{ACAD_REACTORS
330
3F
102
}
330
3F
100
AcDbScale
 70
     0
300
1:10
140
1.0
141
10.0
290
     0
  0
SCALE
  5
46
102
{ACAD_REACTORS
330
3F
102
}
330
3F
100
AcDbScale
 70
     0
300
1:16
140
1.0
141
16.0
290
     0
  0
SCALE
  5
47
102
{ACAD_REACTORS
330
3F
102
}
330
3F
100
AcDbScale
 70
     0
300
1:20
140
1.0
141
20.0
290
     0
  0
SCALE
  5
48
102
{ACAD_REACTORS
330
3F
102
}
330
3F
100
AcDbScale
 70
     0
300
1:30
140
1.0
141
30.0
290
     0
  0
SCALE
  5
49
102
{ACAD_REACTORS
330
3F
102
}
330
3F
100
AcDbScale
 70
     0
300
1:40
140
1.0
141
40.0
290
     0
  0
SCALE
  5
4A
102
{ACAD_REACTORS
330
3F
102
}
330
3F
100
AcDbScale
 70
     0
300
1:50
140
1.0
141
50.0
290
     0
  0
SCALE
  5
4B
102
{ACAD_REACTORS
330
3F
102
}
330
3F
100
AcDbScale
 70
     0
300
1:100
140
1.0
141
100.0
290
     0
  0
SCALE
  5
4C
102
{ACAD_REACTORS
330
3F
102
}
330
3F
100
AcDbScale
 70
     0
300
2:1
140
2.0
141
1.0
290
     0
  0
SCALE
  5
4D
102
{ACAD_REACTORS
330
3F
102
}
330
3F
100
AcDbScale
 70
     0
300
4:1
140
4.0
141
1.0
290
     0
  0
SCALE
  5
4E
102
{ACAD_REACTORS
330
3F
102
}
330
3F
100
AcDbScale
 70
     0
300
8:1
140
8.0
141
1.0
290
     0
  0
SCALE
  5
4F
102
{ACAD_REACTORS
330
3F
102
}
330
3F
100
AcDbScale
 70
     0
300
10:1
140
10.0
141
1.0
290
     0
  0
SCALE
  5
50
102
{ACAD_REACTORS
330
3F
102
}
330
3F
100
AcDbScale
 70
     0
300
100:1
140
100.0
141
1.0
290
     0
  0
SCALE
  5
51
102
{ACAD_REACTORS
330
3F
102
}
330
3F
100
AcDbScale
 70
     0
300
1/128" = 1'-0"
140
0.0078125
141
12.0
290
     0
  0
SCALE
  5
52
102
{ACAD_REACTORS
330
3F
102
}
330
3F
100
AcDbScale
 70
     0
300
1/64" = 1'-0"
140
0.015625
141
12.0
290
     0
  0
SCALE
  5
53
102
{ACAD_REACTORS
330
3F
102
}
330
3F
100
AcDbScale
 70
     0
300
1/32" = 1'-0"
140
0.03125
141
12.0
290
     0
  0
SCALE
  5
54
102
{ACAD_REACTORS
330
3F
102
}
330
3F
100
AcDbScale
 70
     0
300
1/16" = 1'-0"
140
0.0625
141
12.0
290
     0
  0
SCALE
  5
55
102
{ACAD_REACTORS
330
3F
102
}
330
3F
100
AcDbScale
 70
     0
300
3/32" = 1'-0"
140
0.09375
141
12.0
290
     0
  0
SCALE
  5
56
102
{ACAD_REACTORS
330
3F
102
}
330
3F
100
AcDbScale
 70
     0
300
1/8" = 1'-0"
140
0.125
141
12.0
290
     0
  0
SCALE
  5
57
102
{ACAD_REACTORS
330
3F
102
}
330
3F
100
AcDbScale
 70
     0
300
3/16" = 1'-0"
140
0.1875
141
12.0
290
     0
  0
SCALE
  5
58
102
{ACAD_REACTORS
330
3F
102
}
330
3F
100
AcDbScale
 70
     0
300
1/4" = 1'-0"
140
0.25
141
12.0
290
     0
  0
SCALE
  5
59
102
{ACAD_REACTORS
330
3F
102
}
330
3F
100
AcDbScale
 70
     0
300
3/8" = 1'-0"
140
0.375
141
12.0
290
     0
  0
SCALE
  5
5A
102
{ACAD_REACTORS
330
3F
102
}
330
3F
100
AcDbScale
 70
     0
300
1/2" = 1'-0"
140
0.5
141
12.0
290
     0
  0
SCALE
  5
5B
102
{ACAD_REACTORS
330
3F
102
}
330
3F
100
AcDbScale
 70
     0
300
3/4" = 1'-0"
140
0.75
141
12.0
290
     0
  0
SCALE
  5
5C
102
{ACAD_REACTORS
330
3F
102
}
330
3F
100
AcDbScale
 70
     0
300
1" = 1'-0"
140
1.0
141
12.0
290
     0
  0
SCALE
  5
5D
102
{ACAD_REACTORS
330
3F
102
}
330
3F
100
AcDbScale
 70
     0
300
1-1/2" = 1'-0"
140
1.5
141
12.0
290
     0
  0
SCALE
  5
5E
102
{ACAD_REACTORS
330
3F
102
}
330
3F
100
AcDbScale
 70
     0
300
3" = 1'-0"
140
3.0
141
12.0
290
     0
  0
SCALE
  5
5F
102
{ACAD_REACTORS
330
3F
102
}
330
3F
100
AcDbScale
 70
     0
300
6" = 1'-0"
140
6.0
141
12.0
290
     0
  0
SCALE
  5
60
102
{ACAD_REACTORS
330
3F
102
}
330
3F
100
AcDbScale
 70
     0
300
1'-0" = 1'-0"
140
12.0
141
12.0
290
     0
  0
VISUALSTYLE
  5
2F
102
{ACAD_REACTORS
330
2A
102
}
102
{ACAD_XDICTIONARY
360
557
102
}
330
2A
100
AcDbVisualStyle
  2
2dWireframe
 70
     4
 71
     0
 72
     2
 73
     0
 90
        0
 40
0.6
 41
30.0
 62
     5
 63
     7
421
 16777215
 74
     1
 91
        4
 64
     7
 65
   257
 75
     1
175
     1
 42
1.0
 92
        0
 66
   257
 43
1.0
 76
     1
 77
     6
 78
     2
 67
     7
 79
     5
170
     0
171
     0
290
     0
174
     0
 93
        1
 44
0.0
173
     0
291
     0
 45
0.0
1001
ACAD
1000
AcDbSavedByObjectVersion
1070
     0
  0
VISUALSTYLE
  5
31
102
{ACAD_REACTORS
330
2A
102
}
102
{ACAD_XDICTIONARY
360
55B
102
}
330
2A
100
AcDbVisualStyle
  2
3D Hidden
 70
     6
 71
     1
 72
     2
 73
     2
 90
        0
 40
0.6
 41
30.0
 62
     5
 63
     7
421
 16777215
 74
     2
 91
        2
 64
     7
 65
   257
 75
     2
175
     1
 42
40.0
 92
        0
 66
   257
 43
1.0
 76
     1
 77
     6
 78
     2
 67
     7
 79
     3
170
     0
171
     0
290
     0
174
     0
 93
        1
 44
0.0
173
     0
291
     0
 45
0.0
1001
ACAD
1000
AcDbSavedByObjectVersion
1070
     0
  0
VISUALSTYLE
  5
30
102
{ACAD_REACTORS
330
2A
102
}
102
{ACAD_XDICTIONARY
360
559
102
}
330
2A
100
AcDbVisualStyle
  2
3dWireframe
 70
     5
 71
     0
 72
     2
 73
     0
 90
        0
 40
0.6
 41
30.0
 62
     5
 63
     7
421
 16777215
 74
     1
 91
        4
 64
     7
 65
   257
 75
     1
175
     1
 42
1.0
 92
        0
 66
   257
 43
1.0
 76
     1
 77
     6
 78
     2
 67
     7
 79
     5
170
     0
171
     0
290
     0
174
     0
 93
        1
 44
0.0
173
     0
291
     0
 45
0.0
1001
ACAD
1000
AcDbSavedByObjectVersion
1070
     0
  0
VISUALSTYLE
  5
32
102
{ACAD_REACTORS
330
2A
102
}
102
{ACAD_XDICTIONARY
360
55D
102
}
330
2A
100
AcDbVisualStyle
  2
Basic
 70
     7
 71
     1
 72
     0
 73
     1
 90
        0
 40
0.6
 41
30.0
 62
     5
 63
     7
421
 16777215
 74
     0
 91
        4
 64
     7
 65
   257
 75
     1
175
     1
 42
1.0
 92
        8
 66
     7
 43
1.0
 76
     1
 77
     6
 78
     2
 67
     7
 79
     5
170
     0
171
     0
290
     0
174
     0
 93
        1
 44
0.0
173
     0
291
     1
 45
0.0
1001
ACAD
1000
AcDbSavedByObjectVersion
1070
     0
  0
VISUALSTYLE
  5
36
102
{ACAD_REACTORS
330
2A
102
}
102
{ACAD_XDICTIONARY
360
565
102
}
330
2A
100
AcDbVisualStyle
  2
Brighten
 70
    12
 71
     2
 72
     2
 73
     0
 90
        0
 40
0.6
 41
30.0
 62
     5
 63
     7
421
 16777215
 74
     1
 91
        4
 64
     7
 65
   257
 75
     1
175
     1
 42
1.0
 92
        8
 66
     7
 43
1.0
 76
     1
 77
     6
 78
     2
 67
     7
 79
     5
170
     0
171
     0
290
     0
174
     0
 93
        1
 44
50.0
173
     0
291
     1
 45
0.0
1001
ACAD
1000
AcDbSavedByObjectVersion
1070
     0
  0
VISUALSTYLE
  5
3A
102
{ACAD_REACTORS
330
2A
102
}
102
{ACAD_XDICTIONARY
360
56D
102
}
330
2A
100
AcDbVisualStyle
  2
ColorChange
 70
    16
 71
     2
 72
     2
 73
     3
 90
        0
 40
0.6
 41
30.0
 62
     5
 63
     8
421
  8421504
 74
     1
 91
        4
 64
     7
 65
   257
 75
     1
175
     1
 42
1.0
 92
        8
 66
     8
424
  8421504
 43
1.0
 76
     1
 77
     6
 78
     2
 67
     7
 79
     5
170
     0
171
     0
290
     0
174
     0
 93
        1
 44
0.0
173
     0
291
     1
 45
0.0
1001
ACAD
1000
AcDbSavedByObjectVersion
1070
     0
  0
VISUALSTYLE
  5
34
102
{ACAD_REACTORS
330
2A
102
}
102
{ACAD_XDICTIONARY
360
561
102
}
330
2A
100
AcDbVisualStyle
  2
Conceptual
 70
     9
 71
     3
 72
     2
 73
     0
 90
        0
 40
0.6
 41
30.0
 62
     5
 63
     7
421
 16777215
 74
     2
 91
        2
 64
     7
 65
   257
 75
     1
175
     1
 42
40.0
 92
        8
 66
     7
 43
1.0
 76
     1
 77
     6
 78
     2
 67
     7
 79
     3
170
     0
171
     0
290
     0
174
     0
 93
        1
 44
0.0
173
     0
291
     0
 45
0.0
1001
ACAD
1000
AcDbSavedByObjectVersion
1070
     0
  0
VISUALSTYLE
  5
35
102
{ACAD_REACTORS
330
2A
102
}
102
{ACAD_XDICTIONARY
360
563
102
}
330
2A
100
AcDbVisualStyle
  2
Dim
 70
    11
 71
     2
 72
     2
 73
     0
 90
        0
 40
0.6
 41
30.0
 62
     5
 63
     7
421
 16777215
 74
     1
 91
        4
 64
     7
 65
   257
 75
     1
175
     1
 42
1.0
 92
        8
 66
     7
 43
1.0
 76
     1
 77
     6
 78
     2
 67
     7
 79
     5
170
     0
171
     0
290
     0
174
     0
 93
        1
 44
-50.0
173
     0
291
     1
 45
0.0
1001
ACAD
1000
AcDbSavedByObjectVersion
1070
     0
  0
VISUALSTYLE
  5
39
102
{ACAD_REACTORS
330
2A
102
}
102
{ACAD_XDICTIONARY
360
56B
102
}
330
2A
100
AcDbVisualStyle
  2
Facepattern
 70
    15
 71
     2
 72
     2
 73
     0
 90
        0
 40
0.6
 41
30.0
 62
     5
 63
     7
421
 16777215
 74
     1
 91
        4
 64
     7
 65
   257
 75
     1
175
     1
 42
1.0
 92
        8
 66
     7
 43
1.0
 76
     1
 77
     6
 78
     2
 67
     7
 79
     5
170
     0
171
     0
290
     0
174
     0
 93
        1
 44
0.0
173
     0
291
     1
 45
0.0
1001
ACAD
1000
AcDbSavedByObjectVersion
1070
     0
  0
VISUALSTYLE
  5
2B
102
{ACAD_REACTORS
330
2A
102
}
102
{ACAD_XDICTIONARY
360
54F
102
}
330
2A
100
AcDbVisualStyle
  2
Flat
 70
     0
 71
     2
 72
     1
 73
     1
 90
        2
 40
0.6
 41
30.0
 62
     5
 63
     7
421
 16777215
 74
     0
 91
        4
 64
     7
 65
   257
 75
     1
175
     1
 42
1.0
 92
        8
 66
     7
 43
1.0
 76
     1
 77
     6
 78
     2
 67
     7
 79
     5
170
     0
171
     0
290
     0
174
     0
 93
       13
 44
0.0
173
     0
291
     1
 45
0.0
1001
ACAD
1000
AcDbSavedByObjectVersion
1070
     0
  0
VISUALSTYLE
  5
2C
102
{ACAD_REACTORS
330
2A
102
}
102
{ACAD_XDICTIONARY
360
551
102
}
330
2A
100
AcDbVisualStyle
  2
FlatWithEdges
 70
     1
 71
     2
 72
     1
 73
     1
 90
        2
 40
0.6
 41
30.0
 62
     5
 63
     7
421
 16777215
 74
     1
 91
        4
 64
     7
 65
   257
 75
     1
175
     1
 42
1.0
 92
        0
 66
   257
 43
1.0
 76
     1
 77
     6
 78
     2
 67
     7
 79
     5
170
     0
171
     0
290
     0
174
     0
 93
       13
 44
0.0
173
     0
291
     1
 45
0.0
1001
ACAD
1000
AcDbSavedByObjectVersion
1070
     0
  0
VISUALSTYLE
  5
2D
102
{ACAD_REACTORS
330
2A
102
}
102
{ACAD_XDICTIONARY
360
553
102
}
330
2A
100
AcDbVisualStyle
  2
Gouraud
 70
     2
 71
     2
 72
     2
 73
     1
 90
        2
 40
0.6
 41
30.0
 62
     5
 63
     7
421
 16777215
 74
     0
 91
        4
 64
     7
 65
   257
 75
     1
175
     1
 42
1.0
 92
        0
 66
     7
 43
1.0
 76
     1
 77
     6
 78
     2
 67
     7
 79
     5
170
     0
171
     0
290
     0
174
     0
 93
       13
 44
0.0
173
     0
291
     1
 45
0.0
1001
ACAD
1000
AcDbSavedByObjectVersion
1070
     0
  0
VISUALSTYLE
  5
2E
102
{ACAD_REACTORS
330
2A
102
}
102
{ACAD_XDICTIONARY
360
555
102
}
330
2A
100
AcDbVisualStyle
  2
GouraudWithEdges
 70
     3
 71
     2
 72
     2
 73
     1
 90
        2
 40
0.6
 41
30.0
 62
     5
 63
     7
421
 16777215
 74
     1
 91
        4
 64
     7
 65
   257
 75
     1
175
     1
 42
1.0
 92
        0
 66
   257
 43
1.0
 76
     1
 77
     6
 78
     2
 67
     7
 79
     5
170
     0
171
     0
290
     0
174
     0
 93
       13
 44
0.0
173
     0
291
     1
 45
0.0
1001
ACAD
1000
AcDbSavedByObjectVersion
1070
     0
  0
VISUALSTYLE
  5
38
102
{ACAD_REACTORS
330
2A
102
}
102
{ACAD_XDICTIONARY
360
569
102
}
330
2A
100
AcDbVisualStyle
  2
Linepattern
 70
    14
 71
     2
 72
     2
 73
     0
 90
        0
 40
0.6
 41
30.0
 62
     5
 63
     7
421
 16777215
 74
     1
 91
        4
 64
     7
 65
   257
 75
     7
175
     7
 42
1.0
 92
        8
 66
     7
 43
1.0
 76
     1
 77
     6
 78
     2
 67
     7
 79
     5
170
     0
171
     0
290
     0
174
     0
 93
        1
 44
0.0
173
     0
291
     1
 45
0.0
1001
ACAD
1000
AcDbSavedByObjectVersion
1070
     0
  0
VISUALSTYLE
  5
33
102
{ACAD_REACTORS
330
2A
102
}
102
{ACAD_XDICTIONARY
360
55F
102
}
330
2A
100
AcDbVisualStyle
  2
Realistic
 70
     8
 71
     2
 72
     3
 73
     0
 90
        2
 40
0.6
 41
30.0
 62
     5
 63
     7
421
 16777215
 74
     0
 91
        0
 64
     7
 65
   257
 75
     1
175
     1
 42
1.0
 92
        8
 66
   257
 43
1.0
 76
     1
 77
     6
 78
     2
 67
     7
 79
     3
170
     0
171
     0
290
     0
174
     0
 93
       13
 44
0.0
173
     0
291
     0
 45
0.0
1001
ACAD
1000
AcDbSavedByObjectVersion
1070
     0
  0
VISUALSTYLE
  5
37
102
{ACAD_REACTORS
330
2A
102
}
102
{ACAD_XDICTIONARY
360
567
102
}
330
2A
100
AcDbVisualStyle
  2
Thicken
 70
    13
 71
     2
 72
     2
 73
     0
 90
        0
 40
0.6
 41
30.0
 62
     5
 63
     7
421
 16777215
 74
     1
 91
        4
 64
     7
 65
   257
 75
     1
175
     1
 42
1.0
 92
       12
 66
     7
 43
1.0
 76
     1
 77
     6
 78
     2
 67
     7
 79
     5
170
     0
171
     0
290
     0
174
     0
 93
        1
 44
0.0
173
     0
291
     1
 45
0.0
1001
ACAD
1000
AcDbSavedByObjectVersion
1070
     0
  0
DICTIONARYVAR
  5
54D
102
{ACAD_REACTORS
330
54C
102
}
330
54C
100
DictionaryVariables
280
     0
  1
1:1
  0
DICTIONARYVAR
  5
54E
102
{ACAD_REACTORS
330
54C
102
}
330
54C
100
DictionaryVariables
280
     0
  1
1
  0
DICTIONARY
  5
571
330
3D
100
AcDbDictionary
280
     1
281
     1
  3
ACAD_XREC_ROUNDTRIP
360
572
  0
DICTIONARY
  5
56F
330
3C
100
AcDbDictionary
280
     1
281
     1
  3
ACAD_XREC_ROUNDTRIP
360
570
  0
DICTIONARY
  5
573
330
3E
100
AcDbDictionary
280
     1
281
     1
  3
ACAD_XREC_ROUNDTRIP
360
574
  0
DICTIONARY
  5
557
330
2F
100
AcDbDictionary
280
     1
281
     1
  3
ACAD_XREC_ROUNDTRIP
360
558
  0
DICTIONARY
  5
55B
330
31
100
AcDbDictionary
280
     1
281
     1
  3
ACAD_XREC_ROUNDTRIP
360
55C
  0
DICTIONARY
  5
559
330
30
100
AcDbDictionary
280
     1
281
     1
  3
ACAD_XREC_ROUNDTRIP
360
55A
  0
DICTIONARY
  5
55D
330
32
100
AcDbDictionary
280
     1
281
     1
  3
ACAD_XREC_ROUNDTRIP
360
55E
  0
DICTIONARY
  5
565
330
36
100
AcDbDictionary
280
     1
281
     1
  3
ACAD_XREC_ROUNDTRIP
360
566
  0
DICTIONARY
  5
56D
330
3A
100
AcDbDictionary
280
     1
281
     1
  3
ACAD_XREC_ROUNDTRIP
360
56E
  0
DICTIONARY
  5
561
330
34
100
AcDbDictionary
280
     1
281
     1
  3
ACAD_XREC_ROUNDTRIP
360
562
  0
DICTIONARY
  5
563
330
35
100
AcDbDictionary
280
     1
281
     1
  3
ACAD_XREC_ROUNDTRIP
360
564
  0
DICTIONARY
  5
56B
330
39
100
AcDbDictionary
280
     1
281
     1
  3
ACAD_XREC_ROUNDTRIP
360
56C
  0
DICTIONARY
  5
54F
330
2B
100
AcDbDictionary
280
     1
281
     1
  3
ACAD_XREC_ROUNDTRIP
360
550
  0
DICTIONARY
  5
551
330
2C
100
AcDbDictionary
280
     1
281
     1
  3
ACAD_XREC_ROUNDTRIP
360
552
  0
DICTIONARY
  5
553
330
2D
100
AcDbDictionary
280
     1
281
     1
  3
ACAD_XREC_ROUNDTRIP
360
554
  0
DICTIONARY
  5
555
330
2E
100
AcDbDictionary
280
     1
281
     1
  3
ACAD_XREC_ROUNDTRIP
360
556
  0
DICTIONARY
  5
569
330
38
100
AcDbDictionary
280
     1
281
     1
  3
ACAD_XREC_ROUNDTRIP
360
56A
  0
DICTIONARY
  5
55F
330
33
100
AcDbDictionary
280
     1
281
     1
  3
ACAD_XREC_ROUNDTRIP
360
560
  0
DICTIONARY
  5
567
330
37
100
AcDbDictionary
280
     1
281
     1
  3
ACAD_XREC_ROUNDTRIP
360
568
  0
XRECORD
  5
572
102
{ACAD_REACTORS
330
571
102
}
330
571
100
AcDbXrecord
280
     1
102
MATERIAL
148
0.0
149
0.0
149
0.0
 93
        0
 94
      127
282
     0
 72
     1
 77
     1
171
     1
175
     1
179
     1
273
     0
  0
XRECORD
  5
570
102
{ACAD_REACTORS
330
56F
102
}
330
56F
100
AcDbXrecord
280
     1
102
MATERIAL
148
0.0
149
0.0
149
0.0
 93
        0
 94
      127
282
     0
 72
     1
 77
     1
171
     1
175
     1
179
     1
273
     0
  0
XRECORD
  5
574
102
{ACAD_REACTORS
330
573
102
}
330
573
100
AcDbXrecord
280
     1
102
MATERIAL
148
0.0
149
0.0
149
0.0
 93
        0
 94
      127
282
     0
 72
     1
 77
     1
171
     1
175
     1
179
     1
273
     0
  0
XRECORD
  5
558
102
{ACAD_REACTORS
330
557
102
}
330
557
100
AcDbXrecord
280
     1
102
RTVSPropertyOp0
 70
     1
102
RTVSPropertyOp1
 70
     1
102
RTVSPropertyOp2
 70
     1
102
RTVSPropertyOp3
 70
     1
102
RTVSPropertyOp4
 70
     1
102
RTVSPropertyOp5
 70
     1
102
RTVSPropertyOp6
 70
     1
102
RTVSPropertyOp7
 70
     1
102
RTVSPropertyOp8
 70
     1
102
RTVSPropertyOp9
 70
     1
102
RTVSPropertyOp10
 70
     1
102
RTVSPropertyOp11
 70
     1
102
RTVSPropertyOp12
 70
     1
102
RTVSPropertyOp13
 70
     1
102
RTVSPropertyOp14
 70
     1
102
RTVSPropertyOp15
 70
     1
102
RTVSPropertyOp16
 70
     1
102
RTVSPropertyOp17
 70
     1
102
RTVSPropertyOp18
 70
     1
102
RTVSPropertyOp19
 70
     1
102
RTVSPropertyOp20
 70
     1
102
RTVSPropertyOp21
 70
     1
102
RTVSPropertyOp22
 70
     1
102
RTVSPropertyOp23
 70
     1
102
RTVSPropertyOp24
 70
     1
102
RTVSPropertyOp25
 70
     1
102
RTVSPropertyOp26
 70
     1
102
RTVSPropertyOp27
 70
     1
102
RTVSPropertyOp28
 70
     1
102
RTVSPropertyOp29
 70
     1
102
RTVSPropertyOp30
 70
     1
102
RTVSPropertyOp31
 70
     1
102
RTVSPropertyOp32
 70
     1
102
RTVSPropertyOp33
 70
     1
102
RTVSPropertyOp34
 70
     1
102
RTVSPropertyOp35
 70
     1
102
RTVSPropertyOp36
 70
     1
102
RTVSPropertyOp37
 70
     1
102
RTVSPropertyOp38
 70
     1
102
RTVSPropertyOp39
 70
     1
102
RTVSPropertyOp40
 70
     1
102
RTVSPropertyOp41
 70
     1
102
RTVSPropertyOp42
 70
     1
102
RTVSPropertyOp43
 70
     1
102
RTVSPropertyOp44
 70
     1
102
RTVSPropertyOp45
 70
     1
102
RTVSPropertyOp46
 70
     1
102
RTVSPropertyOp47
 70
     1
102
RTVSPropertyOp48
 70
     1
102
RTVSPropertyOp49
 70
     1
102
RTVSPropertyOp50
 70
     1
102
RTVSPropertyOp51
 70
     0
102
RTVSPropertyOp52
 70
     0
102
RTVSPropertyOp53
 70
     1
102
RTVSPropertyOp54
 70
     1
102
RTVSPropertyOp55
 70
     1
102
RTVSPropertyOp56
 70
     1
102
RTVSPropertyOp57
 70
     1
102
RTVSPost2010Prop28
280
     1
102
RTVSPost2010PropOp28
 70
     1
102
RTVSPost2010Prop29
280
     1
102
RTVSPost2010PropOp29
 70
     1
102
RTVSPost2010Prop30
280
     0
102
RTVSPost2010PropOp30
 70
     1
102
RTVSPost2010Prop31
280
     0
102
RTVSPost2010PropOp31
 70
     1
102
RTVSPost2010Prop32
280
     0
102
RTVSPost2010PropOp32
 70
     1
102
RTVSPost2010Prop33
280
     0
102
RTVSPost2010PropOp33
 70
     1
102
RTVSPost2010Prop34
280
     0
102
RTVSPost2010PropOp34
 70
     1
102
RTVSPost2010Prop35
280
     0
102
RTVSPost2010PropOp35
 70
     1
102
RTVSPost2010Prop36
280
     0
102
RTVSPost2010PropOp36
 70
     1
102
RTVSPost2010Prop37
 90
       50
102
RTVSPost2010PropOp37
 70
     1
102
RTVSPost2010Prop38
140
0.0
102
RTVSPost2010PropOp38
 70
     1
102
RTVSPost2010Prop39
140
1.0
102
RTVSPost2010PropOp39
 70
     1
102
RTVSPost2010Prop40
 90
        0
102
RTVSPost2010PropOp40
 70
     1
102
RTVSPost2010Prop41ColorIndex
 90
       18
102
RTVSPost2010Prop41ColorRGB
 90
        0
102
RTVSPost2010PropOp41
 70
     1
102
RTVSPost2010Prop42
 90
       50
102
RTVSPost2010PropOp42
 70
     1
102
RTVSPost2010Prop43
 90
        3
102
RTVSPost2010PropOp43
 70
     1
102
RTVSPost2010Prop44ColorIndex
 90
        5
102
RTVSPost2010Prop44ColorRGB
 90
      255
102
RTVSPost2010PropOp44
 70
     1
102
RTVSPost2010Prop45
280
     0
102
RTVSPost2010PropOp45
 70
     1
102
RTVSPost2010Prop46
 90
       50
102
RTVSPost2010PropOp46
 70
     1
102
RTVSPost2010Prop47
 90
       50
102
RTVSPost2010PropOp47
 70
     1
102
RTVSPost2010Prop48
 90
       50
102
RTVSPost2010PropOp48
 70
     1
102
RTVSPost2010Prop49
280
     0
102
RTVSPost2010PropOp49
 70
     1
102
RTVSPost2010Prop50
 90
       50
102
RTVSPost2010PropOp50
 70
     1
102
RTVSPost2010Prop51ColorIndex
 90
      256
102
RTVSPost2010Prop51ColorRGB
 90
-16777216
102
RTVSPost2010PropOp51
 70
     0
102
RTVSPost2010Prop52
140
1.0
102
RTVSPost2010PropOp52
 70
     0
102
RTVSPost2010Prop53
 90
        2
102
RTVSPost2010PropOp53
 70
     1
102
RTVSPost2010Prop54
  1
strokes_ogs.tif
102
RTVSPost2010PropOp54
 70
     1
102
RTVSPost2010Prop55
280
     0
102
RTVSPost2010PropOp55
 70
     1
102
RTVSPost2010Prop56
140
1.0
102
RTVSPost2010PropOp56
 70
     1
102
RTVSPost2010Prop57
140
1.0
102
RTVSPost2010PropOp57
 70
     1
  0
XRECORD
  5
55C
102
{ACAD_REACTORS
330
55B
102
}
330
55B
100
AcDbXrecord
280
     1
102
RTVSPropertyOp0
 70
     1
102
RTVSPropertyOp1
 70
     1
102
RTVSPropertyOp2
 70
     1
102
RTVSPropertyOp3
 70
     1
102
RTVSPropertyOp4
 70
     1
102
RTVSPropertyOp5
 70
     1
102
RTVSPropertyOp6
 70
     1
102
RTVSPropertyOp7
 70
     1
102
RTVSPropertyOp8
 70
     1
102
RTVSPropertyOp9
 70
     1
102
RTVSPropertyOp10
 70
     1
102
RTVSPropertyOp11
 70
     1
102
RTVSPropertyOp12
 70
     1
102
RTVSPropertyOp13
 70
     1
102
RTVSPropertyOp14
 70
     1
102
RTVSPropertyOp15
 70
     1
102
RTVSPropertyOp16
 70
     1
102
RTVSPropertyOp17
 70
     1
102
RTVSPropertyOp18
 70
     1
102
RTVSPropertyOp19
 70
     1
102
RTVSPropertyOp20
 70
     1
102
RTVSPropertyOp21
 70
     1
102
RTVSPropertyOp22
 70
     1
102
RTVSPropertyOp23
 70
     1
102
RTVSPropertyOp24
 70
     1
102
RTVSPropertyOp25
 70
     1
102
RTVSPropertyOp26
 70
     1
102
RTVSPropertyOp27
 70
     1
102
RTVSPropertyOp28
 70
     1
102
RTVSPropertyOp29
 70
     1
102
RTVSPropertyOp30
 70
     1
102
RTVSPropertyOp31
 70
     1
102
RTVSPropertyOp32
 70
     1
102
RTVSPropertyOp33
 70
     1
102
RTVSPropertyOp34
 70
     1
102
RTVSPropertyOp35
 70
     1
102
RTVSPropertyOp36
 70
     1
102
RTVSPropertyOp37
 70
     1
102
RTVSPropertyOp38
 70
     1
102
RTVSPropertyOp39
 70
     1
102
RTVSPropertyOp40
 70
     1
102
RTVSPropertyOp41
 70
     1
102
RTVSPropertyOp42
 70
     1
102
RTVSPropertyOp43
 70
     1
102
RTVSPropertyOp44
 70
     1
102
RTVSPropertyOp45
 70
     1
102
RTVSPropertyOp46
 70
     1
102
RTVSPropertyOp47
 70
     1
102
RTVSPropertyOp48
 70
     1
102
RTVSPropertyOp49
 70
     1
102
RTVSPropertyOp50
 70
     1
102
RTVSPropertyOp51
 70
     0
102
RTVSPropertyOp52
 70
     0
102
RTVSPropertyOp53
 70
     1
102
RTVSPropertyOp54
 70
     1
102
RTVSPropertyOp55
 70
     1
102
RTVSPropertyOp56
 70
     1
102
RTVSPropertyOp57
 70
     1
102
RTVSPost2010Prop28
280
     0
102
RTVSPost2010PropOp28
 70
     1
102
RTVSPost2010Prop29
280
     1
102
RTVSPost2010PropOp29
 70
     1
102
RTVSPost2010Prop30
280
     1
102
RTVSPost2010PropOp30
 70
     1
102
RTVSPost2010Prop31
280
     0
102
RTVSPost2010PropOp31
 70
     1
102
RTVSPost2010Prop32
280
     0
102
RTVSPost2010PropOp32
 70
     1
102
RTVSPost2010Prop33
280
     0
102
RTVSPost2010PropOp33
 70
     1
102
RTVSPost2010Prop34
280
     0
102
RTVSPost2010PropOp34
 70
     1
102
RTVSPost2010Prop35
280
     0
102
RTVSPost2010PropOp35
 70
     1
102
RTVSPost2010Prop36
280
     0
102
RTVSPost2010PropOp36
 70
     1
102
RTVSPost2010Prop37
 90
       50
102
RTVSPost2010PropOp37
 70
     1
102
RTVSPost2010Prop38
140
0.0
102
RTVSPost2010PropOp38
 70
     1
102
RTVSPost2010Prop39
140
1.0
102
RTVSPost2010PropOp39
 70
     1
102
RTVSPost2010Prop40
 90
        0
102
RTVSPost2010PropOp40
 70
     1
102
RTVSPost2010Prop41ColorIndex
 90
       18
102
RTVSPost2010Prop41ColorRGB
 90
        0
102
RTVSPost2010PropOp41
 70
     1
102
RTVSPost2010Prop42
 90
       50
102
RTVSPost2010PropOp42
 70
     1
102
RTVSPost2010Prop43
 90
        3
102
RTVSPost2010PropOp43
 70
     1
102
RTVSPost2010Prop44ColorIndex
 90
        5
102
RTVSPost2010Prop44ColorRGB
 90
      255
102
RTVSPost2010PropOp44
 70
     1
102
RTVSPost2010Prop45
280
     0
102
RTVSPost2010PropOp45
 70
     1
102
RTVSPost2010Prop46
 90
       50
102
RTVSPost2010PropOp46
 70
     1
102
RTVSPost2010Prop47
 90
       50
102
RTVSPost2010PropOp47
 70
     1
102
RTVSPost2010Prop48
 90
       50
102
RTVSPost2010PropOp48
 70
     1
102
RTVSPost2010Prop49
280
     0
102
RTVSPost2010PropOp49
 70
     1
102
RTVSPost2010Prop50
 90
       50
102
RTVSPost2010PropOp50
 70
     1
102
RTVSPost2010Prop51ColorIndex
 90
      256
102
RTVSPost2010Prop51ColorRGB
 90
-16777216
102
RTVSPost2010PropOp51
 70
     0
102
RTVSPost2010Prop52
140
1.0
102
RTVSPost2010PropOp52
 70
     0
102
RTVSPost2010Prop53
 90
        2
102
RTVSPost2010PropOp53
 70
     1
102
RTVSPost2010Prop54
  1
strokes_ogs.tif
102
RTVSPost2010PropOp54
 70
     1
102
RTVSPost2010Prop55
280
     0
102
RTVSPost2010PropOp55
 70
     1
102
RTVSPost2010Prop56
140
1.0
102
RTVSPost2010PropOp56
 70
     1
102
RTVSPost2010Prop57
140
1.0
102
RTVSPost2010PropOp57
 70
     1
  0
XRECORD
  5
55A
102
{ACAD_REACTORS
330
559
102
}
330
559
100
AcDbXrecord
280
     1
102
RTVSPropertyOp0
 70
     1
102
RTVSPropertyOp1
 70
     1
102
RTVSPropertyOp2
 70
     1
102
RTVSPropertyOp3
 70
     1
102
RTVSPropertyOp4
 70
     1
102
RTVSPropertyOp5
 70
     1
102
RTVSPropertyOp6
 70
     1
102
RTVSPropertyOp7
 70
     1
102
RTVSPropertyOp8
 70
     1
102
RTVSPropertyOp9
 70
     1
102
RTVSPropertyOp10
 70
     1
102
RTVSPropertyOp11
 70
     1
102
RTVSPropertyOp12
 70
     1
102
RTVSPropertyOp13
 70
     1
102
RTVSPropertyOp14
 70
     1
102
RTVSPropertyOp15
 70
     1
102
RTVSPropertyOp16
 70
     1
102
RTVSPropertyOp17
 70
     1
102
RTVSPropertyOp18
 70
     1
102
RTVSPropertyOp19
 70
     1
102
RTVSPropertyOp20
 70
     1
102
RTVSPropertyOp21
 70
     1
102
RTVSPropertyOp22
 70
     1
102
RTVSPropertyOp23
 70
     1
102
RTVSPropertyOp24
 70
     1
102
RTVSPropertyOp25
 70
     1
102
RTVSPropertyOp26
 70
     1
102
RTVSPropertyOp27
 70
     1
102
RTVSPropertyOp28
 70
     1
102
RTVSPropertyOp29
 70
     1
102
RTVSPropertyOp30
 70
     1
102
RTVSPropertyOp31
 70
     1
102
RTVSPropertyOp32
 70
     1
102
RTVSPropertyOp33
 70
     1
102
RTVSPropertyOp34
 70
     1
102
RTVSPropertyOp35
 70
     1
102
RTVSPropertyOp36
 70
     1
102
RTVSPropertyOp37
 70
     1
102
RTVSPropertyOp38
 70
     1
102
RTVSPropertyOp39
 70
     1
102
RTVSPropertyOp40
 70
     1
102
RTVSPropertyOp41
 70
     1
102
RTVSPropertyOp42
 70
     1
102
RTVSPropertyOp43
 70
     1
102
RTVSPropertyOp44
 70
     1
102
RTVSPropertyOp45
 70
     1
102
RTVSPropertyOp46
 70
     1
102
RTVSPropertyOp47
 70
     1
102
RTVSPropertyOp48
 70
     1
102
RTVSPropertyOp49
 70
     1
102
RTVSPropertyOp50
 70
     1
102
RTVSPropertyOp51
 70
     0
102
RTVSPropertyOp52
 70
     0
102
RTVSPropertyOp53
 70
     1
102
RTVSPropertyOp54
 70
     1
102
RTVSPropertyOp55
 70
     1
102
RTVSPropertyOp56
 70
     1
102
RTVSPropertyOp57
 70
     1
102
RTVSPost2010Prop28
280
     0
102
RTVSPost2010PropOp28
 70
     1
102
RTVSPost2010Prop29
280
     1
102
RTVSPost2010PropOp29
 70
     1
102
RTVSPost2010Prop30
280
     1
102
RTVSPost2010PropOp30
 70
     1
102
RTVSPost2010Prop31
280
     0
102
RTVSPost2010PropOp31
 70
     1
102
RTVSPost2010Prop32
280
     0
102
RTVSPost2010PropOp32
 70
     1
102
RTVSPost2010Prop33
280
     0
102
RTVSPost2010PropOp33
 70
     1
102
RTVSPost2010Prop34
280
     0
102
RTVSPost2010PropOp34
 70
     1
102
RTVSPost2010Prop35
280
     0
102
RTVSPost2010PropOp35
 70
     1
102
RTVSPost2010Prop36
280
     0
102
RTVSPost2010PropOp36
 70
     1
102
RTVSPost2010Prop37
 90
       50
102
RTVSPost2010PropOp37
 70
     1
102
RTVSPost2010Prop38
140
0.0
102
RTVSPost2010PropOp38
 70
     1
102
RTVSPost2010Prop39
140
1.0
102
RTVSPost2010PropOp39
 70
     1
102
RTVSPost2010Prop40
 90
        0
102
RTVSPost2010PropOp40
 70
     1
102
RTVSPost2010Prop41ColorIndex
 90
       18
102
RTVSPost2010Prop41ColorRGB
 90
        0
102
RTVSPost2010PropOp41
 70
     1
102
RTVSPost2010Prop42
 90
       50
102
RTVSPost2010PropOp42
 70
     1
102
RTVSPost2010Prop43
 90
        3
102
RTVSPost2010PropOp43
 70
     1
102
RTVSPost2010Prop44ColorIndex
 90
        5
102
RTVSPost2010Prop44ColorRGB
 90
      255
102
RTVSPost2010PropOp44
 70
     1
102
RTVSPost2010Prop45
280
     0
102
RTVSPost2010PropOp45
 70
     1
102
RTVSPost2010Prop46
 90
       50
102
RTVSPost2010PropOp46
 70
     1
102
RTVSPost2010Prop47
 90
       50
102
RTVSPost2010PropOp47
 70
     1
102
RTVSPost2010Prop48
 90
       50
102
RTVSPost2010PropOp48
 70
     1
102
RTVSPost2010Prop49
280
     0
102
RTVSPost2010PropOp49
 70
     1
102
RTVSPost2010Prop50
 90
       50
102
RTVSPost2010PropOp50
 70
     1
102
RTVSPost2010Prop51ColorIndex
 90
      256
102
RTVSPost2010Prop51ColorRGB
 90
-16777216
102
RTVSPost2010PropOp51
 70
     0
102
RTVSPost2010Prop52
140
1.0
102
RTVSPost2010PropOp52
 70
     0
102
RTVSPost2010Prop53
 90
        2
102
RTVSPost2010PropOp53
 70
     1
102
RTVSPost2010Prop54
  1
strokes_ogs.tif
102
RTVSPost2010PropOp54
 70
     1
102
RTVSPost2010Prop55
280
     0
102
RTVSPost2010PropOp55
 70
     1
102
RTVSPost2010Prop56
140
1.0
102
RTVSPost2010PropOp56
 70
     1
102
RTVSPost2010Prop57
140
1.0
102
RTVSPost2010PropOp57
 70
     1
  0
XRECORD
  5
55E
102
{ACAD_REACTORS
330
55D
102
}
330
55D
100
AcDbXrecord
280
     1
102
RTVSPropertyOp0
 70
     1
102
RTVSPropertyOp1
 70
     1
102
RTVSPropertyOp2
 70
     1
102
RTVSPropertyOp3
 70
     1
102
RTVSPropertyOp4
 70
     1
102
RTVSPropertyOp5
 70
     1
102
RTVSPropertyOp6
 70
     1
102
RTVSPropertyOp7
 70
     1
102
RTVSPropertyOp8
 70
     1
102
RTVSPropertyOp9
 70
     1
102
RTVSPropertyOp10
 70
     1
102
RTVSPropertyOp11
 70
     1
102
RTVSPropertyOp12
 70
     1
102
RTVSPropertyOp13
 70
     1
102
RTVSPropertyOp14
 70
     1
102
RTVSPropertyOp15
 70
     1
102
RTVSPropertyOp16
 70
     1
102
RTVSPropertyOp17
 70
     1
102
RTVSPropertyOp18
 70
     1
102
RTVSPropertyOp19
 70
     1
102
RTVSPropertyOp20
 70
     1
102
RTVSPropertyOp21
 70
     1
102
RTVSPropertyOp22
 70
     1
102
RTVSPropertyOp23
 70
     1
102
RTVSPropertyOp24
 70
     1
102
RTVSPropertyOp25
 70
     1
102
RTVSPropertyOp26
 70
     1
102
RTVSPropertyOp27
 70
     1
102
RTVSPropertyOp28
 70
     1
102
RTVSPropertyOp29
 70
     1
102
RTVSPropertyOp30
 70
     1
102
RTVSPropertyOp31
 70
     1
102
RTVSPropertyOp32
 70
     1
102
RTVSPropertyOp33
 70
     1
102
RTVSPropertyOp34
 70
     1
102
RTVSPropertyOp35
 70
     1
102
RTVSPropertyOp36
 70
     1
102
RTVSPropertyOp37
 70
     1
102
RTVSPropertyOp38
 70
     1
102
RTVSPropertyOp39
 70
     1
102
RTVSPropertyOp40
 70
     1
102
RTVSPropertyOp41
 70
     1
102
RTVSPropertyOp42
 70
     1
102
RTVSPropertyOp43
 70
     1
102
RTVSPropertyOp44
 70
     1
102
RTVSPropertyOp45
 70
     1
102
RTVSPropertyOp46
 70
     1
102
RTVSPropertyOp47
 70
     1
102
RTVSPropertyOp48
 70
     1
102
RTVSPropertyOp49
 70
     1
102
RTVSPropertyOp50
 70
     1
102
RTVSPropertyOp51
 70
     0
102
RTVSPropertyOp52
 70
     0
102
RTVSPropertyOp53
 70
     1
102
RTVSPropertyOp54
 70
     1
102
RTVSPropertyOp55
 70
     1
102
RTVSPropertyOp56
 70
     1
102
RTVSPropertyOp57
 70
     1
102
RTVSPost2010Prop28
280
     0
102
RTVSPost2010PropOp28
 70
     1
102
RTVSPost2010Prop29
280
     1
102
RTVSPost2010PropOp29
 70
     1
102
RTVSPost2010Prop30
280
     1
102
RTVSPost2010PropOp30
 70
     1
102
RTVSPost2010Prop31
280
     0
102
RTVSPost2010PropOp31
 70
     1
102
RTVSPost2010Prop32
280
     0
102
RTVSPost2010PropOp32
 70
     1
102
RTVSPost2010Prop33
280
     0
102
RTVSPost2010PropOp33
 70
     1
102
RTVSPost2010Prop34
280
     0
102
RTVSPost2010PropOp34
 70
     1
102
RTVSPost2010Prop35
280
     0
102
RTVSPost2010PropOp35
 70
     1
102
RTVSPost2010Prop36
280
     0
102
RTVSPost2010PropOp36
 70
     1
102
RTVSPost2010Prop37
 90
       50
102
RTVSPost2010PropOp37
 70
     1
102
RTVSPost2010Prop38
140
0.0
102
RTVSPost2010PropOp38
 70
     1
102
RTVSPost2010Prop39
140
1.0
102
RTVSPost2010PropOp39
 70
     1
102
RTVSPost2010Prop40
 90
        0
102
RTVSPost2010PropOp40
 70
     1
102
RTVSPost2010Prop41ColorIndex
 90
       18
102
RTVSPost2010Prop41ColorRGB
 90
        0
102
RTVSPost2010PropOp41
 70
     1
102
RTVSPost2010Prop42
 90
       50
102
RTVSPost2010PropOp42
 70
     1
102
RTVSPost2010Prop43
 90
        3
102
RTVSPost2010PropOp43
 70
     1
102
RTVSPost2010Prop44ColorIndex
 90
        5
102
RTVSPost2010Prop44ColorRGB
 90
      255
102
RTVSPost2010PropOp44
 70
     1
102
RTVSPost2010Prop45
280
     0
102
RTVSPost2010PropOp45
 70
     1
102
RTVSPost2010Prop46
 90
       50
102
RTVSPost2010PropOp46
 70
     1
102
RTVSPost2010Prop47
 90
       50
102
RTVSPost2010PropOp47
 70
     1
102
RTVSPost2010Prop48
 90
       50
102
RTVSPost2010PropOp48
 70
     1
102
RTVSPost2010Prop49
280
     0
102
RTVSPost2010PropOp49
 70
     1
102
RTVSPost2010Prop50
 90
       50
102
RTVSPost2010PropOp50
 70
     1
102
RTVSPost2010Prop51ColorIndex
 90
      256
102
RTVSPost2010Prop51ColorRGB
 90
-16777216
102
RTVSPost2010PropOp51
 70
     0
102
RTVSPost2010Prop52
140
1.0
102
RTVSPost2010PropOp52
 70
     0
102
RTVSPost2010Prop53
 90
        2
102
RTVSPost2010PropOp53
 70
     1
102
RTVSPost2010Prop54
  1
strokes_ogs.tif
102
RTVSPost2010PropOp54
 70
     1
102
RTVSPost2010Prop55
280
     0
102
RTVSPost2010PropOp55
 70
     1
102
RTVSPost2010Prop56
140
1.0
102
RTVSPost2010PropOp56
 70
     1
102
RTVSPost2010Prop57
140
1.0
102
RTVSPost2010PropOp57
 70
     1
  0
XRECORD
  5
566
102
{ACAD_REACTORS
330
565
102
}
330
565
100
AcDbXrecord
280
     1
102
RTVSPropertyOp0
 70
     1
102
RTVSPropertyOp1
 70
     1
102
RTVSPropertyOp2
 70
     1
102
RTVSPropertyOp3
 70
     1
102
RTVSPropertyOp4
 70
     1
102
RTVSPropertyOp5
 70
     1
102
RTVSPropertyOp6
 70
     1
102
RTVSPropertyOp7
 70
     1
102
RTVSPropertyOp8
 70
     1
102
RTVSPropertyOp9
 70
     1
102
RTVSPropertyOp10
 70
     1
102
RTVSPropertyOp11
 70
     1
102
RTVSPropertyOp12
 70
     1
102
RTVSPropertyOp13
 70
     1
102
RTVSPropertyOp14
 70
     1
102
RTVSPropertyOp15
 70
     1
102
RTVSPropertyOp16
 70
     1
102
RTVSPropertyOp17
 70
     1
102
RTVSPropertyOp18
 70
     1
102
RTVSPropertyOp19
 70
     1
102
RTVSPropertyOp20
 70
     1
102
RTVSPropertyOp21
 70
     1
102
RTVSPropertyOp22
 70
     1
102
RTVSPropertyOp23
 70
     1
102
RTVSPropertyOp24
 70
     1
102
RTVSPropertyOp25
 70
     1
102
RTVSPropertyOp26
 70
     1
102
RTVSPropertyOp27
 70
     1
102
RTVSPropertyOp28
 70
     1
102
RTVSPropertyOp29
 70
     1
102
RTVSPropertyOp30
 70
     1
102
RTVSPropertyOp31
 70
     1
102
RTVSPropertyOp32
 70
     1
102
RTVSPropertyOp33
 70
     1
102
RTVSPropertyOp34
 70
     1
102
RTVSPropertyOp35
 70
     1
102
RTVSPropertyOp36
 70
     1
102
RTVSPropertyOp37
 70
     1
102
RTVSPropertyOp38
 70
     1
102
RTVSPropertyOp39
 70
     1
102
RTVSPropertyOp40
 70
     1
102
RTVSPropertyOp41
 70
     1
102
RTVSPropertyOp42
 70
     1
102
RTVSPropertyOp43
 70
     1
102
RTVSPropertyOp44
 70
     1
102
RTVSPropertyOp45
 70
     1
102
RTVSPropertyOp46
 70
     1
102
RTVSPropertyOp47
 70
     1
102
RTVSPropertyOp48
 70
     1
102
RTVSPropertyOp49
 70
     1
102
RTVSPropertyOp50
 70
     1
102
RTVSPropertyOp51
 70
     0
102
RTVSPropertyOp52
 70
     0
102
RTVSPropertyOp53
 70
     1
102
RTVSPropertyOp54
 70
     1
102
RTVSPropertyOp55
 70
     1
102
RTVSPropertyOp56
 70
     1
102
RTVSPropertyOp57
 70
     1
102
RTVSPost2010Prop28
280
     0
102
RTVSPost2010PropOp28
 70
     1
102
RTVSPost2010Prop29
280
     1
102
RTVSPost2010PropOp29
 70
     1
102
RTVSPost2010Prop30
280
     1
102
RTVSPost2010PropOp30
 70
     1
102
RTVSPost2010Prop31
280
     0
102
RTVSPost2010PropOp31
 70
     1
102
RTVSPost2010Prop32
280
     0
102
RTVSPost2010PropOp32
 70
     1
102
RTVSPost2010Prop33
280
     0
102
RTVSPost2010PropOp33
 70
     1
102
RTVSPost2010Prop34
280
     0
102
RTVSPost2010PropOp34
 70
     1
102
RTVSPost2010Prop35
280
     0
102
RTVSPost2010PropOp35
 70
     1
102
RTVSPost2010Prop36
280
     0
102
RTVSPost2010PropOp36
 70
     1
102
RTVSPost2010Prop37
 90
       50
102
RTVSPost2010PropOp37
 70
     1
102
RTVSPost2010Prop38
140
0.0
102
RTVSPost2010PropOp38
 70
     1
102
RTVSPost2010Prop39
140
1.0
102
RTVSPost2010PropOp39
 70
     1
102
RTVSPost2010Prop40
 90
        0
102
RTVSPost2010PropOp40
 70
     1
102
RTVSPost2010Prop41ColorIndex
 90
       18
102
RTVSPost2010Prop41ColorRGB
 90
        0
102
RTVSPost2010PropOp41
 70
     1
102
RTVSPost2010Prop42
 90
       50
102
RTVSPost2010PropOp42
 70
     1
102
RTVSPost2010Prop43
 90
        3
102
RTVSPost2010PropOp43
 70
     1
102
RTVSPost2010Prop44ColorIndex
 90
        5
102
RTVSPost2010Prop44ColorRGB
 90
      255
102
RTVSPost2010PropOp44
 70
     1
102
RTVSPost2010Prop45
280
     0
102
RTVSPost2010PropOp45
 70
     1
102
RTVSPost2010Prop46
 90
       50
102
RTVSPost2010PropOp46
 70
     1
102
RTVSPost2010Prop47
 90
       50
102
RTVSPost2010PropOp47
 70
     1
102
RTVSPost2010Prop48
 90
       50
102
RTVSPost2010PropOp48
 70
     1
102
RTVSPost2010Prop49
280
     0
102
RTVSPost2010PropOp49
 70
     1
102
RTVSPost2010Prop50
 90
       50
102
RTVSPost2010PropOp50
 70
     1
102
RTVSPost2010Prop51ColorIndex
 90
      256
102
RTVSPost2010Prop51ColorRGB
 90
-16777216
102
RTVSPost2010PropOp51
 70
     0
102
RTVSPost2010Prop52
140
1.0
102
RTVSPost2010PropOp52
 70
     0
102
RTVSPost2010Prop53
 90
        2
102
RTVSPost2010PropOp53
 70
     1
102
RTVSPost2010Prop54
  1
strokes_ogs.tif
102
RTVSPost2010PropOp54
 70
     1
102
RTVSPost2010Prop55
280
     0
102
RTVSPost2010PropOp55
 70
     1
102
RTVSPost2010Prop56
140
1.0
102
RTVSPost2010PropOp56
 70
     1
102
RTVSPost2010Prop57
140
1.0
102
RTVSPost2010PropOp57
 70
     1
  0
XRECORD
  5
56E
102
{ACAD_REACTORS
330
56D
102
}
330
56D
100
AcDbXrecord
280
     1
102
RTVSPropertyOp0
 70
     1
102
RTVSPropertyOp1
 70
     1
102
RTVSPropertyOp2
 70
     1
102
RTVSPropertyOp3
 70
     1
102
RTVSPropertyOp4
 70
     1
102
RTVSPropertyOp5
 70
     1
102
RTVSPropertyOp6
 70
     1
102
RTVSPropertyOp7
 70
     1
102
RTVSPropertyOp8
 70
     1
102
RTVSPropertyOp9
 70
     1
102
RTVSPropertyOp10
 70
     1
102
RTVSPropertyOp11
 70
     1
102
RTVSPropertyOp12
 70
     1
102
RTVSPropertyOp13
 70
     1
102
RTVSPropertyOp14
 70
     1
102
RTVSPropertyOp15
 70
     1
102
RTVSPropertyOp16
 70
     1
102
RTVSPropertyOp17
 70
     1
102
RTVSPropertyOp18
 70
     1
102
RTVSPropertyOp19
 70
     1
102
RTVSPropertyOp20
 70
     1
102
RTVSPropertyOp21
 70
     1
102
RTVSPropertyOp22
 70
     1
102
RTVSPropertyOp23
 70
     1
102
RTVSPropertyOp24
 70
     1
102
RTVSPropertyOp25
 70
     1
102
RTVSPropertyOp26
 70
     1
102
RTVSPropertyOp27
 70
     1
102
RTVSPropertyOp28
 70
     1
102
RTVSPropertyOp29
 70
     1
102
RTVSPropertyOp30
 70
     1
102
RTVSPropertyOp31
 70
     1
102
RTVSPropertyOp32
 70
     1
102
RTVSPropertyOp33
 70
     1
102
RTVSPropertyOp34
 70
     1
102
RTVSPropertyOp35
 70
     1
102
RTVSPropertyOp36
 70
     1
102
RTVSPropertyOp37
 70
     1
102
RTVSPropertyOp38
 70
     1
102
RTVSPropertyOp39
 70
     1
102
RTVSPropertyOp40
 70
     1
102
RTVSPropertyOp41
 70
     1
102
RTVSPropertyOp42
 70
     1
102
RTVSPropertyOp43
 70
     1
102
RTVSPropertyOp44
 70
     1
102
RTVSPropertyOp45
 70
     1
102
RTVSPropertyOp46
 70
     1
102
RTVSPropertyOp47
 70
     1
102
RTVSPropertyOp48
 70
     1
102
RTVSPropertyOp49
 70
     1
102
RTVSPropertyOp50
 70
     1
102
RTVSPropertyOp51
 70
     0
102
RTVSPropertyOp52
 70
     0
102
RTVSPropertyOp53
 70
     1
102
RTVSPropertyOp54
 70
     1
102
RTVSPropertyOp55
 70
     1
102
RTVSPropertyOp56
 70
     1
102
RTVSPropertyOp57
 70
     1
102
RTVSPost2010Prop28
280
     0
102
RTVSPost2010PropOp28
 70
     1
102
RTVSPost2010Prop29
280
     1
102
RTVSPost2010PropOp29
 70
     1
102
RTVSPost2010Prop30
280
     1
102
RTVSPost2010PropOp30
 70
     1
102
RTVSPost2010Prop31
280
     0
102
RTVSPost2010PropOp31
 70
     1
102
RTVSPost2010Prop32
280
     0
102
RTVSPost2010PropOp32
 70
     1
102
RTVSPost2010Prop33
280
     0
102
RTVSPost2010PropOp33
 70
     1
102
RTVSPost2010Prop34
280
     0
102
RTVSPost2010PropOp34
 70
     1
102
RTVSPost2010Prop35
280
     0
102
RTVSPost2010PropOp35
 70
     1
102
RTVSPost2010Prop36
280
     0
102
RTVSPost2010PropOp36
 70
     1
102
RTVSPost2010Prop37
 90
       50
102
RTVSPost2010PropOp37
 70
     1
102
RTVSPost2010Prop38
140
0.0
102
RTVSPost2010PropOp38
 70
     1
102
RTVSPost2010Prop39
140
1.0
102
RTVSPost2010PropOp39
 70
     1
102
RTVSPost2010Prop40
 90
        0
102
RTVSPost2010PropOp40
 70
     1
102
RTVSPost2010Prop41ColorIndex
 90
       18
102
RTVSPost2010Prop41ColorRGB
 90
        0
102
RTVSPost2010PropOp41
 70
     1
102
RTVSPost2010Prop42
 90
       50
102
RTVSPost2010PropOp42
 70
     1
102
RTVSPost2010Prop43
 90
        3
102
RTVSPost2010PropOp43
 70
     1
102
RTVSPost2010Prop44ColorIndex
 90
        5
102
RTVSPost2010Prop44ColorRGB
 90
      255
102
RTVSPost2010PropOp44
 70
     1
102
RTVSPost2010Prop45
280
     0
102
RTVSPost2010PropOp45
 70
     1
102
RTVSPost2010Prop46
 90
       50
102
RTVSPost2010PropOp46
 70
     1
102
RTVSPost2010Prop47
 90
       50
102
RTVSPost2010PropOp47
 70
     1
102
RTVSPost2010Prop48
 90
       50
102
RTVSPost2010PropOp48
 70
     1
102
RTVSPost2010Prop49
280
     0
102
RTVSPost2010PropOp49
 70
     1
102
RTVSPost2010Prop50
 90
       50
102
RTVSPost2010PropOp50
 70
     1
102
RTVSPost2010Prop51ColorIndex
 90
      256
102
RTVSPost2010Prop51ColorRGB
 90
-16777216
102
RTVSPost2010PropOp51
 70
     0
102
RTVSPost2010Prop52
140
1.0
102
RTVSPost2010PropOp52
 70
     0
102
RTVSPost2010Prop53
 90
        2
102
RTVSPost2010PropOp53
 70
     1
102
RTVSPost2010Prop54
  1
strokes_ogs.tif
102
RTVSPost2010PropOp54
 70
     1
102
RTVSPost2010Prop55
280
     0
102
RTVSPost2010PropOp55
 70
     1
102
RTVSPost2010Prop56
140
1.0
102
RTVSPost2010PropOp56
 70
     1
102
RTVSPost2010Prop57
140
1.0
102
RTVSPost2010PropOp57
 70
     1
  0
XRECORD
  5
562
102
{ACAD_REACTORS
330
561
102
}
330
561
100
AcDbXrecord
280
     1
102
RTVSPropertyOp0
 70
     1
102
RTVSPropertyOp1
 70
     1
102
RTVSPropertyOp2
 70
     1
102
RTVSPropertyOp3
 70
     1
102
RTVSPropertyOp4
 70
     1
102
RTVSPropertyOp5
 70
     1
102
RTVSPropertyOp6
 70
     1
102
RTVSPropertyOp7
 70
     1
102
RTVSPropertyOp8
 70
     1
102
RTVSPropertyOp9
 70
     1
102
RTVSPropertyOp10
 70
     1
102
RTVSPropertyOp11
 70
     1
102
RTVSPropertyOp12
 70
     1
102
RTVSPropertyOp13
 70
     1
102
RTVSPropertyOp14
 70
     1
102
RTVSPropertyOp15
 70
     1
102
RTVSPropertyOp16
 70
     1
102
RTVSPropertyOp17
 70
     1
102
RTVSPropertyOp18
 70
     1
102
RTVSPropertyOp19
 70
     1
102
RTVSPropertyOp20
 70
     1
102
RTVSPropertyOp21
 70
     1
102
RTVSPropertyOp22
 70
     1
102
RTVSPropertyOp23
 70
     1
102
RTVSPropertyOp24
 70
     1
102
RTVSPropertyOp25
 70
     1
102
RTVSPropertyOp26
 70
     1
102
RTVSPropertyOp27
 70
     1
102
RTVSPropertyOp28
 70
     1
102
RTVSPropertyOp29
 70
     1
102
RTVSPropertyOp30
 70
     1
102
RTVSPropertyOp31
 70
     1
102
RTVSPropertyOp32
 70
     1
102
RTVSPropertyOp33
 70
     1
102
RTVSPropertyOp34
 70
     1
102
RTVSPropertyOp35
 70
     1
102
RTVSPropertyOp36
 70
     1
102
RTVSPropertyOp37
 70
     1
102
RTVSPropertyOp38
 70
     1
102
RTVSPropertyOp39
 70
     1
102
RTVSPropertyOp40
 70
     1
102
RTVSPropertyOp41
 70
     1
102
RTVSPropertyOp42
 70
     1
102
RTVSPropertyOp43
 70
     1
102
RTVSPropertyOp44
 70
     1
102
RTVSPropertyOp45
 70
     1
102
RTVSPropertyOp46
 70
     1
102
RTVSPropertyOp47
 70
     1
102
RTVSPropertyOp48
 70
     1
102
RTVSPropertyOp49
 70
     1
102
RTVSPropertyOp50
 70
     1
102
RTVSPropertyOp51
 70
     0
102
RTVSPropertyOp52
 70
     0
102
RTVSPropertyOp53
 70
     1
102
RTVSPropertyOp54
 70
     1
102
RTVSPropertyOp55
 70
     1
102
RTVSPropertyOp56
 70
     1
102
RTVSPropertyOp57
 70
     1
102
RTVSPost2010Prop28
280
     0
102
RTVSPost2010PropOp28
 70
     1
102
RTVSPost2010Prop29
280
     1
102
RTVSPost2010PropOp29
 70
     1
102
RTVSPost2010Prop30
280
     1
102
RTVSPost2010PropOp30
 70
     1
102
RTVSPost2010Prop31
280
     0
102
RTVSPost2010PropOp31
 70
     1
102
RTVSPost2010Prop32
280
     0
102
RTVSPost2010PropOp32
 70
     1
102
RTVSPost2010Prop33
280
     0
102
RTVSPost2010PropOp33
 70
     1
102
RTVSPost2010Prop34
280
     0
102
RTVSPost2010PropOp34
 70
     1
102
RTVSPost2010Prop35
280
     0
102
RTVSPost2010PropOp35
 70
     1
102
RTVSPost2010Prop36
280
     0
102
RTVSPost2010PropOp36
 70
     1
102
RTVSPost2010Prop37
 90
       50
102
RTVSPost2010PropOp37
 70
     1
102
RTVSPost2010Prop38
140
0.0
102
RTVSPost2010PropOp38
 70
     1
102
RTVSPost2010Prop39
140
1.0
102
RTVSPost2010PropOp39
 70
     1
102
RTVSPost2010Prop40
 90
        0
102
RTVSPost2010PropOp40
 70
     1
102
RTVSPost2010Prop41ColorIndex
 90
       18
102
RTVSPost2010Prop41ColorRGB
 90
        0
102
RTVSPost2010PropOp41
 70
     1
102
RTVSPost2010Prop42
 90
       50
102
RTVSPost2010PropOp42
 70
     1
102
RTVSPost2010Prop43
 90
        3
102
RTVSPost2010PropOp43
 70
     1
102
RTVSPost2010Prop44ColorIndex
 90
        5
102
RTVSPost2010Prop44ColorRGB
 90
      255
102
RTVSPost2010PropOp44
 70
     1
102
RTVSPost2010Prop45
280
     0
102
RTVSPost2010PropOp45
 70
     1
102
RTVSPost2010Prop46
 90
       50
102
RTVSPost2010PropOp46
 70
     1
102
RTVSPost2010Prop47
 90
       50
102
RTVSPost2010PropOp47
 70
     1
102
RTVSPost2010Prop48
 90
       50
102
RTVSPost2010PropOp48
 70
     1
102
RTVSPost2010Prop49
280
     0
102
RTVSPost2010PropOp49
 70
     1
102
RTVSPost2010Prop50
 90
       50
102
RTVSPost2010PropOp50
 70
     1
102
RTVSPost2010Prop51ColorIndex
 90
      256
102
RTVSPost2010Prop51ColorRGB
 90
-16777216
102
RTVSPost2010PropOp51
 70
     0
102
RTVSPost2010Prop52
140
1.0
102
RTVSPost2010PropOp52
 70
     0
102
RTVSPost2010Prop53
 90
        2
102
RTVSPost2010PropOp53
 70
     1
102
RTVSPost2010Prop54
  1
strokes_ogs.tif
102
RTVSPost2010PropOp54
 70
     1
102
RTVSPost2010Prop55
280
     0
102
RTVSPost2010PropOp55
 70
     1
102
RTVSPost2010Prop56
140
1.0
102
RTVSPost2010PropOp56
 70
     1
102
RTVSPost2010Prop57
140
1.0
102
RTVSPost2010PropOp57
 70
     1
  0
XRECORD
  5
564
102
{ACAD_REACTORS
330
563
102
}
330
563
100
AcDbXrecord
280
     1
102
RTVSPropertyOp0
 70
     1
102
RTVSPropertyOp1
 70
     1
102
RTVSPropertyOp2
 70
     1
102
RTVSPropertyOp3
 70
     1
102
RTVSPropertyOp4
 70
     1
102
RTVSPropertyOp5
 70
     1
102
RTVSPropertyOp6
 70
     1
102
RTVSPropertyOp7
 70
     1
102
RTVSPropertyOp8
 70
     1
102
RTVSPropertyOp9
 70
     1
102
RTVSPropertyOp10
 70
     1
102
RTVSPropertyOp11
 70
     1
102
RTVSPropertyOp12
 70
     1
102
RTVSPropertyOp13
 70
     1
102
RTVSPropertyOp14
 70
     1
102
RTVSPropertyOp15
 70
     1
102
RTVSPropertyOp16
 70
     1
102
RTVSPropertyOp17
 70
     1
102
RTVSPropertyOp18
 70
     1
102
RTVSPropertyOp19
 70
     1
102
RTVSPropertyOp20
 70
     1
102
RTVSPropertyOp21
 70
     1
102
RTVSPropertyOp22
 70
     1
102
RTVSPropertyOp23
 70
     1
102
RTVSPropertyOp24
 70
     1
102
RTVSPropertyOp25
 70
     1
102
RTVSPropertyOp26
 70
     1
102
RTVSPropertyOp27
 70
     1
102
RTVSPropertyOp28
 70
     1
102
RTVSPropertyOp29
 70
     1
102
RTVSPropertyOp30
 70
     1
102
RTVSPropertyOp31
 70
     1
102
RTVSPropertyOp32
 70
     1
102
RTVSPropertyOp33
 70
     1
102
RTVSPropertyOp34
 70
     1
102
RTVSPropertyOp35
 70
     1
102
RTVSPropertyOp36
 70
     1
102
RTVSPropertyOp37
 70
     1
102
RTVSPropertyOp38
 70
     1
102
RTVSPropertyOp39
 70
     1
102
RTVSPropertyOp40
 70
     1
102
RTVSPropertyOp41
 70
     1
102
RTVSPropertyOp42
 70
     1
102
RTVSPropertyOp43
 70
     1
102
RTVSPropertyOp44
 70
     1
102
RTVSPropertyOp45
 70
     1
102
RTVSPropertyOp46
 70
     1
102
RTVSPropertyOp47
 70
     1
102
RTVSPropertyOp48
 70
     1
102
RTVSPropertyOp49
 70
     1
102
RTVSPropertyOp50
 70
     1
102
RTVSPropertyOp51
 70
     0
102
RTVSPropertyOp52
 70
     0
102
RTVSPropertyOp53
 70
     1
102
RTVSPropertyOp54
 70
     1
102
RTVSPropertyOp55
 70
     1
102
RTVSPropertyOp56
 70
     1
102
RTVSPropertyOp57
 70
     1
102
RTVSPost2010Prop28
280
     0
102
RTVSPost2010PropOp28
 70
     1
102
RTVSPost2010Prop29
280
     1
102
RTVSPost2010PropOp29
 70
     1
102
RTVSPost2010Prop30
280
     1
102
RTVSPost2010PropOp30
 70
     1
102
RTVSPost2010Prop31
280
     0
102
RTVSPost2010PropOp31
 70
     1
102
RTVSPost2010Prop32
280
     0
102
RTVSPost2010PropOp32
 70
     1
102
RTVSPost2010Prop33
280
     0
102
RTVSPost2010PropOp33
 70
     1
102
RTVSPost2010Prop34
280
     0
102
RTVSPost2010PropOp34
 70
     1
102
RTVSPost2010Prop35
280
     0
102
RTVSPost2010PropOp35
 70
     1
102
RTVSPost2010Prop36
280
     0
102
RTVSPost2010PropOp36
 70
     1
102
RTVSPost2010Prop37
 90
       50
102
RTVSPost2010PropOp37
 70
     1
102
RTVSPost2010Prop38
140
0.0
102
RTVSPost2010PropOp38
 70
     1
102
RTVSPost2010Prop39
140
1.0
102
RTVSPost2010PropOp39
 70
     1
102
RTVSPost2010Prop40
 90
        0
102
RTVSPost2010PropOp40
 70
     1
102
RTVSPost2010Prop41ColorIndex
 90
       18
102
RTVSPost2010Prop41ColorRGB
 90
        0
102
RTVSPost2010PropOp41
 70
     1
102
RTVSPost2010Prop42
 90
       50
102
RTVSPost2010PropOp42
 70
     1
102
RTVSPost2010Prop43
 90
        3
102
RTVSPost2010PropOp43
 70
     1
102
RTVSPost2010Prop44ColorIndex
 90
        5
102
RTVSPost2010Prop44ColorRGB
 90
      255
102
RTVSPost2010PropOp44
 70
     1
102
RTVSPost2010Prop45
280
     0
102
RTVSPost2010PropOp45
 70
     1
102
RTVSPost2010Prop46
 90
       50
102
RTVSPost2010PropOp46
 70
     1
102
RTVSPost2010Prop47
 90
       50
102
RTVSPost2010PropOp47
 70
     1
102
RTVSPost2010Prop48
 90
       50
102
RTVSPost2010PropOp48
 70
     1
102
RTVSPost2010Prop49
280
     0
102
RTVSPost2010PropOp49
 70
     1
102
RTVSPost2010Prop50
 90
       50
102
RTVSPost2010PropOp50
 70
     1
102
RTVSPost2010Prop51ColorIndex
 90
      256
102
RTVSPost2010Prop51ColorRGB
 90
-16777216
102
RTVSPost2010PropOp51
 70
     0
102
RTVSPost2010Prop52
140
1.0
102
RTVSPost2010PropOp52
 70
     0
102
RTVSPost2010Prop53
 90
        2
102
RTVSPost2010PropOp53
 70
     1
102
RTVSPost2010Prop54
  1
strokes_ogs.tif
102
RTVSPost2010PropOp54
 70
     1
102
RTVSPost2010Prop55
280
     0
102
RTVSPost2010PropOp55
 70
     1
102
RTVSPost2010Prop56
140
1.0
102
RTVSPost2010PropOp56
 70
     1
102
RTVSPost2010Prop57
140
1.0
102
RTVSPost2010PropOp57
 70
     1
  0
XRECORD
  5
56C
102
{ACAD_REACTORS
330
56B
102
}
330
56B
100
AcDbXrecord
280
     1
102
RTVSPropertyOp0
 70
     1
102
RTVSPropertyOp1
 70
     1
102
RTVSPropertyOp2
 70
     1
102
RTVSPropertyOp3
 70
     1
102
RTVSPropertyOp4
 70
     1
102
RTVSPropertyOp5
 70
     1
102
RTVSPropertyOp6
 70
     1
102
RTVSPropertyOp7
 70
     1
102
RTVSPropertyOp8
 70
     1
102
RTVSPropertyOp9
 70
     1
102
RTVSPropertyOp10
 70
     1
102
RTVSPropertyOp11
 70
     1
102
RTVSPropertyOp12
 70
     1
102
RTVSPropertyOp13
 70
     1
102
RTVSPropertyOp14
 70
     1
102
RTVSPropertyOp15
 70
     1
102
RTVSPropertyOp16
 70
     1
102
RTVSPropertyOp17
 70
     1
102
RTVSPropertyOp18
 70
     1
102
RTVSPropertyOp19
 70
     1
102
RTVSPropertyOp20
 70
     1
102
RTVSPropertyOp21
 70
     1
102
RTVSPropertyOp22
 70
     1
102
RTVSPropertyOp23
 70
     1
102
RTVSPropertyOp24
 70
     1
102
RTVSPropertyOp25
 70
     1
102
RTVSPropertyOp26
 70
     1
102
RTVSPropertyOp27
 70
     1
102
RTVSPropertyOp28
 70
     1
102
RTVSPropertyOp29
 70
     1
102
RTVSPropertyOp30
 70
     1
102
RTVSPropertyOp31
 70
     1
102
RTVSPropertyOp32
 70
     1
102
RTVSPropertyOp33
 70
     1
102
RTVSPropertyOp34
 70
     1
102
RTVSPropertyOp35
 70
     1
102
RTVSPropertyOp36
 70
     1
102
RTVSPropertyOp37
 70
     1
102
RTVSPropertyOp38
 70
     1
102
RTVSPropertyOp39
 70
     1
102
RTVSPropertyOp40
 70
     1
102
RTVSPropertyOp41
 70
     1
102
RTVSPropertyOp42
 70
     1
102
RTVSPropertyOp43
 70
     1
102
RTVSPropertyOp44
 70
     1
102
RTVSPropertyOp45
 70
     1
102
RTVSPropertyOp46
 70
     1
102
RTVSPropertyOp47
 70
     1
102
RTVSPropertyOp48
 70
     1
102
RTVSPropertyOp49
 70
     1
102
RTVSPropertyOp50
 70
     1
102
RTVSPropertyOp51
 70
     0
102
RTVSPropertyOp52
 70
     0
102
RTVSPropertyOp53
 70
     1
102
RTVSPropertyOp54
 70
     1
102
RTVSPropertyOp55
 70
     1
102
RTVSPropertyOp56
 70
     1
102
RTVSPropertyOp57
 70
     1
102
RTVSPost2010Prop28
280
     0
102
RTVSPost2010PropOp28
 70
     1
102
RTVSPost2010Prop29
280
     1
102
RTVSPost2010PropOp29
 70
     1
102
RTVSPost2010Prop30
280
     1
102
RTVSPost2010PropOp30
 70
     1
102
RTVSPost2010Prop31
280
     0
102
RTVSPost2010PropOp31
 70
     1
102
RTVSPost2010Prop32
280
     0
102
RTVSPost2010PropOp32
 70
     1
102
RTVSPost2010Prop33
280
     0
102
RTVSPost2010PropOp33
 70
     1
102
RTVSPost2010Prop34
280
     0
102
RTVSPost2010PropOp34
 70
     1
102
RTVSPost2010Prop35
280
     0
102
RTVSPost2010PropOp35
 70
     1
102
RTVSPost2010Prop36
280
     0
102
RTVSPost2010PropOp36
 70
     1
102
RTVSPost2010Prop37
 90
       50
102
RTVSPost2010PropOp37
 70
     1
102
RTVSPost2010Prop38
140
0.0
102
RTVSPost2010PropOp38
 70
     1
102
RTVSPost2010Prop39
140
1.0
102
RTVSPost2010PropOp39
 70
     1
102
RTVSPost2010Prop40
 90
        0
102
RTVSPost2010PropOp40
 70
     1
102
RTVSPost2010Prop41ColorIndex
 90
       18
102
RTVSPost2010Prop41ColorRGB
 90
        0
102
RTVSPost2010PropOp41
 70
     1
102
RTVSPost2010Prop42
 90
       50
102
RTVSPost2010PropOp42
 70
     1
102
RTVSPost2010Prop43
 90
        3
102
RTVSPost2010PropOp43
 70
     1
102
RTVSPost2010Prop44ColorIndex
 90
        5
102
RTVSPost2010Prop44ColorRGB
 90
      255
102
RTVSPost2010PropOp44
 70
     1
102
RTVSPost2010Prop45
280
     0
102
RTVSPost2010PropOp45
 70
     1
102
RTVSPost2010Prop46
 90
       50
102
RTVSPost2010PropOp46
 70
     1
102
RTVSPost2010Prop47
 90
       50
102
RTVSPost2010PropOp47
 70
     1
102
RTVSPost2010Prop48
 90
       50
102
RTVSPost2010PropOp48
 70
     1
102
RTVSPost2010Prop49
280
     0
102
RTVSPost2010PropOp49
 70
     1
102
RTVSPost2010Prop50
 90
       50
102
RTVSPost2010PropOp50
 70
     1
102
RTVSPost2010Prop51ColorIndex
 90
      256
102
RTVSPost2010Prop51ColorRGB
 90
-16777216
102
RTVSPost2010PropOp51
 70
     0
102
RTVSPost2010Prop52
140
1.0
102
RTVSPost2010PropOp52
 70
     0
102
RTVSPost2010Prop53
 90
        2
102
RTVSPost2010PropOp53
 70
     1
102
RTVSPost2010Prop54
  1
strokes_ogs.tif
102
RTVSPost2010PropOp54
 70
     1
102
RTVSPost2010Prop55
280
     0
102
RTVSPost2010PropOp55
 70
     1
102
RTVSPost2010Prop56
140
1.0
102
RTVSPost2010PropOp56
 70
     1
102
RTVSPost2010Prop57
140
1.0
102
RTVSPost2010PropOp57
 70
     1
  0
XRECORD
  5
550
102
{ACAD_REACTORS
330
54F
102
}
330
54F
100
AcDbXrecord
280
     1
102
RTVSPropertyOp0
 70
     1
102
RTVSPropertyOp1
 70
     1
102
RTVSPropertyOp2
 70
     1
102
RTVSPropertyOp3
 70
     1
102
RTVSPropertyOp4
 70
     1
102
RTVSPropertyOp5
 70
     1
102
RTVSPropertyOp6
 70
     1
102
RTVSPropertyOp7
 70
     1
102
RTVSPropertyOp8
 70
     1
102
RTVSPropertyOp9
 70
     1
102
RTVSPropertyOp10
 70
     1
102
RTVSPropertyOp11
 70
     1
102
RTVSPropertyOp12
 70
     1
102
RTVSPropertyOp13
 70
     1
102
RTVSPropertyOp14
 70
     1
102
RTVSPropertyOp15
 70
     1
102
RTVSPropertyOp16
 70
     1
102
RTVSPropertyOp17
 70
     1
102
RTVSPropertyOp18
 70
     1
102
RTVSPropertyOp19
 70
     1
102
RTVSPropertyOp20
 70
     1
102
RTVSPropertyOp21
 70
     1
102
RTVSPropertyOp22
 70
     1
102
RTVSPropertyOp23
 70
     1
102
RTVSPropertyOp24
 70
     1
102
RTVSPropertyOp25
 70
     1
102
RTVSPropertyOp26
 70
     1
102
RTVSPropertyOp27
 70
     1
102
RTVSPropertyOp28
 70
     1
102
RTVSPropertyOp29
 70
     1
102
RTVSPropertyOp30
 70
     1
102
RTVSPropertyOp31
 70
     1
102
RTVSPropertyOp32
 70
     1
102
RTVSPropertyOp33
 70
     1
102
RTVSPropertyOp34
 70
     1
102
RTVSPropertyOp35
 70
     1
102
RTVSPropertyOp36
 70
     1
102
RTVSPropertyOp37
 70
     1
102
RTVSPropertyOp38
 70
     1
102
RTVSPropertyOp39
 70
     1
102
RTVSPropertyOp40
 70
     1
102
RTVSPropertyOp41
 70
     1
102
RTVSPropertyOp42
 70
     1
102
RTVSPropertyOp43
 70
     1
102
RTVSPropertyOp44
 70
     1
102
RTVSPropertyOp45
 70
     1
102
RTVSPropertyOp46
 70
     1
102
RTVSPropertyOp47
 70
     1
102
RTVSPropertyOp48
 70
     1
102
RTVSPropertyOp49
 70
     1
102
RTVSPropertyOp50
 70
     1
102
RTVSPropertyOp51
 70
     0
102
RTVSPropertyOp52
 70
     0
102
RTVSPropertyOp53
 70
     1
102
RTVSPropertyOp54
 70
     1
102
RTVSPropertyOp55
 70
     1
102
RTVSPropertyOp56
 70
     1
102
RTVSPropertyOp57
 70
     1
102
RTVSPost2010Prop28
280
     0
102
RTVSPost2010PropOp28
 70
     1
102
RTVSPost2010Prop29
280
     1
102
RTVSPost2010PropOp29
 70
     1
102
RTVSPost2010Prop30
280
     1
102
RTVSPost2010PropOp30
 70
     1
102
RTVSPost2010Prop31
280
     0
102
RTVSPost2010PropOp31
 70
     1
102
RTVSPost2010Prop32
280
     0
102
RTVSPost2010PropOp32
 70
     1
102
RTVSPost2010Prop33
280
     0
102
RTVSPost2010PropOp33
 70
     1
102
RTVSPost2010Prop34
280
     0
102
RTVSPost2010PropOp34
 70
     1
102
RTVSPost2010Prop35
280
     0
102
RTVSPost2010PropOp35
 70
     1
102
RTVSPost2010Prop36
280
     0
102
RTVSPost2010PropOp36
 70
     1
102
RTVSPost2010Prop37
 90
       50
102
RTVSPost2010PropOp37
 70
     1
102
RTVSPost2010Prop38
140
0.0
102
RTVSPost2010PropOp38
 70
     1
102
RTVSPost2010Prop39
140
1.0
102
RTVSPost2010PropOp39
 70
     1
102
RTVSPost2010Prop40
 90
        0
102
RTVSPost2010PropOp40
 70
     1
102
RTVSPost2010Prop41ColorIndex
 90
       18
102
RTVSPost2010Prop41ColorRGB
 90
        0
102
RTVSPost2010PropOp41
 70
     1
102
RTVSPost2010Prop42
 90
       50
102
RTVSPost2010PropOp42
 70
     1
102
RTVSPost2010Prop43
 90
        3
102
RTVSPost2010PropOp43
 70
     1
102
RTVSPost2010Prop44ColorIndex
 90
        5
102
RTVSPost2010Prop44ColorRGB
 90
      255
102
RTVSPost2010PropOp44
 70
     1
102
RTVSPost2010Prop45
280
     0
102
RTVSPost2010PropOp45
 70
     1
102
RTVSPost2010Prop46
 90
       50
102
RTVSPost2010PropOp46
 70
     1
102
RTVSPost2010Prop47
 90
       50
102
RTVSPost2010PropOp47
 70
     1
102
RTVSPost2010Prop48
 90
       50
102
RTVSPost2010PropOp48
 70
     1
102
RTVSPost2010Prop49
280
     0
102
RTVSPost2010PropOp49
 70
     1
102
RTVSPost2010Prop50
 90
       50
102
RTVSPost2010PropOp50
 70
     1
102
RTVSPost2010Prop51ColorIndex
 90
      256
102
RTVSPost2010Prop51ColorRGB
 90
-16777216
102
RTVSPost2010PropOp51
 70
     0
102
RTVSPost2010Prop52
140
1.0
102
RTVSPost2010PropOp52
 70
     0
102
RTVSPost2010Prop53
 90
        2
102
RTVSPost2010PropOp53
 70
     1
102
RTVSPost2010Prop54
  1
strokes_ogs.tif
102
RTVSPost2010PropOp54
 70
     1
102
RTVSPost2010Prop55
280
     0
102
RTVSPost2010PropOp55
 70
     1
102
RTVSPost2010Prop56
140
1.0
102
RTVSPost2010PropOp56
 70
     1
102
RTVSPost2010Prop57
140
1.0
102
RTVSPost2010PropOp57
 70
     1
  0
XRECORD
  5
552
102
{ACAD_REACTORS
330
551
102
}
330
551
100
AcDbXrecord
280
     1
102
RTVSPropertyOp0
 70
     1
102
RTVSPropertyOp1
 70
     1
102
RTVSPropertyOp2
 70
     1
102
RTVSPropertyOp3
 70
     1
102
RTVSPropertyOp4
 70
     1
102
RTVSPropertyOp5
 70
     1
102
RTVSPropertyOp6
 70
     1
102
RTVSPropertyOp7
 70
     1
102
RTVSPropertyOp8
 70
     1
102
RTVSPropertyOp9
 70
     1
102
RTVSPropertyOp10
 70
     1
102
RTVSPropertyOp11
 70
     1
102
RTVSPropertyOp12
 70
     1
102
RTVSPropertyOp13
 70
     1
102
RTVSPropertyOp14
 70
     1
102
RTVSPropertyOp15
 70
     1
102
RTVSPropertyOp16
 70
     1
102
RTVSPropertyOp17
 70
     1
102
RTVSPropertyOp18
 70
     1
102
RTVSPropertyOp19
 70
     1
102
RTVSPropertyOp20
 70
     1
102
RTVSPropertyOp21
 70
     1
102
RTVSPropertyOp22
 70
     1
102
RTVSPropertyOp23
 70
     1
102
RTVSPropertyOp24
 70
     1
102
RTVSPropertyOp25
 70
     1
102
RTVSPropertyOp26
 70
     1
102
RTVSPropertyOp27
 70
     1
102
RTVSPropertyOp28
 70
     1
102
RTVSPropertyOp29
 70
     1
102
RTVSPropertyOp30
 70
     1
102
RTVSPropertyOp31
 70
     1
102
RTVSPropertyOp32
 70
     1
102
RTVSPropertyOp33
 70
     1
102
RTVSPropertyOp34
 70
     1
102
RTVSPropertyOp35
 70
     1
102
RTVSPropertyOp36
 70
     1
102
RTVSPropertyOp37
 70
     1
102
RTVSPropertyOp38
 70
     1
102
RTVSPropertyOp39
 70
     1
102
RTVSPropertyOp40
 70
     1
102
RTVSPropertyOp41
 70
     1
102
RTVSPropertyOp42
 70
     1
102
RTVSPropertyOp43
 70
     1
102
RTVSPropertyOp44
 70
     1
102
RTVSPropertyOp45
 70
     1
102
RTVSPropertyOp46
 70
     1
102
RTVSPropertyOp47
 70
     1
102
RTVSPropertyOp48
 70
     1
102
RTVSPropertyOp49
 70
     1
102
RTVSPropertyOp50
 70
     1
102
RTVSPropertyOp51
 70
     0
102
RTVSPropertyOp52
 70
     0
102
RTVSPropertyOp53
 70
     1
102
RTVSPropertyOp54
 70
     1
102
RTVSPropertyOp55
 70
     1
102
RTVSPropertyOp56
 70
     1
102
RTVSPropertyOp57
 70
     1
102
RTVSPost2010Prop28
280
     0
102
RTVSPost2010PropOp28
 70
     1
102
RTVSPost2010Prop29
280
     1
102
RTVSPost2010PropOp29
 70
     1
102
RTVSPost2010Prop30
280
     1
102
RTVSPost2010PropOp30
 70
     1
102
RTVSPost2010Prop31
280
     0
102
RTVSPost2010PropOp31
 70
     1
102
RTVSPost2010Prop32
280
     0
102
RTVSPost2010PropOp32
 70
     1
102
RTVSPost2010Prop33
280
     0
102
RTVSPost2010PropOp33
 70
     1
102
RTVSPost2010Prop34
280
     0
102
RTVSPost2010PropOp34
 70
     1
102
RTVSPost2010Prop35
280
     0
102
RTVSPost2010PropOp35
 70
     1
102
RTVSPost2010Prop36
280
     0
102
RTVSPost2010PropOp36
 70
     1
102
RTVSPost2010Prop37
 90
       50
102
RTVSPost2010PropOp37
 70
     1
102
RTVSPost2010Prop38
140
0.0
102
RTVSPost2010PropOp38
 70
     1
102
RTVSPost2010Prop39
140
1.0
102
RTVSPost2010PropOp39
 70
     1
102
RTVSPost2010Prop40
 90
        0
102
RTVSPost2010PropOp40
 70
     1
102
RTVSPost2010Prop41ColorIndex
 90
       18
102
RTVSPost2010Prop41ColorRGB
 90
        0
102
RTVSPost2010PropOp41
 70
     1
102
RTVSPost2010Prop42
 90
       50
102
RTVSPost2010PropOp42
 70
     1
102
RTVSPost2010Prop43
 90
        3
102
RTVSPost2010PropOp43
 70
     1
102
RTVSPost2010Prop44ColorIndex
 90
        5
102
RTVSPost2010Prop44ColorRGB
 90
      255
102
RTVSPost2010PropOp44
 70
     1
102
RTVSPost2010Prop45
280
     0
102
RTVSPost2010PropOp45
 70
     1
102
RTVSPost2010Prop46
 90
       50
102
RTVSPost2010PropOp46
 70
     1
102
RTVSPost2010Prop47
 90
       50
102
RTVSPost2010PropOp47
 70
     1
102
RTVSPost2010Prop48
 90
       50
102
RTVSPost2010PropOp48
 70
     1
102
RTVSPost2010Prop49
280
     0
102
RTVSPost2010PropOp49
 70
     1
102
RTVSPost2010Prop50
 90
       50
102
RTVSPost2010PropOp50
 70
     1
102
RTVSPost2010Prop51ColorIndex
 90
      256
102
RTVSPost2010Prop51ColorRGB
 90
-16777216
102
RTVSPost2010PropOp51
 70
     0
102
RTVSPost2010Prop52
140
1.0
102
RTVSPost2010PropOp52
 70
     0
102
RTVSPost2010Prop53
 90
        2
102
RTVSPost2010PropOp53
 70
     1
102
RTVSPost2010Prop54
  1
strokes_ogs.tif
102
RTVSPost2010PropOp54
 70
     1
102
RTVSPost2010Prop55
280
     0
102
RTVSPost2010PropOp55
 70
     1
102
RTVSPost2010Prop56
140
1.0
102
RTVSPost2010PropOp56
 70
     1
102
RTVSPost2010Prop57
140
1.0
102
RTVSPost2010PropOp57
 70
     1
  0
XRECORD
  5
554
102
{ACAD_REACTORS
330
553
102
}
330
553
100
AcDbXrecord
280
     1
102
RTVSPropertyOp0
 70
     1
102
RTVSPropertyOp1
 70
     1
102
RTVSPropertyOp2
 70
     1
102
RTVSPropertyOp3
 70
     1
102
RTVSPropertyOp4
 70
     1
102
RTVSPropertyOp5
 70
     1
102
RTVSPropertyOp6
 70
     1
102
RTVSPropertyOp7
 70
     1
102
RTVSPropertyOp8
 70
     1
102
RTVSPropertyOp9
 70
     1
102
RTVSPropertyOp10
 70
     1
102
RTVSPropertyOp11
 70
     1
102
RTVSPropertyOp12
 70
     1
102
RTVSPropertyOp13
 70
     1
102
RTVSPropertyOp14
 70
     1
102
RTVSPropertyOp15
 70
     1
102
RTVSPropertyOp16
 70
     1
102
RTVSPropertyOp17
 70
     1
102
RTVSPropertyOp18
 70
     1
102
RTVSPropertyOp19
 70
     1
102
RTVSPropertyOp20
 70
     1
102
RTVSPropertyOp21
 70
     1
102
RTVSPropertyOp22
 70
     1
102
RTVSPropertyOp23
 70
     1
102
RTVSPropertyOp24
 70
     1
102
RTVSPropertyOp25
 70
     1
102
RTVSPropertyOp26
 70
     1
102
RTVSPropertyOp27
 70
     1
102
RTVSPropertyOp28
 70
     1
102
RTVSPropertyOp29
 70
     1
102
RTVSPropertyOp30
 70
     1
102
RTVSPropertyOp31
 70
     1
102
RTVSPropertyOp32
 70
     1
102
RTVSPropertyOp33
 70
     1
102
RTVSPropertyOp34
 70
     1
102
RTVSPropertyOp35
 70
     1
102
RTVSPropertyOp36
 70
     1
102
RTVSPropertyOp37
 70
     1
102
RTVSPropertyOp38
 70
     1
102
RTVSPropertyOp39
 70
     1
102
RTVSPropertyOp40
 70
     1
102
RTVSPropertyOp41
 70
     1
102
RTVSPropertyOp42
 70
     1
102
RTVSPropertyOp43
 70
     1
102
RTVSPropertyOp44
 70
     1
102
RTVSPropertyOp45
 70
     1
102
RTVSPropertyOp46
 70
     1
102
RTVSPropertyOp47
 70
     1
102
RTVSPropertyOp48
 70
     1
102
RTVSPropertyOp49
 70
     1
102
RTVSPropertyOp50
 70
     1
102
RTVSPropertyOp51
 70
     0
102
RTVSPropertyOp52
 70
     0
102
RTVSPropertyOp53
 70
     1
102
RTVSPropertyOp54
 70
     1
102
RTVSPropertyOp55
 70
     1
102
RTVSPropertyOp56
 70
     1
102
RTVSPropertyOp57
 70
     1
102
RTVSPost2010Prop28
280
     0
102
RTVSPost2010PropOp28
 70
     1
102
RTVSPost2010Prop29
280
     1
102
RTVSPost2010PropOp29
 70
     1
102
RTVSPost2010Prop30
280
     1
102
RTVSPost2010PropOp30
 70
     1
102
RTVSPost2010Prop31
280
     0
102
RTVSPost2010PropOp31
 70
     1
102
RTVSPost2010Prop32
280
     0
102
RTVSPost2010PropOp32
 70
     1
102
RTVSPost2010Prop33
280
     0
102
RTVSPost2010PropOp33
 70
     1
102
RTVSPost2010Prop34
280
     0
102
RTVSPost2010PropOp34
 70
     1
102
RTVSPost2010Prop35
280
     0
102
RTVSPost2010PropOp35
 70
     1
102
RTVSPost2010Prop36
280
     0
102
RTVSPost2010PropOp36
 70
     1
102
RTVSPost2010Prop37
 90
       50
102
RTVSPost2010PropOp37
 70
     1
102
RTVSPost2010Prop38
140
0.0
102
RTVSPost2010PropOp38
 70
     1
102
RTVSPost2010Prop39
140
1.0
102
RTVSPost2010PropOp39
 70
     1
102
RTVSPost2010Prop40
 90
        0
102
RTVSPost2010PropOp40
 70
     1
102
RTVSPost2010Prop41ColorIndex
 90
       18
102
RTVSPost2010Prop41ColorRGB
 90
        0
102
RTVSPost2010PropOp41
 70
     1
102
RTVSPost2010Prop42
 90
       50
102
RTVSPost2010PropOp42
 70
     1
102
RTVSPost2010Prop43
 90
        3
102
RTVSPost2010PropOp43
 70
     1
102
RTVSPost2010Prop44ColorIndex
 90
        5
102
RTVSPost2010Prop44ColorRGB
 90
      255
102
RTVSPost2010PropOp44
 70
     1
102
RTVSPost2010Prop45
280
     0
102
RTVSPost2010PropOp45
 70
     1
102
RTVSPost2010Prop46
 90
       50
102
RTVSPost2010PropOp46
 70
     1
102
RTVSPost2010Prop47
 90
       50
102
RTVSPost2010PropOp47
 70
     1
102
RTVSPost2010Prop48
 90
       50
102
RTVSPost2010PropOp48
 70
     1
102
RTVSPost2010Prop49
280
     0
102
RTVSPost2010PropOp49
 70
     1
102
RTVSPost2010Prop50
 90
       50
102
RTVSPost2010PropOp50
 70
     1
102
RTVSPost2010Prop51ColorIndex
 90
      256
102
RTVSPost2010Prop51ColorRGB
 90
-16777216
102
RTVSPost2010PropOp51
 70
     0
102
RTVSPost2010Prop52
140
1.0
102
RTVSPost2010PropOp52
 70
     0
102
RTVSPost2010Prop53
 90
        2
102
RTVSPost2010PropOp53
 70
     1
102
RTVSPost2010Prop54
  1
strokes_ogs.tif
102
RTVSPost2010PropOp54
 70
     1
102
RTVSPost2010Prop55
280
     0
102
RTVSPost2010PropOp55
 70
     1
102
RTVSPost2010Prop56
140
1.0
102
RTVSPost2010PropOp56
 70
     1
102
RTVSPost2010Prop57
140
1.0
102
RTVSPost2010PropOp57
 70
     1
  0
XRECORD
  5
556
102
{ACAD_REACTORS
330
555
102
}
330
555
100
AcDbXrecord
280
     1
102
RTVSPropertyOp0
 70
     1
102
RTVSPropertyOp1
 70
     1
102
RTVSPropertyOp2
 70
     1
102
RTVSPropertyOp3
 70
     1
102
RTVSPropertyOp4
 70
     1
102
RTVSPropertyOp5
 70
     1
102
RTVSPropertyOp6
 70
     1
102
RTVSPropertyOp7
 70
     1
102
RTVSPropertyOp8
 70
     1
102
RTVSPropertyOp9
 70
     1
102
RTVSPropertyOp10
 70
     1
102
RTVSPropertyOp11
 70
     1
102
RTVSPropertyOp12
 70
     1
102
RTVSPropertyOp13
 70
     1
102
RTVSPropertyOp14
 70
     1
102
RTVSPropertyOp15
 70
     1
102
RTVSPropertyOp16
 70
     1
102
RTVSPropertyOp17
 70
     1
102
RTVSPropertyOp18
 70
     1
102
RTVSPropertyOp19
 70
     1
102
RTVSPropertyOp20
 70
     1
102
RTVSPropertyOp21
 70
     1
102
RTVSPropertyOp22
 70
     1
102
RTVSPropertyOp23
 70
     1
102
RTVSPropertyOp24
 70
     1
102
RTVSPropertyOp25
 70
     1
102
RTVSPropertyOp26
 70
     1
102
RTVSPropertyOp27
 70
     1
102
RTVSPropertyOp28
 70
     1
102
RTVSPropertyOp29
 70
     1
102
RTVSPropertyOp30
 70
     1
102
RTVSPropertyOp31
 70
     1
102
RTVSPropertyOp32
 70
     1
102
RTVSPropertyOp33
 70
     1
102
RTVSPropertyOp34
 70
     1
102
RTVSPropertyOp35
 70
     1
102
RTVSPropertyOp36
 70
     1
102
RTVSPropertyOp37
 70
     1
102
RTVSPropertyOp38
 70
     1
102
RTVSPropertyOp39
 70
     1
102
RTVSPropertyOp40
 70
     1
102
RTVSPropertyOp41
 70
     1
102
RTVSPropertyOp42
 70
     1
102
RTVSPropertyOp43
 70
     1
102
RTVSPropertyOp44
 70
     1
102
RTVSPropertyOp45
 70
     1
102
RTVSPropertyOp46
 70
     1
102
RTVSPropertyOp47
 70
     1
102
RTVSPropertyOp48
 70
     1
102
RTVSPropertyOp49
 70
     1
102
RTVSPropertyOp50
 70
     1
102
RTVSPropertyOp51
 70
     0
102
RTVSPropertyOp52
 70
     0
102
RTVSPropertyOp53
 70
     1
102
RTVSPropertyOp54
 70
     1
102
RTVSPropertyOp55
 70
     1
102
RTVSPropertyOp56
 70
     1
102
RTVSPropertyOp57
 70
     1
102
RTVSPost2010Prop28
280
     0
102
RTVSPost2010PropOp28
 70
     1
102
RTVSPost2010Prop29
280
     1
102
RTVSPost2010PropOp29
 70
     1
102
RTVSPost2010Prop30
280
     1
102
RTVSPost2010PropOp30
 70
     1
102
RTVSPost2010Prop31
280
     0
102
RTVSPost2010PropOp31
 70
     1
102
RTVSPost2010Prop32
280
     0
102
RTVSPost2010PropOp32
 70
     1
102
RTVSPost2010Prop33
280
     0
102
RTVSPost2010PropOp33
 70
     1
102
RTVSPost2010Prop34
280
     0
102
RTVSPost2010PropOp34
 70
     1
102
RTVSPost2010Prop35
280
     0
102
RTVSPost2010PropOp35
 70
     1
102
RTVSPost2010Prop36
280
     0
102
RTVSPost2010PropOp36
 70
     1
102
RTVSPost2010Prop37
 90
       50
102
RTVSPost2010PropOp37
 70
     1
102
RTVSPost2010Prop38
140
0.0
102
RTVSPost2010PropOp38
 70
     1
102
RTVSPost2010Prop39
140
1.0
102
RTVSPost2010PropOp39
 70
     1
102
RTVSPost2010Prop40
 90
        0
102
RTVSPost2010PropOp40
 70
     1
102
RTVSPost2010Prop41ColorIndex
 90
       18
102
RTVSPost2010Prop41ColorRGB
 90
        0
102
RTVSPost2010PropOp41
 70
     1
102
RTVSPost2010Prop42
 90
       50
102
RTVSPost2010PropOp42
 70
     1
102
RTVSPost2010Prop43
 90
        3
102
RTVSPost2010PropOp43
 70
     1
102
RTVSPost2010Prop44ColorIndex
 90
        5
102
RTVSPost2010Prop44ColorRGB
 90
      255
102
RTVSPost2010PropOp44
 70
     1
102
RTVSPost2010Prop45
280
     0
102
RTVSPost2010PropOp45
 70
     1
102
RTVSPost2010Prop46
 90
       50
102
RTVSPost2010PropOp46
 70
     1
102
RTVSPost2010Prop47
 90
       50
102
RTVSPost2010PropOp47
 70
     1
102
RTVSPost2010Prop48
 90
       50
102
RTVSPost2010PropOp48
 70
     1
102
RTVSPost2010Prop49
280
     0
102
RTVSPost2010PropOp49
 70
     1
102
RTVSPost2010Prop50
 90
       50
102
RTVSPost2010PropOp50
 70
     1
102
RTVSPost2010Prop51ColorIndex
 90
      256
102
RTVSPost2010Prop51ColorRGB
 90
-16777216
102
RTVSPost2010PropOp51
 70
     0
102
RTVSPost2010Prop52
140
1.0
102
RTVSPost2010PropOp52
 70
     0
102
RTVSPost2010Prop53
 90
        2
102
RTVSPost2010PropOp53
 70
     1
102
RTVSPost2010Prop54
  1
strokes_ogs.tif
102
RTVSPost2010PropOp54
 70
     1
102
RTVSPost2010Prop55
280
     0
102
RTVSPost2010PropOp55
 70
     1
102
RTVSPost2010Prop56
140
1.0
102
RTVSPost2010PropOp56
 70
     1
102
RTVSPost2010Prop57
140
1.0
102
RTVSPost2010PropOp57
 70
     1
  0
XRECORD
  5
56A
102
{ACAD_REACTORS
330
569
102
}
330
569
100
AcDbXrecord
280
     1
102
RTVSPropertyOp0
 70
     1
102
RTVSPropertyOp1
 70
     1
102
RTVSPropertyOp2
 70
     1
102
RTVSPropertyOp3
 70
     1
102
RTVSPropertyOp4
 70
     1
102
RTVSPropertyOp5
 70
     1
102
RTVSPropertyOp6
 70
     1
102
RTVSPropertyOp7
 70
     1
102
RTVSPropertyOp8
 70
     1
102
RTVSPropertyOp9
 70
     1
102
RTVSPropertyOp10
 70
     1
102
RTVSPropertyOp11
 70
     1
102
RTVSPropertyOp12
 70
     1
102
RTVSPropertyOp13
 70
     1
102
RTVSPropertyOp14
 70
     1
102
RTVSPropertyOp15
 70
     1
102
RTVSPropertyOp16
 70
     1
102
RTVSPropertyOp17
 70
     1
102
RTVSPropertyOp18
 70
     1
102
RTVSPropertyOp19
 70
     1
102
RTVSPropertyOp20
 70
     1
102
RTVSPropertyOp21
 70
     1
102
RTVSPropertyOp22
 70
     1
102
RTVSPropertyOp23
 70
     1
102
RTVSPropertyOp24
 70
     1
102
RTVSPropertyOp25
 70
     1
102
RTVSPropertyOp26
 70
     1
102
RTVSPropertyOp27
 70
     1
102
RTVSPropertyOp28
 70
     1
102
RTVSPropertyOp29
 70
     1
102
RTVSPropertyOp30
 70
     1
102
RTVSPropertyOp31
 70
     1
102
RTVSPropertyOp32
 70
     1
102
RTVSPropertyOp33
 70
     1
102
RTVSPropertyOp34
 70
     1
102
RTVSPropertyOp35
 70
     1
102
RTVSPropertyOp36
 70
     1
102
RTVSPropertyOp37
 70
     1
102
RTVSPropertyOp38
 70
     1
102
RTVSPropertyOp39
 70
     1
102
RTVSPropertyOp40
 70
     1
102
RTVSPropertyOp41
 70
     1
102
RTVSPropertyOp42
 70
     1
102
RTVSPropertyOp43
 70
     1
102
RTVSPropertyOp44
 70
     1
102
RTVSPropertyOp45
 70
     1
102
RTVSPropertyOp46
 70
     1
102
RTVSPropertyOp47
 70
     1
102
RTVSPropertyOp48
 70
     1
102
RTVSPropertyOp49
 70
     1
102
RTVSPropertyOp50
 70
     1
102
RTVSPropertyOp51
 70
     0
102
RTVSPropertyOp52
 70
     0
102
RTVSPropertyOp53
 70
     1
102
RTVSPropertyOp54
 70
     1
102
RTVSPropertyOp55
 70
     1
102
RTVSPropertyOp56
 70
     1
102
RTVSPropertyOp57
 70
     1
102
RTVSPost2010Prop28
280
     0
102
RTVSPost2010PropOp28
 70
     1
102
RTVSPost2010Prop29
280
     1
102
RTVSPost2010PropOp29
 70
     1
102
RTVSPost2010Prop30
280
     1
102
RTVSPost2010PropOp30
 70
     1
102
RTVSPost2010Prop31
280
     0
102
RTVSPost2010PropOp31
 70
     1
102
RTVSPost2010Prop32
280
     0
102
RTVSPost2010PropOp32
 70
     1
102
RTVSPost2010Prop33
280
     0
102
RTVSPost2010PropOp33
 70
     1
102
RTVSPost2010Prop34
280
     0
102
RTVSPost2010PropOp34
 70
     1
102
RTVSPost2010Prop35
280
     0
102
RTVSPost2010PropOp35
 70
     1
102
RTVSPost2010Prop36
280
     0
102
RTVSPost2010PropOp36
 70
     1
102
RTVSPost2010Prop37
 90
       50
102
RTVSPost2010PropOp37
 70
     1
102
RTVSPost2010Prop38
140
0.0
102
RTVSPost2010PropOp38
 70
     1
102
RTVSPost2010Prop39
140
1.0
102
RTVSPost2010PropOp39
 70
     1
102
RTVSPost2010Prop40
 90
        0
102
RTVSPost2010PropOp40
 70
     1
102
RTVSPost2010Prop41ColorIndex
 90
       18
102
RTVSPost2010Prop41ColorRGB
 90
        0
102
RTVSPost2010PropOp41
 70
     1
102
RTVSPost2010Prop42
 90
       50
102
RTVSPost2010PropOp42
 70
     1
102
RTVSPost2010Prop43
 90
        3
102
RTVSPost2010PropOp43
 70
     1
102
RTVSPost2010Prop44ColorIndex
 90
        5
102
RTVSPost2010Prop44ColorRGB
 90
      255
102
RTVSPost2010PropOp44
 70
     1
102
RTVSPost2010Prop45
280
     0
102
RTVSPost2010PropOp45
 70
     1
102
RTVSPost2010Prop46
 90
       50
102
RTVSPost2010PropOp46
 70
     1
102
RTVSPost2010Prop47
 90
       50
102
RTVSPost2010PropOp47
 70
     1
102
RTVSPost2010Prop48
 90
       50
102
RTVSPost2010PropOp48
 70
     1
102
RTVSPost2010Prop49
280
     0
102
RTVSPost2010PropOp49
 70
     1
102
RTVSPost2010Prop50
 90
       50
102
RTVSPost2010PropOp50
 70
     1
102
RTVSPost2010Prop51ColorIndex
 90
      256
102
RTVSPost2010Prop51ColorRGB
 90
-16777216
102
RTVSPost2010PropOp51
 70
     0
102
RTVSPost2010Prop52
140
1.0
102
RTVSPost2010PropOp52
 70
     0
102
RTVSPost2010Prop53
 90
        2
102
RTVSPost2010PropOp53
 70
     1
102
RTVSPost2010Prop54
  1
strokes_ogs.tif
102
RTVSPost2010PropOp54
 70
     1
102
RTVSPost2010Prop55
280
     0
102
RTVSPost2010PropOp55
 70
     1
102
RTVSPost2010Prop56
140
1.0
102
RTVSPost2010PropOp56
 70
     1
102
RTVSPost2010Prop57
140
1.0
102
RTVSPost2010PropOp57
 70
     1
  0
XRECORD
  5
560
102
{ACAD_REACTORS
330
55F
102
}
330
55F
100
AcDbXrecord
280
     1
102
RTVSPropertyOp0
 70
     1
102
RTVSPropertyOp1
 70
     1
102
RTVSPropertyOp2
 70
     1
102
RTVSPropertyOp3
 70
     1
102
RTVSPropertyOp4
 70
     1
102
RTVSPropertyOp5
 70
     1
102
RTVSPropertyOp6
 70
     1
102
RTVSPropertyOp7
 70
     1
102
RTVSPropertyOp8
 70
     1
102
RTVSPropertyOp9
 70
     1
102
RTVSPropertyOp10
 70
     1
102
RTVSPropertyOp11
 70
     1
102
RTVSPropertyOp12
 70
     1
102
RTVSPropertyOp13
 70
     1
102
RTVSPropertyOp14
 70
     1
102
RTVSPropertyOp15
 70
     1
102
RTVSPropertyOp16
 70
     1
102
RTVSPropertyOp17
 70
     1
102
RTVSPropertyOp18
 70
     1
102
RTVSPropertyOp19
 70
     1
102
RTVSPropertyOp20
 70
     1
102
RTVSPropertyOp21
 70
     1
102
RTVSPropertyOp22
 70
     1
102
RTVSPropertyOp23
 70
     1
102
RTVSPropertyOp24
 70
     1
102
RTVSPropertyOp25
 70
     1
102
RTVSPropertyOp26
 70
     1
102
RTVSPropertyOp27
 70
     1
102
RTVSPropertyOp28
 70
     1
102
RTVSPropertyOp29
 70
     1
102
RTVSPropertyOp30
 70
     1
102
RTVSPropertyOp31
 70
     1
102
RTVSPropertyOp32
 70
     1
102
RTVSPropertyOp33
 70
     1
102
RTVSPropertyOp34
 70
     1
102
RTVSPropertyOp35
 70
     1
102
RTVSPropertyOp36
 70
     1
102
RTVSPropertyOp37
 70
     1
102
RTVSPropertyOp38
 70
     1
102
RTVSPropertyOp39
 70
     1
102
RTVSPropertyOp40
 70
     1
102
RTVSPropertyOp41
 70
     1
102
RTVSPropertyOp42
 70
     1
102
RTVSPropertyOp43
 70
     1
102
RTVSPropertyOp44
 70
     1
102
RTVSPropertyOp45
 70
     1
102
RTVSPropertyOp46
 70
     1
102
RTVSPropertyOp47
 70
     1
102
RTVSPropertyOp48
 70
     1
102
RTVSPropertyOp49
 70
     1
102
RTVSPropertyOp50
 70
     1
102
RTVSPropertyOp51
 70
     0
102
RTVSPropertyOp52
 70
     0
102
RTVSPropertyOp53
 70
     1
102
RTVSPropertyOp54
 70
     1
102
RTVSPropertyOp55
 70
     1
102
RTVSPropertyOp56
 70
     1
102
RTVSPropertyOp57
 70
     1
102
RTVSPost2010Prop28
280
     0
102
RTVSPost2010PropOp28
 70
     1
102
RTVSPost2010Prop29
280
     1
102
RTVSPost2010PropOp29
 70
     1
102
RTVSPost2010Prop30
280
     1
102
RTVSPost2010PropOp30
 70
     1
102
RTVSPost2010Prop31
280
     0
102
RTVSPost2010PropOp31
 70
     1
102
RTVSPost2010Prop32
280
     0
102
RTVSPost2010PropOp32
 70
     1
102
RTVSPost2010Prop33
280
     0
102
RTVSPost2010PropOp33
 70
     1
102
RTVSPost2010Prop34
280
     0
102
RTVSPost2010PropOp34
 70
     1
102
RTVSPost2010Prop35
280
     0
102
RTVSPost2010PropOp35
 70
     1
102
RTVSPost2010Prop36
280
     0
102
RTVSPost2010PropOp36
 70
     1
102
RTVSPost2010Prop37
 90
       50
102
RTVSPost2010PropOp37
 70
     1
102
RTVSPost2010Prop38
140
0.0
102
RTVSPost2010PropOp38
 70
     1
102
RTVSPost2010Prop39
140
1.0
102
RTVSPost2010PropOp39
 70
     1
102
RTVSPost2010Prop40
 90
        0
102
RTVSPost2010PropOp40
 70
     1
102
RTVSPost2010Prop41ColorIndex
 90
       18
102
RTVSPost2010Prop41ColorRGB
 90
        0
102
RTVSPost2010PropOp41
 70
     1
102
RTVSPost2010Prop42
 90
       50
102
RTVSPost2010PropOp42
 70
     1
102
RTVSPost2010Prop43
 90
        3
102
RTVSPost2010PropOp43
 70
     1
102
RTVSPost2010Prop44ColorIndex
 90
        5
102
RTVSPost2010Prop44ColorRGB
 90
      255
102
RTVSPost2010PropOp44
 70
     1
102
RTVSPost2010Prop45
280
     0
102
RTVSPost2010PropOp45
 70
     1
102
RTVSPost2010Prop46
 90
       50
102
RTVSPost2010PropOp46
 70
     1
102
RTVSPost2010Prop47
 90
       50
102
RTVSPost2010PropOp47
 70
     1
102
RTVSPost2010Prop48
 90
       50
102
RTVSPost2010PropOp48
 70
     1
102
RTVSPost2010Prop49
280
     0
102
RTVSPost2010PropOp49
 70
     1
102
RTVSPost2010Prop50
 90
       50
102
RTVSPost2010PropOp50
 70
     1
102
RTVSPost2010Prop51ColorIndex
 90
      256
102
RTVSPost2010Prop51ColorRGB
 90
-16777216
102
RTVSPost2010PropOp51
 70
     0
102
RTVSPost2010Prop52
140
1.0
102
RTVSPost2010PropOp52
 70
     0
102
RTVSPost2010Prop53
 90
        2
102
RTVSPost2010PropOp53
 70
     1
102
RTVSPost2010Prop54
  1
strokes_ogs.tif
102
RTVSPost2010PropOp54
 70
     1
102
RTVSPost2010Prop55
280
     0
102
RTVSPost2010PropOp55
 70
     1
102
RTVSPost2010Prop56
140
1.0
102
RTVSPost2010PropOp56
 70
     1
102
RTVSPost2010Prop57
140
1.0
102
RTVSPost2010PropOp57
 70
     1
  0
XRECORD
  5
568
102
{ACAD_REACTORS
330
567
102
}
330
567
100
AcDbXrecord
280
     1
102
RTVSPropertyOp0
 70
     1
102
RTVSPropertyOp1
 70
     1
102
RTVSPropertyOp2
 70
     1
102
RTVSPropertyOp3
 70
     1
102
RTVSPropertyOp4
 70
     1
102
RTVSPropertyOp5
 70
     1
102
RTVSPropertyOp6
 70
     1
102
RTVSPropertyOp7
 70
     1
102
RTVSPropertyOp8
 70
     1
102
RTVSPropertyOp9
 70
     1
102
RTVSPropertyOp10
 70
     1
102
RTVSPropertyOp11
 70
     1
102
RTVSPropertyOp12
 70
     1
102
RTVSPropertyOp13
 70
     1
102
RTVSPropertyOp14
 70
     1
102
RTVSPropertyOp15
 70
     1
102
RTVSPropertyOp16
 70
     1
102
RTVSPropertyOp17
 70
     1
102
RTVSPropertyOp18
 70
     1
102
RTVSPropertyOp19
 70
     1
102
RTVSPropertyOp20
 70
     1
102
RTVSPropertyOp21
 70
     1
102
RTVSPropertyOp22
 70
     1
102
RTVSPropertyOp23
 70
     1
102
RTVSPropertyOp24
 70
     1
102
RTVSPropertyOp25
 70
     1
102
RTVSPropertyOp26
 70
     1
102
RTVSPropertyOp27
 70
     1
102
RTVSPropertyOp28
 70
     1
102
RTVSPropertyOp29
 70
     1
102
RTVSPropertyOp30
 70
     1
102
RTVSPropertyOp31
 70
     1
102
RTVSPropertyOp32
 70
     1
102
RTVSPropertyOp33
 70
     1
102
RTVSPropertyOp34
 70
     1
102
RTVSPropertyOp35
 70
     1
102
RTVSPropertyOp36
 70
     1
102
RTVSPropertyOp37
 70
     1
102
RTVSPropertyOp38
 70
     1
102
RTVSPropertyOp39
 70
     1
102
RTVSPropertyOp40
 70
     1
102
RTVSPropertyOp41
 70
     1
102
RTVSPropertyOp42
 70
     1
102
RTVSPropertyOp43
 70
     1
102
RTVSPropertyOp44
 70
     1
102
RTVSPropertyOp45
 70
     1
102
RTVSPropertyOp46
 70
     1
102
RTVSPropertyOp47
 70
     1
102
RTVSPropertyOp48
 70
     1
102
RTVSPropertyOp49
 70
     1
102
RTVSPropertyOp50
 70
     1
102
RTVSPropertyOp51
 70
     0
102
RTVSPropertyOp52
 70
     0
102
RTVSPropertyOp53
 70
     1
102
RTVSPropertyOp54
 70
     1
102
RTVSPropertyOp55
 70
     1
102
RTVSPropertyOp56
 70
     1
102
RTVSPropertyOp57
 70
     1
102
RTVSPost2010Prop28
280
     0
102
RTVSPost2010PropOp28
 70
     1
102
RTVSPost2010Prop29
280
     1
102
RTVSPost2010PropOp29
 70
     1
102
RTVSPost2010Prop30
280
     1
102
RTVSPost2010PropOp30
 70
     1
102
RTVSPost2010Prop31
280
     0
102
RTVSPost2010PropOp31
 70
     1
102
RTVSPost2010Prop32
280
     0
102
RTVSPost2010PropOp32
 70
     1
102
RTVSPost2010Prop33
280
     0
102
RTVSPost2010PropOp33
 70
     1
102
RTVSPost2010Prop34
280
     0
102
RTVSPost2010PropOp34
 70
     1
102
RTVSPost2010Prop35
280
     0
102
RTVSPost2010PropOp35
 70
     1
102
RTVSPost2010Prop36
280
     0
102
RTVSPost2010PropOp36
 70
     1
102
RTVSPost2010Prop37
 90
       50
102
RTVSPost2010PropOp37
 70
     1
102
RTVSPost2010Prop38
140
0.0
102
RTVSPost2010PropOp38
 70
     1
102
RTVSPost2010Prop39
140
1.0
102
RTVSPost2010PropOp39
 70
     1
102
RTVSPost2010Prop40
 90
        0
102
RTVSPost2010PropOp40
 70
     1
102
RTVSPost2010Prop41ColorIndex
 90
       18
102
RTVSPost2010Prop41ColorRGB
 90
        0
102
RTVSPost2010PropOp41
 70
     1
102
RTVSPost2010Prop42
 90
       50
102
RTVSPost2010PropOp42
 70
     1
102
RTVSPost2010Prop43
 90
        3
102
RTVSPost2010PropOp43
 70
     1
102
RTVSPost2010Prop44ColorIndex
 90
        5
102
RTVSPost2010Prop44ColorRGB
 90
      255
102
RTVSPost2010PropOp44
 70
     1
102
RTVSPost2010Prop45
280
     0
102
RTVSPost2010PropOp45
 70
     1
102
RTVSPost2010Prop46
 90
       50
102
RTVSPost2010PropOp46
 70
     1
102
RTVSPost2010Prop47
 90
       50
102
RTVSPost2010PropOp47
 70
     1
102
RTVSPost2010Prop48
 90
       50
102
RTVSPost2010PropOp48
 70
     1
102
RTVSPost2010Prop49
280
     0
102
RTVSPost2010PropOp49
 70
     1
102
RTVSPost2010Prop50
 90
       50
102
RTVSPost2010PropOp50
 70
     1
102
RTVSPost2010Prop51ColorIndex
 90
      256
102
RTVSPost2010Prop51ColorRGB
 90
-16777216
102
RTVSPost2010PropOp51
 70
     0
102
RTVSPost2010Prop52
140
1.0
102
RTVSPost2010PropOp52
 70
     0
102
RTVSPost2010Prop53
 90
        2
102
RTVSPost2010PropOp53
 70
     1
102
RTVSPost2010Prop54
  1
strokes_ogs.tif
102
RTVSPost2010PropOp54
 70
     1
102
RTVSPost2010Prop55
280
     0
102
RTVSPost2010PropOp55
 70
     1
102
RTVSPost2010Prop56
140
1.0
102
RTVSPost2010PropOp56
 70
     1
102
RTVSPost2010Prop57
140
1.0
102
RTVSPost2010PropOp57
 70
     1
  0
ENDSEC
  0
EOF
