  0
SECTION
  2
HEADER
  9
$ACADVER
  1
AC1018
  9
$ACADMAINTVER
 70
     0
  9
$DWGCODEPAGE
  3
ANSI_936
  9
$INSBASE
 10
0.0
 20
0.0
 30
0.0
  9
$EXTMIN
 10
0.0001695863598382
 20
360.4522357884053
 30
0.0
  9
$EXTMAX
 10
150.9013505601503
 20
520.6431478074942
 30
0.0
  9
$LIMMIN
 10
0.0
 20
0.0
  9
$LIMMAX
 10
12.0
 20
9.0
  9
$ORTHOMODE
 70
     0
  9
$REGENMODE
 70
     1
  9
$FILLMODE
 70
     1
  9
$QTEXTMODE
 70
     0
  9
$MIRRTEXT
 70
     1
  9
$LTSCALE
 40
1.0
  9
$ATTMODE
 70
     1
  9
$TEXTSIZE
 40
0.2
  9
$TRACEWID
 40
0.05
  9
$TEXTSTYLE
  7
Standard
  9
$CLAYER
  8
0
  9
$CELTYPE
  6
ByLayer
  9
$CECOLOR
 62
   256
  9
$CELTSCALE
 40
1.0
  9
$DISPSILH
 70
     0
  9
$DIMSCALE
 40
1.0
  9
$DIMASZ
 40
0.18
  9
$DIMEXO
 40
0.0625
  9
$DIMDLI
 40
0.38
  9
$DIMRND
 40
0.0
  9
$DIMDLE
 40
0.0
  9
$DIMEXE
 40
0.18
  9
$DIMTP
 40
0.0
  9
$DIMTM
 40
0.0
  9
$DIMTXT
 40
0.18
  9
$DIMCEN
 40
0.09
  9
$DIMTSZ
 40
0.0
  9
$DIMTOL
 70
     0
  9
$DIMLIM
 70
     0
  9
$DIMTIH
 70
     1
  9
$DIMTOH
 70
     1
  9
$DIMSE1
 70
     0
  9
$DIMSE2
 70
     0
  9
$DIMTAD
 70
     0
  9
$DIMZIN
 70
     0
  9
$DIMBLK
  1

  9
$DIMASO
 70
     1
  9
$DIMSHO
 70
     1
  9
$DIMPOST
  1

  9
$DIMAPOST
  1

  9
$DIMALT
 70
     0
  9
$DIMALTD
 70
     2
  9
$DIMALTF
 40
25.4
  9
$DIMLFAC
 40
1.0
  9
$DIMTOFL
 70
     0
  9
$DIMTVP
 40
0.0
  9
$DIMTIX
 70
     0
  9
$DIMSOXD
 70
     0
  9
$DIMSAH
 70
     0
  9
$DIMBLK1
  1

  9
$DIMBLK2
  1

  9
$DIMSTYLE
  2
Standard
  9
$DIMCLRD
 70
     0
  9
$DIMCLRE
 70
     0
  9
$DIMCLRT
 70
     0
  9
$DIMTFAC
 40
1.0
  9
$DIMGAP
 40
0.09
  9
$DIMJUST
 70
     0
  9
$DIMSD1
 70
     0
  9
$DIMSD2
 70
     0
  9
$DIMTOLJ
 70
     1
  9
$DIMTZIN
 70
     0
  9
$DIMALTZ
 70
     0
  9
$DIMALTTZ
 70
     0
  9
$DIMUPT
 70
     0
  9
$DIMDEC
 70
     4
  9
$DIMTDEC
 70
     4
  9
$DIMALTU
 70
     2
  9
$DIMALTTD
 70
     2
  9
$DIMTXSTY
  7
Standard
  9
$DIMAUNIT
 70
     0
  9
$DIMADEC
 70
     0
  9
$DIMALTRND
 40
0.0
  9
$DIMAZIN
 70
     0
  9
$DIMDSEP
 70
    46
  9
$DIMATFIT
 70
     3
  9
$DIMFRAC
 70
     0
  9
$DIMLDRBLK
  1

  9
$DIMLUNIT
 70
     2
  9
$DIMLWD
 70
    -2
  9
$DIMLWE
 70
    -2
  9
$DIMTMOVE
 70
     2
  9
$LUNITS
 70
     2
  9
$LUPREC
 70
     3
  9
$SKETCHINC
 40
0.1
  9
$FILLETRAD
 40
0.5
  9
$AUNITS
 70
     0
  9
$AUPREC
 70
     0
  9
$MENU
  1
.
  9
$ELEVATION
 40
0.0
  9
$PELEVATION
 40
0.0
  9
$THICKNESS
 40
0.0
  9
$LIMCHECK
 70
     0
  9
$CHAMFERA
 40
0.5
  9
$CHAMFERB
 40
0.5
  9
$CHAMFERC
 40
1.0
  9
$CHAMFERD
 40
0.0
  9
$SKPOLY
 70
     0
  9
$TDCREATE
 40
2457063.508902697
  9
$TDUCREATE
 40
2457063.175569363
  9
$TDUPDATE
 40
2457063.508902871
  9
$TDUUPDATE
 40
2457063.175569537
  9
$TDINDWG
 40
0.0000000116
  9
$TDUSRTIMER
 40
0.0000000116
  9
$USRTIMER
 70
     1
  9
$ANGBASE
 50
0.0
  9
$ANGDIR
 70
     0
  9
$PDMODE
 70
     0
  9
$PDSIZE
 40
0.0
  9
$PLINEWID
 40
0.0
  9
$SPLFRAME
 70
     0
  9
$SPLINETYPE
 70
     6
  9
$SPLINESEGS
 70
     8
  9
$HANDSEED
  5
3E3
  9
$SURFTAB1
 70
     6
  9
$SURFTAB2
 70
     6
  9
$SURFTYPE
 70
     6
  9
$SURFU
 70
     6
  9
$SURFV
 70
     6
  9
$UCSBASE
  2

  9
$UCSNAME
  2

  9
$UCSORG
 10
0.0
 20
0.0
 30
0.0
  9
$UCSXDIR
 10
1.0
 20
0.0
 30
0.0
  9
$UCSYDIR
 10
0.0
 20
1.0
 30
0.0
  9
$UCSORTHOREF
  2

  9
$UCSORTHOVIEW
 70
     0
  9
$UCSORGTOP
 10
0.0
 20
0.0
 30
0.0
  9
$UCSORGBOTTOM
 10
0.0
 20
0.0
 30
0.0
  9
$UCSORGLEFT
 10
0.0
 20
0.0
 30
0.0
  9
$UCSORGRIGHT
 10
0.0
 20
0.0
 30
0.0
  9
$UCSORGFRONT
 10
0.0
 20
0.0
 30
0.0
  9
$UCSORGBACK
 10
0.0
 20
0.0
 30
0.0
  9
$PUCSBASE
  2

  9
$PUCSNAME
  2

  9
$PUCSORG
 10
0.0
 20
0.0
 30
0.0
  9
$PUCSXDIR
 10
1.0
 20
0.0
 30
0.0
  9
$PUCSYDIR
 10
0.0
 20
1.0
 30
0.0
  9
$PUCSORTHOREF
  2

  9
$PUCSORTHOVIEW
 70
     0
  9
$PUCSORGTOP
 10
0.0
 20
0.0
 30
0.0
  9
$PUCSORGBOTTOM
 10
0.0
 20
0.0
 30
0.0
  9
$PUCSORGLEFT
 10
0.0
 20
0.0
 30
0.0
  9
$PUCSORGRIGHT
 10
0.0
 20
0.0
 30
0.0
  9
$PUCSORGFRONT
 10
0.0
 20
0.0
 30
0.0
  9
$PUCSORGBACK
 10
0.0
 20
0.0
 30
0.0
  9
$USERI1
 70
     0
  9
$USERI2
 70
     0
  9
$USERI3
 70
     0
  9
$USERI4
 70
     0
  9
$USERI5
 70
     0
  9
$USERR1
 40
0.0
  9
$USERR2
 40
0.0
  9
$USERR3
 40
0.0
  9
$USERR4
 40
0.0
  9
$USERR5
 40
0.0
  9
$WORLDVIEW
 70
     1
  9
$SHADEDGE
 70
     3
  9
$SHADEDIF
 70
    70
  9
$TILEMODE
 70
     1
  9
$MAXACTVP
 70
    64
  9
$PINSBASE
 10
0.0
 20
0.0
 30
0.0
  9
$PLIMCHECK
 70
     0
  9
$PEXTMIN
 10
1.000000000000000E+20
 20
1.000000000000000E+20
 30
1.000000000000000E+20
  9
$PEXTMAX
 10
-1.000000000000000E+20
 20
-1.000000000000000E+20
 30
-1.000000000000000E+20
  9
$PLIMMIN
 10
0.0
 20
0.0
  9
$PLIMMAX
 10
12.0
 20
9.0
  9
$UNITMODE
 70
     0
  9
$VISRETAIN
 70
     1
  9
$PLINEGEN
 70
     0
  9
$PSLTSCALE
 70
     1
  9
$TREEDEPTH
 70
  3020
  9
$CMLSTYLE
  2
Standard
  9
$CMLJUST
 70
     0
  9
$CMLSCALE
 40
1.0
  9
$PROXYGRAPHICS
 70
     1
  9
$MEASUREMENT
 70
     0
  9
$CELWEIGHT
370
    -1
  9
$ENDCAPS
280
     0
  9
$JOINSTYLE
280
     0
  9
$LWDISPLAY
290
     0
  9
$INSUNITS
 70
     4
  9
$HYPERLINKBASE
  1

  9
$STYLESHEET
  1

  9
$XEDIT
290
     1
  9
$CEPSNTYPE
380
     0
  9
$PSTYLEMODE
290
     1
  9
$FINGERPRINTGUID
  2
{B1245CE2-0A6C-4B1A-809E-755CEA2887C5}
  9
$VERSIONGUID
  2
{FAEB1C32-E019-11D5-929B-00C0DF256EC4}
  9
$EXTNAMES
290
     1
  9
$PSVPSCALE
 40
0.0
  9
$OLESTARTUP
290
     0
  9
$SORTENTS
280
   127
  9
$INDEXCTL
280
     0
  9
$HIDETEXT
280
     1
  9
$XCLIPFRAME
290
     0
  9
$HALOGAP
280
     0
  9
$OBSCOLOR
 70
   257
  9
$OBSLTYPE
280
     0
  9
$INTERSECTIONDISPLAY
280
     0
  9
$INTERSECTIONCOLOR
 70
   257
  9
$DIMASSOC
280
     2
  9
$PROJECTNAME
  1

  0
ENDSEC
  0
SECTION
  2
CLASSES
  0
CLASS
  1
ACDBDICTIONARYWDFLT
  2
AcDbDictionaryWithDefault
  3
ObjectDBX Classes
 90
        0
 91
        4
280
     0
281
     0
  0
CLASS
  1
VISUALSTYLE
  2
AcDbVisualStyle
  3
ObjectDBX Classes
 90
     4095
 91
        4
280
     0
281
     0
  0
CLASS
  1
MATERIAL
  2
AcDbMaterial
  3
ObjectDBX Classes
 90
     1153
 91
        4
280
     0
281
     0
  0
CLASS
  1
SCALE
  2
AcDbScale
  3
ObjectDBX Classes
 90
     1153
 91
        4
280
     0
281
     0
  0
CLASS
  1
SUN
  2
AcDbSun
  3
SCENEOE
 90
     1153
 91
        4
280
     0
281
     0
  0
CLASS
  1
DICTIONARYVAR
  2
AcDbDictionaryVar
  3
ObjectDBX Classes
 90
        0
 91
        4
280
     0
281
     0
  0
ENDSEC
  0
SECTION
  2
TABLES
  0
TABLE
  2
VPORT
  5
8
330
0
100
AcDbSymbolTable
 70
     1
  0
VPORT
  5
29
330
8
100
AcDbSymbolTableRecord
100
AcDbViewportTableRecord
  2
*Active
 70
     0
 10
0.0
 20
0.0
 11
1.0
 21
1.0
 12
75.45076007325507
 22
440.5476917979498
 13
0.0
 23
0.0
 14
0.5
 24
0.5
 15
0.5
 25
0.5
 16
0.0
 26
0.0
 36
1.0
 17
0.0
 27
0.0
 37
0.0
 40
163.3947302594706
 41
0.9420083765788698
 42
50.0
 43
0.0
 44
0.0
 50
0.0
 51
0.0
 71
     0
 72
   100
 73
     1
 74
     3
 75
     0
 76
     0
 77
     0
 78
     0
281
     0
 65
     1
110
0.0
120
0.0
130
0.0
111
1.0
121
0.0
131
0.0
112
0.0
122
1.0
132
0.0
 79
     0
146
0.0
  0
ENDTAB
  0
TABLE
  2
LTYPE
  5
5
330
0
100
AcDbSymbolTable
 70
     1
  0
LTYPE
  5
14
330
5
100
AcDbSymbolTableRecord
100
AcDbLinetypeTableRecord
  2
ByBlock
 70
     0
  3

 72
    65
 73
     0
 40
0.0
  0
LTYPE
  5
15
330
5
100
AcDbSymbolTableRecord
100
AcDbLinetypeTableRecord
  2
ByLayer
 70
     0
  3

 72
    65
 73
     0
 40
0.0
  0
LTYPE
  5
16
330
5
100
AcDbSymbolTableRecord
100
AcDbLinetypeTableRecord
  2
Continuous
 70
     0
  3
Solid line
 72
    65
 73
     0
 40
0.0
  0
ENDTAB
  0
TABLE
  2
LAYER
  5
2
330
0
100
AcDbSymbolTable
 70
     2
  0
LAYER
  5
10
330
2
100
AcDbSymbolTableRecord
100
AcDbLayerTableRecord
  2
0
 70
     0
 62
     7
  6
Continuous
370
    -3
390
F
  0
LAYER
  5
62
330
2
100
AcDbSymbolTableRecord
100
AcDbLayerTableRecord
  2
Make2D$可见线$普通线
 70
     0
 62
    18
420
        0
  6
Continuous
370
    -3
390
F
  0
ENDTAB
  0
TABLE
  2
STYLE
  5
3
330
0
100
AcDbSymbolTable
 70
     1
  0
STYLE
  5
11
330
3
100
AcDbSymbolTableRecord
100
AcDbTextStyleTableRecord
  2
Standard
 70
     0
 40
0.0
 41
1.0
 50
0.0
 71
     0
 42
0.2
  3
txt
  4

  0
ENDTAB
  0
TABLE
  2
VIEW
  5
6
330
0
100
AcDbSymbolTable
 70
     0
  0
ENDTAB
  0
TABLE
  2
UCS
  5
7
330
0
100
AcDbSymbolTable
 70
     0
  0
ENDTAB
  0
TABLE
  2
APPID
  5
9
330
0
100
AcDbSymbolTable
 70
     1
  0
APPID
  5
12
330
9
100
AcDbSymbolTableRecord
100
AcDbRegAppTableRecord
  2
ACAD
 70
     0
  0
ENDTAB
  0
TABLE
  2
DIMSTYLE
  5
A
330
0
100
AcDbSymbolTable
 70
     1
100
AcDbDimStyleTable
  0
DIMSTYLE
105
27
330
A
100
AcDbSymbolTableRecord
100
AcDbDimStyleTableRecord
  2
Standard
 70
     0
178
     0
340
11
  0
ENDTAB
  0
TABLE
  2
BLOCK_RECORD
  5
1
330
0
100
AcDbSymbolTable
 70
     1
  0
BLOCK_RECORD
  5
1F
330
1
100
AcDbSymbolTableRecord
100
AcDbBlockTableRecord
  2
*Model_Space
340
22
  0
BLOCK_RECORD
  5
1B
330
1
100
AcDbSymbolTableRecord
100
AcDbBlockTableRecord
  2
*Paper_Space
340
1E
  0
BLOCK_RECORD
  5
23
330
1
100
AcDbSymbolTableRecord
100
AcDbBlockTableRecord
  2
*Paper_Space0
340
26
  0
ENDTAB
  0
ENDSEC
  0
SECTION
  2
BLOCKS
  0
BLOCK
  5
20
330
1F
100
AcDbEntity
  8
0
100
AcDbBlockBegin
  2
*Model_Space
 70
     0
 10
0.0
 20
0.0
 30
0.0
  3
*Model_Space
  1
*Model_Space
  0
ENDBLK
  5
21
330
1F
100
AcDbEntity
  8
0
100
AcDbBlockEnd
  0
BLOCK
  5
1C
330
1B
100
AcDbEntity
 67
     1
  8
0
100
AcDbBlockBegin
  2
*Paper_Space
 70
     0
 10
0.0
 20
0.0
 30
0.0
  3
*Paper_Space
  1
*Paper_Space
  0
ENDBLK
  5
1D
330
1B
100
AcDbEntity
 67
     1
  8
0
100
AcDbBlockEnd
  0
BLOCK
  5
24
330
23
100
AcDbEntity
  8
0
100
AcDbBlockBegin
  2
*Paper_Space0
 70
     0
 10
0.0
 20
0.0
 30
0.0
  3
*Paper_Space0
  1
*Paper_Space0
  0
ENDBLK
  5
25
330
23
100
AcDbEntity
  8
0
100
AcDbBlockEnd
  0
ENDSEC
  0
SECTION
  2
ENTITIES
  0
POLYLINE
  5
63
330
1F
100
AcDbEntity
  8
Make2D$可见线$普通线
100
AcDb2dPolyline
 66
     1
 10
0.0
 20
0.0
 30
0.0
  0
VERTEX
  5
64
330
63
100
AcDbEntity
  8
Make2D$可见线$普通线
100
AcDbVertex
100
AcDb2dVertex
 10
136.6887182758249
 20
404.428664099906
 30
0.0
  0
VERTEX
  5
65
330
63
100
AcDbEntity
  8
Make2D$可见线$普通线
100
AcDbVertex
100
AcDb2dVertex
 10
136.8200956126164
 20
404.8068825288208
 30
0.0
 42
-0.0096951866767338
  0
VERTEX
  5
66
330
63
100
AcDbEntity
  8
Make2D$可见线$普通线
100
AcDbVertex
100
AcDb2dVertex
 10
136.8853846945905
 20
404.9676683269083
 30
0.0
 42
-0.0115203774672429
  0
VERTEX
  5
67
330
63
100
AcDbEntity
  8
Make2D$可见线$普通线
100
AcDbVertex
100
AcDb2dVertex
 10
136.9493049061529
 20
405.1077996287593
 30
0.0
 42
-0.0139081710422041
  0
VERTEX
  5
68
330
63
100
AcDbEntity
  8
Make2D$可见线$普通线
100
AcDbVertex
100
AcDb2dVertex
 10
137.0117026218318
 20
405.2280818670166
 30
0.0
 42
-0.0171199031783844
  0
VERTEX
  5
69
330
63
100
AcDbEntity
  8
Make2D$可见线$普通线
100
AcDbVertex
100
AcDb2dVertex
 10
137.0726014594042
 20
405.3296223997134
 30
0.0
 42
-0.0216191365165656
  0
VERTEX
  5
6A
330
63
100
AcDbEntity
  8
Make2D$可见线$普通线
100
AcDbVertex
100
AcDb2dVertex
 10
137.1323316405546
 20
405.4137886768755
 30
0.0
 42
-0.0274178942648033
  0
VERTEX
  5
6B
330
63
100
AcDbEntity
  8
Make2D$可见线$普通线
100
AcDbVertex
100
AcDb2dVertex
 10
137.1901212814374
 20
405.4803932823945
 30
0.0
 42
-0.0356006324546119
  0
VERTEX
  5
6C
330
63
100
AcDbEntity
  8
Make2D$可见线$普通线
100
AcDbVertex
100
AcDb2dVertex
 10
137.2467056643774
 20
405.531125044073
 30
0.0
 42
-0.0489742825262237
  0
VERTEX
  5
6D
330
63
100
AcDbEntity
  8
Make2D$可见线$普通线
100
AcDbVertex
100
AcDb2dVertex
 10
137.3051240272201
 20
405.5680045738264
 30
0.0
 42
-0.0657248707949812
  0
VERTEX
  5
6E
330
63
100
AcDbEntity
  8
Make2D$可见线$普通线
100
AcDbVertex
100
AcDb2dVertex
 10
137.3655235134781
 20
405.5889656312583
 30
0.0
  0
VERTEX
  5
6F
330
63
100
AcDbEntity
  8
Make2D$可见线$普通线
100
AcDbVertex
100
AcDb2dVertex
 10
137.4836520769195
 20
405.5763910899437
 30
0.0
 42
-0.0596127872013822
  0
VERTEX
  5
70
330
63
100
AcDbEntity
  8
Make2D$可见线$普通线
100
AcDbVertex
100
AcDb2dVertex
 10
137.5394586920007
 20
405.5440110131799
 30
0.0
 42
-0.04422337888689
  0
VERTEX
  5
71
330
63
100
AcDbEntity
  8
Make2D$可见线$普通线
100
AcDbVertex
100
AcDb2dVertex
 10
137.5921325170116
 20
405.4966207142577
 30
0.0
 42
-0.0319242591414351
  0
VERTEX
  5
72
330
63
100
AcDbEntity
  8
Make2D$可见线$普通线
100
AcDbVertex
100
AcDb2dVertex
 10
137.6411014542091
 20
405.4369610117756
 30
0.0
  0
VERTEX
  5
73
330
63
100
AcDbEntity
  8
Make2D$可见线$普通线
100
AcDbVertex
100
AcDb2dVertex
 10
137.7308153488277
 20
405.2851512778499
 30
0.0
 42
-0.0150799336149368
  0
VERTEX
  5
74
330
63
100
AcDbEntity
  8
Make2D$可见线$普通线
100
AcDbVertex
100
AcDb2dVertex
 10
137.7748581813651
 20
405.1885611482347
 30
0.0
 42
-0.0127657739601087
  0
VERTEX
  5
75
330
63
100
AcDbEntity
  8
Make2D$可见线$普通线
100
AcDbVertex
100
AcDb2dVertex
 10
137.8196271200394
 20
405.07392661007
 30
0.0
 42
-0.0108434914759124
  0
VERTEX
  5
76
330
63
100
AcDbEntity
  8
Make2D$可见线$普通线
100
AcDbVertex
100
AcDb2dVertex
 10
137.8647228510614
 20
404.9402145555148
 30
0.0
 42
-0.0092148977228428
  0
VERTEX
  5
77
330
63
100
AcDbEntity
  8
Make2D$可见线$普通线
100
AcDbVertex
100
AcDb2dVertex
 10
137.909532121627
 20
404.7874522545463
 30
0.0
 42
-0.0078782604562564
  0
VERTEX
  5
78
330
63
100
AcDbEntity
  8
Make2D$可见线$普通线
100
AcDbVertex
100
AcDb2dVertex
 10
137.9536590092533
 20
404.6155477938754
 30
0.0
  0
VERTEX
  5
79
330
63
100
AcDbEntity
  8
Make2D$可见线$普通线
100
AcDbVertex
100
AcDb2dVertex
 10
138.0391586433816
 20
404.2118199338158
 30
0.0
 42
-0.0052593417841545
  0
VERTEX
  5
7A
330
63
100
AcDbEntity
  8
Make2D$可见线$普通线
100
AcDbVertex
100
AcDb2dVertex
 10
138.080436821927
 20
403.9773445382862
 30
0.0
 42
-0.0047019474035543
  0
VERTEX
  5
7B
330
63
100
AcDbEntity
  8
Make2D$可见线$普通线
100
AcDbVertex
100
AcDb2dVertex
 10
138.1206271952919
 20
403.719090514399
 30
0.0
 42
-0.0042425467456013
  0
VERTEX
  5
7C
330
63
100
AcDbEntity
  8
Make2D$可见线$普通线
100
AcDbVertex
100
AcDb2dVertex
 10
138.1595924427388
 20
403.4354795428707
 30
0.0
 42
-0.0038692580900925
  0
VERTEX
  5
7D
330
63
100
AcDbEntity
  8
Make2D$可见线$普通线
100
AcDbVertex
100
AcDb2dVertex
 10
138.1972451778012
 20
403.1241108838145
 30
0.0
 42
-0.0035697927063844
  0
VERTEX
  5
7E
330
63
100
AcDbEntity
  8
Make2D$可见线$普通线
100
AcDbVertex
100
AcDb2dVertex
 10
138.2335006976433
 20
402.7816947668305
 30
0.0
 42
-0.0033266809882541
  0
VERTEX
  5
7F
330
63
100
AcDbEntity
  8
Make2D$可见线$普通线
100
AcDbVertex
100
AcDb2dVertex
 10
138.2681658925567
 20
402.4047905346767
 30
0.0
 42
-0.0031275460050499
  0
VERTEX
  5
80
330
63
100
AcDbEntity
  8
Make2D$可见线$普通线
100
AcDbVertex
100
AcDb2dVertex
 10
138.3009311548749
 20
401.9899764826152
 30
0.0
 42
-0.002966338890015
  0
VERTEX
  5
81
330
63
100
AcDbEntity
  8
Make2D$可见线$普通线
100
AcDbVertex
100
AcDb2dVertex
 10
138.3313913129214
 20
401.5336483907025
 30
0.0
 42
-0.0028399292136644
  0
VERTEX
  5
82
330
63
100
AcDbEntity
  8
Make2D$可见线$普通线
100
AcDbVertex
100
AcDb2dVertex
 10
138.359036690599
 20
401.0319991690573
 30
0.0
 42
-0.0027399208209492
  0
VERTEX
  5
83
330
63
100
AcDbEntity
  8
Make2D$可见线$普通线
100
AcDbVertex
100
AcDb2dVertex
 10
138.3831730023575
 20
400.4826491091475
 30
0.0
 42
-0.0138663904786031
  0
VERTEX
  5
84
330
63
100
AcDbEntity
  8
Make2D$可见线$普通线
100
AcDbVertex
100
AcDb2dVertex
 10
138.4162125187067
 20
396.770824901021
 30
0.0
  0
SEQEND
  5
85
330
63
100
AcDbEntity
  8
Make2D$可见线$普通线
  0
POLYLINE
  5
86
330
1F
100
AcDbEntity
  8
Make2D$可见线$普通线
100
AcDb2dPolyline
 66
     1
 10
0.0
 20
0.0
 30
0.0
  0
VERTEX
  5
87
330
86
100
AcDbEntity
  8
Make2D$可见线$普通线
100
AcDbVertex
100
AcDb2dVertex
 10
138.1962594759795
 20
392.4936822472504
 30
0.0
 42
-0.004570518981276
  0
VERTEX
  5
88
330
86
100
AcDbEntity
  8
Make2D$可见线$普通线
100
AcDbVertex
100
AcDb2dVertex
 10
138.1303583764205
 20
391.8456314131492
 30
0.0
 42
-0.0076449464425933
  0
VERTEX
  5
89
330
86
100
AcDbEntity
  8
Make2D$可见线$普通线
100
AcDbVertex
100
AcDb2dVertex
 10
138.0260740592257
 20
391.0172751149921
 30
0.0
 42
-0.009504573150669
  0
VERTEX
  5
8A
330
86
100
AcDbEntity
  8
Make2D$可见线$普通线
100
AcDbVertex
100
AcDb2dVertex
 10
137.9112774650604
 20
390.3023388665069
 30
0.0
 42
-0.0128301249033556
  0
VERTEX
  5
8B
330
86
100
AcDbEntity
  8
Make2D$可见线$普通线
100
AcDbVertex
100
AcDb2dVertex
 10
137.7826516381654
 20
389.6781033780765
 30
0.0
 42
-0.0185008646072405
  0
VERTEX
  5
8C
330
86
100
AcDbEntity
  8
Make2D$可见线$普通线
100
AcDbVertex
100
AcDb2dVertex
 10
137.6399442703189
 20
389.1513331092233
 30
0.0
  0
SEQEND
  5
8D
330
86
100
AcDbEntity
  8
Make2D$可见线$普通线
  0
ARC
  5
8E
330
1F
100
AcDbEntity
  8
Make2D$可见线$普通线
100
AcDbCircle
 10
22.03992383061893
 20
461.0366750259885
 30
0.0
 40
11.49965472069254
100
AcDbArc
 50
227.6632560023624
 51
230.0099238149273
  0
LINE
  5
8F
330
1F
100
AcDbEntity
  8
Make2D$可见线$普通线
100
AcDbLine
 10
14.64961416144712
 20
452.2261482716513
 30
0.0
 11
14.79636480192882
 21
452.6776433820435
 31
0.0
  0
LINE
  5
90
330
1F
100
AcDbEntity
  8
Make2D$可见线$普通线
100
AcDbLine
 10
14.97514094163444
 20
452.5155570632479
 30
0.0
 11
14.78607395082147
 21
452.577010003397
 31
0.0
  0
LINE
  5
91
330
1F
100
AcDbEntity
  8
Make2D$可见线$普通线
100
AcDbLine
 10
14.78607395082147
 20
452.577010003397
 30
0.0
 11
14.81360405668188
 21
452.6617095191473
 31
0.0
  0
ARC
  5
92
330
1F
100
AcDbEntity
  8
Make2D$可见线$普通线
100
AcDbCircle
 10
22.50477341628772
 20
461.0001415660838
 30
0.0
 40
11.34387673545144
100
AcDbArc
 50
227.1937340280142
 51
228.4125930269878
  0
ARC
  5
93
330
1F
100
AcDbEntity
  8
Make2D$可见线$普通线
100
AcDbCircle
 10
16.54021240762967
 20
462.5238468428759
 30
0.0
 40
9.999436337317386
100
AcDbArc
 50
257.4581245905249
 51
259.9565710469869
  0
LINE
  5
94
330
1F
100
AcDbEntity
  8
Make2D$可见线$普通线
100
AcDbLine
 10
14.29505928404845
 20
452.5361378752891
 30
0.0
 11
14.36880385423572
 21
452.7630214700752
 31
0.0
  0
LINE
  5
95
330
1F
100
AcDbEntity
  8
Make2D$可见线$普通线
100
AcDbLine
 10
14.78607395082147
 20
452.577010003397
 30
0.0
 11
14.67050798672244
 21
452.2214581124388
 31
0.0
  0
ARC
  5
96
330
1F
100
AcDbEntity
  8
Make2D$可见线$普通线
100
AcDbCircle
 10
16.91562659417475
 20
462.2719464936422
 30
0.0
 40
10.29819762202268
100
AcDbArc
 50
257.2886345539675
 51
257.4077737360914
  0
LINE
  5
97
330
1F
100
AcDbEntity
  8
Make2D$可见线$普通线
100
AcDbLine
 10
10.739272754159
 20
453.9206953495308
 30
0.0
 11
10.813319290464
 21
454.1485079776207
 31
0.0
  0
ARC
  5
98
330
1F
100
AcDbEntity
  8
Make2D$可见线$普通线
100
AcDbCircle
 10
20.3091162515042
 20
462.0887698791691
 30
0.0
 40
12.58170680334772
100
AcDbArc
 50
218.4526304242069
 51
220.4814948697031
  0
ARC
  5
99
330
1F
100
AcDbEntity
  8
Make2D$可见线$普通线
100
AcDbCircle
 10
17.24303406691473
 20
462.485586629047
 30
0.0
 40
10.75436068965657
100
AcDbArc
 50
232.7887331376815
 51
235.2144851959685
  0
LINE
  5
9A
330
1F
100
AcDbEntity
  8
Make2D$可见线$普通线
100
AcDbLine
 10
11.14865059026056
 20
453.7793748412726
 30
0.0
 11
11.10760729282137
 21
453.6531004477406
 31
0.0
  0
ARC
  5
9B
330
1F
100
AcDbEntity
  8
Make2D$可见线$普通线
100
AcDbCircle
 10
20.72183609188801
 20
461.954634475769
 30
0.0
 40
12.58891380302512
100
AcDbArc
 50
218.4032773847254
 51
220.4964934873238
  0
ARC
  5
9C
330
1F
100
AcDbEntity
  8
Make2D$可见线$普通线
100
AcDbCircle
 10
20.7037479238016
 20
461.8846218447517
 30
0.0
 40
12.50126208743798
100
AcDbArc
 50
219.3653455863262
 51
221.6922186988341
  0
LINE
  5
9D
330
1F
100
AcDbEntity
  8
Make2D$可见线$普通线
100
AcDbLine
 10
11.36869898855113
 20
453.5696705427119
 30
0.0
 11
11.46791426115595
 21
453.8749176633499
 31
0.0
  0
ARC
  5
9E
330
1F
100
AcDbEntity
  8
Make2D$可见线$普通线
100
AcDbCircle
 10
17.03374771546635
 20
462.4101949529919
 30
0.0
 40
10.49988804354977
100
AcDbArc
 50
237.3480643468528
 51
239.7775537137485
  0
LINE
  5
9F
330
1F
100
AcDbEntity
  8
Make2D$可见线$普通线
100
AcDbLine
 10
11.79746365864227
 20
453.4879958440967
 30
0.0
 11
11.7485398438497
 21
453.3374761388282
 31
0.0
  0
ARC
  5
A0
330
1F
100
AcDbEntity
  8
Make2D$可见线$普通线
100
AcDbCircle
 10
21.1231376780532
 20
461.7646702120837
 30
0.0
 40
12.46882249893744
100
AcDbArc
 50
219.2539289822868
 51
221.5895316465099
  0
ARC
  5
A1
330
1F
100
AcDbEntity
  8
Make2D$可见线$普通线
100
AcDbCircle
 10
16.64914916140748
 20
462.6338218534665
 30
0.0
 40
10.17662015124334
100
AcDbArc
 50
237.9790668958629
 51
239.3940228137771
  0
LINE
  5
A2
330
1F
100
AcDbEntity
  8
Make2D$可见线$普通线
100
AcDbLine
 10
11.03880545105588
 20
453.9555335757684
 30
0.0
 11
11.07398959806578
 21
454.0637816235341
 31
0.0
  0
ARC
  5
A3
330
1F
100
AcDbEntity
  8
Make2D$可见线$普通线
100
AcDbCircle
 10
21.10205497713516
 20
461.6909167038589
 30
0.0
 40
12.37022221156028
100
AcDbArc
 50
220.4465765353944
 51
222.7716836939113
  0
LINE
  5
A4
330
1F
100
AcDbEntity
  8
Make2D$可见线$普通线
100
AcDbLine
 10
12.02150083934188
 20
453.2905634902146
 30
0.0
 11
12.13692515585455
 21
453.6456795861748
 31
0.0
  0
ARC
  5
A5
330
1F
100
AcDbEntity
  8
Make2D$可见线$普通线
100
AcDbCircle
 10
16.86063219974955
 20
462.3725480230155
 30
0.0
 40
10.29075484973361
100
AcDbArc
 50
241.9500805211624
 51
244.3900244354155
  0
LINE
  5
A6
330
1F
100
AcDbEntity
  8
Make2D$可见线$普通线
100
AcDbLine
 10
12.4695446090399
 20
453.2682031439718
 30
0.0
 11
12.41252795076787
 21
453.0927848812372
 31
0.0
  0
ARC
  5
A7
330
1F
100
AcDbEntity
  8
Make2D$可见线$普通线
100
AcDbCircle
 10
21.52954818794108
 20
461.5868560915209
 30
0.0
 40
12.29974193678336
100
AcDbArc
 50
220.2135012814944
 51
222.5573183827704
  0
ARC
  5
A8
330
1F
100
AcDbEntity
  8
Make2D$可见线$普通线
100
AcDbCircle
 10
16.48416138828307
 20
462.6130865418831
 30
0.0
 40
9.965583292977144
100
AcDbArc
 50
241.6151203600495
 51
244.1367339939214
  0
LINE
  5
A9
330
1F
100
AcDbEntity
  8
Make2D$可见线$普通线
100
AcDbLine
 10
11.68817744767594
 20
453.6658741853596
 30
0.0
 11
11.74660228536192
 21
453.8456248729852
 31
0.0
  0
ARC
  5
AA
330
1F
100
AcDbEntity
  8
Make2D$可见线$普通线
100
AcDbCircle
 10
21.51259757448155
 20
461.5157555041952
 30
0.0
 40
12.19962946478119
100
AcDbArc
 50
221.3966798289671
 51
223.7318027340201
  0
LINE
  5
AB
330
1F
100
AcDbEntity
  8
Make2D$可见线$普通线
100
AcDbLine
 10
12.69734598645263
 20
453.082351771555
 30
0.0
 11
12.8296406023796
 21
453.4893712709267
 31
0.0
  0
ARC
  5
AC
330
1F
100
AcDbEntity
  8
Make2D$可见线$普通线
100
AcDbCircle
 10
16.71748958265286
 20
462.3776691612925
 30
0.0
 40
10.12741230078186
100
AcDbArc
 50
246.611939083106
 51
249.068346801835
  0
LINE
  5
AD
330
1F
100
AcDbEntity
  8
Make2D$可见线$普通线
100
AcDbLine
 10
13.16488670595012
 20
453.11997601876
 30
0.0
 11
13.09943053760446
 21
452.9185926388951
 31
0.0
  0
ARC
  5
AE
330
1F
100
AcDbEntity
  8
Make2D$可见线$普通线
100
AcDbCircle
 10
21.9478532716737
 20
461.4278162020801
 30
0.0
 40
12.08969438018204
100
AcDbArc
 50
221.0432913615946
 51
223.4075809235179
  0
LINE
  5
AF
330
1F
100
AcDbEntity
  8
Make2D$可见线$普通线
100
AcDbLine
 10
12.77011392064194
 20
453.5124858847159
 30
0.0
 11
12.82964060243557
 21
453.4893712709396
 31
0.0
  0
LINE
  5
B0
330
1F
100
AcDbEntity
  8
Make2D$可见线$普通线
100
AcDbLine
 10
12.36105297305954
 20
453.4485260859785
 30
0.0
 11
12.41894197778926
 21
453.6266282223563
 31
0.0
  0
ARC
  5
B1
330
1F
100
AcDbEntity
  8
Make2D$可见线$普通线
100
AcDbCircle
 10
21.93456279688025
 20
461.3593780257637
 30
0.0
 40
11.98750709881746
100
AcDbArc
 50
222.2233089409566
 51
224.580564895541
  0
LINE
  5
B2
330
1F
100
AcDbEntity
  8
Make2D$可见线$普通线
100
AcDbLine
 10
13.39629088352999
 20
452.9452090722726
 30
0.0
 11
13.50322405004529
 21
453.2742011752213
 31
0.0
  0
ARC
  5
B3
330
1F
100
AcDbEntity
  8
Make2D$可见线$普通线
100
AcDbCircle
 10
16.59751165549854
 20
462.4302506563675
 30
0.0
 40
10.01068570493009
100
AcDbArc
 50
251.3503569231022
 51
253.8290158410818
  0
LINE
  5
B4
330
1F
100
AcDbEntity
  8
Make2D$可见线$普通线
100
AcDbLine
 10
13.88388395692286
 20
453.0445266771021
 30
0.0
 11
13.8094880711289
 21
452.815639235416
 31
0.0
  0
ARC
  5
B5
330
1F
100
AcDbEntity
  8
Make2D$可见线$普通线
100
AcDbCircle
 10
22.34263385370359
 20
461.2548865914875
 30
0.0
 40
11.78814912274341
100
AcDbArc
 50
223.1153860770714
 51
224.1462864783229
  0
LINE
  5
B6
330
1F
100
AcDbEntity
  8
Make2D$可见线$普通线
100
AcDbLine
 10
13.05743897533858
 20
453.303510654635
 30
0.0
 11
13.09141816769752
 21
453.4080515217521
 31
0.0
  0
ARC
  5
B7
330
1F
100
AcDbEntity
  8
Make2D$可见线$普通线
100
AcDbCircle
 10
19.17265265718501
 20
462.3837830074098
 30
0.0
 40
12.24689606779327
100
AcDbArc
 50
220.2598413525598
 51
222.0592038082254
  0
LINE
  5
B8
330
1F
100
AcDbEntity
  8
Make2D$可见线$普通线
100
AcDbLine
 10
10.07990774374406
 20
454.1796100914831
 30
0.0
 11
10.1131682206419
 21
454.2819397483723
 31
0.0
  0
ARC
  5
B9
330
1F
100
AcDbEntity
  8
Make2D$可见线$普通线
100
AcDbCircle
 10
18.15640742093359
 20
462.4325500746282
 30
0.0
 40
11.54733152728528
100
AcDbArc
 50
225.6190592995776
 51
227.9935137936148
  0
LINE
  5
BA
330
1F
100
AcDbEntity
  8
Make2D$可见线$普通线
100
AcDbLine
 10
10.44510605475
 20
453.9023662271798
 30
0.0
 11
10.4287630675683
 21
453.8520851601298
 31
0.0
  0
ARC
  5
BB
330
1F
100
AcDbEntity
  8
Make2D$可见线$普通线
100
AcDbCircle
 10
19.58009554987057
 20
462.2258604725213
 30
0.0
 40
12.35834088897849
100
AcDbArc
 50
220.0008008497189
 51
222.3387258453769
  0
ARC
  5
BC
330
1F
100
AcDbEntity
  8
Make2D$可见线$普通线
100
AcDbCircle
 10
17.75175679995016
 20
462.6154535513529
 30
0.0
 40
11.30466663763838
100
AcDbArc
 50
226.4191380655847
 51
227.4912929922925
  0
ARC
  5
BD
330
1F
100
AcDbEntity
  8
Make2D$可见线$普通线
100
AcDbCircle
 10
19.55845296223264
 20
462.1467748644618
 30
0.0
 40
12.27624749839028
100
AcDbArc
 50
221.2402637148355
 51
223.5645245015091
  0
LINE
  5
BE
330
1F
100
AcDbEntity
  8
Make2D$可见线$普通线
100
AcDbLine
 10
10.66309985673306
 20
453.6863407284253
 30
0.0
 11
10.71200992088319
 21
453.8368181283195
 31
0.0
  0
ARC
  5
BF
330
1F
100
AcDbEntity
  8
Make2D$可见线$普通线
100
AcDbCircle
 10
17.87529012323057
 20
462.3022519049531
 30
0.0
 40
11.23608534330257
100
AcDbArc
 50
230.0680378501617
 51
232.4293398010342
  0
LINE
  5
C0
330
1F
100
AcDbEntity
  8
Make2D$可见线$普通线
100
AcDbLine
 10
11.04829471792581
 20
453.4706185350601
 30
0.0
 11
11.02420651004314
 21
453.3965084117295
 31
0.0
  0
ARC
  5
C1
330
1F
100
AcDbEntity
  8
Make2D$可见线$普通线
100
AcDbCircle
 10
19.95909480132528
 20
461.9910032048766
 30
0.0
 40
12.32880014632223
100
AcDbArc
 50
221.4062159594206
 51
223.7169308106236
  0
ARC
  5
C2
330
1F
100
AcDbEntity
  8
Make2D$可见线$普通线
100
AcDbCircle
 10
17.49581967255693
 20
462.5176095355727
 30
0.0
 40
11.01708737382446
100
AcDbArc
 50
229.5775862292023
 51
231.9933110039148
  0
LINE
  5
C3
330
1F
100
AcDbEntity
  8
Make2D$可见线$普通线
100
AcDbLine
 10
10.32730607474997
 20
454.0540509853558
 30
0.0
 11
10.35214454757738
 21
454.1304693846494
 31
0.0
  0
ARC
  5
C4
330
1F
100
AcDbEntity
  8
Make2D$可见线$普通线
100
AcDbCircle
 10
19.94300772429291
 20
461.9150612297909
 30
0.0
 40
12.24661290755902
100
AcDbArc
 50
222.6166580057543
 51
224.9161074381102
  0
LINE
  5
C5
330
1F
100
AcDbEntity
  8
Make2D$可见线$普通线
100
AcDbLine
 10
11.27067448704889
 20
453.2680869653569
 30
0.0
 11
11.33500016302222
 21
453.4659922561307
 31
0.0
  0
ARC
  5
C6
330
1F
100
AcDbEntity
  8
Make2D$可见线$普通线
100
AcDbCircle
 10
17.63863280717072
 20
462.2003944470017
 30
0.0
 40
10.96982270200646
100
AcDbArc
 50
234.5144347338632
 51
236.8709721126552
  0
LINE
  5
C7
330
1F
100
AcDbEntity
  8
Make2D$可见线$普通线
100
AcDbLine
 10
11.67508012437338
 20
453.1114689196655
 30
0.0
 11
11.64333612623386
 21
453.0138048828052
 31
0.0
  0
ARC
  5
C8
330
1F
100
AcDbEntity
  8
Make2D$可见线$普通线
100
AcDbCircle
 10
20.35183525258153
 20
461.7751049079951
 30
0.0
 40
12.26151165611993
100
AcDbArc
 50
222.6609084062937
 51
224.956652004132
  0
ARC
  5
C9
330
1F
100
AcDbEntity
  8
Make2D$可见线$普通线
100
AcDbCircle
 10
17.25696074603479
 20
462.4176375313053
 30
0.0
 40
10.73319944279898
100
AcDbArc
 50
234.1000659354079
 51
236.5133728831475
  0
LINE
  5
CA
330
1F
100
AcDbEntity
  8
Make2D$可见线$普通线
100
AcDbLine
 10
10.93072206364263
 20
453.6230026869182
 30
0.0
 11
10.96331929880711
 21
453.7232918047634
 31
0.0
  0
ARC
  5
CB
330
1F
100
AcDbEntity
  8
Make2D$可见线$普通线
100
AcDbCircle
 10
20.34063590384232
 20
461.7022755707421
 30
0.0
 40
12.17874681382184
100
AcDbArc
 50
223.8503843594945
 51
226.1368811192368
  0
LINE
  5
CC
330
1F
100
AcDbEntity
  8
Make2D$可见线$普通线
100
AcDbLine
 10
11.90152105064195
 20
452.9214319637948
 30
0.0
 11
11.98128435747821
 21
453.1668328895226
 31
0.0
  0
ARC
  5
CD
330
1F
100
AcDbEntity
  8
Make2D$可见线$普通线
100
AcDbCircle
 10
17.44105284169217
 20
462.1322497888674
 30
0.0
 40
10.74828253586274
100
AcDbArc
 50
238.9766322116208
 51
241.335217722138
  0
LINE
  5
CE
330
1F
100
AcDbEntity
  8
Make2D$可见线$普通线
100
AcDbLine
 10
12.32470363053332
 20
452.8225833269266
 30
0.0
 11
12.28527093522922
 21
452.7012641349858
 31
0.0
  0
ARC
  5
CF
330
1F
100
AcDbEntity
  8
Make2D$可见线$普通线
100
AcDbCircle
 10
20.75685467841612
 20
461.5778172892032
 30
0.0
 40
12.15546350529309
100
AcDbArc
 50
223.7847417771816
 51
226.0769007351125
  0
ARC
  5
D0
330
1F
100
AcDbEntity
  8
Make2D$可见线$普通线
100
AcDbCircle
 10
17.05823325618132
 20
462.3514848979073
 30
0.0
 40
10.49443865267052
100
AcDbArc
 50
238.6494358628864
 51
241.0677436470532
  0
LINE
  5
D1
330
1F
100
AcDbEntity
  8
Make2D$可见线$普通线
100
AcDbLine
 10
11.55791684182452
 20
453.2651125503398
 30
0.0
 11
11.59826040052158
 21
453.3892341175439
 31
0.0
  0
ARC
  5
D2
330
1F
100
AcDbEntity
  8
Make2D$可见线$普通线
100
AcDbCircle
 10
20.74999441860274
 20
461.5080649037508
 30
0.0
 40
12.07166072322806
100
AcDbArc
 50
224.9602851236795
 51
227.2449618993845
  0
LINE
  5
D3
330
1F
100
AcDbEntity
  8
Make2D$可见线$普通线
100
AcDbLine
 10
12.55496268393736
 20
452.6442932751181
 30
0.0
 11
12.65042656124236
 21
452.9379987995514
 31
0.0
  0
ARC
  5
D4
330
1F
100
AcDbEntity
  8
Make2D$可见线$普通线
100
AcDbCircle
 10
17.2767824890272
 20
462.1026629736827
 30
0.0
 40
10.57148710572279
100
AcDbArc
 50
243.4706520051614
 51
245.8370719792093
  0
LINE
  5
D5
330
1F
100
AcDbEntity
  8
Make2D$可见线$普通线
100
AcDbLine
 10
12.99679804243041
 20
452.6028320425943
 30
0.0
 11
12.94952627555685
 21
452.4573950515643
 31
0.0
  0
ARC
  5
D6
330
1F
100
AcDbEntity
  8
Make2D$可见线$普通线
100
AcDbCircle
 10
21.17307131834218
 20
461.3989993320712
 30
0.0
 40
12.00932985919082
100
AcDbArc
 50
224.7920388508474
 51
227.0917162854121
  0
ARC
  5
D7
330
1F
100
AcDbEntity
  8
Make2D$可见线$普通线
100
AcDbCircle
 10
16.8938382095694
 20
462.3243525893141
 30
0.0
 40
10.30097955941467
100
AcDbArc
 50
243.2434244634998
 51
245.6730795451221
  0
LINE
  5
D8
330
1F
100
AcDbEntity
  8
Make2D$可见线$普通线
100
AcDbLine
 10
12.20812657047807
 20
452.9780305379408
 30
0.0
 11
12.25632772895221
 21
453.1263269084603
 31
0.0
  0
ARC
  5
D9
330
1F
100
AcDbEntity
  8
Make2D$可见线$普通线
100
AcDbCircle
 10
21.17009343927197
 20
461.332292318431
 30
0.0
 40
11.92403160330755
100
AcDbArc
 50
225.9600586444248
 51
228.2538595953775
  0
LINE
  5
DA
330
1F
100
AcDbEntity
  8
Make2D$可见线$普通线
100
AcDbLine
 10
13.23069868672749
 20
452.4357457614828
 30
0.0
 11
13.34237207011286
 21
452.7793216831533
 31
0.0
  0
ARC
  5
DB
330
1F
100
AcDbEntity
  8
Make2D$可见线$普通线
100
AcDbCircle
 10
17.13961508744489
 20
462.1160940971278
 30
0.0
 40
10.43976873916375
100
AcDbArc
 50
248.0111857532873
 51
250.3906538725856
  0
LINE
  5
DC
330
1F
100
AcDbEntity
  8
Make2D$可见线$普通线
100
AcDbLine
 10
13.69135729305492
 20
452.4521964012423
 30
0.0
 11
13.63597405313894
 21
452.281803536546
 31
0.0
  0
ARC
  5
DD
330
1F
100
AcDbEntity
  8
Make2D$可见线$普通线
100
AcDbCircle
 10
21.59970752591704
 20
461.2387327704369
 30
0.0
 40
11.82138844522038
100
AcDbArc
 50
225.6925699865138
 51
228.0111032911755
  0
ARC
  5
DE
330
1F
100
AcDbEntity
  8
Make2D$可见线$普通线
100
AcDbCircle
 10
16.75745125513365
 20
462.3410875645
 30
0.0
 40
10.15333110901698
100
AcDbArc
 50
247.8985380138747
 51
250.3453107804403
  0
LINE
  5
DF
330
1F
100
AcDbEntity
  8
Make2D$可见线$普通线
100
AcDbLine
 10
12.88098769271096
 20
452.7606381257442
 30
0.0
 11
12.93728169904881
 21
452.9338330674591
 31
0.0
  0
ARC
  5
E0
330
1F
100
AcDbEntity
  8
Make2D$可见线$普通线
100
AcDbCircle
 10
21.60022570050631
 20
461.175048464256
 30
0.0
 40
11.73411798588869
100
AcDbArc
 50
226.8591656059173
 51
229.1733480877966
  0
LINE
  5
E1
330
1F
100
AcDbEntity
  8
Make2D$可见线$普通线
100
AcDbLine
 10
13.92878017393582
 20
452.2959466831286
 30
0.0
 11
14.05744283885617
 21
452.6917920703212
 31
0.0
  0
ARC
  5
E2
330
1F
100
AcDbEntity
  8
Make2D$可见线$普通线
100
AcDbCircle
 10
17.02283306318176
 20
462.1766336785416
 30
0.0
 40
10.35379827806073
100
AcDbArc
 50
252.6124976387543
 51
255.0100809650441
  0
LINE
  5
E3
330
1F
100
AcDbEntity
  8
Make2D$可见线$普通线
100
AcDbLine
 10
14.40873595103349
 20
452.3717672735947
 30
0.0
 11
14.34483255760713
 21
452.1751611832079
 31
0.0
  0
ARC
  5
E4
330
1F
100
AcDbEntity
  8
Make2D$可见线$普通线
100
AcDbCircle
 10
22.03624135247384
 20
461.0973457280292
 30
0.0
 40
11.58941577533107
100
AcDbArc
 50
226.4920175798817
 51
228.8415169653552
  0
ARC
  5
E5
330
1F
100
AcDbEntity
  8
Make2D$可见线$普通线
100
AcDbCircle
 10
16.64213300758709
 20
462.4061995500852
 30
0.0
 40
10.05237961633389
100
AcDbArc
 50
252.6310657379231
 51
255.1006268416685
  0
LINE
  5
E6
330
1F
100
AcDbEntity
  8
Make2D$可见线$普通线
100
AcDbLine
 10
13.57650642784836
 20
452.6129544481677
 30
0.0
 11
13.64126287072483
 21
452.8121850424574
 31
0.0
  0
LINE
  5
E7
330
1F
100
AcDbEntity
  8
Make2D$可见线$普通线
100
AcDbLine
 10
10.41387830324175
 20
453.8062904822287
 30
0.0
 11
10.4132399079896
 21
453.8043263863053
 31
0.0
  0
ARC
  5
E8
330
1F
100
AcDbEntity
  8
Make2D$可见线$普通线
100
AcDbCircle
 10
18.85056185246671
 20
462.3108006350645
 30
0.0
 40
11.97932895655888
100
AcDbArc
 50
222.8849872369739
 51
225.2293909998333
  0
ARC
  5
E9
330
1F
100
AcDbEntity
  8
Make2D$可见线$普通线
100
AcDbCircle
 10
18.46379398231379
 20
462.4998659815463
 30
0.0
 40
11.83142289636209
100
AcDbArc
 50
222.5894193286108
 51
224.8308537299303
  0
ARC
  5
EA
330
1F
100
AcDbEntity
  8
Make2D$可见线$普通线
100
AcDbCircle
 10
18.83743514681748
 20
462.2323375903724
 30
0.0
 40
11.91211876191762
100
AcDbArc
 50
224.1415655405043
 51
226.4727816069785
  0
LINE
  5
EB
330
1F
100
AcDbEntity
  8
Make2D$可见线$普通线
100
AcDbLine
 10
10.63356982503669
 20
453.5954882122651
 30
0.0
 11
10.64969450100572
 21
453.6450976199846
 31
0.0
  0
ARC
  5
EC
330
1F
100
AcDbEntity
  8
Make2D$可见线$普通线
100
AcDbCircle
 10
18.53671503374068
 20
462.1601236167904
 30
0.0
 40
11.65386990670086
100
AcDbArc
 50
227.3002633108572
 51
229.6224291608779
  0
LINE
  5
ED
330
1F
100
AcDbEntity
  8
Make2D$可见线$普通线
100
AcDbLine
 10
10.99502885193877
 20
453.3067400134476
 30
0.0
 11
10.9870847814324
 21
453.2822991729449
 31
0.0
  0
ARC
  5
EE
330
1F
100
AcDbEntity
  8
Make2D$可见线$普通线
100
AcDbCircle
 10
19.2300026773184
 20
462.0569206669734
 30
0.0
 40
12.01584185040837
100
AcDbArc
 50
224.4319034884258
 51
226.7374071312792
  0
ARC
  5
EF
330
1F
100
AcDbEntity
  8
Make2D$可见线$普通线
100
AcDbCircle
 10
18.15101041101718
 20
462.3552427380054
 30
0.0
 40
11.49505843214754
100
AcDbArc
 50
226.9033660055692
 51
229.2644442497648
  0
LINE
  5
F0
330
1F
100
AcDbEntity
  8
Make2D$可见线$普通线
100
AcDbLine
 10
10.28904553063327
 20
453.9363380503565
 30
0.0
 11
10.29723155707029
 21
453.9615232959592
 31
0.0
  0
ARC
  5
F1
330
1F
100
AcDbEntity
  8
Make2D$可见线$普通线
100
AcDbCircle
 10
19.22258518053405
 20
461.9821868443511
 30
0.0
 40
11.94873395013349
100
AcDbArc
 50
225.6530245265614
 51
227.9478119768281
  0
LINE
  5
F2
330
1F
100
AcDbEntity
  8
Make2D$可见线$普通线
100
AcDbLine
 10
11.21923685993917
 20
453.1098332293117
 30
0.0
 11
11.25088910886088
 21
453.2072149891093
 31
0.0
  0
ARC
  5
F3
330
1F
100
AcDbEntity
  8
Make2D$可见线$普通线
100
AcDbCircle
 10
18.27028920153191
 20
462.034142942249
 30
0.0
 40
11.3736820324954
100
AcDbArc
 50
231.6879136893439
 51
233.9972057169799
  0
LINE
  5
F4
330
1F
100
AcDbEntity
  8
Make2D$可见线$普通线
100
AcDbLine
 10
11.60018454066426
 20
452.8810441002657
 30
0.0
 11
11.58455789442527
 21
452.8329669377655
 31
0.0
  0
ARC
  5
F5
330
1F
100
AcDbEntity
  8
Make2D$可见线$普通线
100
AcDbCircle
 10
19.62310917681924
 20
461.8228853209443
 30
0.0
 40
12.01348592762524
100
AcDbArc
 50
225.8210388423524
 51
228.1004637264498
  0
ARC
  5
F6
330
1F
100
AcDbEntity
  8
Make2D$可见线$普通线
100
AcDbCircle
 10
17.8827735043759
 20
462.2315982729282
 30
0.0
 40
11.19916891062662
100
AcDbArc
 50
231.3383795142234
 51
233.6883897631279
  0
LINE
  5
F7
330
1F
100
AcDbEntity
  8
Make2D$可见线$普通线
100
AcDbLine
 10
10.87039827830256
 20
453.4374096698857
 30
0.0
 11
10.88643155090944
 21
453.4867378647278
 31
0.0
  0
ARC
  5
F8
330
1F
100
AcDbEntity
  8
Make2D$可见线$普通线
100
AcDbCircle
 10
19.62068592145289
 20
461.7517833308218
 30
0.0
 40
11.94604340211838
100
AcDbArc
 50
227.0156921076842
 51
229.2864447019745
  0
LINE
  5
F9
330
1F
100
AcDbEntity
  8
Make2D$可见线$普通线
100
AcDbLine
 10
11.82854762794932
 20
452.6969208923189
 30
0.0
 11
11.87541608010081
 21
452.8411170396657
 31
0.0
  0
ARC
  5
FA
330
1F
100
AcDbEntity
  8
Make2D$可见线$普通线
100
AcDbCircle
 10
18.04604560487911
 20
461.938211345771
 30
0.0
 40
11.13816548351618
100
AcDbArc
 50
236.0675142557699
 51
238.3712951587771
  0
LINE
  5
FB
330
1F
100
AcDbEntity
  8
Make2D$可见线$普通线
100
AcDbLine
 10
12.22823335846806
 20
452.5257815139677
 30
0.0
 11
12.20505183835076
 21
452.4544609189848
 31
0.0
  0
ARC
  5
FC
330
1F
100
AcDbEntity
  8
Make2D$可见线$普通线
100
AcDbCircle
 10
20.02823002461759
 20
461.6079547049069
 30
0.0
 40
11.97187612123345
100
AcDbArc
 50
227.078384131054
 51
229.3431940904386
  0
ARC
  5
FD
330
1F
100
AcDbEntity
  8
Make2D$可见线$普通线
100
AcDbCircle
 10
17.65742122535642
 20
462.1378763760685
 30
0.0
 40
10.94811936628765
100
AcDbArc
 50
235.7742212752962
 51
238.1209615910507
  0
LINE
  5
FE
330
1F
100
AcDbEntity
  8
Make2D$可见线$普通线
100
AcDbLine
 10
11.47589703843505
 20
453.0127692550599
 30
0.0
 11
11.4995918858267
 21
453.0856691599411
 31
0.0
  0
ARC
  5
FF
330
1F
100
AcDbEntity
  8
Make2D$可见线$普通线
100
AcDbCircle
 10
20.03022998954339
 20
461.5403958049731
 30
0.0
 40
11.90370243826767
100
AcDbArc
 50
228.2541880996593
 51
230.5120816530365
  0
LINE
  5
100
330
1F
100
AcDbEntity
  8
Make2D$可见线$普通线
100
AcDbLine
 10
12.46048112773471
 20
452.3536099737933
 30
0.0
 11
12.52249963143751
 21
452.5444169855016
 31
0.0
  0
ARC
  5
101
330
1F
100
AcDbEntity
  8
Make2D$可见线$普通线
100
AcDbCircle
 10
17.85845467799498
 20
461.8771711744221
 30
0.0
 40
10.94697841376479
100
AcDbArc
 50
240.4553486908177
 51
242.7596210487396
  0
LINE
  5
102
330
1F
100
AcDbEntity
  8
Make2D$可见线$普通线
100
AcDbLine
 10
12.87847902547273
 20
452.2388100700936
 30
0.0
 11
12.84775307977645
 21
452.1442781880053
 31
0.0
  0
ARC
  5
103
330
1F
100
AcDbEntity
  8
Make2D$可见线$普通线
100
AcDbCircle
 10
20.44413962015079
 20
461.4116317260147
 30
0.0
 40
11.89032705038846
100
AcDbArc
 50
228.2235829285175
 51
230.4844952409844
  0
ARC
  5
104
330
1F
100
AcDbEntity
  8
Make2D$可见线$普通线
100
AcDbCircle
 10
17.46946676607257
 20
462.079173575603
 30
0.0
 40
10.74169758760799
100
AcDbArc
 50
240.2282620680018
 51
242.5781275590311
  0
LINE
  5
105
330
1F
100
AcDbEntity
  8
Make2D$可见线$普通线
100
AcDbLine
 10
12.10442195493317
 20
452.658971440755
 30
0.0
 11
12.135721285937
 21
452.7552674082954
 31
0.0
  0
ARC
  5
106
330
1F
100
AcDbEntity
  8
Make2D$可见线$普通线
100
AcDbCircle
 10
20.45010140083645
 20
461.3475423474401
 30
0.0
 40
11.82104559114697
100
AcDbArc
 50
229.3872701102539
 51
231.6428340141489
  0
LINE
  5
107
330
1F
100
AcDbEntity
  8
Make2D$可见线$普通线
100
AcDbLine
 10
13.11441299562793
 20
452.0779795481671
 30
0.0
 11
13.19174290220392
 21
452.3158938399997
 31
0.0
  0
ARC
  5
108
330
1F
100
AcDbEntity
  8
Make2D$可见线$普通线
100
AcDbCircle
 10
17.70166496064272
 20
461.8554184804349
 30
0.0
 40
10.80005521581981
100
AcDbArc
 50
244.8655786641914
 51
247.1754691410619
  0
LINE
  5
109
330
1F
100
AcDbEntity
  8
Make2D$可见线$普通线
100
AcDbLine
 10
13.55058377683758
 20
452.0190905964293
 30
0.0
 11
13.51221293542429
 21
451.9010383192621
 31
0.0
  0
ARC
  5
10A
330
1F
100
AcDbEntity
  8
Make2D$可见线$普通线
100
AcDbCircle
 10
20.86993483465147
 20
461.2336523096843
 30
0.0
 40
11.76779705275829
100
AcDbArc
 50
229.2715420846009
 51
231.5390273203697
  0
ARC
  5
10B
330
1F
100
AcDbEntity
  8
Make2D$可见线$普通线
100
AcDbCircle
 10
17.31303760536278
 20
462.0601657601917
 30
0.0
 40
10.57997662024116
100
AcDbArc
 50
244.7158005147522
 51
247.0742929196233
  0
LINE
  5
10C
330
1F
100
AcDbEntity
  8
Make2D$可见线$普通线
100
AcDbLine
 10
12.75527576234657
 20
452.3738710106229
 30
0.0
 11
12.79423937131352
 21
452.4937470047324
 31
0.0
  0
ARC
  5
10D
330
1F
100
AcDbEntity
  8
Make2D$可见线$普通线
100
AcDbCircle
 10
20.87948052018254
 20
461.1729758774575
 30
0.0
 40
11.69703060455365
100
AcDbArc
 50
230.42932090664
 51
232.6929163115297
  0
LINE
  5
10E
330
1F
100
AcDbEntity
  8
Make2D$可见线$普通线
100
AcDbLine
 10
13.7900653388418
 20
451.8691746462166
 30
0.0
 11
13.88309603896929
 21
452.1553942230789
 31
0.0
  0
ARC
  5
10F
330
1F
100
AcDbEntity
  8
Make2D$可见线$普通线
100
AcDbCircle
 10
17.56945607295376
 20
461.8769376925139
 30
0.0
 40
10.69762195592673
100
AcDbArc
 50
249.3111616475409
 51
251.6313279980024
  0
LINE
  5
110
330
1F
100
AcDbEntity
  8
Make2D$可见线$普通线
100
AcDbLine
 10
14.24454202770539
 20
451.8666059106517
 30
0.0
 11
14.19831268501997
 21
451.7243760566549
 31
0.0
  0
ARC
  5
111
330
1F
100
AcDbEntity
  8
Make2D$可见线$普通线
100
AcDbCircle
 10
21.30496890766921
 20
461.0739865637858
 30
0.0
 40
11.60282233850984
100
AcDbArc
 50
230.2334546906421
 51
232.5181966379378
  0
ARC
  5
112
330
1F
100
AcDbEntity
  8
Make2D$可见线$普通线
100
AcDbCircle
 10
17.18182103399241
 20
462.0851458605142
 30
0.0
 40
10.46334335544254
100
AcDbArc
 50
249.2510319566512
 51
251.6231931310763
  0
LINE
  5
113
330
1F
100
AcDbEntity
  8
Make2D$可见线$普通线
100
AcDbLine
 10
13.42812580522877
 20
452.1564445113611
 30
0.0
 11
13.47492848783671
 21
452.3004383112239
 31
0.0
  0
LINE
  5
114
330
1F
100
AcDbEntity
  8
Make2D$可见线$普通线
100
AcDbLine
 10
11.57032096913233
 20
452.7891654107534
 30
0.0
 11
11.56971026140607
 21
452.7872864986656
 31
0.0
  0
SPLINE
  5
115
330
1F
100
AcDbEntity
  8
Make2D$可见线$普通线
100
AcDbSpline
210
0.0
220
0.0
230
1.0
 70
    24
 71
     3
 72
     9
 73
     5
 74
     0
 42
0.000000001
 43
0.0000000001
 12
1.0
 22
0.0
 32
0.0
 13
1.0
 23
0.0
 33
0.0
 40
0.3333333333039546
 40
0.3333333333039546
 40
0.3333333333039546
 40
0.3333333333039546
 40
0.6666666666667
 40
1.0
 40
1.0
 40
1.0
 40
1.0
 10
10.85516710511062
 20
453.3905492255801
 30
0.0
 10
10.85506270277926
 20
453.3902280198794
 30
0.0
 10
10.85506270278024
 20
453.3902280198797
 30
0.0
 10
10.85548031210564
 20
453.3915128426748
 30
0.0
 10
10.85579353440653
 20
453.3924765068649
 30
0.0
  0
ARC
  5
116
330
1F
100
AcDbEntity
  8
Make2D$可见线$普通线
100
AcDbCircle
 10
18.93616050342604
 20
461.8401172279326
 30
0.0
 40
11.66706420084699
100
AcDbArc
 50
230.0170299260471
 51
232.292510270293
  0
LINE
  5
117
330
1F
100
AcDbEntity
  8
Make2D$可见线$普通线
100
AcDbLine
 10
11.80022861213968
 20
452.6097942048956
 30
0.0
 11
11.81569401196563
 21
452.6573752742448
 31
0.0
  0
ARC
  5
118
330
1F
100
AcDbEntity
  8
Make2D$可见线$普通线
100
AcDbCircle
 10
18.67710291606738
 20
461.7873052750906
 30
0.0
 40
11.46813453163038
100
AcDbArc
 50
233.1551187486502
 51
235.4261796402692
  0
LINE
  5
119
330
1F
100
AcDbEntity
  8
Make2D$可见线$普通线
100
AcDbLine
 10
12.17695942565805
 20
452.3680314020867
 30
0.0
 11
12.16930839423222
 21
452.3444921297856
 31
0.0
  0
ARC
  5
11A
330
1F
100
AcDbEntity
  8
Make2D$可见线$普通线
100
AcDbCircle
 10
19.3366488486563
 20
461.6775924757233
 30
0.0
 40
11.7443211816419
100
AcDbArc
 50
230.1790358958488
 51
232.4372524012891
  0
ARC
  5
11B
330
1F
100
AcDbEntity
  8
Make2D$可见线$普通线
100
AcDbCircle
 10
18.28274369915522
 20
461.9682756778272
 30
0.0
 40
11.33647202537631
100
AcDbArc
 50
232.9170870956901
 51
235.2174086384182
  0
LINE
  5
11C
330
1F
100
AcDbEntity
  8
Make2D$可见线$普通线
100
AcDbLine
 10
11.43937299963159
 20
452.9003988772441
 30
0.0
 11
11.44719002160545
 21
452.9244488382932
 31
0.0
  0
ARC
  5
11D
330
1F
100
AcDbEntity
  8
Make2D$可见线$普通线
100
AcDbCircle
 10
19.34647706184955
 20
461.6128813024358
 30
0.0
 40
11.69139355348012
100
AcDbArc
 50
231.3623349492098
 51
233.6137458986664
  0
LINE
  5
11E
330
1F
100
AcDbEntity
  8
Make2D$可见线$普通线
100
AcDbLine
 10
12.4108411596485
 20
452.2008869412786
 30
0.0
 11
12.44139209396872
 21
452.2948803808854
 31
0.0
  0
ARC
  5
11F
330
1F
100
AcDbEntity
  8
Make2D$可见线$普通线
100
AcDbCircle
 10
18.46364464273336
 20
461.6972469882127
 30
0.0
 40
11.26131804656323
100
AcDbArc
 50
237.4873203563876
 51
239.7519829847502
  0
LINE
  5
120
330
1F
100
AcDbEntity
  8
Make2D$可见线$普通线
100
AcDbLine
 10
12.80596250393032
 20
452.0157047073123
 30
0.0
 11
12.79082234680516
 21
451.9691242841823
 31
0.0
  0
ARC
  5
121
330
1F
100
AcDbEntity
  8
Make2D$可见线$普通线
100
AcDbCircle
 10
19.75307686015179
 20
461.4654451348032
 30
0.0
 40
11.72859718915158
100
AcDbArc
 50
231.4346693535763
 51
233.6779921228618
  0
ARC
  5
122
330
1F
100
AcDbEntity
  8
Make2D$可见线$普通线
100
AcDbCircle
 10
18.06899138312076
 20
461.8807720552841
 30
0.0
 40
11.11571828323897
100
AcDbArc
 50
237.287946998731
 51
239.5840393229639
  0
LINE
  5
123
330
1F
100
AcDbEntity
  8
Make2D$可见线$普通线
100
AcDbLine
 10
12.04645022823942
 20
452.4806148011269
 30
0.0
 11
12.06186455894411
 21
452.5280387504908
 31
0.0
  0
ARC
  5
124
330
1F
100
AcDbEntity
  8
Make2D$可见线$普通线
100
AcDbCircle
 10
19.76683717850347
 20
461.4046447002984
 30
0.0
 40
11.67478503809825
100
AcDbArc
 50
232.6008063748755
 51
234.8388921402883
  0
LINE
  5
125
330
1F
100
AcDbEntity
  8
Make2D$可见线$普通线
100
AcDbLine
 10
13.0435910549279
 20
451.8600877568029
 30
0.0
 11
13.08908569828873
 21
452.0000572244597
 31
0.0
  0
ARC
  5
126
330
1F
100
AcDbEntity
  8
Make2D$可见线$普通线
100
AcDbCircle
 10
18.28469508542906
 20
461.6431651198571
 30
0.0
 40
11.09854829020619
100
AcDbArc
 50
241.8206375214372
 51
244.0843202351215
  0
LINE
  5
127
330
1F
100
AcDbEntity
  8
Make2D$可见线$普通线
100
AcDbLine
 10
13.45667862954596
 20
451.730180683163
 30
0.0
 11
13.43409732764863
 21
451.6607067281454
 31
0.0
  0
ARC
  5
128
330
1F
100
AcDbEntity
  8
Make2D$可见线$普通线
100
AcDbCircle
 10
20.17903163062994
 20
461.2718340177107
 30
0.0
 40
11.67189694213702
100
AcDbArc
 50
232.5955648788724
 51
234.8342681685139
  0
ARC
  5
129
330
1F
100
AcDbEntity
  8
Make2D$可见线$普通线
100
AcDbCircle
 10
17.89023737072833
 20
461.8293497192149
 30
0.0
 40
10.93919779186245
100
AcDbArc
 50
241.6691176133523
 51
243.9666449376142
  0
LINE
  5
12A
330
1F
100
AcDbEntity
  8
Make2D$可见线$普通线
100
AcDbLine
 10
12.67598534314362
 20
452.1299249775911
 30
0.0
 11
12.69890194635568
 21
452.2004305253935
 31
0.0
  0
ARC
  5
12B
330
1F
100
AcDbEntity
  8
Make2D$可见线$普通线
100
AcDbCircle
 10
20.19634054127283
 20
461.2148485436495
 30
0.0
 40
11.61690302896483
100
AcDbArc
 50
233.7510715125239
 51
235.9859627845331
  0
LINE
  5
12C
330
1F
100
AcDbEntity
  8
Make2D$可见线$普通线
100
AcDbLine
 10
13.69789148623079
 20
451.5855912585108
 30
0.0
 11
13.75840614410664
 21
451.771771516725
 31
0.0
  0
ARC
  5
12D
330
1F
100
AcDbEntity
  8
Make2D$可见线$普通线
100
AcDbCircle
 10
18.13431330624937
 20
461.6290673891727
 30
0.0
 40
10.97967446476952
100
AcDbArc
 50
246.1679098446374
 51
248.4352690798355
  0
LINE
  5
12E
330
1F
100
AcDbEntity
  8
Make2D$可见线$普通线
100
AcDbLine
 10
14.12879120234584
 20
451.5104852728883
 30
0.0
 11
14.09871036902496
 21
451.41793815263
 31
0.0
  0
ARC
  5
12F
330
1F
100
AcDbEntity
  8
Make2D$可见线$普通线
100
AcDbCircle
 10
20.61378660716059
 20
461.0964212189687
 30
0.0
 40
11.5734754228289
100
AcDbArc
 50
233.6770811967362
 51
235.9211986463871
  0
ARC
  5
130
330
1F
100
AcDbEntity
  8
Make2D$可见线$普通线
100
AcDbCircle
 10
17.74054040748723
 20
461.8182424242862
 30
0.0
 40
10.80689460428845
100
AcDbArc
 50
246.0741733712299
 51
248.3780390037083
  0
LINE
  5
131
330
1F
100
AcDbEntity
  8
Make2D$可见线$普通线
100
AcDbLine
 10
13.32732889953027
 20
451.8463313157218
 30
0.0
 11
13.35776480744653
 21
451.939970863538
 31
0.0
  0
LINE
  5
132
330
1F
100
AcDbEntity
  8
Make2D$可见线$普通线
100
AcDbLine
 10
12.7770257398451
 20
451.9266774469075
 30
0.0
 11
12.7764338580543
 21
451.9248564549606
 31
0.0
  0
ARC
  5
133
330
1F
100
AcDbEntity
  8
Make2D$可见线$普通线
100
AcDbCircle
 10
19.09424723247093
 20
461.5604586918624
 30
0.0
 40
11.5202876900943
100
AcDbArc
 50
234.5009651196004
 51
236.7456837937869
  0
ARC
  5
134
330
1F
100
AcDbEntity
  8
Make2D$可见线$普通线
100
AcDbCircle
 10
18.69387685658745
 20
461.7259851510573
 30
0.0
 40
11.4303514426141
100
AcDbArc
 50
234.3531258649408
 51
236.6171197216589
  0
SPLINE
  5
135
330
1F
100
AcDbEntity
  8
Make2D$可见线$普通线
100
AcDbSpline
210
0.0
220
0.0
230
1.0
 70
    24
 71
     3
 72
     9
 73
     5
 74
     0
 42
0.000000001
 43
0.0000000001
 12
1.0
 22
0.0
 32
0.0
 13
1.0
 23
0.0
 33
0.0
 40
0.333333333308799
 40
0.333333333308799
 40
0.333333333308799
 40
0.333333333308799
 40
0.6666666666667
 40
1.0
 40
1.0
 40
1.0
 40
1.0
 10
12.0318029404827
 20
452.4355507469119
 30
0.0
 10
12.03170252711572
 20
452.4352418137169
 30
0.0
 10
12.03170252710943
 20
452.4352418136971
 30
0.0
 10
12.03210418059027
 20
452.4364775465158
 30
0.0
 10
12.03240543430985
 20
452.4374043879994
 30
0.0
  0
LINE
  5
136
330
1F
100
AcDbEntity
  8
Make2D$可见线$普通线
100
AcDbLine
 10
13.01608847743861
 20
451.7754729352376
 30
0.0
 11
13.03110926700936
 21
451.8216861103433
 31
0.0
  0
ARC
  5
137
330
1F
100
AcDbEntity
  8
Make2D$可见线$普通线
100
AcDbCircle
 10
19.11483658454267
 20
461.5034967128127
 30
0.0
 40
11.48168868638107
100
AcDbArc
 50
235.6760700632269
 51
237.9153438407546
  0
ARC
  5
138
330
1F
100
AcDbEntity
  8
Make2D$可见线$普通线
100
AcDbCircle
 10
18.89026555203722
 20
461.4761866087176
 30
0.0
 40
11.34062617665274
100
AcDbArc
 50
238.8033878709811
 51
241.0406968407791
  0
LINE
  5
139
330
1F
100
AcDbEntity
  8
Make2D$可见线$普通线
100
AcDbLine
 10
13.40672415444939
 20
451.5764900335303
 30
0.0
 11
13.39926748505536
 21
451.5535487383233
 31
0.0
  0
ARC
  5
13A
330
1F
100
AcDbEntity
  8
Make2D$可见线$普通线
100
AcDbCircle
 10
19.52064204201832
 20
461.3526758526428
 30
0.0
 40
11.53055944461297
100
AcDbArc
 50
235.7495365098137
 51
237.9785972214003
  0
ARC
  5
13B
330
1F
100
AcDbEntity
  8
Make2D$可见线$普通线
100
AcDbCircle
 10
18.49021570070832
 20
461.64461474465
 30
0.0
 40
11.23796111441891
100
AcDbArc
 50
238.6781002310974
 51
240.9368216154402
  0
LINE
  5
13C
330
1F
100
AcDbEntity
  8
Make2D$可见线$普通线
100
AcDbLine
 10
12.64064501804683
 20
452.0211964301131
 30
0.0
 11
12.64821030045329
 21
452.0444718856826
 31
0.0
  0
LINE
  5
13D
330
1F
100
AcDbEntity
  8
Make2D$可见线$普通线
100
AcDbLine
 10
13.6494259906284
 20
451.4364816244522
 30
0.0
 11
13.67925711549221
 21
451.5282604880366
 31
0.0
  0
ARC
  5
13E
330
1F
100
AcDbEntity
  8
Make2D$可见线$普通线
100
AcDbCircle
 10
19.54465135892207
 20
461.2999285328846
 30
0.0
 40
11.49092107093414
100
AcDbArc
 50
236.9088583129171
 51
239.1339103767777
  0
ARC
  5
13F
330
1F
100
AcDbEntity
  8
Make2D$可见线$普通线
100
AcDbCircle
 10
18.71887579516417
 20
461.4289320584215
 30
0.0
 40
11.20483766040551
100
AcDbArc
 50
243.1000439517546
 51
245.3349429178559
  0
LINE
  5
140
330
1F
100
AcDbEntity
  8
Make2D$可见线$普通线
100
AcDbLine
 10
14.05778337222057
 20
451.2920215716981
 30
0.0
 11
14.04295221492143
 21
451.2463918219299
 31
0.0
  0
ARC
  5
141
330
1F
100
AcDbEntity
  8
Make2D$可见线$普通线
100
AcDbCircle
 10
19.95550099779996
 20
461.1633268113789
 30
0.0
 40
11.49894518319047
100
AcDbArc
 50
236.9199389835708
 51
239.1433391880777
  0
ARC
  5
142
330
1F
100
AcDbEntity
  8
Make2D$可见线$普通线
100
AcDbCircle
 10
18.31942423447347
 20
461.6003175715178
 30
0.0
 40
11.08952139568585
100
AcDbArc
 50
243.0060281430854
 51
245.2646148285346
  0
LINE
  5
143
330
1F
100
AcDbEntity
  8
Make2D$可见线$普通线
100
AcDbLine
 10
13.27092517224929
 20
451.6727988052298
 30
0.0
 11
13.28592647411639
 21
451.718952024092
 31
0.0
  0
LINE
  5
144
330
1F
100
AcDbEntity
  8
Make2D$可见线$普通线
100
AcDbLine
 10
14.02943542480395
 20
451.2048058728192
 30
0.0
 11
14.02885550968013
 21
451.2030216976904
 31
0.0
  0
ARC
  5
145
330
1F
100
AcDbEntity
  8
Make2D$可见线$普通线
100
AcDbCircle
 10
19.32506668498053
 20
461.2740891910405
 30
0.0
 40
11.37691421196317
100
AcDbArc
 50
240.0387372008618
 51
242.2592479944149
  0
ARC
  5
146
330
1F
100
AcDbEntity
  8
Make2D$可见线$普通线
100
AcDbCircle
 10
18.92005193914741
 20
461.4281569859689
 30
0.0
 40
11.31621317442628
100
AcDbArc
 50
239.9725702531962
 51
242.2054426739213
  0
SPLINE
  5
147
330
1F
100
AcDbEntity
  8
Make2D$可见线$普通线
100
AcDbSpline
210
0.0
220
0.0
230
1.0
 70
    24
 71
     3
 72
     9
 73
     5
 74
     0
 42
0.000000001
 43
0.0000000001
 12
1.0
 22
0.0
 32
0.0
 13
1.0
 23
0.0
 33
0.0
 40
0.3333333333081311
 40
0.3333333333081311
 40
0.3333333333081311
 40
0.3333333333081311
 40
0.6666666666667
 40
1.0
 40
1.0
 40
1.0
 40
1.0
 10
13.25666778793254
 20
451.6289343335375
 30
0.0
 10
13.25657003916395
 20
451.628633598283
 30
0.0
 10
13.2565700391646
 20
451.628633598283
 30
0.0
 10
13.256961034238
 20
451.6298365392919
 30
0.0
 10
13.25725429312126
 20
451.6307387837475
 30
0.0
  0
ARC
  5
148
330
1F
100
AcDbEntity
  8
Make2D$可见线$普通线
100
AcDbCircle
 10
19.35774856589043
 20
461.2305168358247
 30
0.0
 40
11.35130834901572
100
AcDbArc
 50
241.1932983443995
 51
243.4107184735515
  0
LINE
  5
149
330
1F
100
AcDbEntity
  8
Make2D$可见线$普通线
100
AcDbLine
 10
14.27699593653676
 20
451.0797457343886
 30
0.0
 11
14.29174077389343
 21
451.1251099109826
 31
0.0
  0
ARC
  5
14A
330
1F
100
AcDbEntity
  8
Make2D$可见线$普通线
100
AcDbCircle
 10
19.74210280409005
 20
461.0444219975803
 30
0.0
 40
11.31809164707506
100
AcDbArc
 50
241.212536256669
 51
241.3223861261751
  0
ARC
  5
14B
330
1F
100
AcDbEntity
  8
Make2D$可见线$普通线
100
AcDbCircle
 10
18.75622556874023
 20
461.3908564592663
 30
0.0
 40
11.19451547308581
100
AcDbArc
 50
244.2649588939234
 51
246.4961926723711
  0
LINE
  5
14C
330
1F
100
AcDbEntity
  8
Make2D$可见线$普通线
100
AcDbLine
 10
13.88805061335063
 20
451.2839292027509
 30
0.0
 11
13.89545403632653
 21
451.3067066791988
 31
0.0
  0
LINE
  5
14D
330
1F
100
AcDbEntity
  8
Make2D$可见线$普通线
100
AcDbLine
 10
14.31076850034847
 20
451.1146784856567
 30
0.0
 11
14.29639000313315
 21
451.0704413963001
 31
0.0
  0
ARC
  5
14E
330
1F
100
AcDbEntity
  8
Make2D$可见线$普通线
100
AcDbCircle
 10
19.16842734402266
 20
461.2506354102744
 30
0.0
 40
11.28596907727378
100
AcDbArc
 50
244.3159524135702
 51
244.4251552299037
  0
ARC
  5
14F
330
1F
100
AcDbEntity
  8
Make2D$可见线$普通线
100
AcDbCircle
 10
20.41704420493875
 20
461.0225905033104
 30
0.0
 40
11.46086414629984
100
AcDbArc
 50
238.0290197423122
 51
238.1388258042505
  0
ARC
  5
150
330
1F
100
AcDbEntity
  8
Make2D$可见线$普通线
100
AcDbCircle
 10
18.17548334698185
 20
461.5969432383166
 30
0.0
 40
10.98492990196976
100
AcDbArc
 50
247.3492626644496
 51
249.6121933046947
  0
LINE
  5
151
330
1F
100
AcDbEntity
  8
Make2D$可见线$普通线
100
AcDbLine
 10
14.30399188502366
 20
451.162801853808
 30
0.0
 11
14.34863504902786
 21
451.3001516479533
 31
0.0
  0
ARC
  5
152
330
1F
100
AcDbEntity
  8
Make2D$可见线$普通线
100
AcDbCircle
 10
19.98261776114637
 20
461.1146937386515
 30
0.0
 40
11.45805148917497
100
AcDbArc
 50
238.0698741644215
 51
240.2905876275271
  0
LINE
  5
153
330
1F
100
AcDbEntity
  8
Make2D$可见线$普通线
100
AcDbLine
 10
13.92263024694512
 20
451.3903173958566
 30
0.0
 11
13.9450472726416
 21
451.4592859363503
 31
0.0
  0
LINE
  5
154
330
1F
100
AcDbEntity
  8
Make2D$可见线$普通线
100
AcDbLine
 10
14.36727901546132
 20
451.2885395412429
 30
0.0
 11
14.32374523572696
 21
451.1546028944044
 31
0.0
  0
ARC
  5
155
330
1F
100
AcDbEntity
  8
Make2D$可见线$普通线
100
AcDbCircle
 10
18.57799308647219
 20
461.4320484245786
 30
0.0
 40
11.12315204432933
100
AcDbArc
 50
247.4032031588889
 51
247.5133701164011
  0
LINE
  5
156
330
1F
100
AcDbEntity
  8
Make2D$可见线$普通线
100
AcDbLine
 10
14.37348091802653
 20
451.3765928024137
 30
0.0
 11
14.44930708072181
 21
451.6098806544122
 31
0.0
  0
ARC
  5
157
330
1F
100
AcDbEntity
  8
Make2D$可见线$普通线
100
AcDbCircle
 10
20.63433694635296
 20
461.0431868044878
 30
0.0
 40
11.51700298725185
100
AcDbArc
 50
234.828038775129
 51
237.0696919449896
  0
ARC
  5
158
330
1F
100
AcDbEntity
  8
Make2D$可见线$普通线
100
AcDbCircle
 10
21.08256215739704
 20
460.9759722291005
 30
0.0
 40
11.47709650990677
100
AcDbArc
 50
234.6931038689474
 51
234.8045490808472
  0
ARC
  5
159
330
1F
100
AcDbEntity
  8
Make2D$可见线$普通线
100
AcDbCircle
 10
17.61358948319628
 20
461.8512739409347
 30
0.0
 40
10.71908669486178
100
AcDbArc
 50
250.5156865641481
 51
252.8304245560774
  0
LINE
  5
15A
330
1F
100
AcDbEntity
  8
Make2D$可见线$普通线
100
AcDbLine
 10
14.0001705144376
 20
451.6288788871731
 30
0.0
 11
14.0382513191233
 21
451.7460388331064
 31
0.0
  0
LINE
  5
15B
330
1F
100
AcDbEntity
  8
Make2D$可见线$普通线
100
AcDbLine
 10
14.46753746973775
 20
451.596996129367
 30
0.0
 11
14.39359635213077
 21
451.369507833947
 31
0.0
  0
LINE
  5
15C
330
1F
100
AcDbEntity
  8
Make2D$可见线$普通线
100
AcDbLine
 10
14.39359635213077
 20
451.369507833947
 30
0.0
 11
14.37348091802653
 21
451.3765928024137
 31
0.0
  0
ARC
  5
15D
330
1F
100
AcDbEntity
  8
Make2D$可见线$普通线
100
AcDbCircle
 10
21.3177870770308
 20
461.0166870769152
 30
0.0
 40
11.53017681661324
100
AcDbArc
 50
231.3913060692103
 51
233.673574834777
  0
LINE
  5
15E
330
1F
100
AcDbEntity
  8
Make2D$可见线$普通线
100
AcDbLine
 10
14.48748541783621
 20
451.7273406700484
 30
0.0
 11
14.5968522767762
 21
452.0638203057733
 31
0.0
  0
ARC
  5
15F
330
1F
100
AcDbEntity
  8
Make2D$可见线$普通线
100
AcDbCircle
 10
21.78283921249317
 20
460.9756615509961
 30
0.0
 40
11.44811436964686
100
AcDbArc
 50
231.119328521898
 51
231.2334857504486
  0
ARC
  5
160
330
1F
100
AcDbEntity
  8
Make2D$可见线$普通线
100
AcDbCircle
 10
17.06899026519277
 20
462.1580327570751
 30
0.0
 40
10.39252573947509
100
AcDbArc
 50
253.8479231121703
 51
256.2387545808846
  0
LINE
  5
161
330
1F
100
AcDbEntity
  8
Make2D$可见线$普通线
100
AcDbLine
 10
14.12297777843648
 20
452.0067094643333
 30
0.0
 11
14.17791635744999
 21
452.1757342789879
 31
0.0
  0
LINE
  5
162
330
1F
100
AcDbEntity
  8
Make2D$可见线$普通线
100
AcDbLine
 10
14.61462265453474
 20
452.0495205035599
 30
0.0
 11
14.50797650372203
 21
451.7214114371627
 31
0.0
  0
LINE
  5
163
330
1F
100
AcDbEntity
  8
Make2D$可见线$普通线
100
AcDbLine
 10
14.50797650372203
 20
451.7214114371627
 30
0.0
 11
14.48748541783621
 21
451.7273406700484
 31
0.0
  0
LINE
  5
164
330
1F
100
AcDbEntity
  8
Make2D$可见线$普通线
100
AcDbLine
 10
8.781892940378157
 20
454.8087878147141
 30
0.0
 11
15.62927256692137
 21
452.5831660469646
 31
0.0
  0
SPLINE
  5
165
330
1F
100
AcDbEntity
  8
Make2D$可见线$普通线
100
AcDbSpline
210
0.0
220
0.0
230
1.0
 70
     8
 71
     3
 72
    27
 73
    23
 74
     0
 42
0.000000001
 43
0.0000000001
 12
1.0
 22
0.0
 32
0.0
 13
1.0
 23
0.0
 33
0.0
 40
0.0
 40
0.0
 40
0.0
 40
0.0
 40
1.325930299253582
 40
2.37798055121315
 40
3.476969623814131
 40
4.427631055660386
 40
6.210160444716578
 40
8.283829313708592
 40
10.21723460991429
 40
12.19334216481137
 40
13.08023048686186
 40
14.19209935447349
 40
16.19058820037221
 40
18.16703049501138
 40
20.10122535992773
 40
23.77329321246341
 40
25.48552598995261
 40
27.27577102092425
 40
28.12250189929646
 40
29.09154650766443
 40
30.00566686712686
 40
31.12870732969565
 40
31.12870732969565
 40
31.12870732969565
 40
31.12870732969565
 10
93.53170600973323
 20
429.1005768685453
 30
0.0
 10
93.53178075737594
 20
429.5425465753476
 30
0.0
 10
93.52957395918443
 20
430.3352557874866
 30
0.0
 10
93.49412690210727
 20
431.4938426866535
 30
0.0
 10
93.42423065224693
 20
432.5256220678585
 30
0.0
 10
93.28120602299
 20
433.7952773417261
 30
0.0
 10
93.00587379043711
 20
435.3750762526557
 30
0.0
 10
92.50181998615878
 20
437.2404811238306
 30
0.0
 10
91.79491457034085
 20
439.1077961141721
 30
0.0
 10
91.09256837529422
 20
440.5459315420999
 30
0.0
 10
90.42733548081607
 20
441.6923225738222
 30
0.0
 10
89.70413142388108
 20
442.8118347513814
 30
0.0
 10
88.67677256169658
 20
444.1635545767157
 30
0.0
 10
87.32906157151433
 20
445.6035576411818
 30
0.0
 10
85.41799105810011
 20
447.2630405698812
 30
0.0
 10
83.33033895458449
 20
448.5538820774847
 30
0.0
 10
81.10532939657763
 20
449.4432203899269
 30
0.0
 10
79.70182677035329
 20
449.8161474589939
 30
0.0
 10
78.51779488878157
 20
450.025802505063
 30
0.0
 10
77.61324794892101
 20
450.1290778439755
 30
0.0
 10
76.61298093601897
 20
450.1925297129802
 30
0.0
 10
75.93403484205035
 20
450.2089625309731
 30
0.0
 10
75.5597677489584
 20
450.2160867926455
 30
0.0
  0
SPLINE
  5
166
330
1F
100
AcDbEntity
  8
Make2D$可见线$普通线
100
AcDbSpline
210
0.0
220
0.0
230
1.0
 70
     8
 71
     3
 72
    24
 73
    20
 74
     0
 42
0.000000001
 43
0.0000000001
 12
1.0
 22
0.0
 32
0.0
 13
1.0
 23
0.0
 33
0.0
 40
0.0
 40
0.0
 40
0.0
 40
0.0
 40
0.5560146017743031
 40
0.946670825993842
 40
1.096973858326608
 40
1.231945322714536
 40
1.350545297133634
 40
1.453911760496848
 40
1.551496813927611
 40
1.65861012887657
 40
1.73202786645068
 40
1.943212853142867
 40
2.283986308347447
 40
2.769546165304738
 40
3.35436795101517
 40
4.170189869431955
 40
5.997554860873258
 40
8.304860639557749
 40
10.64147967673878
 40
10.64147967673878
 40
10.64147967673878
 40
10.64147967673878
 10
136.6561782420013
 20
404.4958527128559
 30
0.0
 10
136.7133235025806
 20
404.672093025376
 30
0.0
 10
136.8163459728891
 20
404.9708801744216
 30
0.0
 10
136.9799468023623
 20
405.2989661133821
 30
0.0
 10
137.1067020212187
 20
405.4857260583661
 30
0.0
 10
137.1982664220046
 20
405.5851042541744
 30
0.0
 10
137.296537559788
 20
405.6539864247027
 30
0.0
 10
137.4002425799979
 20
405.685609113419
 30
0.0
 10
137.5045800015284
 20
405.6697413199969
 30
0.0
 10
137.5847407148738
 20
405.6210301481552
 30
0.0
 10
137.6807632914515
 20
405.5321605601298
 30
0.0
 10
137.7999869898426
 20
405.3591472002857
 30
0.0
 10
137.9424214808228
 20
405.043367446484
 30
0.0
 10
138.0835164523949
 20
404.5938527747157
 30
0.0
 10
138.2255629694556
 20
403.9812432431323
 30
0.0
 10
138.4093629594868
 20
402.9205043945806
 30
0.0
 10
138.5898309846485
 20
401.2795388004112
 30
0.0
 10
138.7195800531341
 20
399.1258658205456
 30
0.0
 10
138.7583106331983
 20
397.5782033389897
 30
0.0
 10
138.763158489678
 20
396.7993181525408
 30
0.0
  0
SPLINE
  5
167
330
1F
100
AcDbEntity
  8
Make2D$可见线$普通线
100
AcDbSpline
210
0.0
220
0.0
230
1.0
 70
     8
 71
     3
 72
    10
 73
     6
 74
     0
 42
0.000000001
 43
0.0000000001
 12
1.0
 22
0.0
 32
0.0
 13
1.0
 23
0.0
 33
0.0
 40
-0.1944013680611486
 40
-0.1944013680611486
 40
-0.1944013680611486
 40
-0.1944013680611486
 40
-0.1221354391088301
 40
-0.1221354391088301
 40
0.0
 40
0.0
 40
0.0
 40
0.0
 10
138.6520001482623
 20
392.7554878604682
 30
0.0
 10
138.6224958942261
 20
392.3190962242732
 30
0.0
 10
138.5856359647487
 20
391.885537644183
 30
0.0
 10
138.4597800687514
 20
390.7236182542561
 30
0.0
 10
138.3121973718041
 20
389.6997993982639
 30
0.0
 10
138.1021609200842
 20
389.0761734685355
 30
0.0
  0
ARC
  5
168
330
1F
100
AcDbEntity
  8
Make2D$可见线$普通线
100
AcDbCircle
 10
136.6072081032836
 20
404.4327143344264
 30
0.0
 40
0.0799032497258456
100
AcDbArc
 50
351.3492989606219
 51
52.20283737465468
  0
SPLINE
  5
169
330
1F
100
AcDbEntity
  8
Make2D$可见线$普通线
100
AcDbSpline
210
0.0
220
0.0
230
1.0
 70
     8
 71
     3
 72
    27
 73
    23
 74
     0
 42
0.000000001
 43
0.0000000001
 12
1.0
 22
0.0
 32
0.0
 13
1.0
 23
0.0
 33
0.0
 40
0.0
 40
0.0
 40
0.0
 40
0.0
 40
0.3548711187728785
 40
0.6856524894254944
 40
0.9305051637094095
 40
1.107802725068665
 40
1.256191003678913
 40
1.450421891634974
 40
1.692479888516136
 40
1.988332495849601
 40
2.39482461030543
 40
2.841082608734065
 40
3.304147225073448
 40
3.868476756855251
 40
5.204820588369485
 40
6.496533413659412
 40
9.524858182612885
 40
12.58203931101059
 40
14.16895772208962
 40
15.72283672197957
 40
17.06593834780058
 40
18.08381128572179
 40
18.08381128572179
 40
18.08381128572179
 40
18.08381128572179
 10
138.1021609200842
 20
389.0761734685355
 30
0.0
 10
138.0663441311752
 20
388.9633967932298
 30
0.0
 10
137.9895588713011
 20
388.7480364199441
 30
0.0
 10
137.8539137814375
 20
388.4681443892653
 30
0.0
 10
137.7037511430527
 20
388.2650554989054
 30
0.0
 10
137.5483927193391
 20
388.1496595293065
 30
0.0
 10
137.3713740692422
 20
388.1194880821641
 30
0.0
 10
137.1868241095886
 20
388.2041536865684
 30
0.0
 10
137.0178479829033
 20
388.3808712946497
 30
0.0
 10
136.8450761657705
 20
388.6460966248061
 30
0.0
 10
136.6834795209649
 20
388.9934049553648
 30
0.0
 10
136.5325023703718
 20
389.4057142634155
 30
0.0
 10
136.3932421552815
 20
389.87685880357
 30
0.0
 10
136.2059878446203
 20
390.6424887851176
 30
0.0
 10
136.0235608443991
 20
391.6916722734853
 30
0.0
 10
135.8070493434028
 20
393.5651811868497
 30
0.0
 10
135.6969458108935
 20
396.0240205670305
 30
0.0
 10
135.7639993281394
 20
398.5819020892561
 30
0.0
 10
135.9397467368736
 20
400.641132726596
 30
0.0
 10
136.1283288813403
 20
402.1240471814442
 30
0.0
 10
136.3594380401206
 20
403.409026259546
 30
0.0
 10
136.5534028170446
 20
404.1724102586483
 30
0.0
 10
136.6561782420014
 20
404.495852712856
 30
0.0
  0
ARC
  5
16A
330
1F
100
AcDbEntity
  8
Make2D$可见线$普通线
100
AcDbCircle
 10
137.0973032852694
 20
493.9287321330629
 30
0.0
 40
0.5000301098073244
100
AcDbArc
 50
0.0109854108652063
 51
90.00177605087363
  0
LINE
  5
16B
330
1F
100
AcDbEntity
  8
Make2D$可见线$普通线
100
AcDbLine
 10
97.0026064344097
 20
494.4287334401316
 30
0.0
 11
137.0972877853683
 21
494.4287622426299
 31
0.0
  0
ARC
  5
16C
330
1F
100
AcDbEntity
  8
Make2D$可见线$普通线
100
AcDbCircle
 10
97.00263497717361
 20
493.9288535350422
 30
0.0
 40
0.4998799059042277
100
AcDbArc
 50
90.00327154560424
 51
180.0067331629607
  0
LINE
  5
16D
330
1F
100
AcDbEntity
  8
Make2D$可见线$普通线
100
AcDbLine
 10
137.5973333858859
 20
493.92882800463
 30
0.0
 11
96.50275507472105
 21
493.9287947912239
 31
0.0
  0
LINE
  5
16E
330
1F
100
AcDbEntity
  8
Make2D$可见线$普通线
100
AcDbLine
 10
140.5685756170985
 20
463.9204915444075
 30
0.0
 11
140.5685756162094
 21
396.5409013336563
 31
0.0
  0
LINE
  5
16F
330
1F
100
AcDbEntity
  8
Make2D$可见线$普通线
100
AcDbLine
 10
140.5685756161523
 20
392.2171510448518
 30
0.0
 11
140.5685756157332
 21
360.4522357884053
 31
0.0
  0
LINE
  5
170
330
1F
100
AcDbEntity
  8
Make2D$可见线$普通线
100
AcDbLine
 10
93.5317060097332
 20
360.4522357884053
 30
0.0
 11
93.53170600973323
 21
429.1005768685453
 31
0.0
  0
LINE
  5
171
330
1F
100
AcDbEntity
  8
Make2D$可见线$普通线
100
AcDbLine
 10
93.5317060097332
 20
360.4522357884053
 30
0.0
 11
140.5685756157332
 21
360.4522357884053
 31
0.0
  0
LINE
  5
172
330
1F
100
AcDbEntity
  8
Make2D$可见线$普通线
100
AcDbLine
 10
96.50275507472105
 20
493.9287947912239
 30
0.0
 11
96.50287514901152
 21
493.8890829553054
 31
0.0
  0
SPLINE
  5
173
330
1F
100
AcDbEntity
  8
Make2D$可见线$普通线
100
AcDbSpline
210
0.0
220
0.0
230
1.0
 70
     8
 71
     3
 72
    16
 73
    12
 74
     0
 42
0.000000001
 43
0.0000000001
 12
1.0
 22
0.0
 32
0.0
 13
1.0
 23
0.0
 33
0.0
 40
0.0
 40
0.0
 40
0.0
 40
0.0
 40
1.0
 40
1.0
 40
1.0
 40
2.0
 40
2.0
 40
2.0
 40
2.997332627775353
 40
2.999997118952813
 40
3.0
 40
3.0
 40
3.0
 40
3.0
 10
140.4118557175875
 20
464.920407736543
 30
0.0
 10
140.3944078568376
 20
464.9796355113565
 30
0.0
 10
140.3770681964761
 20
465.0388693128407
 30
0.0
 10
140.3598360303961
 20
465.0981093491091
 30
0.0
 10
138.5559169687338
 20
471.2995486948953
 30
0.0
 10
137.9299848812792
 20
477.5693127894619
 30
0.0
 10
137.7127960847551
 20
484.0076806872054
 30
0.0
 10
137.6031121108002
 20
487.258484503846
 30
0.0
 10
137.5976162847569
 20
490.5610711167737
 30
0.0
 10
137.5973341042514
 20
493.9198573886471
 30
0.0
 10
137.5973333867733
 20
493.928816921891
 30
0.0
 10
137.5973333858859
 20
493.92882800463
 30
0.0
  0
SPLINE
  5
174
330
1F
100
AcDbEntity
  8
Make2D$可见线$普通线
100
AcDbSpline
210
0.0
220
0.0
230
1.0
 70
     8
 71
     3
 72
    21
 73
    17
 74
     0
 42
0.000000001
 43
0.0000000001
 12
1.0
 22
0.0
 32
0.0
 13
1.0
 23
0.0
 33
0.0
 40
0.0
 40
0.0
 40
0.0
 40
0.0
 40
0.5164169414460993
 40
1.0
 40
1.0
 40
1.0
 40
4.008794827236844
 40
6.904010060262423
 40
9.849243378591959
 40
12.57555631920074
 40
15.22967891171365
 40
16.52129734989909
 40
17.7863581970825
 40
20.40217179856106
 40
21.73383715228617
 40
23.46659308446077
 40
23.46659308446077
 40
23.46659308446077
 40
23.46659308446077
 10
77.63418181716952
 20
477.0425926030079
 30
0.0
 10
78.65981724239722
 20
477.042591866575
 30
0.0
 10
80.65635283038924
 20
477.049279485725
 30
0.0
 10
82.7985719631152
 20
477.3620675043603
 30
0.0
 10
83.85298843611008
 20
477.617170911277
 30
0.0
 10
84.8277703173468
 20
477.8531776839448
 30
0.0
 10
86.70215321546954
 20
478.4744295544426
 30
0.0
 10
89.3241889532098
 20
479.8463810839835
 30
0.0
 10
91.61228155524148
 20
481.5717954265121
 30
0.0
 10
93.51947463825006
 20
483.6024165001673
 30
0.0
 10
94.73174571870645
 20
485.47834873698
 30
0.0
 10
95.45874710573615
 20
487.0581815150477
 30
0.0
 10
96.02692671199851
 20
488.6881917273397
 30
0.0
 10
96.3641235339396
 20
490.3998868988969
 30
0.0
 10
96.49613340393152
 20
492.28967169742
 30
0.0
 10
96.50317144803928
 20
493.3115840417744
 30
0.0
 10
96.50287514901152
 20
493.8890829553054
 30
0.0
  0
LINE
  5
175
330
1F
100
AcDbEntity
  8
Make2D$可见线$普通线
100
AcDbLine
 10
57.9170616532482
 20
477.0425971179524
 30
0.0
 11
51.66011006848822
 21
477.0425971179252
 31
0.0
  0
LINE
  5
176
330
1F
100
AcDbEntity
  8
Make2D$可见线$普通线
100
AcDbLine
 10
57.9170616532482
 20
477.0425971179524
 30
0.0
 11
77.63418181716952
 21
477.0425926030079
 31
0.0
  0
SPLINE
  5
177
330
1F
100
AcDbEntity
  8
Make2D$可见线$普通线
100
AcDbSpline
210
0.0
220
0.0
230
1.0
 70
     8
 71
     3
 72
    13
 73
     9
 74
     0
 42
0.000000001
 43
0.0000000001
 12
1.0
 22
0.0
 32
0.0
 13
1.0
 23
0.0
 33
0.0
 40
-1.0
 40
-1.0
 40
-1.0
 40
-1.0
 40
-0.6024507575178908
 40
-0.5938668643213401
 40
-0.4614606509023571
 40
-0.3674284917452262
 40
-0.1409901191691124
 40
0.0
 40
0.0
 40
0.0
 40
0.0
 10
75.5597677489584
 20
450.2160867926455
 30
0.0
 10
69.6788643753064
 20
450.330007002879
 30
0.0
 10
63.67098468595302
 20
450.4485071132094
 30
0.0
 10
55.70443546075194
 20
450.629821785815
 30
0.0
 10
52.22777873654366
 20
450.712689030103
 30
0.0
 10
45.52842633221178
 20
450.8889140611896
 30
0.0
 10
38.70209322013946
 20
451.0978369269367
 30
0.0
 10
33.26676677438456
 20
451.2840103220705
 30
0.0
 10
31.18111530088083
 20
451.3541288851351
 30
0.0
  0
LINE
  5
178
330
1F
100
AcDbEntity
  8
Make2D$可见线$普通线
100
AcDbLine
 10
31.18111727449096
 20
477.0429114357514
 30
0.0
 11
51.66011006848822
 21
477.0425971179252
 31
0.0
  0
SPLINE
  5
179
330
1F
100
AcDbEntity
  8
Make2D$可见线$普通线
100
AcDbSpline
210
0.0
220
0.0
230
1.0
 70
    12
 71
     3
 72
    18
 73
    14
 74
     0
 42
0.000000001
 43
0.0000000001
 12
1.0
 22
0.0
 32
0.0
 13
1.0
 23
0.0
 33
0.0
 40
0.0
 40
0.0
 40
0.0
 40
0.0
 40
2.584911110904204
 40
2.584911110904204
 40
2.584911110904204
 40
3.584911110904204
 40
3.584911110904204
 40
3.584911110904204
 40
4.584911110904203
 40
4.584911110904203
 40
4.584911110904203
 40
5.046087479140891
 40
5.584911110904203
 40
5.584911110904203
 40
5.584911110904203
 40
5.584911110904203
 10
13.45047548720828
 20
474.6445915018205
 30
0.0
 41
1.0
 10
14.25868556737107
 20
474.9439916911011
 30
0.0
 41
0.9994270843366222
 10
15.07861089144681
 20
475.2096351927293
 30
0.0
 41
0.9994270843366216
 10
15.90884221525261
 20
475.4410654327362
 30
0.0
 41
1.0
 10
18.25409299233252
 20
476.0979027903807
 30
0.0
 41
1.0
 10
20.68237192054724
 20
476.5122225537746
 30
0.0
 41
1.0
 10
23.12156462856785
 20
476.7515021677577
 30
0.0
 41
1.0
 10
24.4215938241405
 20
476.8790322653486
 30
0.0
 41
1.0
 10
25.72427745698349
 20
476.9556884610657
 30
0.0
 41
1.0
 10
27.02315855000302
 20
476.9967394754112
 30
0.0
 41
1.0
 10
27.66397520117431
 20
477.0169439720542
 30
0.0
 41
1.0
 10
29.05182281660785
 20
477.0425154417151
 30
0.0
 41
1.0
 10
30.43561370922376
 20
477.0429677844836
 30
0.0
 41
1.0
 10
31.18111727449096
 20
477.0429114357514
 30
0.0
 41
1.0
  0
ARC
  5
17A
330
1F
100
AcDbEntity
  8
Make2D$可见线$普通线
100
AcDbCircle
 10
20.81798380357093
 20
474.5839346170824
 30
0.0
 40
7.367758006974636
100
AcDbArc
 50
179.5282930369091
 51
181.3933157191057
  0
SPLINE
  5
17B
330
1F
100
AcDbEntity
  8
Make2D$可见线$普通线
100
AcDbSpline
210
0.0
220
0.0
230
1.0
 70
     8
 71
     3
 72
     8
 73
     4
 74
     0
 42
0.000000001
 43
0.0000000001
 12
1.0
 22
0.0
 32
0.0
 13
1.0
 23
0.0
 33
0.0
 40
0.0
 40
0.0
 40
0.0
 40
0.0
 40
1.0
 40
1.0
 40
1.0
 40
1.0
 10
0.2093693714086839
 20
464.9205195340573
 30
0.0
 10
4.504984519016432
 20
469.7110004724566
 30
0.0
 10
8.461771257476471
 20
472.7888502243527
 30
0.0
 10
13.45047548720828
 20
474.6445915018205
 30
0.0
  0
LINE
  5
17C
330
1F
100
AcDbEntity
  8
Make2D$可见线$普通线
100
AcDbLine
 10
13.45240419727624
 20
474.4047835281249
 30
0.0
 11
13.45201861088905
 21
474.3823103794639
 31
0.0
  0
ARC
  5
17D
330
1F
100
AcDbEntity
  8
Make2D$可见线$普通线
100
AcDbCircle
 10
0.702608893286237
 20
464.4203837985081
 30
0.0
 40
0.7024393069263988
100
AcDbArc
 50
134.6022474007955
 51
225.3983551898962
  0
ARC
  5
17E
330
1F
100
AcDbEntity
  8
Make2D$可见线$普通线
100
AcDbCircle
 10
5.978424235720297
 20
458.8002951029477
 30
0.0
 40
0.2500000000149784
100
AcDbArc
 50
232.3797971899693
 51
253.9272648669167
  0
ARC
  5
17F
330
1F
100
AcDbEntity
  8
Make2D$可见线$普通线
100
AcDbCircle
 10
34.88424464493829
 20
494.9161965012919
 30
0.0
 40
46.50909321438547
100
AcDbArc
 50
221.7936096893709
 51
231.3305099385595
  0
LINE
  5
180
330
1F
100
AcDbEntity
  8
Make2D$可见线$普通线
100
AcDbLine
 10
13.44542772123782
 20
456.4323426713788
 30
0.0
 11
5.824107952523065
 21
458.6036063011624
 31
0.0
  0
ARC
  5
181
330
1F
100
AcDbEntity
  8
Make2D$可见线$普通线
100
AcDbCircle
 10
13.48619942415995
 20
456.4435063948661
 30
0.0
 40
0.0422713718635098
100
AcDbArc
 50
195.3222505253353
 51
272.2964271492959
  0
SPLINE
  5
182
330
1F
100
AcDbEntity
  8
Make2D$可见线$普通线
100
AcDbSpline
210
0.0
220
0.0
230
1.0
 70
     8
 71
     3
 72
    18
 73
    14
 74
     0
 42
0.000000001
 43
0.0000000001
 12
1.0
 22
0.0
 32
0.0
 13
1.0
 23
0.0
 33
0.0
 40
0.0
 40
0.0
 40
0.0
 40
0.0
 40
0.0936235433349871
 40
0.4039233937036018
 40
1.534880632187606
 40
2.138157322725127
 40
3.419115411771514
 40
4.977876432973144
 40
6.380701849491831
 40
8.967642867358524
 40
10.04961410388386
 40
13.75182956758019
 40
17.0448148943801
 40
17.0448148943801
 40
17.0448148943801
 40
17.0448148943801
 10
29.72263646559026
 20
451.4054955478122
 30
0.0
 10
29.69351692365941
 20
451.416718311648
 30
0.0
 10
29.56765255115672
 20
451.4645379000743
 30
0.0
 10
29.08885213447668
 20
451.6448446255459
 30
0.0
 10
28.45135345334388
 20
451.8857960273729
 30
0.0
 10
27.50992895958976
 20
452.2377477339774
 30
0.0
 10
26.43055762384815
 20
452.6278742615051
 30
0.0
 10
25.09146414698151
 20
453.0827923774983
 30
0.0
 10
23.32861595115419
 20
453.6425864384248
 30
0.0
 10
21.70618361985832
 20
454.1181812365809
 30
0.0
 10
19.33958956058141
 20
454.7786633850631
 30
0.0
 10
16.74200991684645
 20
455.4870191340145
 30
0.0
 10
14.50047587937326
 20
456.1294635674905
 30
0.0
 10
13.44543821162086
 20
456.4323396525556
 30
0.0
  0
ARC
  5
183
330
1F
100
AcDbEntity
  8
Make2D$可见线$普通线
100
AcDbCircle
 10
29.73306105560345
 20
451.6548834386638
 30
0.0
 40
0.2500002021591206
100
AcDbArc
 50
249.7117051828492
 51
267.6063894063969
  0
LINE
  5
184
330
1F
100
AcDbEntity
  8
Make2D$可见线$普通线
100
AcDbLine
 10
31.18111530088083
 20
451.3541288851351
 30
0.0
 11
29.72362313792337
 21
451.4050614484258
 31
0.0
  0
LINE
  5
185
330
1F
100
AcDbEntity
  8
Make2D$可见线$普通线
100
AcDbLine
 10
18.78037873281161
 20
451.2787306387978
 30
0.0
 11
18.59131174199257
 21
451.3401835789409
 31
0.0
  0
LINE
  5
186
330
1F
100
AcDbEntity
  8
Make2D$可见线$普通线
100
AcDbLine
 10
18.80790883867794
 20
451.3634301545677
 30
0.0
 11
18.78037873281161
 21
451.2787306387978
 31
0.0
  0
LINE
  5
187
330
1F
100
AcDbEntity
  8
Make2D$可见线$普通线
100
AcDbLine
 10
18.66481276870286
 20
450.9231787478486
 30
0.0
 11
18.78037873281161
 21
451.2787306387978
 31
0.0
  0
LINE
  5
188
330
1F
100
AcDbEntity
  8
Make2D$可见线$普通线
100
AcDbLine
 10
18.68447130073235
 20
450.914688067977
 30
0.0
 11
18.83122194120795
 21
451.366183178353
 31
0.0
  0
ARC
  5
189
330
1F
100
AcDbEntity
  8
Make2D$可见线$普通线
100
AcDbCircle
 10
22.75794147443497
 20
460.3730258993841
 30
0.0
 40
10.29821896198904
100
AcDbArc
 50
246.5805219621325
 51
246.6996608971375
  0
ARC
  5
18A
330
1F
100
AcDbEntity
  8
Make2D$可见线$普通线
100
AcDbCircle
 10
17.88662637719796
 20
462.3866320754448
 30
0.0
 40
11.49965459622527
100
AcDbArc
 50
273.9783716999869
 51
276.3250395380165
  0
LINE
  5
18B
330
1F
100
AcDbEntity
  8
Make2D$可见线$普通线
100
AcDbLine
 10
19.22727275817689
 20
451.1838605733188
 30
0.0
 11
19.15352818801352
 21
450.9569769785384
 31
0.0
  0
ARC
  5
18C
330
1F
100
AcDbEntity
  8
Make2D$可见线$普通线
100
AcDbCircle
 10
23.20970932071828
 20
460.3560427323351
 30
0.0
 40
9.999436310754836
100
AcDbArc
 50
244.0317244786084
 51
246.5301709417197
  0
ARC
  5
18D
330
1F
100
AcDbEntity
  8
Make2D$可见线$普通线
100
AcDbCircle
 10
17.48913106784516
 20
462.6303893203221
 30
0.0
 40
11.34387711151621
100
AcDbArc
 50
275.5757025249557
 51
276.7945614834971
  0
ARC
  5
18E
330
1F
100
AcDbEntity
  8
Make2D$可见线$普通线
100
AcDbCircle
 10
23.10833019445658
 20
460.3140221303678
 30
0.0
 40
10.01068561795484
100
AcDbArc
 50
250.1592796775721
 51
252.6379386172086
  0
LINE
  5
18F
330
1F
100
AcDbEntity
  8
Make2D$可见线$普通线
100
AcDbLine
 10
20.12105278223564
 20
450.7594420661284
 30
0.0
 11
20.22798594880725
 21
451.0884341692457
 31
0.0
  0
ARC
  5
190
330
1F
100
AcDbEntity
  8
Make2D$可见线$普通线
100
AcDbCircle
 10
18.16158593418216
 20
462.5857187859772
 30
0.0
 40
11.98750730481773
100
AcDbArc
 50
279.4077306543589
 51
281.7649865685171
  0
LINE
  5
191
330
1F
100
AcDbEntity
  8
Make2D$可见线$普通线
100
AcDbLine
 10
20.63979183116209
 20
450.9545838227128
 30
0.0
 11
20.60581263874678
 21
450.8500429554273
 31
0.0
  0
ARC
  5
192
330
1F
100
AcDbEntity
  8
Make2D$可见线$普通线
100
AcDbCircle
 10
17.77006273463184
 20
462.7411215350423
 30
0.0
 40
11.78814929004359
100
AcDbArc
 50
279.8420090642275
 51
280.872909452233
  0
LINE
  5
193
330
1F
100
AcDbEntity
  8
Make2D$可见线$普通线
100
AcDbLine
 10
19.71063820519575
 20
450.8975729223255
 30
0.0
 11
19.78503409098468
 21
451.1264603640295
 31
0.0
  0
ARC
  5
194
330
1F
100
AcDbEntity
  8
Make2D$可见线$普通线
100
AcDbCircle
 10
22.98036517546092
 20
460.3420304657648
 30
0.0
 40
10.12741248439151
100
AcDbArc
 50
254.9199487512069
 51
257.3763564251179
  0
LINE
  5
195
330
1F
100
AcDbEntity
  8
Make2D$可见线$普通线
100
AcDbLine
 10
20.7670602649838
 20
450.4594313641991
 30
0.0
 11
20.89935488090787
 21
450.8664508635693
 31
0.0
  0
ARC
  5
196
330
1F
100
AcDbEntity
  8
Make2D$可见线$普通线
100
AcDbCircle
 10
18.59485458237235
 20
462.464117028416
 30
0.0
 40
12.1996293150334
100
AcDbArc
 50
280.2564927763676
 51
282.5916157102269
  0
LINE
  5
197
330
1F
100
AcDbEntity
  8
Make2D$可见线$普通线
100
AcDbLine
 10
21.31226802104509
 20
450.736007122117
 30
0.0
 11
21.25437901624375
 21
450.5579049855426
 31
0.0
  0
LINE
  5
198
330
1F
100
AcDbEntity
  8
Make2D$可见线$普通线
100
AcDbLine
 10
20.89935488092135
 20
450.866450863565
 30
0.0
 11
20.96109608157997
 21
450.8501494595182
 31
0.0
  0
ARC
  5
199
330
1F
100
AcDbEntity
  8
Make2D$可见线$普通线
100
AcDbCircle
 10
18.19107363968074
 20
462.6488920088198
 30
0.0
 40
12.0896942319915
100
AcDbArc
 50
280.5807145872193
 51
282.9450041784687
  0
LINE
  5
19A
330
1F
100
AcDbEntity
  8
Make2D$可见线$普通线
100
AcDbLine
 10
20.34553305141335
 20
450.5633729246145
 30
0.0
 11
20.41098921979258
 21
450.7647563044353
 31
0.0
  0
ARC
  5
19B
330
1F
100
AcDbEntity
  8
Make2D$可见线$普通线
100
AcDbCircle
 10
22.86156650523628
 20
460.4220483925264
 30
0.0
 40
10.29075465110135
100
AcDbArc
 50
259.598271065491
 51
262.0382150269606
  0
LINE
  5
19C
330
1F
100
AcDbEntity
  8
Make2D$可见线$普通线
100
AcDbLine
 10
21.43616749756438
 20
450.2304896816083
 30
0.0
 11
21.5515918140992
 21
450.5856057776264
 31
0.0
  0
ARC
  5
19D
330
1F
100
AcDbEntity
  8
Make2D$可见线$普通线
100
AcDbCircle
 10
19.02992735267986
 20
462.3644255760551
 30
0.0
 40
12.37022198367512
100
AcDbArc
 50
281.2166118140829
 51
283.5417190152913
  0
LINE
  5
19E
330
1F
100
AcDbEntity
  8
Make2D$可见线$普通线
100
AcDbLine
 10
21.98488070830655
 20
450.5178503713064
 30
0.0
 11
21.92645587061554
 21
450.3380996836562
 31
0.0
  0
ARC
  5
19F
330
1F
100
AcDbEntity
  8
Make2D$可见线$普通线
100
AcDbCircle
 10
23.30751734777307
 20
460.395273204019
 30
0.0
 40
9.965583249175735
100
AcDbArc
 50
259.8515615270594
 51
262.3731751719569
  0
ARC
  5
1A0
330
1F
100
AcDbEntity
  8
Make2D$可见线$普通线
100
AcDbCircle
 10
18.62294684474622
 20
462.5315964977302
 30
0.0
 40
12.29974209653995
100
AcDbArc
 50
281.4309771608665
 51
283.774794231655
  0
LINE
  5
1A1
330
1F
100
AcDbEntity
  8
Make2D$可见线$普通线
100
AcDbLine
 10
21.00358284433489
 20
450.300411765726
 30
0.0
 11
21.06059950258484
 21
450.4758300284786
 31
0.0
  0
ARC
  5
1A2
330
1F
100
AcDbEntity
  8
Make2D$可见线$普通线
100
AcDbCircle
 10
22.74366846769934
 20
460.5542844797577
 30
0.0
 40
10.49988809431521
100
AcDbArc
 50
264.2107418177797
 51
266.6402311730334
  0
LINE
  5
1A3
330
1F
100
AcDbEntity
  8
Make2D$可见线$普通线
100
AcDbLine
 10
22.12831802656413
 20
450.0724433329106
 30
0.0
 11
22.22753329917444
 21
450.377690453557
 31
0.0
  0
ARC
  5
1A4
330
1F
100
AcDbEntity
  8
Make2D$可见线$普通线
100
AcDbCircle
 10
19.46600564660463
 20
462.2869286053481
 30
0.0
 40
12.50126224343275
100
AcDbArc
 50
282.2960768401492
 51
284.6229499238115
  0
LINE
  5
1A5
330
1F
100
AcDbEntity
  8
Make2D$可见线$普通线
100
AcDbLine
 10
22.65722040080747
 20
450.2988537209267
 30
0.0
 11
22.62203625370614
 21
450.1906056728981
 31
0.0
  0
ARC
  5
1A6
330
1F
100
AcDbEntity
  8
Make2D$可见线$普通线
100
AcDbCircle
 10
23.1862506006506
 20
460.5090507284709
 30
0.0
 40
10.17662025843039
100
AcDbArc
 50
264.5942727246131
 51
266.0092286339702
  0
ARC
  5
1A7
330
1F
100
AcDbEntity
  8
Make2D$可见线$普通线
100
AcDbCircle
 10
19.05623703407186
 20
462.4364801655209
 30
0.0
 40
12.46882229075972
100
AcDbArc
 50
282.3987638617186
 51
284.7343665649774
  0
LINE
  5
1A8
330
1F
100
AcDbEntity
  8
Make2D$可见线$普通线
100
AcDbLine
 10
21.68454711720506
 20
450.1079496221117
 30
0.0
 11
21.73347093196557
 21
450.2584693273538
 31
0.0
  0
ARC
  5
1A9
330
1F
100
AcDbEntity
  8
Make2D$可见线$普通线
100
AcDbCircle
 10
22.61870395576641
 20
460.7383182637788
 30
0.0
 40
10.75436041451972
100
AcDbArc
 50
268.7738103005938
 51
271.1995624205413
  0
LINE
  5
1AA
330
1F
100
AcDbEntity
  8
Make2D$可见线$普通线
100
AcDbLine
 10
22.84384417192481
 20
449.9863147384605
 30
0.0
 11
22.91789070832976
 21
450.214127366866
 31
0.0
  0
ARC
  5
1AB
330
1F
100
AcDbEntity
  8
Make2D$可见线$普通线
100
AcDbCircle
 10
19.90525103090251
 20
462.2200390055687
 30
0.0
 40
12.58170652543188
100
AcDbArc
 50
283.5068006320024
 51
285.5356651254085
  0
ARC
  5
1AC
330
1F
100
AcDbEntity
  8
Make2D$可见线$普通线
100
AcDbCircle
 10
19.49253823830161
 20
462.3541961830854
 30
0.0
 40
12.58891357724952
100
AcDbArc
 50
283.4918020186892
 51
285.585018161348
  0
LINE
  5
1AD
330
1F
100
AcDbEntity
  8
Make2D$可见线$普通线
100
AcDbLine
 10
22.38856694585908
 20
449.9864205297944
 30
0.0
 11
22.42961024334619
 21
450.112694923328
 31
0.0
  0
ARC
  5
1AE
330
1F
100
AcDbEntity
  8
Make2D$可见线$普通线
100
AcDbCircle
 10
22.61517484457335
 20
460.3589402257501
 30
0.0
 40
10.35379834563378
100
AcDbArc
 50
248.9782145721814
 51
251.375797883068
  0
LINE
  5
1AF
330
1F
100
AcDbEntity
  8
Make2D$可见线$普通线
100
AcDbLine
 10
19.30858969289423
 20
450.5473330782567
 30
0.0
 11
19.43725235780808
 21
450.9431784654278
 31
0.0
  0
ARC
  5
1B0
330
1F
100
AcDbEntity
  8
Make2D$可见线$普通线
100
AcDbCircle
 10
18.32365356011235
 20
462.2400412551787
 30
0.0
 40
11.73411793431095
100
AcDbArc
 50
274.8149474378184
 51
277.1291299294353
  0
LINE
  5
1B1
330
1F
100
AcDbEntity
  8
Make2D$可见线$普通线
100
AcDbLine
 10
19.84468415443169
 20
450.7958707444555
 30
0.0
 11
19.77992771157324
 21
450.5966401501706
 31
0.0
  0
ARC
  5
1B2
330
1F
100
AcDbEntity
  8
Make2D$可见线$普通线
100
AcDbCircle
 10
23.05809532327964
 20
460.3208025900114
 30
0.0
 40
10.05237971838319
100
AcDbArc
 50
248.8876687001677
 51
251.3572297785622
  0
ARC
  5
1B3
330
1F
100
AcDbEntity
  8
Make2D$可见线$普通线
100
AcDbCircle
 10
17.92527650250467
 20
462.4335432401154
 30
0.0
 40
11.58941558675599
100
AcDbArc
 50
275.1467785405492
 51
277.4962779645736
  0
LINE
  5
1B4
330
1F
100
AcDbEntity
  8
Make2D$可见线$普通线
100
AcDbLine
 10
18.90103031192663
 20
450.6942482713907
 30
0.0
 11
18.96493370537448
 21
450.890854361736
 31
0.0
  0
ARC
  5
1B5
330
1F
100
AcDbEntity
  8
Make2D$可见线$普通线
100
AcDbCircle
 10
18.36151588865009
 20
462.2912509745518
 30
0.0
 40
11.8213887383909
100
AcDbArc
 50
275.9771922661673
 51
278.2957255134083
  0
LINE
  5
1B6
330
1F
100
AcDbEntity
  8
Make2D$可见线$普通线
100
AcDbLine
 10
19.53712418717728
 20
450.3637372234749
 30
0.0
 11
19.59250742711595
 21
450.5341300881962
 31
0.0
  0
ARC
  5
1B7
330
1F
100
AcDbEntity
  8
Make2D$可见线$普通线
100
AcDbCircle
 10
22.48511588353897
 20
460.3786317750793
 30
0.0
 40
10.43976857605436
100
AcDbArc
 50
253.5976416374111
 51
255.9771097937472
  0
LINE
  5
1B8
330
1F
100
AcDbEntity
  8
Make2D$可见线$普通线
100
AcDbLine
 10
19.95546058547444
 20
450.2499787553265
 30
0.0
 11
20.06713396887568
 21
450.5935546770501
 31
0.0
  0
ARC
  5
1B9
330
1F
100
AcDbEntity
  8
Make2D$可见线$普通线
100
AcDbCircle
 10
18.76403783337101
 20
462.1143387271215
 30
0.0
 40
11.92403143716755
100
AcDbArc
 50
275.7344359163656
 51
278.0282368992534
  0
LINE
  5
1BA
330
1F
100
AcDbEntity
  8
Make2D$可见线$普通线
100
AcDbLine
 10
20.48565536252642
 20
450.4803653682296
 30
0.0
 11
20.42936135613579
 21
450.3071704265049
 31
0.0
  0
ARC
  5
1BB
330
1F
100
AcDbEntity
  8
Make2D$可见线$普通线
100
AcDbCircle
 10
22.92653208269556
 20
460.3359350025568
 30
0.0
 40
10.15333107803227
100
AcDbArc
 50
253.6429847417842
 51
256.0897575154867
  0
ARC
  5
1BC
330
1F
100
AcDbEntity
  8
Make2D$可见线$普通线
100
AcDbCircle
 10
22.80636977374383
 20
460.4025869759013
 30
0.0
 40
10.30097959377481
100
AcDbArc
 50
258.315215990509
 51
260.7448710640884
  0
ARC
  5
1BD
330
1F
100
AcDbEntity
  8
Make2D$可见线$普通线
100
AcDbCircle
 10
18.80084944492846
 20
462.17004879179
 30
0.0
 40
12.00932981615387
100
AcDbArc
 50
276.8965792378922
 51
279.1962566807187
  0
LINE
  5
1BE
330
1F
100
AcDbEntity
  8
Make2D$可见线$普通线
100
AcDbLine
 10
20.19562878939306
 20
450.1021753372937
 30
0.0
 11
20.24290055621327
 21
450.2476123283147
 31
0.0
  0
ARC
  5
1BF
330
1F
100
AcDbEntity
  8
Make2D$可见线$普通线
100
AcDbCircle
 10
22.36626481749971
 20
460.448415254402
 30
0.0
 40
10.57148717962044
100
AcDbArc
 50
258.1512235588609
 51
260.5176435166166
  0
LINE
  5
1C0
330
1F
100
AcDbEntity
  8
Make2D$可见线$普通线
100
AcDbLine
 10
20.62467696240461
 20
450.0213728678062
 30
0.0
 11
20.72014083970192
 21
450.3150783922069
 31
0.0
  0
ARC
  5
1C1
330
1F
100
AcDbEntity
  8
Make2D$可见线$普通线
100
AcDbCircle
 10
19.20720019574014
 20
462.0095233271297
 30
0.0
 40
12.0716606902038
100
AcDbArc
 50
276.7433336257884
 51
279.0280104075968
  0
LINE
  5
1C2
330
1F
100
AcDbEntity
  8
Make2D$可见线$普通线
100
AcDbLine
 10
21.14965377211212
 20
450.2357058080454
 30
0.0
 11
21.10145261365511
 21
450.087409437528
 31
0.0
  0
ARC
  5
1C3
330
1F
100
AcDbEntity
  8
Make2D$可见线$普通线
100
AcDbCircle
 10
22.68934358857561
 20
460.5211904317891
 30
0.0
 40
10.49443875149823
100
AcDbArc
 50
262.9205518926162
 51
265.3388596538347
  0
ARC
  5
1C4
330
1F
100
AcDbEntity
  8
Make2D$可见线$普通线
100
AcDbCircle
 10
19.24266190072338
 20
462.0699793337819
 30
0.0
 40
12.15546349716385
100
AcDbArc
 50
277.9113947885645
 51
280.2035537481862
  0
LINE
  5
1C5
330
1F
100
AcDbEntity
  8
Make2D$可见线$普通线
100
AcDbLine
 10
20.87632582880539
 20
449.9088910194663
 30
0.0
 11
20.91575852411665
 21
450.0302102114244
 31
0.0
  0
ARC
  5
1C6
330
1F
100
AcDbEntity
  8
Make2D$可见线$普通线
100
AcDbCircle
 10
22.25078258687026
 20
460.5689305103377
 30
0.0
 40
10.74828234308755
100
AcDbArc
 50
262.6530777840531
 51
265.0116633368037
  0
LINE
  5
1C7
330
1F
100
AcDbEntity
  8
Make2D$可见线$普通线
100
AcDbLine
 10
21.31618770890427
 20
449.8613581551861
 30
0.0
 11
21.39595101575003
 21
450.1067590809429
 31
0.0
  0
ARC
  5
1C8
330
1F
100
AcDbEntity
  8
Make2D$可见线$普通线
100
AcDbCircle
 10
19.65251530704236
 20
461.9259370930774
 30
0.0
 40
12.17874668466872
100
AcDbArc
 50
277.8514143949904
 51
280.1379111789921
  0
LINE
  5
1C9
330
1F
100
AcDbEntity
  8
Make2D$可见线$普通线
100
AcDbLine
 10
21.8365388234661
 20
450.0614596158669
 30
0.0
 11
21.7961952647583
 21
449.9373380486429
 31
0.0
  0
ARC
  5
1CA
330
1F
100
AcDbEntity
  8
Make2D$可见线$普通线
100
AcDbCircle
 10
19.68627624345874
 20
461.991433147585
 30
0.0
 40
12.26151149222308
100
AcDbArc
 50
279.031643505282
 51
281.3273871339172
  0
LINE
  5
1CB
330
1F
100
AcDbEntity
  8
Make2D$可见线$普通线
100
AcDbLine
 10
21.5793433995336
 20
449.7842783661096
 30
0.0
 11
21.61108739770347
 21
449.8819424029495
 31
0.0
  0
ARC
  5
1CC
330
1F
100
AcDbEntity
  8
Make2D$可见线$普通线
100
AcDbCircle
 10
22.13102647169463
 20
460.7402199576004
 30
0.0
 40
10.96982271362067
100
AcDbArc
 50
267.1173234174676
 51
269.4738607936451
  0
LINE
  5
1CD
330
1F
100
AcDbEntity
  8
Make2D$可见线$普通线
100
AcDbLine
 10
22.03029352504382
 20
449.7708597555774
 30
0.0
 11
22.09461920101704
 21
449.9687650463434
 31
0.0
  0
ARC
  5
1CE
330
1F
100
AcDbEntity
  8
Make2D$可见线$普通线
100
AcDbCircle
 10
20.09926288498241
 20
461.8642734213255
 30
0.0
 40
12.24661314093654
100
AcDbArc
 50
279.0721881100462
 51
281.3716374985744
  0
LINE
  5
1CF
330
1F
100
AcDbEntity
  8
Make2D$可见线$普通线
100
AcDbLine
 10
22.54655010145586
 20
449.9583639018805
 30
0.0
 11
22.51395286631598
 21
449.8580747840462
 31
0.0
  0
ARC
  5
1D0
330
1F
100
AcDbEntity
  8
Make2D$可见线$普通线
100
AcDbCircle
 10
22.56748800552304
 20
460.6915430770063
 30
0.0
 40
10.73319959756561
100
AcDbArc
 50
267.47492266058
 51
269.888229573589
  0
ARC
  5
1D1
330
1F
100
AcDbEntity
  8
Make2D$可见线$普通线
100
AcDbCircle
 10
20.13090024251612
 20
461.9351609221058
 30
0.0
 40
12.32880024521501
100
AcDbArc
 50
280.2713647263916
 51
282.5820795589543
  0
LINE
  5
1D2
330
1F
100
AcDbEntity
  8
Make2D$可见线$普通线
100
AcDbLine
 10
22.30516616308353
 20
449.7298284937849
 30
0.0
 11
22.32925437095392
 21
449.8039386171444
 31
0.0
  0
ARC
  5
1D3
330
1F
100
AcDbEntity
  8
Make2D$可见线$普通线
100
AcDbCircle
 10
21.9994822556416
 20
460.9617546987572
 30
0.0
 40
11.23608512450905
100
AcDbArc
 50
271.5589557048711
 51
273.9202577015499
  0
LINE
  5
1D4
330
1F
100
AcDbEntity
  8
Make2D$可见线$普通线
100
AcDbLine
 10
22.76767127448235
 20
449.7519601173857
 30
0.0
 11
22.81658133864195
 21
449.9024375173115
 31
0.0
  0
ARC
  5
1D5
330
1F
100
AcDbEntity
  8
Make2D$可见线$普通线
100
AcDbCircle
 10
20.54656424879289
 20
461.8256063813052
 30
0.0
 40
12.27624741221129
100
AcDbArc
 50
280.4237710181111
 51
282.7480318212005
  0
LINE
  5
1D6
330
1F
100
AcDbEntity
  8
Make2D$可见线$普通线
100
AcDbLine
 10
23.2803277300153
 20
449.9283880805464
 30
0.0
 11
23.25548925716279
 21
449.8519696812523
 31
0.0
  0
ARC
  5
1D7
330
1F
100
AcDbEntity
  8
Make2D$可见线$普通线
100
AcDbCircle
 10
22.43305434605858
 20
460.9128471884937
 30
0.0
 40
11.01708736832599
100
AcDbArc
 50
271.9949845257071
 51
274.4107093014001
  0
ARC
  5
1D8
330
1F
100
AcDbEntity
  8
Make2D$可见线$普通线
100
AcDbCircle
 10
21.84869621628506
 20
461.232435704326
 30
0.0
 40
11.54733146989905
100
AcDbArc
 50
275.994781725882
 51
278.3692362316634
  0
LINE
  5
1D9
330
1F
100
AcDbEntity
  8
Make2D$可见线$普通线
100
AcDbLine
 10
23.52943154125347
 20
449.8080760792475
 30
0.0
 11
23.5626920181533
 21
449.9104057361427
 31
0.0
  0
ARC
  5
1DA
330
1F
100
AcDbEntity
  8
Make2D$可见线$普通线
100
AcDbCircle
 10
20.99798600680195
 20
461.7904899379988
 30
0.0
 40
12.24689586696519
100
AcDbArc
 50
281.9290917019562
 51
283.7284541902166
  0
ARC
  5
1DB
330
1F
100
AcDbEntity
  8
Make2D$可见线$普通线
100
AcDbCircle
 10
22.28355506357672
 20
461.1424710602735
 30
0.0
 40
11.30466641675502
100
AcDbArc
 50
276.4970025170849
 51
277.56915746895
  0
ARC
  5
1DC
330
1F
100
AcDbEntity
  8
Make2D$可见线$普通线
100
AcDbCircle
 10
20.57555605999072
 20
461.9023032203635
 30
0.0
 40
12.3583407666488
100
AcDbArc
 50
281.649569670432
 51
283.9874946891163
  0
LINE
  5
1DD
330
1F
100
AcDbEntity
  8
Make2D$可见线$普通线
100
AcDbLine
 10
23.0546751004072
 20
449.7482518409959
 30
0.0
 11
23.07101808756588
 21
449.7985329080375
 31
0.0
  0
LINE
  5
1DE
330
1F
100
AcDbEntity
  8
Make2D$可见线$普通线
100
AcDbLine
 10
19.67834977152569
 20
450.2841240132315
 30
0.0
 11
19.63154708891429
 21
450.140130213387
 31
0.0
  0
ARC
  5
1DF
330
1F
100
AcDbEntity
  8
Make2D$可见线$普通线
100
AcDbCircle
 10
22.43277965820026
 20
460.3784130840232
 30
0.0
 40
10.46334343531317
100
AcDbArc
 50
252.3651024055704
 51
254.7372635620131
  0
ARC
  5
1E0
330
1F
100
AcDbEntity
  8
Make2D$可见线$普通线
100
AcDbCircle
 10
18.50306647305491
 20
461.9846960849008
 30
0.0
 40
11.60282215625907
100
AcDbArc
 50
271.4700988741083
 51
273.7548408571624
  0
LINE
  5
1E1
330
1F
100
AcDbEntity
  8
Make2D$可见线$普通线
100
AcDbLine
 10
18.75451043935738
 20
450.2434631448478
 30
0.0
 11
18.80073978201435
 21
450.3856929988201
 31
0.0
  0
ARC
  5
1E2
330
1F
100
AcDbEntity
  8
Make2D$可见线$普通线
100
AcDbCircle
 10
21.99680675664852
 20
460.4379042895276
 30
0.0
 40
10.69762196291587
100
AcDbArc
 50
252.3569675309955
 51
254.677133879952
  0
LINE
  5
1E3
330
1F
100
AcDbEntity
  8
Make2D$可见线$普通线
100
AcDbLine
 10
19.16987485785543
 20
450.120561041334
 30
0.0
 11
19.26290555797234
 21
450.4067806181722
 31
0.0
  0
ARC
  5
1E4
330
1F
100
AcDbEntity
  8
Make2D$可见线$普通线
100
AcDbCircle
 10
18.90544351907624
 20
461.8146023747562
 30
0.0
 40
11.69703067623213
100
AcDbArc
 50
271.2953792207576
 51
273.5589746118462
  0
LINE
  5
1E5
330
1F
100
AcDbEntity
  8
Make2D$可见线$普通线
100
AcDbLine
 10
20.34261303474827
 20
450.0402793055241
 30
0.0
 11
20.30364942581579
 21
449.9204033114017
 31
0.0
  0
ARC
  5
1E6
330
1F
100
AcDbEntity
  8
Make2D$可见线$普通线
100
AcDbCircle
 10
22.31195188975593
 20
460.4353555073391
 30
0.0
 40
10.5799765957862
100
AcDbArc
 50
256.9140026045189
 51
259.27249501469
  0
ARC
  5
1E7
330
1F
100
AcDbEntity
  8
Make2D$可见线$普通线
100
AcDbCircle
 10
18.94883971218055
 20
461.858071273151
 30
0.0
 40
11.76779743598682
100
AcDbArc
 50
272.4492682447685
 51
274.7167534067277
  0
LINE
  5
1E8
330
1F
100
AcDbEntity
  8
Make2D$可见线$普通线
100
AcDbLine
 10
19.41336306945584
 20
449.9829720062229
 30
0.0
 11
19.45173391088392
 21
450.1010242833951
 31
0.0
  0
ARC
  5
1E9
330
1F
100
AcDbEntity
  8
Make2D$可见线$普通线
100
AcDbCircle
 10
21.87721120259633
 20
460.4982299272718
 30
0.0
 40
10.80005540584682
100
AcDbArc
 50
256.8128264083643
 51
259.1227168445187
  0
LINE
  5
1EA
330
1F
100
AcDbEntity
  8
Make2D$可见线$普通线
100
AcDbLine
 10
19.8391748943732
 20
449.8922125420453
 30
0.0
 11
19.91650480095157
 21
450.1301268338871
 31
0.0
  0
ARC
  5
1EB
330
1F
100
AcDbEntity
  8
Make2D$可见线$普通线
100
AcDbCircle
 10
19.35540342645295
 20
461.7033545721165
 30
0.0
 40
11.82104525360118
100
AcDbArc
 50
272.3454614834389
 51
274.6010254515018
  0
LINE
  5
1EC
330
1F
100
AcDbEntity
  8
Make2D$可见线$普通线
100
AcDbLine
 10
21.02904732909494
 20
449.8646463078901
 30
0.0
 11
20.99774799807619
 21
449.7683503403542
 31
0.0
  0
ARC
  5
1ED
330
1F
100
AcDbEntity
  8
Make2D$可见线$普通线
100
AcDbCircle
 10
22.1965924843965
 20
460.5427034929469
 30
0.0
 40
10.74169758171444
100
AcDbArc
 50
261.4101679704037
 51
263.7600334628534
  0
ARC
  5
1EE
330
1F
100
AcDbEntity
  8
Make2D$可见线$普通线
100
AcDbCircle
 10
19.39790727094454
 20
461.751691183613
 30
0.0
 40
11.89032685634633
100
AcDbArc
 50
273.5038002670406
 51
275.7647126164624
  0
LINE
  5
1EF
330
1F
100
AcDbEntity
  8
Make2D$可见线$普通线
100
AcDbLine
 10
20.09385559359507
 20
449.7890584737555
 30
0.0
 11
20.12458153928307
 21
449.8835903558274
 31
0.0
  0
ARC
  5
1F0
330
1F
100
AcDbEntity
  8
Make2D$可见线$普通线
100
AcDbCircle
 10
21.76317395216225
 20
460.6080100108726
 30
0.0
 40
10.94697840249707
100
AcDbArc
 50
261.228674478379
 51
263.532946838818
  0
LINE
  5
1F1
330
1F
100
AcDbEntity
  8
Make2D$可见线$普通线
100
AcDbLine
 10
20.53019540620397
 20
449.7306895664826
 30
0.0
 11
20.59221390989922
 21
449.9214965781613
 31
0.0
  0
ARC
  5
1F2
330
1F
100
AcDbEntity
  8
Make2D$可见线$普通线
100
AcDbCircle
 10
19.80842435476296
 20
461.6124901739963
 30
0.0
 40
11.90370274861613
100
AcDbArc
 50
273.476213901928
 51
275.7341073965023
  0
LINE
  5
1F3
330
1F
100
AcDbEntity
  8
Make2D$可见线$普通线
100
AcDbLine
 10
21.73787030872563
 20
449.7578946582848
 30
0.0
 11
21.71417546134501
 21
449.6849947533971
 31
0.0
  0
ARC
  5
1F4
330
1F
100
AcDbEntity
  8
Make2D$可见线$普通线
100
AcDbCircle
 10
22.07907105335263
 20
460.7006960522939
 30
0.0
 40
10.94811948678233
100
AcDbArc
 50
265.8673339474234
 51
268.2140742374719
  0
ARC
  5
1F5
330
1F
100
AcDbEntity
  8
Make2D$可见线$普通线
100
AcDbCircle
 10
19.84976343249335
 20
461.6659621886059
 30
0.0
 40
11.97187614075956
100
AcDbArc
 50
274.6451014375221
 51
276.9099113931703
  0
LINE
  5
1F6
330
1F
100
AcDbEntity
  8
Make2D$可见线$普通线
100
AcDbLine
 10
20.79610673190217
 20
449.6620878035114
 30
0.0
 11
20.81928825203431
 21
449.7334083984912
 31
0.0
  0
ARC
  5
1F7
330
1F
100
AcDbEntity
  8
Make2D$可见线$普通线
100
AcDbCircle
 10
21.64732083300938
 20
460.7676794009134
 30
0.0
 40
11.13816547615487
100
AcDbArc
 50
265.6170003688727
 51
267.9207812731011
  0
LINE
  5
1F8
330
1F
100
AcDbEntity
  8
Make2D$可见线$普通线
100
AcDbLine
 10
21.24321428622449
 20
449.636847083739
 30
0.0
 11
21.29008273837627
 21
449.7810432310866
 31
0.0
  0
ARC
  5
1F9
330
1F
100
AcDbEntity
  8
Make2D$可见线$普通线
100
AcDbCircle
 10
20.26398873913645
 20
461.5426886689638
 30
0.0
 40
11.94604313254137
100
AcDbArc
 50
274.7018507960458
 51
276.9726034417547
  0
LINE
  5
1FA
330
1F
100
AcDbEntity
  8
Make2D$可见线$普通线
100
AcDbLine
 10
22.46966235359304
 20
449.721809961857
 30
0.0
 11
22.45362908098156
 21
449.6724817670118
 31
0.0
  0
ARC
  5
1FB
330
1F
100
AcDbEntity
  8
Make2D$可见线$普通线
100
AcDbCircle
 10
21.95188812121743
 20
460.9090033246241
 30
0.0
 40
11.1991689643317
100
AcDbArc
 50
270.2999057708917
 51
272.6499160087077
  0
ARC
  5
1FC
330
1F
100
AcDbEntity
  8
Make2D$可见线$普通线
100
AcDbCircle
 10
20.30383302677836
 20
461.6016276424784
 30
0.0
 40
12.01348569736843
100
AcDbArc
 50
275.8878317779051
 51
278.167256705604
  0
LINE
  5
1FD
330
1F
100
AcDbEntity
  8
Make2D$可见线$普通线
100
AcDbLine
 10
21.52056516772706
 20
449.6034404210727
 30
0.0
 11
21.53619181400614
 21
449.6515175835535
 31
0.0
  0
ARC
  5
1FE
330
1F
100
AcDbEntity
  8
Make2D$可见线$普通线
100
AcDbCircle
 10
21.52233391359058
 20
460.9771222990095
 30
0.0
 40
11.37368201546749
100
AcDbArc
 50
269.9910898095022
 51
272.3003818404045
  0
LINE
  5
1FF
330
1F
100
AcDbEntity
  8
Make2D$可见线$普通线
100
AcDbLine
 10
21.97885589794399
 20
449.6126060195205
 30
0.0
 11
22.01050814686331
 21
449.7099877793076
 31
0.0
  0
ARC
  5
200
330
1F
100
AcDbEntity
  8
Make2D$可见线$普通线
100
AcDbCircle
 10
20.72147703283389
 20
461.4949980749923
 30
0.0
 40
11.94873393169196
100
AcDbArc
 50
276.0404835479393
 51
278.3352710018078
  0
LINE
  5
201
330
1F
100
AcDbEntity
  8
Make2D$可见线$普通线
100
AcDbLine
 10
23.22541473948544
 20
449.7594419918645
 30
0.0
 11
23.21722871301637
 21
449.7342567462671
 31
0.0
  0
ARC
  5
202
330
1F
100
AcDbEntity
  8
Make2D$可见线$普通线
100
AcDbCircle
 10
21.80760894378572
 20
461.1667289347752
 30
0.0
 40
11.49505844579406
100
AcDbArc
 50
274.7238512809166
 51
277.0849295221864
  0
ARC
  5
203
330
1F
100
AcDbEntity
  8
Make2D$可见线$普通线
100
AcDbCircle
 10
20.75941680820758
 20
461.5598113205119
 30
0.0
 40
12.01584200035052
100
AcDbArc
 50
277.2508884054787
 51
279.556392019804
  0
LINE
  5
204
330
1F
100
AcDbEntity
  8
Make2D$可见线$普通线
100
AcDbLine
 10
22.26804443451528
 20
449.615619255019
 30
0.0
 11
22.27598850503603
 21
449.6400600955171
 31
0.0
  0
LINE
  5
205
330
1F
100
AcDbEntity
  8
Make2D$可见线$普通线
100
AcDbLine
 10
22.73814124276313
 20
449.6611076012614
 30
0.0
 11
22.75426591873156
 21
449.7107170089787
 31
0.0
  0
ARC
  5
206
330
1F
100
AcDbEntity
  8
Make2D$可见线$普通线
100
AcDbCircle
 10
21.3808932748082
 20
461.2356729975478
 30
0.0
 40
11.65387000783118
100
AcDbArc
 50
274.3658663744881
 51
276.688032204474
  0
ARC
  5
207
330
1F
100
AcDbEntity
  8
Make2D$可见线$普通线
100
AcDbCircle
 10
21.18009994824672
 20
461.470895166887
 30
0.0
 40
11.91211883002439
100
AcDbArc
 50
277.5155139253654
 51
279.846729978547
  0
ARC
  5
208
330
1F
100
AcDbEntity
  8
Make2D$可见线$普通线
100
AcDbCircle
 10
21.63963060514283
 20
461.4676154048146
 30
0.0
 40
11.83142282547206
100
AcDbArc
 50
279.1574417911802
 51
281.3988762091681
  0
ARC
  5
209
330
1F
100
AcDbEntity
  8
Make2D$可见线$普通线
100
AcDbCircle
 10
21.21561418542341
 20
461.5420815160642
 30
0.0
 40
11.97932900658882
100
AcDbArc
 50
278.7589045299013
 51
281.1033082830683
  0
SPLINE
  5
20A
330
1F
100
AcDbEntity
  8
Make2D$可见线$普通线
100
AcDbSpline
210
0.0
220
0.0
230
1.0
 70
    24
 71
     3
 72
     9
 73
     5
 74
     0
 42
0.000000001
 43
0.0000000001
 12
1.0
 22
0.0
 32
0.0
 13
1.0
 23
0.0
 33
0.0
 40
0.3333333333217384
 40
0.3333333333217384
 40
0.3333333333217384
 40
0.3333333333217384
 40
0.6666666666667
 40
1.0
 40
1.0
 40
1.0
 40
1.0
 10
23.03915194082341
 20
449.7004930671746
 30
0.0
 10
23.03904554431622
 20
449.7001657261652
 30
0.0
 10
23.03904554431625
 20
449.7001657261647
 30
0.0
 10
23.03947113034516
 20
449.7014750902015
 30
0.0
 10
23.03979033607379
 20
449.7024571630918
 30
0.0
  0
ARC
  5
20B
330
1F
100
AcDbEntity
  8
Make2D$可见线$普通线
100
AcDbCircle
 10
21.39416002482659
 20
460.5695108935898
 30
0.0
 40
10.97967450046036
100
AcDbArc
 50
255.553026454333
 51
257.8203856820462
  0
LINE
  5
20C
330
1F
100
AcDbEntity
  8
Make2D$可见线$普通线
100
AcDbLine
 10
19.07770100521569
 20
449.8369776536449
 30
0.0
 11
19.13821566307788
 21
450.0231579118184
 31
0.0
  0
ARC
  5
20D
330
1F
100
AcDbEntity
  8
Make2D$可见线$普通线
100
AcDbCircle
 10
19.48265239545315
 20
461.4468207444928
 30
0.0
 40
11.61690329746116
100
AcDbArc
 50
268.0023327663737
 51
270.2372239867896
  0
LINE
  5
20E
330
1F
100
AcDbEntity
  8
Make2D$可见线$普通线
100
AcDbLine
 10
19.56118609112335
 20
449.9236565655677
 30
0.0
 11
19.53075018318316
 21
449.8300170177623
 31
0.0
  0
ARC
  5
20F
330
1F
100
AcDbEntity
  8
Make2D$可见线$普通线
100
AcDbCircle
 10
21.82390726023554
 20
460.4910150137187
 30
0.0
 40
10.80689463541007
100
AcDbArc
 50
255.6102565299305
 51
257.9141221556387
  0
ARC
  5
210
330
1F
100
AcDbEntity
  8
Make2D$可见线$普通线
100
AcDbCircle
 10
19.07535215348142
 20
461.5964624765937
 30
0.0
 40
11.57347529352947
100
AcDbArc
 50
268.0670968670079
 51
270.3112143418791
  0
LINE
  5
211
330
1F
100
AcDbEntity
  8
Make2D$可见线$普通线
100
AcDbLine
 10
18.65490812330461
 20
449.9370252408336
 30
0.0
 11
18.68498895663672
 21
450.0295723610749
 31
0.0
  0
LINE
  5
212
330
1F
100
AcDbEntity
  8
Make2D$可见线$普通线
100
AcDbLine
 10
19.76835295366391
 20
449.6743207506855
 30
0.0
 11
19.81384759702478
 21
449.814290218343
 31
0.0
  0
ARC
  5
213
330
1F
100
AcDbEntity
  8
Make2D$可见线$普通线
100
AcDbCircle
 10
21.28080545248395
 20
460.6693316558997
 30
0.0
 40
11.09854843513173
100
AcDbArc
 50
259.9039753047125
 51
262.1676579891032
  0
ARC
  5
214
330
1F
100
AcDbEntity
  8
Make2D$可见线$普通线
100
AcDbCircle
 10
19.94166707869418
 20
461.3478190496029
 30
0.0
 40
11.6747848083278
100
AcDbArc
 50
269.1494033657313
 51
271.3874891751009
  0
LINE
  5
215
330
1F
100
AcDbEntity
  8
Make2D$可见线$普通线
100
AcDbLine
 10
20.24727560979463
 20
449.7469628262003
 30
0.0
 11
20.22435900657399
 21
449.6764572783839
 31
0.0
  0
ARC
  5
216
330
1F
100
AcDbEntity
  8
Make2D$可见线$普通线
100
AcDbCircle
 10
21.70934837110895
 20
460.588013967842
 30
0.0
 40
10.93919771350122
100
AcDbArc
 50
260.0216505818752
 51
262.3191779227463
  0
ARC
  5
217
330
1F
100
AcDbEntity
  8
Make2D$可见线$普通线
100
AcDbCircle
 10
19.53015815376352
 20
461.4827389458995
 30
0.0
 40
11.67189682133223
100
AcDbArc
 50
269.1540273483245
 51
271.3927306612549
  0
LINE
  5
218
330
1F
100
AcDbEntity
  8
Make2D$可见线$普通线
100
AcDbLine
 10
19.33524746175436
 20
449.7426404151043
 30
0.0
 11
19.35782876364641
 21
449.8121143701055
 31
0.0
  0
LINE
  5
219
330
1F
100
AcDbEntity
  8
Make2D$可见线$普通线
100
AcDbLine
 10
20.48055543819336
 20
449.5779665339504
 30
0.0
 11
20.51110637250241
 21
449.671959973524
 31
0.0
  0
ARC
  5
21A
330
1F
100
AcDbEntity
  8
Make2D$可见线$普通线
100
AcDbCircle
 10
21.16785114629386
 20
460.8182916374288
 30
0.0
 40
11.26131803219596
100
AcDbArc
 50
264.2363125469874
 51
266.5009751780867
  0
ARC
  5
21B
330
1F
100
AcDbEntity
  8
Make2D$可见线$普通线
100
AcDbCircle
 10
20.40412788977305
 20
461.2691102978972
 30
0.0
 40
11.69139357302754
100
AcDbArc
 50
270.37454963126
 51
272.6259605769065
  0
LINE
  5
21C
330
1F
100
AcDbEntity
  8
Make2D$可见线$普通线
100
AcDbLine
 10
20.95519060217524
 20
449.6374176500634
 30
0.0
 11
20.93977627147478
 21
449.5899937007135
 31
0.0
  0
ARC
  5
21D
330
1F
100
AcDbEntity
  8
Make2D$可见线$普通线
100
AcDbCircle
 10
21.59498859746105
 20
460.7347078453459
 30
0.0
 40
11.11571820230634
100
AcDbArc
 50
264.404256200897
 51
266.700348541494
  0
ARC
  5
21E
330
1F
100
AcDbEntity
  8
Make2D$可见线$普通线
100
AcDbCircle
 10
19.98854540528909
 20
461.3889100995083
 30
0.0
 40
11.72859711215558
100
AcDbArc
 50
270.3103033950143
 51
272.5536261793288
  0
LINE
  5
21F
330
1F
100
AcDbEntity
  8
Make2D$可见线$普通线
100
AcDbLine
 10
20.03692486061627
 20
449.6139045699171
 30
0.0
 11
20.05206501776757
 21
449.6604849930375
 31
0.0
  0
LINE
  5
220
330
1F
100
AcDbEntity
  8
Make2D$可见线$普通线
100
AcDbLine
 10
21.23036067022111
 20
449.5973014656782
 30
0.0
 11
21.21489527039282
 21
449.5497203963223
 31
0.0
  0
ARC
  5
221
330
1F
100
AcDbEntity
  8
Make2D$可见线$普通线
100
AcDbCircle
 10
20.86963516489655
 20
461.2116748212345
 30
0.0
 40
11.66706413581306
100
AcDbArc
 50
271.695785251314
 51
273.971265608123
  0
LINE
  5
222
330
1F
100
AcDbEntity
  8
Make2D$可见线$普通线
100
AcDbLine
 10
21.6854684445226
 20
449.5966743366294
 30
0.0
 11
21.67765142257286
 21
449.5726243755793
 31
0.0
  0
ARC
  5
223
330
1F
100
AcDbEntity
  8
Make2D$可见线$普通线
100
AcDbCircle
 10
21.47353281792806
 20
460.9311651198959
 30
0.0
 40
11.33647202730075
100
AcDbArc
 50
268.7708868858147
 51
271.0712084282566
  0
ARC
  5
224
330
1F
100
AcDbEntity
  8
Make2D$可见线$普通线
100
AcDbCircle
 10
20.45012487230066
 20
461.3156763641524
 30
0.0
 40
11.74432110262182
100
AcDbArc
 50
271.5510431195754
 51
273.8092596400881
  0
ARC
  5
225
330
1F
100
AcDbEntity
  8
Make2D$可见线$普通线
100
AcDbCircle
 10
21.04813522785274
 20
461.0166424637857
 30
0.0
 40
11.46813457424823
100
AcDbArc
 50
268.5621158915757
 51
270.8331767746222
  0
LINE
  5
226
330
1F
100
AcDbEntity
  8
Make2D$可见线$普通线
100
AcDbLine
 10
20.76036328778329
 20
449.5521190143101
 30
0.0
 11
20.76801431921859
 21
449.5756582866098
 31
0.0
  0
LINE
  5
227
330
1F
100
AcDbEntity
  8
Make2D$可见线$普通线
100
AcDbLine
 10
22.43902433709411
 20
449.6275486039917
 30
0.0
 11
22.4383979077922
 21
449.6256213226811
 31
0.0
  0
ARC
  5
228
330
1F
100
AcDbEntity
  8
Make2D$可见线$普通线
100
AcDbCircle
 10
21.33768749567692
 20
461.1769100096814
 30
0.0
 40
11.601753820759
100
AcDbArc
 50
273.1357740061713
 51
275.4472033449103
  0
ARC
  5
229
330
1F
100
AcDbEntity
  8
Make2D$可见线$普通线
100
AcDbCircle
 10
20.9144364812981
 20
461.2640986982804
 30
0.0
 40
11.7194161614784
100
AcDbArc
 50
272.8949679172153
 51
275.1790493881527
  0
ARC
  5
22A
330
1F
100
AcDbEntity
  8
Make2D$可见线$普通线
100
AcDbCircle
 10
21.51388886131057
 20
449.5561427402587
 30
0.0
 40
0.0083298288555792
100
AcDbArc
 50
155.1834069663182
 51
168.8048885780784
  0
LINE
  5
22B
330
1F
100
AcDbEntity
  8
Make2D$可见线$普通线
100
AcDbLine
 10
19.05906663444776
 20
449.7796468831465
 30
0.0
 11
19.02923550959446
 21
449.6878680195948
 31
0.0
  0
ARC
  5
22C
330
1F
100
AcDbEntity
  8
Make2D$可见线$普通线
100
AcDbCircle
 10
20.0598245902596
 20
461.1324806383017
 30
0.0
 40
11.4909212792296
100
AcDbArc
 50
264.8543851705612
 51
267.0794371938318
  0
LINE
  5
22D
330
1F
100
AcDbEntity
  8
Make2D$可见线$普通线
100
AcDbLine
 10
19.48934775776749
 20
449.7026377261166
 30
0.0
 11
19.47434645593577
 21
449.6564845072602
 31
0.0
  0
ARC
  5
22E
330
1F
100
AcDbEntity
  8
Make2D$可见线$普通线
100
AcDbCircle
 10
21.22752089437491
 20
460.6550913036367
 30
0.0
 40
11.08952141530717
100
AcDbArc
 50
258.7236806989306
 51
260.9822673806184
  0
ARC
  5
22F
330
1F
100
AcDbEntity
  8
Make2D$可见线$普通线
100
AcDbCircle
 10
19.64717451476069
 20
461.2635428533058
 30
0.0
 40
11.49894506171351
100
AcDbArc
 50
264.8449563268371
 51
267.0683565550331
  0
ARC
  5
230
330
1F
100
AcDbEntity
  8
Make2D$可见线$普通线
100
AcDbCircle
 10
20.80363952845828
 20
460.7513156441467
 30
0.0
 40
11.20483748045293
100
AcDbArc
 50
258.6533525920254
 51
260.8882515944946
  0
LINE
  5
231
330
1F
100
AcDbEntity
  8
Make2D$可见线$普通线
100
AcDbLine
 10
18.59914996928558
 20
449.7654789101122
 30
0.0
 11
18.61398112657139
 21
449.8111086598731
 31
0.0
  0
LINE
  5
232
330
1F
100
AcDbEntity
  8
Make2D$可见线$普通线
100
AcDbLine
 10
19.74085037617459
 20
449.5897059291237
 30
0.0
 11
19.75587116574344
 21
449.6359191042236
 31
0.0
  0
ARC
  5
233
330
1F
100
AcDbEntity
  8
Make2D$可见线$普通线
100
AcDbCircle
 10
20.69278625406505
 20
460.8903085783077
 30
0.0
 40
11.34062617981732
100
AcDbArc
 50
262.9475986866091
 51
265.1849076558956
  0
ARC
  5
234
330
1F
100
AcDbEntity
  8
Make2D$可见线$普通线
100
AcDbCircle
 10
20.52718841666794
 20
461.0444360092436
 30
0.0
 40
11.48168840904197
100
AcDbArc
 50
266.0729516602164
 51
268.3122254917471
  0
LINE
  5
235
330
1F
100
AcDbEntity
  8
Make2D$可见线$普通线
100
AcDbLine
 10
20.19658396388155
 20
449.5910041864853
 30
0.0
 11
20.18901868147498
 21
449.5677287309111
 31
0.0
  0
ARC
  5
236
330
1F
100
AcDbEntity
  8
Make2D$可见线$普通线
100
AcDbCircle
 10
21.11541273998809
 20
460.7913399857849
 30
0.0
 40
11.23796104001403
100
AcDbArc
 50
263.0514739057529
 51
265.3101953049261
  0
ARC
  5
237
330
1F
100
AcDbEntity
  8
Make2D$可见线$普通线
100
AcDbCircle
 10
20.1102584542165
 20
461.1610313489078
 30
0.0
 40
11.53055950952957
100
AcDbArc
 50
266.0096983125604
 51
268.2387590117757
  0
LINE
  5
238
330
1F
100
AcDbEntity
  8
Make2D$可见线$普通线
100
AcDbLine
 10
19.30041761913506
 20
449.6354824252824
 30
0.0
 11
19.30787428850735
 21
449.6584237204863
 31
0.0
  0
LINE
  5
239
330
1F
100
AcDbEntity
  8
Make2D$可见线$普通线
100
AcDbLine
 10
20.92573147750522
 20
449.546783287575
 30
0.0
 11
20.92512898368611
 21
449.5449296465112
 31
0.0
  0
ARC
  5
23A
330
1F
100
AcDbEntity
  8
Make2D$可见线$普通线
100
AcDbCircle
 10
20.99851363841352
 20
460.9769029162171
 30
0.0
 40
11.43035134928126
100
AcDbArc
 50
267.3711757976258
 51
269.6351696727363
  0
ARC
  5
23B
330
1F
100
AcDbEntity
  8
Make2D$可见线$普通线
100
AcDbCircle
 10
20.57733391363984
 20
461.0784069759148
 30
0.0
 40
11.52028753118054
100
AcDbArc
 50
267.2426117169389
 51
269.4873304224097
  0
SPLINE
  5
23C
330
1F
100
AcDbEntity
  8
Make2D$可见线$普通线
100
AcDbSpline
210
0.0
220
0.0
230
1.0
 70
    24
 71
     3
 72
     9
 73
     5
 74
     0
 42
0.000000001
 43
0.0000000001
 12
1.0
 22
0.0
 32
0.0
 13
1.0
 23
0.0
 33
0.0
 40
0.3333333333083598
 40
0.3333333333083598
 40
0.3333333333083598
 40
0.3333333333083598
 40
0.6666666666667
 40
1.0
 40
1.0
 40
1.0
 40
1.0
 10
20.02253637190767
 20
449.5696367406462
 30
0.0
 10
20.02243772709055
 20
449.5693332485994
 30
0.0
 10
20.02243772708921
 20
449.5693332486
 30
0.0
 10
20.02283230635263
 20
449.5705472167859
 30
0.0
 10
20.02312825370538
 20
449.5714577326284
 30
0.0
  0
ARC
  5
23D
330
1F
100
AcDbEntity
  8
Make2D$可见线$普通线
100
AcDbCircle
 10
20.22225366282072
 20
460.9824739844482
 30
0.0
 40
11.3769140486007
100
AcDbArc
 50
261.7290475223307
 51
263.949558347731
  0
ARC
  5
23E
330
1F
100
AcDbEntity
  8
Make2D$可见线$普通线
100
AcDbCircle
 10
18.58967470474173
 20
449.7215930001079
 30
0.0
 40
0.0046501343507465
100
AcDbArc
 50
150.3565596908912
 51
173.631735853824
  0
LINE
  5
23F
330
1F
100
AcDbEntity
  8
Make2D$可见线$普通线
100
AcDbLine
 10
19.46067557678657
 20
449.6144244857864
 30
0.0
 11
19.46008907159141
 21
449.6126200355502
 31
0.0
  0
ARC
  5
240
330
1F
100
AcDbEntity
  8
Make2D$可见线$普通线
100
AcDbCircle
 10
20.64045312412185
 20
460.8689707018854
 30
0.0
 40
11.31621339457258
100
AcDbArc
 50
261.782852872144
 51
264.015725249601
  0
ARC
  5
241
330
1F
100
AcDbEntity
  8
Make2D$可见线$普通线
100
AcDbCircle
 10
18.45900862575416
 20
461.9458833197662
 30
0.0
 40
11.53017679767483
100
AcDbArc
 50
270.3147206913913
 51
272.5969894607915
  0
LINE
  5
242
330
1F
100
AcDbEntity
  8
Make2D$可见线$普通线
100
AcDbLine
 10
18.63170941603046
 20
450.7523601021061
 30
0.0
 11
18.5223425570924
 21
450.4158804663936
 31
0.0
  0
LINE
  5
243
330
1F
100
AcDbEntity
  8
Make2D$可见线$普通线
100
AcDbLine
 10
19.03638526138351
 20
450.596573382247
 30
0.0
 11
18.98144668235213
 21
450.4275485676131
 31
0.0
  0
ARC
  5
244
330
1F
100
AcDbEntity
  8
Make2D$可见线$普通线
100
AcDbCircle
 10
22.56690195327738
 20
460.3710320084662
 30
0.0
 40
10.39252565777016
100
AcDbArc
 50
247.7495409389911
 51
250.1403724266731
  0
LINE
  5
245
330
1F
100
AcDbEntity
  8
Make2D$可见线$普通线
100
AcDbLine
 10
18.5223425570924
 20
450.4158804663936
 30
0.0
 11
18.50228128569242
 21
450.4231320725846
 31
0.0
  0
LINE
  5
246
330
1F
100
AcDbEntity
  8
Make2D$可见线$普通线
100
AcDbLine
 10
18.50228128569242
 20
450.4231320725846
 30
0.0
 11
18.60892743651388
 21
450.7512411389744
 31
0.0
  0
ARC
  5
247
330
1F
100
AcDbEntity
  8
Make2D$可见线$普通线
100
AcDbCircle
 10
18.05870913163423
 20
462.1861107052451
 30
0.0
 40
11.4480995008188
100
AcDbArc
 50
272.7548097625607
 51
272.8689671392144
  0
ARC
  5
248
330
1F
100
AcDbEntity
  8
Make2D$可见线$普通线
100
AcDbCircle
 10
19.02742983334054
 20
461.5654836145767
 30
0.0
 40
11.51700256641139
100
AcDbArc
 50
266.9186035440462
 51
269.1602567957078
  0
LINE
  5
249
330
1F
100
AcDbEntity
  8
Make2D$可见线$普通线
100
AcDbLine
 10
18.4841642199807
 20
450.2984204507338
 30
0.0
 11
18.40833805728482
 21
450.0651325987361
 31
0.0
  0
LINE
  5
24A
330
1F
100
AcDbEntity
  8
Make2D$可见线$普通线
100
AcDbLine
 10
18.8967202230659
 20
450.166877936363
 30
0.0
 11
18.85863941839693
 21
450.0497179904183
 31
0.0
  0
ARC
  5
24B
330
1F
100
AcDbEntity
  8
Make2D$可见线$普通线
100
AcDbCircle
 10
21.94601830503899
 20
460.4430930426702
 30
0.0
 40
10.71908651442938
100
AcDbArc
 50
251.1578709535952
 51
253.4726089844488
  0
LINE
  5
24C
330
1F
100
AcDbEntity
  8
Make2D$可见线$普通线
100
AcDbLine
 10
18.40833805728482
 20
450.0651325987361
 30
0.0
 11
18.38790113412389
 21
450.0712284693683
 31
0.0
  0
LINE
  5
24D
330
1F
100
AcDbEntity
  8
Make2D$可见线$普通线
100
AcDbLine
 10
18.38790113412389
 20
450.0712284693683
 30
0.0
 11
18.46184225172539
 21
450.2987167647979
 31
0.0
  0
ARC
  5
24E
330
1F
100
AcDbEntity
  8
Make2D$可见线$普通线
100
AcDbCircle
 10
18.62534265889493
 20
461.7746212046503
 30
0.0
 40
11.47706909867535
100
AcDbArc
 50
269.1837462956111
 51
269.2951917736731
  0
LINE
  5
24F
330
1F
100
AcDbEntity
  8
Make2D$可见线$普通线
100
AcDbLine
 10
18.3834921882709
 20
449.9886914442867
 30
0.0
 11
18.33884902426433
 21
449.8513416501364
 31
0.0
  0
ARC
  5
250
330
1F
100
AcDbEntity
  8
Make2D$可见线$普通线
100
AcDbCircle
 10
19.59664598944636
 20
461.2401468451586
 30
0.0
 40
11.45805118577264
100
AcDbArc
 50
263.6977078737522
 51
265.9184213955593
  0
LINE
  5
251
330
1F
100
AcDbEntity
  8
Make2D$可见线$普通线
100
AcDbLine
 10
18.80351617657806
 20
449.8801250396172
 30
0.0
 11
18.78109915087811
 21
449.8111564991181
 31
0.0
  0
ARC
  5
252
330
1F
100
AcDbEntity
  8
Make2D$可见线$普通线
100
AcDbCircle
 10
21.34197023373609
 20
460.567731470345
 30
0.0
 40
10.98492968654953
100
AcDbArc
 50
254.3761022017906
 51
256.6390328863215
  0
ARC
  5
253
330
1F
100
AcDbEntity
  8
Make2D$可见线$普通线
100
AcDbCircle
 10
20.91942921449673
 20
460.6709953772838
 30
0.0
 40
11.12314258173446
100
AcDbArc
 50
256.4749253525156
 51
256.585092403735
  0
LINE
  5
254
330
1F
100
AcDbEntity
  8
Make2D$可见线$普通线
100
AcDbLine
 10
18.31805001770377
 20
449.856323529831
 30
0.0
 11
18.3615837974846
 21
449.9902601766802
 31
0.0
  0
ARC
  5
255
330
1F
100
AcDbEntity
  8
Make2D$可见线$普通线
100
AcDbCircle
 10
19.19108815916857
 20
461.4210730741061
 30
0.0
 40
11.46087086490428
100
AcDbArc
 50
265.8494696999892
 51
265.9592756977459
  0
ARC
  5
256
330
1F
100
AcDbEntity
  8
Make2D$可见线$普通线
100
AcDbCircle
 10
20.17019897254402
 20
460.966443584534
 30
0.0
 40
11.35130799821969
100
AcDbArc
 50
260.5775770210812
 51
262.7949972188282
  0
LINE
  5
257
330
1F
100
AcDbEntity
  8
Make2D$可见线$普通线
100
AcDbLine
 10
18.32659791316693
 20
449.8136497072846
 30
0.0
 11
18.31185307581464
 21
449.7682855307041
 31
0.0
  0
LINE
  5
258
330
1F
100
AcDbEntity
  8
Make2D$可见线$普通线
100
AcDbLine
 10
18.75392294024584
 20
449.7275457824576
 30
0.0
 11
18.74651951730402
 21
449.7047683059986
 31
0.0
  0
ARC
  5
259
330
1F
100
AcDbEntity
  8
Make2D$可见线$普通线
100
AcDbCircle
 10
20.75104084704701
 20
460.7424762611372
 30
0.0
 40
11.19451532598938
100
AcDbArc
 50
257.4921028423922
 51
259.7233366502432
  0
ARC
  5
25A
330
1F
100
AcDbEntity
  8
Make2D$可见线$普通线
100
AcDbCircle
 10
20.33516928998704
 20
460.8714073252535
 30
0.0
 40
11.28597014381709
100
AcDbArc
 50
259.5631403133119
 51
259.6723431191663
  0
LINE
  5
25B
330
1F
100
AcDbEntity
  8
Make2D$可见线$普通线
100
AcDbLine
 10
18.2906947851238
 20
449.7721620317168
 30
0.0
 11
18.30507328235637
 21
449.8163991210796
 31
0.0
  0
ARC
  5
25C
330
1F
100
AcDbEntity
  8
Make2D$可见线$普通线
100
AcDbCircle
 10
19.74988152930331
 20
461.0418936909805
 30
0.0
 40
11.31809167701523
100
AcDbArc
 50
262.6659093517654
 51
262.7757592210647
  0
LINE
  5
25D
330
1F
100
AcDbEntity
  8
Make2D$可见线$普通线
100
AcDbLine
 10
18.62236326151943
 20
451.6103139244979
 30
0.0
 11
18.55094121500122
 21
451.3905758390453
 31
0.0
  0
LINE
  5
25E
330
1F
100
AcDbEntity
  8
Make2D$可见线$普通线
100
AcDbLine
 10
18.10193743194441
 20
451.7794692974978
 30
0.0
 11
24.94931705811376
 21
449.5538475298709
 31
0.0
  0
ARC
  5
25F
330
1F
100
AcDbEntity
  8
Make2D$可见线$普通线
100
AcDbCircle
 10
-8.075770011219545
 20
460.2992734046654
 30
0.0
 40
27.52924679326317
100
AcDbArc
 50
341.9719887349565
 51
342.016306811739
  0
LINE
  5
260
330
1F
100
AcDbEntity
  8
Make2D$可见线$普通线
100
AcDbLine
 10
18.46205288763349
 20
451.3821969235555
 30
0.0
 11
18.01955877433647
 21
451.5260219463308
 31
0.0
  0
LINE
  5
261
330
1F
100
AcDbEntity
  8
Make2D$可见线$普通线
100
AcDbLine
 10
18.46205288763349
 20
451.3821969235555
 30
0.0
 11
18.54443154523366
 21
451.6356442747146
 31
0.0
  0
LINE
  5
262
330
1F
100
AcDbEntity
  8
Make2D$可见线$普通线
100
AcDbLine
 10
18.01955877433647
 20
451.5260219463308
 30
0.0
 11
18.10193743194372
 21
451.7794692974833
 31
0.0
  0
LINE
  5
263
330
1F
100
AcDbEntity
  8
Make2D$可见线$普通线
100
AcDbLine
 10
18.55094121500122
 20
451.3905758390453
 30
0.0
 11
18.46205288763349
 21
451.3821969235555
 31
0.0
  0
LINE
  5
264
330
1F
100
AcDbEntity
  8
Make2D$可见线$普通线
100
AcDbLine
 10
18.01955877433647
 20
451.5260219463308
 30
0.0
 11
17.50132369875799
 21
449.9316125325724
 31
0.0
  0
ARC
  5
265
330
1F
100
AcDbEntity
  8
Make2D$可见线$普通线
100
AcDbCircle
 10
23.42545386453246
 20
460.3089218798428
 30
0.0
 40
9.774529910346
100
AcDbArc
 50
255.0226678509428
 51
255.3427996149127
  0
LINE
  5
266
330
1F
100
AcDbEntity
  8
Make2D$可见线$普通线
100
AcDbLine
 10
17.79869275362248
 20
451.8780337110156
 30
0.0
 11
16.86560499999882
 21
452.1813176720447
 31
0.0
  0
ARC
  5
267
330
1F
100
AcDbEntity
  8
Make2D$可见线$普通线
100
AcDbCircle
 10
22.20486289198408
 20
468.6578612136063
 30
0.0
 40
17.34868716372772
100
AcDbArc
 50
255.2870149993701
 51
256.342445612761
  0
LINE
  5
268
330
1F
100
AcDbEntity
  8
Make2D$可见线$普通线
100
AcDbLine
 10
15.62927256692137
 20
452.5831660469646
 30
0.0
 11
15.63585477266057
 21
452.603416954994
 31
0.0
  0
ARC
  5
269
330
1F
100
AcDbEntity
  8
Make2D$可见线$普通线
100
AcDbCircle
 10
22.23408959074757
 20
468.6483662020103
 30
0.0
 40
17.34869156605023
100
AcDbArc
 50
247.6458500533188
 51
248.7012803989708
  0
LINE
  5
26A
330
1F
100
AcDbEntity
  8
Make2D$可见线$普通线
100
AcDbLine
 10
16.86560499999882
 20
452.1813176720447
 30
0.0
 11
15.93251724523049
 21
452.4846016334403
 31
0.0
  0
LINE
  5
26B
330
1F
100
AcDbEntity
  8
Make2D$可见线$普通线
100
AcDbLine
 10
15.03742469081809
 20
452.5325833345828
 30
0.0
 11
15.1088467373288
 21
452.7523214199704
 31
0.0
  0
LINE
  5
26C
330
1F
100
AcDbEntity
  8
Make2D$可见线$普通线
100
AcDbLine
 10
15.02865883375787
 20
450.7353092820502
 30
0.0
 11
15.54689390932683
 21
452.3297186958343
 31
0.0
  0
LINE
  5
26D
330
1F
100
AcDbEntity
  8
Make2D$可见线$普通线
100
AcDbLine
 10
15.54689390932683
 20
452.3297186958343
 30
0.0
 11
15.62927256692271
 21
452.5831660469721
 31
0.0
  0
LINE
  5
26E
330
1F
100
AcDbEntity
  8
Make2D$可见线$普通线
100
AcDbLine
 10
15.54689390932683
 20
452.3297186958343
 30
0.0
 11
15.10439979602998
 21
452.473543718604
 31
0.0
  0
LINE
  5
26F
330
1F
100
AcDbEntity
  8
Make2D$可见线$普通线
100
AcDbLine
 10
15.18677845362313
 20
452.7269910697473
 30
0.0
 11
15.10439979602998
 21
452.473543718604
 31
0.0
  0
LINE
  5
270
330
1F
100
AcDbEntity
  8
Make2D$可见线$普通线
100
AcDbLine
 10
15.10439979602998
 20
452.473543718604
 30
0.0
 11
15.03742469081809
 21
452.5325833345828
 31
0.0
  0
ARC
  5
271
330
1F
100
AcDbEntity
  8
Make2D$可见线$普通线
100
AcDbCircle
 10
18.53711438246302
 20
462.0871876218659
 30
0.0
 40
11.6017538046672
100
AcDbArc
 50
228.5410921812486
 51
230.8525215231348
  0
ARC
  5
272
330
1F
100
AcDbEntity
  8
Make2D$可见线$普通线
100
AcDbCircle
 10
18.93074345713489
 20
461.908863640484
 30
0.0
 40
11.71941615453801
100
AcDbArc
 50
228.8092461390303
 51
231.0933276113984
  0
ARC
  5
273
330
1F
100
AcDbEntity
  8
Make2D$可见线$普通线
100
AcDbCircle
 10
16.33799257133296
 20
462.6125780050188
 30
0.0
 40
9.77452989408775
100
AcDbArc
 50
248.6454959296513
 51
248.9656276948993
  0
LINE
  5
274
330
1F
100
AcDbEntity
  8
Make2D$可见线$普通线
100
AcDbLine
 10
94.90099840747678
 20
511.2987707626465
 30
0.0
 11
94.90095448413699
 21
511.2988502091526
 31
0.0
  0
ARC
  5
275
330
1F
100
AcDbEntity
  8
Make2D$可见线$普通线
100
AcDbCircle
 10
87.98939325329826
 20
507.5116052651587
 30
0.0
 40
7.879916078486421
100
AcDbArc
 50
36.38713391257127
 51
36.46563275562157
  0
ARC
  5
276
330
1F
100
AcDbEntity
  8
Make2D$可见线$普通线
100
AcDbCircle
 10
-60.11319769783857
 20
498.9172775613969
 30
0.0
 40
156.6398529496218
100
AcDbArc
 50
359.4515596681051
 51
1.95385876511546
  0
LINE
  5
277
330
1F
100
AcDbEntity
  8
Make2D$可见线$普通线
100
AcDbLine
 10
97.02554207671714
 20
496.478754883738
 30
0.0
 11
97.03314392667113
 21
496.478757304374
 31
0.0
  0
LINE
  5
278
330
1F
100
AcDbEntity
  8
Make2D$可见线$普通线
100
AcDbLine
 10
97.03478739868572
 20
496.4787577304672
 30
0.0
 11
97.10268231413896
 21
496.4787682272182
 31
0.0
  0
LINE
  5
279
330
1F
100
AcDbEntity
  8
Make2D$可见线$普通线
100
AcDbLine
 10
97.11669743286393
 20
496.478769748492
 30
0.0
 11
97.12808359111621
 21
496.4787709105956
 31
0.0
  0
LINE
  5
27A
330
1F
100
AcDbEntity
  8
Make2D$可见线$普通线
100
AcDbLine
 10
97.14248890397161
 20
496.4787723027515
 30
0.0
 11
97.15683271159902
 21
496.4787736159937
 31
0.0
  0
LINE
  5
27B
330
1F
100
AcDbEntity
  8
Make2D$可见线$普通线
100
AcDbLine
 10
97.17129793790541
 20
496.4787748779058
 30
0.0
 11
97.62440639100227
 21
496.4788016917347
 31
0.0
  0
ARC
  5
27C
330
1F
100
AcDbEntity
  8
Make2D$可见线$普通线
100
AcDbCircle
 10
99.34975964650617
 20
-37219.13846801588
 30
0.0
 40
37715.61730917982
100
AcDbArc
 50
90.00242923574012
 51
90.00252335565936
  0
ARC
  5
27D
330
1F
100
AcDbEntity
  8
Make2D$可见线$普通线
100
AcDbCircle
 10
99.58171329880736
 20
-42695.44494412008
 30
0.0
 40
43191.92379019642
100
AcDbArc
 50
90.00233934259104
 51
90.00242178963194
  0
LINE
  5
27E
330
1F
100
AcDbEntity
  8
Make2D$可见线$普通线
100
AcDbLine
 10
98.05545054162529
 20
496.4788192259713
 30
0.0
 11
98.31050835603938
 21
496.4788281190806
 31
0.0
  0
LINE
  5
27F
330
1F
100
AcDbEntity
  8
Make2D$可见线$普通线
100
AcDbLine
 10
98.33591290759307
 20
496.4788289624228
 30
0.0
 11
99.00079628839998
 21
496.4788490470286
 31
0.0
  0
LINE
  5
280
330
1F
100
AcDbEntity
  8
Make2D$可见线$普通线
100
AcDbLine
 10
100.019441243868
 20
496.478874960181
 30
0.0
 11
100.7268395537723
 21
496.4788907983722
 31
0.0
  0
LINE
  5
281
330
1F
100
AcDbEntity
  8
Make2D$可见线$普通线
100
AcDbLine
 10
100.8011371531233
 20
496.4788923843337
 30
0.0
 11
100.865030720839
 21
496.4788937376584
 31
0.0
  0
LINE
  5
282
330
1F
100
AcDbEntity
  8
Make2D$可见线$普通线
100
AcDbLine
 10
100.9909222086347
 20
496.4788963764736
 30
0.0
 11
101.0049351567718
 21
496.4788966679805
 31
0.0
  0
LINE
  5
283
330
1F
100
AcDbEntity
  8
Make2D$可见线$普通线
100
AcDbLine
 10
101.1396339603996
 20
496.4788994480885
 30
0.0
 11
101.1465011406337
 21
496.478899588774
 31
0.0
  0
LINE
  5
284
330
1F
100
AcDbEntity
  8
Make2D$可见线$普通线
100
AcDbLine
 10
102.1796561448588
 20
496.4789197214382
 30
0.0
 11
103.114746054053
 21
496.4789364497317
 31
0.0
  0
LINE
  5
285
330
1F
100
AcDbEntity
  8
Make2D$可见线$普通线
100
AcDbLine
 10
103.2742285437239
 20
496.47893918477
 30
0.0
 11
103.2837414140932
 21
496.4789393469218
 31
0.0
  0
LINE
  5
286
330
1F
100
AcDbEntity
  8
Make2D$可见线$普通线
100
AcDbLine
 10
103.4346210845801
 20
496.4789419040986
 30
0.0
 11
103.4640464643401
 21
496.478942399633
 31
0.0
  0
LINE
  5
287
330
1F
100
AcDbEntity
  8
Make2D$可见线$普通线
100
AcDbLine
 10
103.5958765618149
 20
496.4789446071509
 30
0.0
 11
103.6464145872293
 21
496.4789454480322
 31
0.0
  0
LINE
  5
288
330
1F
100
AcDbEntity
  8
Make2D$可见线$普通线
100
AcDbLine
 10
105.3757429180078
 20
496.4789725584837
 30
0.0
 11
105.4137458184123
 21
496.4789731202908
 31
0.0
  0
LINE
  5
289
330
1F
100
AcDbEntity
  8
Make2D$可见线$普通线
100
AcDbLine
 10
105.5771340859185
 20
496.4789755200674
 30
0.0
 11
105.581895511903
 21
496.4789755896229
 31
0.0
  0
LINE
  5
28A
330
1F
100
AcDbEntity
  8
Make2D$可见线$普通线
100
AcDbLine
 10
105.7503503324625
 20
496.4789780367686
 30
0.0
 11
105.780266790183
 21
496.4789784686014
 31
0.0
  0
LINE
  5
28B
330
1F
100
AcDbEntity
  8
Make2D$可见线$普通线
100
AcDbLine
 10
105.9190722152685
 20
496.4789804613912
 30
0.0
 11
106.2571674743651
 21
496.4789852589071
 31
0.0
  0
LINE
  5
28C
330
1F
100
AcDbEntity
  8
Make2D$可见线$普通线
100
AcDbLine
 10
106.399822604051
 20
496.4789872660616
 30
0.0
 11
106.4264679596068
 21
496.4789876397363
 31
0.0
  0
LINE
  5
28D
330
1F
100
AcDbEntity
  8
Make2D$可见线$普通线
100
AcDbLine
 10
106.5958894105995
 20
496.4789900060606
 30
0.0
 11
106.6096241069076
 21
496.4789901971354
 31
0.0
  0
LINE
  5
28E
330
1F
100
AcDbEntity
  8
Make2D$可见线$普通线
100
AcDbLine
 10
106.7653973420634
 20
496.4789923557838
 30
0.0
 11
106.8210120123951
 21
496.4789931225739
 31
0.0
  0
LINE
  5
28F
330
1F
100
AcDbEntity
  8
Make2D$可见线$普通线
100
AcDbLine
 10
107.0339530720089
 20
496.4789960383066
 30
0.0
 11
107.1045374395803
 21
496.4789969973848
 31
0.0
  0
LINE
  5
290
330
1F
100
AcDbEntity
  8
Make2D$可见线$普通线
100
AcDbLine
 10
107.2484140372424
 20
496.4789989402619
 30
0.0
 11
107.2741039938365
 21
496.4789992854185
 31
0.0
  0
LINE
  5
291
330
1F
100
AcDbEntity
  8
Make2D$可见线$普通线
100
AcDbLine
 10
107.443625458474
 20
496.4790015491569
 30
0.0
 11
107.4643616595875
 21
496.4790018243695
 31
0.0
  0
LINE
  5
292
330
1F
100
AcDbEntity
  8
Make2D$可见线$普通线
100
AcDbLine
 10
107.9005838815735
 20
496.4790075227565
 30
0.0
 11
107.9516138487086
 21
496.4790081774272
 31
0.0
  0
LINE
  5
293
330
1F
100
AcDbEntity
  8
Make2D$可见线$普通线
100
AcDbLine
 10
108.2894988420646
 20
496.4790124444465
 30
0.0
 11
108.3423537498766
 21
496.4790131008999
 31
0.0
  0
LINE
  5
294
330
1F
100
AcDbEntity
  8
Make2D$可见线$普通线
100
AcDbLine
 10
108.5652359301142
 20
496.479015834703
 30
0.0
 11
108.6265039781627
 21
496.4790165762241
 31
0.0
  0
LINE
  5
295
330
1F
100
AcDbEntity
  8
Make2D$可见线$普通线
100
AcDbLine
 10
108.78940527639
 20
496.479018526233
 30
0.0
 11
108.7946104514894
 21
496.4790185880168
 31
0.0
  0
LINE
  5
296
330
1F
100
AcDbEntity
  8
Make2D$可见线$普通线
100
AcDbLine
 10
108.9624186803063
 20
496.4790205620584
 30
0.0
 11
109.0148285401885
 21
496.479021171419
 31
0.0
  0
LINE
  5
297
330
1F
100
AcDbEntity
  8
Make2D$可见线$普通线
100
AcDbLine
 10
109.2414724729938
 20
496.4790237661911
 30
0.0
 11
109.2970436888366
 21
496.479024392197
 31
0.0
  0
LINE
  5
298
330
1F
100
AcDbEntity
  8
Make2D$可见线$普通线
100
AcDbLine
 10
109.463813184013
 20
496.4790262460815
 30
0.0
 11
109.4693038297255
 21
496.4790263064787
 31
0.0
  0
LINE
  5
299
330
1F
100
AcDbEntity
  8
Make2D$可见线$普通线
100
AcDbLine
 10
109.6301905617725
 20
496.4790281860334
 30
0.0
 11
109.698283162497
 21
496.4790290360299
 31
0.0
  0
LINE
  5
29A
330
1F
100
AcDbEntity
  8
Make2D$可见线$普通线
100
AcDbLine
 10
109.9283718464514
 20
496.4790320460693
 30
0.0
 11
109.9616822297178
 21
496.4790324901986
 31
0.0
  0
LINE
  5
29B
330
1F
100
AcDbEntity
  8
Make2D$可见线$普通线
100
AcDbLine
 10
110.1267546628771
 20
496.4790346782908
 30
0.0
 11
110.1595378331451
 21
496.4790351056624
 31
0.0
  0
LINE
  5
29C
330
1F
100
AcDbEntity
  8
Make2D$可见线$普通线
100
AcDbLine
 10
110.3917490776244
 20
496.4790379839268
 30
0.0
 11
110.4554539244707
 21
496.4790387092747
 31
0.0
  0
LINE
  5
29D
330
1F
100
AcDbEntity
  8
Make2D$可见线$普通线
100
AcDbLine
 10
110.6190427101517
 20
496.4790403943738
 30
0.0
 11
110.6249735349556
 21
496.4790404499777
 31
0.0
  0
LINE
  5
29E
330
1F
100
AcDbEntity
  8
Make2D$可见线$普通线
100
AcDbLine
 10
110.7821002548938
 20
496.4790417589228
 30
0.0
 11
110.9446091360369
 21
496.4790427312848
 31
0.0
  0
LINE
  5
29F
330
1F
100
AcDbEntity
  8
Make2D$可见线$普通线
100
AcDbLine
 10
111.0943339085235
 20
496.4790432215711
 30
0.0
 11
111.1065527251964
 21
496.479043242612
 31
0.0
  0
LINE
  5
2A0
330
1F
100
AcDbEntity
  8
Make2D$可见线$普通线
100
AcDbLine
 10
111.2679145319797
 20
496.4790432267818
 30
0.0
 11
111.4286793300905
 21
496.4790440555454
 31
0.0
  0
LINE
  5
2A1
330
1F
100
AcDbEntity
  8
Make2D$可见线$普通线
100
AcDbLine
 10
111.5673440404324
 20
496.4790484277854
 30
0.0
 11
111.5888321466361
 21
496.4790492478365
 31
0.0
  0
LINE
  5
2A2
330
1F
100
AcDbEntity
  8
Make2D$可见线$普通线
100
AcDbLine
 10
111.7483582316039
 20
496.4790547930484
 30
0.0
 11
111.9072440696088
 21
496.4790561596539
 31
0.0
  0
ARC
  5
2A3
330
1F
100
AcDbEntity
  8
Make2D$可见线$普通线
100
AcDbCircle
 10
111.9032517207629
 20
-1497.281508377639
 30
0.0
 40
1993.760563963931
100
AcDbArc
 50
89.99533806299063
 51
89.99596535461882
  0
LINE
  5
2A4
330
1F
100
AcDbEntity
  8
Make2D$可见线$普通线
100
AcDbLine
 10
112.2230419429221
 20
496.4790290805393
 30
0.0
 11
112.3799288724756
 21
496.4790109666048
 31
0.0
  0
ARC
  5
2A5
330
1F
100
AcDbEntity
  8
Make2D$可见线$普通线
100
AcDbCircle
 10
111.9665222081734
 20
2511.762948982366
 30
0.0
 40
2015.283987260858
100
AcDbArc
 50
270.0158206706963
 51
270.0161941772183
  0
LINE
  5
2A6
330
1F
100
AcDbEntity
  8
Make2D$可见线$普通线
100
AcDbLine
 10
112.691620320536
 20
496.4790835164217
 30
0.0
 11
112.8464031053718
 21
496.4790892499618
 31
0.0
  0
ARC
  5
2A7
330
1F
100
AcDbEntity
  8
Make2D$可见线$普通线
100
AcDbCircle
 10
112.8410231504166
 20
304.5242642601016
 30
0.0
 40
191.9548174807233
100
AcDbArc
 50
89.95104029106992
 51
89.95240944663706
  0
LINE
  5
2A8
330
1F
100
AcDbEntity
  8
Make2D$可见线$普通线
100
AcDbLine
 10
113.153790657575
 20
496.4788201265621
 30
0.0
 11
113.3063762102124
 21
496.4785247088688
 31
0.0
  0
LINE
  5
2A9
330
1F
100
AcDbEntity
  8
Make2D$可见线$普通线
100
AcDbLine
 10
121.0653407254481
 20
498.1652099468214
 30
0.0
 11
137.2921160992986
 21
505.7318795746419
 31
0.0
  0
LINE
  5
2AA
330
1F
100
AcDbEntity
  8
Make2D$可见线$普通线
100
AcDbLine
 10
113.4582120131419
 20
496.4787501118032
 30
0.0
 11
113.6482282152445
 21
496.4801760666536
 31
0.0
  0
ARC
  5
2AB
330
1F
100
AcDbEntity
  8
Make2D$可见线$普通线
100
AcDbCircle
 10
113.4495550745658
 20
514.5764358741257
 30
0.0
 40
18.09735324302133
100
AcDbArc
 50
270.8963690243238
 51
281.7863230140885
  0
ARC
  5
2AC
330
1F
100
AcDbEntity
  8
Make2D$可见线$普通线
100
AcDbCircle
 10
113.4475002086759
 20
514.5114486939714
 30
0.0
 40
18.03416245124238
100
AcDbArc
 50
281.8348876266267
 51
294.9869396263582
  0
LINE
  5
2AD
330
1F
100
AcDbEntity
  8
Make2D$可见线$普通线
100
AcDbLine
 10
96.51947925128442
 20
497.4179297595808
 30
0.0
 11
96.5194792512822
 21
496.9787501118053
 31
0.0
  0
SPLINE
  5
2AE
330
1F
100
AcDbEntity
  8
Make2D$可见线$普通线
100
AcDbSpline
210
0.0
220
0.0
230
1.0
 70
     8
 71
     3
 72
    11
 73
     7
 74
     0
 42
0.000000001
 43
0.0000000001
 12
1.0
 22
0.0
 32
0.0
 13
1.0
 23
0.0
 33
0.0
 40
0.0
 40
0.0
 40
0.0
 40
0.0
 40
0.2500001518586339
 40
0.5000003036823895
 40
0.7500004555061449
 40
1.0
 40
1.0
 40
1.0
 40
1.0
 10
137.5808023741816
 20
514.9037027951031
 30
0.0
 10
137.5808023733639
 20
514.9983955096866
 30
0.0
 10
137.5783057276486
 20
515.19294572226
 30
0.0
 10
137.4854753977038
 20
515.5103830996875
 30
0.0
 10
137.2939513550528
 20
515.7675828431029
 30
0.0
 10
137.1255425730454
 20
515.8607246828154
 30
0.0
 10
137.0411639118905
 20
515.9037005183424
 30
0.0
  0
ARC
  5
2AF
330
1F
100
AcDbEntity
  8
Make2D$可见线$普通线
100
AcDbCircle
 10
138.9646125119691
 20
392.2921749233864
 30
0.0
 40
4.512100193861949
100
AcDbArc
 50
92.55956164576384
 51
96.98098014047814
  0
ARC
  5
2B0
330
1F
100
AcDbEntity
  8
Make2D$可见线$普通线
100
AcDbCircle
 10
138.956965169004
 20
392.2244758346714
 30
0.0
 40
4.579788814148018
100
AcDbArc
 50
67.07123902433557
 51
89.91201079541719
  0
ARC
  5
2B1
330
1F
100
AcDbEntity
  8
Make2D$可见线$普通线
100
AcDbCircle
 10
140.7447040956777
 20
395.974882099099
 30
0.0
 40
0.4675464698458441
100
AcDbArc
 50
67.49150056050851
 51
90.43086140541227
  0
ARC
  5
2B2
330
1F
100
AcDbEntity
  8
Make2D$可见线$普通线
100
AcDbCircle
 10
149.0468262701775
 20
389.4767102675001
 30
0.0
 40
0.7953055670163532
100
AcDbArc
 50
272.2340464694519
 51
302.5985108208758
  0
SPLINE
  5
2B3
330
1F
100
AcDbEntity
  8
Make2D$可见线$普通线
100
AcDbSpline
210
0.0
220
0.0
230
1.0
 70
    12
 71
     2
 72
     6
 73
     3
 74
     0
 42
0.000000001
 43
0.0000000001
 12
1.0
 22
0.0
 32
0.0
 13
1.0
 23
0.0
 33
0.0
 40
-1.515463980030796
 40
-1.515463980030796
 40
-1.515463980030796
 40
0.0
 40
0.0
 40
0.0
 10
150.7873306722607
 20
391.9285270833282
 30
0.0
 41
0.8537351085093695
 10
150.6598429709489
 20
392.4407796723112
 30
0.0
 41
0.8587120699424645
 10
150.2626210744623
 20
392.4407796723085
 30
0.0
 41
1.0
  0
SPLINE
  5
2B4
330
1F
100
AcDbEntity
  8
Make2D$可见线$普通线
100
AcDbSpline
210
0.0
220
0.0
230
1.0
 70
    12
 71
     2
 72
     8
 73
     5
 74
     0
 42
0.000000001
 43
0.0000000001
 12
1.0
 22
0.0
 32
0.0
 13
1.0
 23
0.0
 33
0.0
 40
-5.340707511061807
 40
-5.340707511061807
 40
-5.340707511061807
 40
-2.670353755530904
 40
-2.670353755530904
 40
0.0
 40
0.0
 40
0.0
 10
149.4108272878049
 20
388.8613109324194
 30
0.0
 41
1.0
 10
150.2608272878235
 20
388.8613109324356
 30
0.0
 41
0.7071067811864591
 10
150.7643641134475
 20
390.4587883877636
 30
0.0
 41
1.0
 10
151.2679009390715
 20
392.0562658430916
 30
0.0
 41
0.7071067811864591
 10
150.4179009390531
 20
392.0562658430747
 30
0.0
 41
1.0
  0
SPLINE
  5
2B5
330
1F
100
AcDbEntity
  8
Make2D$可见线$普通线
100
AcDbSpline
210
0.0
220
0.0
230
1.0
 70
    12
 71
     2
 72
     8
 73
     5
 74
     0
 42
0.000000001
 43
0.0000000001
 12
1.0
 22
0.0
 32
0.0
 13
1.0
 23
0.0
 33
0.0
 40
0.0
 40
0.0
 40
0.0
 40
2.670353755549753
 40
2.670353755549753
 40
5.340707511099507
 40
5.340707511099507
 40
5.340707511099507
 10
149.4108272877966
 20
388.8613109324194
 30
0.0
 41
1.0
 10
148.5608272877887
 20
388.8613109324094
 30
0.0
 41
0.7071067811868829
 10
149.0643641134163
 20
390.4587883877354
 30
0.0
 41
1.0
 10
149.5679009390438
 20
392.0562658430615
 30
0.0
 41
0.7071067811868829
 10
150.4179009390542
 20
392.0562658430747
 30
0.0
 41
1.0
  0
POLYLINE
  5
2B6
330
1F
100
AcDbEntity
  8
Make2D$可见线$普通线
100
AcDb2dPolyline
 66
     1
 10
0.0
 20
0.0
 30
0.0
  0
VERTEX
  5
2B7
330
2B6
100
AcDbEntity
  8
Make2D$可见线$普通线
100
AcDbVertex
100
AcDb2dVertex
 10
136.686202347254
 20
404.4206960677344
 30
0.0
 42
0.0276743633377025
  0
VERTEX
  5
2B8
330
2B6
100
AcDbEntity
  8
Make2D$可见线$普通线
100
AcDbVertex
100
AcDb2dVertex
 10
136.3404391402039
 20
403.000203212235
 30
0.0
 42
0.0079387850262026
  0
VERTEX
  5
2B9
330
2B6
100
AcDbEntity
  8
Make2D$可见线$普通线
100
AcDbVertex
100
AcDb2dVertex
 10
136.2163270519847
 20
402.2934752872724
 30
0.0
  0
VERTEX
  5
2BA
330
2B6
100
AcDbEntity
  8
Make2D$可见线$普通线
100
AcDbVertex
100
AcDb2dVertex
 10
136.0202497809669
 20
400.8257674237907
 30
0.0
 42
0.0501190541503025
  0
VERTEX
  5
2BB
330
2B6
100
AcDbEntity
  8
Make2D$可见线$普通线
100
AcDbVertex
100
AcDb2dVertex
 10
135.9536222605433
 20
392.7753761580273
 30
0.0
 42
0.0060966605593397
  0
VERTEX
  5
2BC
330
2B6
100
AcDbEntity
  8
Make2D$可见线$普通线
100
AcDbVertex
100
AcDb2dVertex
 10
136.0264697285039
 20
392.1346447924186
 30
0.0
 42
0.0065755029161996
  0
VERTEX
  5
2BD
330
2B6
100
AcDbEntity
  8
Make2D$可见线$普通线
100
AcDbVertex
100
AcDb2dVertex
 10
136.1092766556364
 20
391.5405575090563
 30
0.0
 42
0.0076846519624228
  0
VERTEX
  5
2BE
330
2B6
100
AcDbEntity
  8
Make2D$可见线$普通线
100
AcDbVertex
100
AcDb2dVertex
 10
136.2067947430609
 20
390.9616232025144
 30
0.0
 42
0.0097926490091924
  0
VERTEX
  5
2BF
330
2B6
100
AcDbEntity
  8
Make2D$可见线$普通线
100
AcDbVertex
100
AcDb2dVertex
 10
136.3261303586465
 20
390.3775083661164
 30
0.0
 42
0.0130811615423482
  0
VERTEX
  5
2C0
330
2B6
100
AcDbEntity
  8
Make2D$可见线$普通线
100
AcDbVertex
100
AcDb2dVertex
 10
136.4696636681563
 20
389.8075266426191
 30
0.0
 42
0.0183044938121921
  0
VERTEX
  5
2C1
330
2B6
100
AcDbEntity
  8
Make2D$可见线$普通线
100
AcDbVertex
100
AcDb2dVertex
 10
136.6350739915208
 20
389.2882067307879
 30
0.0
  0
VERTEX
  5
2C2
330
2B6
100
AcDbEntity
  8
Make2D$可见线$普通线
100
AcDbVertex
100
AcDb2dVertex
 10
136.6762919470796
 20
389.1775365091686
 30
0.0
  0
VERTEX
  5
2C3
330
2B6
100
AcDbEntity
  8
Make2D$可见线$普通线
100
AcDbVertex
100
AcDb2dVertex
 10
136.7206074378163
 20
389.0680199318218
 30
0.0
  0
VERTEX
  5
2C4
330
2B6
100
AcDbEntity
  8
Make2D$可见线$普通线
100
AcDbVertex
100
AcDb2dVertex
 10
136.767970219856
 20
388.9597863404075
 30
0.0
  0
VERTEX
  5
2C5
330
2B6
100
AcDbEntity
  8
Make2D$可见线$普通线
100
AcDbVertex
100
AcDb2dVertex
 10
136.8183228933943
 20
388.8529620637601
 30
0.0
  0
VERTEX
  5
2C6
330
2B6
100
AcDbEntity
  8
Make2D$可见线$普通线
100
AcDbVertex
100
AcDb2dVertex
 10
136.8405557779651
 20
388.8092655049421
 30
0.0
  0
VERTEX
  5
2C7
330
2B6
100
AcDbEntity
  8
Make2D$可见线$普通线
100
AcDbVertex
100
AcDb2dVertex
 10
136.863309261879
 20
388.7665432355193
 30
0.0
  0
VERTEX
  5
2C8
330
2B6
100
AcDbEntity
  8
Make2D$可见线$普通线
100
AcDbVertex
100
AcDb2dVertex
 10
136.8864983668709
 20
388.7250214335369
 30
0.0
  0
VERTEX
  5
2C9
330
2B6
100
AcDbEntity
  8
Make2D$可见线$普通线
100
AcDbVertex
100
AcDb2dVertex
 10
136.9100381146756
 20
388.6849262770404
 30
0.0
  0
VERTEX
  5
2CA
330
2B6
100
AcDbEntity
  8
Make2D$可见线$普通线
100
AcDbVertex
100
AcDb2dVertex
 10
136.9338435270281
 20
388.6464839440752
 30
0.0
  0
VERTEX
  5
2CB
330
2B6
100
AcDbEntity
  8
Make2D$可见线$普通线
100
AcDbVertex
100
AcDb2dVertex
 10
136.9578296256632
 20
388.6099206126866
 30
0.0
  0
VERTEX
  5
2CC
330
2B6
100
AcDbEntity
  8
Make2D$可见线$普通线
100
AcDbVertex
100
AcDb2dVertex
 10
136.9819114323156
 20
388.5754624609199
 30
0.0
  0
VERTEX
  5
2CD
330
2B6
100
AcDbEntity
  8
Make2D$可见线$普通线
100
AcDbVertex
100
AcDb2dVertex
 10
136.9939616704405
 20
388.5590935080339
 30
0.0
  0
VERTEX
  5
2CE
330
2B6
100
AcDbEntity
  8
Make2D$可见线$普通线
100
AcDbVertex
100
AcDb2dVertex
 10
137.0060039687203
 20
388.5433356668206
 30
0.0
  0
VERTEX
  5
2CF
330
2B6
100
AcDbEntity
  8
Make2D$可见线$普通线
100
AcDbVertex
100
AcDb2dVertex
 10
137.016245756363
 20
388.5304417495125
 30
0.0
  0
VERTEX
  5
2D0
330
2B6
100
AcDbEntity
  8
Make2D$可见线$普通线
100
AcDbVertex
100
AcDb2dVertex
 10
137.0264859488578
 20
388.5180299279797
 30
0.0
  0
VERTEX
  5
2D1
330
2B6
100
AcDbEntity
  8
Make2D$可见线$普通线
100
AcDbVertex
100
AcDb2dVertex
 10
137.0366953196044
 20
388.5061131997641
 30
0.0
  0
VERTEX
  5
2D2
330
2B6
100
AcDbEntity
  8
Make2D$可见线$普通线
100
AcDbVertex
100
AcDb2dVertex
 10
137.046844642003
 20
388.4947045624074
 30
0.0
  0
VERTEX
  5
2D3
330
2B6
100
AcDbEntity
  8
Make2D$可见线$普通线
100
AcDbVertex
100
AcDb2dVertex
 10
137.0569046894533
 20
388.4838170134514
 30
0.0
  0
VERTEX
  5
2D4
330
2B6
100
AcDbEntity
  8
Make2D$可见线$普通线
100
AcDbVertex
100
AcDb2dVertex
 10
137.0668462353555
 20
388.4734635504378
 30
0.0
  0
VERTEX
  5
2D5
330
2B6
100
AcDbEntity
  8
Make2D$可见线$普通线
100
AcDbVertex
100
AcDb2dVertex
 10
137.0766400531094
 20
388.4636571709087
 30
0.0
  0
VERTEX
  5
2D6
330
2B6
100
AcDbEntity
  8
Make2D$可见线$普通线
100
AcDbVertex
100
AcDb2dVertex
 10
137.0862569161151
 20
388.4544108724056
 30
0.0
  0
VERTEX
  5
2D7
330
2B6
100
AcDbEntity
  8
Make2D$可见线$普通线
100
AcDbVertex
100
AcDb2dVertex
 10
137.0956675977724
 20
388.4457376524705
 30
0.0
  0
VERTEX
  5
2D8
330
2B6
100
AcDbEntity
  8
Make2D$可见线$普通线
100
AcDbVertex
100
AcDb2dVertex
 10
137.1048428714813
 20
388.4376505086451
 30
0.0
  0
VERTEX
  5
2D9
330
2B6
100
AcDbEntity
  8
Make2D$可见线$普通线
100
AcDbVertex
100
AcDb2dVertex
 10
137.1137535106418
 20
388.4301624384713
 30
0.0
  0
VERTEX
  5
2DA
330
2B6
100
AcDbEntity
  8
Make2D$可见线$普通线
100
AcDbVertex
100
AcDb2dVertex
 10
137.1223702886539
 20
388.4232864394908
 30
0.0
  0
VERTEX
  5
2DB
330
2B6
100
AcDbEntity
  8
Make2D$可见线$普通线
100
AcDbVertex
100
AcDb2dVertex
 10
137.1306639789174
 20
388.4170355092454
 30
0.0
  0
VERTEX
  5
2DC
330
2B6
100
AcDbEntity
  8
Make2D$可见线$普通线
100
AcDbVertex
100
AcDb2dVertex
 10
137.1386053548323
 20
388.411422645277
 30
0.0
  0
VERTEX
  5
2DD
330
2B6
100
AcDbEntity
  8
Make2D$可见线$普通线
100
AcDbVertex
100
AcDb2dVertex
 10
137.1424347915966
 20
388.4088595498785
 30
0.0
  0
VERTEX
  5
2DE
330
2B6
100
AcDbEntity
  8
Make2D$可见线$普通线
100
AcDbVertex
100
AcDb2dVertex
 10
137.1461651897987
 20
388.4064608451274
 30
0.0
  0
VERTEX
  5
2DF
330
2B6
100
AcDbEntity
  8
Make2D$可见线$普通线
100
AcDbVertex
100
AcDb2dVertex
 10
137.1497928961136
 20
388.4042281557164
 30
0.0
  0
VERTEX
  5
2E0
330
2B6
100
AcDbEntity
  8
Make2D$可见线$普通线
100
AcDbVertex
100
AcDb2dVertex
 10
137.1533142572164
 20
388.4021631063383
 30
0.0
 42
0.0792518934138187
  0
VERTEX
  5
2E1
330
2B6
100
AcDbEntity
  8
Make2D$可见线$普通线
100
AcDbVertex
100
AcDb2dVertex
 10
137.1906610335909
 20
388.3867901096194
 30
0.0
  0
VERTEX
  5
2E2
330
2B6
100
AcDbEntity
  8
Make2D$可见线$普通线
100
AcDbVertex
100
AcDb2dVertex
 10
137.1916528820573
 20
388.3865591267556
 30
0.0
  0
VERTEX
  5
2E3
330
2B6
100
AcDbEntity
  8
Make2D$可见线$普通线
100
AcDbVertex
100
AcDb2dVertex
 10
137.1926518168198
 20
388.3863510849974
 30
0.0
  0
VERTEX
  5
2E4
330
2B6
100
AcDbEntity
  8
Make2D$可见线$普通线
100
AcDbVertex
100
AcDb2dVertex
 10
137.1936570421401
 20
388.3861662826057
 30
0.0
  0
VERTEX
  5
2E5
330
2B6
100
AcDbEntity
  8
Make2D$可见线$普通线
100
AcDbVertex
100
AcDb2dVertex
 10
137.1946677464375
 20
388.3860049809738
 30
0.0
  0
VERTEX
  5
2E6
330
2B6
100
AcDbEntity
  8
Make2D$可见线$普通线
100
AcDbVertex
100
AcDb2dVertex
 10
137.1956831044313
 20
388.3858674036155
 30
0.0
  0
VERTEX
  5
2E7
330
2B6
100
AcDbEntity
  8
Make2D$可见线$普通线
100
AcDbVertex
100
AcDb2dVertex
 10
137.1967022793594
 20
388.3857537353023
 30
0.0
  0
VERTEX
  5
2E8
330
2B6
100
AcDbEntity
  8
Make2D$可见线$普通线
100
AcDbVertex
100
AcDb2dVertex
 10
137.1977244252588
 20
388.3856641213595
 30
0.0
  0
VERTEX
  5
2E9
330
2B6
100
AcDbEntity
  8
Make2D$可见线$普通线
100
AcDbVertex
100
AcDb2dVertex
 10
137.1987486892964
 20
388.3855986671205
 30
0.0
  0
VERTEX
  5
2EA
330
2B6
100
AcDbEntity
  8
Make2D$可见线$普通线
100
AcDbVertex
100
AcDb2dVertex
 10
137.1997742141371
 20
388.3855574375509
 30
0.0
  0
VERTEX
  5
2EB
330
2B6
100
AcDbEntity
  8
Make2D$可见线$普通线
100
AcDbVertex
100
AcDb2dVertex
 10
137.2008001403335
 20
388.3855404570374
 30
0.0
  0
VERTEX
  5
2EC
330
2B6
100
AcDbEntity
  8
Make2D$可见线$普通线
100
AcDbVertex
100
AcDb2dVertex
 10
137.2018256087258
 20
388.3855477093489
 30
0.0
  0
VERTEX
  5
2ED
330
2B6
100
AcDbEntity
  8
Make2D$可见线$普通线
100
AcDbVertex
100
AcDb2dVertex
 10
137.2028497628352
 20
388.3855791377663
 30
0.0
  0
VERTEX
  5
2EE
330
2B6
100
AcDbEntity
  8
Make2D$可见线$普通线
100
AcDbVertex
100
AcDb2dVertex
 10
137.2038717512391
 20
388.3856346453815
 30
0.0
  0
VERTEX
  5
2EF
330
2B6
100
AcDbEntity
  8
Make2D$可见线$普通线
100
AcDbVertex
100
AcDb2dVertex
 10
137.2048907299128
 20
388.3857140955618
 30
0.0
  0
VERTEX
  5
2F0
330
2B6
100
AcDbEntity
  8
Make2D$可见线$普通线
100
AcDbVertex
100
AcDb2dVertex
 10
137.2059058645249
 20
388.3858173125774
 30
0.0
  0
VERTEX
  5
2F1
330
2B6
100
AcDbEntity
  8
Make2D$可见线$普通线
100
AcDbVertex
100
AcDb2dVertex
 10
137.2069163326734
 20
388.3859440823856
 30
0.0
  0
VERTEX
  5
2F2
330
2B6
100
AcDbEntity
  8
Make2D$可见线$普通线
100
AcDbVertex
100
AcDb2dVertex
 10
137.2089763741366
 20
388.3862631952999
 30
0.0
  0
VERTEX
  5
2F3
330
2B6
100
AcDbEntity
  8
Make2D$可见线$普通线
100
AcDbVertex
100
AcDb2dVertex
 10
137.2101016966436
 20
388.3864687135944
 30
0.0
  0
VERTEX
  5
2F4
330
2B6
100
AcDbEntity
  8
Make2D$可见线$普通线
100
AcDbVertex
100
AcDb2dVertex
 10
137.2112923218607
 20
388.3867109208455
 30
0.0
  0
VERTEX
  5
2F5
330
2B6
100
AcDbEntity
  8
Make2D$可见线$普通线
100
AcDbVertex
100
AcDb2dVertex
 10
137.2125495759329
 20
388.386994352852
 30
0.0
  0
VERTEX
  5
2F6
330
2B6
100
AcDbEntity
  8
Make2D$可见线$普通线
100
AcDbVertex
100
AcDb2dVertex
 10
137.2138747850052
 20
388.3873235454125
 30
0.0
  0
VERTEX
  5
2F7
330
2B6
100
AcDbEntity
  8
Make2D$可见线$普通线
100
AcDbVertex
100
AcDb2dVertex
 10
137.2152692752226
 20
388.3877030343261
 30
0.0
  0
VERTEX
  5
2F8
330
2B6
100
AcDbEntity
  8
Make2D$可见线$普通线
100
AcDbVertex
100
AcDb2dVertex
 10
137.2167343727299
 20
388.3881373553916
 30
0.0
  0
VERTEX
  5
2F9
330
2B6
100
AcDbEntity
  8
Make2D$可见线$普通线
100
AcDbVertex
100
AcDb2dVertex
 10
137.2182714036722
 20
388.3886310444075
 30
0.0
  0
VERTEX
  5
2FA
330
2B6
100
AcDbEntity
  8
Make2D$可见线$普通线
100
AcDbVertex
100
AcDb2dVertex
 10
137.2198816941944
 20
388.3891886371729
 30
0.0
  0
VERTEX
  5
2FB
330
2B6
100
AcDbEntity
  8
Make2D$可见线$普通线
100
AcDbVertex
100
AcDb2dVertex
 10
137.2215665704414
 20
388.3898146694864
 30
0.0
  0
VERTEX
  5
2FC
330
2B6
100
AcDbEntity
  8
Make2D$可见线$普通线
100
AcDbVertex
100
AcDb2dVertex
 10
137.2233273585582
 20
388.3905136771468
 30
0.0
  0
VERTEX
  5
2FD
330
2B6
100
AcDbEntity
  8
Make2D$可见线$普通线
100
AcDbVertex
100
AcDb2dVertex
 10
137.2251653846898
 20
388.391290195953
 30
0.0
  0
VERTEX
  5
2FE
330
2B6
100
AcDbEntity
  8
Make2D$可见线$普通线
100
AcDbVertex
100
AcDb2dVertex
 10
137.2270819749811
 20
388.3921487617038
 30
0.0
  0
VERTEX
  5
2FF
330
2B6
100
AcDbEntity
  8
Make2D$可见线$普通线
100
AcDbVertex
100
AcDb2dVertex
 10
137.2290784555771
 20
388.3930939101978
 30
0.0
  0
VERTEX
  5
300
330
2B6
100
AcDbEntity
  8
Make2D$可见线$普通线
100
AcDbVertex
100
AcDb2dVertex
 10
137.2311561526226
 20
388.394130177234
 30
0.0
  0
VERTEX
  5
301
330
2B6
100
AcDbEntity
  8
Make2D$可见线$普通线
100
AcDbVertex
100
AcDb2dVertex
 10
137.2333163922628
 20
388.3952620986112
 30
0.0
  0
VERTEX
  5
302
330
2B6
100
AcDbEntity
  8
Make2D$可见线$普通线
100
AcDbVertex
100
AcDb2dVertex
 10
137.2355605006425
 20
388.396494210128
 30
0.0
  0
VERTEX
  5
303
330
2B6
100
AcDbEntity
  8
Make2D$可见线$普通线
100
AcDbVertex
100
AcDb2dVertex
 10
137.2378898039067
 20
388.3978310475834
 30
0.0
  0
VERTEX
  5
304
330
2B6
100
AcDbEntity
  8
Make2D$可见线$普通线
100
AcDbVertex
100
AcDb2dVertex
 10
137.2403056282003
 20
388.3992771467762
 30
0.0
  0
VERTEX
  5
305
330
2B6
100
AcDbEntity
  8
Make2D$可见线$普通线
100
AcDbVertex
100
AcDb2dVertex
 10
137.2454021444557
 20
388.4025152735687
 30
0.0
  0
VERTEX
  5
306
330
2B6
100
AcDbEntity
  8
Make2D$可见线$普通线
100
AcDbVertex
100
AcDb2dVertex
 10
137.2508606585683
 20
388.4062448768961
 30
0.0
  0
VERTEX
  5
307
330
2B6
100
AcDbEntity
  8
Make2D$可见线$普通线
100
AcDbVertex
100
AcDb2dVertex
 10
137.2566917796978
 20
388.4105022431486
 30
0.0
  0
VERTEX
  5
308
330
2B6
100
AcDbEntity
  8
Make2D$可见线$普通线
100
AcDbVertex
100
AcDb2dVertex
 10
137.2629061170038
 20
388.4153236587168
 30
0.0
  0
VERTEX
  5
309
330
2B6
100
AcDbEntity
  8
Make2D$可见线$普通线
100
AcDbVertex
100
AcDb2dVertex
 10
137.2695142796459
 20
388.4207454099908
 30
0.0
  0
VERTEX
  5
30A
330
2B6
100
AcDbEntity
  8
Make2D$可见线$普通线
100
AcDbVertex
100
AcDb2dVertex
 10
137.2765268767838
 20
388.4268037833611
 30
0.0
  0
VERTEX
  5
30B
330
2B6
100
AcDbEntity
  8
Make2D$可见线$普通线
100
AcDbVertex
100
AcDb2dVertex
 10
137.2839678294466
 20
388.4336057358352
 30
0.0
  0
VERTEX
  5
30C
330
2B6
100
AcDbEntity
  8
Make2D$可见线$普通线
100
AcDbVertex
100
AcDb2dVertex
 10
137.2915992139202
 20
388.4410071697693
 30
0.0
  0
VERTEX
  5
30D
330
2B6
100
AcDbEntity
  8
Make2D$可见线$普通线
100
AcDbVertex
100
AcDb2dVertex
 10
137.29940313987
 20
388.4489901936446
 30
0.0
  0
VERTEX
  5
30E
330
2B6
100
AcDbEntity
  8
Make2D$可见线$普通线
100
AcDbVertex
100
AcDb2dVertex
 10
137.3073617169617
 20
388.4575369159423
 30
0.0
  0
VERTEX
  5
30F
330
2B6
100
AcDbEntity
  8
Make2D$可见线$普通线
100
AcDbVertex
100
AcDb2dVertex
 10
137.3154570548609
 20
388.4666294451438
 30
0.0
  0
VERTEX
  5
310
330
2B6
100
AcDbEntity
  8
Make2D$可见线$普通线
100
AcDbVertex
100
AcDb2dVertex
 10
137.323671263233
 20
388.4762498897298
 30
0.0
  0
VERTEX
  5
311
330
2B6
100
AcDbEntity
  8
Make2D$可见线$普通线
100
AcDbVertex
100
AcDb2dVertex
 10
137.3319864517437
 20
388.486380358182
 30
0.0
  0
VERTEX
  5
312
330
2B6
100
AcDbEntity
  8
Make2D$可见线$普通线
100
AcDbVertex
100
AcDb2dVertex
 10
137.3403847300586
 20
388.4970029589812
 30
0.0
  0
VERTEX
  5
313
330
2B6
100
AcDbEntity
  8
Make2D$可见线$普通线
100
AcDbVertex
100
AcDb2dVertex
 10
137.3573589947632
 20
388.519652991546
 30
0.0
  0
VERTEX
  5
314
330
2B6
100
AcDbEntity
  8
Make2D$可见线$普通线
100
AcDbVertex
100
AcDb2dVertex
 10
137.3744509346714
 20
388.5440568552738
 30
0.0
  0
VERTEX
  5
315
330
2B6
100
AcDbEntity
  8
Make2D$可见线$普通线
100
AcDbVertex
100
AcDb2dVertex
 10
137.3915174271078
 20
388.5700714180139
 30
0.0
  0
VERTEX
  5
316
330
2B6
100
AcDbEntity
  8
Make2D$可见线$普通线
100
AcDbVertex
100
AcDb2dVertex
 10
137.4084153493972
 20
388.5975535476159
 30
0.0
  0
VERTEX
  5
317
330
2B6
100
AcDbEntity
  8
Make2D$可见线$普通线
100
AcDbVertex
100
AcDb2dVertex
 10
137.4267065925765
 20
388.629814049569
 30
0.0
  0
VERTEX
  5
318
330
2B6
100
AcDbEntity
  8
Make2D$可见线$普通线
100
AcDbVertex
100
AcDb2dVertex
 10
137.4444092503428
 20
388.6624227682552
 30
0.0
  0
VERTEX
  5
319
330
2B6
100
AcDbEntity
  8
Make2D$可见线$普通线
100
AcDbVertex
100
AcDb2dVertex
 10
137.4615135396754
 20
388.6953635102212
 30
0.0
  0
VERTEX
  5
31A
330
2B6
100
AcDbEntity
  8
Make2D$可见线$普通线
100
AcDbVertex
100
AcDb2dVertex
 10
137.4780102748926
 20
388.7286197211399
 30
0.0
  0
VERTEX
  5
31B
330
2B6
100
AcDbEntity
  8
Make2D$可见线$普通线
100
AcDbVertex
100
AcDb2dVertex
 10
137.4938908840367
 20
388.7621745135057
 30
0.0
  0
VERTEX
  5
31C
330
2B6
100
AcDbEntity
  8
Make2D$可见线$普通线
100
AcDbVertex
100
AcDb2dVertex
 10
137.5091474237089
 20
388.796010695206
 30
0.0
  0
VERTEX
  5
31D
330
2B6
100
AcDbEntity
  8
Make2D$可见线$普通线
100
AcDbVertex
100
AcDb2dVertex
 10
137.5237725923035
 20
388.8301107988706
 30
0.0
  0
VERTEX
  5
31E
330
2B6
100
AcDbEntity
  8
Make2D$可见线$普通线
100
AcDbVertex
100
AcDb2dVertex
 10
137.5377597415922
 20
388.8644571118908
 30
0.0
  0
VERTEX
  5
31F
330
2B6
100
AcDbEntity
  8
Make2D$可见线$普通线
100
AcDbVertex
100
AcDb2dVertex
 10
137.6399435558191
 20
389.1513308421301
 30
0.0
  0
SEQEND
  5
320
330
2B6
100
AcDbEntity
  8
Make2D$可见线$普通线
  0
ARC
  5
321
330
1F
100
AcDbEntity
  8
Make2D$可见线$普通线
100
AcDbCircle
 10
119.7393887986547
 20
491.3908771361753
 30
0.0
 40
22.00000000017352
100
AcDbArc
 50
166.6280590146424
 51
172.0629436067761
  0
ARC
  5
322
330
1F
100
AcDbEntity
  8
Make2D$可见线$普通线
100
AcDbCircle
 10
114.3608928268916
 20
491.3908771361934
 30
0.0
 40
22.00000000009183
100
AcDbArc
 50
7.937059234172834
 51
33.6431798873767
  0
ARC
  5
323
330
1F
100
AcDbEntity
  8
Make2D$可见线$普通线
100
AcDbCircle
 10
137.0051825874133
 20
463.8742298220237
 30
0.0
 40
3.563693315989399
100
AcDbArc
 50
0.7438002267359584
 51
17.07154688045153
  0
LINE
  5
324
330
1F
100
AcDbEntity
  8
Make2D$可见线$普通线
100
AcDbLine
 10
13.47241510631203
 20
456.4032608676517
 30
0.0
 11
5.909209671526594
 21
458.5600666532532
 31
0.0
  0
POLYLINE
  5
325
330
1F
100
AcDbEntity
  8
Make2D$可见线$普通线
100
AcDb2dPolyline
 66
     1
 10
0.0
 20
0.0
 30
0.0
  0
VERTEX
  5
326
330
325
100
AcDbEntity
  8
Make2D$可见线$普通线
100
AcDbVertex
100
AcDb2dVertex
 10
29.64637103888239
 20
451.4203952501027
 30
0.0
  0
VERTEX
  5
327
330
325
100
AcDbEntity
  8
Make2D$可见线$普通线
100
AcDbVertex
100
AcDb2dVertex
 10
28.85642667709499
 20
451.7166815938083
 30
0.0
 42
0.0014440698127648
  0
VERTEX
  5
328
330
325
100
AcDbEntity
  8
Make2D$可见线$普通线
100
AcDbVertex
100
AcDb2dVertex
 10
27.93108675115212
 20
452.0631964787216
 30
0.0
 42
0.0038321453500354
  0
VERTEX
  5
329
330
325
100
AcDbEntity
  8
Make2D$可见线$普通线
100
AcDbVertex
100
AcDb2dVertex
 10
26.65759847941382
 20
452.5246121453687
 30
0.0
 42
0.0096056478501462
  0
VERTEX
  5
32A
330
325
100
AcDbEntity
  8
Make2D$可见线$普通线
100
AcDbVertex
100
AcDb2dVertex
 10
23.90225064657154
 20
453.4393257735484
 30
0.0
 42
0.0037464956098134
  0
VERTEX
  5
32B
330
325
100
AcDbEntity
  8
Make2D$可见线$普通线
100
AcDbVertex
100
AcDb2dVertex
 10
22.57241384409218
 20
453.841832437708
 30
0.0
 42
0.0025763698585762
  0
VERTEX
  5
32C
330
325
100
AcDbEntity
  8
Make2D$可见线$普通线
100
AcDbVertex
100
AcDb2dVertex
 10
21.32030790810569
 20
454.2035287623069
 30
0.0
 42
-0.0028875823917004
  0
VERTEX
  5
32D
330
325
100
AcDbEntity
  8
Make2D$可见线$普通线
100
AcDbVertex
100
AcDb2dVertex
 10
13.51463083246682
 20
456.3911326876411
 30
0.0
  0
SEQEND
  5
32E
330
325
100
AcDbEntity
  8
Make2D$可见线$普通线
  0
ARC
  5
32F
330
1F
100
AcDbEntity
  8
Make2D$可见线$普通线
100
AcDbCircle
 10
20.88408874680177
 20
464.5446419980992
 30
0.0
 40
15.00000000059986
100
AcDbArc
 50
275.9477919912832
 51
278.2600123514759
  0
ARC
  5
330
330
1F
100
AcDbEntity
  8
Make2D$可见线$普通线
100
AcDbCircle
 10
20.88408874688855
 20
464.544641997628
 30
0.0
 40
15.00000000012313
100
AcDbArc
 50
270.1567648259992
 51
272.3748354156389
  0
ARC
  5
331
330
1F
100
AcDbEntity
  8
Make2D$可见线$普通线
100
AcDbCircle
 10
20.88408874684094
 20
464.5446419966393
 30
0.0
 40
14.99999999913246
100
AcDbArc
 50
264.5524341641207
 51
266.7070171474983
  0
ARC
  5
332
330
1F
100
AcDbEntity
  8
Make2D$可见线$普通线
100
AcDbCircle
 10
20.88408874688542
 20
464.5446419972443
 30
0.0
 40
14.99999999973899
100
AcDbArc
 50
256.9661995606527
 51
261.183300224661
  0
LINE
  5
333
330
1F
100
AcDbEntity
  8
Make2D$可见线$普通线
100
AcDbLine
 10
24.94931705810943
 20
449.5538475298952
 30
0.0
 11
25.20996403605207
 21
449.6866202658658
 31
0.0
  0
ARC
  5
334
330
1F
100
AcDbEntity
  8
Make2D$可见线$普通线
100
AcDbCircle
 10
24.75640091822197
 20
450.5778445027403
 30
0.0
 40
1.000000000039675
100
AcDbArc
 50
296.9941477650577
 51
341.9941477675414
  0
LINE
  5
335
330
1F
100
AcDbEntity
  8
Make2D$可见线$普通线
100
AcDbLine
 10
26.46292210849182
 20
452.5931008658221
 30
0.0
 11
25.70742586638193
 21
450.2687303682046
 31
0.0
  0
LINE
  5
336
330
1F
100
AcDbEntity
  8
Make2D$可见线$普通线
100
AcDbLine
 10
9.173455703154488
 20
457.6310009028771
 30
0.0
 11
8.588976800659793
 21
455.8327847878049
 31
0.0
  0
ARC
  5
337
330
1F
100
AcDbEntity
  8
Make2D$可见线$普通线
100
AcDbCircle
 10
9.540001748566043
 20
455.5236706531791
 30
0.0
 40
0.9999999999405894
100
AcDbArc
 50
161.9941477576243
 51
206.9941477670778
  0
LINE
  5
338
330
1F
100
AcDbEntity
  8
Make2D$可见线$普通线
100
AcDbLine
 10
8.781892940362663
 20
454.8087878147035
 30
0.0
 11
8.649120204374373
 21
455.0694347926477
 31
0.0
  0
ARC
  5
339
330
1F
100
AcDbEntity
  8
Make2D$可见线$普通线
100
AcDbCircle
 10
20.88408874713019
 20
464.5446419976588
 30
0.0
 40
15.00000000024145
100
AcDbArc
 50
225.7282831768182
 51
228.0405035367145
  0
ARC
  5
33A
330
1F
100
AcDbEntity
  8
Make2D$可见线$普通线
100
AcDbCircle
 10
20.88408874702623
 20
464.5446419975595
 30
0.0
 40
15.00000000009847
100
AcDbArc
 50
231.6134601123349
 51
233.8315307019981
  0
ARC
  5
33B
330
1F
100
AcDbEntity
  8
Make2D$可见线$普通线
100
AcDbCircle
 10
20.88408874699013
 20
464.5446419975368
 30
0.0
 40
15.00000000005951
100
AcDbArc
 50
237.2812783803441
 51
239.4358613638416
  0
ARC
  5
33C
330
1F
100
AcDbEntity
  8
Make2D$可见线$普通线
100
AcDbCircle
 10
20.88408874684734
 20
464.5446419973072
 30
0.0
 40
14.99999999978941
100
AcDbArc
 50
242.8049953033171
 51
247.0220959675216
  0
POLYLINE
  5
33D
330
1F
100
AcDbEntity
  8
Make2D$可见线$普通线
100
AcDb2dPolyline
 66
     1
 10
0.0
 20
0.0
 30
0.0
  0
VERTEX
  5
33E
330
33D
100
AcDbEntity
  8
Make2D$可见线$普通线
100
AcDbVertex
100
AcDb2dVertex
 10
96.33560231918011
 20
504.8447767184821
 30
0.0
 42
-0.0035744279356494
  0
VERTEX
  5
33F
330
33D
100
AcDbEntity
  8
Make2D$可见线$普通线
100
AcDbVertex
100
AcDb2dVertex
 10
96.31438287920837
 20
505.3789540003369
 30
0.0
 42
0.0439784969892772
  0
VERTEX
  5
340
330
33D
100
AcDbEntity
  8
Make2D$可见线$普通线
100
AcDbVertex
100
AcDb2dVertex
 10
96.0444328706119
 20
507.920862022425
 30
0.0
  0
SEQEND
  5
341
330
33D
100
AcDbEntity
  8
Make2D$可见线$普通线
  0
LINE
  5
342
330
1F
100
AcDbEntity
  8
Make2D$可见线$普通线
100
AcDbLine
 10
96.43558469604272
 20
504.2578562741514
 30
0.0
 11
96.42488522277449
 21
504.2642609300416
 31
0.0
  0
POLYLINE
  5
343
330
1F
100
AcDbEntity
  8
Make2D$可见线$普通线
100
AcDb2dPolyline
 66
     1
 10
0.0
 20
0.0
 30
0.0
  0
VERTEX
  5
344
330
343
100
AcDbEntity
  8
Make2D$可见线$普通线
100
AcDbVertex
100
AcDb2dVertex
 10
96.42488502837064
 20
504.2642607027615
 30
0.0
 42
-0.1073107473831697
  0
VERTEX
  5
345
330
343
100
AcDbEntity
  8
Make2D$可见线$普通线
100
AcDbVertex
100
AcDb2dVertex
 10
96.35325664896794
 20
504.5746205270345
 30
0.0
  0
VERTEX
  5
346
330
343
100
AcDbEntity
  8
Make2D$可见线$普通线
100
AcDbVertex
100
AcDb2dVertex
 10
96.33560231918011
 20
504.8447767184821
 30
0.0
  0
SEQEND
  5
347
330
343
100
AcDbEntity
  8
Make2D$可见线$普通线
  0
ARC
  5
348
330
1F
100
AcDbEntity
  8
Make2D$可见线$普通线
100
AcDbCircle
 10
83.83029390529926
 20
505.2731962415193
 30
0.0
 40
12.49781280419668
100
AcDbArc
 50
12.23081062725375
 51
26.07840721307499
  0
POLYLINE
  5
349
330
1F
100
AcDbEntity
  8
Make2D$可见线$普通线
100
AcDb2dPolyline
 66
     1
 10
0.0
 20
0.0
 30
0.0
  0
VERTEX
  5
34A
330
349
100
AcDbEntity
  8
Make2D$可见线$普通线
100
AcDbVertex
100
AcDb2dVertex
 10
95.05574575265328
 20
510.7672435394117
 30
0.0
 42
-0.0404050589808486
  0
VERTEX
  5
34B
330
349
100
AcDbEntity
  8
Make2D$可见线$普通线
100
AcDbVertex
100
AcDb2dVertex
 10
94.88495021034798
 20
511.2132304744813
 30
0.0
 42
-0.0653234700625592
  0
VERTEX
  5
34C
330
349
100
AcDbEntity
  8
Make2D$可见线$普通线
100
AcDbVertex
100
AcDb2dVertex
 10
94.8809719893647
 20
511.2636404284565
 30
0.0
  0
VERTEX
  5
34D
330
349
100
AcDbEntity
  8
Make2D$可见线$普通线
100
AcDbVertex
100
AcDb2dVertex
 10
94.90095996954079
 20
511.2988528055433
 30
0.0
  0
SEQEND
  5
34E
330
349
100
AcDbEntity
  8
Make2D$可见线$普通线
  0
ARC
  5
34F
330
1F
100
AcDbEntity
  8
Make2D$可见线$普通线
100
AcDbCircle
 10
87.79480502360875
 20
507.3799890642414
 30
0.0
 40
8.11509070799099
100
AcDbArc
 50
28.87562090488618
 51
36.32018287959768
  0
ARC
  5
350
330
1F
100
AcDbEntity
  8
Make2D$可见线$普通线
100
AcDbCircle
 10
97.01947925122467
 20
496.9787501117818
 30
0.0
 40
0.4999999999441798
100
AcDbArc
 50
179.9999999971274
 51
270.0000000071603
  0
LINE
  5
351
330
1F
100
AcDbEntity
  8
Make2D$可见线$普通线
100
AcDbLine
 10
97.03314392668585
 20
496.4787501118377
 30
0.0
 11
97.03478740084246
 21
496.4787501118377
 31
0.0
  0
LINE
  5
352
330
1F
100
AcDbEntity
  8
Make2D$可见线$普通线
100
AcDbLine
 10
97.10268231668401
 20
496.4787501118377
 30
0.0
 11
97.11669743292923
 21
496.4787501118377
 31
0.0
  0
LINE
  5
353
330
1F
100
AcDbEntity
  8
Make2D$可见线$普通线
100
AcDbLine
 10
97.12808359392368
 20
496.4787501118376
 30
0.0
 11
97.1424889040213
 21
496.4787501118376
 31
0.0
  0
LINE
  5
354
330
1F
100
AcDbEntity
  8
Make2D$可见线$普通线
100
AcDbLine
 10
97.15683271459652
 20
496.4787501118377
 30
0.0
 11
97.17129793794149
 21
496.4787501118377
 31
0.0
  0
LINE
  5
355
330
1F
100
AcDbEntity
  8
Make2D$可见线$普通线
100
AcDbLine
 10
97.6244063908406
 20
496.4787501118376
 30
0.0
 11
97.68873126172412
 21
496.4787501118375
 31
0.0
  0
LINE
  5
356
330
1F
100
AcDbEntity
  8
Make2D$可见线$普通线
100
AcDbLine
 10
97.75068679470515
 20
496.4787501118378
 30
0.0
 11
97.75606830689493
 21
496.4787501118377
 31
0.0
  0
LINE
  5
357
330
1F
100
AcDbEntity
  8
Make2D$可见线$普通线
100
AcDbLine
 10
97.8182202831939
 20
496.4787501118378
 30
0.0
 11
98.05545054668606
 21
496.4787501118377
 31
0.0
  0
LINE
  5
358
330
1F
100
AcDbEntity
  8
Make2D$可见线$普通线
100
AcDbLine
 10
98.31050836146972
 20
496.4787501118378
 30
0.0
 11
98.33591290759254
 21
496.4787501118377
 31
0.0
  0
LINE
  5
359
330
1F
100
AcDbEntity
  8
Make2D$可见线$普通线
100
AcDbLine
 10
99.0007962946595
 20
496.4787501118377
 30
0.0
 11
100.0194412399774
 21
496.4787501118377
 31
0.0
  0
LINE
  5
35A
330
1F
100
AcDbEntity
  8
Make2D$可见线$普通线
100
AcDbLine
 10
100.7268395615434
 20
496.4787501118377
 30
0.0
 11
100.8011371541383
 21
496.4787501118377
 31
0.0
  0
LINE
  5
35B
330
1F
100
AcDbEntity
  8
Make2D$可见线$普通线
100
AcDbLine
 10
100.8650307287099
 20
496.4787501118375
 30
0.0
 11
100.9909222038255
 21
496.4787501118375
 31
0.0
  0
LINE
  5
35C
330
1F
100
AcDbEntity
  8
Make2D$可见线$普通线
100
AcDbLine
 10
101.0049351647415
 20
496.4787501118378
 30
0.0
 11
101.1396339387103
 21
496.4787501118377
 31
0.0
  0
LINE
  5
35D
330
1F
100
AcDbEntity
  8
Make2D$可见线$普通线
100
AcDbLine
 10
101.1465011113994
 20
496.4787501118376
 30
0.0
 11
102.1796561594942
 21
496.4787501118376
 31
0.0
  0
LINE
  5
35E
330
1F
100
AcDbEntity
  8
Make2D$可见线$普通线
100
AcDbLine
 10
103.1147460796867
 20
496.4787501118377
 30
0.0
 11
103.2742285531064
 21
496.4787501118377
 31
0.0
  0
LINE
  5
35F
330
1F
100
AcDbEntity
  8
Make2D$可见线$普通线
100
AcDbLine
 10
103.2837414225682
 20
496.4787501118377
 30
0.0
 11
103.4346210945084
 21
496.4787501118377
 31
0.0
  0
LINE
  5
360
330
1F
100
AcDbEntity
  8
Make2D$可见线$普通线
100
AcDbLine
 10
103.4640464727036
 20
496.4787501118376
 30
0.0
 11
103.5958765730788
 21
496.4787501118376
 31
0.0
  0
LINE
  5
361
330
1F
100
AcDbEntity
  8
Make2D$可见线$普通线
100
AcDbLine
 10
103.64641459579
 20
496.4787501118377
 30
0.0
 11
105.3757429142801
 21
496.4787501118376
 31
0.0
  0
LINE
  5
362
330
1F
100
AcDbEntity
  8
Make2D$可见线$普通线
100
AcDbLine
 10
105.4137458372954
 20
496.4787501118377
 30
0.0
 11
105.5771340927837
 21
496.4787501118377
 31
0.0
  0
LINE
  5
363
330
1F
100
AcDbEntity
  8
Make2D$可见线$普通线
100
AcDbLine
 10
105.5818955387772
 20
496.4787501118377
 30
0.0
 11
105.7503503431149
 21
496.4787501118377
 31
0.0
  0
LINE
  5
364
330
1F
100
AcDbEntity
  8
Make2D$可见线$普通线
100
AcDbLine
 10
105.7802667797423
 20
496.4787501118377
 30
0.0
 11
105.919072227106
 21
496.4787501118377
 31
0.0
  0
LINE
  5
365
330
1F
100
AcDbEntity
  8
Make2D$可见线$普通线
100
AcDbLine
 10
106.2571674903667
 20
496.4787501118377
 30
0.0
 11
106.3998226084841
 21
496.4787501118377
 31
0.0
  0
LINE
  5
366
330
1F
100
AcDbEntity
  8
Make2D$可见线$普通线
100
AcDbLine
 10
106.4264679914943
 20
496.4787501118377
 30
0.0
 11
106.5958894213856
 21
496.4787501118377
 31
0.0
  0
LINE
  5
367
330
1F
100
AcDbEntity
  8
Make2D$可见线$普通线
100
AcDbLine
 10
106.6096241109667
 20
496.4787501118376
 30
0.0
 11
106.7653973535178
 21
496.4787501118377
 31
0.0
  0
LINE
  5
368
330
1F
100
AcDbEntity
  8
Make2D$可见线$普通线
100
AcDbLine
 10
106.8210120166241
 20
496.4787501118375
 30
0.0
 11
107.0339530765021
 21
496.4787501118377
 31
0.0
  0
LINE
  5
369
330
1F
100
AcDbEntity
  8
Make2D$可见线$普通线
100
AcDbLine
 10
107.1045374545209
 20
496.4787501118377
 30
0.0
 11
107.2484140418532
 21
496.4787501118377
 31
0.0
  0
LINE
  5
36A
330
1F
100
AcDbEntity
  8
Make2D$可见线$普通线
100
AcDbLine
 10
107.2741040179812
 20
496.4787501118378
 30
0.0
 11
107.4436254695627
 21
496.4787501118377
 31
0.0
  0
LINE
  5
36B
330
1F
100
AcDbEntity
  8
Make2D$可见线$普通线
100
AcDbLine
 10
107.4643616640192
 20
496.4787501118376
 30
0.0
 11
107.9005838931592
 21
496.4787501118377
 31
0.0
  0
LINE
  5
36C
330
1F
100
AcDbEntity
  8
Make2D$可见线$普通线
100
AcDbLine
 10
107.951613863764
 20
496.4787501118379
 30
0.0
 11
108.2894988536349
 21
496.4787501118377
 31
0.0
  0
LINE
  5
36D
330
1F
100
AcDbEntity
  8
Make2D$可见线$普通线
100
AcDbLine
 10
108.3423537616786
 20
496.4787501118376
 30
0.0
 11
108.5652359562002
 21
496.4787501118376
 31
0.0
  0
LINE
  5
36E
330
1F
100
AcDbEntity
  8
Make2D$可见线$普通线
100
AcDbLine
 10
108.6265039926019
 20
496.4787501118377
 30
0.0
 11
108.7894052855405
 21
496.4787501118377
 31
0.0
  0
LINE
  5
36F
330
1F
100
AcDbEntity
  8
Make2D$可见线$普通线
100
AcDbLine
 10
108.7946104570372
 20
496.4787501118377
 30
0.0
 11
108.9624186918937
 21
496.4787501118377
 31
0.0
  0
LINE
  5
370
330
1F
100
AcDbEntity
  8
Make2D$可见线$普通线
100
AcDbLine
 10
109.0148285603518
 20
496.4787501118376
 30
0.0
 11
109.2414724396916
 21
496.4787501118376
 31
0.0
  0
LINE
  5
371
330
1F
100
AcDbEntity
  8
Make2D$可见线$普通线
100
AcDbLine
 10
109.2970437109085
 20
496.4787501118377
 30
0.0
 11
109.4638131896589
 21
496.4787501118376
 31
0.0
  0
LINE
  5
372
330
1F
100
AcDbEntity
  8
Make2D$可见线$普通线
100
AcDbLine
 10
109.4693038301835
 20
496.4787501118377
 30
0.0
 11
109.6301905738764
 21
496.4787501118377
 31
0.0
  0
LINE
  5
373
330
1F
100
AcDbEntity
  8
Make2D$可见线$普通线
100
AcDbLine
 10
109.6982831266114
 20
496.4787501118377
 30
0.0
 11
109.9283718286712
 21
496.4787501118376
 31
0.0
  0
LINE
  5
374
330
1F
100
AcDbEntity
  8
Make2D$可见线$普通线
100
AcDbLine
 10
109.9616822345846
 20
496.4787501118377
 30
0.0
 11
110.1267546751069
 21
496.4787501118377
 31
0.0
  0
LINE
  5
375
330
1F
100
AcDbEntity
  8
Make2D$可见线$普通线
100
AcDbLine
 10
110.1595378523078
 20
496.4787501118377
 30
0.0
 11
110.3917490797759
 21
496.4787501118377
 31
0.0
  0
LINE
  5
376
330
1F
100
AcDbEntity
  8
Make2D$可见线$普通线
100
AcDbLine
 10
110.4554539396703
 20
496.4787501118376
 30
0.0
 11
110.6190427212241
 21
496.4787501118376
 31
0.0
  0
LINE
  5
377
330
1F
100
AcDbEntity
  8
Make2D$可见线$普通线
100
AcDbLine
 10
110.6249735374504
 20
496.4787501118376
 30
0.0
 11
110.7821002659373
 21
496.4787501118377
 31
0.0
  0
LINE
  5
378
330
1F
100
AcDbEntity
  8
Make2D$可见线$普通线
100
AcDbLine
 10
110.9446091468527
 20
496.4787501118375
 30
0.0
 11
111.0943338820193
 21
496.4787501118377
 31
0.0
  0
LINE
  5
379
330
1F
100
AcDbEntity
  8
Make2D$可见线$普通线
100
AcDbLine
 10
111.1065527270031
 20
496.4787501118375
 30
0.0
 11
111.2679145404728
 21
496.4787501118376
 31
0.0
  0
LINE
  5
37A
330
1F
100
AcDbEntity
  8
Make2D$可见线$普通线
100
AcDbLine
 10
111.4286793459277
 20
496.4787501118377
 30
0.0
 11
111.5673440422588
 21
496.4787501118377
 31
0.0
  0
LINE
  5
37B
330
1F
100
AcDbEntity
  8
Make2D$可见线$普通线
100
AcDbLine
 10
111.5888321544595
 20
496.4787501118378
 30
0.0
 11
111.7483582492614
 21
496.4787501118377
 31
0.0
  0
LINE
  5
37C
330
1F
100
AcDbEntity
  8
Make2D$可见线$普通线
100
AcDbLine
 10
111.9072440737647
 20
496.4787501118376
 30
0.0
 11
112.0436480465127
 21
496.4787501118377
 31
0.0
  0
LINE
  5
37D
330
1F
100
AcDbEntity
  8
Make2D$可见线$普通线
100
AcDbLine
 10
112.0654763310214
 20
496.4787501118376
 30
0.0
 11
112.2230419083829
 21
496.4787501118376
 31
0.0
  0
LINE
  5
37E
330
1F
100
AcDbEntity
  8
Make2D$可见线$普通线
100
AcDbLine
 10
112.3799289020546
 20
496.4787501118377
 30
0.0
 11
112.5229880484016
 21
496.4787501118377
 31
0.0
  0
LINE
  5
37F
330
1F
100
AcDbEntity
  8
Make2D$可见线$普通线
100
AcDbLine
 10
112.536125562426
 20
496.4787501118377
 30
0.0
 11
112.6916203257491
 21
496.4787501118377
 31
0.0
  0
LINE
  5
380
330
1F
100
AcDbEntity
  8
Make2D$可见线$普通线
100
AcDbLine
 10
112.8464030702206
 20
496.4787501118376
 30
0.0
 11
113.0004629313306
 21
496.4787501118376
 31
0.0
  0
LINE
  5
381
330
1F
100
AcDbEntity
  8
Make2D$可见线$普通线
100
AcDbLine
 10
113.0050500784658
 20
496.4787501118377
 30
0.0
 11
113.1537905458393
 21
496.4787501118376
 31
0.0
  0
LINE
  5
382
330
1F
100
AcDbEntity
  8
Make2D$可见线$普通线
100
AcDbLine
 10
113.368016734053
 20
496.4787501118375
 30
0.0
 11
113.4542124742683
 21
496.4787501118375
 31
0.0
  0
ARC
  5
383
330
1F
100
AcDbEntity
  8
Make2D$可见线$普通线
100
AcDbCircle
 10
137.0807996456267
 20
506.1850294288411
 30
0.0
 40
0.4999994338725434
100
AcDbArc
 50
295.0009564370638
 51
359.9998690876104
  0
LINE
  5
384
330
1F
100
AcDbEntity
  8
Make2D$可见线$普通线
100
AcDbLine
 10
110.5364768382084
 20
520.6415457707999
 30
0.0
 11
61.72290394473899
 21
520.6415457707999
 31
0.0
  0
ARC
  5
385
330
1F
100
AcDbEntity
  8
Make2D$可见线$普通线
100
AcDbCircle
 10
111.2443940500828
 20
363.5455174492882
 30
0.0
 40
157.097630358206
100
AcDbArc
 50
88.38097891693471
 51
90.25818847337902
  0
ARC
  5
386
330
1F
100
AcDbEntity
  8
Make2D$可见线$普通线
100
AcDbCircle
 10
112.185259809088
 20
405.8879637038499
 30
0.0
 40
114.7450920549663
100
AcDbArc
 50
87.61110186274685
 51
88.25320503655546
  0
ARC
  5
387
330
1F
100
AcDbEntity
  8
Make2D$可见线$普通线
100
AcDbCircle
 10
112.3991581080981
 20
410.9454712191368
 30
0.0
 40
109.6830642082905
100
AcDbArc
 50
86.94235441183477
 51
87.61261940602007
  0
ARC
  5
388
330
1F
100
AcDbEntity
  8
Make2D$可见线$普通线
100
AcDbCircle
 10
112.9439177418256
 20
420.9936766277796
 30
0.0
 40
99.62010617309244
100
AcDbArc
 50
86.21148641550687
 51
86.94695913730614
  0
SPLINE
  5
389
330
1F
100
AcDbEntity
  8
Make2D$可见线$普通线
100
AcDbSpline
210
0.0
220
0.0
230
1.0
 70
     8
 71
     3
 72
     8
 73
     4
 74
     0
 42
0.000000001
 43
0.0000000001
 12
1.0
 22
0.0
 32
0.0
 13
1.0
 23
0.0
 33
0.0
 40
0.0020138004429033
 40
0.0020138004429033
 40
0.0020138004429033
 40
0.0020138004429033
 40
17.09588524566561
 40
17.09588524566561
 40
17.09588524566561
 40
17.09588524566561
 10
137.0394054274927
 20
515.9045961115021
 30
0.0
 10
132.0638844609932
 20
518.4385079219296
 30
0.0
 10
127.6192821470417
 20
519.7461888766854
 30
0.0
 10
120.7967765504351
 20
520.303020686921
 30
0.0
  0
POLYLINE
  5
38A
330
1F
100
AcDbEntity
  8
Make2D$可见线$普通线
100
AcDb2dPolyline
 66
     1
 10
0.0
 20
0.0
 30
0.0
  0
VERTEX
  5
38B
330
38A
100
AcDbEntity
  8
Make2D$可见线$普通线
100
AcDbVertex
100
AcDb2dVertex
 10
97.16043595463735
 20
511.3240006144712
 30
0.0
  0
VERTEX
  5
38C
330
38A
100
AcDbEntity
  8
Make2D$可见线$普通线
100
AcDbVertex
100
AcDb2dVertex
 10
97.15996035792767
 20
511.3242562449449
 30
0.0
  0
VERTEX
  5
38D
330
38A
100
AcDbEntity
  8
Make2D$可见线$普通线
100
AcDbVertex
100
AcDb2dVertex
 10
97.14871480964776
 20
511.3302942049336
 30
0.0
 42
0.0258466318144873
  0
VERTEX
  5
38E
330
38A
100
AcDbEntity
  8
Make2D$可见线$普通线
100
AcDbVertex
100
AcDb2dVertex
 10
96.59913346224515
 20
511.5706281070908
 30
0.0
 42
0.0127984866100311
  0
VERTEX
  5
38F
330
38A
100
AcDbEntity
  8
Make2D$可见线$普通线
100
AcDbVertex
100
AcDb2dVertex
 10
96.11414034231677
 20
511.741363629186
 30
0.0
 42
0.0092305350998119
  0
VERTEX
  5
390
330
38A
100
AcDbEntity
  8
Make2D$可见线$普通线
100
AcDbVertex
100
AcDb2dVertex
 10
95.67208039200455
 20
511.8754294276974
 30
0.0
 42
0.0166154988972162
  0
VERTEX
  5
391
330
38A
100
AcDbEntity
  8
Make2D$可见线$普通线
100
AcDbVertex
100
AcDb2dVertex
 10
94.59193315974125
 20
512.1406401374941
 30
0.0
 42
0.0048086859767368
  0
VERTEX
  5
392
330
38A
100
AcDbEntity
  8
Make2D$可见线$普通线
100
AcDbVertex
100
AcDb2dVertex
 10
94.2142046101172
 20
512.2168298899323
 30
0.0
 42
0.0087295398397862
  0
VERTEX
  5
393
330
38A
100
AcDbEntity
  8
Make2D$可见线$普通线
100
AcDbVertex
100
AcDb2dVertex
 10
93.43112529735504
 20
512.3524947740897
 30
0.0
 42
0.0111901450105108
  0
VERTEX
  5
394
330
38A
100
AcDbEntity
  8
Make2D$可见线$普通线
100
AcDbVertex
100
AcDb2dVertex
 10
92.21963478602314
 20
512.5126326917864
 30
0.0
 42
0.0095930882257861
  0
VERTEX
  5
395
330
38A
100
AcDbEntity
  8
Make2D$可见线$普通线
100
AcDbVertex
100
AcDb2dVertex
 10
90.97499209651198
 20
512.6246642843939
 30
0.0
 42
0.0081219097504628
  0
VERTEX
  5
396
330
38A
100
AcDbEntity
  8
Make2D$可见线$普通线
100
AcDbVertex
100
AcDb2dVertex
 10
89.70292440969112
 20
512.6940393977336
 30
0.0
 42
0.0100853229364406
  0
VERTEX
  5
397
330
38A
100
AcDbEntity
  8
Make2D$可见线$普通线
100
AcDbVertex
100
AcDb2dVertex
 10
87.13646242577019
 20
512.7313026292484
 30
0.0
  0
SEQEND
  5
398
330
38A
100
AcDbEntity
  8
Make2D$可见线$普通线
  0
ARC
  5
399
330
1F
100
AcDbEntity
  8
Make2D$可见线$普通线
100
AcDbCircle
 10
74.05115844632078
 20
3508.622951240005
 30
0.0
 40
2995.92014695775
100
AcDbArc
 50
269.7813230712082
 51
270.2499597349106
  0
POLYLINE
  5
39A
330
1F
100
AcDbEntity
  8
Make2D$可见线$普通线
100
AcDb2dPolyline
 66
     1
 10
0.0
 20
0.0
 30
0.0
  0
VERTEX
  5
39B
330
39A
100
AcDbEntity
  8
Make2D$可见线$普通线
100
AcDbVertex
100
AcDb2dVertex
 10
47.48902652421067
 20
519.8541216392442
 30
0.0
 42
-0.0081338495922325
  0
VERTEX
  5
39C
330
39A
100
AcDbEntity
  8
Make2D$可见线$普通线
100
AcDbVertex
100
AcDb2dVertex
 10
49.25754963581784
 20
520.0880329527579
 30
0.0
 42
-0.0168788449269345
  0
VERTEX
  5
39D
330
39A
100
AcDbEntity
  8
Make2D$可见线$普通线
100
AcDbVertex
100
AcDb2dVertex
 10
54.59209309237573
 20
520.5133314517091
 30
0.0
 42
-0.0044173000513831
  0
VERTEX
  5
39E
330
39A
100
AcDbEntity
  8
Make2D$可见线$普通线
100
AcDbVertex
100
AcDb2dVertex
 10
56.37526664058441
 20
520.5825635010345
 30
0.0
 42
-0.0037496024602723
  0
VERTEX
  5
39F
330
39A
100
AcDbEntity
  8
Make2D$可见线$普通线
100
AcDbVertex
100
AcDb2dVertex
 10
58.1584904116703
 20
520.6224916184935
 30
0.0
  0
VERTEX
  5
3A0
330
39A
100
AcDbEntity
  8
Make2D$可见线$普通线
100
AcDbVertex
100
AcDb2dVertex
 10
61.72290394441668
 20
520.6417111811764
 30
0.0
  0
SEQEND
  5
3A1
330
39A
100
AcDbEntity
  8
Make2D$可见线$普通线
  0
ARC
  5
3A2
330
1F
100
AcDbEntity
  8
Make2D$可见线$普通线
100
AcDbCircle
 10
52.63130535663747
 20
483.0038661844616
 30
0.0
 40
37.20719950109176
100
AcDbArc
 50
97.94405517151677
 51
115.0748125416468
  0
SPLINE
  5
3A3
330
1F
100
AcDbEntity
  8
Make2D$可见线$普通线
100
AcDbSpline
210
0.0
220
0.0
230
1.0
 70
    12
 71
     3
 72
    35
 73
    31
 74
     0
 42
0.000000001
 43
0.0000000001
 12
1.0
 22
0.0
 32
0.0
 13
1.0
 23
0.0
 33
0.0
 40
0.0263789906103547
 40
0.0263789906103547
 40
0.0263789906103547
 40
0.0263789906103547
 40
0.3560569801602277
 40
0.3560569801602277
 40
0.3560569801602277
 40
0.7175961433228872
 40
0.7175961433228872
 40
0.7175961433228872
 40
0.767171025749508
 40
0.817762573600328
 40
0.9224211737181032
 40
1.144231067858159
 40
1.144231067858159
 40
1.144231067858159
 40
1.622875270887453
 40
1.622875270887453
 40
1.622875270887453
 40
2.101509748420999
 40
2.101509748420999
 40
2.101509748420999
 40
2.156905687241838
 40
2.212404944552326
 40
2.32331092673489
 40
2.528130102017392
 40
2.528130102017392
 40
2.528130102017392
 40
2.889688737240796
 40
2.889688737240796
 40
2.889688737240796
 40
3.219442027865363
 40
3.219442027865363
 40
3.219442027865363
 40
3.219442027865363
 10
36.86112644801693
 20
514.1036952196789
 30
0.0
 41
1.0
 10
36.7628449956378
 20
514.1492447553173
 30
0.0
 41
1.0
 10
36.66491696088145
 20
514.1968589560081
 30
0.0
 41
1.0
 10
36.57529204596426
 20
514.2651494422475
 30
0.0
 41
1.0
 10
36.47925378885685
 20
514.3391473613758
 30
0.0
 41
0.9880721085485691
 10
36.39886895061874
 20
514.4299070255715
 30
0.0
 41
0.9880721085485697
 10
36.33701399612445
 20
514.5341807205673
 30
0.0
 41
1.0
 10
36.32848673337185
 20
514.5483356040411
 30
0.0
 41
1.0
 10
36.31191778884951
 20
514.5773328392908
 30
0.0
 41
1.0
 10
36.28061866721877
 20
514.6380275161978
 30
0.0
 41
1.0
 10
36.23001839554071
 20
514.7531923192362
 30
0.0
 41
1.0
 10
36.19776130008095
 20
514.857425707469
 30
0.0
 41
1.0
 10
36.18037413490174
 20
514.9292747391387
 30
0.0
 41
1.0
 10
36.14367897512541
 20
515.0849214034135
 30
0.0
 41
0.9954344185830439
 10
36.12541971368541
 20
515.2437893303926
 30
0.0
 41
0.9954344185830436
 10
36.12584644301597
 20
515.4037025467098
 30
0.0
 41
1.0
 10
36.12538376795609
 20
515.5636125606782
 30
0.0
 41
0.9954325923526673
 10
36.14361068028492
 20
515.7224810795939
 30
0.0
 41
0.9954325923526678
 10
36.18027743078625
 20
515.8781312515929
 30
0.0
 41
1.0
 10
36.18461122922321
 20
515.8960861756108
 30
0.0
 41
1.0
 10
36.19387060459758
 20
515.9318633876901
 30
0.0
 41
1.0
 10
36.21473970054485
 20
516.0028236804689
 30
0.0
 41
1.0
 10
36.25587411455727
 20
516.1195746878323
 30
0.0
 41
1.0
 10
36.30165018440147
 20
516.2147209872384
 30
0.0
 41
1.0
 10
36.33686907135614
 20
516.2732271712439
 30
0.0
 41
1.0
 10
36.39872533451406
 20
516.3775083164606
 30
0.0
 41
0.9880632490820127
 10
36.47911926485675
 20
516.4682693791674
 30
0.0
 41
0.9880632490820132
 10
36.57517193541877
 20
516.5422601827678
 30
0.0
 41
1.0
 10
36.66481739331249
 20
516.6105513931504
 30
0.0
 41
1.0
 10
36.76277719976065
 20
516.6581658859186
 30
0.0
 41
1.0
 10
36.86109024273174
 20
516.7037155586999
 30
0.0
 41
1.0
  0
LINE
  5
3A4
330
1F
100
AcDbEntity
  8
Make2D$可见线$普通线
100
AcDbLine
 10
36.86171116063902
 20
514.1034492253555
 30
0.0
 11
36.86200083585845
 21
514.1033150015828
 31
0.0
  0
ARC
  5
3A5
330
1F
100
AcDbEntity
  8
Make2D$可见线$普通线
100
AcDbCircle
 10
54.04314104454471
 20
551.1131944975942
 30
0.0
 40
40.80346434827412
100
AcDbArc
 50
245.0991485424585
 51
248.0373102606981
  0
POLYLINE
  5
3A6
330
1F
100
AcDbEntity
  8
Make2D$可见线$普通线
100
AcDb2dPolyline
 66
     1
 10
0.0
 20
0.0
 30
0.0
  0
VERTEX
  5
3A7
330
3A6
100
AcDbEntity
  8
Make2D$可见线$普通线
100
AcDbVertex
100
AcDb2dVertex
 10
41.70261140248596
 20
512.6280715135546
 30
0.0
  0
VERTEX
  5
3A8
330
3A6
100
AcDbEntity
  8
Make2D$可见线$普通线
100
AcDbVertex
100
AcDb2dVertex
 10
41.70181325676769
 20
512.6280713894407
 30
0.0
 42
-0.104058732042005
  0
VERTEX
  5
3A9
330
3A6
100
AcDbEntity
  8
Make2D$可见线$普通线
100
AcDbVertex
100
AcDb2dVertex
 10
38.78388724579158
 20
513.2703273536403
 30
0.0
  0
SEQEND
  5
3AA
330
3A6
100
AcDbEntity
  8
Make2D$可见线$普通线
  0
LINE
  5
3AB
330
1F
100
AcDbEntity
  8
Make2D$可见线$普通线
100
AcDbLine
 10
49.40762686785011
 20
512.6291797013689
 30
0.0
 11
41.70271638820579
 21
512.6280715998348
 31
0.0
  0
LINE
  5
3AC
330
1F
100
AcDbEntity
  8
Make2D$可见线$普通线
100
AcDbLine
 10
62.60181517427993
 20
512.7246824032864
 30
0.0
 11
49.4424115108329
 21
512.6294557958829
 31
0.0
  0
LINE
  5
3AD
330
1F
100
AcDbEntity
  8
Make2D$可见线$普通线
100
AcDbLine
 10
137.5808023741835
 20
514.9037027951053
 30
0.0
 11
137.5808023741835
 21
506.185028280781
 31
0.0
  0
LINE
  5
3AE
330
1F
100
AcDbEntity
  8
Make2D$可见线$普通线
100
AcDbLine
 10
113.3680171079233
 20
496.4782093201943
 30
0.0
 11
113.3063759346144
 21
496.4782064258995
 31
0.0
  0
LINE
  5
3AF
330
1F
100
AcDbEntity
  8
Make2D$可见线$普通线
100
AcDbLine
 10
137.6142475217944
 20
391.5645992178283
 30
0.0
 11
136.7827977034857
 21
388.9268133154745
 31
0.0
  0
LINE
  5
3B0
330
1F
100
AcDbEntity
  8
Make2D$可见线$普通线
100
AcDbLine
 10
148.8851729170993
 20
388.7218795958029
 30
0.0
 11
139.3738934323828
 21
392.7192480415577
 31
0.0
  0
ARC
  5
3B1
330
1F
100
AcDbEntity
  8
Make2D$可见线$普通线
100
AcDbCircle
 10
138.9851241885058
 20
391.6584915123585
 30
0.0
 40
5.145811477853677
100
AcDbArc
 50
90.23522543168428
 51
128.4021570155133
  0
ARC
  5
3B2
330
1F
100
AcDbEntity
  8
Make2D$可见线$普通线
100
AcDbCircle
 10
138.9604810709
 20
391.757632119705
 30
0.0
 40
1.046633418370225
100
AcDbArc
 50
67.33923560391221
 51
89.80739564849209
  0
ARC
  5
3B3
330
1F
100
AcDbEntity
  8
Make2D$可见线$普通线
100
AcDbCircle
 10
138.957026018718
 20
391.7438024171491
 30
0.0
 40
5.060733936564412
100
AcDbArc
 50
67.50999271445339
 51
87.07214115312566
  0
SPLINE
  5
3B4
330
1F
100
AcDbEntity
  8
Make2D$可见线$普通线
100
AcDbSpline
210
0.0
220
0.0
230
1.0
 70
     8
 71
     3
 72
    11
 73
     7
 74
     0
 42
0.000000001
 43
0.0000000001
 12
1.0
 22
0.0
 32
0.0
 13
1.0
 23
0.0
 33
0.0
 40
0.1258778478970811
 40
0.1258778478970811
 40
0.1258778478970811
 40
0.1258778478970811
 40
1.007078758152569
 40
1.007078758152569
 40
1.007078758152569
 40
2.842168789829552
 40
2.842168789829552
 40
2.842168789829552
 40
2.842168789829552
 10
138.9016150348102
 20
392.8023505076049
 30
0.0
 10
138.7552702107564
 20
392.7933702913888
 30
0.0
 10
138.6035964933538
 20
392.7522176742595
 30
0.0
 10
138.4481848328367
 20
392.6685369333144
 30
0.0
 10
138.1237124281488
 20
392.4938261609684
 30
0.0
 10
137.7928776486569
 20
392.1313039592224
 30
0.0
 10
137.6162932165608
 20
391.5710892132844
 30
0.0
  0
LINE
  5
3B5
330
1F
100
AcDbEntity
  8
Make2D$可见线$普通线
100
AcDbLine
 10
140.9236904595427
 20
396.4068121663802
 30
0.0
 11
150.4347498475753
 21
392.4095362222146
 31
0.0
  0
LINE
  5
3B6
330
1F
100
AcDbEntity
  8
Make2D$可见线$普通线
100
AcDbLine
 10
150.7873306722977
 20
391.9285270831801
 30
0.0
 11
150.8577985391577
 21
391.6453835871179
 31
0.0
  0
LINE
  5
3B7
330
1F
100
AcDbEntity
  8
Make2D$可见线$普通线
100
AcDbLine
 10
149.7115457680537
 20
388.9454794702103
 30
0.0
 11
149.4752962659442
 21
388.8066920528433
 31
0.0
  0
ENDSEC
  0
SECTION
  2
OBJECTS
  0
DICTIONARY
  5
C
330
0
100
AcDbDictionary
281
     1
  3
ACAD_GROUP
350
D
  3
ACAD_LAYOUT
350
1A
  3
ACAD_MATERIAL
350
3B
  3
ACAD_MLEADERSTYLE
350
3E2
  3
ACAD_MLINESTYLE
350
17
  3
ACAD_PLOTSETTINGS
350
19
  3
ACAD_PLOTSTYLENAME
350
E
  3
ACAD_SCALELIST
350
3F
  3
ACAD_TABLESTYLE
350
3E1
  3
ACAD_VISUALSTYLE
350
2A
  3
AcDbVariableDictionary
350
3B8
  0
DICTIONARY
  5
D
102
{ACAD_REACTORS
330
C
102
}
330
C
100
AcDbDictionary
281
     1
  0
DICTIONARY
  5
1A
102
{ACAD_REACTORS
330
C
102
}
330
C
100
AcDbDictionary
281
     1
  3
Layout1
350
1E
  3
Layout2
350
26
  3
Model
350
22
  0
DICTIONARY
  5
3B
102
{ACAD_REACTORS
330
C
102
}
330
C
100
AcDbDictionary
281
     1
  3
ByBlock
350
3D
  3
ByLayer
350
3C
  3
Global
350
3E
  0
DICTIONARY
  5
3E2
102
{ACAD_REACTORS
330
C
102
}
330
C
100
AcDbDictionary
281
     1
  0
DICTIONARY
  5
17
102
{ACAD_REACTORS
330
C
102
}
330
C
100
AcDbDictionary
281
     1
  3
Standard
350
18
  0
DICTIONARY
  5
19
102
{ACAD_REACTORS
330
C
102
}
330
C
100
AcDbDictionary
281
     1
  0
ACDBDICTIONARYWDFLT
  5
E
102
{ACAD_REACTORS
330
C
102
}
330
C
100
AcDbDictionary
281
     1
  3
Normal
350
F
100
AcDbDictionaryWithDefault
340
F
  0
DICTIONARY
  5
3F
102
{ACAD_REACTORS
330
C
102
}
330
C
100
AcDbDictionary
281
     1
  3
A0
350
40
  3
A1
350
41
  3
A2
350
42
  3
A3
350
43
  3
A4
350
44
  3
A5
350
45
  3
A6
350
46
  3
A7
350
47
  3
A8
350
48
  3
A9
350
49
  3
B0
350
4A
  3
B1
350
4B
  3
B2
350
4C
  3
B3
350
4D
  3
B4
350
4E
  3
B5
350
4F
  3
B6
350
50
  3
B7
350
51
  3
B8
350
52
  3
B9
350
53
  3
C0
350
54
  3
C1
350
55
  3
C2
350
56
  3
C3
350
57
  3
C4
350
58
  3
C5
350
59
  3
C6
350
5A
  3
C7
350
5B
  3
C8
350
5C
  3
C9
350
5D
  3
D0
350
5E
  3
D1
350
5F
  3
D2
350
60
  0
DICTIONARY
  5
3E1
102
{ACAD_REACTORS
330
C
102
}
330
C
100
AcDbDictionary
281
     1
  0
DICTIONARY
  5
2A
102
{ACAD_REACTORS
330
C
102
}
330
C
100
AcDbDictionary
281
     1
  3
2dWireframe
350
2F
  3
3D Hidden
350
31
  3
3dWireframe
350
30
  3
Basic
350
32
  3
Brighten
350
36
  3
ColorChange
350
3A
  3
Conceptual
350
34
  3
Dim
350
35
  3
Facepattern
350
39
  3
Flat
350
2B
  3
FlatWithEdges
350
2C
  3
Gouraud
350
2D
  3
GouraudWithEdges
350
2E
  3
Linepattern
350
38
  3
Realistic
350
33
  3
Thicken
350
37
  0
DICTIONARY
  5
3B8
102
{ACAD_REACTORS
330
C
102
}
330
C
100
AcDbDictionary
281
     1
  3
CANNOSCALE
350
3B9
  3
MSLTSCALE
350
3BA
  0
LAYOUT
  5
1E
102
{ACAD_REACTORS
330
1A
102
}
330
1A
100
AcDbPlotSettings
  1

  2
none_device
  4

  6

 40
0.0
 41
0.0
 42
0.0
 43
0.0
 44
0.0
 45
0.0
 46
0.0
 47
0.0
 48
0.0
 49
0.0
140
0.0
141
0.0
142
1.0
143
1.0
 70
   688
 72
     0
 73
     0
 74
     5
  7

 75
    16
 76
     0
 77
     2
 78
   300
147
1.0
148
0.0
149
0.0
100
AcDbLayout
  1
Layout1
 70
     1
 71
     1
 10
0.0
 20
0.0
 11
12.0
 21
9.0
 12
0.0
 22
0.0
 32
0.0
 14
1.000000000000000E+20
 24
1.000000000000000E+20
 34
1.000000000000000E+20
 15
-1.000000000000000E+20
 25
-1.000000000000000E+20
 35
-1.000000000000000E+20
146
0.0
 13
0.0
 23
0.0
 33
0.0
 16
1.0
 26
0.0
 36
0.0
 17
0.0
 27
1.0
 37
0.0
 76
     0
330
1B
  0
LAYOUT
  5
26
102
{ACAD_REACTORS
330
1A
102
}
330
1A
100
AcDbPlotSettings
  1

  2
none_device
  4

  6

 40
0.0
 41
0.0
 42
0.0
 43
0.0
 44
0.0
 45
0.0
 46
0.0
 47
0.0
 48
0.0
 49
0.0
140
0.0
141
0.0
142
1.0
143
1.0
 70
   688
 72
     0
 73
     0
 74
     5
  7

 75
    16
 76
     0
 77
     2
 78
   300
147
1.0
148
0.0
149
0.0
100
AcDbLayout
  1
Layout2
 70
     1
 71
     2
 10
0.0
 20
0.0
 11
0.0
 21
0.0
 12
0.0
 22
0.0
 32
0.0
 14
0.0
 24
0.0
 34
0.0
 15
0.0
 25
0.0
 35
0.0
146
0.0
 13
0.0
 23
0.0
 33
0.0
 16
1.0
 26
0.0
 36
0.0
 17
0.0
 27
1.0
 37
0.0
 76
     0
330
23
  0
LAYOUT
  5
22
102
{ACAD_REACTORS
330
1A
102
}
330
1A
100
AcDbPlotSettings
  1

  2
none_device
  4
Letter_(8.50_x_11.00_Inches)
  6

 40
6.35
 41
6.35
 42
6.35000508
 43
6.35000508
 44
215.9
 45
279.4
 46
0.0
 47
0.0
 48
0.0
 49
0.0
140
0.0
141
0.0
142
1.0
143
1.0
 70
  1712
 72
     0
 73
     0
 74
     0
  7

 75
     0
 76
     0
 77
     2
 78
   300
147
1.0
148
0.0
149
0.0
100
AcDbLayout
  1
Model
 70
     1
 71
     0
 10
0.0
 20
0.0
 11
12.0
 21
9.0
 12
0.0
 22
0.0
 32
0.0
 14
0.0001695863598382
 24
360.4522357884053
 34
0.0
 15
150.9013505601503
 25
520.6431478074942
 35
0.0
146
0.0
 13
0.0
 23
0.0
 33
0.0
 16
1.0
 26
0.0
 36
0.0
 17
0.0
 27
1.0
 37
0.0
 76
     0
330
1F
331
29
  0
MATERIAL
  5
3D
102
{ACAD_REACTORS
330
3B
102
}
102
{ACAD_XDICTIONARY
360
3DD
102
}
330
3B
100
AcDbMaterial
  1
ByBlock
  0
MATERIAL
  5
3C
102
{ACAD_REACTORS
330
3B
102
}
102
{ACAD_XDICTIONARY
360
3DB
102
}
330
3B
100
AcDbMaterial
  1
ByLayer
  0
MATERIAL
  5
3E
102
{ACAD_REACTORS
330
3B
102
}
102
{ACAD_XDICTIONARY
360
3DF
102
}
330
3B
100
AcDbMaterial
  1
Global
  0
MLINESTYLE
  5
18
102
{ACAD_REACTORS
330
17
102
}
330
17
100
AcDbMlineStyle
  2
Standard
 70
     0
  3

 62
   256
 51
90.0
 52
90.0
 71
     2
 49
0.5
 62
   256
  6
BYLAYER
 49
-0.5
 62
   256
  6
BYLAYER
  0
ACDBPLACEHOLDER
  5
F
102
{ACAD_REACTORS
330
E
102
}
330
E
  0
SCALE
  5
40
102
{ACAD_REACTORS
330
3F
102
}
330
3F
100
AcDbScale
 70
     0
300
1:1
140
1.0
141
1.0
290
     1
  0
SCALE
  5
41
102
{ACAD_REACTORS
330
3F
102
}
330
3F
100
AcDbScale
 70
     0
300
1:2
140
1.0
141
2.0
290
     0
  0
SCALE
  5
42
102
{ACAD_REACTORS
330
3F
102
}
330
3F
100
AcDbScale
 70
     0
300
1:4
140
1.0
141
4.0
290
     0
  0
SCALE
  5
43
102
{ACAD_REACTORS
330
3F
102
}
330
3F
100
AcDbScale
 70
     0
300
1:5
140
1.0
141
5.0
290
     0
  0
SCALE
  5
44
102
{ACAD_REACTORS
330
3F
102
}
330
3F
100
AcDbScale
 70
     0
300
1:8
140
1.0
141
8.0
290
     0
  0
SCALE
  5
45
102
{ACAD_REACTORS
330
3F
102
}
330
3F
100
AcDbScale
 70
     0
300
1:10
140
1.0
141
10.0
290
     0
  0
SCALE
  5
46
102
{ACAD_REACTORS
330
3F
102
}
330
3F
100
AcDbScale
 70
     0
300
1:16
140
1.0
141
16.0
290
     0
  0
SCALE
  5
47
102
{ACAD_REACTORS
330
3F
102
}
330
3F
100
AcDbScale
 70
     0
300
1:20
140
1.0
141
20.0
290
     0
  0
SCALE
  5
48
102
{ACAD_REACTORS
330
3F
102
}
330
3F
100
AcDbScale
 70
     0
300
1:30
140
1.0
141
30.0
290
     0
  0
SCALE
  5
49
102
{ACAD_REACTORS
330
3F
102
}
330
3F
100
AcDbScale
 70
     0
300
1:40
140
1.0
141
40.0
290
     0
  0
SCALE
  5
4A
102
{ACAD_REACTORS
330
3F
102
}
330
3F
100
AcDbScale
 70
     0
300
1:50
140
1.0
141
50.0
290
     0
  0
SCALE
  5
4B
102
{ACAD_REACTORS
330
3F
102
}
330
3F
100
AcDbScale
 70
     0
300
1:100
140
1.0
141
100.0
290
     0
  0
SCALE
  5
4C
102
{ACAD_REACTORS
330
3F
102
}
330
3F
100
AcDbScale
 70
     0
300
2:1
140
2.0
141
1.0
290
     0
  0
SCALE
  5
4D
102
{ACAD_REACTORS
330
3F
102
}
330
3F
100
AcDbScale
 70
     0
300
4:1
140
4.0
141
1.0
290
     0
  0
SCALE
  5
4E
102
{ACAD_REACTORS
330
3F
102
}
330
3F
100
AcDbScale
 70
     0
300
8:1
140
8.0
141
1.0
290
     0
  0
SCALE
  5
4F
102
{ACAD_REACTORS
330
3F
102
}
330
3F
100
AcDbScale
 70
     0
300
10:1
140
10.0
141
1.0
290
     0
  0
SCALE
  5
50
102
{ACAD_REACTORS
330
3F
102
}
330
3F
100
AcDbScale
 70
     0
300
100:1
140
100.0
141
1.0
290
     0
  0
SCALE
  5
51
102
{ACAD_REACTORS
330
3F
102
}
330
3F
100
AcDbScale
 70
     0
300
1/128" = 1'-0"
140
0.0078125
141
12.0
290
     0
  0
SCALE
  5
52
102
{ACAD_REACTORS
330
3F
102
}
330
3F
100
AcDbScale
 70
     0
300
1/64" = 1'-0"
140
0.015625
141
12.0
290
     0
  0
SCALE
  5
53
102
{ACAD_REACTORS
330
3F
102
}
330
3F
100
AcDbScale
 70
     0
300
1/32" = 1'-0"
140
0.03125
141
12.0
290
     0
  0
SCALE
  5
54
102
{ACAD_REACTORS
330
3F
102
}
330
3F
100
AcDbScale
 70
     0
300
1/16" = 1'-0"
140
0.0625
141
12.0
290
     0
  0
SCALE
  5
55
102
{ACAD_REACTORS
330
3F
102
}
330
3F
100
AcDbScale
 70
     0
300
3/32" = 1'-0"
140
0.09375
141
12.0
290
     0
  0
SCALE
  5
56
102
{ACAD_REACTORS
330
3F
102
}
330
3F
100
AcDbScale
 70
     0
300
1/8" = 1'-0"
140
0.125
141
12.0
290
     0
  0
SCALE
  5
57
102
{ACAD_REACTORS
330
3F
102
}
330
3F
100
AcDbScale
 70
     0
300
3/16" = 1'-0"
140
0.1875
141
12.0
290
     0
  0
SCALE
  5
58
102
{ACAD_REACTORS
330
3F
102
}
330
3F
100
AcDbScale
 70
     0
300
1/4" = 1'-0"
140
0.25
141
12.0
290
     0
  0
SCALE
  5
59
102
{ACAD_REACTORS
330
3F
102
}
330
3F
100
AcDbScale
 70
     0
300
3/8" = 1'-0"
140
0.375
141
12.0
290
     0
  0
SCALE
  5
5A
102
{ACAD_REACTORS
330
3F
102
}
330
3F
100
AcDbScale
 70
     0
300
1/2" = 1'-0"
140
0.5
141
12.0
290
     0
  0
SCALE
  5
5B
102
{ACAD_REACTORS
330
3F
102
}
330
3F
100
AcDbScale
 70
     0
300
3/4" = 1'-0"
140
0.75
141
12.0
290
     0
  0
SCALE
  5
5C
102
{ACAD_REACTORS
330
3F
102
}
330
3F
100
AcDbScale
 70
     0
300
1" = 1'-0"
140
1.0
141
12.0
290
     0
  0
SCALE
  5
5D
102
{ACAD_REACTORS
330
3F
102
}
330
3F
100
AcDbScale
 70
     0
300
1-1/2" = 1'-0"
140
1.5
141
12.0
290
     0
  0
SCALE
  5
5E
102
{ACAD_REACTORS
330
3F
102
}
330
3F
100
AcDbScale
 70
     0
300
3" = 1'-0"
140
3.0
141
12.0
290
     0
  0
SCALE
  5
5F
102
{ACAD_REACTORS
330
3F
102
}
330
3F
100
AcDbScale
 70
     0
300
6" = 1'-0"
140
6.0
141
12.0
290
     0
  0
SCALE
  5
60
102
{ACAD_REACTORS
330
3F
102
}
330
3F
100
AcDbScale
 70
     0
300
1'-0" = 1'-0"
140
12.0
141
12.0
290
     0
  0
VISUALSTYLE
  5
2F
102
{ACAD_REACTORS
330
2A
102
}
102
{ACAD_XDICTIONARY
360
3C3
102
}
330
2A
100
AcDbVisualStyle
  2
2dWireframe
 70
     4
 71
     0
 72
     2
 73
     0
 90
        0
 40
0.6
 41
30.0
 62
     5
 63
     7
421
 16777215
 74
     1
 91
        4
 64
     7
 65
   257
 75
     1
175
     1
 42
1.0
 92
        0
 66
   257
 43
1.0
 76
     1
 77
     6
 78
     2
 67
     7
 79
     5
170
     0
171
     0
290
     0
174
     0
 93
        1
 44
0.0
173
     0
291
     0
 45
0.0
1001
ACAD
1000
AcDbSavedByObjectVersion
1070
     0
  0
VISUALSTYLE
  5
31
102
{ACAD_REACTORS
330
2A
102
}
102
{ACAD_XDICTIONARY
360
3C7
102
}
330
2A
100
AcDbVisualStyle
  2
3D Hidden
 70
     6
 71
     1
 72
     2
 73
     2
 90
        0
 40
0.6
 41
30.0
 62
     5
 63
     7
421
 16777215
 74
     2
 91
        2
 64
     7
 65
   257
 75
     2
175
     1
 42
40.0
 92
        0
 66
   257
 43
1.0
 76
     1
 77
     6
 78
     2
 67
     7
 79
     3
170
     0
171
     0
290
     0
174
     0
 93
        1
 44
0.0
173
     0
291
     0
 45
0.0
1001
ACAD
1000
AcDbSavedByObjectVersion
1070
     0
  0
VISUALSTYLE
  5
30
102
{ACAD_REACTORS
330
2A
102
}
102
{ACAD_XDICTIONARY
360
3C5
102
}
330
2A
100
AcDbVisualStyle
  2
3dWireframe
 70
     5
 71
     0
 72
     2
 73
     0
 90
        0
 40
0.6
 41
30.0
 62
     5
 63
     7
421
 16777215
 74
     1
 91
        4
 64
     7
 65
   257
 75
     1
175
     1
 42
1.0
 92
        0
 66
   257
 43
1.0
 76
     1
 77
     6
 78
     2
 67
     7
 79
     5
170
     0
171
     0
290
     0
174
     0
 93
        1
 44
0.0
173
     0
291
     0
 45
0.0
1001
ACAD
1000
AcDbSavedByObjectVersion
1070
     0
  0
VISUALSTYLE
  5
32
102
{ACAD_REACTORS
330
2A
102
}
102
{ACAD_XDICTIONARY
360
3C9
102
}
330
2A
100
AcDbVisualStyle
  2
Basic
 70
     7
 71
     1
 72
     0
 73
     1
 90
        0
 40
0.6
 41
30.0
 62
     5
 63
     7
421
 16777215
 74
     0
 91
        4
 64
     7
 65
   257
 75
     1
175
     1
 42
1.0
 92
        8
 66
     7
 43
1.0
 76
     1
 77
     6
 78
     2
 67
     7
 79
     5
170
     0
171
     0
290
     0
174
     0
 93
        1
 44
0.0
173
     0
291
     1
 45
0.0
1001
ACAD
1000
AcDbSavedByObjectVersion
1070
     0
  0
VISUALSTYLE
  5
36
102
{ACAD_REACTORS
330
2A
102
}
102
{ACAD_XDICTIONARY
360
3D1
102
}
330
2A
100
AcDbVisualStyle
  2
Brighten
 70
    12
 71
     2
 72
     2
 73
     0
 90
        0
 40
0.6
 41
30.0
 62
     5
 63
     7
421
 16777215
 74
     1
 91
        4
 64
     7
 65
   257
 75
     1
175
     1
 42
1.0
 92
        8
 66
     7
 43
1.0
 76
     1
 77
     6
 78
     2
 67
     7
 79
     5
170
     0
171
     0
290
     0
174
     0
 93
        1
 44
50.0
173
     0
291
     1
 45
0.0
1001
ACAD
1000
AcDbSavedByObjectVersion
1070
     0
  0
VISUALSTYLE
  5
3A
102
{ACAD_REACTORS
330
2A
102
}
102
{ACAD_XDICTIONARY
360
3D9
102
}
330
2A
100
AcDbVisualStyle
  2
ColorChange
 70
    16
 71
     2
 72
     2
 73
     3
 90
        0
 40
0.6
 41
30.0
 62
     5
 63
     8
421
  8421504
 74
     1
 91
        4
 64
     7
 65
   257
 75
     1
175
     1
 42
1.0
 92
        8
 66
     8
424
  8421504
 43
1.0
 76
     1
 77
     6
 78
     2
 67
     7
 79
     5
170
     0
171
     0
290
     0
174
     0
 93
        1
 44
0.0
173
     0
291
     1
 45
0.0
1001
ACAD
1000
AcDbSavedByObjectVersion
1070
     0
  0
VISUALSTYLE
  5
34
102
{ACAD_REACTORS
330
2A
102
}
102
{ACAD_XDICTIONARY
360
3CD
102
}
330
2A
100
AcDbVisualStyle
  2
Conceptual
 70
     9
 71
     3
 72
     2
 73
     0
 90
        0
 40
0.6
 41
30.0
 62
     5
 63
     7
421
 16777215
 74
     2
 91
        2
 64
     7
 65
   257
 75
     1
175
     1
 42
40.0
 92
        8
 66
     7
 43
1.0
 76
     1
 77
     6
 78
     2
 67
     7
 79
     3
170
     0
171
     0
290
     0
174
     0
 93
        1
 44
0.0
173
     0
291
     0
 45
0.0
1001
ACAD
1000
AcDbSavedByObjectVersion
1070
     0
  0
VISUALSTYLE
  5
35
102
{ACAD_REACTORS
330
2A
102
}
102
{ACAD_XDICTIONARY
360
3CF
102
}
330
2A
100
AcDbVisualStyle
  2
Dim
 70
    11
 71
     2
 72
     2
 73
     0
 90
        0
 40
0.6
 41
30.0
 62
     5
 63
     7
421
 16777215
 74
     1
 91
        4
 64
     7
 65
   257
 75
     1
175
     1
 42
1.0
 92
        8
 66
     7
 43
1.0
 76
     1
 77
     6
 78
     2
 67
     7
 79
     5
170
     0
171
     0
290
     0
174
     0
 93
        1
 44
-50.0
173
     0
291
     1
 45
0.0
1001
ACAD
1000
AcDbSavedByObjectVersion
1070
     0
  0
VISUALSTYLE
  5
39
102
{ACAD_REACTORS
330
2A
102
}
102
{ACAD_XDICTIONARY
360
3D7
102
}
330
2A
100
AcDbVisualStyle
  2
Facepattern
 70
    15
 71
     2
 72
     2
 73
     0
 90
        0
 40
0.6
 41
30.0
 62
     5
 63
     7
421
 16777215
 74
     1
 91
        4
 64
     7
 65
   257
 75
     1
175
     1
 42
1.0
 92
        8
 66
     7
 43
1.0
 76
     1
 77
     6
 78
     2
 67
     7
 79
     5
170
     0
171
     0
290
     0
174
     0
 93
        1
 44
0.0
173
     0
291
     1
 45
0.0
1001
ACAD
1000
AcDbSavedByObjectVersion
1070
     0
  0
VISUALSTYLE
  5
2B
102
{ACAD_REACTORS
330
2A
102
}
102
{ACAD_XDICTIONARY
360
3BB
102
}
330
2A
100
AcDbVisualStyle
  2
Flat
 70
     0
 71
     2
 72
     1
 73
     1
 90
        2
 40
0.6
 41
30.0
 62
     5
 63
     7
421
 16777215
 74
     0
 91
        4
 64
     7
 65
   257
 75
     1
175
     1
 42
1.0
 92
        8
 66
     7
 43
1.0
 76
     1
 77
     6
 78
     2
 67
     7
 79
     5
170
     0
171
     0
290
     0
174
     0
 93
       13
 44
0.0
173
     0
291
     1
 45
0.0
1001
ACAD
1000
AcDbSavedByObjectVersion
1070
     0
  0
VISUALSTYLE
  5
2C
102
{ACAD_REACTORS
330
2A
102
}
102
{ACAD_XDICTIONARY
360
3BD
102
}
330
2A
100
AcDbVisualStyle
  2
FlatWithEdges
 70
     1
 71
     2
 72
     1
 73
     1
 90
        2
 40
0.6
 41
30.0
 62
     5
 63
     7
421
 16777215
 74
     1
 91
        4
 64
     7
 65
   257
 75
     1
175
     1
 42
1.0
 92
        0
 66
   257
 43
1.0
 76
     1
 77
     6
 78
     2
 67
     7
 79
     5
170
     0
171
     0
290
     0
174
     0
 93
       13
 44
0.0
173
     0
291
     1
 45
0.0
1001
ACAD
1000
AcDbSavedByObjectVersion
1070
     0
  0
VISUALSTYLE
  5
2D
102
{ACAD_REACTORS
330
2A
102
}
102
{ACAD_XDICTIONARY
360
3BF
102
}
330
2A
100
AcDbVisualStyle
  2
Gouraud
 70
     2
 71
     2
 72
     2
 73
     1
 90
        2
 40
0.6
 41
30.0
 62
     5
 63
     7
421
 16777215
 74
     0
 91
        4
 64
     7
 65
   257
 75
     1
175
     1
 42
1.0
 92
        0
 66
     7
 43
1.0
 76
     1
 77
     6
 78
     2
 67
     7
 79
     5
170
     0
171
     0
290
     0
174
     0
 93
       13
 44
0.0
173
     0
291
     1
 45
0.0
1001
ACAD
1000
AcDbSavedByObjectVersion
1070
     0
  0
VISUALSTYLE
  5
2E
102
{ACAD_REACTORS
330
2A
102
}
102
{ACAD_XDICTIONARY
360
3C1
102
}
330
2A
100
AcDbVisualStyle
  2
GouraudWithEdges
 70
     3
 71
     2
 72
     2
 73
     1
 90
        2
 40
0.6
 41
30.0
 62
     5
 63
     7
421
 16777215
 74
     1
 91
        4
 64
     7
 65
   257
 75
     1
175
     1
 42
1.0
 92
        0
 66
   257
 43
1.0
 76
     1
 77
     6
 78
     2
 67
     7
 79
     5
170
     0
171
     0
290
     0
174
     0
 93
       13
 44
0.0
173
     0
291
     1
 45
0.0
1001
ACAD
1000
AcDbSavedByObjectVersion
1070
     0
  0
VISUALSTYLE
  5
38
102
{ACAD_REACTORS
330
2A
102
}
102
{ACAD_XDICTIONARY
360
3D5
102
}
330
2A
100
AcDbVisualStyle
  2
Linepattern
 70
    14
 71
     2
 72
     2
 73
     0
 90
        0
 40
0.6
 41
30.0
 62
     5
 63
     7
421
 16777215
 74
     1
 91
        4
 64
     7
 65
   257
 75
     7
175
     7
 42
1.0
 92
        8
 66
     7
 43
1.0
 76
     1
 77
     6
 78
     2
 67
     7
 79
     5
170
     0
171
     0
290
     0
174
     0
 93
        1
 44
0.0
173
     0
291
     1
 45
0.0
1001
ACAD
1000
AcDbSavedByObjectVersion
1070
     0
  0
VISUALSTYLE
  5
33
102
{ACAD_REACTORS
330
2A
102
}
102
{ACAD_XDICTIONARY
360
3CB
102
}
330
2A
100
AcDbVisualStyle
  2
Realistic
 70
     8
 71
     2
 72
     3
 73
     0
 90
        2
 40
0.6
 41
30.0
 62
     5
 63
     7
421
 16777215
 74
     0
 91
        0
 64
     7
 65
   257
 75
     1
175
     1
 42
1.0
 92
        8
 66
   257
 43
1.0
 76
     1
 77
     6
 78
     2
 67
     7
 79
     3
170
     0
171
     0
290
     0
174
     0
 93
       13
 44
0.0
173
     0
291
     0
 45
0.0
1001
ACAD
1000
AcDbSavedByObjectVersion
1070
     0
  0
VISUALSTYLE
  5
37
102
{ACAD_REACTORS
330
2A
102
}
102
{ACAD_XDICTIONARY
360
3D3
102
}
330
2A
100
AcDbVisualStyle
  2
Thicken
 70
    13
 71
     2
 72
     2
 73
     0
 90
        0
 40
0.6
 41
30.0
 62
     5
 63
     7
421
 16777215
 74
     1
 91
        4
 64
     7
 65
   257
 75
     1
175
     1
 42
1.0
 92
       12
 66
     7
 43
1.0
 76
     1
 77
     6
 78
     2
 67
     7
 79
     5
170
     0
171
     0
290
     0
174
     0
 93
        1
 44
0.0
173
     0
291
     1
 45
0.0
1001
ACAD
1000
AcDbSavedByObjectVersion
1070
     0
  0
DICTIONARYVAR
  5
3B9
102
{ACAD_REACTORS
330
3B8
102
}
330
3B8
100
DictionaryVariables
280
     0
  1
1:1
  0
DICTIONARYVAR
  5
3BA
102
{ACAD_REACTORS
330
3B8
102
}
330
3B8
100
DictionaryVariables
280
     0
  1
1
  0
DICTIONARY
  5
3DD
330
3D
100
AcDbDictionary
280
     1
281
     1
  3
ACAD_XREC_ROUNDTRIP
360
3DE
  0
DICTIONARY
  5
3DB
330
3C
100
AcDbDictionary
280
     1
281
     1
  3
ACAD_XREC_ROUNDTRIP
360
3DC
  0
DICTIONARY
  5
3DF
330
3E
100
AcDbDictionary
280
     1
281
     1
  3
ACAD_XREC_ROUNDTRIP
360
3E0
  0
DICTIONARY
  5
3C3
330
2F
100
AcDbDictionary
280
     1
281
     1
  3
ACAD_XREC_ROUNDTRIP
360
3C4
  0
DICTIONARY
  5
3C7
330
31
100
AcDbDictionary
280
     1
281
     1
  3
ACAD_XREC_ROUNDTRIP
360
3C8
  0
DICTIONARY
  5
3C5
330
30
100
AcDbDictionary
280
     1
281
     1
  3
ACAD_XREC_ROUNDTRIP
360
3C6
  0
DICTIONARY
  5
3C9
330
32
100
AcDbDictionary
280
     1
281
     1
  3
ACAD_XREC_ROUNDTRIP
360
3CA
  0
DICTIONARY
  5
3D1
330
36
100
AcDbDictionary
280
     1
281
     1
  3
ACAD_XREC_ROUNDTRIP
360
3D2
  0
DICTIONARY
  5
3D9
330
3A
100
AcDbDictionary
280
     1
281
     1
  3
ACAD_XREC_ROUNDTRIP
360
3DA
  0
DICTIONARY
  5
3CD
330
34
100
AcDbDictionary
280
     1
281
     1
  3
ACAD_XREC_ROUNDTRIP
360
3CE
  0
DICTIONARY
  5
3CF
330
35
100
AcDbDictionary
280
     1
281
     1
  3
ACAD_XREC_ROUNDTRIP
360
3D0
  0
DICTIONARY
  5
3D7
330
39
100
AcDbDictionary
280
     1
281
     1
  3
ACAD_XREC_ROUNDTRIP
360
3D8
  0
DICTIONARY
  5
3BB
330
2B
100
AcDbDictionary
280
     1
281
     1
  3
ACAD_XREC_ROUNDTRIP
360
3BC
  0
DICTIONARY
  5
3BD
330
2C
100
AcDbDictionary
280
     1
281
     1
  3
ACAD_XREC_ROUNDTRIP
360
3BE
  0
DICTIONARY
  5
3BF
330
2D
100
AcDbDictionary
280
     1
281
     1
  3
ACAD_XREC_ROUNDTRIP
360
3C0
  0
DICTIONARY
  5
3C1
330
2E
100
AcDbDictionary
280
     1
281
     1
  3
ACAD_XREC_ROUNDTRIP
360
3C2
  0
DICTIONARY
  5
3D5
330
38
100
AcDbDictionary
280
     1
281
     1
  3
ACAD_XREC_ROUNDTRIP
360
3D6
  0
DICTIONARY
  5
3CB
330
33
100
AcDbDictionary
280
     1
281
     1
  3
ACAD_XREC_ROUNDTRIP
360
3CC
  0
DICTIONARY
  5
3D3
330
37
100
AcDbDictionary
280
     1
281
     1
  3
ACAD_XREC_ROUNDTRIP
360
3D4
  0
XRECORD
  5
3DE
102
{ACAD_REACTORS
330
3DD
102
}
330
3DD
100
AcDbXrecord
280
     1
102
MATERIAL
148
0.0
149
0.0
149
0.0
 93
        0
 94
      127
282
     0
 72
     1
 77
     1
171
     1
175
     1
179
     1
273
     0
  0
XRECORD
  5
3DC
102
{ACAD_REACTORS
330
3DB
102
}
330
3DB
100
AcDbXrecord
280
     1
102
MATERIAL
148
0.0
149
0.0
149
0.0
 93
        0
 94
      127
282
     0
 72
     1
 77
     1
171
     1
175
     1
179
     1
273
     0
  0
XRECORD
  5
3E0
102
{ACAD_REACTORS
330
3DF
102
}
330
3DF
100
AcDbXrecord
280
     1
102
MATERIAL
148
0.0
149
0.0
149
0.0
 93
        0
 94
      127
282
     0
 72
     1
 77
     1
171
     1
175
     1
179
     1
273
     0
  0
XRECORD
  5
3C4
102
{ACAD_REACTORS
330
3C3
102
}
330
3C3
100
AcDbXrecord
280
     1
102
RTVSPropertyOp0
 70
     1
102
RTVSPropertyOp1
 70
     1
102
RTVSPropertyOp2
 70
     1
102
RTVSPropertyOp3
 70
     1
102
RTVSPropertyOp4
 70
     1
102
RTVSPropertyOp5
 70
     1
102
RTVSPropertyOp6
 70
     1
102
RTVSPropertyOp7
 70
     1
102
RTVSPropertyOp8
 70
     1
102
RTVSPropertyOp9
 70
     1
102
RTVSPropertyOp10
 70
     1
102
RTVSPropertyOp11
 70
     1
102
RTVSPropertyOp12
 70
     1
102
RTVSPropertyOp13
 70
     1
102
RTVSPropertyOp14
 70
     1
102
RTVSPropertyOp15
 70
     1
102
RTVSPropertyOp16
 70
     1
102
RTVSPropertyOp17
 70
     1
102
RTVSPropertyOp18
 70
     1
102
RTVSPropertyOp19
 70
     1
102
RTVSPropertyOp20
 70
     1
102
RTVSPropertyOp21
 70
     1
102
RTVSPropertyOp22
 70
     1
102
RTVSPropertyOp23
 70
     1
102
RTVSPropertyOp24
 70
     1
102
RTVSPropertyOp25
 70
     1
102
RTVSPropertyOp26
 70
     1
102
RTVSPropertyOp27
 70
     1
102
RTVSPropertyOp28
 70
     1
102
RTVSPropertyOp29
 70
     1
102
RTVSPropertyOp30
 70
     1
102
RTVSPropertyOp31
 70
     1
102
RTVSPropertyOp32
 70
     1
102
RTVSPropertyOp33
 70
     1
102
RTVSPropertyOp34
 70
     1
102
RTVSPropertyOp35
 70
     1
102
RTVSPropertyOp36
 70
     1
102
RTVSPropertyOp37
 70
     1
102
RTVSPropertyOp38
 70
     1
102
RTVSPropertyOp39
 70
     1
102
RTVSPropertyOp40
 70
     1
102
RTVSPropertyOp41
 70
     1
102
RTVSPropertyOp42
 70
     1
102
RTVSPropertyOp43
 70
     1
102
RTVSPropertyOp44
 70
     1
102
RTVSPropertyOp45
 70
     1
102
RTVSPropertyOp46
 70
     1
102
RTVSPropertyOp47
 70
     1
102
RTVSPropertyOp48
 70
     1
102
RTVSPropertyOp49
 70
     1
102
RTVSPropertyOp50
 70
     1
102
RTVSPropertyOp51
 70
     0
102
RTVSPropertyOp52
 70
     0
102
RTVSPropertyOp53
 70
     1
102
RTVSPropertyOp54
 70
     1
102
RTVSPropertyOp55
 70
     1
102
RTVSPropertyOp56
 70
     1
102
RTVSPropertyOp57
 70
     1
102
RTVSPost2010Prop28
280
     1
102
RTVSPost2010PropOp28
 70
     1
102
RTVSPost2010Prop29
280
     1
102
RTVSPost2010PropOp29
 70
     1
102
RTVSPost2010Prop30
280
     0
102
RTVSPost2010PropOp30
 70
     1
102
RTVSPost2010Prop31
280
     0
102
RTVSPost2010PropOp31
 70
     1
102
RTVSPost2010Prop32
280
     0
102
RTVSPost2010PropOp32
 70
     1
102
RTVSPost2010Prop33
280
     0
102
RTVSPost2010PropOp33
 70
     1
102
RTVSPost2010Prop34
280
     0
102
RTVSPost2010PropOp34
 70
     1
102
RTVSPost2010Prop35
280
     0
102
RTVSPost2010PropOp35
 70
     1
102
RTVSPost2010Prop36
280
     0
102
RTVSPost2010PropOp36
 70
     1
102
RTVSPost2010Prop37
 90
       50
102
RTVSPost2010PropOp37
 70
     1
102
RTVSPost2010Prop38
140
0.0
102
RTVSPost2010PropOp38
 70
     1
102
RTVSPost2010Prop39
140
1.0
102
RTVSPost2010PropOp39
 70
     1
102
RTVSPost2010Prop40
 90
        0
102
RTVSPost2010PropOp40
 70
     1
102
RTVSPost2010Prop41ColorIndex
 90
       18
102
RTVSPost2010Prop41ColorRGB
 90
        0
102
RTVSPost2010PropOp41
 70
     1
102
RTVSPost2010Prop42
 90
       50
102
RTVSPost2010PropOp42
 70
     1
102
RTVSPost2010Prop43
 90
        3
102
RTVSPost2010PropOp43
 70
     1
102
RTVSPost2010Prop44ColorIndex
 90
        5
102
RTVSPost2010Prop44ColorRGB
 90
      255
102
RTVSPost2010PropOp44
 70
     1
102
RTVSPost2010Prop45
280
     0
102
RTVSPost2010PropOp45
 70
     1
102
RTVSPost2010Prop46
 90
       50
102
RTVSPost2010PropOp46
 70
     1
102
RTVSPost2010Prop47
 90
       50
102
RTVSPost2010PropOp47
 70
     1
102
RTVSPost2010Prop48
 90
       50
102
RTVSPost2010PropOp48
 70
     1
102
RTVSPost2010Prop49
280
     0
102
RTVSPost2010PropOp49
 70
     1
102
RTVSPost2010Prop50
 90
       50
102
RTVSPost2010PropOp50
 70
     1
102
RTVSPost2010Prop51ColorIndex
 90
      256
102
RTVSPost2010Prop51ColorRGB
 90
-16777216
102
RTVSPost2010PropOp51
 70
     0
102
RTVSPost2010Prop52
140
1.0
102
RTVSPost2010PropOp52
 70
     0
102
RTVSPost2010Prop53
 90
        2
102
RTVSPost2010PropOp53
 70
     1
102
RTVSPost2010Prop54
  1
strokes_ogs.tif
102
RTVSPost2010PropOp54
 70
     1
102
RTVSPost2010Prop55
280
     0
102
RTVSPost2010PropOp55
 70
     1
102
RTVSPost2010Prop56
140
1.0
102
RTVSPost2010PropOp56
 70
     1
102
RTVSPost2010Prop57
140
1.0
102
RTVSPost2010PropOp57
 70
     1
  0
XRECORD
  5
3C8
102
{ACAD_REACTORS
330
3C7
102
}
330
3C7
100
AcDbXrecord
280
     1
102
RTVSPropertyOp0
 70
     1
102
RTVSPropertyOp1
 70
     1
102
RTVSPropertyOp2
 70
     1
102
RTVSPropertyOp3
 70
     1
102
RTVSPropertyOp4
 70
     1
102
RTVSPropertyOp5
 70
     1
102
RTVSPropertyOp6
 70
     1
102
RTVSPropertyOp7
 70
     1
102
RTVSPropertyOp8
 70
     1
102
RTVSPropertyOp9
 70
     1
102
RTVSPropertyOp10
 70
     1
102
RTVSPropertyOp11
 70
     1
102
RTVSPropertyOp12
 70
     1
102
RTVSPropertyOp13
 70
     1
102
RTVSPropertyOp14
 70
     1
102
RTVSPropertyOp15
 70
     1
102
RTVSPropertyOp16
 70
     1
102
RTVSPropertyOp17
 70
     1
102
RTVSPropertyOp18
 70
     1
102
RTVSPropertyOp19
 70
     1
102
RTVSPropertyOp20
 70
     1
102
RTVSPropertyOp21
 70
     1
102
RTVSPropertyOp22
 70
     1
102
RTVSPropertyOp23
 70
     1
102
RTVSPropertyOp24
 70
     1
102
RTVSPropertyOp25
 70
     1
102
RTVSPropertyOp26
 70
     1
102
RTVSPropertyOp27
 70
     1
102
RTVSPropertyOp28
 70
     1
102
RTVSPropertyOp29
 70
     1
102
RTVSPropertyOp30
 70
     1
102
RTVSPropertyOp31
 70
     1
102
RTVSPropertyOp32
 70
     1
102
RTVSPropertyOp33
 70
     1
102
RTVSPropertyOp34
 70
     1
102
RTVSPropertyOp35
 70
     1
102
RTVSPropertyOp36
 70
     1
102
RTVSPropertyOp37
 70
     1
102
RTVSPropertyOp38
 70
     1
102
RTVSPropertyOp39
 70
     1
102
RTVSPropertyOp40
 70
     1
102
RTVSPropertyOp41
 70
     1
102
RTVSPropertyOp42
 70
     1
102
RTVSPropertyOp43
 70
     1
102
RTVSPropertyOp44
 70
     1
102
RTVSPropertyOp45
 70
     1
102
RTVSPropertyOp46
 70
     1
102
RTVSPropertyOp47
 70
     1
102
RTVSPropertyOp48
 70
     1
102
RTVSPropertyOp49
 70
     1
102
RTVSPropertyOp50
 70
     1
102
RTVSPropertyOp51
 70
     0
102
RTVSPropertyOp52
 70
     0
102
RTVSPropertyOp53
 70
     1
102
RTVSPropertyOp54
 70
     1
102
RTVSPropertyOp55
 70
     1
102
RTVSPropertyOp56
 70
     1
102
RTVSPropertyOp57
 70
     1
102
RTVSPost2010Prop28
280
     0
102
RTVSPost2010PropOp28
 70
     1
102
RTVSPost2010Prop29
280
     1
102
RTVSPost2010PropOp29
 70
     1
102
RTVSPost2010Prop30
280
     1
102
RTVSPost2010PropOp30
 70
     1
102
RTVSPost2010Prop31
280
     0
102
RTVSPost2010PropOp31
 70
     1
102
RTVSPost2010Prop32
280
     0
102
RTVSPost2010PropOp32
 70
     1
102
RTVSPost2010Prop33
280
     0
102
RTVSPost2010PropOp33
 70
     1
102
RTVSPost2010Prop34
280
     0
102
RTVSPost2010PropOp34
 70
     1
102
RTVSPost2010Prop35
280
     0
102
RTVSPost2010PropOp35
 70
     1
102
RTVSPost2010Prop36
280
     0
102
RTVSPost2010PropOp36
 70
     1
102
RTVSPost2010Prop37
 90
       50
102
RTVSPost2010PropOp37
 70
     1
102
RTVSPost2010Prop38
140
0.0
102
RTVSPost2010PropOp38
 70
     1
102
RTVSPost2010Prop39
140
1.0
102
RTVSPost2010PropOp39
 70
     1
102
RTVSPost2010Prop40
 90
        0
102
RTVSPost2010PropOp40
 70
     1
102
RTVSPost2010Prop41ColorIndex
 90
       18
102
RTVSPost2010Prop41ColorRGB
 90
        0
102
RTVSPost2010PropOp41
 70
     1
102
RTVSPost2010Prop42
 90
       50
102
RTVSPost2010PropOp42
 70
     1
102
RTVSPost2010Prop43
 90
        3
102
RTVSPost2010PropOp43
 70
     1
102
RTVSPost2010Prop44ColorIndex
 90
        5
102
RTVSPost2010Prop44ColorRGB
 90
      255
102
RTVSPost2010PropOp44
 70
     1
102
RTVSPost2010Prop45
280
     0
102
RTVSPost2010PropOp45
 70
     1
102
RTVSPost2010Prop46
 90
       50
102
RTVSPost2010PropOp46
 70
     1
102
RTVSPost2010Prop47
 90
       50
102
RTVSPost2010PropOp47
 70
     1
102
RTVSPost2010Prop48
 90
       50
102
RTVSPost2010PropOp48
 70
     1
102
RTVSPost2010Prop49
280
     0
102
RTVSPost2010PropOp49
 70
     1
102
RTVSPost2010Prop50
 90
       50
102
RTVSPost2010PropOp50
 70
     1
102
RTVSPost2010Prop51ColorIndex
 90
      256
102
RTVSPost2010Prop51ColorRGB
 90
-16777216
102
RTVSPost2010PropOp51
 70
     0
102
RTVSPost2010Prop52
140
1.0
102
RTVSPost2010PropOp52
 70
     0
102
RTVSPost2010Prop53
 90
        2
102
RTVSPost2010PropOp53
 70
     1
102
RTVSPost2010Prop54
  1
strokes_ogs.tif
102
RTVSPost2010PropOp54
 70
     1
102
RTVSPost2010Prop55
280
     0
102
RTVSPost2010PropOp55
 70
     1
102
RTVSPost2010Prop56
140
1.0
102
RTVSPost2010PropOp56
 70
     1
102
RTVSPost2010Prop57
140
1.0
102
RTVSPost2010PropOp57
 70
     1
  0
XRECORD
  5
3C6
102
{ACAD_REACTORS
330
3C5
102
}
330
3C5
100
AcDbXrecord
280
     1
102
RTVSPropertyOp0
 70
     1
102
RTVSPropertyOp1
 70
     1
102
RTVSPropertyOp2
 70
     1
102
RTVSPropertyOp3
 70
     1
102
RTVSPropertyOp4
 70
     1
102
RTVSPropertyOp5
 70
     1
102
RTVSPropertyOp6
 70
     1
102
RTVSPropertyOp7
 70
     1
102
RTVSPropertyOp8
 70
     1
102
RTVSPropertyOp9
 70
     1
102
RTVSPropertyOp10
 70
     1
102
RTVSPropertyOp11
 70
     1
102
RTVSPropertyOp12
 70
     1
102
RTVSPropertyOp13
 70
     1
102
RTVSPropertyOp14
 70
     1
102
RTVSPropertyOp15
 70
     1
102
RTVSPropertyOp16
 70
     1
102
RTVSPropertyOp17
 70
     1
102
RTVSPropertyOp18
 70
     1
102
RTVSPropertyOp19
 70
     1
102
RTVSPropertyOp20
 70
     1
102
RTVSPropertyOp21
 70
     1
102
RTVSPropertyOp22
 70
     1
102
RTVSPropertyOp23
 70
     1
102
RTVSPropertyOp24
 70
     1
102
RTVSPropertyOp25
 70
     1
102
RTVSPropertyOp26
 70
     1
102
RTVSPropertyOp27
 70
     1
102
RTVSPropertyOp28
 70
     1
102
RTVSPropertyOp29
 70
     1
102
RTVSPropertyOp30
 70
     1
102
RTVSPropertyOp31
 70
     1
102
RTVSPropertyOp32
 70
     1
102
RTVSPropertyOp33
 70
     1
102
RTVSPropertyOp34
 70
     1
102
RTVSPropertyOp35
 70
     1
102
RTVSPropertyOp36
 70
     1
102
RTVSPropertyOp37
 70
     1
102
RTVSPropertyOp38
 70
     1
102
RTVSPropertyOp39
 70
     1
102
RTVSPropertyOp40
 70
     1
102
RTVSPropertyOp41
 70
     1
102
RTVSPropertyOp42
 70
     1
102
RTVSPropertyOp43
 70
     1
102
RTVSPropertyOp44
 70
     1
102
RTVSPropertyOp45
 70
     1
102
RTVSPropertyOp46
 70
     1
102
RTVSPropertyOp47
 70
     1
102
RTVSPropertyOp48
 70
     1
102
RTVSPropertyOp49
 70
     1
102
RTVSPropertyOp50
 70
     1
102
RTVSPropertyOp51
 70
     0
102
RTVSPropertyOp52
 70
     0
102
RTVSPropertyOp53
 70
     1
102
RTVSPropertyOp54
 70
     1
102
RTVSPropertyOp55
 70
     1
102
RTVSPropertyOp56
 70
     1
102
RTVSPropertyOp57
 70
     1
102
RTVSPost2010Prop28
280
     0
102
RTVSPost2010PropOp28
 70
     1
102
RTVSPost2010Prop29
280
     1
102
RTVSPost2010PropOp29
 70
     1
102
RTVSPost2010Prop30
280
     1
102
RTVSPost2010PropOp30
 70
     1
102
RTVSPost2010Prop31
280
     0
102
RTVSPost2010PropOp31
 70
     1
102
RTVSPost2010Prop32
280
     0
102
RTVSPost2010PropOp32
 70
     1
102
RTVSPost2010Prop33
280
     0
102
RTVSPost2010PropOp33
 70
     1
102
RTVSPost2010Prop34
280
     0
102
RTVSPost2010PropOp34
 70
     1
102
RTVSPost2010Prop35
280
     0
102
RTVSPost2010PropOp35
 70
     1
102
RTVSPost2010Prop36
280
     0
102
RTVSPost2010PropOp36
 70
     1
102
RTVSPost2010Prop37
 90
       50
102
RTVSPost2010PropOp37
 70
     1
102
RTVSPost2010Prop38
140
0.0
102
RTVSPost2010PropOp38
 70
     1
102
RTVSPost2010Prop39
140
1.0
102
RTVSPost2010PropOp39
 70
     1
102
RTVSPost2010Prop40
 90
        0
102
RTVSPost2010PropOp40
 70
     1
102
RTVSPost2010Prop41ColorIndex
 90
       18
102
RTVSPost2010Prop41ColorRGB
 90
        0
102
RTVSPost2010PropOp41
 70
     1
102
RTVSPost2010Prop42
 90
       50
102
RTVSPost2010PropOp42
 70
     1
102
RTVSPost2010Prop43
 90
        3
102
RTVSPost2010PropOp43
 70
     1
102
RTVSPost2010Prop44ColorIndex
 90
        5
102
RTVSPost2010Prop44ColorRGB
 90
      255
102
RTVSPost2010PropOp44
 70
     1
102
RTVSPost2010Prop45
280
     0
102
RTVSPost2010PropOp45
 70
     1
102
RTVSPost2010Prop46
 90
       50
102
RTVSPost2010PropOp46
 70
     1
102
RTVSPost2010Prop47
 90
       50
102
RTVSPost2010PropOp47
 70
     1
102
RTVSPost2010Prop48
 90
       50
102
RTVSPost2010PropOp48
 70
     1
102
RTVSPost2010Prop49
280
     0
102
RTVSPost2010PropOp49
 70
     1
102
RTVSPost2010Prop50
 90
       50
102
RTVSPost2010PropOp50
 70
     1
102
RTVSPost2010Prop51ColorIndex
 90
      256
102
RTVSPost2010Prop51ColorRGB
 90
-16777216
102
RTVSPost2010PropOp51
 70
     0
102
RTVSPost2010Prop52
140
1.0
102
RTVSPost2010PropOp52
 70
     0
102
RTVSPost2010Prop53
 90
        2
102
RTVSPost2010PropOp53
 70
     1
102
RTVSPost2010Prop54
  1
strokes_ogs.tif
102
RTVSPost2010PropOp54
 70
     1
102
RTVSPost2010Prop55
280
     0
102
RTVSPost2010PropOp55
 70
     1
102
RTVSPost2010Prop56
140
1.0
102
RTVSPost2010PropOp56
 70
     1
102
RTVSPost2010Prop57
140
1.0
102
RTVSPost2010PropOp57
 70
     1
  0
XRECORD
  5
3CA
102
{ACAD_REACTORS
330
3C9
102
}
330
3C9
100
AcDbXrecord
280
     1
102
RTVSPropertyOp0
 70
     1
102
RTVSPropertyOp1
 70
     1
102
RTVSPropertyOp2
 70
     1
102
RTVSPropertyOp3
 70
     1
102
RTVSPropertyOp4
 70
     1
102
RTVSPropertyOp5
 70
     1
102
RTVSPropertyOp6
 70
     1
102
RTVSPropertyOp7
 70
     1
102
RTVSPropertyOp8
 70
     1
102
RTVSPropertyOp9
 70
     1
102
RTVSPropertyOp10
 70
     1
102
RTVSPropertyOp11
 70
     1
102
RTVSPropertyOp12
 70
     1
102
RTVSPropertyOp13
 70
     1
102
RTVSPropertyOp14
 70
     1
102
RTVSPropertyOp15
 70
     1
102
RTVSPropertyOp16
 70
     1
102
RTVSPropertyOp17
 70
     1
102
RTVSPropertyOp18
 70
     1
102
RTVSPropertyOp19
 70
     1
102
RTVSPropertyOp20
 70
     1
102
RTVSPropertyOp21
 70
     1
102
RTVSPropertyOp22
 70
     1
102
RTVSPropertyOp23
 70
     1
102
RTVSPropertyOp24
 70
     1
102
RTVSPropertyOp25
 70
     1
102
RTVSPropertyOp26
 70
     1
102
RTVSPropertyOp27
 70
     1
102
RTVSPropertyOp28
 70
     1
102
RTVSPropertyOp29
 70
     1
102
RTVSPropertyOp30
 70
     1
102
RTVSPropertyOp31
 70
     1
102
RTVSPropertyOp32
 70
     1
102
RTVSPropertyOp33
 70
     1
102
RTVSPropertyOp34
 70
     1
102
RTVSPropertyOp35
 70
     1
102
RTVSPropertyOp36
 70
     1
102
RTVSPropertyOp37
 70
     1
102
RTVSPropertyOp38
 70
     1
102
RTVSPropertyOp39
 70
     1
102
RTVSPropertyOp40
 70
     1
102
RTVSPropertyOp41
 70
     1
102
RTVSPropertyOp42
 70
     1
102
RTVSPropertyOp43
 70
     1
102
RTVSPropertyOp44
 70
     1
102
RTVSPropertyOp45
 70
     1
102
RTVSPropertyOp46
 70
     1
102
RTVSPropertyOp47
 70
     1
102
RTVSPropertyOp48
 70
     1
102
RTVSPropertyOp49
 70
     1
102
RTVSPropertyOp50
 70
     1
102
RTVSPropertyOp51
 70
     0
102
RTVSPropertyOp52
 70
     0
102
RTVSPropertyOp53
 70
     1
102
RTVSPropertyOp54
 70
     1
102
RTVSPropertyOp55
 70
     1
102
RTVSPropertyOp56
 70
     1
102
RTVSPropertyOp57
 70
     1
102
RTVSPost2010Prop28
280
     0
102
RTVSPost2010PropOp28
 70
     1
102
RTVSPost2010Prop29
280
     1
102
RTVSPost2010PropOp29
 70
     1
102
RTVSPost2010Prop30
280
     1
102
RTVSPost2010PropOp30
 70
     1
102
RTVSPost2010Prop31
280
     0
102
RTVSPost2010PropOp31
 70
     1
102
RTVSPost2010Prop32
280
     0
102
RTVSPost2010PropOp32
 70
     1
102
RTVSPost2010Prop33
280
     0
102
RTVSPost2010PropOp33
 70
     1
102
RTVSPost2010Prop34
280
     0
102
RTVSPost2010PropOp34
 70
     1
102
RTVSPost2010Prop35
280
     0
102
RTVSPost2010PropOp35
 70
     1
102
RTVSPost2010Prop36
280
     0
102
RTVSPost2010PropOp36
 70
     1
102
RTVSPost2010Prop37
 90
       50
102
RTVSPost2010PropOp37
 70
     1
102
RTVSPost2010Prop38
140
0.0
102
RTVSPost2010PropOp38
 70
     1
102
RTVSPost2010Prop39
140
1.0
102
RTVSPost2010PropOp39
 70
     1
102
RTVSPost2010Prop40
 90
        0
102
RTVSPost2010PropOp40
 70
     1
102
RTVSPost2010Prop41ColorIndex
 90
       18
102
RTVSPost2010Prop41ColorRGB
 90
        0
102
RTVSPost2010PropOp41
 70
     1
102
RTVSPost2010Prop42
 90
       50
102
RTVSPost2010PropOp42
 70
     1
102
RTVSPost2010Prop43
 90
        3
102
RTVSPost2010PropOp43
 70
     1
102
RTVSPost2010Prop44ColorIndex
 90
        5
102
RTVSPost2010Prop44ColorRGB
 90
      255
102
RTVSPost2010PropOp44
 70
     1
102
RTVSPost2010Prop45
280
     0
102
RTVSPost2010PropOp45
 70
     1
102
RTVSPost2010Prop46
 90
       50
102
RTVSPost2010PropOp46
 70
     1
102
RTVSPost2010Prop47
 90
       50
102
RTVSPost2010PropOp47
 70
     1
102
RTVSPost2010Prop48
 90
       50
102
RTVSPost2010PropOp48
 70
     1
102
RTVSPost2010Prop49
280
     0
102
RTVSPost2010PropOp49
 70
     1
102
RTVSPost2010Prop50
 90
       50
102
RTVSPost2010PropOp50
 70
     1
102
RTVSPost2010Prop51ColorIndex
 90
      256
102
RTVSPost2010Prop51ColorRGB
 90
-16777216
102
RTVSPost2010PropOp51
 70
     0
102
RTVSPost2010Prop52
140
1.0
102
RTVSPost2010PropOp52
 70
     0
102
RTVSPost2010Prop53
 90
        2
102
RTVSPost2010PropOp53
 70
     1
102
RTVSPost2010Prop54
  1
strokes_ogs.tif
102
RTVSPost2010PropOp54
 70
     1
102
RTVSPost2010Prop55
280
     0
102
RTVSPost2010PropOp55
 70
     1
102
RTVSPost2010Prop56
140
1.0
102
RTVSPost2010PropOp56
 70
     1
102
RTVSPost2010Prop57
140
1.0
102
RTVSPost2010PropOp57
 70
     1
  0
XRECORD
  5
3D2
102
{ACAD_REACTORS
330
3D1
102
}
330
3D1
100
AcDbXrecord
280
     1
102
RTVSPropertyOp0
 70
     1
102
RTVSPropertyOp1
 70
     1
102
RTVSPropertyOp2
 70
     1
102
RTVSPropertyOp3
 70
     1
102
RTVSPropertyOp4
 70
     1
102
RTVSPropertyOp5
 70
     1
102
RTVSPropertyOp6
 70
     1
102
RTVSPropertyOp7
 70
     1
102
RTVSPropertyOp8
 70
     1
102
RTVSPropertyOp9
 70
     1
102
RTVSPropertyOp10
 70
     1
102
RTVSPropertyOp11
 70
     1
102
RTVSPropertyOp12
 70
     1
102
RTVSPropertyOp13
 70
     1
102
RTVSPropertyOp14
 70
     1
102
RTVSPropertyOp15
 70
     1
102
RTVSPropertyOp16
 70
     1
102
RTVSPropertyOp17
 70
     1
102
RTVSPropertyOp18
 70
     1
102
RTVSPropertyOp19
 70
     1
102
RTVSPropertyOp20
 70
     1
102
RTVSPropertyOp21
 70
     1
102
RTVSPropertyOp22
 70
     1
102
RTVSPropertyOp23
 70
     1
102
RTVSPropertyOp24
 70
     1
102
RTVSPropertyOp25
 70
     1
102
RTVSPropertyOp26
 70
     1
102
RTVSPropertyOp27
 70
     1
102
RTVSPropertyOp28
 70
     1
102
RTVSPropertyOp29
 70
     1
102
RTVSPropertyOp30
 70
     1
102
RTVSPropertyOp31
 70
     1
102
RTVSPropertyOp32
 70
     1
102
RTVSPropertyOp33
 70
     1
102
RTVSPropertyOp34
 70
     1
102
RTVSPropertyOp35
 70
     1
102
RTVSPropertyOp36
 70
     1
102
RTVSPropertyOp37
 70
     1
102
RTVSPropertyOp38
 70
     1
102
RTVSPropertyOp39
 70
     1
102
RTVSPropertyOp40
 70
     1
102
RTVSPropertyOp41
 70
     1
102
RTVSPropertyOp42
 70
     1
102
RTVSPropertyOp43
 70
     1
102
RTVSPropertyOp44
 70
     1
102
RTVSPropertyOp45
 70
     1
102
RTVSPropertyOp46
 70
     1
102
RTVSPropertyOp47
 70
     1
102
RTVSPropertyOp48
 70
     1
102
RTVSPropertyOp49
 70
     1
102
RTVSPropertyOp50
 70
     1
102
RTVSPropertyOp51
 70
     0
102
RTVSPropertyOp52
 70
     0
102
RTVSPropertyOp53
 70
     1
102
RTVSPropertyOp54
 70
     1
102
RTVSPropertyOp55
 70
     1
102
RTVSPropertyOp56
 70
     1
102
RTVSPropertyOp57
 70
     1
102
RTVSPost2010Prop28
280
     0
102
RTVSPost2010PropOp28
 70
     1
102
RTVSPost2010Prop29
280
     1
102
RTVSPost2010PropOp29
 70
     1
102
RTVSPost2010Prop30
280
     1
102
RTVSPost2010PropOp30
 70
     1
102
RTVSPost2010Prop31
280
     0
102
RTVSPost2010PropOp31
 70
     1
102
RTVSPost2010Prop32
280
     0
102
RTVSPost2010PropOp32
 70
     1
102
RTVSPost2010Prop33
280
     0
102
RTVSPost2010PropOp33
 70
     1
102
RTVSPost2010Prop34
280
     0
102
RTVSPost2010PropOp34
 70
     1
102
RTVSPost2010Prop35
280
     0
102
RTVSPost2010PropOp35
 70
     1
102
RTVSPost2010Prop36
280
     0
102
RTVSPost2010PropOp36
 70
     1
102
RTVSPost2010Prop37
 90
       50
102
RTVSPost2010PropOp37
 70
     1
102
RTVSPost2010Prop38
140
0.0
102
RTVSPost2010PropOp38
 70
     1
102
RTVSPost2010Prop39
140
1.0
102
RTVSPost2010PropOp39
 70
     1
102
RTVSPost2010Prop40
 90
        0
102
RTVSPost2010PropOp40
 70
     1
102
RTVSPost2010Prop41ColorIndex
 90
       18
102
RTVSPost2010Prop41ColorRGB
 90
        0
102
RTVSPost2010PropOp41
 70
     1
102
RTVSPost2010Prop42
 90
       50
102
RTVSPost2010PropOp42
 70
     1
102
RTVSPost2010Prop43
 90
        3
102
RTVSPost2010PropOp43
 70
     1
102
RTVSPost2010Prop44ColorIndex
 90
        5
102
RTVSPost2010Prop44ColorRGB
 90
      255
102
RTVSPost2010PropOp44
 70
     1
102
RTVSPost2010Prop45
280
     0
102
RTVSPost2010PropOp45
 70
     1
102
RTVSPost2010Prop46
 90
       50
102
RTVSPost2010PropOp46
 70
     1
102
RTVSPost2010Prop47
 90
       50
102
RTVSPost2010PropOp47
 70
     1
102
RTVSPost2010Prop48
 90
       50
102
RTVSPost2010PropOp48
 70
     1
102
RTVSPost2010Prop49
280
     0
102
RTVSPost2010PropOp49
 70
     1
102
RTVSPost2010Prop50
 90
       50
102
RTVSPost2010PropOp50
 70
     1
102
RTVSPost2010Prop51ColorIndex
 90
      256
102
RTVSPost2010Prop51ColorRGB
 90
-16777216
102
RTVSPost2010PropOp51
 70
     0
102
RTVSPost2010Prop52
140
1.0
102
RTVSPost2010PropOp52
 70
     0
102
RTVSPost2010Prop53
 90
        2
102
RTVSPost2010PropOp53
 70
     1
102
RTVSPost2010Prop54
  1
strokes_ogs.tif
102
RTVSPost2010PropOp54
 70
     1
102
RTVSPost2010Prop55
280
     0
102
RTVSPost2010PropOp55
 70
     1
102
RTVSPost2010Prop56
140
1.0
102
RTVSPost2010PropOp56
 70
     1
102
RTVSPost2010Prop57
140
1.0
102
RTVSPost2010PropOp57
 70
     1
  0
XRECORD
  5
3DA
102
{ACAD_REACTORS
330
3D9
102
}
330
3D9
100
AcDbXrecord
280
     1
102
RTVSPropertyOp0
 70
     1
102
RTVSPropertyOp1
 70
     1
102
RTVSPropertyOp2
 70
     1
102
RTVSPropertyOp3
 70
     1
102
RTVSPropertyOp4
 70
     1
102
RTVSPropertyOp5
 70
     1
102
RTVSPropertyOp6
 70
     1
102
RTVSPropertyOp7
 70
     1
102
RTVSPropertyOp8
 70
     1
102
RTVSPropertyOp9
 70
     1
102
RTVSPropertyOp10
 70
     1
102
RTVSPropertyOp11
 70
     1
102
RTVSPropertyOp12
 70
     1
102
RTVSPropertyOp13
 70
     1
102
RTVSPropertyOp14
 70
     1
102
RTVSPropertyOp15
 70
     1
102
RTVSPropertyOp16
 70
     1
102
RTVSPropertyOp17
 70
     1
102
RTVSPropertyOp18
 70
     1
102
RTVSPropertyOp19
 70
     1
102
RTVSPropertyOp20
 70
     1
102
RTVSPropertyOp21
 70
     1
102
RTVSPropertyOp22
 70
     1
102
RTVSPropertyOp23
 70
     1
102
RTVSPropertyOp24
 70
     1
102
RTVSPropertyOp25
 70
     1
102
RTVSPropertyOp26
 70
     1
102
RTVSPropertyOp27
 70
     1
102
RTVSPropertyOp28
 70
     1
102
RTVSPropertyOp29
 70
     1
102
RTVSPropertyOp30
 70
     1
102
RTVSPropertyOp31
 70
     1
102
RTVSPropertyOp32
 70
     1
102
RTVSPropertyOp33
 70
     1
102
RTVSPropertyOp34
 70
     1
102
RTVSPropertyOp35
 70
     1
102
RTVSPropertyOp36
 70
     1
102
RTVSPropertyOp37
 70
     1
102
RTVSPropertyOp38
 70
     1
102
RTVSPropertyOp39
 70
     1
102
RTVSPropertyOp40
 70
     1
102
RTVSPropertyOp41
 70
     1
102
RTVSPropertyOp42
 70
     1
102
RTVSPropertyOp43
 70
     1
102
RTVSPropertyOp44
 70
     1
102
RTVSPropertyOp45
 70
     1
102
RTVSPropertyOp46
 70
     1
102
RTVSPropertyOp47
 70
     1
102
RTVSPropertyOp48
 70
     1
102
RTVSPropertyOp49
 70
     1
102
RTVSPropertyOp50
 70
     1
102
RTVSPropertyOp51
 70
     0
102
RTVSPropertyOp52
 70
     0
102
RTVSPropertyOp53
 70
     1
102
RTVSPropertyOp54
 70
     1
102
RTVSPropertyOp55
 70
     1
102
RTVSPropertyOp56
 70
     1
102
RTVSPropertyOp57
 70
     1
102
RTVSPost2010Prop28
280
     0
102
RTVSPost2010PropOp28
 70
     1
102
RTVSPost2010Prop29
280
     1
102
RTVSPost2010PropOp29
 70
     1
102
RTVSPost2010Prop30
280
     1
102
RTVSPost2010PropOp30
 70
     1
102
RTVSPost2010Prop31
280
     0
102
RTVSPost2010PropOp31
 70
     1
102
RTVSPost2010Prop32
280
     0
102
RTVSPost2010PropOp32
 70
     1
102
RTVSPost2010Prop33
280
     0
102
RTVSPost2010PropOp33
 70
     1
102
RTVSPost2010Prop34
280
     0
102
RTVSPost2010PropOp34
 70
     1
102
RTVSPost2010Prop35
280
     0
102
RTVSPost2010PropOp35
 70
     1
102
RTVSPost2010Prop36
280
     0
102
RTVSPost2010PropOp36
 70
     1
102
RTVSPost2010Prop37
 90
       50
102
RTVSPost2010PropOp37
 70
     1
102
RTVSPost2010Prop38
140
0.0
102
RTVSPost2010PropOp38
 70
     1
102
RTVSPost2010Prop39
140
1.0
102
RTVSPost2010PropOp39
 70
     1
102
RTVSPost2010Prop40
 90
        0
102
RTVSPost2010PropOp40
 70
     1
102
RTVSPost2010Prop41ColorIndex
 90
       18
102
RTVSPost2010Prop41ColorRGB
 90
        0
102
RTVSPost2010PropOp41
 70
     1
102
RTVSPost2010Prop42
 90
       50
102
RTVSPost2010PropOp42
 70
     1
102
RTVSPost2010Prop43
 90
        3
102
RTVSPost2010PropOp43
 70
     1
102
RTVSPost2010Prop44ColorIndex
 90
        5
102
RTVSPost2010Prop44ColorRGB
 90
      255
102
RTVSPost2010PropOp44
 70
     1
102
RTVSPost2010Prop45
280
     0
102
RTVSPost2010PropOp45
 70
     1
102
RTVSPost2010Prop46
 90
       50
102
RTVSPost2010PropOp46
 70
     1
102
RTVSPost2010Prop47
 90
       50
102
RTVSPost2010PropOp47
 70
     1
102
RTVSPost2010Prop48
 90
       50
102
RTVSPost2010PropOp48
 70
     1
102
RTVSPost2010Prop49
280
     0
102
RTVSPost2010PropOp49
 70
     1
102
RTVSPost2010Prop50
 90
       50
102
RTVSPost2010PropOp50
 70
     1
102
RTVSPost2010Prop51ColorIndex
 90
      256
102
RTVSPost2010Prop51ColorRGB
 90
-16777216
102
RTVSPost2010PropOp51
 70
     0
102
RTVSPost2010Prop52
140
1.0
102
RTVSPost2010PropOp52
 70
     0
102
RTVSPost2010Prop53
 90
        2
102
RTVSPost2010PropOp53
 70
     1
102
RTVSPost2010Prop54
  1
strokes_ogs.tif
102
RTVSPost2010PropOp54
 70
     1
102
RTVSPost2010Prop55
280
     0
102
RTVSPost2010PropOp55
 70
     1
102
RTVSPost2010Prop56
140
1.0
102
RTVSPost2010PropOp56
 70
     1
102
RTVSPost2010Prop57
140
1.0
102
RTVSPost2010PropOp57
 70
     1
  0
XRECORD
  5
3CE
102
{ACAD_REACTORS
330
3CD
102
}
330
3CD
100
AcDbXrecord
280
     1
102
RTVSPropertyOp0
 70
     1
102
RTVSPropertyOp1
 70
     1
102
RTVSPropertyOp2
 70
     1
102
RTVSPropertyOp3
 70
     1
102
RTVSPropertyOp4
 70
     1
102
RTVSPropertyOp5
 70
     1
102
RTVSPropertyOp6
 70
     1
102
RTVSPropertyOp7
 70
     1
102
RTVSPropertyOp8
 70
     1
102
RTVSPropertyOp9
 70
     1
102
RTVSPropertyOp10
 70
     1
102
RTVSPropertyOp11
 70
     1
102
RTVSPropertyOp12
 70
     1
102
RTVSPropertyOp13
 70
     1
102
RTVSPropertyOp14
 70
     1
102
RTVSPropertyOp15
 70
     1
102
RTVSPropertyOp16
 70
     1
102
RTVSPropertyOp17
 70
     1
102
RTVSPropertyOp18
 70
     1
102
RTVSPropertyOp19
 70
     1
102
RTVSPropertyOp20
 70
     1
102
RTVSPropertyOp21
 70
     1
102
RTVSPropertyOp22
 70
     1
102
RTVSPropertyOp23
 70
     1
102
RTVSPropertyOp24
 70
     1
102
RTVSPropertyOp25
 70
     1
102
RTVSPropertyOp26
 70
     1
102
RTVSPropertyOp27
 70
     1
102
RTVSPropertyOp28
 70
     1
102
RTVSPropertyOp29
 70
     1
102
RTVSPropertyOp30
 70
     1
102
RTVSPropertyOp31
 70
     1
102
RTVSPropertyOp32
 70
     1
102
RTVSPropertyOp33
 70
     1
102
RTVSPropertyOp34
 70
     1
102
RTVSPropertyOp35
 70
     1
102
RTVSPropertyOp36
 70
     1
102
RTVSPropertyOp37
 70
     1
102
RTVSPropertyOp38
 70
     1
102
RTVSPropertyOp39
 70
     1
102
RTVSPropertyOp40
 70
     1
102
RTVSPropertyOp41
 70
     1
102
RTVSPropertyOp42
 70
     1
102
RTVSPropertyOp43
 70
     1
102
RTVSPropertyOp44
 70
     1
102
RTVSPropertyOp45
 70
     1
102
RTVSPropertyOp46
 70
     1
102
RTVSPropertyOp47
 70
     1
102
RTVSPropertyOp48
 70
     1
102
RTVSPropertyOp49
 70
     1
102
RTVSPropertyOp50
 70
     1
102
RTVSPropertyOp51
 70
     0
102
RTVSPropertyOp52
 70
     0
102
RTVSPropertyOp53
 70
     1
102
RTVSPropertyOp54
 70
     1
102
RTVSPropertyOp55
 70
     1
102
RTVSPropertyOp56
 70
     1
102
RTVSPropertyOp57
 70
     1
102
RTVSPost2010Prop28
280
     0
102
RTVSPost2010PropOp28
 70
     1
102
RTVSPost2010Prop29
280
     1
102
RTVSPost2010PropOp29
 70
     1
102
RTVSPost2010Prop30
280
     1
102
RTVSPost2010PropOp30
 70
     1
102
RTVSPost2010Prop31
280
     0
102
RTVSPost2010PropOp31
 70
     1
102
RTVSPost2010Prop32
280
     0
102
RTVSPost2010PropOp32
 70
     1
102
RTVSPost2010Prop33
280
     0
102
RTVSPost2010PropOp33
 70
     1
102
RTVSPost2010Prop34
280
     0
102
RTVSPost2010PropOp34
 70
     1
102
RTVSPost2010Prop35
280
     0
102
RTVSPost2010PropOp35
 70
     1
102
RTVSPost2010Prop36
280
     0
102
RTVSPost2010PropOp36
 70
     1
102
RTVSPost2010Prop37
 90
       50
102
RTVSPost2010PropOp37
 70
     1
102
RTVSPost2010Prop38
140
0.0
102
RTVSPost2010PropOp38
 70
     1
102
RTVSPost2010Prop39
140
1.0
102
RTVSPost2010PropOp39
 70
     1
102
RTVSPost2010Prop40
 90
        0
102
RTVSPost2010PropOp40
 70
     1
102
RTVSPost2010Prop41ColorIndex
 90
       18
102
RTVSPost2010Prop41ColorRGB
 90
        0
102
RTVSPost2010PropOp41
 70
     1
102
RTVSPost2010Prop42
 90
       50
102
RTVSPost2010PropOp42
 70
     1
102
RTVSPost2010Prop43
 90
        3
102
RTVSPost2010PropOp43
 70
     1
102
RTVSPost2010Prop44ColorIndex
 90
        5
102
RTVSPost2010Prop44ColorRGB
 90
      255
102
RTVSPost2010PropOp44
 70
     1
102
RTVSPost2010Prop45
280
     0
102
RTVSPost2010PropOp45
 70
     1
102
RTVSPost2010Prop46
 90
       50
102
RTVSPost2010PropOp46
 70
     1
102
RTVSPost2010Prop47
 90
       50
102
RTVSPost2010PropOp47
 70
     1
102
RTVSPost2010Prop48
 90
       50
102
RTVSPost2010PropOp48
 70
     1
102
RTVSPost2010Prop49
280
     0
102
RTVSPost2010PropOp49
 70
     1
102
RTVSPost2010Prop50
 90
       50
102
RTVSPost2010PropOp50
 70
     1
102
RTVSPost2010Prop51ColorIndex
 90
      256
102
RTVSPost2010Prop51ColorRGB
 90
-16777216
102
RTVSPost2010PropOp51
 70
     0
102
RTVSPost2010Prop52
140
1.0
102
RTVSPost2010PropOp52
 70
     0
102
RTVSPost2010Prop53
 90
        2
102
RTVSPost2010PropOp53
 70
     1
102
RTVSPost2010Prop54
  1
strokes_ogs.tif
102
RTVSPost2010PropOp54
 70
     1
102
RTVSPost2010Prop55
280
     0
102
RTVSPost2010PropOp55
 70
     1
102
RTVSPost2010Prop56
140
1.0
102
RTVSPost2010PropOp56
 70
     1
102
RTVSPost2010Prop57
140
1.0
102
RTVSPost2010PropOp57
 70
     1
  0
XRECORD
  5
3D0
102
{ACAD_REACTORS
330
3CF
102
}
330
3CF
100
AcDbXrecord
280
     1
102
RTVSPropertyOp0
 70
     1
102
RTVSPropertyOp1
 70
     1
102
RTVSPropertyOp2
 70
     1
102
RTVSPropertyOp3
 70
     1
102
RTVSPropertyOp4
 70
     1
102
RTVSPropertyOp5
 70
     1
102
RTVSPropertyOp6
 70
     1
102
RTVSPropertyOp7
 70
     1
102
RTVSPropertyOp8
 70
     1
102
RTVSPropertyOp9
 70
     1
102
RTVSPropertyOp10
 70
     1
102
RTVSPropertyOp11
 70
     1
102
RTVSPropertyOp12
 70
     1
102
RTVSPropertyOp13
 70
     1
102
RTVSPropertyOp14
 70
     1
102
RTVSPropertyOp15
 70
     1
102
RTVSPropertyOp16
 70
     1
102
RTVSPropertyOp17
 70
     1
102
RTVSPropertyOp18
 70
     1
102
RTVSPropertyOp19
 70
     1
102
RTVSPropertyOp20
 70
     1
102
RTVSPropertyOp21
 70
     1
102
RTVSPropertyOp22
 70
     1
102
RTVSPropertyOp23
 70
     1
102
RTVSPropertyOp24
 70
     1
102
RTVSPropertyOp25
 70
     1
102
RTVSPropertyOp26
 70
     1
102
RTVSPropertyOp27
 70
     1
102
RTVSPropertyOp28
 70
     1
102
RTVSPropertyOp29
 70
     1
102
RTVSPropertyOp30
 70
     1
102
RTVSPropertyOp31
 70
     1
102
RTVSPropertyOp32
 70
     1
102
RTVSPropertyOp33
 70
     1
102
RTVSPropertyOp34
 70
     1
102
RTVSPropertyOp35
 70
     1
102
RTVSPropertyOp36
 70
     1
102
RTVSPropertyOp37
 70
     1
102
RTVSPropertyOp38
 70
     1
102
RTVSPropertyOp39
 70
     1
102
RTVSPropertyOp40
 70
     1
102
RTVSPropertyOp41
 70
     1
102
RTVSPropertyOp42
 70
     1
102
RTVSPropertyOp43
 70
     1
102
RTVSPropertyOp44
 70
     1
102
RTVSPropertyOp45
 70
     1
102
RTVSPropertyOp46
 70
     1
102
RTVSPropertyOp47
 70
     1
102
RTVSPropertyOp48
 70
     1
102
RTVSPropertyOp49
 70
     1
102
RTVSPropertyOp50
 70
     1
102
RTVSPropertyOp51
 70
     0
102
RTVSPropertyOp52
 70
     0
102
RTVSPropertyOp53
 70
     1
102
RTVSPropertyOp54
 70
     1
102
RTVSPropertyOp55
 70
     1
102
RTVSPropertyOp56
 70
     1
102
RTVSPropertyOp57
 70
     1
102
RTVSPost2010Prop28
280
     0
102
RTVSPost2010PropOp28
 70
     1
102
RTVSPost2010Prop29
280
     1
102
RTVSPost2010PropOp29
 70
     1
102
RTVSPost2010Prop30
280
     1
102
RTVSPost2010PropOp30
 70
     1
102
RTVSPost2010Prop31
280
     0
102
RTVSPost2010PropOp31
 70
     1
102
RTVSPost2010Prop32
280
     0
102
RTVSPost2010PropOp32
 70
     1
102
RTVSPost2010Prop33
280
     0
102
RTVSPost2010PropOp33
 70
     1
102
RTVSPost2010Prop34
280
     0
102
RTVSPost2010PropOp34
 70
     1
102
RTVSPost2010Prop35
280
     0
102
RTVSPost2010PropOp35
 70
     1
102
RTVSPost2010Prop36
280
     0
102
RTVSPost2010PropOp36
 70
     1
102
RTVSPost2010Prop37
 90
       50
102
RTVSPost2010PropOp37
 70
     1
102
RTVSPost2010Prop38
140
0.0
102
RTVSPost2010PropOp38
 70
     1
102
RTVSPost2010Prop39
140
1.0
102
RTVSPost2010PropOp39
 70
     1
102
RTVSPost2010Prop40
 90
        0
102
RTVSPost2010PropOp40
 70
     1
102
RTVSPost2010Prop41ColorIndex
 90
       18
102
RTVSPost2010Prop41ColorRGB
 90
        0
102
RTVSPost2010PropOp41
 70
     1
102
RTVSPost2010Prop42
 90
       50
102
RTVSPost2010PropOp42
 70
     1
102
RTVSPost2010Prop43
 90
        3
102
RTVSPost2010PropOp43
 70
     1
102
RTVSPost2010Prop44ColorIndex
 90
        5
102
RTVSPost2010Prop44ColorRGB
 90
      255
102
RTVSPost2010PropOp44
 70
     1
102
RTVSPost2010Prop45
280
     0
102
RTVSPost2010PropOp45
 70
     1
102
RTVSPost2010Prop46
 90
       50
102
RTVSPost2010PropOp46
 70
     1
102
RTVSPost2010Prop47
 90
       50
102
RTVSPost2010PropOp47
 70
     1
102
RTVSPost2010Prop48
 90
       50
102
RTVSPost2010PropOp48
 70
     1
102
RTVSPost2010Prop49
280
     0
102
RTVSPost2010PropOp49
 70
     1
102
RTVSPost2010Prop50
 90
       50
102
RTVSPost2010PropOp50
 70
     1
102
RTVSPost2010Prop51ColorIndex
 90
      256
102
RTVSPost2010Prop51ColorRGB
 90
-16777216
102
RTVSPost2010PropOp51
 70
     0
102
RTVSPost2010Prop52
140
1.0
102
RTVSPost2010PropOp52
 70
     0
102
RTVSPost2010Prop53
 90
        2
102
RTVSPost2010PropOp53
 70
     1
102
RTVSPost2010Prop54
  1
strokes_ogs.tif
102
RTVSPost2010PropOp54
 70
     1
102
RTVSPost2010Prop55
280
     0
102
RTVSPost2010PropOp55
 70
     1
102
RTVSPost2010Prop56
140
1.0
102
RTVSPost2010PropOp56
 70
     1
102
RTVSPost2010Prop57
140
1.0
102
RTVSPost2010PropOp57
 70
     1
  0
XRECORD
  5
3D8
102
{ACAD_REACTORS
330
3D7
102
}
330
3D7
100
AcDbXrecord
280
     1
102
RTVSPropertyOp0
 70
     1
102
RTVSPropertyOp1
 70
     1
102
RTVSPropertyOp2
 70
     1
102
RTVSPropertyOp3
 70
     1
102
RTVSPropertyOp4
 70
     1
102
RTVSPropertyOp5
 70
     1
102
RTVSPropertyOp6
 70
     1
102
RTVSPropertyOp7
 70
     1
102
RTVSPropertyOp8
 70
     1
102
RTVSPropertyOp9
 70
     1
102
RTVSPropertyOp10
 70
     1
102
RTVSPropertyOp11
 70
     1
102
RTVSPropertyOp12
 70
     1
102
RTVSPropertyOp13
 70
     1
102
RTVSPropertyOp14
 70
     1
102
RTVSPropertyOp15
 70
     1
102
RTVSPropertyOp16
 70
     1
102
RTVSPropertyOp17
 70
     1
102
RTVSPropertyOp18
 70
     1
102
RTVSPropertyOp19
 70
     1
102
RTVSPropertyOp20
 70
     1
102
RTVSPropertyOp21
 70
     1
102
RTVSPropertyOp22
 70
     1
102
RTVSPropertyOp23
 70
     1
102
RTVSPropertyOp24
 70
     1
102
RTVSPropertyOp25
 70
     1
102
RTVSPropertyOp26
 70
     1
102
RTVSPropertyOp27
 70
     1
102
RTVSPropertyOp28
 70
     1
102
RTVSPropertyOp29
 70
     1
102
RTVSPropertyOp30
 70
     1
102
RTVSPropertyOp31
 70
     1
102
RTVSPropertyOp32
 70
     1
102
RTVSPropertyOp33
 70
     1
102
RTVSPropertyOp34
 70
     1
102
RTVSPropertyOp35
 70
     1
102
RTVSPropertyOp36
 70
     1
102
RTVSPropertyOp37
 70
     1
102
RTVSPropertyOp38
 70
     1
102
RTVSPropertyOp39
 70
     1
102
RTVSPropertyOp40
 70
     1
102
RTVSPropertyOp41
 70
     1
102
RTVSPropertyOp42
 70
     1
102
RTVSPropertyOp43
 70
     1
102
RTVSPropertyOp44
 70
     1
102
RTVSPropertyOp45
 70
     1
102
RTVSPropertyOp46
 70
     1
102
RTVSPropertyOp47
 70
     1
102
RTVSPropertyOp48
 70
     1
102
RTVSPropertyOp49
 70
     1
102
RTVSPropertyOp50
 70
     1
102
RTVSPropertyOp51
 70
     0
102
RTVSPropertyOp52
 70
     0
102
RTVSPropertyOp53
 70
     1
102
RTVSPropertyOp54
 70
     1
102
RTVSPropertyOp55
 70
     1
102
RTVSPropertyOp56
 70
     1
102
RTVSPropertyOp57
 70
     1
102
RTVSPost2010Prop28
280
     0
102
RTVSPost2010PropOp28
 70
     1
102
RTVSPost2010Prop29
280
     1
102
RTVSPost2010PropOp29
 70
     1
102
RTVSPost2010Prop30
280
     1
102
RTVSPost2010PropOp30
 70
     1
102
RTVSPost2010Prop31
280
     0
102
RTVSPost2010PropOp31
 70
     1
102
RTVSPost2010Prop32
280
     0
102
RTVSPost2010PropOp32
 70
     1
102
RTVSPost2010Prop33
280
     0
102
RTVSPost2010PropOp33
 70
     1
102
RTVSPost2010Prop34
280
     0
102
RTVSPost2010PropOp34
 70
     1
102
RTVSPost2010Prop35
280
     0
102
RTVSPost2010PropOp35
 70
     1
102
RTVSPost2010Prop36
280
     0
102
RTVSPost2010PropOp36
 70
     1
102
RTVSPost2010Prop37
 90
       50
102
RTVSPost2010PropOp37
 70
     1
102
RTVSPost2010Prop38
140
0.0
102
RTVSPost2010PropOp38
 70
     1
102
RTVSPost2010Prop39
140
1.0
102
RTVSPost2010PropOp39
 70
     1
102
RTVSPost2010Prop40
 90
        0
102
RTVSPost2010PropOp40
 70
     1
102
RTVSPost2010Prop41ColorIndex
 90
       18
102
RTVSPost2010Prop41ColorRGB
 90
        0
102
RTVSPost2010PropOp41
 70
     1
102
RTVSPost2010Prop42
 90
       50
102
RTVSPost2010PropOp42
 70
     1
102
RTVSPost2010Prop43
 90
        3
102
RTVSPost2010PropOp43
 70
     1
102
RTVSPost2010Prop44ColorIndex
 90
        5
102
RTVSPost2010Prop44ColorRGB
 90
      255
102
RTVSPost2010PropOp44
 70
     1
102
RTVSPost2010Prop45
280
     0
102
RTVSPost2010PropOp45
 70
     1
102
RTVSPost2010Prop46
 90
       50
102
RTVSPost2010PropOp46
 70
     1
102
RTVSPost2010Prop47
 90
       50
102
RTVSPost2010PropOp47
 70
     1
102
RTVSPost2010Prop48
 90
       50
102
RTVSPost2010PropOp48
 70
     1
102
RTVSPost2010Prop49
280
     0
102
RTVSPost2010PropOp49
 70
     1
102
RTVSPost2010Prop50
 90
       50
102
RTVSPost2010PropOp50
 70
     1
102
RTVSPost2010Prop51ColorIndex
 90
      256
102
RTVSPost2010Prop51ColorRGB
 90
-16777216
102
RTVSPost2010PropOp51
 70
     0
102
RTVSPost2010Prop52
140
1.0
102
RTVSPost2010PropOp52
 70
     0
102
RTVSPost2010Prop53
 90
        2
102
RTVSPost2010PropOp53
 70
     1
102
RTVSPost2010Prop54
  1
strokes_ogs.tif
102
RTVSPost2010PropOp54
 70
     1
102
RTVSPost2010Prop55
280
     0
102
RTVSPost2010PropOp55
 70
     1
102
RTVSPost2010Prop56
140
1.0
102
RTVSPost2010PropOp56
 70
     1
102
RTVSPost2010Prop57
140
1.0
102
RTVSPost2010PropOp57
 70
     1
  0
XRECORD
  5
3BC
102
{ACAD_REACTORS
330
3BB
102
}
330
3BB
100
AcDbXrecord
280
     1
102
RTVSPropertyOp0
 70
     1
102
RTVSPropertyOp1
 70
     1
102
RTVSPropertyOp2
 70
     1
102
RTVSPropertyOp3
 70
     1
102
RTVSPropertyOp4
 70
     1
102
RTVSPropertyOp5
 70
     1
102
RTVSPropertyOp6
 70
     1
102
RTVSPropertyOp7
 70
     1
102
RTVSPropertyOp8
 70
     1
102
RTVSPropertyOp9
 70
     1
102
RTVSPropertyOp10
 70
     1
102
RTVSPropertyOp11
 70
     1
102
RTVSPropertyOp12
 70
     1
102
RTVSPropertyOp13
 70
     1
102
RTVSPropertyOp14
 70
     1
102
RTVSPropertyOp15
 70
     1
102
RTVSPropertyOp16
 70
     1
102
RTVSPropertyOp17
 70
     1
102
RTVSPropertyOp18
 70
     1
102
RTVSPropertyOp19
 70
     1
102
RTVSPropertyOp20
 70
     1
102
RTVSPropertyOp21
 70
     1
102
RTVSPropertyOp22
 70
     1
102
RTVSPropertyOp23
 70
     1
102
RTVSPropertyOp24
 70
     1
102
RTVSPropertyOp25
 70
     1
102
RTVSPropertyOp26
 70
     1
102
RTVSPropertyOp27
 70
     1
102
RTVSPropertyOp28
 70
     1
102
RTVSPropertyOp29
 70
     1
102
RTVSPropertyOp30
 70
     1
102
RTVSPropertyOp31
 70
     1
102
RTVSPropertyOp32
 70
     1
102
RTVSPropertyOp33
 70
     1
102
RTVSPropertyOp34
 70
     1
102
RTVSPropertyOp35
 70
     1
102
RTVSPropertyOp36
 70
     1
102
RTVSPropertyOp37
 70
     1
102
RTVSPropertyOp38
 70
     1
102
RTVSPropertyOp39
 70
     1
102
RTVSPropertyOp40
 70
     1
102
RTVSPropertyOp41
 70
     1
102
RTVSPropertyOp42
 70
     1
102
RTVSPropertyOp43
 70
     1
102
RTVSPropertyOp44
 70
     1
102
RTVSPropertyOp45
 70
     1
102
RTVSPropertyOp46
 70
     1
102
RTVSPropertyOp47
 70
     1
102
RTVSPropertyOp48
 70
     1
102
RTVSPropertyOp49
 70
     1
102
RTVSPropertyOp50
 70
     1
102
RTVSPropertyOp51
 70
     0
102
RTVSPropertyOp52
 70
     0
102
RTVSPropertyOp53
 70
     1
102
RTVSPropertyOp54
 70
     1
102
RTVSPropertyOp55
 70
     1
102
RTVSPropertyOp56
 70
     1
102
RTVSPropertyOp57
 70
     1
102
RTVSPost2010Prop28
280
     0
102
RTVSPost2010PropOp28
 70
     1
102
RTVSPost2010Prop29
280
     1
102
RTVSPost2010PropOp29
 70
     1
102
RTVSPost2010Prop30
280
     1
102
RTVSPost2010PropOp30
 70
     1
102
RTVSPost2010Prop31
280
     0
102
RTVSPost2010PropOp31
 70
     1
102
RTVSPost2010Prop32
280
     0
102
RTVSPost2010PropOp32
 70
     1
102
RTVSPost2010Prop33
280
     0
102
RTVSPost2010PropOp33
 70
     1
102
RTVSPost2010Prop34
280
     0
102
RTVSPost2010PropOp34
 70
     1
102
RTVSPost2010Prop35
280
     0
102
RTVSPost2010PropOp35
 70
     1
102
RTVSPost2010Prop36
280
     0
102
RTVSPost2010PropOp36
 70
     1
102
RTVSPost2010Prop37
 90
       50
102
RTVSPost2010PropOp37
 70
     1
102
RTVSPost2010Prop38
140
0.0
102
RTVSPost2010PropOp38
 70
     1
102
RTVSPost2010Prop39
140
1.0
102
RTVSPost2010PropOp39
 70
     1
102
RTVSPost2010Prop40
 90
        0
102
RTVSPost2010PropOp40
 70
     1
102
RTVSPost2010Prop41ColorIndex
 90
       18
102
RTVSPost2010Prop41ColorRGB
 90
        0
102
RTVSPost2010PropOp41
 70
     1
102
RTVSPost2010Prop42
 90
       50
102
RTVSPost2010PropOp42
 70
     1
102
RTVSPost2010Prop43
 90
        3
102
RTVSPost2010PropOp43
 70
     1
102
RTVSPost2010Prop44ColorIndex
 90
        5
102
RTVSPost2010Prop44ColorRGB
 90
      255
102
RTVSPost2010PropOp44
 70
     1
102
RTVSPost2010Prop45
280
     0
102
RTVSPost2010PropOp45
 70
     1
102
RTVSPost2010Prop46
 90
       50
102
RTVSPost2010PropOp46
 70
     1
102
RTVSPost2010Prop47
 90
       50
102
RTVSPost2010PropOp47
 70
     1
102
RTVSPost2010Prop48
 90
       50
102
RTVSPost2010PropOp48
 70
     1
102
RTVSPost2010Prop49
280
     0
102
RTVSPost2010PropOp49
 70
     1
102
RTVSPost2010Prop50
 90
       50
102
RTVSPost2010PropOp50
 70
     1
102
RTVSPost2010Prop51ColorIndex
 90
      256
102
RTVSPost2010Prop51ColorRGB
 90
-16777216
102
RTVSPost2010PropOp51
 70
     0
102
RTVSPost2010Prop52
140
1.0
102
RTVSPost2010PropOp52
 70
     0
102
RTVSPost2010Prop53
 90
        2
102
RTVSPost2010PropOp53
 70
     1
102
RTVSPost2010Prop54
  1
strokes_ogs.tif
102
RTVSPost2010PropOp54
 70
     1
102
RTVSPost2010Prop55
280
     0
102
RTVSPost2010PropOp55
 70
     1
102
RTVSPost2010Prop56
140
1.0
102
RTVSPost2010PropOp56
 70
     1
102
RTVSPost2010Prop57
140
1.0
102
RTVSPost2010PropOp57
 70
     1
  0
XRECORD
  5
3BE
102
{ACAD_REACTORS
330
3BD
102
}
330
3BD
100
AcDbXrecord
280
     1
102
RTVSPropertyOp0
 70
     1
102
RTVSPropertyOp1
 70
     1
102
RTVSPropertyOp2
 70
     1
102
RTVSPropertyOp3
 70
     1
102
RTVSPropertyOp4
 70
     1
102
RTVSPropertyOp5
 70
     1
102
RTVSPropertyOp6
 70
     1
102
RTVSPropertyOp7
 70
     1
102
RTVSPropertyOp8
 70
     1
102
RTVSPropertyOp9
 70
     1
102
RTVSPropertyOp10
 70
     1
102
RTVSPropertyOp11
 70
     1
102
RTVSPropertyOp12
 70
     1
102
RTVSPropertyOp13
 70
     1
102
RTVSPropertyOp14
 70
     1
102
RTVSPropertyOp15
 70
     1
102
RTVSPropertyOp16
 70
     1
102
RTVSPropertyOp17
 70
     1
102
RTVSPropertyOp18
 70
     1
102
RTVSPropertyOp19
 70
     1
102
RTVSPropertyOp20
 70
     1
102
RTVSPropertyOp21
 70
     1
102
RTVSPropertyOp22
 70
     1
102
RTVSPropertyOp23
 70
     1
102
RTVSPropertyOp24
 70
     1
102
RTVSPropertyOp25
 70
     1
102
RTVSPropertyOp26
 70
     1
102
RTVSPropertyOp27
 70
     1
102
RTVSPropertyOp28
 70
     1
102
RTVSPropertyOp29
 70
     1
102
RTVSPropertyOp30
 70
     1
102
RTVSPropertyOp31
 70
     1
102
RTVSPropertyOp32
 70
     1
102
RTVSPropertyOp33
 70
     1
102
RTVSPropertyOp34
 70
     1
102
RTVSPropertyOp35
 70
     1
102
RTVSPropertyOp36
 70
     1
102
RTVSPropertyOp37
 70
     1
102
RTVSPropertyOp38
 70
     1
102
RTVSPropertyOp39
 70
     1
102
RTVSPropertyOp40
 70
     1
102
RTVSPropertyOp41
 70
     1
102
RTVSPropertyOp42
 70
     1
102
RTVSPropertyOp43
 70
     1
102
RTVSPropertyOp44
 70
     1
102
RTVSPropertyOp45
 70
     1
102
RTVSPropertyOp46
 70
     1
102
RTVSPropertyOp47
 70
     1
102
RTVSPropertyOp48
 70
     1
102
RTVSPropertyOp49
 70
     1
102
RTVSPropertyOp50
 70
     1
102
RTVSPropertyOp51
 70
     0
102
RTVSPropertyOp52
 70
     0
102
RTVSPropertyOp53
 70
     1
102
RTVSPropertyOp54
 70
     1
102
RTVSPropertyOp55
 70
     1
102
RTVSPropertyOp56
 70
     1
102
RTVSPropertyOp57
 70
     1
102
RTVSPost2010Prop28
280
     0
102
RTVSPost2010PropOp28
 70
     1
102
RTVSPost2010Prop29
280
     1
102
RTVSPost2010PropOp29
 70
     1
102
RTVSPost2010Prop30
280
     1
102
RTVSPost2010PropOp30
 70
     1
102
RTVSPost2010Prop31
280
     0
102
RTVSPost2010PropOp31
 70
     1
102
RTVSPost2010Prop32
280
     0
102
RTVSPost2010PropOp32
 70
     1
102
RTVSPost2010Prop33
280
     0
102
RTVSPost2010PropOp33
 70
     1
102
RTVSPost2010Prop34
280
     0
102
RTVSPost2010PropOp34
 70
     1
102
RTVSPost2010Prop35
280
     0
102
RTVSPost2010PropOp35
 70
     1
102
RTVSPost2010Prop36
280
     0
102
RTVSPost2010PropOp36
 70
     1
102
RTVSPost2010Prop37
 90
       50
102
RTVSPost2010PropOp37
 70
     1
102
RTVSPost2010Prop38
140
0.0
102
RTVSPost2010PropOp38
 70
     1
102
RTVSPost2010Prop39
140
1.0
102
RTVSPost2010PropOp39
 70
     1
102
RTVSPost2010Prop40
 90
        0
102
RTVSPost2010PropOp40
 70
     1
102
RTVSPost2010Prop41ColorIndex
 90
       18
102
RTVSPost2010Prop41ColorRGB
 90
        0
102
RTVSPost2010PropOp41
 70
     1
102
RTVSPost2010Prop42
 90
       50
102
RTVSPost2010PropOp42
 70
     1
102
RTVSPost2010Prop43
 90
        3
102
RTVSPost2010PropOp43
 70
     1
102
RTVSPost2010Prop44ColorIndex
 90
        5
102
RTVSPost2010Prop44ColorRGB
 90
      255
102
RTVSPost2010PropOp44
 70
     1
102
RTVSPost2010Prop45
280
     0
102
RTVSPost2010PropOp45
 70
     1
102
RTVSPost2010Prop46
 90
       50
102
RTVSPost2010PropOp46
 70
     1
102
RTVSPost2010Prop47
 90
       50
102
RTVSPost2010PropOp47
 70
     1
102
RTVSPost2010Prop48
 90
       50
102
RTVSPost2010PropOp48
 70
     1
102
RTVSPost2010Prop49
280
     0
102
RTVSPost2010PropOp49
 70
     1
102
RTVSPost2010Prop50
 90
       50
102
RTVSPost2010PropOp50
 70
     1
102
RTVSPost2010Prop51ColorIndex
 90
      256
102
RTVSPost2010Prop51ColorRGB
 90
-16777216
102
RTVSPost2010PropOp51
 70
     0
102
RTVSPost2010Prop52
140
1.0
102
RTVSPost2010PropOp52
 70
     0
102
RTVSPost2010Prop53
 90
        2
102
RTVSPost2010PropOp53
 70
     1
102
RTVSPost2010Prop54
  1
strokes_ogs.tif
102
RTVSPost2010PropOp54
 70
     1
102
RTVSPost2010Prop55
280
     0
102
RTVSPost2010PropOp55
 70
     1
102
RTVSPost2010Prop56
140
1.0
102
RTVSPost2010PropOp56
 70
     1
102
RTVSPost2010Prop57
140
1.0
102
RTVSPost2010PropOp57
 70
     1
  0
XRECORD
  5
3C0
102
{ACAD_REACTORS
330
3BF
102
}
330
3BF
100
AcDbXrecord
280
     1
102
RTVSPropertyOp0
 70
     1
102
RTVSPropertyOp1
 70
     1
102
RTVSPropertyOp2
 70
     1
102
RTVSPropertyOp3
 70
     1
102
RTVSPropertyOp4
 70
     1
102
RTVSPropertyOp5
 70
     1
102
RTVSPropertyOp6
 70
     1
102
RTVSPropertyOp7
 70
     1
102
RTVSPropertyOp8
 70
     1
102
RTVSPropertyOp9
 70
     1
102
RTVSPropertyOp10
 70
     1
102
RTVSPropertyOp11
 70
     1
102
RTVSPropertyOp12
 70
     1
102
RTVSPropertyOp13
 70
     1
102
RTVSPropertyOp14
 70
     1
102
RTVSPropertyOp15
 70
     1
102
RTVSPropertyOp16
 70
     1
102
RTVSPropertyOp17
 70
     1
102
RTVSPropertyOp18
 70
     1
102
RTVSPropertyOp19
 70
     1
102
RTVSPropertyOp20
 70
     1
102
RTVSPropertyOp21
 70
     1
102
RTVSPropertyOp22
 70
     1
102
RTVSPropertyOp23
 70
     1
102
RTVSPropertyOp24
 70
     1
102
RTVSPropertyOp25
 70
     1
102
RTVSPropertyOp26
 70
     1
102
RTVSPropertyOp27
 70
     1
102
RTVSPropertyOp28
 70
     1
102
RTVSPropertyOp29
 70
     1
102
RTVSPropertyOp30
 70
     1
102
RTVSPropertyOp31
 70
     1
102
RTVSPropertyOp32
 70
     1
102
RTVSPropertyOp33
 70
     1
102
RTVSPropertyOp34
 70
     1
102
RTVSPropertyOp35
 70
     1
102
RTVSPropertyOp36
 70
     1
102
RTVSPropertyOp37
 70
     1
102
RTVSPropertyOp38
 70
     1
102
RTVSPropertyOp39
 70
     1
102
RTVSPropertyOp40
 70
     1
102
RTVSPropertyOp41
 70
     1
102
RTVSPropertyOp42
 70
     1
102
RTVSPropertyOp43
 70
     1
102
RTVSPropertyOp44
 70
     1
102
RTVSPropertyOp45
 70
     1
102
RTVSPropertyOp46
 70
     1
102
RTVSPropertyOp47
 70
     1
102
RTVSPropertyOp48
 70
     1
102
RTVSPropertyOp49
 70
     1
102
RTVSPropertyOp50
 70
     1
102
RTVSPropertyOp51
 70
     0
102
RTVSPropertyOp52
 70
     0
102
RTVSPropertyOp53
 70
     1
102
RTVSPropertyOp54
 70
     1
102
RTVSPropertyOp55
 70
     1
102
RTVSPropertyOp56
 70
     1
102
RTVSPropertyOp57
 70
     1
102
RTVSPost2010Prop28
280
     0
102
RTVSPost2010PropOp28
 70
     1
102
RTVSPost2010Prop29
280
     1
102
RTVSPost2010PropOp29
 70
     1
102
RTVSPost2010Prop30
280
     1
102
RTVSPost2010PropOp30
 70
     1
102
RTVSPost2010Prop31
280
     0
102
RTVSPost2010PropOp31
 70
     1
102
RTVSPost2010Prop32
280
     0
102
RTVSPost2010PropOp32
 70
     1
102
RTVSPost2010Prop33
280
     0
102
RTVSPost2010PropOp33
 70
     1
102
RTVSPost2010Prop34
280
     0
102
RTVSPost2010PropOp34
 70
     1
102
RTVSPost2010Prop35
280
     0
102
RTVSPost2010PropOp35
 70
     1
102
RTVSPost2010Prop36
280
     0
102
RTVSPost2010PropOp36
 70
     1
102
RTVSPost2010Prop37
 90
       50
102
RTVSPost2010PropOp37
 70
     1
102
RTVSPost2010Prop38
140
0.0
102
RTVSPost2010PropOp38
 70
     1
102
RTVSPost2010Prop39
140
1.0
102
RTVSPost2010PropOp39
 70
     1
102
RTVSPost2010Prop40
 90
        0
102
RTVSPost2010PropOp40
 70
     1
102
RTVSPost2010Prop41ColorIndex
 90
       18
102
RTVSPost2010Prop41ColorRGB
 90
        0
102
RTVSPost2010PropOp41
 70
     1
102
RTVSPost2010Prop42
 90
       50
102
RTVSPost2010PropOp42
 70
     1
102
RTVSPost2010Prop43
 90
        3
102
RTVSPost2010PropOp43
 70
     1
102
RTVSPost2010Prop44ColorIndex
 90
        5
102
RTVSPost2010Prop44ColorRGB
 90
      255
102
RTVSPost2010PropOp44
 70
     1
102
RTVSPost2010Prop45
280
     0
102
RTVSPost2010PropOp45
 70
     1
102
RTVSPost2010Prop46
 90
       50
102
RTVSPost2010PropOp46
 70
     1
102
RTVSPost2010Prop47
 90
       50
102
RTVSPost2010PropOp47
 70
     1
102
RTVSPost2010Prop48
 90
       50
102
RTVSPost2010PropOp48
 70
     1
102
RTVSPost2010Prop49
280
     0
102
RTVSPost2010PropOp49
 70
     1
102
RTVSPost2010Prop50
 90
       50
102
RTVSPost2010PropOp50
 70
     1
102
RTVSPost2010Prop51ColorIndex
 90
      256
102
RTVSPost2010Prop51ColorRGB
 90
-16777216
102
RTVSPost2010PropOp51
 70
     0
102
RTVSPost2010Prop52
140
1.0
102
RTVSPost2010PropOp52
 70
     0
102
RTVSPost2010Prop53
 90
        2
102
RTVSPost2010PropOp53
 70
     1
102
RTVSPost2010Prop54
  1
strokes_ogs.tif
102
RTVSPost2010PropOp54
 70
     1
102
RTVSPost2010Prop55
280
     0
102
RTVSPost2010PropOp55
 70
     1
102
RTVSPost2010Prop56
140
1.0
102
RTVSPost2010PropOp56
 70
     1
102
RTVSPost2010Prop57
140
1.0
102
RTVSPost2010PropOp57
 70
     1
  0
XRECORD
  5
3C2
102
{ACAD_REACTORS
330
3C1
102
}
330
3C1
100
AcDbXrecord
280
     1
102
RTVSPropertyOp0
 70
     1
102
RTVSPropertyOp1
 70
     1
102
RTVSPropertyOp2
 70
     1
102
RTVSPropertyOp3
 70
     1
102
RTVSPropertyOp4
 70
     1
102
RTVSPropertyOp5
 70
     1
102
RTVSPropertyOp6
 70
     1
102
RTVSPropertyOp7
 70
     1
102
RTVSPropertyOp8
 70
     1
102
RTVSPropertyOp9
 70
     1
102
RTVSPropertyOp10
 70
     1
102
RTVSPropertyOp11
 70
     1
102
RTVSPropertyOp12
 70
     1
102
RTVSPropertyOp13
 70
     1
102
RTVSPropertyOp14
 70
     1
102
RTVSPropertyOp15
 70
     1
102
RTVSPropertyOp16
 70
     1
102
RTVSPropertyOp17
 70
     1
102
RTVSPropertyOp18
 70
     1
102
RTVSPropertyOp19
 70
     1
102
RTVSPropertyOp20
 70
     1
102
RTVSPropertyOp21
 70
     1
102
RTVSPropertyOp22
 70
     1
102
RTVSPropertyOp23
 70
     1
102
RTVSPropertyOp24
 70
     1
102
RTVSPropertyOp25
 70
     1
102
RTVSPropertyOp26
 70
     1
102
RTVSPropertyOp27
 70
     1
102
RTVSPropertyOp28
 70
     1
102
RTVSPropertyOp29
 70
     1
102
RTVSPropertyOp30
 70
     1
102
RTVSPropertyOp31
 70
     1
102
RTVSPropertyOp32
 70
     1
102
RTVSPropertyOp33
 70
     1
102
RTVSPropertyOp34
 70
     1
102
RTVSPropertyOp35
 70
     1
102
RTVSPropertyOp36
 70
     1
102
RTVSPropertyOp37
 70
     1
102
RTVSPropertyOp38
 70
     1
102
RTVSPropertyOp39
 70
     1
102
RTVSPropertyOp40
 70
     1
102
RTVSPropertyOp41
 70
     1
102
RTVSPropertyOp42
 70
     1
102
RTVSPropertyOp43
 70
     1
102
RTVSPropertyOp44
 70
     1
102
RTVSPropertyOp45
 70
     1
102
RTVSPropertyOp46
 70
     1
102
RTVSPropertyOp47
 70
     1
102
RTVSPropertyOp48
 70
     1
102
RTVSPropertyOp49
 70
     1
102
RTVSPropertyOp50
 70
     1
102
RTVSPropertyOp51
 70
     0
102
RTVSPropertyOp52
 70
     0
102
RTVSPropertyOp53
 70
     1
102
RTVSPropertyOp54
 70
     1
102
RTVSPropertyOp55
 70
     1
102
RTVSPropertyOp56
 70
     1
102
RTVSPropertyOp57
 70
     1
102
RTVSPost2010Prop28
280
     0
102
RTVSPost2010PropOp28
 70
     1
102
RTVSPost2010Prop29
280
     1
102
RTVSPost2010PropOp29
 70
     1
102
RTVSPost2010Prop30
280
     1
102
RTVSPost2010PropOp30
 70
     1
102
RTVSPost2010Prop31
280
     0
102
RTVSPost2010PropOp31
 70
     1
102
RTVSPost2010Prop32
280
     0
102
RTVSPost2010PropOp32
 70
     1
102
RTVSPost2010Prop33
280
     0
102
RTVSPost2010PropOp33
 70
     1
102
RTVSPost2010Prop34
280
     0
102
RTVSPost2010PropOp34
 70
     1
102
RTVSPost2010Prop35
280
     0
102
RTVSPost2010PropOp35
 70
     1
102
RTVSPost2010Prop36
280
     0
102
RTVSPost2010PropOp36
 70
     1
102
RTVSPost2010Prop37
 90
       50
102
RTVSPost2010PropOp37
 70
     1
102
RTVSPost2010Prop38
140
0.0
102
RTVSPost2010PropOp38
 70
     1
102
RTVSPost2010Prop39
140
1.0
102
RTVSPost2010PropOp39
 70
     1
102
RTVSPost2010Prop40
 90
        0
102
RTVSPost2010PropOp40
 70
     1
102
RTVSPost2010Prop41ColorIndex
 90
       18
102
RTVSPost2010Prop41ColorRGB
 90
        0
102
RTVSPost2010PropOp41
 70
     1
102
RTVSPost2010Prop42
 90
       50
102
RTVSPost2010PropOp42
 70
     1
102
RTVSPost2010Prop43
 90
        3
102
RTVSPost2010PropOp43
 70
     1
102
RTVSPost2010Prop44ColorIndex
 90
        5
102
RTVSPost2010Prop44ColorRGB
 90
      255
102
RTVSPost2010PropOp44
 70
     1
102
RTVSPost2010Prop45
280
     0
102
RTVSPost2010PropOp45
 70
     1
102
RTVSPost2010Prop46
 90
       50
102
RTVSPost2010PropOp46
 70
     1
102
RTVSPost2010Prop47
 90
       50
102
RTVSPost2010PropOp47
 70
     1
102
RTVSPost2010Prop48
 90
       50
102
RTVSPost2010PropOp48
 70
     1
102
RTVSPost2010Prop49
280
     0
102
RTVSPost2010PropOp49
 70
     1
102
RTVSPost2010Prop50
 90
       50
102
RTVSPost2010PropOp50
 70
     1
102
RTVSPost2010Prop51ColorIndex
 90
      256
102
RTVSPost2010Prop51ColorRGB
 90
-16777216
102
RTVSPost2010PropOp51
 70
     0
102
RTVSPost2010Prop52
140
1.0
102
RTVSPost2010PropOp52
 70
     0
102
RTVSPost2010Prop53
 90
        2
102
RTVSPost2010PropOp53
 70
     1
102
RTVSPost2010Prop54
  1
strokes_ogs.tif
102
RTVSPost2010PropOp54
 70
     1
102
RTVSPost2010Prop55
280
     0
102
RTVSPost2010PropOp55
 70
     1
102
RTVSPost2010Prop56
140
1.0
102
RTVSPost2010PropOp56
 70
     1
102
RTVSPost2010Prop57
140
1.0
102
RTVSPost2010PropOp57
 70
     1
  0
XRECORD
  5
3D6
102
{ACAD_REACTORS
330
3D5
102
}
330
3D5
100
AcDbXrecord
280
     1
102
RTVSPropertyOp0
 70
     1
102
RTVSPropertyOp1
 70
     1
102
RTVSPropertyOp2
 70
     1
102
RTVSPropertyOp3
 70
     1
102
RTVSPropertyOp4
 70
     1
102
RTVSPropertyOp5
 70
     1
102
RTVSPropertyOp6
 70
     1
102
RTVSPropertyOp7
 70
     1
102
RTVSPropertyOp8
 70
     1
102
RTVSPropertyOp9
 70
     1
102
RTVSPropertyOp10
 70
     1
102
RTVSPropertyOp11
 70
     1
102
RTVSPropertyOp12
 70
     1
102
RTVSPropertyOp13
 70
     1
102
RTVSPropertyOp14
 70
     1
102
RTVSPropertyOp15
 70
     1
102
RTVSPropertyOp16
 70
     1
102
RTVSPropertyOp17
 70
     1
102
RTVSPropertyOp18
 70
     1
102
RTVSPropertyOp19
 70
     1
102
RTVSPropertyOp20
 70
     1
102
RTVSPropertyOp21
 70
     1
102
RTVSPropertyOp22
 70
     1
102
RTVSPropertyOp23
 70
     1
102
RTVSPropertyOp24
 70
     1
102
RTVSPropertyOp25
 70
     1
102
RTVSPropertyOp26
 70
     1
102
RTVSPropertyOp27
 70
     1
102
RTVSPropertyOp28
 70
     1
102
RTVSPropertyOp29
 70
     1
102
RTVSPropertyOp30
 70
     1
102
RTVSPropertyOp31
 70
     1
102
RTVSPropertyOp32
 70
     1
102
RTVSPropertyOp33
 70
     1
102
RTVSPropertyOp34
 70
     1
102
RTVSPropertyOp35
 70
     1
102
RTVSPropertyOp36
 70
     1
102
RTVSPropertyOp37
 70
     1
102
RTVSPropertyOp38
 70
     1
102
RTVSPropertyOp39
 70
     1
102
RTVSPropertyOp40
 70
     1
102
RTVSPropertyOp41
 70
     1
102
RTVSPropertyOp42
 70
     1
102
RTVSPropertyOp43
 70
     1
102
RTVSPropertyOp44
 70
     1
102
RTVSPropertyOp45
 70
     1
102
RTVSPropertyOp46
 70
     1
102
RTVSPropertyOp47
 70
     1
102
RTVSPropertyOp48
 70
     1
102
RTVSPropertyOp49
 70
     1
102
RTVSPropertyOp50
 70
     1
102
RTVSPropertyOp51
 70
     0
102
RTVSPropertyOp52
 70
     0
102
RTVSPropertyOp53
 70
     1
102
RTVSPropertyOp54
 70
     1
102
RTVSPropertyOp55
 70
     1
102
RTVSPropertyOp56
 70
     1
102
RTVSPropertyOp57
 70
     1
102
RTVSPost2010Prop28
280
     0
102
RTVSPost2010PropOp28
 70
     1
102
RTVSPost2010Prop29
280
     1
102
RTVSPost2010PropOp29
 70
     1
102
RTVSPost2010Prop30
280
     1
102
RTVSPost2010PropOp30
 70
     1
102
RTVSPost2010Prop31
280
     0
102
RTVSPost2010PropOp31
 70
     1
102
RTVSPost2010Prop32
280
     0
102
RTVSPost2010PropOp32
 70
     1
102
RTVSPost2010Prop33
280
     0
102
RTVSPost2010PropOp33
 70
     1
102
RTVSPost2010Prop34
280
     0
102
RTVSPost2010PropOp34
 70
     1
102
RTVSPost2010Prop35
280
     0
102
RTVSPost2010PropOp35
 70
     1
102
RTVSPost2010Prop36
280
     0
102
RTVSPost2010PropOp36
 70
     1
102
RTVSPost2010Prop37
 90
       50
102
RTVSPost2010PropOp37
 70
     1
102
RTVSPost2010Prop38
140
0.0
102
RTVSPost2010PropOp38
 70
     1
102
RTVSPost2010Prop39
140
1.0
102
RTVSPost2010PropOp39
 70
     1
102
RTVSPost2010Prop40
 90
        0
102
RTVSPost2010PropOp40
 70
     1
102
RTVSPost2010Prop41ColorIndex
 90
       18
102
RTVSPost2010Prop41ColorRGB
 90
        0
102
RTVSPost2010PropOp41
 70
     1
102
RTVSPost2010Prop42
 90
       50
102
RTVSPost2010PropOp42
 70
     1
102
RTVSPost2010Prop43
 90
        3
102
RTVSPost2010PropOp43
 70
     1
102
RTVSPost2010Prop44ColorIndex
 90
        5
102
RTVSPost2010Prop44ColorRGB
 90
      255
102
RTVSPost2010PropOp44
 70
     1
102
RTVSPost2010Prop45
280
     0
102
RTVSPost2010PropOp45
 70
     1
102
RTVSPost2010Prop46
 90
       50
102
RTVSPost2010PropOp46
 70
     1
102
RTVSPost2010Prop47
 90
       50
102
RTVSPost2010PropOp47
 70
     1
102
RTVSPost2010Prop48
 90
       50
102
RTVSPost2010PropOp48
 70
     1
102
RTVSPost2010Prop49
280
     0
102
RTVSPost2010PropOp49
 70
     1
102
RTVSPost2010Prop50
 90
       50
102
RTVSPost2010PropOp50
 70
     1
102
RTVSPost2010Prop51ColorIndex
 90
      256
102
RTVSPost2010Prop51ColorRGB
 90
-16777216
102
RTVSPost2010PropOp51
 70
     0
102
RTVSPost2010Prop52
140
1.0
102
RTVSPost2010PropOp52
 70
     0
102
RTVSPost2010Prop53
 90
        2
102
RTVSPost2010PropOp53
 70
     1
102
RTVSPost2010Prop54
  1
strokes_ogs.tif
102
RTVSPost2010PropOp54
 70
     1
102
RTVSPost2010Prop55
280
     0
102
RTVSPost2010PropOp55
 70
     1
102
RTVSPost2010Prop56
140
1.0
102
RTVSPost2010PropOp56
 70
     1
102
RTVSPost2010Prop57
140
1.0
102
RTVSPost2010PropOp57
 70
     1
  0
XRECORD
  5
3CC
102
{ACAD_REACTORS
330
3CB
102
}
330
3CB
100
AcDbXrecord
280
     1
102
RTVSPropertyOp0
 70
     1
102
RTVSPropertyOp1
 70
     1
102
RTVSPropertyOp2
 70
     1
102
RTVSPropertyOp3
 70
     1
102
RTVSPropertyOp4
 70
     1
102
RTVSPropertyOp5
 70
     1
102
RTVSPropertyOp6
 70
     1
102
RTVSPropertyOp7
 70
     1
102
RTVSPropertyOp8
 70
     1
102
RTVSPropertyOp9
 70
     1
102
RTVSPropertyOp10
 70
     1
102
RTVSPropertyOp11
 70
     1
102
RTVSPropertyOp12
 70
     1
102
RTVSPropertyOp13
 70
     1
102
RTVSPropertyOp14
 70
     1
102
RTVSPropertyOp15
 70
     1
102
RTVSPropertyOp16
 70
     1
102
RTVSPropertyOp17
 70
     1
102
RTVSPropertyOp18
 70
     1
102
RTVSPropertyOp19
 70
     1
102
RTVSPropertyOp20
 70
     1
102
RTVSPropertyOp21
 70
     1
102
RTVSPropertyOp22
 70
     1
102
RTVSPropertyOp23
 70
     1
102
RTVSPropertyOp24
 70
     1
102
RTVSPropertyOp25
 70
     1
102
RTVSPropertyOp26
 70
     1
102
RTVSPropertyOp27
 70
     1
102
RTVSPropertyOp28
 70
     1
102
RTVSPropertyOp29
 70
     1
102
RTVSPropertyOp30
 70
     1
102
RTVSPropertyOp31
 70
     1
102
RTVSPropertyOp32
 70
     1
102
RTVSPropertyOp33
 70
     1
102
RTVSPropertyOp34
 70
     1
102
RTVSPropertyOp35
 70
     1
102
RTVSPropertyOp36
 70
     1
102
RTVSPropertyOp37
 70
     1
102
RTVSPropertyOp38
 70
     1
102
RTVSPropertyOp39
 70
     1
102
RTVSPropertyOp40
 70
     1
102
RTVSPropertyOp41
 70
     1
102
RTVSPropertyOp42
 70
     1
102
RTVSPropertyOp43
 70
     1
102
RTVSPropertyOp44
 70
     1
102
RTVSPropertyOp45
 70
     1
102
RTVSPropertyOp46
 70
     1
102
RTVSPropertyOp47
 70
     1
102
RTVSPropertyOp48
 70
     1
102
RTVSPropertyOp49
 70
     1
102
RTVSPropertyOp50
 70
     1
102
RTVSPropertyOp51
 70
     0
102
RTVSPropertyOp52
 70
     0
102
RTVSPropertyOp53
 70
     1
102
RTVSPropertyOp54
 70
     1
102
RTVSPropertyOp55
 70
     1
102
RTVSPropertyOp56
 70
     1
102
RTVSPropertyOp57
 70
     1
102
RTVSPost2010Prop28
280
     0
102
RTVSPost2010PropOp28
 70
     1
102
RTVSPost2010Prop29
280
     1
102
RTVSPost2010PropOp29
 70
     1
102
RTVSPost2010Prop30
280
     1
102
RTVSPost2010PropOp30
 70
     1
102
RTVSPost2010Prop31
280
     0
102
RTVSPost2010PropOp31
 70
     1
102
RTVSPost2010Prop32
280
     0
102
RTVSPost2010PropOp32
 70
     1
102
RTVSPost2010Prop33
280
     0
102
RTVSPost2010PropOp33
 70
     1
102
RTVSPost2010Prop34
280
     0
102
RTVSPost2010PropOp34
 70
     1
102
RTVSPost2010Prop35
280
     0
102
RTVSPost2010PropOp35
 70
     1
102
RTVSPost2010Prop36
280
     0
102
RTVSPost2010PropOp36
 70
     1
102
RTVSPost2010Prop37
 90
       50
102
RTVSPost2010PropOp37
 70
     1
102
RTVSPost2010Prop38
140
0.0
102
RTVSPost2010PropOp38
 70
     1
102
RTVSPost2010Prop39
140
1.0
102
RTVSPost2010PropOp39
 70
     1
102
RTVSPost2010Prop40
 90
        0
102
RTVSPost2010PropOp40
 70
     1
102
RTVSPost2010Prop41ColorIndex
 90
       18
102
RTVSPost2010Prop41ColorRGB
 90
        0
102
RTVSPost2010PropOp41
 70
     1
102
RTVSPost2010Prop42
 90
       50
102
RTVSPost2010PropOp42
 70
     1
102
RTVSPost2010Prop43
 90
        3
102
RTVSPost2010PropOp43
 70
     1
102
RTVSPost2010Prop44ColorIndex
 90
        5
102
RTVSPost2010Prop44ColorRGB
 90
      255
102
RTVSPost2010PropOp44
 70
     1
102
RTVSPost2010Prop45
280
     0
102
RTVSPost2010PropOp45
 70
     1
102
RTVSPost2010Prop46
 90
       50
102
RTVSPost2010PropOp46
 70
     1
102
RTVSPost2010Prop47
 90
       50
102
RTVSPost2010PropOp47
 70
     1
102
RTVSPost2010Prop48
 90
       50
102
RTVSPost2010PropOp48
 70
     1
102
RTVSPost2010Prop49
280
     0
102
RTVSPost2010PropOp49
 70
     1
102
RTVSPost2010Prop50
 90
       50
102
RTVSPost2010PropOp50
 70
     1
102
RTVSPost2010Prop51ColorIndex
 90
      256
102
RTVSPost2010Prop51ColorRGB
 90
-16777216
102
RTVSPost2010PropOp51
 70
     0
102
RTVSPost2010Prop52
140
1.0
102
RTVSPost2010PropOp52
 70
     0
102
RTVSPost2010Prop53
 90
        2
102
RTVSPost2010PropOp53
 70
     1
102
RTVSPost2010Prop54
  1
strokes_ogs.tif
102
RTVSPost2010PropOp54
 70
     1
102
RTVSPost2010Prop55
280
     0
102
RTVSPost2010PropOp55
 70
     1
102
RTVSPost2010Prop56
140
1.0
102
RTVSPost2010PropOp56
 70
     1
102
RTVSPost2010Prop57
140
1.0
102
RTVSPost2010PropOp57
 70
     1
  0
XRECORD
  5
3D4
102
{ACAD_REACTORS
330
3D3
102
}
330
3D3
100
AcDbXrecord
280
     1
102
RTVSPropertyOp0
 70
     1
102
RTVSPropertyOp1
 70
     1
102
RTVSPropertyOp2
 70
     1
102
RTVSPropertyOp3
 70
     1
102
RTVSPropertyOp4
 70
     1
102
RTVSPropertyOp5
 70
     1
102
RTVSPropertyOp6
 70
     1
102
RTVSPropertyOp7
 70
     1
102
RTVSPropertyOp8
 70
     1
102
RTVSPropertyOp9
 70
     1
102
RTVSPropertyOp10
 70
     1
102
RTVSPropertyOp11
 70
     1
102
RTVSPropertyOp12
 70
     1
102
RTVSPropertyOp13
 70
     1
102
RTVSPropertyOp14
 70
     1
102
RTVSPropertyOp15
 70
     1
102
RTVSPropertyOp16
 70
     1
102
RTVSPropertyOp17
 70
     1
102
RTVSPropertyOp18
 70
     1
102
RTVSPropertyOp19
 70
     1
102
RTVSPropertyOp20
 70
     1
102
RTVSPropertyOp21
 70
     1
102
RTVSPropertyOp22
 70
     1
102
RTVSPropertyOp23
 70
     1
102
RTVSPropertyOp24
 70
     1
102
RTVSPropertyOp25
 70
     1
102
RTVSPropertyOp26
 70
     1
102
RTVSPropertyOp27
 70
     1
102
RTVSPropertyOp28
 70
     1
102
RTVSPropertyOp29
 70
     1
102
RTVSPropertyOp30
 70
     1
102
RTVSPropertyOp31
 70
     1
102
RTVSPropertyOp32
 70
     1
102
RTVSPropertyOp33
 70
     1
102
RTVSPropertyOp34
 70
     1
102
RTVSPropertyOp35
 70
     1
102
RTVSPropertyOp36
 70
     1
102
RTVSPropertyOp37
 70
     1
102
RTVSPropertyOp38
 70
     1
102
RTVSPropertyOp39
 70
     1
102
RTVSPropertyOp40
 70
     1
102
RTVSPropertyOp41
 70
     1
102
RTVSPropertyOp42
 70
     1
102
RTVSPropertyOp43
 70
     1
102
RTVSPropertyOp44
 70
     1
102
RTVSPropertyOp45
 70
     1
102
RTVSPropertyOp46
 70
     1
102
RTVSPropertyOp47
 70
     1
102
RTVSPropertyOp48
 70
     1
102
RTVSPropertyOp49
 70
     1
102
RTVSPropertyOp50
 70
     1
102
RTVSPropertyOp51
 70
     0
102
RTVSPropertyOp52
 70
     0
102
RTVSPropertyOp53
 70
     1
102
RTVSPropertyOp54
 70
     1
102
RTVSPropertyOp55
 70
     1
102
RTVSPropertyOp56
 70
     1
102
RTVSPropertyOp57
 70
     1
102
RTVSPost2010Prop28
280
     0
102
RTVSPost2010PropOp28
 70
     1
102
RTVSPost2010Prop29
280
     1
102
RTVSPost2010PropOp29
 70
     1
102
RTVSPost2010Prop30
280
     1
102
RTVSPost2010PropOp30
 70
     1
102
RTVSPost2010Prop31
280
     0
102
RTVSPost2010PropOp31
 70
     1
102
RTVSPost2010Prop32
280
     0
102
RTVSPost2010PropOp32
 70
     1
102
RTVSPost2010Prop33
280
     0
102
RTVSPost2010PropOp33
 70
     1
102
RTVSPost2010Prop34
280
     0
102
RTVSPost2010PropOp34
 70
     1
102
RTVSPost2010Prop35
280
     0
102
RTVSPost2010PropOp35
 70
     1
102
RTVSPost2010Prop36
280
     0
102
RTVSPost2010PropOp36
 70
     1
102
RTVSPost2010Prop37
 90
       50
102
RTVSPost2010PropOp37
 70
     1
102
RTVSPost2010Prop38
140
0.0
102
RTVSPost2010PropOp38
 70
     1
102
RTVSPost2010Prop39
140
1.0
102
RTVSPost2010PropOp39
 70
     1
102
RTVSPost2010Prop40
 90
        0
102
RTVSPost2010PropOp40
 70
     1
102
RTVSPost2010Prop41ColorIndex
 90
       18
102
RTVSPost2010Prop41ColorRGB
 90
        0
102
RTVSPost2010PropOp41
 70
     1
102
RTVSPost2010Prop42
 90
       50
102
RTVSPost2010PropOp42
 70
     1
102
RTVSPost2010Prop43
 90
        3
102
RTVSPost2010PropOp43
 70
     1
102
RTVSPost2010Prop44ColorIndex
 90
        5
102
RTVSPost2010Prop44ColorRGB
 90
      255
102
RTVSPost2010PropOp44
 70
     1
102
RTVSPost2010Prop45
280
     0
102
RTVSPost2010PropOp45
 70
     1
102
RTVSPost2010Prop46
 90
       50
102
RTVSPost2010PropOp46
 70
     1
102
RTVSPost2010Prop47
 90
       50
102
RTVSPost2010PropOp47
 70
     1
102
RTVSPost2010Prop48
 90
       50
102
RTVSPost2010PropOp48
 70
     1
102
RTVSPost2010Prop49
280
     0
102
RTVSPost2010PropOp49
 70
     1
102
RTVSPost2010Prop50
 90
       50
102
RTVSPost2010PropOp50
 70
     1
102
RTVSPost2010Prop51ColorIndex
 90
      256
102
RTVSPost2010Prop51ColorRGB
 90
-16777216
102
RTVSPost2010PropOp51
 70
     0
102
RTVSPost2010Prop52
140
1.0
102
RTVSPost2010PropOp52
 70
     0
102
RTVSPost2010Prop53
 90
        2
102
RTVSPost2010PropOp53
 70
     1
102
RTVSPost2010Prop54
  1
strokes_ogs.tif
102
RTVSPost2010PropOp54
 70
     1
102
RTVSPost2010Prop55
280
     0
102
RTVSPost2010PropOp55
 70
     1
102
RTVSPost2010Prop56
140
1.0
102
RTVSPost2010PropOp56
 70
     1
102
RTVSPost2010Prop57
140
1.0
102
RTVSPost2010PropOp57
 70
     1
  0
ENDSEC
  0
EOF
