  0
SECTION
  2
HEADER
  9
$ACADVER
  1
AC1018
  9
$ACADMAINTVER
 70
     0
  9
$DWGCODEPAGE
  3
ANSI_936
  9
$INSBASE
 10
0.0
 20
0.0
 30
0.0
  9
$EXTMIN
 10
722.8913616505218
 20
750.8911974448071
 30
0.0
  9
$EXTMAX
 10
835.4569002321889
 20
818.8461030500832
 30
0.0
  9
$LIMMIN
 10
0.0
 20
0.0
  9
$LIMMAX
 10
12.0
 20
9.0
  9
$ORTHOMODE
 70
     0
  9
$REGENMODE
 70
     1
  9
$FILLMODE
 70
     1
  9
$QTEXTMODE
 70
     0
  9
$MIRRTEXT
 70
     1
  9
$LTSCALE
 40
1.0
  9
$ATTMODE
 70
     1
  9
$TEXTSIZE
 40
0.2
  9
$TRACEWID
 40
0.05
  9
$TEXTSTYLE
  7
Standard
  9
$CLAYER
  8
0
  9
$CELTYPE
  6
ByLayer
  9
$CECOLOR
 62
   256
  9
$CELTSCALE
 40
1.0
  9
$DISPSILH
 70
     0
  9
$DIMSCALE
 40
1.0
  9
$DIMASZ
 40
0.18
  9
$DIMEXO
 40
0.0625
  9
$DIMDLI
 40
0.38
  9
$DIMRND
 40
0.0
  9
$DIMDLE
 40
0.0
  9
$DIMEXE
 40
0.18
  9
$DIMTP
 40
0.0
  9
$DIMTM
 40
0.0
  9
$DIMTXT
 40
0.18
  9
$DIMCEN
 40
0.09
  9
$DIMTSZ
 40
0.0
  9
$DIMTOL
 70
     0
  9
$DIMLIM
 70
     0
  9
$DIMTIH
 70
     1
  9
$DIMTOH
 70
     1
  9
$DIMSE1
 70
     0
  9
$DIMSE2
 70
     0
  9
$DIMTAD
 70
     0
  9
$DIMZIN
 70
     0
  9
$DIMBLK
  1

  9
$DIMASO
 70
     1
  9
$DIMSHO
 70
     1
  9
$DIMPOST
  1

  9
$DIMAPOST
  1

  9
$DIMALT
 70
     0
  9
$DIMALTD
 70
     2
  9
$DIMALTF
 40
25.4
  9
$DIMLFAC
 40
1.0
  9
$DIMTOFL
 70
     0
  9
$DIMTVP
 40
0.0
  9
$DIMTIX
 70
     0
  9
$DIMSOXD
 70
     0
  9
$DIMSAH
 70
     0
  9
$DIMBLK1
  1

  9
$DIMBLK2
  1

  9
$DIMSTYLE
  2
Standard
  9
$DIMCLRD
 70
     0
  9
$DIMCLRE
 70
     0
  9
$DIMCLRT
 70
     0
  9
$DIMTFAC
 40
1.0
  9
$DIMGAP
 40
0.09
  9
$DIMJUST
 70
     0
  9
$DIMSD1
 70
     0
  9
$DIMSD2
 70
     0
  9
$DIMTOLJ
 70
     1
  9
$DIMTZIN
 70
     0
  9
$DIMALTZ
 70
     0
  9
$DIMALTTZ
 70
     0
  9
$DIMUPT
 70
     0
  9
$DIMDEC
 70
     4
  9
$DIMTDEC
 70
     4
  9
$DIMALTU
 70
     2
  9
$DIMALTTD
 70
     2
  9
$DIMTXSTY
  7
Standard
  9
$DIMAUNIT
 70
     0
  9
$DIMADEC
 70
     0
  9
$DIMALTRND
 40
0.0
  9
$DIMAZIN
 70
     0
  9
$DIMDSEP
 70
    46
  9
$DIMATFIT
 70
     3
  9
$DIMFRAC
 70
     0
  9
$DIMLDRBLK
  1

  9
$DIMLUNIT
 70
     2
  9
$DIMLWD
 70
    -2
  9
$DIMLWE
 70
    -2
  9
$DIMTMOVE
 70
     2
  9
$LUNITS
 70
     2
  9
$LUPREC
 70
     2
  9
$SKETCHINC
 40
0.1
  9
$FILLETRAD
 40
0.5
  9
$AUNITS
 70
     0
  9
$AUPREC
 70
     0
  9
$MENU
  1
.
  9
$ELEVATION
 40
0.0
  9
$PELEVATION
 40
0.0
  9
$THICKNESS
 40
0.0
  9
$LIMCHECK
 70
     0
  9
$CHAMFERA
 40
0.5
  9
$CHAMFERB
 40
0.5
  9
$CHAMFERC
 40
1.0
  9
$CHAMFERD
 40
0.0
  9
$SKPOLY
 70
     0
  9
$TDCREATE
 40
2456695.968910104
  9
$TDUCREATE
 40
2456695.635576771
  9
$TDUPDATE
 40
2456695.96892125
  9
$TDUUPDATE
 40
2456695.635587917
  9
$TDINDWG
 40
0.0000000116
  9
$TDUSRTIMER
 40
0.0000000116
  9
$USRTIMER
 70
     1
  9
$ANGBASE
 50
0.0
  9
$ANGDIR
 70
     0
  9
$PDMODE
 70
     0
  9
$PDSIZE
 40
0.0
  9
$PLINEWID
 40
0.0
  9
$SPLFRAME
 70
     0
  9
$SPLINETYPE
 70
     6
  9
$SPLINESEGS
 70
     8
  9
$HANDSEED
  5
696
  9
$SURFTAB1
 70
     6
  9
$SURFTAB2
 70
     6
  9
$SURFTYPE
 70
     6
  9
$SURFU
 70
     6
  9
$SURFV
 70
     6
  9
$UCSBASE
  2

  9
$UCSNAME
  2

  9
$UCSORG
 10
0.0
 20
0.0
 30
0.0
  9
$UCSXDIR
 10
1.0
 20
0.0
 30
0.0
  9
$UCSYDIR
 10
0.0
 20
1.0
 30
0.0
  9
$UCSORTHOREF
  2

  9
$UCSORTHOVIEW
 70
     0
  9
$UCSORGTOP
 10
0.0
 20
0.0
 30
0.0
  9
$UCSORGBOTTOM
 10
0.0
 20
0.0
 30
0.0
  9
$UCSORGLEFT
 10
0.0
 20
0.0
 30
0.0
  9
$UCSORGRIGHT
 10
0.0
 20
0.0
 30
0.0
  9
$UCSORGFRONT
 10
0.0
 20
0.0
 30
0.0
  9
$UCSORGBACK
 10
0.0
 20
0.0
 30
0.0
  9
$PUCSBASE
  2

  9
$PUCSNAME
  2

  9
$PUCSORG
 10
0.0
 20
0.0
 30
0.0
  9
$PUCSXDIR
 10
1.0
 20
0.0
 30
0.0
  9
$PUCSYDIR
 10
0.0
 20
1.0
 30
0.0
  9
$PUCSORTHOREF
  2

  9
$PUCSORTHOVIEW
 70
     0
  9
$PUCSORGTOP
 10
0.0
 20
0.0
 30
0.0
  9
$PUCSORGBOTTOM
 10
0.0
 20
0.0
 30
0.0
  9
$PUCSORGLEFT
 10
0.0
 20
0.0
 30
0.0
  9
$PUCSORGRIGHT
 10
0.0
 20
0.0
 30
0.0
  9
$PUCSORGFRONT
 10
0.0
 20
0.0
 30
0.0
  9
$PUCSORGBACK
 10
0.0
 20
0.0
 30
0.0
  9
$USERI1
 70
     0
  9
$USERI2
 70
     0
  9
$USERI3
 70
     0
  9
$USERI4
 70
     0
  9
$USERI5
 70
     0
  9
$USERR1
 40
0.0
  9
$USERR2
 40
0.0
  9
$USERR3
 40
0.0
  9
$USERR4
 40
0.0
  9
$USERR5
 40
0.0
  9
$WORLDVIEW
 70
     1
  9
$SHADEDGE
 70
     3
  9
$SHADEDIF
 70
    70
  9
$TILEMODE
 70
     1
  9
$MAXACTVP
 70
    64
  9
$PINSBASE
 10
0.0
 20
0.0
 30
0.0
  9
$PLIMCHECK
 70
     0
  9
$PEXTMIN
 10
1.000000000000000E+20
 20
1.000000000000000E+20
 30
1.000000000000000E+20
  9
$PEXTMAX
 10
-1.000000000000000E+20
 20
-1.000000000000000E+20
 30
-1.000000000000000E+20
  9
$PLIMMIN
 10
0.0
 20
0.0
  9
$PLIMMAX
 10
12.0
 20
9.0
  9
$UNITMODE
 70
     0
  9
$VISRETAIN
 70
     1
  9
$PLINEGEN
 70
     0
  9
$PSLTSCALE
 70
     1
  9
$TREEDEPTH
 70
  3020
  9
$CMLSTYLE
  2
Standard
  9
$CMLJUST
 70
     0
  9
$CMLSCALE
 40
1.0
  9
$PROXYGRAPHICS
 70
     1
  9
$MEASUREMENT
 70
     0
  9
$CELWEIGHT
370
    -1
  9
$ENDCAPS
280
     0
  9
$JOINSTYLE
280
     0
  9
$LWDISPLAY
290
     0
  9
$INSUNITS
 70
     4
  9
$HYPERLINKBASE
  1

  9
$STYLESHEET
  1

  9
$XEDIT
290
     1
  9
$CEPSNTYPE
380
     0
  9
$PSTYLEMODE
290
     1
  9
$FINGERPRINTGUID
  2
{6CE844DF-6B61-4252-8E52-CBF762FC3848}
  9
$VERSIONGUID
  2
{FAEB1C32-E019-11D5-929B-00C0DF256EC4}
  9
$EXTNAMES
290
     1
  9
$PSVPSCALE
 40
0.0
  9
$OLESTARTUP
290
     0
  9
$SORTENTS
280
   127
  9
$INDEXCTL
280
     0
  9
$HIDETEXT
280
     1
  9
$XCLIPFRAME
290
     0
  9
$HALOGAP
280
     0
  9
$OBSCOLOR
 70
   257
  9
$OBSLTYPE
280
     0
  9
$INTERSECTIONDISPLAY
280
     0
  9
$INTERSECTIONCOLOR
 70
   257
  9
$DIMASSOC
280
     2
  9
$PROJECTNAME
  1

  0
ENDSEC
  0
SECTION
  2
CLASSES
  0
CLASS
  1
ACDBDICTIONARYWDFLT
  2
AcDbDictionaryWithDefault
  3
ObjectDBX Classes
 90
        0
 91
        4
280
     0
281
     0
  0
CLASS
  1
VISUALSTYLE
  2
AcDbVisualStyle
  3
ObjectDBX Classes
 90
     4095
 91
        4
280
     0
281
     0
  0
CLASS
  1
MATERIAL
  2
AcDbMaterial
  3
ObjectDBX Classes
 90
     1153
 91
        4
280
     0
281
     0
  0
CLASS
  1
SCALE
  2
AcDbScale
  3
ObjectDBX Classes
 90
     1153
 91
        4
280
     0
281
     0
  0
CLASS
  1
SUN
  2
AcDbSun
  3
SCENEOE
 90
     1153
 91
        4
280
     0
281
     0
  0
CLASS
  1
DICTIONARYVAR
  2
AcDbDictionaryVar
  3
ObjectDBX Classes
 90
        0
 91
        4
280
     0
281
     0
  0
ENDSEC
  0
SECTION
  2
TABLES
  0
TABLE
  2
VPORT
  5
8
330
0
100
AcDbSymbolTable
 70
     1
  0
VPORT
  5
29
330
8
100
AcDbSymbolTableRecord
100
AcDbViewportTableRecord
  2
*Active
 70
     0
 10
0.0
 20
0.0
 11
1.0
 21
1.0
 12
779.1741366615859
 22
784.8686505523444
 13
0.0
 23
0.0
 14
0.5
 24
0.5
 15
0.5
 25
0.5
 16
0.0
 26
0.0
 36
1.0
 17
0.0
 27
0.0
 37
0.0
 40
69.31400309538715
 41
1.656272110672984
 42
50.0
 43
0.0
 44
0.0
 50
0.0
 51
0.0
 71
     0
 72
   100
 73
     1
 74
     3
 75
     0
 76
     0
 77
     0
 78
     0
281
     0
 65
     1
110
0.0
120
0.0
130
0.0
111
1.0
121
0.0
131
0.0
112
0.0
122
1.0
132
0.0
 79
     0
146
0.0
  0
ENDTAB
  0
TABLE
  2
LTYPE
  5
5
330
0
100
AcDbSymbolTable
 70
     1
  0
LTYPE
  5
14
330
5
100
AcDbSymbolTableRecord
100
AcDbLinetypeTableRecord
  2
ByBlock
 70
     0
  3

 72
    65
 73
     0
 40
0.0
  0
LTYPE
  5
15
330
5
100
AcDbSymbolTableRecord
100
AcDbLinetypeTableRecord
  2
ByLayer
 70
     0
  3

 72
    65
 73
     0
 40
0.0
  0
LTYPE
  5
16
330
5
100
AcDbSymbolTableRecord
100
AcDbLinetypeTableRecord
  2
Continuous
 70
     0
  3
Solid line
 72
    65
 73
     0
 40
0.0
  0
ENDTAB
  0
TABLE
  2
LAYER
  5
2
330
0
100
AcDbSymbolTable
 70
     3
  0
LAYER
  5
10
330
2
100
AcDbSymbolTableRecord
100
AcDbLayerTableRecord
  2
0
 70
     0
 62
     7
  6
Continuous
370
    -3
390
F
  0
LAYER
  5
62
330
2
100
AcDbSymbolTableRecord
100
AcDbLayerTableRecord
  2
dessin 2D
 70
     0
 62
    18
420
        0
  6
Continuous
370
    -3
390
F
  0
LAYER
  5
355
330
2
100
AcDbSymbolTableRecord
100
AcDbLayerTableRecord
  2
Make2D$可见线$普通线
 70
     0
 62
    18
420
        0
  6
Continuous
370
    -3
390
F
  0
ENDTAB
  0
TABLE
  2
STYLE
  5
3
330
0
100
AcDbSymbolTable
 70
     1
  0
STYLE
  5
11
330
3
100
AcDbSymbolTableRecord
100
AcDbTextStyleTableRecord
  2
Standard
 70
     0
 40
0.0
 41
1.0
 50
0.0
 71
     0
 42
0.2
  3
txt
  4

  0
ENDTAB
  0
TABLE
  2
VIEW
  5
6
330
0
100
AcDbSymbolTable
 70
     0
  0
ENDTAB
  0
TABLE
  2
UCS
  5
7
330
0
100
AcDbSymbolTable
 70
     0
  0
ENDTAB
  0
TABLE
  2
APPID
  5
9
330
0
100
AcDbSymbolTable
 70
     1
  0
APPID
  5
12
330
9
100
AcDbSymbolTableRecord
100
AcDbRegAppTableRecord
  2
ACAD
 70
     0
  0
ENDTAB
  0
TABLE
  2
DIMSTYLE
  5
A
330
0
100
AcDbSymbolTable
 70
     1
100
AcDbDimStyleTable
  0
DIMSTYLE
105
27
330
A
100
AcDbSymbolTableRecord
100
AcDbDimStyleTableRecord
  2
Standard
 70
     0
178
     0
340
11
  0
ENDTAB
  0
TABLE
  2
BLOCK_RECORD
  5
1
330
0
100
AcDbSymbolTable
 70
     1
  0
BLOCK_RECORD
  5
1F
330
1
100
AcDbSymbolTableRecord
100
AcDbBlockTableRecord
  2
*Model_Space
340
22
  0
BLOCK_RECORD
  5
1B
330
1
100
AcDbSymbolTableRecord
100
AcDbBlockTableRecord
  2
*Paper_Space
340
1E
  0
BLOCK_RECORD
  5
23
330
1
100
AcDbSymbolTableRecord
100
AcDbBlockTableRecord
  2
*Paper_Space0
340
26
  0
ENDTAB
  0
ENDSEC
  0
SECTION
  2
BLOCKS
  0
BLOCK
  5
20
330
1F
100
AcDbEntity
  8
0
100
AcDbBlockBegin
  2
*Model_Space
 70
     0
 10
0.0
 20
0.0
 30
0.0
  3
*Model_Space
  1
*Model_Space
  0
ENDBLK
  5
21
330
1F
100
AcDbEntity
  8
0
100
AcDbBlockEnd
  0
BLOCK
  5
1C
330
1B
100
AcDbEntity
 67
     1
  8
0
100
AcDbBlockBegin
  2
*Paper_Space
 70
     0
 10
0.0
 20
0.0
 30
0.0
  3
*Paper_Space
  1
*Paper_Space
  0
ENDBLK
  5
1D
330
1B
100
AcDbEntity
 67
     1
  8
0
100
AcDbBlockEnd
  0
BLOCK
  5
24
330
23
100
AcDbEntity
  8
0
100
AcDbBlockBegin
  2
*Paper_Space0
 70
     0
 10
0.0
 20
0.0
 30
0.0
  3
*Paper_Space0
  1
*Paper_Space0
  0
ENDBLK
  5
25
330
23
100
AcDbEntity
  8
0
100
AcDbBlockEnd
  0
ENDSEC
  0
SECTION
  2
ENTITIES
  0
LINE
  5
63
330
1F
100
AcDbEntity
  8
dessin 2D
100
AcDbLine
 10
769.698983993158
 20
818.3523360340416
 30
0.0
 11
769.7502615585342
 21
818.3759571518679
 31
0.0
  0
ARC
  5
64
330
1F
100
AcDbEntity
  8
dessin 2D
100
AcDbCircle
 10
787.030767170823
 20
818.2460998400869
 30
0.0
 40
0.1000032100706955
100
AcDbArc
 50
31.66902535309119
 51
90.00221319083406
  0
LINE
  5
65
330
1F
100
AcDbEntity
  8
dessin 2D
100
AcDbLine
 10
775.728545307613
 20
795.8461030500831
 30
0.0
 11
782.6264140296344
 21
795.8461030500831
 31
0.0
  0
POLYLINE
  5
66
330
1F
100
AcDbEntity
  8
dessin 2D
100
AcDb2dPolyline
 66
     1
 10
0.0
 20
0.0
 30
0.0
  0
VERTEX
  5
67
330
66
100
AcDbEntity
  8
dessin 2D
100
AcDbVertex
100
AcDb2dVertex
 10
784.5419124213847
 20
795.846103050083
 30
0.0
 42
0.0062559125497668
  0
VERTEX
  5
68
330
66
100
AcDbEntity
  8
dessin 2D
100
AcDbVertex
100
AcDb2dVertex
 10
784.9352681095131
 20
794.247626399762
 30
0.0
  0
VERTEX
  5
69
330
66
100
AcDbEntity
  8
dessin 2D
100
AcDbVertex
100
AcDb2dVertex
 10
785.3827594050522
 20
792.5763407307307
 30
0.0
  0
VERTEX
  5
6A
330
66
100
AcDbEntity
  8
dessin 2D
100
AcDbVertex
100
AcDb2dVertex
 10
785.846663377386
 20
790.9038196766035
 30
0.0
  0
VERTEX
  5
6B
330
66
100
AcDbEntity
  8
dessin 2D
100
AcDbVertex
100
AcDb2dVertex
 10
786.3005687714953
 20
789.2337693926683
 30
0.0
 42
-0.0077380644471704
  0
VERTEX
  5
6C
330
66
100
AcDbEntity
  8
dessin 2D
100
AcDbVertex
100
AcDb2dVertex
 10
786.7160168850064
 20
787.5624837236371
 30
0.0
 42
-0.0129885463627764
  0
VERTEX
  5
6D
330
66
100
AcDbEntity
  8
dessin 2D
100
AcDbVertex
100
AcDb2dVertex
 10
787.0590756465626
 20
785.8911980546059
 30
0.0
  0
SEQEND
  5
6E
330
66
100
AcDbEntity
  8
dessin 2D
  0
POLYLINE
  5
6F
330
1F
100
AcDbEntity
  8
dessin 2D
100
AcDb2dPolyline
 66
     1
 10
0.0
 20
0.0
 30
0.0
  0
VERTEX
  5
70
330
6F
100
AcDbEntity
  8
dessin 2D
100
AcDbVertex
100
AcDb2dVertex
 10
787.0833287078825
 20
818.3310823129791
 30
0.0
  0
VERTEX
  5
71
330
6F
100
AcDbEntity
  8
dessin 2D
100
AcDbVertex
100
AcDb2dVertex
 10
787.1202554759775
 20
818.2905358217777
 30
0.0
 42
-0.1157272171530423
  0
VERTEX
  5
72
330
6F
100
AcDbEntity
  8
dessin 2D
100
AcDbVertex
100
AcDb2dVertex
 10
787.2244307983652
 20
817.846103050083
 30
0.0
  0
VERTEX
  5
73
330
6F
100
AcDbEntity
  8
dessin 2D
100
AcDbVertex
100
AcDb2dVertex
 10
787.224385567003
 20
817.5711996326463
 30
0.0
  0
VERTEX
  5
74
330
6F
100
AcDbEntity
  8
dessin 2D
100
AcDbVertex
100
AcDb2dVertex
 10
787.2740242032654
 20
817.1005294727092
 30
0.0
 42
0.111500103809026
  0
VERTEX
  5
75
330
6F
100
AcDbEntity
  8
dessin 2D
100
AcDbVertex
100
AcDb2dVertex
 10
787.3801372133926
 20
816.7286947027683
 30
0.0
 42
0.3405894157896426
  0
VERTEX
  5
76
330
6F
100
AcDbEntity
  8
dessin 2D
100
AcDbVertex
100
AcDb2dVertex
 10
787.6076406646312
 20
816.6188076060143
 30
0.0
  0
VERTEX
  5
77
330
6F
100
AcDbEntity
  8
dessin 2D
100
AcDbVertex
100
AcDb2dVertex
 10
787.6099595868769
 20
816.6204302949211
 30
0.0
  0
VERTEX
  5
78
330
6F
100
AcDbEntity
  8
dessin 2D
100
AcDbVertex
100
AcDb2dVertex
 10
787.6122783754561
 20
816.6221488565488
 30
0.0
  0
VERTEX
  5
79
330
6F
100
AcDbEntity
  8
dessin 2D
100
AcDbVertex
100
AcDb2dVertex
 10
787.6145970307978
 20
816.6239627225395
 30
0.0
  0
VERTEX
  5
7A
330
6F
100
AcDbEntity
  8
dessin 2D
100
AcDbVertex
100
AcDb2dVertex
 10
787.6169155533311
 20
816.6258713245351
 30
0.0
  0
VERTEX
  5
7B
330
6F
100
AcDbEntity
  8
dessin 2D
100
AcDbVertex
100
AcDb2dVertex
 10
787.6192339434854
 20
816.6278740941775
 30
0.0
  0
VERTEX
  5
7C
330
6F
100
AcDbEntity
  8
dessin 2D
100
AcDbVertex
100
AcDb2dVertex
 10
787.6215522016897
 20
816.629970463109
 30
0.0
  0
VERTEX
  5
7D
330
6F
100
AcDbEntity
  8
dessin 2D
100
AcDbVertex
100
AcDb2dVertex
 10
787.6238703283734
 20
816.6321598629711
 30
0.0
  0
VERTEX
  5
7E
330
6F
100
AcDbEntity
  8
dessin 2D
100
AcDbVertex
100
AcDb2dVertex
 10
787.6261883239657
 20
816.6344417254062
 30
0.0
  0
VERTEX
  5
7F
330
6F
100
AcDbEntity
  8
dessin 2D
100
AcDbVertex
100
AcDb2dVertex
 10
787.6285061888957
 20
816.6368154820561
 30
0.0
  0
VERTEX
  5
80
330
6F
100
AcDbEntity
  8
dessin 2D
100
AcDbVertex
100
AcDb2dVertex
 10
787.6308239235924
 20
816.6392805645628
 30
0.0
  0
VERTEX
  5
81
330
6F
100
AcDbEntity
  8
dessin 2D
100
AcDbVertex
100
AcDb2dVertex
 10
787.6354590040032
 20
816.6444824337143
 30
0.0
  0
VERTEX
  5
82
330
6F
100
AcDbEntity
  8
dessin 2D
100
AcDbVertex
100
AcDb2dVertex
 10
787.6400935686318
 20
816.6500427859969
 30
0.0
  0
VERTEX
  5
83
330
6F
100
AcDbEntity
  8
dessin 2D
100
AcDbVertex
100
AcDb2dVertex
 10
787.6447276209115
 20
816.655957074546
 30
0.0
  0
VERTEX
  5
84
330
6F
100
AcDbEntity
  8
dessin 2D
100
AcDbVertex
100
AcDb2dVertex
 10
787.6493611642759
 20
816.6622207524977
 30
0.0
  0
VERTEX
  5
85
330
6F
100
AcDbEntity
  8
dessin 2D
100
AcDbVertex
100
AcDb2dVertex
 10
787.6539942021586
 20
816.6688292729875
 30
0.0
  0
VERTEX
  5
86
330
6F
100
AcDbEntity
  8
dessin 2D
100
AcDbVertex
100
AcDb2dVertex
 10
787.658626737993
 20
816.6757780891517
 30
0.0
  0
VERTEX
  5
87
330
6F
100
AcDbEntity
  8
dessin 2D
100
AcDbVertex
100
AcDb2dVertex
 10
787.6632587752125
 20
816.6830626541257
 30
0.0
  0
VERTEX
  5
88
330
6F
100
AcDbEntity
  8
dessin 2D
100
AcDbVertex
100
AcDb2dVertex
 10
787.6678903172508
 20
816.6906784210455
 30
0.0
  0
VERTEX
  5
89
330
6F
100
AcDbEntity
  8
dessin 2D
100
AcDbVertex
100
AcDb2dVertex
 10
787.6725213675414
 20
816.6986208430469
 30
0.0
  0
VERTEX
  5
8A
330
6F
100
AcDbEntity
  8
dessin 2D
100
AcDbVertex
100
AcDb2dVertex
 10
787.681782006613
 20
816.7154674648378
 30
0.0
  0
VERTEX
  5
8B
330
6F
100
AcDbEntity
  8
dessin 2D
100
AcDbVertex
100
AcDb2dVertex
 10
787.6910407198957
 20
816.7335661445848
 30
0.0
  0
VERTEX
  5
8C
330
6F
100
AcDbEntity
  8
dessin 2D
100
AcDbVertex
100
AcDb2dVertex
 10
787.7002975348573
 20
816.7528805073744
 30
0.0
  0
VERTEX
  5
8D
330
6F
100
AcDbEntity
  8
dessin 2D
100
AcDbVertex
100
AcDb2dVertex
 10
787.709552478966
 20
816.7733741782932
 30
0.0
  0
VERTEX
  5
8E
330
6F
100
AcDbEntity
  8
dessin 2D
100
AcDbVertex
100
AcDb2dVertex
 10
787.7188055796896
 20
816.7950107824277
 30
0.0
  0
VERTEX
  5
8F
330
6F
100
AcDbEntity
  8
dessin 2D
100
AcDbVertex
100
AcDb2dVertex
 10
787.7373063608538
 20
816.8415672906898
 30
0.0
  0
VERTEX
  5
90
330
6F
100
AcDbEntity
  8
dessin 2D
100
AcDbVertex
100
AcDb2dVertex
 10
787.7558000980944
 20
816.8922590328531
 30
0.0
  0
VERTEX
  5
91
330
6F
100
AcDbEntity
  8
dessin 2D
100
AcDbVertex
100
AcDb2dVertex
 10
787.7742870111554
 20
816.9467950096097
 30
0.0
  0
VERTEX
  5
92
330
6F
100
AcDbEntity
  8
dessin 2D
100
AcDbVertex
100
AcDb2dVertex
 10
787.7927673197808
 20
817.0048842216518
 30
0.0
  0
VERTEX
  5
93
330
6F
100
AcDbEntity
  8
dessin 2D
100
AcDbVertex
100
AcDb2dVertex
 10
787.8297090027022
 20
817.1305583543613
 30
0.0
  0
VERTEX
  5
94
330
6F
100
AcDbEntity
  8
dessin 2D
100
AcDbVertex
100
AcDb2dVertex
 10
787.9035227840642
 20
817.4117414736631
 30
0.0
  0
VERTEX
  5
95
330
6F
100
AcDbEntity
  8
dessin 2D
100
AcDbVertex
100
AcDb2dVertex
 10
788.0213360036273
 20
817.8461030460127
 30
0.0
  0
VERTEX
  5
96
330
6F
100
AcDbEntity
  8
dessin 2D
100
AcDbVertex
100
AcDb2dVertex
 10
788.0287802250575
 20
817.8644249503385
 30
0.0
  0
VERTEX
  5
97
330
6F
100
AcDbEntity
  8
dessin 2D
100
AcDbVertex
100
AcDb2dVertex
 10
788.0325027534237
 20
817.8729013391448
 30
0.0
  0
VERTEX
  5
98
330
6F
100
AcDbEntity
  8
dessin 2D
100
AcDbVertex
100
AcDb2dVertex
 10
788.0362255448204
 20
817.8809000620912
 30
0.0
  0
VERTEX
  5
99
330
6F
100
AcDbEntity
  8
dessin 2D
100
AcDbVertex
100
AcDb2dVertex
 10
788.0399485876947
 20
817.8884051514613
 30
0.0
  0
VERTEX
  5
9A
330
6F
100
AcDbEntity
  8
dessin 2D
100
AcDbVertex
100
AcDb2dVertex
 10
788.0436718704937
 20
817.8954006395383
 30
0.0
  0
VERTEX
  5
9B
330
6F
100
AcDbEntity
  8
dessin 2D
100
AcDbVertex
100
AcDb2dVertex
 10
788.0455335982548
 20
817.8987022931806
 30
0.0
  0
VERTEX
  5
9C
330
6F
100
AcDbEntity
  8
dessin 2D
100
AcDbVertex
100
AcDb2dVertex
 10
788.047395381665
 20
817.9018705586059
 30
0.0
  0
VERTEX
  5
9D
330
6F
100
AcDbEntity
  8
dessin 2D
100
AcDbVertex
100
AcDb2dVertex
 10
788.0492572192799
 20
817.9049034398496
 30
0.0
  0
VERTEX
  5
9E
330
6F
100
AcDbEntity
  8
dessin 2D
100
AcDbVertex
100
AcDb2dVertex
 10
788.0511191096556
 20
817.9077989409473
 30
0.0
  0
VERTEX
  5
9F
330
6F
100
AcDbEntity
  8
dessin 2D
100
AcDbVertex
100
AcDb2dVertex
 10
788.052981051348
 20
817.9105550659343
 30
0.0
  0
VERTEX
  5
A0
330
6F
100
AcDbEntity
  8
dessin 2D
100
AcDbVertex
100
AcDb2dVertex
 10
788.0548430429129
 20
817.9131698188462
 30
0.0
  0
VERTEX
  5
A1
330
6F
100
AcDbEntity
  8
dessin 2D
100
AcDbVertex
100
AcDb2dVertex
 10
788.0567050829063
 20
817.9156412037182
 30
0.0
  0
VERTEX
  5
A2
330
6F
100
AcDbEntity
  8
dessin 2D
100
AcDbVertex
100
AcDb2dVertex
 10
788.0585671698841
 20
817.9179672245857
 30
0.0
  0
VERTEX
  5
A3
330
6F
100
AcDbEntity
  8
dessin 2D
100
AcDbVertex
100
AcDb2dVertex
 10
788.0604293024021
 20
817.9201458854845
 30
0.0
  0
VERTEX
  5
A4
330
6F
100
AcDbEntity
  8
dessin 2D
100
AcDbVertex
100
AcDb2dVertex
 10
788.0613603852875
 20
817.9211793322066
 30
0.0
  0
VERTEX
  5
A5
330
6F
100
AcDbEntity
  8
dessin 2D
100
AcDbVertex
100
AcDb2dVertex
 10
788.0622914790164
 20
817.9221751904497
 30
0.0
  0
VERTEX
  5
A6
330
6F
100
AcDbEntity
  8
dessin 2D
100
AcDbVertex
100
AcDb2dVertex
 10
788.0632225834083
 20
817.9231332107183
 30
0.0
  0
VERTEX
  5
A7
330
6F
100
AcDbEntity
  8
dessin 2D
100
AcDbVertex
100
AcDb2dVertex
 10
788.0641536982828
 20
817.9240531435169
 30
0.0
  0
VERTEX
  5
A8
330
6F
100
AcDbEntity
  8
dessin 2D
100
AcDbVertex
100
AcDb2dVertex
 10
788.0650848234591
 20
817.9249347393497
 30
0.0
  0
VERTEX
  5
A9
330
6F
100
AcDbEntity
  8
dessin 2D
100
AcDbVertex
100
AcDb2dVertex
 10
788.0660159587571
 20
817.9257777487213
 30
0.0
  0
VERTEX
  5
AA
330
6F
100
AcDbEntity
  8
dessin 2D
100
AcDbVertex
100
AcDb2dVertex
 10
788.0669471039961
 20
817.926581922136
 30
0.0
  0
VERTEX
  5
AB
330
6F
100
AcDbEntity
  8
dessin 2D
100
AcDbVertex
100
AcDb2dVertex
 10
788.0678782589954
 20
817.9273470100986
 30
0.0
  0
VERTEX
  5
AC
330
6F
100
AcDbEntity
  8
dessin 2D
100
AcDbVertex
100
AcDb2dVertex
 10
788.0688094235747
 20
817.928072763113
 30
0.0
  0
VERTEX
  5
AD
330
6F
100
AcDbEntity
  8
dessin 2D
100
AcDbVertex
100
AcDb2dVertex
 10
788.0697405975536
 20
817.9287589316841
 30
0.0
  0
VERTEX
  5
AE
330
6F
100
AcDbEntity
  8
dessin 2D
100
AcDbVertex
100
AcDb2dVertex
 10
788.0706717807512
 20
817.929405266316
 30
0.0
  0
VERTEX
  5
AF
330
6F
100
AcDbEntity
  8
dessin 2D
100
AcDbVertex
100
AcDb2dVertex
 10
788.0716029729874
 20
817.9300115175132
 30
0.0
  0
VERTEX
  5
B0
330
6F
100
AcDbEntity
  8
dessin 2D
100
AcDbVertex
100
AcDb2dVertex
 10
788.0725341740814
 20
817.9305774357802
 30
0.0
  0
VERTEX
  5
B1
330
6F
100
AcDbEntity
  8
dessin 2D
100
AcDbVertex
100
AcDb2dVertex
 10
788.0734653838529
 20
817.9311027716215
 30
0.0
  0
VERTEX
  5
B2
330
6F
100
AcDbEntity
  8
dessin 2D
100
AcDbVertex
100
AcDb2dVertex
 10
788.0743966021212
 20
817.9315872755412
 30
0.0
  0
VERTEX
  5
B3
330
6F
100
AcDbEntity
  8
dessin 2D
100
AcDbVertex
100
AcDb2dVertex
 10
788.0748622143853
 20
817.9318141375633
 30
0.0
  0
VERTEX
  5
B4
330
6F
100
AcDbEntity
  8
dessin 2D
100
AcDbVertex
100
AcDb2dVertex
 10
788.0753278287059
 20
817.9320306980442
 30
0.0
  0
VERTEX
  5
B5
330
6F
100
AcDbEntity
  8
dessin 2D
100
AcDbVertex
100
AcDb2dVertex
 10
788.0757934450604
 20
817.932236925797
 30
0.0
  0
VERTEX
  5
B6
330
6F
100
AcDbEntity
  8
dessin 2D
100
AcDbVertex
100
AcDb2dVertex
 10
788.0762590634264
 20
817.9324327896346
 30
0.0
  0
VERTEX
  5
B7
330
6F
100
AcDbEntity
  8
dessin 2D
100
AcDbVertex
100
AcDb2dVertex
 10
788.0767246837811
 20
817.9326182583702
 30
0.0
  0
VERTEX
  5
B8
330
6F
100
AcDbEntity
  8
dessin 2D
100
AcDbVertex
100
AcDb2dVertex
 10
788.0771903061022
 20
817.9327933008169
 30
0.0
  0
VERTEX
  5
B9
330
6F
100
AcDbEntity
  8
dessin 2D
100
AcDbVertex
100
AcDb2dVertex
 10
788.077655930367
 20
817.9329578857876
 30
0.0
  0
VERTEX
  5
BA
330
6F
100
AcDbEntity
  8
dessin 2D
100
AcDbVertex
100
AcDb2dVertex
 10
788.078121556553
 20
817.9331119820954
 30
0.0
  0
VERTEX
  5
BB
330
6F
100
AcDbEntity
  8
dessin 2D
100
AcDbVertex
100
AcDb2dVertex
 10
788.0785871846375
 20
817.9332555585536
 30
0.0
  0
VERTEX
  5
BC
330
6F
100
AcDbEntity
  8
dessin 2D
100
AcDbVertex
100
AcDb2dVertex
 10
788.0790528145981
 20
817.9333885839749
 30
0.0
  0
VERTEX
  5
BD
330
6F
100
AcDbEntity
  8
dessin 2D
100
AcDbVertex
100
AcDb2dVertex
 10
788.0795184464121
 20
817.9335110271725
 30
0.0
  0
VERTEX
  5
BE
330
6F
100
AcDbEntity
  8
dessin 2D
100
AcDbVertex
100
AcDb2dVertex
 10
788.0799840800569
 20
817.9336228569595
 30
0.0
  0
VERTEX
  5
BF
330
6F
100
AcDbEntity
  8
dessin 2D
100
AcDbVertex
100
AcDb2dVertex
 10
788.08044971551
 20
817.9337240421488
 30
0.0
  0
VERTEX
  5
C0
330
6F
100
AcDbEntity
  8
dessin 2D
100
AcDbVertex
100
AcDb2dVertex
 10
788.080915352749
 20
817.9338145515536
 30
0.0
  0
VERTEX
  5
C1
330
6F
100
AcDbEntity
  8
dessin 2D
100
AcDbVertex
100
AcDb2dVertex
 10
788.0813809917511
 20
817.933894353987
 30
0.0
  0
VERTEX
  5
C2
330
6F
100
AcDbEntity
  8
dessin 2D
100
AcDbVertex
100
AcDb2dVertex
 10
788.0818466324938
 20
817.9339634182619
 30
0.0
  0
VERTEX
  5
C3
330
6F
100
AcDbEntity
  8
dessin 2D
100
AcDbVertex
100
AcDb2dVertex
 10
788.0823122749548
 20
817.9340217131914
 30
0.0
  0
VERTEX
  5
C4
330
6F
100
AcDbEntity
  8
dessin 2D
100
AcDbVertex
100
AcDb2dVertex
 10
788.0827779191111
 20
817.9340692075887
 30
0.0
  0
VERTEX
  5
C5
330
6F
100
AcDbEntity
  8
dessin 2D
100
AcDbVertex
100
AcDb2dVertex
 10
788.0832435649404
 20
817.9341058702666
 30
0.0
  0
VERTEX
  5
C6
330
6F
100
AcDbEntity
  8
dessin 2D
100
AcDbVertex
100
AcDb2dVertex
 10
788.0837092124201
 20
817.9341316700383
 30
0.0
  0
VERTEX
  5
C7
330
6F
100
AcDbEntity
  8
dessin 2D
100
AcDbVertex
100
AcDb2dVertex
 10
788.0841748615276
 20
817.9341465757168
 30
0.0
  0
VERTEX
  5
C8
330
6F
100
AcDbEntity
  8
dessin 2D
100
AcDbVertex
100
AcDb2dVertex
 10
788.0846405122404
 20
817.9341505561154
 30
0.0
  0
VERTEX
  5
C9
330
6F
100
AcDbEntity
  8
dessin 2D
100
AcDbVertex
100
AcDb2dVertex
 10
788.0851061645359
 20
817.9341435800467
 30
0.0
  0
VERTEX
  5
CA
330
6F
100
AcDbEntity
  8
dessin 2D
100
AcDbVertex
100
AcDb2dVertex
 10
788.0855718183914
 20
817.9341256163241
 30
0.0
  0
VERTEX
  5
CB
330
6F
100
AcDbEntity
  8
dessin 2D
100
AcDbVertex
100
AcDb2dVertex
 10
788.0860374737845
 20
817.9340966337605
 30
0.0
  0
VERTEX
  5
CC
330
6F
100
AcDbEntity
  8
dessin 2D
100
AcDbVertex
100
AcDb2dVertex
 10
788.0865031306926
 20
817.9340566011691
 30
0.0
  0
VERTEX
  5
CD
330
6F
100
AcDbEntity
  8
dessin 2D
100
AcDbVertex
100
AcDb2dVertex
 10
788.0869687890931
 20
817.9340054873628
 30
0.0
  0
VERTEX
  5
CE
330
6F
100
AcDbEntity
  8
dessin 2D
100
AcDbVertex
100
AcDb2dVertex
 10
788.0874344489636
 20
817.9339432611548
 30
0.0
  0
VERTEX
  5
CF
330
6F
100
AcDbEntity
  8
dessin 2D
100
AcDbVertex
100
AcDb2dVertex
 10
788.0879001102812
 20
817.933869891358
 30
0.0
  0
VERTEX
  5
D0
330
6F
100
AcDbEntity
  8
dessin 2D
100
AcDbVertex
100
AcDb2dVertex
 10
788.0883657730237
 20
817.9337853467855
 30
0.0
  0
VERTEX
  5
D1
330
6F
100
AcDbEntity
  8
dessin 2D
100
AcDbVertex
100
AcDb2dVertex
 10
788.0888314371683
 20
817.9336895962504
 30
0.0
  0
VERTEX
  5
D2
330
6F
100
AcDbEntity
  8
dessin 2D
100
AcDbVertex
100
AcDb2dVertex
 10
788.0892971026926
 20
817.9335826085656
 30
0.0
  0
VERTEX
  5
D3
330
6F
100
AcDbEntity
  8
dessin 2D
100
AcDbVertex
100
AcDb2dVertex
 10
788.0897627695738
 20
817.9334643525444
 30
0.0
  0
VERTEX
  5
D4
330
6F
100
AcDbEntity
  8
dessin 2D
100
AcDbVertex
100
AcDb2dVertex
 10
788.0902284377896
 20
817.9333347969998
 30
0.0
  0
VERTEX
  5
D5
330
6F
100
AcDbEntity
  8
dessin 2D
100
AcDbVertex
100
AcDb2dVertex
 10
788.0906941073174
 20
817.9331939107446
 30
0.0
  0
VERTEX
  5
D6
330
6F
100
AcDbEntity
  8
dessin 2D
100
AcDbVertex
100
AcDb2dVertex
 10
788.0911597781344
 20
817.9330416625922
 30
0.0
  0
VERTEX
  5
D7
330
6F
100
AcDbEntity
  8
dessin 2D
100
AcDbVertex
100
AcDb2dVertex
 10
788.0916254502182
 20
817.9328780213554
 30
0.0
  0
VERTEX
  5
D8
330
6F
100
AcDbEntity
  8
dessin 2D
100
AcDbVertex
100
AcDb2dVertex
 10
788.0920911235462
 20
817.9327029558474
 30
0.0
  0
VERTEX
  5
D9
330
6F
100
AcDbEntity
  8
dessin 2D
100
AcDbVertex
100
AcDb2dVertex
 10
788.092556798096
 20
817.9325164348811
 30
0.0
  0
VERTEX
  5
DA
330
6F
100
AcDbEntity
  8
dessin 2D
100
AcDbVertex
100
AcDb2dVertex
 10
788.0930224738447
 20
817.9323184272697
 30
0.0
  0
VERTEX
  5
DB
330
6F
100
AcDbEntity
  8
dessin 2D
100
AcDbVertex
100
AcDb2dVertex
 10
788.0934881507701
 20
817.9321089018262
 30
0.0
  0
VERTEX
  5
DC
330
6F
100
AcDbEntity
  8
dessin 2D
100
AcDbVertex
100
AcDb2dVertex
 10
788.0939538288494
 20
817.9318878273637
 30
0.0
  0
VERTEX
  5
DD
330
6F
100
AcDbEntity
  8
dessin 2D
100
AcDbVertex
100
AcDb2dVertex
 10
788.0944195080601
 20
817.9316551726952
 30
0.0
  0
VERTEX
  5
DE
330
6F
100
AcDbEntity
  8
dessin 2D
100
AcDbVertex
100
AcDb2dVertex
 10
788.0948851883797
 20
817.9314109066338
 30
0.0
  0
VERTEX
  5
DF
330
6F
100
AcDbEntity
  8
dessin 2D
100
AcDbVertex
100
AcDb2dVertex
 10
788.0953508697855
 20
817.9311549979925
 30
0.0
  0
VERTEX
  5
E0
330
6F
100
AcDbEntity
  8
dessin 2D
100
AcDbVertex
100
AcDb2dVertex
 10
788.0958165522551
 20
817.9308874155844
 30
0.0
  0
VERTEX
  5
E1
330
6F
100
AcDbEntity
  8
dessin 2D
100
AcDbVertex
100
AcDb2dVertex
 10
788.0962822357658
 20
817.9306081282225
 30
0.0
  0
VERTEX
  5
E2
330
6F
100
AcDbEntity
  8
dessin 2D
100
AcDbVertex
100
AcDb2dVertex
 10
788.096747920295
 20
817.9303171047197
 30
0.0
  0
VERTEX
  5
E3
330
6F
100
AcDbEntity
  8
dessin 2D
100
AcDbVertex
100
AcDb2dVertex
 10
788.0972136058203
 20
817.9300143138895
 30
0.0
  0
VERTEX
  5
E4
330
6F
100
AcDbEntity
  8
dessin 2D
100
AcDbVertex
100
AcDb2dVertex
 10
788.0976792923192
 20
817.9296997245447
 30
0.0
  0
VERTEX
  5
E5
330
6F
100
AcDbEntity
  8
dessin 2D
100
AcDbVertex
100
AcDb2dVertex
 10
788.0986106681469
 20
817.9290350255633
 30
0.0
  0
VERTEX
  5
E6
330
6F
100
AcDbEntity
  8
dessin 2D
100
AcDbVertex
100
AcDb2dVertex
 10
788.0995420475977
 20
817.9283227582802
 30
0.0
  0
VERTEX
  5
E7
330
6F
100
AcDbEntity
  8
dessin 2D
100
AcDbVertex
100
AcDb2dVertex
 10
788.1004734304909
 20
817.9275626731996
 30
0.0
  0
VERTEX
  5
E8
330
6F
100
AcDbEntity
  8
dessin 2D
100
AcDbVertex
100
AcDb2dVertex
 10
788.1014048166462
 20
817.9267545208261
 30
0.0
  0
VERTEX
  5
E9
330
6F
100
AcDbEntity
  8
dessin 2D
100
AcDbVertex
100
AcDb2dVertex
 10
788.1023362058831
 20
817.925898051664
 30
0.0
  0
VERTEX
  5
EA
330
6F
100
AcDbEntity
  8
dessin 2D
100
AcDbVertex
100
AcDb2dVertex
 10
788.1032675980211
 20
817.9249930162181
 30
0.0
  0
VERTEX
  5
EB
330
6F
100
AcDbEntity
  8
dessin 2D
100
AcDbVertex
100
AcDb2dVertex
 10
788.1041989928796
 20
817.9240391649923
 30
0.0
  0
VERTEX
  5
EC
330
6F
100
AcDbEntity
  8
dessin 2D
100
AcDbVertex
100
AcDb2dVertex
 10
788.105130390278
 20
817.9230362484914
 30
0.0
  0
VERTEX
  5
ED
330
6F
100
AcDbEntity
  8
dessin 2D
100
AcDbVertex
100
AcDb2dVertex
 10
788.1060617900358
 20
817.9219840172196
 30
0.0
  0
VERTEX
  5
EE
330
6F
100
AcDbEntity
  8
dessin 2D
100
AcDbVertex
100
AcDb2dVertex
 10
788.1069931919727
 20
817.9208822216816
 30
0.0
  0
VERTEX
  5
EF
330
6F
100
AcDbEntity
  8
dessin 2D
100
AcDbVertex
100
AcDb2dVertex
 10
788.107924595908
 20
817.9197306123815
 30
0.0
  0
VERTEX
  5
F0
330
6F
100
AcDbEntity
  8
dessin 2D
100
AcDbVertex
100
AcDb2dVertex
 10
788.1088560016613
 20
817.918528939824
 30
0.0
  0
VERTEX
  5
F1
330
6F
100
AcDbEntity
  8
dessin 2D
100
AcDbVertex
100
AcDb2dVertex
 10
788.1097874090519
 20
817.9172769545135
 30
0.0
  0
VERTEX
  5
F2
330
6F
100
AcDbEntity
  8
dessin 2D
100
AcDbVertex
100
AcDb2dVertex
 10
788.1107188178996
 20
817.9159744069541
 30
0.0
  0
VERTEX
  5
F3
330
6F
100
AcDbEntity
  8
dessin 2D
100
AcDbVertex
100
AcDb2dVertex
 10
788.1125816392437
 20
817.9132166271074
 30
0.0
  0
VERTEX
  5
F4
330
6F
100
AcDbEntity
  8
dessin 2D
100
AcDbVertex
100
AcDb2dVertex
 10
788.1144444642491
 20
817.9102536043191
 30
0.0
  0
VERTEX
  5
F5
330
6F
100
AcDbEntity
  8
dessin 2D
100
AcDbVertex
100
AcDb2dVertex
 10
788.1163072914723
 20
817.9070833426247
 30
0.0
  0
VERTEX
  5
F6
330
6F
100
AcDbEntity
  8
dessin 2D
100
AcDbVertex
100
AcDb2dVertex
 10
788.1181701194687
 20
817.9037038460599
 30
0.0
  0
VERTEX
  5
F7
330
6F
100
AcDbEntity
  8
dessin 2D
100
AcDbVertex
100
AcDb2dVertex
 10
788.1200329467945
 20
817.9001131186599
 30
0.0
  0
VERTEX
  5
F8
330
6F
100
AcDbEntity
  8
dessin 2D
100
AcDbVertex
100
AcDb2dVertex
 10
788.1218957720052
 20
817.8963091644601
 30
0.0
  0
VERTEX
  5
F9
330
6F
100
AcDbEntity
  8
dessin 2D
100
AcDbVertex
100
AcDb2dVertex
 10
788.1237585936574
 20
817.892289987496
 30
0.0
  0
VERTEX
  5
FA
330
6F
100
AcDbEntity
  8
dessin 2D
100
AcDbVertex
100
AcDb2dVertex
 10
788.1256214103064
 20
817.8880535918031
 30
0.0
  0
VERTEX
  5
FB
330
6F
100
AcDbEntity
  8
dessin 2D
100
AcDbVertex
100
AcDb2dVertex
 10
788.1293470228192
 20
817.8789211603722
 30
0.0
  0
VERTEX
  5
FC
330
6F
100
AcDbEntity
  8
dessin 2D
100
AcDbVertex
100
AcDb2dVertex
 10
788.1330725979908
 20
817.868895902451
 30
0.0
  0
VERTEX
  5
FD
330
6F
100
AcDbEntity
  8
dessin 2D
100
AcDbVertex
100
AcDb2dVertex
 10
788.1367981242685
 20
817.8579618503229
 30
0.0
  0
VERTEX
  5
FE
330
6F
100
AcDbEntity
  8
dessin 2D
100
AcDbVertex
100
AcDb2dVertex
 10
788.1405235900995
 20
817.8461030362714
 30
0.0
  0
VERTEX
  5
FF
330
6F
100
AcDbEntity
  8
dessin 2D
100
AcDbVertex
100
AcDb2dVertex
 10
788.1450288256864
 20
817.830503548072
 30
0.0
  0
VERTEX
  5
100
330
6F
100
AcDbEntity
  8
dessin 2D
100
AcDbVertex
100
AcDb2dVertex
 10
788.1495339355331
 20
817.8135000120354
 30
0.0
  0
VERTEX
  5
101
330
6F
100
AcDbEntity
  8
dessin 2D
100
AcDbVertex
100
AcDb2dVertex
 10
788.1585436962389
 20
817.7751678319307
 30
0.0
  0
VERTEX
  5
102
330
6F
100
AcDbEntity
  8
dessin 2D
100
AcDbVertex
100
AcDb2dVertex
 10
788.1664948884255
 20
817.7378413012052
 30
0.0
  0
VERTEX
  5
103
330
6F
100
AcDbEntity
  8
dessin 2D
100
AcDbVertex
100
AcDb2dVertex
 10
788.1744447438195
 20
817.6953769641648
 30
0.0
  0
VERTEX
  5
104
330
6F
100
AcDbEntity
  8
dessin 2D
100
AcDbVertex
100
AcDb2dVertex
 10
788.1823899147734
 20
817.6474114508994
 30
0.0
  0
VERTEX
  5
105
330
6F
100
AcDbEntity
  8
dessin 2D
100
AcDbVertex
100
AcDb2dVertex
 10
788.1903270536397
 20
817.5935813914988
 30
0.0
  0
VERTEX
  5
106
330
6F
100
AcDbEntity
  8
dessin 2D
100
AcDbVertex
100
AcDb2dVertex
 10
788.2061638445203
 20
817.4668741546517
 30
0.0
  0
VERTEX
  5
107
330
6F
100
AcDbEntity
  8
dessin 2D
100
AcDbVertex
100
AcDb2dVertex
 10
788.2219283352822
 20
817.3123482943427
 30
0.0
  0
VERTEX
  5
108
330
6F
100
AcDbEntity
  8
dessin 2D
100
AcDbVertex
100
AcDb2dVertex
 10
788.2531332917331
 20
816.9082128662143
 30
0.0
  0
VERTEX
  5
109
330
6F
100
AcDbEntity
  8
dessin 2D
100
AcDbVertex
100
AcDb2dVertex
 10
788.2837276735589
 20
816.3579194328655
 30
0.0
  0
VERTEX
  5
10A
330
6F
100
AcDbEntity
  8
dessin 2D
100
AcDbVertex
100
AcDb2dVertex
 10
788.3219350794299
 20
815.4081982890696
 30
0.0
 42
-0.004024337260853
  0
VERTEX
  5
10B
330
6F
100
AcDbEntity
  8
dessin 2D
100
AcDbVertex
100
AcDb2dVertex
 10
788.3960653369018
 20
812.3624865020482
 30
0.0
 42
-0.0035915677726708
  0
VERTEX
  5
10C
330
6F
100
AcDbEntity
  8
dessin 2D
100
AcDbVertex
100
AcDb2dVertex
 10
788.4989333050258
 20
796.842081055792
 30
0.0
 42
-0.4118641732622645
  0
VERTEX
  5
10D
330
6F
100
AcDbEntity
  8
dessin 2D
100
AcDbVertex
100
AcDb2dVertex
 10
787.499088884563
 20
795.8461030500831
 30
0.0
  0
VERTEX
  5
10E
330
6F
100
AcDbEntity
  8
dessin 2D
100
AcDbVertex
100
AcDb2dVertex
 10
782.6264140296344
 20
795.8461030500831
 30
0.0
  0
VERTEX
  5
10F
330
6F
100
AcDbEntity
  8
dessin 2D
100
AcDbVertex
100
AcDb2dVertex
 10
782.6264139673701
 20
796.817537732456
 30
0.0
 42
0.0126199445245493
  0
VERTEX
  5
110
330
6F
100
AcDbEntity
  8
dessin 2D
100
AcDbVertex
100
AcDb2dVertex
 10
783.3026825001341
 20
803.7783022580354
 30
0.0
 42
0.0044069515041963
  0
VERTEX
  5
111
330
6F
100
AcDbEntity
  8
dessin 2D
100
AcDbVertex
100
AcDb2dVertex
 10
783.7381519784318
 20
811.3614711826274
 30
0.0
  0
VERTEX
  5
112
330
6F
100
AcDbEntity
  8
dessin 2D
100
AcDbVertex
100
AcDb2dVertex
 10
783.7876073922506
 20
812.1654176516671
 30
0.0
  0
VERTEX
  5
113
330
6F
100
AcDbEntity
  8
dessin 2D
100
AcDbVertex
100
AcDb2dVertex
 10
783.82664353153
 20
812.6631385155455
 30
0.0
  0
VERTEX
  5
114
330
6F
100
AcDbEntity
  8
dessin 2D
100
AcDbVertex
100
AcDb2dVertex
 10
783.8473284506124
 20
812.8740224499631
 30
0.0
  0
VERTEX
  5
115
330
6F
100
AcDbEntity
  8
dessin 2D
100
AcDbVertex
100
AcDb2dVertex
 10
783.8692795171708
 20
813.0621506209316
 30
0.0
  0
VERTEX
  5
116
330
6F
100
AcDbEntity
  8
dessin 2D
100
AcDbVertex
100
AcDb2dVertex
 10
783.8928629170903
 20
813.2294444546242
 30
0.0
  0
VERTEX
  5
117
330
6F
100
AcDbEntity
  8
dessin 2D
100
AcDbVertex
100
AcDb2dVertex
 10
783.9184448362569
 20
813.3778253772151
 30
0.0
  0
VERTEX
  5
118
330
6F
100
AcDbEntity
  8
dessin 2D
100
AcDbVertex
100
AcDb2dVertex
 10
783.9320996736469
 20
813.4455239425266
 30
0.0
  0
VERTEX
  5
119
330
6F
100
AcDbEntity
  8
dessin 2D
100
AcDbVertex
100
AcDb2dVertex
 10
783.9463914605557
 20
813.5092148148777
 30
0.0
  0
VERTEX
  5
11A
330
6F
100
AcDbEntity
  8
dessin 2D
100
AcDbVertex
100
AcDb2dVertex
 10
783.961365970219
 20
813.5691381725403
 30
0.0
  0
VERTEX
  5
11B
330
6F
100
AcDbEntity
  8
dessin 2D
100
AcDbVertex
100
AcDb2dVertex
 10
783.9770689758725
 20
813.6255341937859
 30
0.0
  0
VERTEX
  5
11C
330
6F
100
AcDbEntity
  8
dessin 2D
100
AcDbVertex
100
AcDb2dVertex
 10
783.9918367916357
 20
813.6763443681411
 30
0.0
  0
VERTEX
  5
11D
330
6F
100
AcDbEntity
  8
dessin 2D
100
AcDbVertex
100
AcDb2dVertex
 10
784.0074495223541
 20
813.7243322011172
 30
0.0
  0
VERTEX
  5
11E
330
6F
100
AcDbEntity
  8
dessin 2D
100
AcDbVertex
100
AcDb2dVertex
 10
784.0238829526367
 20
813.7695900291442
 30
0.0
  0
VERTEX
  5
11F
330
6F
100
AcDbEntity
  8
dessin 2D
100
AcDbVertex
100
AcDb2dVertex
 10
784.0323998628044
 20
813.7912240464359
 30
0.0
  0
VERTEX
  5
120
330
6F
100
AcDbEntity
  8
dessin 2D
100
AcDbVertex
100
AcDb2dVertex
 10
784.0411128670913
 20
813.8122101886514
 30
0.0
  0
VERTEX
  5
121
330
6F
100
AcDbEntity
  8
dessin 2D
100
AcDbVertex
100
AcDb2dVertex
 10
784.0500189385734
 20
813.8325599978446
 30
0.0
  0
VERTEX
  5
122
330
6F
100
AcDbEntity
  8
dessin 2D
100
AcDbVertex
100
AcDb2dVertex
 10
784.0591150503269
 20
813.8522850160689
 30
0.0
  0
VERTEX
  5
123
330
6F
100
AcDbEntity
  8
dessin 2D
100
AcDbVertex
100
AcDb2dVertex
 10
784.0683981754277
 20
813.8713967853782
 30
0.0
  0
VERTEX
  5
124
330
6F
100
AcDbEntity
  8
dessin 2D
100
AcDbVertex
100
AcDb2dVertex
 10
784.0778652869519
 20
813.8899068478265
 30
0.0
  0
VERTEX
  5
125
330
6F
100
AcDbEntity
  8
dessin 2D
100
AcDbVertex
100
AcDb2dVertex
 10
784.0875133579757
 20
813.9078267454672
 30
0.0
  0
VERTEX
  5
126
330
6F
100
AcDbEntity
  8
dessin 2D
100
AcDbVertex
100
AcDb2dVertex
 10
784.097339361575
 20
813.9251680203539
 30
0.0
  0
VERTEX
  5
127
330
6F
100
AcDbEntity
  8
dessin 2D
100
AcDbVertex
100
AcDb2dVertex
 10
784.107340270826
 20
813.9419422145406
 30
0.0
  0
VERTEX
  5
128
330
6F
100
AcDbEntity
  8
dessin 2D
100
AcDbVertex
100
AcDb2dVertex
 10
784.1175130588044
 20
813.9581608700809
 30
0.0
  0
VERTEX
  5
129
330
6F
100
AcDbEntity
  8
dessin 2D
100
AcDbVertex
100
AcDb2dVertex
 10
784.1278546985867
 20
813.9738355290285
 30
0.0
  0
VERTEX
  5
12A
330
6F
100
AcDbEntity
  8
dessin 2D
100
AcDbVertex
100
AcDb2dVertex
 10
784.1383621632489
 20
813.9889777334372
 30
0.0
  0
VERTEX
  5
12B
330
6F
100
AcDbEntity
  8
dessin 2D
100
AcDbVertex
100
AcDb2dVertex
 10
784.1490324258668
 20
814.0035990253607
 30
0.0
  0
VERTEX
  5
12C
330
6F
100
AcDbEntity
  8
dessin 2D
100
AcDbVertex
100
AcDb2dVertex
 10
784.1598624595167
 20
814.0177109468527
 30
0.0
  0
VERTEX
  5
12D
330
6F
100
AcDbEntity
  8
dessin 2D
100
AcDbVertex
100
AcDb2dVertex
 10
784.1708492372746
 20
814.031325039967
 30
0.0
  0
VERTEX
  5
12E
330
6F
100
AcDbEntity
  8
dessin 2D
100
AcDbVertex
100
AcDb2dVertex
 10
784.1819897322166
 20
814.0444528467572
 30
0.0
  0
VERTEX
  5
12F
330
6F
100
AcDbEntity
  8
dessin 2D
100
AcDbVertex
100
AcDb2dVertex
 10
784.1932809174186
 20
814.0571059092771
 30
0.0
  0
VERTEX
  5
130
330
6F
100
AcDbEntity
  8
dessin 2D
100
AcDbVertex
100
AcDb2dVertex
 10
784.204719765957
 20
814.0692957695803
 30
0.0
  0
VERTEX
  5
131
330
6F
100
AcDbEntity
  8
dessin 2D
100
AcDbVertex
100
AcDb2dVertex
 10
784.2163032509075
 20
814.0810339697208
 30
0.0
  0
VERTEX
  5
132
330
6F
100
AcDbEntity
  8
dessin 2D
100
AcDbVertex
100
AcDb2dVertex
 10
784.2280283453463
 20
814.0923320517521
 30
0.0
  0
VERTEX
  5
133
330
6F
100
AcDbEntity
  8
dessin 2D
100
AcDbVertex
100
AcDb2dVertex
 10
784.2398920223495
 20
814.103201557728
 30
0.0
  0
VERTEX
  5
134
330
6F
100
AcDbEntity
  8
dessin 2D
100
AcDbVertex
100
AcDb2dVertex
 10
784.2518912549933
 20
814.113654029702
 30
0.0
  0
VERTEX
  5
135
330
6F
100
AcDbEntity
  8
dessin 2D
100
AcDbVertex
100
AcDb2dVertex
 10
784.2640230163536
 20
814.1237010097282
 30
0.0
  0
VERTEX
  5
136
330
6F
100
AcDbEntity
  8
dessin 2D
100
AcDbVertex
100
AcDb2dVertex
 10
784.2762842795063
 20
814.13335403986
 30
0.0
  0
VERTEX
  5
137
330
6F
100
AcDbEntity
  8
dessin 2D
100
AcDbVertex
100
AcDb2dVertex
 10
784.2886720175277
 20
814.1426246621513
 30
0.0
  0
VERTEX
  5
138
330
6F
100
AcDbEntity
  8
dessin 2D
100
AcDbVertex
100
AcDb2dVertex
 10
784.3011832034938
 20
814.1515244186559
 30
0.0
  0
VERTEX
  5
139
330
6F
100
AcDbEntity
  8
dessin 2D
100
AcDbVertex
100
AcDb2dVertex
 10
784.3138148104807
 20
814.1600648514273
 30
0.0
  0
VERTEX
  5
13A
330
6F
100
AcDbEntity
  8
dessin 2D
100
AcDbVertex
100
AcDb2dVertex
 10
784.3265638115645
 20
814.1682575025193
 30
0.0
  0
VERTEX
  5
13B
330
6F
100
AcDbEntity
  8
dessin 2D
100
AcDbVertex
100
AcDb2dVertex
 10
784.3394271798211
 20
814.1761139139858
 30
0.0
  0
VERTEX
  5
13C
330
6F
100
AcDbEntity
  8
dessin 2D
100
AcDbVertex
100
AcDb2dVertex
 10
784.3524018883265
 20
814.1836456278802
 30
0.0
  0
VERTEX
  5
13D
330
6F
100
AcDbEntity
  8
dessin 2D
100
AcDbVertex
100
AcDb2dVertex
 10
784.365484910157
 20
814.1908641862564
 30
0.0
  0
VERTEX
  5
13E
330
6F
100
AcDbEntity
  8
dessin 2D
100
AcDbVertex
100
AcDb2dVertex
 10
784.3786732183887
 20
814.1977811311681
 30
0.0
  0
VERTEX
  5
13F
330
6F
100
AcDbEntity
  8
dessin 2D
100
AcDbVertex
100
AcDb2dVertex
 10
784.3919637860974
 20
814.2044080046691
 30
0.0
  0
VERTEX
  5
140
330
6F
100
AcDbEntity
  8
dessin 2D
100
AcDbVertex
100
AcDb2dVertex
 10
784.4053535863595
 20
814.2107563488131
 30
0.0
  0
VERTEX
  5
141
330
6F
100
AcDbEntity
  8
dessin 2D
100
AcDbVertex
100
AcDb2dVertex
 10
784.4188395922508
 20
814.2168377056538
 30
0.0
  0
VERTEX
  5
142
330
6F
100
AcDbEntity
  8
dessin 2D
100
AcDbVertex
100
AcDb2dVertex
 10
784.4324187768476
 20
814.2226636172448
 30
0.0
  0
VERTEX
  5
143
330
6F
100
AcDbEntity
  8
dessin 2D
100
AcDbVertex
100
AcDb2dVertex
 10
784.4598445744612
 20
814.2335952728931
 30
0.0
  0
VERTEX
  5
144
330
6F
100
AcDbEntity
  8
dessin 2D
100
AcDbVertex
100
AcDb2dVertex
 10
784.487606763809
 20
814.2436436521876
 30
0.0
  0
VERTEX
  5
145
330
6F
100
AcDbEntity
  8
dessin 2D
100
AcDbVertex
100
AcDb2dVertex
 10
784.5156811294994
 20
814.2529010915581
 30
0.0
  0
VERTEX
  5
146
330
6F
100
AcDbEntity
  8
dessin 2D
100
AcDbVertex
100
AcDb2dVertex
 10
784.544043456141
 20
814.2614599274344
 30
0.0
  0
VERTEX
  5
147
330
6F
100
AcDbEntity
  8
dessin 2D
100
AcDbVertex
100
AcDb2dVertex
 10
784.5726695283423
 20
814.2694124962466
 30
0.0
  0
VERTEX
  5
148
330
6F
100
AcDbEntity
  8
dessin 2D
100
AcDbVertex
100
AcDb2dVertex
 10
784.6306160478581
 20
814.2838681783967
 30
0.0
  0
VERTEX
  5
149
330
6F
100
AcDbEntity
  8
dessin 2D
100
AcDbVertex
100
AcDb2dVertex
 10
784.8173376817531
 20
814.3255162610319
 30
0.0
 42
0.0826803058895552
  0
VERTEX
  5
14A
330
6F
100
AcDbEntity
  8
dessin 2D
100
AcDbVertex
100
AcDb2dVertex
 10
785.5823705573396
 20
814.5933166514549
 30
0.0
 42
-0.1537430466625879
  0
VERTEX
  5
14B
330
6F
100
AcDbEntity
  8
dessin 2D
100
AcDbVertex
100
AcDb2dVertex
 10
785.3804160093732
 20
814.7293605459415
 30
0.0
  0
VERTEX
  5
14C
330
6F
100
AcDbEntity
  8
dessin 2D
100
AcDbVertex
100
AcDb2dVertex
 10
785.3737743737722
 20
814.7404665736171
 30
0.0
  0
VERTEX
  5
14D
330
6F
100
AcDbEntity
  8
dessin 2D
100
AcDbVertex
100
AcDb2dVertex
 10
785.3671320302337
 20
814.7521511175282
 30
0.0
  0
VERTEX
  5
14E
330
6F
100
AcDbEntity
  8
dessin 2D
100
AcDbVertex
100
AcDb2dVertex
 10
785.360489403974
 20
814.7646595421058
 30
0.0
  0
VERTEX
  5
14F
330
6F
100
AcDbEntity
  8
dessin 2D
100
AcDbVertex
100
AcDb2dVertex
 10
785.3538469202092
 20
814.7782372117804
 30
0.0
  0
VERTEX
  5
150
330
6F
100
AcDbEntity
  8
dessin 2D
100
AcDbVertex
100
AcDb2dVertex
 10
785.3505258646422
 20
814.7855036899138
 30
0.0
  0
VERTEX
  5
151
330
6F
100
AcDbEntity
  8
dessin 2D
100
AcDbVertex
100
AcDb2dVertex
 10
785.3472050041551
 20
814.793129490983
 30
0.0
  0
VERTEX
  5
152
330
6F
100
AcDbEntity
  8
dessin 2D
100
AcDbVertex
100
AcDb2dVertex
 10
785.3438843918996
 20
814.8011452855419
 30
0.0
  0
VERTEX
  5
153
330
6F
100
AcDbEntity
  8
dessin 2D
100
AcDbVertex
100
AcDb2dVertex
 10
785.3405640810277
 20
814.8095817441445
 30
0.0
  0
VERTEX
  5
154
330
6F
100
AcDbEntity
  8
dessin 2D
100
AcDbVertex
100
AcDb2dVertex
 10
785.3339245760432
 20
814.8278393356957
 30
0.0
  0
VERTEX
  5
155
330
6F
100
AcDbEntity
  8
dessin 2D
100
AcDbVertex
100
AcDb2dVertex
 10
785.3272869144174
 20
814.8481476300673
 30
0.0
  0
VERTEX
  5
156
330
6F
100
AcDbEntity
  8
dessin 2D
100
AcDbVertex
100
AcDb2dVertex
 10
785.3206515213666
 20
814.8707519916902
 30
0.0
  0
VERTEX
  5
157
330
6F
100
AcDbEntity
  8
dessin 2D
100
AcDbVertex
100
AcDb2dVertex
 10
785.3140188221068
 20
814.8958977849953
 30
0.0
  0
VERTEX
  5
158
330
6F
100
AcDbEntity
  8
dessin 2D
100
AcDbVertex
100
AcDb2dVertex
 10
785.3073892418543
 20
814.9238303744133
 30
0.0
  0
VERTEX
  5
159
330
6F
100
AcDbEntity
  8
dessin 2D
100
AcDbVertex
100
AcDb2dVertex
 10
785.3007632058245
 20
814.9547951243753
 30
0.0
  0
VERTEX
  5
15A
330
6F
100
AcDbEntity
  8
dessin 2D
100
AcDbVertex
100
AcDb2dVertex
 10
785.294141139234
 20
814.9890373993119
 30
0.0
  0
VERTEX
  5
15B
330
6F
100
AcDbEntity
  8
dessin 2D
100
AcDbVertex
100
AcDb2dVertex
 10
785.2875234672986
 20
815.026802563654
 30
0.0
  0
VERTEX
  5
15C
330
6F
100
AcDbEntity
  8
dessin 2D
100
AcDbVertex
100
AcDb2dVertex
 10
785.2743030082573
 20
815.1138830182781
 30
0.0
  0
VERTEX
  5
15D
330
6F
100
AcDbEntity
  8
dessin 2D
100
AcDbVertex
100
AcDb2dVertex
 10
785.2618360399076
 20
815.2143487009357
 30
0.0
  0
VERTEX
  5
15E
330
6F
100
AcDbEntity
  8
dessin 2D
100
AcDbVertex
100
AcDb2dVertex
 10
785.2246643763158
 20
815.6078540800363
 30
0.0
  0
VERTEX
  5
15F
330
6F
100
AcDbEntity
  8
dessin 2D
100
AcDbVertex
100
AcDb2dVertex
 10
785.2245625494883
 20
815.608913815702
 30
0.0
  0
VERTEX
  5
160
330
6F
100
AcDbEntity
  8
dessin 2D
100
AcDbVertex
100
AcDb2dVertex
 10
785.2244329469306
 20
815.6099721362243
 30
0.0
  0
VERTEX
  5
161
330
6F
100
AcDbEntity
  8
dessin 2D
100
AcDbVertex
100
AcDb2dVertex
 10
785.2242755734618
 20
815.6110295800762
 30
0.0
  0
VERTEX
  5
162
330
6F
100
AcDbEntity
  8
dessin 2D
100
AcDbVertex
100
AcDb2dVertex
 10
785.2240904339008
 20
815.6120866857306
 30
0.0
  0
VERTEX
  5
163
330
6F
100
AcDbEntity
  8
dessin 2D
100
AcDbVertex
100
AcDb2dVertex
 10
785.2238237580274
 20
815.6134226087058
 30
0.0
  0
VERTEX
  5
164
330
6F
100
AcDbEntity
  8
dessin 2D
100
AcDbVertex
100
AcDb2dVertex
 10
785.2235107190368
 20
815.6147650194778
 30
0.0
  0
VERTEX
  5
165
330
6F
100
AcDbEntity
  8
dessin 2D
100
AcDbVertex
100
AcDb2dVertex
 10
785.2231514100524
 20
815.616113830509
 30
0.0
  0
VERTEX
  5
166
330
6F
100
AcDbEntity
  8
dessin 2D
100
AcDbVertex
100
AcDb2dVertex
 10
785.2227459241976
 20
815.6174689542617
 30
0.0
  0
VERTEX
  5
167
330
6F
100
AcDbEntity
  8
dessin 2D
100
AcDbVertex
100
AcDb2dVertex
 10
785.2222943545964
 20
815.6188303031986
 30
0.0
  0
VERTEX
  5
168
330
6F
100
AcDbEntity
  8
dessin 2D
100
AcDbVertex
100
AcDb2dVertex
 10
785.2217967943725
 20
815.6201977897825
 30
0.0
  0
VERTEX
  5
169
330
6F
100
AcDbEntity
  8
dessin 2D
100
AcDbVertex
100
AcDb2dVertex
 10
785.2212533366492
 20
815.6215713264759
 30
0.0
  0
VERTEX
  5
16A
330
6F
100
AcDbEntity
  8
dessin 2D
100
AcDbVertex
100
AcDb2dVertex
 10
785.2206640745501
 20
815.6229508257411
 30
0.0
  0
VERTEX
  5
16B
330
6F
100
AcDbEntity
  8
dessin 2D
100
AcDbVertex
100
AcDb2dVertex
 10
785.220029101199
 20
815.6243362000407
 30
0.0
  0
VERTEX
  5
16C
330
6F
100
AcDbEntity
  8
dessin 2D
100
AcDbVertex
100
AcDb2dVertex
 10
785.2193485097193
 20
815.6257273618374
 30
0.0
  0
VERTEX
  5
16D
330
6F
100
AcDbEntity
  8
dessin 2D
100
AcDbVertex
100
AcDb2dVertex
 10
785.2186223932349
 20
815.6271242235938
 30
0.0
  0
VERTEX
  5
16E
330
6F
100
AcDbEntity
  8
dessin 2D
100
AcDbVertex
100
AcDb2dVertex
 10
785.2178508448694
 20
815.6285266977723
 30
0.0
  0
VERTEX
  5
16F
330
6F
100
AcDbEntity
  8
dessin 2D
100
AcDbVertex
100
AcDb2dVertex
 10
785.2170339577463
 20
815.6299346968354
 30
0.0
  0
VERTEX
  5
170
330
6F
100
AcDbEntity
  8
dessin 2D
100
AcDbVertex
100
AcDb2dVertex
 10
785.216171824989
 20
815.6313481332459
 30
0.0
  0
VERTEX
  5
171
330
6F
100
AcDbEntity
  8
dessin 2D
100
AcDbVertex
100
AcDb2dVertex
 10
785.2152645397214
 20
815.6327669194662
 30
0.0
  0
VERTEX
  5
172
330
6F
100
AcDbEntity
  8
dessin 2D
100
AcDbVertex
100
AcDb2dVertex
 10
785.2143121950672
 20
815.6341909679591
 30
0.0
  0
VERTEX
  5
173
330
6F
100
AcDbEntity
  8
dessin 2D
100
AcDbVertex
100
AcDb2dVertex
 10
785.2133148841499
 20
815.6356201911867
 30
0.0
  0
VERTEX
  5
174
330
6F
100
AcDbEntity
  8
dessin 2D
100
AcDbVertex
100
AcDb2dVertex
 10
785.212272700093
 20
815.6370545016118
 30
0.0
  0
VERTEX
  5
175
330
6F
100
AcDbEntity
  8
dessin 2D
100
AcDbVertex
100
AcDb2dVertex
 10
785.2111857360202
 20
815.6384938116971
 30
0.0
  0
VERTEX
  5
176
330
6F
100
AcDbEntity
  8
dessin 2D
100
AcDbVertex
100
AcDb2dVertex
 10
785.2100540850552
 20
815.6399380339049
 30
0.0
  0
VERTEX
  5
177
330
6F
100
AcDbEntity
  8
dessin 2D
100
AcDbVertex
100
AcDb2dVertex
 10
785.2076570949428
 20
815.6428408645386
 30
0.0
  0
VERTEX
  5
178
330
6F
100
AcDbEntity
  8
dessin 2D
100
AcDbVertex
100
AcDb2dVertex
 10
785.2050824747447
 20
815.6457622932134
 30
0.0
  0
VERTEX
  5
179
330
6F
100
AcDbEntity
  8
dessin 2D
100
AcDbVertex
100
AcDb2dVertex
 10
785.2023309694499
 20
815.6487016196296
 30
0.0
  0
VERTEX
  5
17A
330
6F
100
AcDbEntity
  8
dessin 2D
100
AcDbVertex
100
AcDb2dVertex
 10
785.1994033240474
 20
815.6516581434881
 30
0.0
  0
VERTEX
  5
17B
330
6F
100
AcDbEntity
  8
dessin 2D
100
AcDbVertex
100
AcDb2dVertex
 10
785.1963002835259
 20
815.6546311644892
 30
0.0
  0
VERTEX
  5
17C
330
6F
100
AcDbEntity
  8
dessin 2D
100
AcDbVertex
100
AcDb2dVertex
 10
785.1930225928747
 20
815.6576199823331
 30
0.0
  0
VERTEX
  5
17D
330
6F
100
AcDbEntity
  8
dessin 2D
100
AcDbVertex
100
AcDb2dVertex
 10
785.1895709970826
 20
815.6606238967204
 30
0.0
  0
VERTEX
  5
17E
330
6F
100
AcDbEntity
  8
dessin 2D
100
AcDbVertex
100
AcDb2dVertex
 10
785.1859462411385
 20
815.6636422073516
 30
0.0
  0
VERTEX
  5
17F
330
6F
100
AcDbEntity
  8
dessin 2D
100
AcDbVertex
100
AcDb2dVertex
 10
785.1821490700313
 20
815.666674213927
 30
0.0
  0
VERTEX
  5
180
330
6F
100
AcDbEntity
  8
dessin 2D
100
AcDbVertex
100
AcDb2dVertex
 10
785.1781802287501
 20
815.6697192161471
 30
0.0
  0
VERTEX
  5
181
330
6F
100
AcDbEntity
  8
dessin 2D
100
AcDbVertex
100
AcDb2dVertex
 10
785.169730515621
 20
815.6758454063233
 30
0.0
  0
VERTEX
  5
182
330
6F
100
AcDbEntity
  8
dessin 2D
100
AcDbVertex
100
AcDb2dVertex
 10
785.1606030616629
 20
815.6820151754841
 30
0.0
  0
VERTEX
  5
183
330
6F
100
AcDbEntity
  8
dessin 2D
100
AcDbVertex
100
AcDb2dVertex
 10
785.1508038267873
 20
815.6882229212329
 30
0.0
  0
VERTEX
  5
184
330
6F
100
AcDbEntity
  8
dessin 2D
100
AcDbVertex
100
AcDb2dVertex
 10
785.1403387709058
 20
815.6944630411733
 30
0.0
  0
VERTEX
  5
185
330
6F
100
AcDbEntity
  8
dessin 2D
100
AcDbVertex
100
AcDb2dVertex
 10
785.12921385393
 20
815.7007299329089
 30
0.0
  0
VERTEX
  5
186
330
6F
100
AcDbEntity
  8
dessin 2D
100
AcDbVertex
100
AcDb2dVertex
 10
785.1174350357712
 20
815.7070179940433
 30
0.0
  0
VERTEX
  5
187
330
6F
100
AcDbEntity
  8
dessin 2D
100
AcDbVertex
100
AcDb2dVertex
 10
785.1002695825473
 20
815.7156444104223
 30
0.0
  0
VERTEX
  5
188
330
6F
100
AcDbEntity
  8
dessin 2D
100
AcDbVertex
100
AcDb2dVertex
 10
785.0819154675575
 20
815.7242716582806
 30
0.0
  0
VERTEX
  5
189
330
6F
100
AcDbEntity
  8
dessin 2D
100
AcDbVertex
100
AcDb2dVertex
 10
785.0623973250789
 20
815.7328714192602
 30
0.0
  0
VERTEX
  5
18A
330
6F
100
AcDbEntity
  8
dessin 2D
100
AcDbVertex
100
AcDb2dVertex
 10
785.0417397893891
 20
815.7414153750028
 30
0.0
  0
VERTEX
  5
18B
330
6F
100
AcDbEntity
  8
dessin 2D
100
AcDbVertex
100
AcDb2dVertex
 10
785.0199674947655
 20
815.7498752071508
 30
0.0
  0
VERTEX
  5
18C
330
6F
100
AcDbEntity
  8
dessin 2D
100
AcDbVertex
100
AcDb2dVertex
 10
784.9971050754856
 20
815.7582225973464
 30
0.0
  0
VERTEX
  5
18D
330
6F
100
AcDbEntity
  8
dessin 2D
100
AcDbVertex
100
AcDb2dVertex
 10
784.9731771658265
 20
815.7664292272314
 30
0.0
  0
VERTEX
  5
18E
330
6F
100
AcDbEntity
  8
dessin 2D
100
AcDbVertex
100
AcDb2dVertex
 10
784.9482084000658
 20
815.7744667784477
 30
0.0
  0
VERTEX
  5
18F
330
6F
100
AcDbEntity
  8
dessin 2D
100
AcDbVertex
100
AcDb2dVertex
 10
784.9115086493762
 20
815.7853998365049
 30
0.0
  0
VERTEX
  5
190
330
6F
100
AcDbEntity
  8
dessin 2D
100
AcDbVertex
100
AcDb2dVertex
 10
784.8729196794756
 20
815.7958952317038
 30
0.0
  0
VERTEX
  5
191
330
6F
100
AcDbEntity
  8
dessin 2D
100
AcDbVertex
100
AcDb2dVertex
 10
784.8325491909543
 20
815.8059031948733
 30
0.0
  0
VERTEX
  5
192
330
6F
100
AcDbEntity
  8
dessin 2D
100
AcDbVertex
100
AcDb2dVertex
 10
784.7905048844025
 20
815.8153739568424
 30
0.0
  0
VERTEX
  5
193
330
6F
100
AcDbEntity
  8
dessin 2D
100
AcDbVertex
100
AcDb2dVertex
 10
784.7468944604104
 20
815.8242577484407
 30
0.0
  0
VERTEX
  5
194
330
6F
100
AcDbEntity
  8
dessin 2D
100
AcDbVertex
100
AcDb2dVertex
 10
784.7018256195684
 20
815.8325048004967
 30
0.0
  0
VERTEX
  5
195
330
6F
100
AcDbEntity
  8
dessin 2D
100
AcDbVertex
100
AcDb2dVertex
 10
784.6554060624667
 20
815.8400653438401
 30
0.0
  0
VERTEX
  5
196
330
6F
100
AcDbEntity
  8
dessin 2D
100
AcDbVertex
100
AcDb2dVertex
 10
784.6077434896956
 20
815.8468896092998
 30
0.0
  0
VERTEX
  5
197
330
6F
100
AcDbEntity
  8
dessin 2D
100
AcDbVertex
100
AcDb2dVertex
 10
784.5155087923981
 20
815.8575537161533
 30
0.0
  0
VERTEX
  5
198
330
6F
100
AcDbEntity
  8
dessin 2D
100
AcDbVertex
100
AcDb2dVertex
 10
784.4202795291869
 20
815.8653242450373
 30
0.0
  0
VERTEX
  5
199
330
6F
100
AcDbEntity
  8
dessin 2D
100
AcDbVertex
100
AcDb2dVertex
 10
784.3230473190492
 20
815.8700674940355
 30
0.0
  0
VERTEX
  5
19A
330
6F
100
AcDbEntity
  8
dessin 2D
100
AcDbVertex
100
AcDb2dVertex
 10
784.2248037809718
 20
815.8716497612318
 30
0.0
  0
VERTEX
  5
19B
330
6F
100
AcDbEntity
  8
dessin 2D
100
AcDbVertex
100
AcDb2dVertex
 10
774.1256196689328
 20
815.8716497612318
 30
0.0
  0
VERTEX
  5
19C
330
6F
100
AcDbEntity
  8
dessin 2D
100
AcDbVertex
100
AcDb2dVertex
 10
774.0706040641762
 20
815.8711303991383
 30
0.0
  0
VERTEX
  5
19D
330
6F
100
AcDbEntity
  8
dessin 2D
100
AcDbVertex
100
AcDb2dVertex
 10
774.0157367629326
 20
815.8696267505501
 30
0.0
  0
VERTEX
  5
19E
330
6F
100
AcDbEntity
  8
dessin 2D
100
AcDbVertex
100
AcDb2dVertex
 10
773.9611990068942
 20
815.8671564690583
 30
0.0
  0
VERTEX
  5
19F
330
6F
100
AcDbEntity
  8
dessin 2D
100
AcDbVertex
100
AcDb2dVertex
 10
773.9071720377528
 20
815.863737208255
 30
0.0
  0
VERTEX
  5
1A0
330
6F
100
AcDbEntity
  8
dessin 2D
100
AcDbVertex
100
AcDb2dVertex
 10
773.8538370972007
 20
815.8593866217316
 30
0.0
  0
VERTEX
  5
1A1
330
6F
100
AcDbEntity
  8
dessin 2D
100
AcDbVertex
100
AcDb2dVertex
 10
773.8013754269297
 20
815.8541223630798
 30
0.0
  0
VERTEX
  5
1A2
330
6F
100
AcDbEntity
  8
dessin 2D
100
AcDbVertex
100
AcDb2dVertex
 10
773.7499682686317
 20
815.8479620858911
 30
0.0
  0
VERTEX
  5
1A3
330
6F
100
AcDbEntity
  8
dessin 2D
100
AcDbVertex
100
AcDb2dVertex
 10
773.6997968639987
 20
815.8409234437576
 30
0.0
  0
VERTEX
  5
1A4
330
6F
100
AcDbEntity
  8
dessin 2D
100
AcDbVertex
100
AcDb2dVertex
 10
773.6280435269257
 20
815.8289403591411
 30
0.0
  0
VERTEX
  5
1A5
330
6F
100
AcDbEntity
  8
dessin 2D
100
AcDbVertex
100
AcDb2dVertex
 10
773.5597461178063
 20
815.8152986702447
 30
0.0
  0
VERTEX
  5
1A6
330
6F
100
AcDbEntity
  8
dessin 2D
100
AcDbVertex
100
AcDb2dVertex
 10
773.4952468181867
 20
815.8002311247058
 30
0.0
  0
VERTEX
  5
1A7
330
6F
100
AcDbEntity
  8
dessin 2D
100
AcDbVertex
100
AcDb2dVertex
 10
773.434887809613
 20
815.7839704701614
 30
0.0
  0
VERTEX
  5
1A8
330
6F
100
AcDbEntity
  8
dessin 2D
100
AcDbVertex
100
AcDb2dVertex
 10
773.4063678462013
 20
815.7754654606489
 30
0.0
  0
VERTEX
  5
1A9
330
6F
100
AcDbEntity
  8
dessin 2D
100
AcDbVertex
100
AcDb2dVertex
 10
773.3790112736308
 20
815.7667494542488
 30
0.0
  0
VERTEX
  5
1AA
330
6F
100
AcDbEntity
  8
dessin 2D
100
AcDbVertex
100
AcDb2dVertex
 10
773.3528608645947
 20
815.7578515444161
 30
0.0
  0
VERTEX
  5
1AB
330
6F
100
AcDbEntity
  8
dessin 2D
100
AcDbVertex
100
AcDb2dVertex
 10
773.3279593917862
 20
815.7488008246053
 30
0.0
  0
VERTEX
  5
1AC
330
6F
100
AcDbEntity
  8
dessin 2D
100
AcDbVertex
100
AcDb2dVertex
 10
773.3043496278988
 20
815.7396263882711
 30
0.0
  0
VERTEX
  5
1AD
330
6F
100
AcDbEntity
  8
dessin 2D
100
AcDbVertex
100
AcDb2dVertex
 10
773.2820743456252
 20
815.730357328868
 30
0.0
  0
VERTEX
  5
1AE
330
6F
100
AcDbEntity
  8
dessin 2D
100
AcDbVertex
100
AcDb2dVertex
 10
773.2611763176592
 20
815.7210227398509
 30
0.0
  0
VERTEX
  5
1AF
330
6F
100
AcDbEntity
  8
dessin 2D
100
AcDbVertex
100
AcDb2dVertex
 10
773.2416983166938
 20
815.7116517146742
 30
0.0
  0
VERTEX
  5
1B0
330
6F
100
AcDbEntity
  8
dessin 2D
100
AcDbVertex
100
AcDb2dVertex
 10
773.2289179156809
 20
815.7050794127185
 30
0.0
  0
VERTEX
  5
1B1
330
6F
100
AcDbEntity
  8
dessin 2D
100
AcDbVertex
100
AcDb2dVertex
 10
773.2168599905797
 20
815.6985123653192
 30
0.0
  0
VERTEX
  5
1B2
330
6F
100
AcDbEntity
  8
dessin 2D
100
AcDbVertex
100
AcDb2dVertex
 10
773.2055288705028
 20
815.6919594318595
 30
0.0
  0
VERTEX
  5
1B3
330
6F
100
AcDbEntity
  8
dessin 2D
100
AcDbVertex
100
AcDb2dVertex
 10
773.1949288845631
 20
815.6854294717225
 30
0.0
  0
VERTEX
  5
1B4
330
6F
100
AcDbEntity
  8
dessin 2D
100
AcDbVertex
100
AcDb2dVertex
 10
773.1850643618728
 20
815.6789313442916
 30
0.0
  0
VERTEX
  5
1B5
330
6F
100
AcDbEntity
  8
dessin 2D
100
AcDbVertex
100
AcDb2dVertex
 10
773.1804092520941
 20
815.6756969863984
 30
0.0
  0
VERTEX
  5
1B6
330
6F
100
AcDbEntity
  8
dessin 2D
100
AcDbVertex
100
AcDb2dVertex
 10
773.1759396315451
 20
815.6724739089505
 30
0.0
  0
VERTEX
  5
1B7
330
6F
100
AcDbEntity
  8
dessin 2D
100
AcDbVertex
100
AcDb2dVertex
 10
773.1716560413648
 20
815.6692632193708
 30
0.0
  0
VERTEX
  5
1B8
330
6F
100
AcDbEntity
  8
dessin 2D
100
AcDbVertex
100
AcDb2dVertex
 10
773.1675590226924
 20
815.666066025082
 30
0.0
  0
VERTEX
  5
1B9
330
6F
100
AcDbEntity
  8
dessin 2D
100
AcDbVertex
100
AcDb2dVertex
 10
773.163649116667
 20
815.6628834335074
 30
0.0
  0
VERTEX
  5
1BA
330
6F
100
AcDbEntity
  8
dessin 2D
100
AcDbVertex
100
AcDb2dVertex
 10
773.1599268644273
 20
815.6597165520698
 30
0.0
  0
VERTEX
  5
1BB
330
6F
100
AcDbEntity
  8
dessin 2D
100
AcDbVertex
100
AcDb2dVertex
 10
773.1563928071129
 20
815.656566488192
 30
0.0
  0
VERTEX
  5
1BC
330
6F
100
AcDbEntity
  8
dessin 2D
100
AcDbVertex
100
AcDb2dVertex
 10
773.1530474858627
 20
815.653434349297
 30
0.0
  0
VERTEX
  5
1BD
330
6F
100
AcDbEntity
  8
dessin 2D
100
AcDbVertex
100
AcDb2dVertex
 10
773.1498914418156
 20
815.6503212428076
 30
0.0
  0
VERTEX
  5
1BE
330
6F
100
AcDbEntity
  8
dessin 2D
100
AcDbVertex
100
AcDb2dVertex
 10
773.146925216111
 20
815.6472282761468
 30
0.0
  0
VERTEX
  5
1BF
330
6F
100
AcDbEntity
  8
dessin 2D
100
AcDbVertex
100
AcDb2dVertex
 10
773.1441493498877
 20
815.6441565567376
 30
0.0
  0
VERTEX
  5
1C0
330
6F
100
AcDbEntity
  8
dessin 2D
100
AcDbVertex
100
AcDb2dVertex
 10
773.1415643842848
 20
815.6411071920029
 30
0.0
  0
VERTEX
  5
1C1
330
6F
100
AcDbEntity
  8
dessin 2D
100
AcDbVertex
100
AcDb2dVertex
 10
773.1403436583221
 20
815.639591238708
 30
0.0
  0
VERTEX
  5
1C2
330
6F
100
AcDbEntity
  8
dessin 2D
100
AcDbVertex
100
AcDb2dVertex
 10
773.1391708604416
 20
815.6380812893656
 30
0.0
  0
VERTEX
  5
1C3
330
6F
100
AcDbEntity
  8
dessin 2D
100
AcDbVertex
100
AcDb2dVertex
 10
773.1380460582859
 20
815.636577482403
 30
0.0
  0
VERTEX
  5
1C4
330
6F
100
AcDbEntity
  8
dessin 2D
100
AcDbVertex
100
AcDb2dVertex
 10
773.1369693194971
 20
815.6350799562484
 30
0.0
  0
VERTEX
  5
1C5
330
6F
100
AcDbEntity
  8
dessin 2D
100
AcDbVertex
100
AcDb2dVertex
 10
773.1359407117178
 20
815.6335888493295
 30
0.0
  0
VERTEX
  5
1C6
330
6F
100
AcDbEntity
  8
dessin 2D
100
AcDbVertex
100
AcDb2dVertex
 10
773.1349603025903
 20
815.6321043000745
 30
0.0
  0
VERTEX
  5
1C7
330
6F
100
AcDbEntity
  8
dessin 2D
100
AcDbVertex
100
AcDb2dVertex
 10
773.134028159757
 20
815.630626446911
 30
0.0
  0
VERTEX
  5
1C8
330
6F
100
AcDbEntity
  8
dessin 2D
100
AcDbVertex
100
AcDb2dVertex
 10
773.1331443508603
 20
815.6291554282667
 30
0.0
  0
VERTEX
  5
1C9
330
6F
100
AcDbEntity
  8
dessin 2D
100
AcDbVertex
100
AcDb2dVertex
 10
773.1323089435426
 20
815.6276913825698
 30
0.0
  0
VERTEX
  5
1CA
330
6F
100
AcDbEntity
  8
dessin 2D
100
AcDbVertex
100
AcDb2dVertex
 10
773.1315220054463
 20
815.6262344482479
 30
0.0
  0
VERTEX
  5
1CB
330
6F
100
AcDbEntity
  8
dessin 2D
100
AcDbVertex
100
AcDb2dVertex
 10
773.1307836042138
 20
815.624784763729
 30
0.0
  0
VERTEX
  5
1CC
330
6F
100
AcDbEntity
  8
dessin 2D
100
AcDbVertex
100
AcDb2dVertex
 10
773.1300938074872
 20
815.623342467441
 30
0.0
  0
VERTEX
  5
1CD
330
6F
100
AcDbEntity
  8
dessin 2D
100
AcDbVertex
100
AcDb2dVertex
 10
773.1294526829093
 20
815.6219076978117
 30
0.0
  0
VERTEX
  5
1CE
330
6F
100
AcDbEntity
  8
dessin 2D
100
AcDbVertex
100
AcDb2dVertex
 10
773.1288602981223
 20
815.620480593269
 30
0.0
  0
VERTEX
  5
1CF
330
6F
100
AcDbEntity
  8
dessin 2D
100
AcDbVertex
100
AcDb2dVertex
 10
773.1283167207685
 20
815.6190612922408
 30
0.0
  0
VERTEX
  5
1D0
330
6F
100
AcDbEntity
  8
dessin 2D
100
AcDbVertex
100
AcDb2dVertex
 10
773.1278220184904
 20
815.6176499331548
 30
0.0
  0
VERTEX
  5
1D1
330
6F
100
AcDbEntity
  8
dessin 2D
100
AcDbVertex
100
AcDb2dVertex
 10
773.1273762589303
 20
815.6162466544389
 30
0.0
  0
VERTEX
  5
1D2
330
6F
100
AcDbEntity
  8
dessin 2D
100
AcDbVertex
100
AcDb2dVertex
 10
773.1269795097307
 20
815.614851594521
 30
0.0
  0
VERTEX
  5
1D3
330
6F
100
AcDbEntity
  8
dessin 2D
100
AcDbVertex
100
AcDb2dVertex
 10
773.126631838534
 20
815.6134648918292
 30
0.0
  0
VERTEX
  5
1D4
330
6F
100
AcDbEntity
  8
dessin 2D
100
AcDbVertex
100
AcDb2dVertex
 10
773.1263333129825
 20
815.6120866847912
 30
0.0
  0
VERTEX
  5
1D5
330
6F
100
AcDbEntity
  8
dessin 2D
100
AcDbVertex
100
AcDb2dVertex
 10
773.1261476164058
 20
815.6110258747831
 30
0.0
  0
VERTEX
  5
1D6
330
6F
100
AcDbEntity
  8
dessin 2D
100
AcDbVertex
100
AcDb2dVertex
 10
773.1259898426773
 20
815.6099652959354
 30
0.0
  0
VERTEX
  5
1D7
330
6F
100
AcDbEntity
  8
dessin 2D
100
AcDbVertex
100
AcDb2dVertex
 10
773.1258599966799
 20
815.6089049781126
 30
0.0
  0
VERTEX
  5
1D8
330
6F
100
AcDbEntity
  8
dessin 2D
100
AcDbVertex
100
AcDb2dVertex
 10
773.1257580832963
 20
815.607844951179
 30
0.0
  0
VERTEX
  5
1D9
330
6F
100
AcDbEntity
  8
dessin 2D
100
AcDbVertex
100
AcDb2dVertex
 10
773.0887194601266
 20
815.2143451636139
 30
0.0
  0
VERTEX
  5
1DA
330
6F
100
AcDbEntity
  8
dessin 2D
100
AcDbVertex
100
AcDb2dVertex
 10
773.0762971005535
 20
815.1138799959103
 30
0.0
  0
VERTEX
  5
1DB
330
6F
100
AcDbEntity
  8
dessin 2D
100
AcDbVertex
100
AcDb2dVertex
 10
773.0631236923506
 20
815.0267996091102
 30
0.0
  0
VERTEX
  5
1DC
330
6F
100
AcDbEntity
  8
dessin 2D
100
AcDbVertex
100
AcDb2dVertex
 10
773.056529572308
 20
814.989034478097
 30
0.0
  0
VERTEX
  5
1DD
330
6F
100
AcDbEntity
  8
dessin 2D
100
AcDbVertex
100
AcDb2dVertex
 10
773.0499310732426
 20
814.9547922361605
 30
0.0
  0
VERTEX
  5
1DE
330
6F
100
AcDbEntity
  8
dessin 2D
100
AcDbVertex
100
AcDb2dVertex
 10
773.0433286188579
 20
814.9238275189152
 30
0.0
  0
VERTEX
  5
1DF
330
6F
100
AcDbEntity
  8
dessin 2D
100
AcDbVertex
100
AcDb2dVertex
 10
773.0367226328572
 20
814.8958949619754
 30
0.0
  0
VERTEX
  5
1E0
330
6F
100
AcDbEntity
  8
dessin 2D
100
AcDbVertex
100
AcDb2dVertex
 10
773.0301135389439
 20
814.8707492009551
 30
0.0
  0
VERTEX
  5
1E1
330
6F
100
AcDbEntity
  8
dessin 2D
100
AcDbVertex
100
AcDb2dVertex
 10
773.0235017608215
 20
814.8481448714683
 30
0.0
  0
VERTEX
  5
1E2
330
6F
100
AcDbEntity
  8
dessin 2D
100
AcDbVertex
100
AcDb2dVertex
 10
773.0168877221936
 20
814.8278366091296
 30
0.0
  0
VERTEX
  5
1E3
330
6F
100
AcDbEntity
  8
dessin 2D
100
AcDbVertex
100
AcDb2dVertex
 10
773.0102718467632
 20
814.8095790495531
 30
0.0
  0
VERTEX
  5
1E4
330
6F
100
AcDbEntity
  8
dessin 2D
100
AcDbVertex
100
AcDb2dVertex
 10
773.0069633526546
 20
814.8011426069302
 30
0.0
  0
VERTEX
  5
1E5
330
6F
100
AcDbEntity
  8
dessin 2D
100
AcDbVertex
100
AcDb2dVertex
 10
773.0036545582341
 20
814.793126828353
 30
0.0
  0
VERTEX
  5
1E6
330
6F
100
AcDbEntity
  8
dessin 2D
100
AcDbVertex
100
AcDb2dVertex
 10
773.0003455164647
 20
814.7855010432735
 30
0.0
  0
VERTEX
  5
1E7
330
6F
100
AcDbEntity
  8
dessin 2D
100
AcDbVertex
100
AcDb2dVertex
 10
772.9970362803094
 20
814.7782345811434
 30
0.0
  0
VERTEX
  5
1E8
330
6F
100
AcDbEntity
  8
dessin 2D
100
AcDbVertex
100
AcDb2dVertex
 10
772.9904174366927
 20
814.7646569435387
 30
0.0
  0
VERTEX
  5
1E9
330
6F
100
AcDbEntity
  8
dessin 2D
100
AcDbVertex
100
AcDb2dVertex
 10
772.9837984510878
 20
814.7521485511531
 30
0.0
  0
VERTEX
  5
1EA
330
6F
100
AcDbEntity
  8
dessin 2D
100
AcDbVertex
100
AcDb2dVertex
 10
772.9771797471974
 20
814.740464039601
 30
0.0
  0
VERTEX
  5
1EB
330
6F
100
AcDbEntity
  8
dessin 2D
100
AcDbVertex
100
AcDb2dVertex
 10
772.9705617487255
 20
814.729358044496
 30
0.0
 42
-0.153747844726084
  0
VERTEX
  5
1EC
330
6F
100
AcDbEntity
  8
dessin 2D
100
AcDbVertex
100
AcDb2dVertex
 10
772.7694172423184
 20
814.5933152374877
 30
0.0
 42
0.0823848942629721
  0
VERTEX
  5
1ED
330
6F
100
AcDbEntity
  8
dessin 2D
100
AcDbVertex
100
AcDb2dVertex
 10
773.5355141269886
 20
814.325516252308
 30
0.0
  0
SEQEND
  5
1EE
330
6F
100
AcDbEntity
  8
dessin 2D
  0
POLYLINE
  5
1EF
330
1F
100
AcDbEntity
  8
dessin 2D
100
AcDb2dPolyline
 66
     1
 10
0.0
 20
0.0
 30
0.0
  0
VERTEX
  5
1F0
330
1EF
100
AcDbEntity
  8
dessin 2D
100
AcDbVertex
100
AcDb2dVertex
 10
787.224385567003
 20
817.5711996326463
 30
0.0
  0
VERTEX
  5
1F1
330
1EF
100
AcDbEntity
  8
dessin 2D
100
AcDbVertex
100
AcDb2dVertex
 10
787.2243169540061
 20
817.5714568896365
 30
0.0
  0
VERTEX
  5
1F2
330
1EF
100
AcDbEntity
  8
dessin 2D
100
AcDbVertex
100
AcDb2dVertex
 10
787.2242431323641
 20
817.5717139855611
 30
0.0
  0
VERTEX
  5
1F3
330
1EF
100
AcDbEntity
  8
dessin 2D
100
AcDbVertex
100
AcDb2dVertex
 10
787.2241641023045
 20
817.5719709322678
 30
0.0
  0
VERTEX
  5
1F4
330
1EF
100
AcDbEntity
  8
dessin 2D
100
AcDbVertex
100
AcDb2dVertex
 10
787.2240798640541
 20
817.5722277416044
 30
0.0
  0
VERTEX
  5
1F5
330
1EF
100
AcDbEntity
  8
dessin 2D
100
AcDbVertex
100
AcDb2dVertex
 10
787.2239904178401
 20
817.572484425418
 30
0.0
  0
VERTEX
  5
1F6
330
1EF
100
AcDbEntity
  8
dessin 2D
100
AcDbVertex
100
AcDb2dVertex
 10
787.2238957638895
 20
817.5727409955566
 30
0.0
  0
VERTEX
  5
1F7
330
1EF
100
AcDbEntity
  8
dessin 2D
100
AcDbVertex
100
AcDb2dVertex
 10
787.2237959024292
 20
817.5729974638675
 30
0.0
  0
VERTEX
  5
1F8
330
1EF
100
AcDbEntity
  8
dessin 2D
100
AcDbVertex
100
AcDb2dVertex
 10
787.2236908336864
 20
817.5732538421983
 30
0.0
  0
VERTEX
  5
1F9
330
1EF
100
AcDbEntity
  8
dessin 2D
100
AcDbVertex
100
AcDb2dVertex
 10
787.2234650752616
 20
817.57376637631
 30
0.0
  0
VERTEX
  5
1FA
330
1EF
100
AcDbEntity
  8
dessin 2D
100
AcDbVertex
100
AcDb2dVertex
 10
787.2232184904317
 20
817.5742786926721
 30
0.0
  0
VERTEX
  5
1FB
330
1EF
100
AcDbEntity
  8
dessin 2D
100
AcDbVertex
100
AcDb2dVertex
 10
787.222951081013
 20
817.5747908860656
 30
0.0
  0
VERTEX
  5
1FC
330
1EF
100
AcDbEntity
  8
dessin 2D
100
AcDbVertex
100
AcDb2dVertex
 10
787.2226628488222
 20
817.5753030512706
 30
0.0
  0
VERTEX
  5
1FD
330
1EF
100
AcDbEntity
  8
dessin 2D
100
AcDbVertex
100
AcDb2dVertex
 10
787.2222802401875
 20
817.575952924286
 30
0.0
  0
VERTEX
  5
1FE
330
1EF
100
AcDbEntity
  8
dessin 2D
100
AcDbVertex
100
AcDb2dVertex
 10
787.2220758809684
 20
817.5762779782108
 30
0.0
  0
VERTEX
  5
1FF
330
1EF
100
AcDbEntity
  8
dessin 2D
100
AcDbVertex
100
AcDb2dVertex
 10
787.2218628243018
 20
817.5766031098487
 30
0.0
  0
VERTEX
  5
200
330
1EF
100
AcDbEntity
  8
dessin 2D
100
AcDbVertex
100
AcDb2dVertex
 10
787.2216410745525
 20
817.576928318776
 30
0.0
  0
VERTEX
  5
201
330
1EF
100
AcDbEntity
  8
dessin 2D
100
AcDbVertex
100
AcDb2dVertex
 10
787.2214106360859
 20
817.5772536045693
 30
0.0
  0
VERTEX
  5
202
330
1EF
100
AcDbEntity
  8
dessin 2D
100
AcDbVertex
100
AcDb2dVertex
 10
787.2209237104616
 20
817.5779044050578
 30
0.0
  0
VERTEX
  5
203
330
1EF
100
AcDbEntity
  8
dessin 2D
100
AcDbVertex
100
AcDb2dVertex
 10
787.2204020823501
 20
817.5785555079246
 30
0.0
  0
VERTEX
  5
204
330
1EF
100
AcDbEntity
  8
dessin 2D
100
AcDbVertex
100
AcDb2dVertex
 10
787.2198457866726
 20
817.5792069097804
 30
0.0
  0
VERTEX
  5
205
330
1EF
100
AcDbEntity
  8
dessin 2D
100
AcDbVertex
100
AcDb2dVertex
 10
787.2192548583506
 20
817.5798586072353
 30
0.0
  0
VERTEX
  5
206
330
1EF
100
AcDbEntity
  8
dessin 2D
100
AcDbVertex
100
AcDb2dVertex
 10
787.2186293323052
 20
817.5805105969
 30
0.0
  0
VERTEX
  5
207
330
1EF
100
AcDbEntity
  8
dessin 2D
100
AcDbVertex
100
AcDb2dVertex
 10
787.2179692434577
 20
817.5811628753846
 30
0.0
  0
VERTEX
  5
208
330
1EF
100
AcDbEntity
  8
dessin 2D
100
AcDbVertex
100
AcDb2dVertex
 10
787.2172746267297
 20
817.5818154392996
 30
0.0
  0
VERTEX
  5
209
330
1EF
100
AcDbEntity
  8
dessin 2D
100
AcDbVertex
100
AcDb2dVertex
 10
787.2165455170423
 20
817.5824682852555
 30
0.0
  0
VERTEX
  5
20A
330
1EF
100
AcDbEntity
  8
dessin 2D
100
AcDbVertex
100
AcDb2dVertex
 10
787.2157819493168
 20
817.5831214098625
 30
0.0
  0
VERTEX
  5
20B
330
1EF
100
AcDbEntity
  8
dessin 2D
100
AcDbVertex
100
AcDb2dVertex
 10
787.2149839584747
 20
817.583774809731
 30
0.0
  0
VERTEX
  5
20C
330
1EF
100
AcDbEntity
  8
dessin 2D
100
AcDbVertex
100
AcDb2dVertex
 10
787.2141515794369
 20
817.5844284814716
 30
0.0
  0
VERTEX
  5
20D
330
1EF
100
AcDbEntity
  8
dessin 2D
100
AcDbVertex
100
AcDb2dVertex
 10
787.2132848471252
 20
817.5850824216944
 30
0.0
  0
VERTEX
  5
20E
330
1EF
100
AcDbEntity
  8
dessin 2D
100
AcDbVertex
100
AcDb2dVertex
 10
787.2123837964607
 20
817.58573662701
 30
0.0
  0
VERTEX
  5
20F
330
1EF
100
AcDbEntity
  8
dessin 2D
100
AcDbVertex
100
AcDb2dVertex
 10
787.2104788797585
 20
817.5870458193608
 30
0.0
  0
VERTEX
  5
210
330
1EF
100
AcDbEntity
  8
dessin 2D
100
AcDbVertex
100
AcDb2dVertex
 10
787.2084371087009
 20
817.5883560314073
 30
0.0
  0
VERTEX
  5
211
330
1EF
100
AcDbEntity
  8
dessin 2D
100
AcDbVertex
100
AcDb2dVertex
 10
787.2062587626584
 20
817.5896672360324
 30
0.0
  0
VERTEX
  5
212
330
1EF
100
AcDbEntity
  8
dessin 2D
100
AcDbVertex
100
AcDb2dVertex
 10
787.2039441210015
 20
817.5909794061192
 30
0.0
  0
VERTEX
  5
213
330
1EF
100
AcDbEntity
  8
dessin 2D
100
AcDbVertex
100
AcDb2dVertex
 10
787.2014934631007
 20
817.592292514551
 30
0.0
  0
VERTEX
  5
214
330
1EF
100
AcDbEntity
  8
dessin 2D
100
AcDbVertex
100
AcDb2dVertex
 10
787.1989070683264
 20
817.5936065342107
 30
0.0
  0
VERTEX
  5
215
330
1EF
100
AcDbEntity
  8
dessin 2D
100
AcDbVertex
100
AcDb2dVertex
 10
787.1961852160493
 20
817.5949214379816
 30
0.0
  0
VERTEX
  5
216
330
1EF
100
AcDbEntity
  8
dessin 2D
100
AcDbVertex
100
AcDb2dVertex
 10
787.19332818564
 20
817.5962371987468
 30
0.0
  0
VERTEX
  5
217
330
1EF
100
AcDbEntity
  8
dessin 2D
100
AcDbVertex
100
AcDb2dVertex
 10
787.1872097079062
 20
817.5988711827922
 30
0.0
  0
VERTEX
  5
218
330
1EF
100
AcDbEntity
  8
dessin 2D
100
AcDbVertex
100
AcDb2dVertex
 10
787.1805538700892
 20
817.6015082694117
 30
0.0
  0
VERTEX
  5
219
330
1EF
100
AcDbEntity
  8
dessin 2D
100
AcDbVertex
100
AcDb2dVertex
 10
787.1733629071529
 20
817.6041482416704
 30
0.0
  0
VERTEX
  5
21A
330
1EF
100
AcDbEntity
  8
dessin 2D
100
AcDbVertex
100
AcDb2dVertex
 10
787.1656390540616
 20
817.6067908826329
 30
0.0
  0
VERTEX
  5
21B
330
1EF
100
AcDbEntity
  8
dessin 2D
100
AcDbVertex
100
AcDb2dVertex
 10
787.1486016172701
 20
817.6120833029292
 30
0.0
  0
VERTEX
  5
21C
330
1EF
100
AcDbEntity
  8
dessin 2D
100
AcDbVertex
100
AcDb2dVertex
 10
787.1294594394271
 20
817.61738379482
 30
0.0
  0
VERTEX
  5
21D
330
1EF
100
AcDbEntity
  8
dessin 2D
100
AcDbVertex
100
AcDb2dVertex
 10
787.1082304002457
 20
817.6226906228237
 30
0.0
  0
VERTEX
  5
21E
330
1EF
100
AcDbEntity
  8
dessin 2D
100
AcDbVertex
100
AcDb2dVertex
 10
787.0849323794384
 20
817.6280020514596
 30
0.0
  0
VERTEX
  5
21F
330
1EF
100
AcDbEntity
  8
dessin 2D
100
AcDbVertex
100
AcDb2dVertex
 10
787.0322009117974
 20
817.6386317687036
 30
0.0
  0
VERTEX
  5
220
330
1EF
100
AcDbEntity
  8
dessin 2D
100
AcDbVertex
100
AcDb2dVertex
 10
786.9714080742052
 20
817.649259062704
 30
0.0
  0
VERTEX
  5
221
330
1EF
100
AcDbEntity
  8
dessin 2D
100
AcDbVertex
100
AcDb2dVertex
 10
786.9026969043637
 20
817.6598700496122
 30
0.0
  0
VERTEX
  5
222
330
1EF
100
AcDbEntity
  8
dessin 2D
100
AcDbVertex
100
AcDb2dVertex
 10
786.675611262483
 20
817.6885805922618
 30
0.0
  0
VERTEX
  5
223
330
1EF
100
AcDbEntity
  8
dessin 2D
100
AcDbVertex
100
AcDb2dVertex
 10
786.3950171926183
 20
817.715974643997
 30
0.0
  0
VERTEX
  5
224
330
1EF
100
AcDbEntity
  8
dessin 2D
100
AcDbVertex
100
AcDb2dVertex
 10
785.9219067793281
 20
817.7501011401112
 30
0.0
  0
VERTEX
  5
225
330
1EF
100
AcDbEntity
  8
dessin 2D
100
AcDbVertex
100
AcDb2dVertex
 10
785.3736227191985
 20
817.7766331327648
 30
0.0
  0
VERTEX
  5
226
330
1EF
100
AcDbEntity
  8
dessin 2D
100
AcDbVertex
100
AcDb2dVertex
 10
784.8112309402527
 20
817.7922704434533
 30
0.0
  0
VERTEX
  5
227
330
1EF
100
AcDbEntity
  8
dessin 2D
100
AcDbVertex
100
AcDb2dVertex
 10
784.2248037809718
 20
817.7976616405044
 30
0.0
  0
VERTEX
  5
228
330
1EF
100
AcDbEntity
  8
dessin 2D
100
AcDbVertex
100
AcDb2dVertex
 10
774.1256196689328
 20
817.7976616405044
 30
0.0
  0
VERTEX
  5
229
330
1EF
100
AcDbEntity
  8
dessin 2D
100
AcDbVertex
100
AcDb2dVertex
 10
773.470276775392
 20
817.7909128279338
 30
0.0
  0
VERTEX
  5
22A
330
1EF
100
AcDbEntity
  8
dessin 2D
100
AcDbVertex
100
AcDb2dVertex
 10
772.8481512541541
 20
817.7715089308354
 30
0.0
  0
VERTEX
  5
22B
330
1EF
100
AcDbEntity
  8
dessin 2D
100
AcDbVertex
100
AcDb2dVertex
 10
772.4279990155861
 20
817.7500798457461
 30
0.0
  0
VERTEX
  5
22C
330
1EF
100
AcDbEntity
  8
dessin 2D
100
AcDbVertex
100
AcDb2dVertex
 10
772.0534240910047
 20
817.724031012988
 30
0.0
  0
VERTEX
  5
22D
330
1EF
100
AcDbEntity
  8
dessin 2D
100
AcDbVertex
100
AcDb2dVertex
 10
771.732638837517
 20
817.6947625438697
 30
0.0
  0
VERTEX
  5
22E
330
1EF
100
AcDbEntity
  8
dessin 2D
100
AcDbVertex
100
AcDb2dVertex
 10
771.5949836990294
 20
817.6793584804597
 30
0.0
  0
VERTEX
  5
22F
330
1EF
100
AcDbEntity
  8
dessin 2D
100
AcDbVertex
100
AcDb2dVertex
 10
771.47385561223
 20
817.6636745497003
 30
0.0
  0
VERTEX
  5
230
330
1EF
100
AcDbEntity
  8
dessin 2D
100
AcDbVertex
100
AcDb2dVertex
 10
771.3993406338842
 20
817.6526055805564
 30
0.0
  0
VERTEX
  5
231
330
1EF
100
AcDbEntity
  8
dessin 2D
100
AcDbVertex
100
AcDb2dVertex
 10
771.3335473158312
 20
817.6415044394753
 30
0.0
  0
VERTEX
  5
232
330
1EF
100
AcDbEntity
  8
dessin 2D
100
AcDbVertex
100
AcDb2dVertex
 10
771.276579556775
 20
817.63039043126
 30
0.0
  0
VERTEX
  5
233
330
1EF
100
AcDbEntity
  8
dessin 2D
100
AcDbVertex
100
AcDb2dVertex
 10
771.2514377302157
 20
817.624834634728
 30
0.0
  0
VERTEX
  5
234
330
1EF
100
AcDbEntity
  8
dessin 2D
100
AcDbVertex
100
AcDb2dVertex
 10
771.2285412554194
 20
817.6192828607135
 30
0.0
  0
VERTEX
  5
235
330
1EF
100
AcDbEntity
  8
dessin 2D
100
AcDbVertex
100
AcDb2dVertex
 10
771.2079031197243
 20
817.6137375223168
 30
0.0
  0
VERTEX
  5
236
330
1EF
100
AcDbEntity
  8
dessin 2D
100
AcDbVertex
100
AcDb2dVertex
 10
771.1895363104684
 20
817.6082010326385
 30
0.0
  0
VERTEX
  5
237
330
1EF
100
AcDbEntity
  8
dessin 2D
100
AcDbVertex
100
AcDb2dVertex
 10
771.1812087117981
 20
817.6054368601624
 30
0.0
  0
VERTEX
  5
238
330
1EF
100
AcDbEntity
  8
dessin 2D
100
AcDbVertex
100
AcDb2dVertex
 10
771.1734538149896
 20
817.6026758047786
 30
0.0
  0
VERTEX
  5
239
330
1EF
100
AcDbEntity
  8
dessin 2D
100
AcDbVertex
100
AcDb2dVertex
 10
771.1662732434597
 20
817.5999181681245
 30
0.0
  0
VERTEX
  5
23A
330
1EF
100
AcDbEntity
  8
dessin 2D
100
AcDbVertex
100
AcDb2dVertex
 10
771.1596686206258
 20
817.5971642518379
 30
0.0
  0
VERTEX
  5
23B
330
1EF
100
AcDbEntity
  8
dessin 2D
100
AcDbVertex
100
AcDb2dVertex
 10
771.1565827972878
 20
817.5957887830939
 30
0.0
  0
VERTEX
  5
23C
330
1EF
100
AcDbEntity
  8
dessin 2D
100
AcDbVertex
100
AcDb2dVertex
 10
771.1536415699053
 20
817.5944143575558
 30
0.0
  0
VERTEX
  5
23D
330
1EF
100
AcDbEntity
  8
dessin 2D
100
AcDbVertex
100
AcDb2dVertex
 10
771.1508451414054
 20
817.5930410129283
 30
0.0
  0
VERTEX
  5
23E
330
1EF
100
AcDbEntity
  8
dessin 2D
100
AcDbVertex
100
AcDb2dVertex
 10
771.1481937147153
 20
817.5916687869162
 30
0.0
  0
VERTEX
  5
23F
330
1EF
100
AcDbEntity
  8
dessin 2D
100
AcDbVertex
100
AcDb2dVertex
 10
771.1456874927621
 20
817.5902977172241
 30
0.0
  0
VERTEX
  5
240
330
1EF
100
AcDbEntity
  8
dessin 2D
100
AcDbVertex
100
AcDb2dVertex
 10
771.1433266784729
 20
817.5889278415566
 30
0.0
  0
VERTEX
  5
241
330
1EF
100
AcDbEntity
  8
dessin 2D
100
AcDbVertex
100
AcDb2dVertex
 10
771.1411114747751
 20
817.5875591976185
 30
0.0
  0
VERTEX
  5
242
330
1EF
100
AcDbEntity
  8
dessin 2D
100
AcDbVertex
100
AcDb2dVertex
 10
771.1390420845958
 20
817.5861918231144
 30
0.0
  0
VERTEX
  5
243
330
1EF
100
AcDbEntity
  8
dessin 2D
100
AcDbVertex
100
AcDb2dVertex
 10
771.1380621329902
 20
817.5855086236828
 30
0.0
  0
VERTEX
  5
244
330
1EF
100
AcDbEntity
  8
dessin 2D
100
AcDbVertex
100
AcDb2dVertex
 10
771.137118710862
 20
817.5848257557491
 30
0.0
  0
VERTEX
  5
245
330
1EF
100
AcDbEntity
  8
dessin 2D
100
AcDbVertex
100
AcDb2dVertex
 10
771.1362118435768
 20
817.5841432240261
 30
0.0
  0
VERTEX
  5
246
330
1EF
100
AcDbEntity
  8
dessin 2D
100
AcDbVertex
100
AcDb2dVertex
 10
771.1353415565009
 20
817.5834610332272
 30
0.0
  0
VERTEX
  5
247
330
1EF
100
AcDbEntity
  8
dessin 2D
100
AcDbVertex
100
AcDb2dVertex
 10
771.1345078749998
 20
817.5827791880652
 30
0.0
  0
VERTEX
  5
248
330
1EF
100
AcDbEntity
  8
dessin 2D
100
AcDbVertex
100
AcDb2dVertex
 10
771.1337108244395
 20
817.5820976932534
 30
0.0
  0
VERTEX
  5
249
330
1EF
100
AcDbEntity
  8
dessin 2D
100
AcDbVertex
100
AcDb2dVertex
 10
771.1329504301862
 20
817.5814165535048
 30
0.0
  0
VERTEX
  5
24A
330
1EF
100
AcDbEntity
  8
dessin 2D
100
AcDbVertex
100
AcDb2dVertex
 10
771.1322267176054
 20
817.5807357735324
 30
0.0
  0
VERTEX
  5
24B
330
1EF
100
AcDbEntity
  8
dessin 2D
100
AcDbVertex
100
AcDb2dVertex
 10
771.1315397120632
 20
817.5800553580493
 30
0.0
  0
VERTEX
  5
24C
330
1EF
100
AcDbEntity
  8
dessin 2D
100
AcDbVertex
100
AcDb2dVertex
 10
771.1308894389255
 20
817.5793753117689
 30
0.0
  0
VERTEX
  5
24D
330
1EF
100
AcDbEntity
  8
dessin 2D
100
AcDbVertex
100
AcDb2dVertex
 10
771.1302759235581
 20
817.578695639404
 30
0.0
  0
VERTEX
  5
24E
330
1EF
100
AcDbEntity
  8
dessin 2D
100
AcDbVertex
100
AcDb2dVertex
 10
771.1296991913268
 20
817.5780163456677
 30
0.0
  0
VERTEX
  5
24F
330
1EF
100
AcDbEntity
  8
dessin 2D
100
AcDbVertex
100
AcDb2dVertex
 10
771.1291592675977
 20
817.5773374352732
 30
0.0
  0
VERTEX
  5
250
330
1EF
100
AcDbEntity
  8
dessin 2D
100
AcDbVertex
100
AcDb2dVertex
 10
771.1286561777367
 20
817.5766589129335
 30
0.0
  0
VERTEX
  5
251
330
1EF
100
AcDbEntity
  8
dessin 2D
100
AcDbVertex
100
AcDb2dVertex
 10
771.1284184534335
 20
817.5763197987569
 30
0.0
  0
VERTEX
  5
252
330
1EF
100
AcDbEntity
  8
dessin 2D
100
AcDbVertex
100
AcDb2dVertex
 10
771.1281899471096
 20
817.5759807833617
 30
0.0
  0
VERTEX
  5
253
330
1EF
100
AcDbEntity
  8
dessin 2D
100
AcDbVertex
100
AcDb2dVertex
 10
771.1279706619356
 20
817.5756418673366
 30
0.0
  0
VERTEX
  5
254
330
1EF
100
AcDbEntity
  8
dessin 2D
100
AcDbVertex
100
AcDb2dVertex
 10
771.1277606010822
 20
817.5753030512708
 30
0.0
  0
VERTEX
  5
255
330
1EF
100
AcDbEntity
  8
dessin 2D
100
AcDbVertex
100
AcDb2dVertex
 10
771.1274715860806
 20
817.5747894593403
 30
0.0
  0
VERTEX
  5
256
330
1EF
100
AcDbEntity
  8
dessin 2D
100
AcDbVertex
100
AcDb2dVertex
 10
771.1272035113807
 20
817.5742759379966
 30
0.0
  0
VERTEX
  5
257
330
1EF
100
AcDbEntity
  8
dessin 2D
100
AcDbVertex
100
AcDb2dVertex
 10
771.1269563788131
 20
817.5737624908587
 30
0.0
  0
VERTEX
  5
258
330
1EF
100
AcDbEntity
  8
dessin 2D
100
AcDbVertex
100
AcDb2dVertex
 10
771.1267301902081
 20
817.5732491215458
 30
0.0
  0
VERTEX
  5
259
330
1EF
100
AcDbEntity
  8
dessin 2D
100
AcDbVertex
100
AcDb2dVertex
 10
771.1266249504636
 20
817.5729924672046
 30
0.0
  0
VERTEX
  5
25A
330
1EF
100
AcDbEntity
  8
dessin 2D
100
AcDbVertex
100
AcDb2dVertex
 10
771.1265249473963
 20
817.5727358336767
 30
0.0
  0
VERTEX
  5
25B
330
1EF
100
AcDbEntity
  8
dessin 2D
100
AcDbVertex
100
AcDb2dVertex
 10
771.1264301812348
 20
817.5724792214146
 30
0.0
  0
VERTEX
  5
25C
330
1EF
100
AcDbEntity
  8
dessin 2D
100
AcDbVertex
100
AcDb2dVertex
 10
771.126340652208
 20
817.5722226308707
 30
0.0
  0
VERTEX
  5
25D
330
1EF
100
AcDbEntity
  8
dessin 2D
100
AcDbVertex
100
AcDb2dVertex
 10
771.1262563605446
 20
817.5719660624973
 30
0.0
  0
VERTEX
  5
25E
330
1EF
100
AcDbEntity
  8
dessin 2D
100
AcDbVertex
100
AcDb2dVertex
 10
771.1261773064737
 20
817.5717095167469
 30
0.0
  0
VERTEX
  5
25F
330
1EF
100
AcDbEntity
  8
dessin 2D
100
AcDbVertex
100
AcDb2dVertex
 10
771.1261034902236
 20
817.5714529940717
 30
0.0
  0
VERTEX
  5
260
330
1EF
100
AcDbEntity
  8
dessin 2D
100
AcDbVertex
100
AcDb2dVertex
 10
771.1260349120236
 20
817.571196494924
 30
0.0
  0
VERTEX
  5
261
330
1EF
100
AcDbEntity
  8
dessin 2D
100
AcDbVertex
100
AcDb2dVertex
 10
771.0765739249434
 20
817.1005294727088
 30
0.0
 42
-0.111179520267405
  0
VERTEX
  5
262
330
1EF
100
AcDbEntity
  8
dessin 2D
100
AcDbVertex
100
AcDb2dVertex
 10
770.9708385640694
 20
816.7286947027678
 30
0.0
 42
-0.3414361871078972
  0
VERTEX
  5
263
330
1EF
100
AcDbEntity
  8
dessin 2D
100
AcDbVertex
100
AcDb2dVertex
 10
770.74414475751
 20
816.6188079775585
 30
0.0
  0
VERTEX
  5
264
330
1EF
100
AcDbEntity
  8
dessin 2D
100
AcDbVertex
100
AcDb2dVertex
 10
770.7418340798097
 20
816.620430698996
 30
0.0
  0
VERTEX
  5
265
330
1EF
100
AcDbEntity
  8
dessin 2D
100
AcDbVertex
100
AcDb2dVertex
 10
770.7395235353041
 20
816.6221492947936
 30
0.0
  0
VERTEX
  5
266
330
1EF
100
AcDbEntity
  8
dessin 2D
100
AcDbVertex
100
AcDb2dVertex
 10
770.7372131235657
 20
816.6239631965746
 30
0.0
  0
VERTEX
  5
267
330
1EF
100
AcDbEntity
  8
dessin 2D
100
AcDbVertex
100
AcDb2dVertex
 10
770.734902844167
 20
816.6258718359617
 30
0.0
  0
VERTEX
  5
268
330
1EF
100
AcDbEntity
  8
dessin 2D
100
AcDbVertex
100
AcDb2dVertex
 10
770.7325926966801
 20
816.6278746445778
 30
0.0
  0
VERTEX
  5
269
330
1EF
100
AcDbEntity
  8
dessin 2D
100
AcDbVertex
100
AcDb2dVertex
 10
770.7302826806771
 20
816.6299710540457
 30
0.0
  0
VERTEX
  5
26A
330
1EF
100
AcDbEntity
  8
dessin 2D
100
AcDbVertex
100
AcDb2dVertex
 10
770.7279727957307
 20
816.6321604959884
 30
0.0
  0
VERTEX
  5
26B
330
1EF
100
AcDbEntity
  8
dessin 2D
100
AcDbVertex
100
AcDb2dVertex
 10
770.7256630414129
 20
816.634442402029
 30
0.0
  0
VERTEX
  5
26C
330
1EF
100
AcDbEntity
  8
dessin 2D
100
AcDbVertex
100
AcDb2dVertex
 10
770.7233534172962
 20
816.6368162037902
 30
0.0
  0
VERTEX
  5
26D
330
1EF
100
AcDbEntity
  8
dessin 2D
100
AcDbVertex
100
AcDb2dVertex
 10
770.7210439229527
 20
816.6392813328948
 30
0.0
  0
VERTEX
  5
26E
330
1EF
100
AcDbEntity
  8
dessin 2D
100
AcDbVertex
100
AcDb2dVertex
 10
770.716425321875
 20
816.6444832996262
 30
0.0
  0
VERTEX
  5
26F
330
1EF
100
AcDbEntity
  8
dessin 2D
100
AcDbVertex
100
AcDb2dVertex
 10
770.7118072347582
 20
816.6500437552068
 30
0.0
  0
VERTEX
  5
270
330
1EF
100
AcDbEntity
  8
dessin 2D
100
AcDbVertex
100
AcDb2dVertex
 10
770.7071896581808
 20
816.6559581526194
 30
0.0
  0
VERTEX
  5
271
330
1EF
100
AcDbEntity
  8
dessin 2D
100
AcDbVertex
100
AcDb2dVertex
 10
770.7025725887211
 20
816.6622219448474
 30
0.0
  0
VERTEX
  5
272
330
1EF
100
AcDbEntity
  8
dessin 2D
100
AcDbVertex
100
AcDb2dVertex
 10
770.6979560229577
 20
816.6688305848741
 30
0.0
  0
VERTEX
  5
273
330
1EF
100
AcDbEntity
  8
dessin 2D
100
AcDbVertex
100
AcDb2dVertex
 10
770.6933399574687
 20
816.6757795256825
 30
0.0
  0
VERTEX
  5
274
330
1EF
100
AcDbEntity
  8
dessin 2D
100
AcDbVertex
100
AcDb2dVertex
 10
770.6887243888327
 20
816.683064220256
 30
0.0
  0
VERTEX
  5
275
330
1EF
100
AcDbEntity
  8
dessin 2D
100
AcDbVertex
100
AcDb2dVertex
 10
770.6841093136283
 20
816.6906801215779
 30
0.0
  0
VERTEX
  5
276
330
1EF
100
AcDbEntity
  8
dessin 2D
100
AcDbVertex
100
AcDb2dVertex
 10
770.6794947284336
 20
816.6986226826311
 30
0.0
  0
VERTEX
  5
277
330
1EF
100
AcDbEntity
  8
dessin 2D
100
AcDbVertex
100
AcDb2dVertex
 10
770.6702670143877
 20
816.7154695958652
 30
0.0
  0
VERTEX
  5
278
330
1EF
100
AcDbEntity
  8
dessin 2D
100
AcDbVertex
100
AcDb2dVertex
 10
770.6610412193223
 20
816.7335685838239
 30
0.0
  0
VERTEX
  5
279
330
1EF
100
AcDbEntity
  8
dessin 2D
100
AcDbVertex
100
AcDb2dVertex
 10
770.6518173158648
 20
816.752883270373
 30
0.0
  0
VERTEX
  5
27A
330
1EF
100
AcDbEntity
  8
dessin 2D
100
AcDbVertex
100
AcDb2dVertex
 10
770.6425952766426
 20
816.7733772793783
 30
0.0
  0
VERTEX
  5
27B
330
1EF
100
AcDbEntity
  8
dessin 2D
100
AcDbVertex
100
AcDb2dVertex
 10
770.6333750742831
 20
816.7950142347058
 30
0.0
  0
VERTEX
  5
27C
330
1EF
100
AcDbEntity
  8
dessin 2D
100
AcDbVertex
100
AcDb2dVertex
 10
770.6149400706613
 20
816.84157147979
 30
0.0
  0
VERTEX
  5
27D
330
1EF
100
AcDbEntity
  8
dessin 2D
100
AcDbVertex
100
AcDb2dVertex
 10
770.5965120860188
 20
816.8922639965516
 30
0.0
  0
VERTEX
  5
27E
330
1EF
100
AcDbEntity
  8
dessin 2D
100
AcDbVertex
100
AcDb2dVertex
 10
770.5780909013745
 20
816.946800775917
 30
0.0
  0
VERTEX
  5
27F
330
1EF
100
AcDbEntity
  8
dessin 2D
100
AcDbVertex
100
AcDb2dVertex
 10
770.5596762977475
 20
817.0048908088125
 30
0.0
  0
VERTEX
  5
280
330
1EF
100
AcDbEntity
  8
dessin 2D
100
AcDbVertex
100
AcDb2dVertex
 10
770.5228659576214
 20
817.1305665988989
 30
0.0
  0
VERTEX
  5
281
330
1EF
100
AcDbEntity
  8
dessin 2D
100
AcDbVertex
100
AcDb2dVertex
 10
770.4493146144143
 20
817.411752822188
 30
0.0
  0
VERTEX
  5
282
330
1EF
100
AcDbEntity
  8
dessin 2D
100
AcDbVertex
100
AcDb2dVertex
 10
770.3319256386009
 20
817.8461030460144
 30
0.0
  0
VERTEX
  5
283
330
1EF
100
AcDbEntity
  8
dessin 2D
100
AcDbVertex
100
AcDb2dVertex
 10
770.3245073099686
 20
817.8644276340801
 30
0.0
  0
VERTEX
  5
284
330
1EF
100
AcDbEntity
  8
dessin 2D
100
AcDbVertex
100
AcDb2dVertex
 10
770.3207977291547
 20
817.872905284857
 30
0.0
  0
VERTEX
  5
285
330
1EF
100
AcDbEntity
  8
dessin 2D
100
AcDbVertex
100
AcDb2dVertex
 10
770.3170878860356
 20
817.8809052115159
 30
0.0
  0
VERTEX
  5
286
330
1EF
100
AcDbEntity
  8
dessin 2D
100
AcDbVertex
100
AcDb2dVertex
 10
770.3133777921312
 20
817.8884114425962
 30
0.0
  0
VERTEX
  5
287
330
1EF
100
AcDbEntity
  8
dessin 2D
100
AcDbVertex
100
AcDb2dVertex
 10
770.3096674589613
 20
817.8954080066374
 30
0.0
  0
VERTEX
  5
288
330
1EF
100
AcDbEntity
  8
dessin 2D
100
AcDbVertex
100
AcDb2dVertex
 10
770.3078122062517
 20
817.898710172437
 30
0.0
  0
VERTEX
  5
289
330
1EF
100
AcDbEntity
  8
dessin 2D
100
AcDbVertex
100
AcDb2dVertex
 10
770.3059568980457
 20
817.901878932179
 30
0.0
  0
VERTEX
  5
28A
330
1EF
100
AcDbEntity
  8
dessin 2D
100
AcDbVertex
100
AcDb2dVertex
 10
770.3041015357833
 20
817.9049122894311
 30
0.0
  0
VERTEX
  5
28B
330
1EF
100
AcDbEntity
  8
dessin 2D
100
AcDbVertex
100
AcDb2dVertex
 10
770.3022461209043
 20
817.9078082477605
 30
0.0
  0
VERTEX
  5
28C
330
1EF
100
AcDbEntity
  8
dessin 2D
100
AcDbVertex
100
AcDb2dVertex
 10
770.300390654849
 20
817.9105648107347
 30
0.0
  0
VERTEX
  5
28D
330
1EF
100
AcDbEntity
  8
dessin 2D
100
AcDbVertex
100
AcDb2dVertex
 10
770.2985351390571
 20
817.9131799819213
 30
0.0
  0
VERTEX
  5
28E
330
1EF
100
AcDbEntity
  8
dessin 2D
100
AcDbVertex
100
AcDb2dVertex
 10
770.2966795749687
 20
817.9156517648876
 30
0.0
  0
VERTEX
  5
28F
330
1EF
100
AcDbEntity
  8
dessin 2D
100
AcDbVertex
100
AcDb2dVertex
 10
770.2948239640239
 20
817.9179781632008
 30
0.0
  0
VERTEX
  5
290
330
1EF
100
AcDbEntity
  8
dessin 2D
100
AcDbVertex
100
AcDb2dVertex
 10
770.2929683076625
 20
817.9201571804286
 30
0.0
  0
VERTEX
  5
291
330
1EF
100
AcDbEntity
  8
dessin 2D
100
AcDbVertex
100
AcDb2dVertex
 10
770.2920404629006
 20
817.9211907972503
 30
0.0
  0
VERTEX
  5
292
330
1EF
100
AcDbEntity
  8
dessin 2D
100
AcDbVertex
100
AcDb2dVertex
 10
770.2911126073245
 20
817.9221868201387
 30
0.0
  0
VERTEX
  5
293
330
1EF
100
AcDbEntity
  8
dessin 2D
100
AcDbVertex
100
AcDb2dVertex
 10
770.2901847411144
 20
817.9231449995391
 30
0.0
  0
VERTEX
  5
294
330
1EF
100
AcDbEntity
  8
dessin 2D
100
AcDbVertex
100
AcDb2dVertex
 10
770.2892568644502
 20
817.924065085898
 30
0.0
  0
VERTEX
  5
295
330
1EF
100
AcDbEntity
  8
dessin 2D
100
AcDbVertex
100
AcDb2dVertex
 10
770.2883289775117
 20
817.9249468296609
 30
0.0
  0
VERTEX
  5
296
330
1EF
100
AcDbEntity
  8
dessin 2D
100
AcDbVertex
100
AcDb2dVertex
 10
770.2874010804791
 20
817.925789981274
 30
0.0
  0
VERTEX
  5
297
330
1EF
100
AcDbEntity
  8
dessin 2D
100
AcDbVertex
100
AcDb2dVertex
 10
770.2864731735324
 20
817.9265942911832
 30
0.0
  0
VERTEX
  5
298
330
1EF
100
AcDbEntity
  8
dessin 2D
100
AcDbVertex
100
AcDb2dVertex
 10
770.2855452568515
 20
817.9273595098343
 30
0.0
  0
VERTEX
  5
299
330
1EF
100
AcDbEntity
  8
dessin 2D
100
AcDbVertex
100
AcDb2dVertex
 10
770.2846173306164
 20
817.9280853876735
 30
0.0
  0
VERTEX
  5
29A
330
1EF
100
AcDbEntity
  8
dessin 2D
100
AcDbVertex
100
AcDb2dVertex
 10
770.2836893950072
 20
817.9287716751465
 30
0.0
  0
VERTEX
  5
29B
330
1EF
100
AcDbEntity
  8
dessin 2D
100
AcDbVertex
100
AcDb2dVertex
 10
770.2827614502039
 20
817.9294181226994
 30
0.0
  0
VERTEX
  5
29C
330
1EF
100
AcDbEntity
  8
dessin 2D
100
AcDbVertex
100
AcDb2dVertex
 10
770.2818334963863
 20
817.930024480778
 30
0.0
  0
VERTEX
  5
29D
330
1EF
100
AcDbEntity
  8
dessin 2D
100
AcDbVertex
100
AcDb2dVertex
 10
770.2809055337345
 20
817.9305904998281
 30
0.0
  0
VERTEX
  5
29E
330
1EF
100
AcDbEntity
  8
dessin 2D
100
AcDbVertex
100
AcDb2dVertex
 10
770.2799775624288
 20
817.9311159302958
 30
0.0
  0
VERTEX
  5
29F
330
1EF
100
AcDbEntity
  8
dessin 2D
100
AcDbVertex
100
AcDb2dVertex
 10
770.2790495826489
 20
817.9316005226271
 30
0.0
  0
VERTEX
  5
2A0
330
1EF
100
AcDbEntity
  8
dessin 2D
100
AcDbVertex
100
AcDb2dVertex
 10
770.2785855896374
 20
817.931827426506
 30
0.0
  0
VERTEX
  5
2A1
330
1EF
100
AcDbEntity
  8
dessin 2D
100
AcDbVertex
100
AcDb2dVertex
 10
770.2781215945747
 20
817.9320440272678
 30
0.0
  0
VERTEX
  5
2A2
330
1EF
100
AcDbEntity
  8
dessin 2D
100
AcDbVertex
100
AcDb2dVertex
 10
770.2776575974835
 20
817.9322502937187
 30
0.0
  0
VERTEX
  5
2A3
330
1EF
100
AcDbEntity
  8
dessin 2D
100
AcDbVertex
100
AcDb2dVertex
 10
770.2771935983862
 20
817.932446194664
 30
0.0
  0
VERTEX
  5
2A4
330
1EF
100
AcDbEntity
  8
dessin 2D
100
AcDbVertex
100
AcDb2dVertex
 10
770.2767295973056
 20
817.9326316989095
 30
0.0
  0
VERTEX
  5
2A5
330
1EF
100
AcDbEntity
  8
dessin 2D
100
AcDbVertex
100
AcDb2dVertex
 10
770.2762655942638
 20
817.9328067752613
 30
0.0
  0
VERTEX
  5
2A6
330
1EF
100
AcDbEntity
  8
dessin 2D
100
AcDbVertex
100
AcDb2dVertex
 10
770.2758015892834
 20
817.9329713925247
 30
0.0
  0
VERTEX
  5
2A7
330
1EF
100
AcDbEntity
  8
dessin 2D
100
AcDbVertex
100
AcDb2dVertex
 10
770.2753375823871
 20
817.9331255195058
 30
0.0
  0
VERTEX
  5
2A8
330
1EF
100
AcDbEntity
  8
dessin 2D
100
AcDbVertex
100
AcDb2dVertex
 10
770.2748735735972
 20
817.9332691250102
 30
0.0
  0
VERTEX
  5
2A9
330
1EF
100
AcDbEntity
  8
dessin 2D
100
AcDbVertex
100
AcDb2dVertex
 10
770.2744095629364
 20
817.9334021778436
 30
0.0
  0
VERTEX
  5
2AA
330
1EF
100
AcDbEntity
  8
dessin 2D
100
AcDbVertex
100
AcDb2dVertex
 10
770.2739455504268
 20
817.9335246468117
 30
0.0
  0
VERTEX
  5
2AB
330
1EF
100
AcDbEntity
  8
dessin 2D
100
AcDbVertex
100
AcDb2dVertex
 10
770.2734815360914
 20
817.9336365007205
 30
0.0
  0
VERTEX
  5
2AC
330
1EF
100
AcDbEntity
  8
dessin 2D
100
AcDbVertex
100
AcDb2dVertex
 10
770.2730175199522
 20
817.9337377083752
 30
0.0
  0
VERTEX
  5
2AD
330
1EF
100
AcDbEntity
  8
dessin 2D
100
AcDbVertex
100
AcDb2dVertex
 10
770.2725535020321
 20
817.9338282385822
 30
0.0
  0
VERTEX
  5
2AE
330
1EF
100
AcDbEntity
  8
dessin 2D
100
AcDbVertex
100
AcDb2dVertex
 10
770.2720894823535
 20
817.9339080601469
 30
0.0
  0
VERTEX
  5
2AF
330
1EF
100
AcDbEntity
  8
dessin 2D
100
AcDbVertex
100
AcDb2dVertex
 10
770.2716254609388
 20
817.9339771418751
 30
0.0
  0
VERTEX
  5
2B0
330
1EF
100
AcDbEntity
  8
dessin 2D
100
AcDbVertex
100
AcDb2dVertex
 10
770.2711614378106
 20
817.9340354525724
 30
0.0
  0
VERTEX
  5
2B1
330
1EF
100
AcDbEntity
  8
dessin 2D
100
AcDbVertex
100
AcDb2dVertex
 10
770.2706974129912
 20
817.9340829610446
 30
0.0
  0
VERTEX
  5
2B2
330
1EF
100
AcDbEntity
  8
dessin 2D
100
AcDbVertex
100
AcDb2dVertex
 10
770.2702333865034
 20
817.9341196360976
 30
0.0
  0
VERTEX
  5
2B3
330
1EF
100
AcDbEntity
  8
dessin 2D
100
AcDbVertex
100
AcDb2dVertex
 10
770.2697693583696
 20
817.9341454465371
 30
0.0
  0
VERTEX
  5
2B4
330
1EF
100
AcDbEntity
  8
dessin 2D
100
AcDbVertex
100
AcDb2dVertex
 10
770.2693053286121
 20
817.9341603611688
 30
0.0
  0
VERTEX
  5
2B5
330
1EF
100
AcDbEntity
  8
dessin 2D
100
AcDbVertex
100
AcDb2dVertex
 10
770.2688412972535
 20
817.9341643487983
 30
0.0
  0
VERTEX
  5
2B6
330
1EF
100
AcDbEntity
  8
dessin 2D
100
AcDbVertex
100
AcDb2dVertex
 10
770.2683772643165
 20
817.9341573782315
 30
0.0
  0
VERTEX
  5
2B7
330
1EF
100
AcDbEntity
  8
dessin 2D
100
AcDbVertex
100
AcDb2dVertex
 10
770.2679132298234
 20
817.9341394182741
 30
0.0
  0
VERTEX
  5
2B8
330
1EF
100
AcDbEntity
  8
dessin 2D
100
AcDbVertex
100
AcDb2dVertex
 10
770.2674491937968
 20
817.9341104377318
 30
0.0
  0
VERTEX
  5
2B9
330
1EF
100
AcDbEntity
  8
dessin 2D
100
AcDbVertex
100
AcDb2dVertex
 10
770.2669851562591
 20
817.9340704054105
 30
0.0
  0
VERTEX
  5
2BA
330
1EF
100
AcDbEntity
  8
dessin 2D
100
AcDbVertex
100
AcDb2dVertex
 10
770.266521117233
 20
817.9340192901157
 30
0.0
  0
VERTEX
  5
2BB
330
1EF
100
AcDbEntity
  8
dessin 2D
100
AcDbVertex
100
AcDb2dVertex
 10
770.2660570767406
 20
817.9339570606533
 30
0.0
  0
VERTEX
  5
2BC
330
1EF
100
AcDbEntity
  8
dessin 2D
100
AcDbVertex
100
AcDb2dVertex
 10
770.2655930348047
 20
817.9338836858291
 30
0.0
  0
VERTEX
  5
2BD
330
1EF
100
AcDbEntity
  8
dessin 2D
100
AcDbVertex
100
AcDb2dVertex
 10
770.2651289914479
 20
817.9337991344487
 30
0.0
  0
VERTEX
  5
2BE
330
1EF
100
AcDbEntity
  8
dessin 2D
100
AcDbVertex
100
AcDb2dVertex
 10
770.2646649466925
 20
817.9337033753179
 30
0.0
  0
VERTEX
  5
2BF
330
1EF
100
AcDbEntity
  8
dessin 2D
100
AcDbVertex
100
AcDb2dVertex
 10
770.264200900561
 20
817.9335963772423
 30
0.0
  0
VERTEX
  5
2C0
330
1EF
100
AcDbEntity
  8
dessin 2D
100
AcDbVertex
100
AcDb2dVertex
 10
770.263736853076
 20
817.9334781090279
 30
0.0
  0
VERTEX
  5
2C1
330
1EF
100
AcDbEntity
  8
dessin 2D
100
AcDbVertex
100
AcDb2dVertex
 10
770.2632728042599
 20
817.9333485394803
 30
0.0
  0
VERTEX
  5
2C2
330
1EF
100
AcDbEntity
  8
dessin 2D
100
AcDbVertex
100
AcDb2dVertex
 10
770.2628087541353
 20
817.9332076374053
 30
0.0
  0
VERTEX
  5
2C3
330
1EF
100
AcDbEntity
  8
dessin 2D
100
AcDbVertex
100
AcDb2dVertex
 10
770.2623447027246
 20
817.9330553716086
 30
0.0
  0
VERTEX
  5
2C4
330
1EF
100
AcDbEntity
  8
dessin 2D
100
AcDbVertex
100
AcDb2dVertex
 10
770.2618806500504
 20
817.9328917108959
 30
0.0
  0
VERTEX
  5
2C5
330
1EF
100
AcDbEntity
  8
dessin 2D
100
AcDbVertex
100
AcDb2dVertex
 10
770.2614165961352
 20
817.932716624073
 30
0.0
  0
VERTEX
  5
2C6
330
1EF
100
AcDbEntity
  8
dessin 2D
100
AcDbVertex
100
AcDb2dVertex
 10
770.2609525410014
 20
817.9325300799456
 30
0.0
  0
VERTEX
  5
2C7
330
1EF
100
AcDbEntity
  8
dessin 2D
100
AcDbVertex
100
AcDb2dVertex
 10
770.2604884846714
 20
817.9323320473195
 30
0.0
  0
VERTEX
  5
2C8
330
1EF
100
AcDbEntity
  8
dessin 2D
100
AcDbVertex
100
AcDb2dVertex
 10
770.260024427168
 20
817.9321224950004
 30
0.0
  0
VERTEX
  5
2C9
330
1EF
100
AcDbEntity
  8
dessin 2D
100
AcDbVertex
100
AcDb2dVertex
 10
770.2595603685136
 20
817.931901391794
 30
0.0
  0
VERTEX
  5
2CA
330
1EF
100
AcDbEntity
  8
dessin 2D
100
AcDbVertex
100
AcDb2dVertex
 10
770.2590963087305
 20
817.9316687065061
 30
0.0
  0
VERTEX
  5
2CB
330
1EF
100
AcDbEntity
  8
dessin 2D
100
AcDbVertex
100
AcDb2dVertex
 10
770.2586322478415
 20
817.9314244079425
 30
0.0
  0
VERTEX
  5
2CC
330
1EF
100
AcDbEntity
  8
dessin 2D
100
AcDbVertex
100
AcDb2dVertex
 10
770.258168185869
 20
817.9311684649088
 30
0.0
  0
VERTEX
  5
2CD
330
1EF
100
AcDbEntity
  8
dessin 2D
100
AcDbVertex
100
AcDb2dVertex
 10
770.2577041228353
 20
817.9309008462108
 30
0.0
  0
VERTEX
  5
2CE
330
1EF
100
AcDbEntity
  8
dessin 2D
100
AcDbVertex
100
AcDb2dVertex
 10
770.257240058763
 20
817.9306215206543
 30
0.0
  0
VERTEX
  5
2CF
330
1EF
100
AcDbEntity
  8
dessin 2D
100
AcDbVertex
100
AcDb2dVertex
 10
770.2567759936749
 20
817.930330457045
 30
0.0
  0
VERTEX
  5
2D0
330
1EF
100
AcDbEntity
  8
dessin 2D
100
AcDbVertex
100
AcDb2dVertex
 10
770.2563119275931
 20
817.9300276241886
 30
0.0
  0
VERTEX
  5
2D1
330
1EF
100
AcDbEntity
  8
dessin 2D
100
AcDbVertex
100
AcDb2dVertex
 10
770.2558478605401
 20
817.9297129908908
 30
0.0
  0
VERTEX
  5
2D2
330
1EF
100
AcDbEntity
  8
dessin 2D
100
AcDbVertex
100
AcDb2dVertex
 10
770.2549197236112
 20
817.9290481981943
 30
0.0
  0
VERTEX
  5
2D3
330
1EF
100
AcDbEntity
  8
dessin 2D
100
AcDbVertex
100
AcDb2dVertex
 10
770.253991583068
 20
817.9283358294015
 30
0.0
  0
VERTEX
  5
2D4
330
1EF
100
AcDbEntity
  8
dessin 2D
100
AcDbVertex
100
AcDb2dVertex
 10
770.2530634390907
 20
817.9275756349581
 30
0.0
  0
VERTEX
  5
2D5
330
1EF
100
AcDbEntity
  8
dessin 2D
100
AcDbVertex
100
AcDb2dVertex
 10
770.2521352918591
 20
817.9267673653102
 30
0.0
  0
VERTEX
  5
2D6
330
1EF
100
AcDbEntity
  8
dessin 2D
100
AcDbVertex
100
AcDb2dVertex
 10
770.2512071415533
 20
817.9259107709036
 30
0.0
  0
VERTEX
  5
2D7
330
1EF
100
AcDbEntity
  8
dessin 2D
100
AcDbVertex
100
AcDb2dVertex
 10
770.2502789883533
 20
817.9250056021845
 30
0.0
  0
VERTEX
  5
2D8
330
1EF
100
AcDbEntity
  8
dessin 2D
100
AcDbVertex
100
AcDb2dVertex
 10
770.249350832439
 20
817.9240516095986
 30
0.0
  0
VERTEX
  5
2D9
330
1EF
100
AcDbEntity
  8
dessin 2D
100
AcDbVertex
100
AcDb2dVertex
 10
770.2484226739905
 20
817.9230485435917
 30
0.0
  0
VERTEX
  5
2DA
330
1EF
100
AcDbEntity
  8
dessin 2D
100
AcDbVertex
100
AcDb2dVertex
 10
770.2474945131877
 20
817.92199615461
 30
0.0
  0
VERTEX
  5
2DB
330
1EF
100
AcDbEntity
  8
dessin 2D
100
AcDbVertex
100
AcDb2dVertex
 10
770.2465663502107
 20
817.9208941930992
 30
0.0
  0
VERTEX
  5
2DC
330
1EF
100
AcDbEntity
  8
dessin 2D
100
AcDbVertex
100
AcDb2dVertex
 10
770.2456381852395
 20
817.9197424095055
 30
0.0
  0
VERTEX
  5
2DD
330
1EF
100
AcDbEntity
  8
dessin 2D
100
AcDbVertex
100
AcDb2dVertex
 10
770.2447100184542
 20
817.9185405542746
 30
0.0
  0
VERTEX
  5
2DE
330
1EF
100
AcDbEntity
  8
dessin 2D
100
AcDbVertex
100
AcDb2dVertex
 10
770.2437818500346
 20
817.9172883778526
 30
0.0
  0
VERTEX
  5
2DF
330
1EF
100
AcDbEntity
  8
dessin 2D
100
AcDbVertex
100
AcDb2dVertex
 10
770.2428536801607
 20
817.9159856306854
 30
0.0
  0
VERTEX
  5
2E0
330
1EF
100
AcDbEntity
  8
dessin 2D
100
AcDbVertex
100
AcDb2dVertex
 10
770.2409973367702
 20
817.9132274258989
 30
0.0
  0
VERTEX
  5
2E1
330
1EF
100
AcDbEntity
  8
dessin 2D
100
AcDbVertex
100
AcDb2dVertex
 10
770.2391409897227
 20
817.9102639434823
 30
0.0
  0
VERTEX
  5
2E2
330
1EF
100
AcDbEntity
  8
dessin 2D
100
AcDbVertex
100
AcDb2dVertex
 10
770.2372846404581
 20
817.9070931870034
 30
0.0
  0
VERTEX
  5
2E3
330
1EF
100
AcDbEntity
  8
dessin 2D
100
AcDbVertex
100
AcDb2dVertex
 10
770.2354282904167
 20
817.9037131600294
 30
0.0
  0
VERTEX
  5
2E4
330
1EF
100
AcDbEntity
  8
dessin 2D
100
AcDbVertex
100
AcDb2dVertex
 10
770.2335719410381
 20
817.9001218661278
 30
0.0
  0
VERTEX
  5
2E5
330
1EF
100
AcDbEntity
  8
dessin 2D
100
AcDbVertex
100
AcDb2dVertex
 10
770.2317155937626
 20
817.8963173088662
 30
0.0
  0
VERTEX
  5
2E6
330
1EF
100
AcDbEntity
  8
dessin 2D
100
AcDbVertex
100
AcDb2dVertex
 10
770.22985925003
 20
817.8922974918116
 30
0.0
  0
VERTEX
  5
2E7
330
1EF
100
AcDbEntity
  8
dessin 2D
100
AcDbVertex
100
AcDb2dVertex
 10
770.2280029112803
 20
817.888060418532
 30
0.0
  0
VERTEX
  5
2E8
330
1EF
100
AcDbEntity
  8
dessin 2D
100
AcDbVertex
100
AcDb2dVertex
 10
770.2242902544896
 20
817.8789265175664
 30
0.0
  0
VERTEX
  5
2E9
330
1EF
100
AcDbEntity
  8
dessin 2D
100
AcDbVertex
100
AcDb2dVertex
 10
770.2205776349105
 20
817.8688996345088
 30
0.0
  0
VERTEX
  5
2EA
330
1EF
100
AcDbEntity
  8
dessin 2D
100
AcDbVertex
100
AcDb2dVertex
 10
770.2168650640627
 20
817.8579637978988
 30
0.0
  0
VERTEX
  5
2EB
330
1EF
100
AcDbEntity
  8
dessin 2D
100
AcDbVertex
100
AcDb2dVertex
 10
770.2131525534662
 20
817.8461030362758
 30
0.0
  0
VERTEX
  5
2EC
330
1EF
100
AcDbEntity
  8
dessin 2D
100
AcDbVertex
100
AcDb2dVertex
 10
770.2086642557028
 20
817.8305055831702
 30
0.0
  0
VERTEX
  5
2ED
330
1EF
100
AcDbEntity
  8
dessin 2D
100
AcDbVertex
100
AcDb2dVertex
 10
770.2041760844054
 20
817.8135046401308
 30
0.0
  0
VERTEX
  5
2EE
330
1EF
100
AcDbEntity
  8
dessin 2D
100
AcDbVertex
100
AcDb2dVertex
 10
770.195200201032
 20
817.7751793841255
 30
0.0
  0
VERTEX
  5
2EF
330
1EF
100
AcDbEntity
  8
dessin 2D
100
AcDbVertex
100
AcDb2dVertex
 10
770.187277285155
 20
817.737852558379
 30
0.0
  0
VERTEX
  5
2F0
330
1EF
100
AcDbEntity
  8
dessin 2D
100
AcDbVertex
100
AcDb2dVertex
 10
770.1793557013491
 20
817.6953879410232
 30
0.0
  0
VERTEX
  5
2F1
330
1EF
100
AcDbEntity
  8
dessin 2D
100
AcDbVertex
100
AcDb2dVertex
 10
770.1714387853484
 20
817.6474221608321
 30
0.0
  0
VERTEX
  5
2F2
330
1EF
100
AcDbEntity
  8
dessin 2D
100
AcDbVertex
100
AcDb2dVertex
 10
770.1635298728872
 20
817.5935918465798
 30
0.0
  0
VERTEX
  5
2F3
330
1EF
100
AcDbEntity
  8
dessin 2D
100
AcDbVertex
100
AcDb2dVertex
 10
770.1477494015201
 20
817.4668841309878
 30
0.0
  0
VERTEX
  5
2F4
330
1EF
100
AcDbEntity
  8
dessin 2D
100
AcDbVertex
100
AcDb2dVertex
 10
770.1320409731211
 20
817.3123578244395
 30
0.0
  0
VERTEX
  5
2F5
330
1EF
100
AcDbEntity
  8
dessin 2D
100
AcDbVertex
100
AcDb2dVertex
 10
770.1009469887217
 20
816.9082215592446
 30
0.0
  0
VERTEX
  5
2F6
330
1EF
100
AcDbEntity
  8
dessin 2D
100
AcDbVertex
100
AcDb2dVertex
 10
770.0704614066775
 20
816.3579272925354
 30
0.0
  0
VERTEX
  5
2F7
330
1EF
100
AcDbEntity
  8
dessin 2D
100
AcDbVertex
100
AcDb2dVertex
 10
770.0323898784068
 20
815.4082053131312
 30
0.0
 42
0.0040100376342439
  0
VERTEX
  5
2F8
330
1EF
100
AcDbEntity
  8
dessin 2D
100
AcDbVertex
100
AcDb2dVertex
 10
769.9585232359963
 20
812.3624912893085
 30
0.0
 42
0.0028261015797251
  0
VERTEX
  5
2F9
330
1EF
100
AcDbEntity
  8
dessin 2D
100
AcDbVertex
100
AcDb2dVertex
 10
769.8825538089162
 20
805.1859159340166
 30
0.0
 42
0.0008338534612468
  0
VERTEX
  5
2FA
330
1EF
100
AcDbEntity
  8
dessin 2D
100
AcDbVertex
100
AcDb2dVertex
 10
769.8579671755865
 20
797.6233073817177
 30
0.0
  0
VERTEX
  5
2FB
330
1EF
100
AcDbEntity
  8
dessin 2D
100
AcDbVertex
100
AcDb2dVertex
 10
769.8560042129718
 20
796.8461030456982
 30
0.0
 42
0.4142135623730633
  0
VERTEX
  5
2FC
330
1EF
100
AcDbEntity
  8
dessin 2D
100
AcDbVertex
100
AcDb2dVertex
 10
770.8558658042841
 20
795.8461030500827
 30
0.0
  0
VERTEX
  5
2FD
330
1EF
100
AcDbEntity
  8
dessin 2D
100
AcDbVertex
100
AcDb2dVertex
 10
770.2800514042633
 20
795.8461030500832
 30
0.0
 42
-0.4142135623731084
  0
VERTEX
  5
2FE
330
1EF
100
AcDbEntity
  8
dessin 2D
100
AcDbVertex
100
AcDb2dVertex
 10
769.2801898186276
 20
796.846103059663
 30
0.0
  0
VERTEX
  5
2FF
330
1EF
100
AcDbEntity
  8
dessin 2D
100
AcDbVertex
100
AcDb2dVertex
 10
769.280189818627
 20
817.846103050083
 30
0.0
 42
-0.1156356626020293
  0
VERTEX
  5
300
330
1EF
100
AcDbEntity
  8
dessin 2D
100
AcDbVertex
100
AcDb2dVertex
 10
769.3843689802608
 20
818.2905474945276
 30
0.0
 42
-0.2849325056556273
  0
VERTEX
  5
301
330
1EF
100
AcDbEntity
  8
dessin 2D
100
AcDbVertex
100
AcDb2dVertex
 10
769.473937222661
 20
818.346103050083
 30
0.0
  0
VERTEX
  5
302
330
1EF
100
AcDbEntity
  8
dessin 2D
100
AcDbVertex
100
AcDb2dVertex
 10
788.8830731768795
 20
818.3461030500829
 30
0.0
 42
-0.2849326989942512
  0
VERTEX
  5
303
330
1EF
100
AcDbEntity
  8
dessin 2D
100
AcDbVertex
100
AcDb2dVertex
 10
788.9726413305686
 20
818.2905474945275
 30
0.0
 42
-0.115635560002725
  0
VERTEX
  5
304
330
1EF
100
AcDbEntity
  8
dessin 2D
100
AcDbVertex
100
AcDb2dVertex
 10
789.0768203890204
 20
817.846103050083
 30
0.0
  0
VERTEX
  5
305
330
1EF
100
AcDbEntity
  8
dessin 2D
100
AcDbVertex
100
AcDb2dVertex
 10
789.0768203890206
 20
796.8461030500831
 30
0.0
 42
-0.4142135623730002
  0
VERTEX
  5
306
330
1EF
100
AcDbEntity
  8
dessin 2D
100
AcDbVertex
100
AcDb2dVertex
 10
788.0769597839594
 20
795.8461030500824
 30
0.0
  0
VERTEX
  5
307
330
1EF
100
AcDbEntity
  8
dessin 2D
100
AcDbVertex
100
AcDb2dVertex
 10
787.5136147595005
 20
795.8461030500831
 30
0.0
  0
SEQEND
  5
308
330
1EF
100
AcDbEntity
  8
dessin 2D
  0
POLYLINE
  5
309
330
1F
100
AcDbEntity
  8
dessin 2D
100
AcDb2dPolyline
 66
     1
 10
0.0
 20
0.0
 30
0.0
  0
VERTEX
  5
30A
330
309
100
AcDbEntity
  8
dessin 2D
100
AcDbVertex
100
AcDb2dVertex
 10
773.604305517011
 20
814.3095671379824
 30
0.0
  0
VERTEX
  5
30B
330
309
100
AcDbEntity
  8
dessin 2D
100
AcDbVertex
100
AcDb2dVertex
 10
773.7224044830002
 20
814.2838681707858
 30
0.0
  0
VERTEX
  5
30C
330
309
100
AcDbEntity
  8
dessin 2D
100
AcDbVertex
100
AcDb2dVertex
 10
773.7804041570427
 20
814.2694125045928
 30
0.0
  0
VERTEX
  5
30D
330
309
100
AcDbEntity
  8
dessin 2D
100
AcDbVertex
100
AcDb2dVertex
 10
773.8090567874934
 20
814.2614599471526
 30
0.0
  0
VERTEX
  5
30E
330
309
100
AcDbEntity
  8
dessin 2D
100
AcDbVertex
100
AcDb2dVertex
 10
773.8374456595327
 20
814.2529011244568
 30
0.0
  0
VERTEX
  5
30F
330
309
100
AcDbEntity
  8
dessin 2D
100
AcDbVertex
100
AcDb2dVertex
 10
773.8655465576368
 20
814.2436436997353
 30
0.0
  0
VERTEX
  5
310
330
309
100
AcDbEntity
  8
dessin 2D
100
AcDbVertex
100
AcDb2dVertex
 10
773.8933352662821
 20
814.2335953362183
 30
0.0
  0
VERTEX
  5
311
330
309
100
AcDbEntity
  8
dessin 2D
100
AcDbVertex
100
AcDb2dVertex
 10
773.9207875699451
 20
814.2226636971357
 30
0.0
  0
VERTEX
  5
312
330
309
100
AcDbEntity
  8
dessin 2D
100
AcDbVertex
100
AcDb2dVertex
 10
773.9343800025572
 20
814.2168377940168
 30
0.0
  0
VERTEX
  5
313
330
309
100
AcDbEntity
  8
dessin 2D
100
AcDbVertex
100
AcDb2dVertex
 10
773.9478792531024
 20
814.2107564457176
 30
0.0
  0
VERTEX
  5
314
330
309
100
AcDbEntity
  8
dessin 2D
100
AcDbVertex
100
AcDb2dVertex
 10
773.9612822946403
 20
814.2044081101421
 30
0.0
  0
VERTEX
  5
315
330
309
100
AcDbEntity
  8
dessin 2D
100
AcDbVertex
100
AcDb2dVertex
 10
773.9745861002305
 20
814.1977812451939
 30
0.0
  0
VERTEX
  5
316
330
309
100
AcDbEntity
  8
dessin 2D
100
AcDbVertex
100
AcDb2dVertex
 10
773.9877876429324
 20
814.190864308777
 30
0.0
  0
VERTEX
  5
317
330
309
100
AcDbEntity
  8
dessin 2D
100
AcDbVertex
100
AcDb2dVertex
 10
774.0008838958056
 20
814.1836457587947
 30
0.0
  0
VERTEX
  5
318
330
309
100
AcDbEntity
  8
dessin 2D
100
AcDbVertex
100
AcDb2dVertex
 10
774.0138718319099
 20
814.1761140531512
 30
0.0
  0
VERTEX
  5
319
330
309
100
AcDbEntity
  8
dessin 2D
100
AcDbVertex
100
AcDb2dVertex
 10
774.0267484243045
 20
814.1682576497501
 30
0.0
  0
VERTEX
  5
31A
330
309
100
AcDbEntity
  8
dessin 2D
100
AcDbVertex
100
AcDb2dVertex
 10
774.0395106460492
 20
814.1600650064952
 30
0.0
  0
VERTEX
  5
31B
330
309
100
AcDbEntity
  8
dessin 2D
100
AcDbVertex
100
AcDb2dVertex
 10
774.0521554702034
 20
814.15152458129
 30
0.0
  0
VERTEX
  5
31C
330
309
100
AcDbEntity
  8
dessin 2D
100
AcDbVertex
100
AcDb2dVertex
 10
774.0646798698268
 20
814.1426248320386
 30
0.0
  0
VERTEX
  5
31D
330
309
100
AcDbEntity
  8
dessin 2D
100
AcDbVertex
100
AcDb2dVertex
 10
774.0770808179789
 20
814.1333542166445
 30
0.0
  0
VERTEX
  5
31E
330
309
100
AcDbEntity
  8
dessin 2D
100
AcDbVertex
100
AcDb2dVertex
 10
774.0893552877194
 20
814.1237011930117
 30
0.0
  0
VERTEX
  5
31F
330
309
100
AcDbEntity
  8
dessin 2D
100
AcDbVertex
100
AcDb2dVertex
 10
774.1015002521076
 20
814.1136542190437
 30
0.0
  0
VERTEX
  5
320
330
309
100
AcDbEntity
  8
dessin 2D
100
AcDbVertex
100
AcDb2dVertex
 10
774.1135126842032
 20
814.1032017526444
 30
0.0
  0
VERTEX
  5
321
330
309
100
AcDbEntity
  8
dessin 2D
100
AcDbVertex
100
AcDb2dVertex
 10
774.1253895570658
 20
814.0923322517176
 30
0.0
  0
VERTEX
  5
322
330
309
100
AcDbEntity
  8
dessin 2D
100
AcDbVertex
100
AcDb2dVertex
 10
774.1371278437548
 20
814.0810341741669
 30
0.0
  0
VERTEX
  5
323
330
309
100
AcDbEntity
  8
dessin 2D
100
AcDbVertex
100
AcDb2dVertex
 10
774.1487245173299
 20
814.0692959778962
 30
0.0
  0
VERTEX
  5
324
330
309
100
AcDbEntity
  8
dessin 2D
100
AcDbVertex
100
AcDb2dVertex
 10
774.1601765508507
 20
814.0571061208092
 30
0.0
  0
VERTEX
  5
325
330
309
100
AcDbEntity
  8
dessin 2D
100
AcDbVertex
100
AcDb2dVertex
 10
774.1714809173766
 20
814.0444530608096
 30
0.0
  0
VERTEX
  5
326
330
309
100
AcDbEntity
  8
dessin 2D
100
AcDbVertex
100
AcDb2dVertex
 10
774.1826345899673
 20
814.0313252558011
 30
0.0
  0
VERTEX
  5
327
330
309
100
AcDbEntity
  8
dessin 2D
100
AcDbVertex
100
AcDb2dVertex
 10
774.1936345416823
 20
814.0177111636876
 30
0.0
  0
VERTEX
  5
328
330
309
100
AcDbEntity
  8
dessin 2D
100
AcDbVertex
100
AcDb2dVertex
 10
774.2044777455811
 20
814.0035992423728
 30
0.0
  0
VERTEX
  5
329
330
309
100
AcDbEntity
  8
dessin 2D
100
AcDbVertex
100
AcDb2dVertex
 10
774.2151611747233
 20
813.9889779497605
 30
0.0
  0
VERTEX
  5
32A
330
309
100
AcDbEntity
  8
dessin 2D
100
AcDbVertex
100
AcDb2dVertex
 10
774.2256818021685
 20
813.9738357437543
 30
0.0
  0
VERTEX
  5
32B
330
309
100
AcDbEntity
  8
dessin 2D
100
AcDbVertex
100
AcDb2dVertex
 10
774.2360366009763
 20
813.9581610822582
 30
0.0
  0
VERTEX
  5
32C
330
309
100
AcDbEntity
  8
dessin 2D
100
AcDbVertex
100
AcDb2dVertex
 10
774.2462225442061
 20
813.9419424231758
 30
0.0
  0
VERTEX
  5
32D
330
309
100
AcDbEntity
  8
dessin 2D
100
AcDbVertex
100
AcDb2dVertex
 10
774.2562366049176
 20
813.925168224411
 30
0.0
  0
VERTEX
  5
32E
330
309
100
AcDbEntity
  8
dessin 2D
100
AcDbVertex
100
AcDb2dVertex
 10
774.2660757561703
 20
813.9078269438671
 30
0.0
  0
VERTEX
  5
32F
330
309
100
AcDbEntity
  8
dessin 2D
100
AcDbVertex
100
AcDb2dVertex
 10
774.2757369710238
 20
813.8899070394484
 30
0.0
  0
VERTEX
  5
330
330
309
100
AcDbEntity
  8
dessin 2D
100
AcDbVertex
100
AcDb2dVertex
 10
774.2852172225375
 20
813.8713969690583
 30
0.0
  0
VERTEX
  5
331
330
309
100
AcDbEntity
  8
dessin 2D
100
AcDbVertex
100
AcDb2dVertex
 10
774.2945134837712
 20
813.8522851906008
 30
0.0
  0
VERTEX
  5
332
330
309
100
AcDbEntity
  8
dessin 2D
100
AcDbVertex
100
AcDb2dVertex
 10
774.3036227277844
 20
813.8325601619795
 30
0.0
  0
VERTEX
  5
333
330
309
100
AcDbEntity
  8
dessin 2D
100
AcDbVertex
100
AcDb2dVertex
 10
774.3125419276364
 20
813.8122103410982
 30
0.0
  0
VERTEX
  5
334
330
309
100
AcDbEntity
  8
dessin 2D
100
AcDbVertex
100
AcDb2dVertex
 10
774.321268056387
 20
813.7912241858606
 30
0.0
  0
VERTEX
  5
335
330
309
100
AcDbEntity
  8
dessin 2D
100
AcDbVertex
100
AcDb2dVertex
 10
774.3297980870959
 20
813.7695901541706
 30
0.0
  0
VERTEX
  5
336
330
309
100
AcDbEntity
  8
dessin 2D
100
AcDbVertex
100
AcDb2dVertex
 10
774.3462577466262
 20
813.7243322930481
 30
0.0
  0
VERTEX
  5
337
330
309
100
AcDbEntity
  8
dessin 2D
100
AcDbVertex
100
AcDb2dVertex
 10
774.3618966907036
 20
813.6763444209606
 30
0.0
  0
VERTEX
  5
338
330
309
100
AcDbEntity
  8
dessin 2D
100
AcDbVertex
100
AcDb2dVertex
 10
774.3766907038048
 20
813.6255342011381
 30
0.0
  0
VERTEX
  5
339
330
309
100
AcDbEntity
  8
dessin 2D
100
AcDbVertex
100
AcDb2dVertex
 10
774.3924217008159
 20
813.5691382013014
 30
0.0
  0
VERTEX
  5
33A
330
309
100
AcDbEntity
  8
dessin 2D
100
AcDbVertex
100
AcDb2dVertex
 10
774.4074242140045
 20
813.5092148635163
 30
0.0
  0
VERTEX
  5
33B
330
309
100
AcDbEntity
  8
dessin 2D
100
AcDbVertex
100
AcDb2dVertex
 10
774.4217440040361
 20
813.4455240092364
 30
0.0
  0
VERTEX
  5
33C
330
309
100
AcDbEntity
  8
dessin 2D
100
AcDbVertex
100
AcDb2dVertex
 10
774.4354268315761
 20
813.3778254599151
 30
0.0
  0
VERTEX
  5
33D
330
309
100
AcDbEntity
  8
dessin 2D
100
AcDbVertex
100
AcDb2dVertex
 10
774.4610646418439
 20
813.2294445619615
 30
0.0
  0
VERTEX
  5
33E
330
309
100
AcDbEntity
  8
dessin 2D
100
AcDbVertex
100
AcDb2dVertex
 10
774.4847037301322
 20
813.062150741283
 30
0.0
  0
VERTEX
  5
33F
330
309
100
AcDbEntity
  8
dessin 2D
100
AcDbVertex
100
AcDb2dVertex
 10
774.5067101817654
 20
812.8740225695067
 30
0.0
  0
VERTEX
  5
340
330
309
100
AcDbEntity
  8
dessin 2D
100
AcDbVertex
100
AcDb2dVertex
 10
774.5274500820681
 20
812.6631386182598
 30
0.0
  0
VERTEX
  5
341
330
309
100
AcDbEntity
  8
dessin 2D
100
AcDbVertex
100
AcDb2dVertex
 10
774.5665945699793
 20
812.1654176638644
 30
0.0
  0
VERTEX
  5
342
330
309
100
AcDbEntity
  8
dessin 2D
100
AcDbVertex
100
AcDb2dVertex
 10
774.6161855476951
 20
811.3614711646069
 30
0.0
 42
0.0043765095907507
  0
VERTEX
  5
343
330
309
100
AcDbEntity
  8
dessin 2D
100
AcDbVertex
100
AcDb2dVertex
 10
775.0521861341042
 20
803.7783022640672
 30
0.0
 42
0.0126237768460792
  0
VERTEX
  5
344
330
309
100
AcDbEntity
  8
dessin 2D
100
AcDbVertex
100
AcDb2dVertex
 10
775.7285453697875
 20
796.8175377324608
 30
0.0
  0
VERTEX
  5
345
330
309
100
AcDbEntity
  8
dessin 2D
100
AcDbVertex
100
AcDb2dVertex
 10
775.728545307613
 20
795.8461030500831
 30
0.0
  0
VERTEX
  5
346
330
309
100
AcDbEntity
  8
dessin 2D
100
AcDbVertex
100
AcDb2dVertex
 10
770.8644453855129
 20
795.8461030500832
 30
0.0
  0
SEQEND
  5
347
330
309
100
AcDbEntity
  8
dessin 2D
  0
POLYLINE
  5
348
330
1F
100
AcDbEntity
  8
dessin 2D
100
AcDb2dPolyline
 66
     1
 10
0.0
 20
0.0
 30
0.0
  0
VERTEX
  5
349
330
348
100
AcDbEntity
  8
dessin 2D
100
AcDbVertex
100
AcDb2dVertex
 10
788.6067524616576
 20
818.3759603942478
 30
0.0
  0
VERTEX
  5
34A
330
348
100
AcDbEntity
  8
dessin 2D
100
AcDbVertex
100
AcDb2dVertex
 10
788.6495952166716
 20
818.352364059487
 30
0.0
 42
-0.3218241138023832
  0
VERTEX
  5
34B
330
348
100
AcDbEntity
  8
dessin 2D
100
AcDbVertex
100
AcDb2dVertex
 10
788.5768900913487
 20
818.446103050083
 30
0.0
  0
VERTEX
  5
34C
330
348
100
AcDbEntity
  8
dessin 2D
100
AcDbVertex
100
AcDb2dVertex
 10
788.576890542381
 20
818.6523287420575
 30
0.0
 42
0.2842557673313751
  0
VERTEX
  5
34D
330
348
100
AcDbEntity
  8
dessin 2D
100
AcDbVertex
100
AcDb2dVertex
 10
788.5148036696455
 20
818.7450946480275
 30
0.0
 42
0.1120169854980403
  0
VERTEX
  5
34E
330
348
100
AcDbEntity
  8
dessin 2D
100
AcDbVertex
100
AcDb2dVertex
 10
788.0769597936767
 20
818.846103050083
 30
0.0
  0
VERTEX
  5
34F
330
348
100
AcDbEntity
  8
dessin 2D
100
AcDbVertex
100
AcDb2dVertex
 10
770.2800514042633
 20
818.8461030500832
 30
0.0
 42
0.1120341507054641
  0
VERTEX
  5
350
330
348
100
AcDbEntity
  8
dessin 2D
100
AcDbVertex
100
AcDb2dVertex
 10
769.8421759842034
 20
818.745079770858
 30
0.0
 42
0.284262558017108
  0
VERTEX
  5
351
330
348
100
AcDbEntity
  8
dessin 2D
100
AcDbVertex
100
AcDb2dVertex
 10
769.7801201627055
 20
818.6523288248327
 30
0.0
  0
VERTEX
  5
352
330
348
100
AcDbEntity
  8
dessin 2D
100
AcDbVertex
100
AcDb2dVertex
 10
769.7801206114452
 20
818.446103050083
 30
0.0
 42
-0.291770052569867
  0
VERTEX
  5
353
330
348
100
AcDbEntity
  8
dessin 2D
100
AcDbVertex
100
AcDb2dVertex
 10
769.7222853921937
 20
818.3554233590297
 30
0.0
  0
SEQEND
  5
354
330
348
100
AcDbEntity
  8
dessin 2D
  0
ARC
  5
356
330
1F
100
AcDbEntity
  8
Make2D$可见线$普通线
100
AcDbCircle
 10
795.6697747162583
 20
777.3912118401183
 30
0.0
 40
5.996085473181766
100
AcDbArc
 50
150.799945927546
 51
209.2000464279971
  0
ARC
  5
357
330
1F
100
AcDbEntity
  8
Make2D$可见线$普通线
100
AcDbCircle
 10
762.6793720056368
 20
777.3912128172852
 30
0.0
 40
5.995928154150159
100
AcDbArc
 50
330.7991180679643
 51
29.2008759606794
  0
ARC
  5
358
330
1F
100
AcDbEntity
  8
Make2D$可见线$普通线
100
AcDbCircle
 10
779.1744834933938
 20
941.8912118778287
 30
0.0
 40
171.00000001014
100
AcDbArc
 50
273.6882400794993
 51
274.1603635924477
  0
ARC
  5
359
330
1F
100
AcDbEntity
  8
Make2D$可见线$普通线
100
AcDbCircle
 10
766.674205410266
 20
771.8500452593402
 30
0.0
 40
0.500004451656782
100
AcDbArc
 50
180.0005588204127
 51
265.7963406500403
  0
ARC
  5
35A
330
1F
100
AcDbEntity
  8
Make2D$可见线$普通线
100
AcDbCircle
 10
792.652817055694
 20
661.9901303934356
 30
0.0
 40
101.8819975931094
100
AcDbArc
 50
89.28043229087608
 51
89.28267481978456
  0
LINE
  5
35B
330
1F
100
AcDbEntity
  8
Make2D$可见线$普通线
100
AcDbLine
 10
764.4499702537989
 20
763.8741234318599
 30
0.0
 11
764.581543476785
 21
763.8987429001593
 31
0.0
  0
POLYLINE
  5
35C
330
1F
100
AcDbEntity
  8
dessin 2D
100
AcDb2dPolyline
 66
     1
 10
0.0
 20
0.0
 30
0.0
  0
VERTEX
  5
35D
330
35C
100
AcDbEntity
  8
dessin 2D
100
AcDbVertex
100
AcDb2dVertex
 10
753.0289377198942
 20
763.5128764236852
 30
0.0
 42
0.2896272288400857
  0
VERTEX
  5
35E
330
35C
100
AcDbEntity
  8
dessin 2D
100
AcDbVertex
100
AcDb2dVertex
 10
754.174124709126
 20
765.3209900340107
 30
0.0
  0
VERTEX
  5
35F
330
35C
100
AcDbEntity
  8
dessin 2D
100
AcDbVertex
100
AcDb2dVertex
 10
754.1741308969431
 20
770.8911980546059
 30
0.0
  0
VERTEX
  5
360
330
35C
100
AcDbEntity
  8
dessin 2D
100
AcDbVertex
100
AcDb2dVertex
 10
754.1741308969431
 20
781.8911980546059
 30
0.0
  0
VERTEX
  5
361
330
35C
100
AcDbEntity
  8
dessin 2D
100
AcDbVertex
100
AcDb2dVertex
 10
754.1738592279255
 20
782.3911980546059
 30
0.0
 42
-0.4159083695135727
  0
VERTEX
  5
362
330
35C
100
AcDbEntity
  8
dessin 2D
100
AcDbVertex
100
AcDb2dVertex
 10
754.6757855462799
 20
782.8911980546059
 30
0.0
  0
VERTEX
  5
363
330
35C
100
AcDbEntity
  8
dessin 2D
100
AcDbVertex
100
AcDb2dVertex
 10
766.1744834940926
 20
782.8911980546059
 30
0.0
  0
SEQEND
  5
364
330
35C
100
AcDbEntity
  8
dessin 2D
  0
POLYLINE
  5
365
330
1F
100
AcDbEntity
  8
Make2D$可见线$普通线
100
AcDb2dPolyline
 66
     1
 10
0.0
 20
0.0
 30
0.0
  0
VERTEX
  5
366
330
365
100
AcDbEntity
  8
Make2D$可见线$普通线
100
AcDbVertex
100
AcDb2dVertex
 10
766.311908906171
 20
772.6118613934988
 30
0.0
  0
VERTEX
  5
367
330
365
100
AcDbEntity
  8
Make2D$可见线$普通线
100
AcDbVertex
100
AcDb2dVertex
 10
766.3694533523258
 20
772.6639364373189
 30
0.0
 42
0.0982030895993384
  0
VERTEX
  5
368
330
365
100
AcDbEntity
  8
Make2D$可见线$普通线
100
AcDbVertex
100
AcDb2dVertex
 10
767.8852783775408
 20
774.4164828670329
 30
0.0
  0
SEQEND
  5
369
330
365
100
AcDbEntity
  8
Make2D$可见线$普通线
  0
POLYLINE
  5
36A
330
1F
100
AcDbEntity
  8
Make2D$可见线$普通线
100
AcDb2dPolyline
 66
     1
 10
0.0
 20
0.0
 30
0.0
  0
VERTEX
  5
36B
330
36A
100
AcDbEntity
  8
Make2D$可见线$普通线
100
AcDbVertex
100
AcDb2dVertex
 10
766.3119089061707
 20
782.1705623419268
 30
0.0
  0
VERTEX
  5
36C
330
36A
100
AcDbEntity
  8
Make2D$可见线$普通线
100
AcDbVertex
100
AcDb2dVertex
 10
766.3694099113567
 20
782.118565769337
 30
0.0
 42
-0.098085762796481
  0
VERTEX
  5
36D
330
36A
100
AcDbEntity
  8
Make2D$可见线$普通线
100
AcDbVertex
100
AcDb2dVertex
 10
767.8852786270897
 20
780.3659423277896
 30
0.0
  0
SEQEND
  5
36E
330
36A
100
AcDbEntity
  8
Make2D$可见线$普通线
  0
POLYLINE
  5
36F
330
1F
100
AcDbEntity
  8
Make2D$可见线$普通线
100
AcDb2dPolyline
 66
     1
 10
0.0
 20
0.0
 30
0.0
  0
VERTEX
  5
370
330
36F
100
AcDbEntity
  8
Make2D$可见线$普通线
100
AcDbVertex
100
AcDb2dVertex
 10
790.4620570345987
 20
780.3630915641718
 30
0.0
 42
-0.0983459655393121
  0
VERTEX
  5
371
330
36F
100
AcDbEntity
  8
Make2D$可见线$普通线
100
AcDbVertex
100
AcDb2dVertex
 10
791.982158956478
 20
782.1207316016197
 30
0.0
 42
0.2309719516728073
  0
VERTEX
  5
372
330
36F
100
AcDbEntity
  8
Make2D$可见线$普通线
100
AcDbVertex
100
AcDb2dVertex
 10
792.1744834940928
 20
782.5148582470437
 30
0.0
 42
0.100965206061005
  0
VERTEX
  5
373
330
36F
100
AcDbEntity
  8
Make2D$可见线$普通线
100
AcDbVertex
100
AcDb2dVertex
 10
790.4329718763979
 20
780.561233089621
 30
0.0
  0
VERTEX
  5
374
330
36F
100
AcDbEntity
  8
Make2D$可见线$普通线
100
AcDbVertex
100
AcDb2dVertex
 10
790.3823039859511
 20
780.6457907235506
 30
0.0
  0
VERTEX
  5
375
330
36F
100
AcDbEntity
  8
Make2D$可见线$普通线
100
AcDbVertex
100
AcDb2dVertex
 10
790.329903197722
 20
780.7279440142669
 30
0.0
  0
VERTEX
  5
376
330
36F
100
AcDbEntity
  8
Make2D$可见线$普通线
100
AcDbVertex
100
AcDb2dVertex
 10
790.2757890526345
 20
780.8077275338163
 30
0.0
  0
VERTEX
  5
377
330
36F
100
AcDbEntity
  8
Make2D$可见线$普通线
100
AcDbVertex
100
AcDb2dVertex
 10
790.2199810916114
 20
780.885175854245
 30
0.0
  0
VERTEX
  5
378
330
36F
100
AcDbEntity
  8
Make2D$可见线$普通线
100
AcDbVertex
100
AcDb2dVertex
 10
790.162498855576
 20
780.9603235475986
 30
0.0
  0
VERTEX
  5
379
330
36F
100
AcDbEntity
  8
Make2D$可见线$普通线
100
AcDbVertex
100
AcDb2dVertex
 10
790.1033618854514
 20
781.0332051859231
 30
0.0
  0
VERTEX
  5
37A
330
36F
100
AcDbEntity
  8
Make2D$可见线$普通线
100
AcDbVertex
100
AcDb2dVertex
 10
790.0425897221611
 20
781.1038553412651
 30
0.0
  0
VERTEX
  5
37B
330
36F
100
AcDbEntity
  8
Make2D$可见线$普通线
100
AcDbVertex
100
AcDb2dVertex
 10
789.9802019066283
 20
781.1723085856704
 30
0.0
  0
VERTEX
  5
37C
330
36F
100
AcDbEntity
  8
Make2D$可见线$普通线
100
AcDbVertex
100
AcDb2dVertex
 10
789.9162179797761
 20
781.2385994911851
 30
0.0
  0
VERTEX
  5
37D
330
36F
100
AcDbEntity
  8
Make2D$可见线$普通线
100
AcDbVertex
100
AcDb2dVertex
 10
789.8506574825278
 20
781.3027626298551
 30
0.0
  0
VERTEX
  5
37E
330
36F
100
AcDbEntity
  8
Make2D$可见线$普通线
100
AcDbVertex
100
AcDb2dVertex
 10
789.7835399558063
 20
781.3648325737264
 30
0.0
  0
VERTEX
  5
37F
330
36F
100
AcDbEntity
  8
Make2D$可见线$普通线
100
AcDbVertex
100
AcDb2dVertex
 10
789.7148849405354
 20
781.4248438948456
 30
0.0
  0
VERTEX
  5
380
330
36F
100
AcDbEntity
  8
Make2D$可见线$普通线
100
AcDbVertex
100
AcDb2dVertex
 10
789.644711977638
 20
781.4828311652582
 30
0.0
  0
VERTEX
  5
381
330
36F
100
AcDbEntity
  8
Make2D$可见线$普通线
100
AcDbVertex
100
AcDb2dVertex
 10
789.5730406080376
 20
781.5388289570104
 30
0.0
  0
VERTEX
  5
382
330
36F
100
AcDbEntity
  8
Make2D$可见线$普通线
100
AcDbVertex
100
AcDb2dVertex
 10
789.4998903726571
 20
781.5928718421485
 30
0.0
  0
VERTEX
  5
383
330
36F
100
AcDbEntity
  8
Make2D$可见线$普通线
100
AcDbVertex
100
AcDb2dVertex
 10
789.4252808124198
 20
781.6449943927183
 30
0.0
  0
VERTEX
  5
384
330
36F
100
AcDbEntity
  8
Make2D$可见线$普通线
100
AcDbVertex
100
AcDb2dVertex
 10
789.3492314682491
 20
781.695231180766
 30
0.0
  0
VERTEX
  5
385
330
36F
100
AcDbEntity
  8
Make2D$可见线$普通线
100
AcDbVertex
100
AcDb2dVertex
 10
789.2717618810682
 20
781.7436167783372
 30
0.0
  0
VERTEX
  5
386
330
36F
100
AcDbEntity
  8
Make2D$可见线$普通线
100
AcDbVertex
100
AcDb2dVertex
 10
789.1928915918003
 20
781.7901857574786
 30
0.0
  0
VERTEX
  5
387
330
36F
100
AcDbEntity
  8
Make2D$可见线$普通线
100
AcDbVertex
100
AcDb2dVertex
 10
789.1126401413686
 20
781.834972690236
 30
0.0
  0
VERTEX
  5
388
330
36F
100
AcDbEntity
  8
Make2D$可见线$普通线
100
AcDbVertex
100
AcDb2dVertex
 10
789.0310270706964
 20
781.8780121486553
 30
0.0
  0
VERTEX
  5
389
330
36F
100
AcDbEntity
  8
Make2D$可见线$普通线
100
AcDbVertex
100
AcDb2dVertex
 10
788.9480719207069
 20
781.9193387047827
 30
0.0
  0
VERTEX
  5
38A
330
36F
100
AcDbEntity
  8
Make2D$可见线$普通线
100
AcDbVertex
100
AcDb2dVertex
 10
788.8637942323231
 20
781.9589869306642
 30
0.0
  0
VERTEX
  5
38B
330
36F
100
AcDbEntity
  8
Make2D$可见线$普通线
100
AcDbVertex
100
AcDb2dVertex
 10
788.7782135464687
 20
781.9969913983459
 30
0.0
  0
VERTEX
  5
38C
330
36F
100
AcDbEntity
  8
Make2D$可见线$普通线
100
AcDbVertex
100
AcDb2dVertex
 10
788.6913494040667
 20
782.0333866798738
 30
0.0
  0
VERTEX
  5
38D
330
36F
100
AcDbEntity
  8
Make2D$可见线$普通线
100
AcDbVertex
100
AcDb2dVertex
 10
788.6032213460402
 20
782.0682073472942
 30
0.0
  0
VERTEX
  5
38E
330
36F
100
AcDbEntity
  8
Make2D$可见线$普通线
100
AcDbVertex
100
AcDb2dVertex
 10
788.5138489133125
 20
782.1014879726529
 30
0.0
  0
VERTEX
  5
38F
330
36F
100
AcDbEntity
  8
Make2D$可见线$普通线
100
AcDbVertex
100
AcDb2dVertex
 10
788.423251646807
 20
782.1332631279961
 30
0.0
  0
VERTEX
  5
390
330
36F
100
AcDbEntity
  8
Make2D$可见线$普通线
100
AcDbVertex
100
AcDb2dVertex
 10
788.3314490874468
 20
782.1635673853698
 30
0.0
  0
VERTEX
  5
391
330
36F
100
AcDbEntity
  8
Make2D$可见线$普通线
100
AcDbVertex
100
AcDb2dVertex
 10
788.2384607761552
 20
782.19243531682
 30
0.0
  0
VERTEX
  5
392
330
36F
100
AcDbEntity
  8
Make2D$可见线$普通线
100
AcDbVertex
100
AcDb2dVertex
 10
788.0490050614708
 20
782.2460004901343
 30
0.0
  0
VERTEX
  5
393
330
36F
100
AcDbEntity
  8
Make2D$可见线$普通线
100
AcDbVertex
100
AcDb2dVertex
 10
787.8047037146555
 20
782.3033651537221
 30
0.0
  0
VERTEX
  5
394
330
36F
100
AcDbEntity
  8
Make2D$可见线$普通线
100
AcDbVertex
100
AcDb2dVertex
 10
787.558577841689
 20
782.3538441655023
 30
0.0
  0
VERTEX
  5
395
330
36F
100
AcDbEntity
  8
Make2D$可见线$普通线
100
AcDbVertex
100
AcDb2dVertex
 10
787.3109195795859
 20
782.3973556605179
 30
0.0
  0
VERTEX
  5
396
330
36F
100
AcDbEntity
  8
Make2D$可见线$普通线
100
AcDbVertex
100
AcDb2dVertex
 10
787.0620257148241
 20
782.4338343655315
 30
0.0
  0
VERTEX
  5
397
330
36F
100
AcDbEntity
  8
Make2D$可见线$普通线
100
AcDbVertex
100
AcDb2dVertex
 10
786.8121965010026
 20
782.4632319123173
 30
0.0
  0
VERTEX
  5
398
330
36F
100
AcDbEntity
  8
Make2D$可见线$普通线
100
AcDbVertex
100
AcDb2dVertex
 10
786.5617344526902
 20
782.48551704955
 30
0.0
  0
VERTEX
  5
399
330
36F
100
AcDbEntity
  8
Make2D$可见线$普通线
100
AcDbVertex
100
AcDb2dVertex
 10
786.310943125621
 20
782.5006757513602
 30
0.0
  0
VERTEX
  5
39A
330
36F
100
AcDbEntity
  8
Make2D$可见线$普通线
100
AcDbVertex
100
AcDb2dVertex
 10
786.0601258935586
 20
782.5087112217813
 30
0.0
  0
VERTEX
  5
39B
330
36F
100
AcDbEntity
  8
Make2D$可见线$普通线
100
AcDbVertex
100
AcDb2dVertex
 10
785.4921357646716
 20
782.5128960484121
 30
0.0
  0
VERTEX
  5
39C
330
36F
100
AcDbEntity
  8
Make2D$可见线$普通线
100
AcDbVertex
100
AcDb2dVertex
 10
785.2079847562867
 20
782.5061818505973
 30
0.0
  0
VERTEX
  5
39D
330
36F
100
AcDbEntity
  8
Make2D$可见线$普通线
100
AcDbVertex
100
AcDb2dVertex
 10
784.9239725769664
 20
782.493592279437
 30
0.0
  0
VERTEX
  5
39E
330
36F
100
AcDbEntity
  8
Make2D$可见线$普通线
100
AcDbVertex
100
AcDb2dVertex
 10
784.6402813898387
 20
782.4751335240603
 30
0.0
  0
VERTEX
  5
39F
330
36F
100
AcDbEntity
  8
Make2D$可见线$普通线
100
AcDbVertex
100
AcDb2dVertex
 10
784.3570929464986
 20
782.4508192982381
 30
0.0
  0
VERTEX
  5
3A0
330
36F
100
AcDbEntity
  8
Make2D$可见线$普通线
100
AcDbVertex
100
AcDb2dVertex
 10
784.074588199078
 20
782.4206708070798
 30
0.0
  0
VERTEX
  5
3A1
330
36F
100
AcDbEntity
  8
Make2D$可见线$普通线
100
AcDbVertex
100
AcDb2dVertex
 10
783.7929469153653
 20
782.3847166897901
 30
0.0
  0
VERTEX
  5
3A2
330
36F
100
AcDbEntity
  8
Make2D$可见线$普通线
100
AcDbVertex
100
AcDb2dVertex
 10
783.4921957165777
 20
782.340503590435
 30
0.0
  0
VERTEX
  5
3A3
330
36F
100
AcDbEntity
  8
Make2D$可见线$普通线
100
AcDbVertex
100
AcDb2dVertex
 10
783.1895613579071
 20
782.289176552667
 30
0.0
  0
VERTEX
  5
3A4
330
36F
100
AcDbEntity
  8
Make2D$可见线$普通线
100
AcDbVertex
100
AcDb2dVertex
 10
782.8857930088989
 20
782.2302674130062
 30
0.0
  0
VERTEX
  5
3A5
330
36F
100
AcDbEntity
  8
Make2D$可见线$普通线
100
AcDbVertex
100
AcDb2dVertex
 10
782.5816398390986
 20
782.1633080079739
 30
0.0
  0
VERTEX
  5
3A6
330
36F
100
AcDbEntity
  8
Make2D$可见线$普通线
100
AcDbVertex
100
AcDb2dVertex
 10
782.2778510180511
 20
782.0878301740901
 30
0.0
  0
VERTEX
  5
3A7
330
36F
100
AcDbEntity
  8
Make2D$可见线$普通线
100
AcDbVertex
100
AcDb2dVertex
 10
781.9751757153015
 20
782.0033657478749
 30
0.0
  0
VERTEX
  5
3A8
330
36F
100
AcDbEntity
  8
Make2D$可见线$普通线
100
AcDbVertex
100
AcDb2dVertex
 10
781.674363100395
 20
781.909446565849
 30
0.0
  0
VERTEX
  5
3A9
330
36F
100
AcDbEntity
  8
Make2D$可见线$普通线
100
AcDbVertex
100
AcDb2dVertex
 10
781.376162342877
 20
781.805604464533
 30
0.0
  0
VERTEX
  5
3AA
330
36F
100
AcDbEntity
  8
Make2D$可见线$普通线
100
AcDbVertex
100
AcDb2dVertex
 10
781.2282755261218
 20
781.7498160180538
 30
0.0
  0
VERTEX
  5
3AB
330
36F
100
AcDbEntity
  8
Make2D$可见线$普通线
100
AcDbVertex
100
AcDb2dVertex
 10
781.0813226122928
 20
781.6913712804471
 30
0.0
  0
VERTEX
  5
3AC
330
36F
100
AcDbEntity
  8
Make2D$可见线$普通线
100
AcDbVertex
100
AcDb2dVertex
 10
780.9353972475835
 20
781.6302117312781
 30
0.0
  0
VERTEX
  5
3AD
330
36F
100
AcDbEntity
  8
Make2D$可见线$普通线
100
AcDbVertex
100
AcDb2dVertex
 10
780.790593078187
 20
781.5662788501119
 30
0.0
  0
VERTEX
  5
3AE
330
36F
100
AcDbEntity
  8
Make2D$可见线$普通线
100
AcDbVertex
100
AcDb2dVertex
 10
780.6470037502966
 20
781.4995141165133
 30
0.0
  0
VERTEX
  5
3AF
330
36F
100
AcDbEntity
  8
Make2D$可见线$普通线
100
AcDbVertex
100
AcDb2dVertex
 10
780.5047229101053
 20
781.4298590100475
 30
0.0
  0
VERTEX
  5
3B0
330
36F
100
AcDbEntity
  8
Make2D$可见线$普通线
100
AcDbVertex
100
AcDb2dVertex
 10
780.3638442038063
 20
781.3572550102796
 30
0.0
  0
VERTEX
  5
3B1
330
36F
100
AcDbEntity
  8
Make2D$可见线$普通线
100
AcDbVertex
100
AcDb2dVertex
 10
780.2244612775928
 20
781.2816435967745
 30
0.0
  0
VERTEX
  5
3B2
330
36F
100
AcDbEntity
  8
Make2D$可见线$普通线
100
AcDbVertex
100
AcDb2dVertex
 10
780.0866677776578
 20
781.2029662490975
 30
0.0
  0
VERTEX
  5
3B3
330
36F
100
AcDbEntity
  8
Make2D$可见线$普通线
100
AcDbVertex
100
AcDb2dVertex
 10
779.9505573501945
 20
781.1211644468134
 30
0.0
  0
VERTEX
  5
3B4
330
36F
100
AcDbEntity
  8
Make2D$可见线$普通线
100
AcDbVertex
100
AcDb2dVertex
 10
779.8162236413962
 20
781.0361796694874
 30
0.0
  0
VERTEX
  5
3B5
330
36F
100
AcDbEntity
  8
Make2D$可见线$普通线
100
AcDbVertex
100
AcDb2dVertex
 10
779.6837602974558
 20
780.9479533966844
 30
0.0
  0
VERTEX
  5
3B6
330
36F
100
AcDbEntity
  8
Make2D$可见线$普通线
100
AcDbVertex
100
AcDb2dVertex
 10
779.5532609645668
 20
780.8564271079697
 30
0.0
  0
VERTEX
  5
3B7
330
36F
100
AcDbEntity
  8
Make2D$可见线$普通线
100
AcDbVertex
100
AcDb2dVertex
 10
779.424819288922
 20
780.7615422829083
 30
0.0
  0
VERTEX
  5
3B8
330
36F
100
AcDbEntity
  8
Make2D$可见线$普通线
100
AcDbVertex
100
AcDb2dVertex
 10
779.2985289167145
 20
780.6632404010651
 30
0.0
  0
VERTEX
  5
3B9
330
36F
100
AcDbEntity
  8
Make2D$可见线$普通线
100
AcDbVertex
100
AcDb2dVertex
 10
779.1744834941379
 20
780.5614629420052
 30
0.0
  0
VERTEX
  5
3BA
330
36F
100
AcDbEntity
  8
Make2D$可见线$普通线
100
AcDbVertex
100
AcDb2dVertex
 10
779.0516933540064
 20
780.6612107139061
 30
0.0
  0
VERTEX
  5
3BB
330
36F
100
AcDbEntity
  8
Make2D$可见线$普通线
100
AcDbVertex
100
AcDb2dVertex
 10
778.9264808609428
 20
780.7583564728404
 30
0.0
  0
VERTEX
  5
3BC
330
36F
100
AcDbEntity
  8
Make2D$可见线$普通线
100
AcDbVertex
100
AcDb2dVertex
 10
778.7989290425876
 20
780.8528136932157
 30
0.0
  0
VERTEX
  5
3BD
330
36F
100
AcDbEntity
  8
Make2D$可见线$普通线
100
AcDbVertex
100
AcDb2dVertex
 10
778.6691249843265
 20
780.9444994074548
 30
0.0
  0
VERTEX
  5
3BE
330
36F
100
AcDbEntity
  8
Make2D$可见线$普通线
100
AcDbVertex
100
AcDb2dVertex
 10
778.5371596369077
 20
781.0333344410129
 30
0.0
  0
VERTEX
  5
3BF
330
36F
100
AcDbEntity
  8
Make2D$可见线$普通线
100
AcDbVertex
100
AcDb2dVertex
 10
778.4031276078947
 20
781.1192436347549
 30
0.0
  0
VERTEX
  5
3C0
330
36F
100
AcDbEntity
  8
Make2D$可见线$普通线
100
AcDbVertex
100
AcDb2dVertex
 10
778.2671269379367
 20
781.202156053411
 30
0.0
  0
VERTEX
  5
3C1
330
36F
100
AcDbEntity
  8
Make2D$可见线$普通线
100
AcDbVertex
100
AcDb2dVertex
 10
778.1292588629544
 20
781.2820051789116
 30
0.0
  0
VERTEX
  5
3C2
330
36F
100
AcDbEntity
  8
Make2D$可见线$普通线
100
AcDbVertex
100
AcDb2dVertex
 10
777.9896275634471
 20
781.3587290875051
 30
0.0
  0
VERTEX
  5
3C3
330
36F
100
AcDbEntity
  8
Make2D$可见线$普通线
100
AcDbVertex
100
AcDb2dVertex
 10
777.8483399022159
 20
781.4322706096722
 30
0.0
  0
VERTEX
  5
3C4
330
36F
100
AcDbEntity
  8
Make2D$可见线$普通线
100
AcDbVertex
100
AcDb2dVertex
 10
777.7055051518977
 20
781.5025774719716
 30
0.0
  0
VERTEX
  5
3C5
330
36F
100
AcDbEntity
  8
Make2D$可见线$普通线
100
AcDbVertex
100
AcDb2dVertex
 10
777.561234713756
 20
781.5696024200763
 30
0.0
  0
VERTEX
  5
3C6
330
36F
100
AcDbEntity
  8
Make2D$可见线$普通线
100
AcDbVertex
100
AcDb2dVertex
 10
777.4156418292565
 20
781.6333033224013
 30
0.0
  0
VERTEX
  5
3C7
330
36F
100
AcDbEntity
  8
Make2D$可见线$普通线
100
AcDbVertex
100
AcDb2dVertex
 10
777.2688412859803
 20
781.6936432538553
 30
0.0
  0
VERTEX
  5
3C8
330
36F
100
AcDbEntity
  8
Make2D$可见线$普通线
100
AcDbVertex
100
AcDb2dVertex
 10
777.12094911947
 20
781.7505905593961
 30
0.0
  0
VERTEX
  5
3C9
330
36F
100
AcDbEntity
  8
Make2D$可见线$普通线
100
AcDbVertex
100
AcDb2dVertex
 10
776.9720823126178
 20
781.8041188972169
 30
0.0
  0
VERTEX
  5
3CA
330
36F
100
AcDbEntity
  8
Make2D$可见线$普通线
100
AcDbVertex
100
AcDb2dVertex
 10
776.6783200785114
 20
781.9046956070949
 30
0.0
  0
VERTEX
  5
3CB
330
36F
100
AcDbEntity
  8
Make2D$可见线$普通线
100
AcDbVertex
100
AcDb2dVertex
 10
776.3816559529789
 20
781.997483449379
 30
0.0
  0
VERTEX
  5
3CC
330
36F
100
AcDbEntity
  8
Make2D$可见线$普通线
100
AcDbVertex
100
AcDb2dVertex
 10
776.0824011833653
 20
782.0823616932606
 30
0.0
  0
VERTEX
  5
3CD
330
36F
100
AcDbEntity
  8
Make2D$可见线$普通线
100
AcDbVertex
100
AcDb2dVertex
 10
775.7808734830481
 20
782.1592262775418
 30
0.0
  0
VERTEX
  5
3CE
330
36F
100
AcDbEntity
  8
Make2D$可见线$普通线
100
AcDbVertex
100
AcDb2dVertex
 10
775.4773959098674
 20
782.2279902284997
 30
0.0
  0
VERTEX
  5
3CF
330
36F
100
AcDbEntity
  8
Make2D$可见线$普通线
100
AcDbVertex
100
AcDb2dVertex
 10
775.1722957134157
 20
782.2885839868106
 30
0.0
  0
VERTEX
  5
3D0
330
36F
100
AcDbEntity
  8
Make2D$可见线$普通线
100
AcDbVertex
100
AcDb2dVertex
 10
774.8659031598273
 20
782.3409556409699
 30
0.0
  0
VERTEX
  5
3D1
330
36F
100
AcDbEntity
  8
Make2D$可见线$普通线
100
AcDbVertex
100
AcDb2dVertex
 10
774.558550342906
 20
782.3850710655677
 30
0.0
 42
0.0414672994649608
  0
VERTEX
  5
3D2
330
36F
100
AcDbEntity
  8
Make2D$可见线$普通线
100
AcDbVertex
100
AcDb2dVertex
 10
772.2876835418705
 20
782.5085144200146
 30
0.0
  0
VERTEX
  5
3D3
330
36F
100
AcDbEntity
  8
Make2D$可见线$普通线
100
AcDbVertex
100
AcDb2dVertex
 10
772.0370695374686
 20
782.500504121302
 30
0.0
  0
VERTEX
  5
3D4
330
36F
100
AcDbEntity
  8
Make2D$可见线$普通线
100
AcDbVertex
100
AcDb2dVertex
 10
771.7864807674725
 20
782.4853715448863
 30
0.0
  0
VERTEX
  5
3D5
330
36F
100
AcDbEntity
  8
Make2D$可见线$普通线
100
AcDbVertex
100
AcDb2dVertex
 10
771.5362207706736
 20
782.4631134536289
 30
0.0
  0
VERTEX
  5
3D6
330
36F
100
AcDbEntity
  8
Make2D$可见线$普通线
100
AcDbVertex
100
AcDb2dVertex
 10
771.2865932698389
 20
782.4337438613802
 30
0.0
  0
VERTEX
  5
3D7
330
36F
100
AcDbEntity
  8
Make2D$可见线$普通线
100
AcDbVertex
100
AcDb2dVertex
 10
771.037900946244
 20
782.3972940286409
 30
0.0
  0
VERTEX
  5
3D8
330
36F
100
AcDbEntity
  8
Make2D$可见线$普通线
100
AcDbVertex
100
AcDb2dVertex
 10
770.7904442175399
 20
782.3538123538414
 30
0.0
  0
VERTEX
  5
3D9
330
36F
100
AcDbEntity
  8
Make2D$可见线$普通线
100
AcDbVertex
100
AcDb2dVertex
 10
770.5445200293057
 20
782.3033641610245
 30
0.0
  0
VERTEX
  5
3DA
330
36F
100
AcDbEntity
  8
Make2D$可见线$普通线
100
AcDbVertex
100
AcDb2dVertex
 10
770.3004206704785
 20
782.2460313858609
 30
0.0
  0
VERTEX
  5
3DB
330
36F
100
AcDbEntity
  8
Make2D$可见线$普通线
100
AcDbVertex
100
AcDb2dVertex
 10
770.1111608677642
 20
782.1924915566148
 30
0.0
  0
VERTEX
  5
3DC
330
36F
100
AcDbEntity
  8
Make2D$可见线$普通线
100
AcDbVertex
100
AcDb2dVertex
 10
770.0182447780904
 20
782.1636321207782
 30
0.0
  0
VERTEX
  5
3DD
330
36F
100
AcDbEntity
  8
Make2D$可见线$普通线
100
AcDbVertex
100
AcDb2dVertex
 10
769.9264985982302
 20
782.133333755871
 30
0.0
  0
VERTEX
  5
3DE
330
36F
100
AcDbEntity
  8
Make2D$可见线$普通线
100
AcDbVertex
100
AcDb2dVertex
 10
769.8359428547014
 20
782.1015620256971
 30
0.0
  0
VERTEX
  5
3DF
330
36F
100
AcDbEntity
  8
Make2D$可见线$普通线
100
AcDbVertex
100
AcDb2dVertex
 10
769.746598074023
 20
782.0682824940607
 30
0.0
  0
VERTEX
  5
3E0
330
36F
100
AcDbEntity
  8
Make2D$可见线$普通线
100
AcDbVertex
100
AcDb2dVertex
 10
769.6584847827127
 20
782.0334607247648
 30
0.0
  0
VERTEX
  5
3E1
330
36F
100
AcDbEntity
  8
Make2D$可见线$普通线
100
AcDbVertex
100
AcDb2dVertex
 10
769.5716235072889
 20
781.9970622816136
 30
0.0
  0
VERTEX
  5
3E2
330
36F
100
AcDbEntity
  8
Make2D$可见线$普通线
100
AcDbVertex
100
AcDb2dVertex
 10
769.4860347742699
 20
781.9590527284109
 30
0.0
  0
VERTEX
  5
3E3
330
36F
100
AcDbEntity
  8
Make2D$可见线$普通线
100
AcDbVertex
100
AcDb2dVertex
 10
769.4017391101744
 20
781.9193976289608
 30
0.0
  0
VERTEX
  5
3E4
330
36F
100
AcDbEntity
  8
Make2D$可见线$普通线
100
AcDbVertex
100
AcDb2dVertex
 10
769.3187570415201
 20
781.8780625470669
 30
0.0
  0
VERTEX
  5
3E5
330
36F
100
AcDbEntity
  8
Make2D$可见线$普通线
100
AcDbVertex
100
AcDb2dVertex
 10
769.2371090948261
 20
781.8350130465332
 30
0.0
  0
VERTEX
  5
3E6
330
36F
100
AcDbEntity
  8
Make2D$可见线$普通线
100
AcDbVertex
100
AcDb2dVertex
 10
769.15681579661
 20
781.7902146911631
 30
0.0
  0
VERTEX
  5
3E7
330
36F
100
AcDbEntity
  8
Make2D$可见线$普通线
100
AcDbVertex
100
AcDb2dVertex
 10
769.0778976733905
 20
781.7436330447608
 30
0.0
  0
VERTEX
  5
3E8
330
36F
100
AcDbEntity
  8
Make2D$可见线$普通线
100
AcDbVertex
100
AcDb2dVertex
 10
769.0003752516856
 20
781.6952336711299
 30
0.0
  0
VERTEX
  5
3E9
330
36F
100
AcDbEntity
  8
Make2D$可见线$普通线
100
AcDbVertex
100
AcDb2dVertex
 10
768.9242690580139
 20
781.6449821340746
 30
0.0
  0
VERTEX
  5
3EA
330
36F
100
AcDbEntity
  8
Make2D$可见线$普通线
100
AcDbVertex
100
AcDb2dVertex
 10
768.8495996188935
 20
781.5928439973981
 30
0.0
  0
VERTEX
  5
3EB
330
36F
100
AcDbEntity
  8
Make2D$可见线$普通线
100
AcDbVertex
100
AcDb2dVertex
 10
768.7763874608428
 20
781.5387848249046
 30
0.0
  0
VERTEX
  5
3EC
330
36F
100
AcDbEntity
  8
Make2D$可见线$普通线
100
AcDbVertex
100
AcDb2dVertex
 10
768.7046531103803
 20
781.482770180398
 30
0.0
  0
VERTEX
  5
3ED
330
36F
100
AcDbEntity
  8
Make2D$可见线$普通线
100
AcDbVertex
100
AcDb2dVertex
 10
768.634417094024
 20
781.4247656276822
 30
0.0
  0
VERTEX
  5
3EE
330
36F
100
AcDbEntity
  8
Make2D$可见线$普通线
100
AcDbVertex
100
AcDb2dVertex
 10
768.5656999382924
 20
781.3647367305606
 30
0.0
  0
VERTEX
  5
3EF
330
36F
100
AcDbEntity
  8
Make2D$可见线$普通线
100
AcDbVertex
100
AcDb2dVertex
 10
768.4985221697036
 20
781.3026490528374
 30
0.0
  0
VERTEX
  5
3F0
330
36F
100
AcDbEntity
  8
Make2D$可见线$普通线
100
AcDbVertex
100
AcDb2dVertex
 10
768.4329043147761
 20
781.2384681583162
 30
0.0
  0
VERTEX
  5
3F1
330
36F
100
AcDbEntity
  8
Make2D$可见线$普通线
100
AcDbVertex
100
AcDb2dVertex
 10
768.3688669000284
 20
781.1721596108013
 30
0.0
  0
VERTEX
  5
3F2
330
36F
100
AcDbEntity
  8
Make2D$可见线$普通线
100
AcDbVertex
100
AcDb2dVertex
 10
768.3064304519783
 20
781.1036889740957
 30
0.0
  0
VERTEX
  5
3F3
330
36F
100
AcDbEntity
  8
Make2D$可见线$普通线
100
AcDbVertex
100
AcDb2dVertex
 10
768.2456154971445
 20
781.0330218120039
 30
0.0
  0
VERTEX
  5
3F4
330
36F
100
AcDbEntity
  8
Make2D$可见线$普通线
100
AcDbVertex
100
AcDb2dVertex
 10
768.1864425620453
 20
780.9601236883292
 30
0.0
  0
VERTEX
  5
3F5
330
36F
100
AcDbEntity
  8
Make2D$可见线$普通线
100
AcDbVertex
100
AcDb2dVertex
 10
768.1289321731989
 20
780.8849601668762
 30
0.0
  0
VERTEX
  5
3F6
330
36F
100
AcDbEntity
  8
Make2D$可见线$普通线
100
AcDbVertex
100
AcDb2dVertex
 10
768.0731048571234
 20
780.807496811448
 30
0.0
  0
VERTEX
  5
3F7
330
36F
100
AcDbEntity
  8
Make2D$可见线$普通线
100
AcDbVertex
100
AcDb2dVertex
 10
768.0189811403376
 20
780.7276991858487
 30
0.0
  0
VERTEX
  5
3F8
330
36F
100
AcDbEntity
  8
Make2D$可见线$普通线
100
AcDbVertex
100
AcDb2dVertex
 10
767.9665815493593
 20
780.6455328538818
 30
0.0
  0
VERTEX
  5
3F9
330
36F
100
AcDbEntity
  8
Make2D$可见线$普通线
100
AcDbVertex
100
AcDb2dVertex
 10
767.9159266107073
 20
780.5609633793518
 30
0.0
 42
0.1008360998340166
  0
VERTEX
  5
3FA
330
36F
100
AcDbEntity
  8
Make2D$可见线$普通线
100
AcDbVertex
100
AcDb2dVertex
 10
766.1769420290561
 20
782.5129453132444
 30
0.0
  0
VERTEX
  5
3FB
330
36F
100
AcDbEntity
  8
Make2D$可见线$普通线
100
AcDbVertex
100
AcDb2dVertex
 10
766.174342226363
 20
782.9323833527571
 30
0.0
 42
-0.3930012100912074
  0
VERTEX
  5
3FC
330
36F
100
AcDbEntity
  8
Make2D$可见线$普通线
100
AcDbVertex
100
AcDb2dVertex
 10
766.6375541373685
 20
783.4310378145838
 30
0.0
  0
SEQEND
  5
3FD
330
36F
100
AcDbEntity
  8
Make2D$可见线$普通线
  0
POLYLINE
  5
3FE
330
1F
100
AcDbEntity
  8
Make2D$可见线$普通线
100
AcDb2dPolyline
 66
     1
 10
0.0
 20
0.0
 30
0.0
  0
VERTEX
  5
3FF
330
3FE
100
AcDbEntity
  8
Make2D$可见线$普通线
100
AcDbVertex
100
AcDb2dVertex
 10
792.1747660342371
 20
771.8500403826869
 30
0.0
 42
-0.3928899574982356
  0
VERTEX
  5
400
330
3FE
100
AcDbEntity
  8
Make2D$可见线$普通线
100
AcDbVertex
100
AcDb2dVertex
 10
791.7112766212126
 20
771.3513859209031
 30
0.0
  0
VERTEX
  5
401
330
3FE
100
AcDbEntity
  8
Make2D$可见线$普通线
100
AcDbVertex
100
AcDb2dVertex
 10
791.7110937629891
 20
771.351382493558
 30
0.0
  0
SEQEND
  5
402
330
3FE
100
AcDbEntity
  8
Make2D$可见线$普通线
  0
POLYLINE
  5
403
330
1F
100
AcDbEntity
  8
Make2D$可见线$普通线
100
AcDb2dPolyline
 66
     1
 10
0.0
 20
0.0
 30
0.0
  0
VERTEX
  5
404
330
403
100
AcDbEntity
  8
Make2D$可见线$普通线
100
AcDbVertex
100
AcDb2dVertex
 10
791.7110951661742
 20
783.4310411387174
 30
0.0
  0
VERTEX
  5
405
330
403
100
AcDbEntity
  8
Make2D$可见线$普通线
100
AcDbVertex
100
AcDb2dVertex
 10
791.7112766212126
 20
783.4310378145225
 30
0.0
 42
-0.393009668565994
  0
VERTEX
  5
406
330
403
100
AcDbEntity
  8
Make2D$可见线$普通线
100
AcDbVertex
100
AcDb2dVertex
 10
792.1746247641706
 20
782.9323833527386
 30
0.0
  0
VERTEX
  5
407
330
403
100
AcDbEntity
  8
Make2D$可见线$普通线
100
AcDbVertex
100
AcDb2dVertex
 10
792.1744834940927
 20
782.5148582470437
 30
0.0
  0
SEQEND
  5
408
330
403
100
AcDbEntity
  8
Make2D$可见线$普通线
  0
POLYLINE
  5
409
330
1F
100
AcDbEntity
  8
Make2D$可见线$普通线
100
AcDb2dPolyline
 66
     1
 10
0.0
 20
0.0
 30
0.0
  0
VERTEX
  5
40A
330
409
100
AcDbEntity
  8
Make2D$可见线$普通线
100
AcDbVertex
100
AcDb2dVertex
 10
767.7246378995698
 20
768.8992327803581
 30
0.0
 42
0.3917953256855901
  0
VERTEX
  5
40B
330
409
100
AcDbEntity
  8
Make2D$可见线$普通线
100
AcDbVertex
100
AcDb2dVertex
 10
768.1743639597556
 20
769.3912118677127
 30
0.0
  0
VERTEX
  5
40C
330
409
100
AcDbEntity
  8
Make2D$可见线$普通线
100
AcDbVertex
100
AcDb2dVertex
 10
768.1744834941218
 20
771.2453798061023
 30
0.0
  0
SEQEND
  5
40D
330
409
100
AcDbEntity
  8
Make2D$可见线$普通线
  0
POLYLINE
  5
40E
330
1F
100
AcDbEntity
  8
Make2D$可见线$普通线
100
AcDb2dPolyline
 66
     1
 10
0.0
 20
0.0
 30
0.0
  0
VERTEX
  5
40F
330
40E
100
AcDbEntity
  8
Make2D$可见线$普通线
100
AcDbVertex
100
AcDb2dVertex
 10
793.9711953093422
 20
763.8725346419033
 30
0.0
 42
-0.3854569245700501
  0
VERTEX
  5
410
330
40E
100
AcDbEntity
  8
Make2D$可见线$普通线
100
AcDbVertex
100
AcDb2dVertex
 10
792.1745825535064
 20
765.8597888107222
 30
0.0
  0
VERTEX
  5
411
330
40E
100
AcDbEntity
  8
Make2D$可见线$普通线
100
AcDbVertex
100
AcDb2dVertex
 10
792.1746247620118
 20
768.3912118677127
 30
0.0
 42
0.4144963254938594
  0
VERTEX
  5
412
330
40E
100
AcDbEntity
  8
Make2D$可见线$普通线
100
AcDbVertex
100
AcDb2dVertex
 10
791.6746193285819
 20
768.8912118677129
 30
0.0
  0
VERTEX
  5
413
330
40E
100
AcDbEntity
  8
Make2D$可见线$普通线
100
AcDbVertex
100
AcDb2dVertex
 10
766.6743476596589
 20
768.8912118677127
 30
0.0
 42
0.4145124096018897
  0
VERTEX
  5
414
330
40E
100
AcDbEntity
  8
Make2D$可见线$普通线
100
AcDbVertex
100
AcDb2dVertex
 10
766.1743422262346
 20
768.3912118677127
 30
0.0
  0
VERTEX
  5
415
330
40E
100
AcDbEntity
  8
Make2D$可见线$普通线
100
AcDbVertex
100
AcDb2dVertex
 10
766.1743844478441
 20
765.860087118407
 30
0.0
 42
-0.3861053698870439
  0
VERTEX
  5
416
330
40E
100
AcDbEntity
  8
Make2D$可见线$普通线
100
AcDbVertex
100
AcDb2dVertex
 10
764.3731261579452
 20
763.8718813851868
 30
0.0
  0
SEQEND
  5
417
330
40E
100
AcDbEntity
  8
Make2D$可见线$普通线
  0
POLYLINE
  5
418
330
1F
100
AcDbEntity
  8
Make2D$可见线$普通线
100
AcDb2dPolyline
 66
     1
 10
0.0
 20
0.0
 30
0.0
  0
VERTEX
  5
419
330
418
100
AcDbEntity
  8
Make2D$可见线$普通线
100
AcDbVertex
100
AcDb2dVertex
 10
779.3914473920665
 20
774.4659198762157
 30
0.0
  0
VERTEX
  5
41A
330
418
100
AcDbEntity
  8
Make2D$可见线$普通线
100
AcDbVertex
100
AcDb2dVertex
 10
779.5079854822297
 20
774.3734302394422
 30
0.0
  0
VERTEX
  5
41B
330
418
100
AcDbEntity
  8
Make2D$可见线$普通线
100
AcDbVertex
100
AcDb2dVertex
 10
779.626759609619
 20
774.2833998879368
 30
0.0
  0
VERTEX
  5
41C
330
418
100
AcDbEntity
  8
Make2D$可见线$普通线
100
AcDbVertex
100
AcDb2dVertex
 10
779.7476916321672
 20
774.1959082954714
 30
0.0
  0
VERTEX
  5
41D
330
418
100
AcDbEntity
  8
Make2D$可见线$普通线
100
AcDbVertex
100
AcDb2dVertex
 10
779.8706996994343
 20
774.1110316021156
 30
0.0
  0
VERTEX
  5
41E
330
418
100
AcDbEntity
  8
Make2D$可见线$普通线
100
AcDbVertex
100
AcDb2dVertex
 10
779.9956984320262
 20
774.0288424006258
 30
0.0
  0
VERTEX
  5
41F
330
418
100
AcDbEntity
  8
Make2D$可见线$普通线
100
AcDbVertex
100
AcDb2dVertex
 10
780.1225991156231
 20
773.9494095345611
 30
0.0
  0
VERTEX
  5
420
330
418
100
AcDbEntity
  8
Make2D$可见线$普通线
100
AcDbVertex
100
AcDb2dVertex
 10
780.2513099087143
 20
773.8727979092812
 30
0.0
  0
VERTEX
  5
421
330
418
100
AcDbEntity
  8
Make2D$可见线$普通线
100
AcDbVertex
100
AcDb2dVertex
 10
780.3817360630309
 20
773.7990683168998
 30
0.0
  0
VERTEX
  5
422
330
418
100
AcDbEntity
  8
Make2D$可见线$普通线
100
AcDbVertex
100
AcDb2dVertex
 10
780.5137801555666
 20
773.7282772761749
 30
0.0
  0
VERTEX
  5
423
330
418
100
AcDbEntity
  8
Make2D$可见线$普通线
100
AcDbVertex
100
AcDb2dVertex
 10
780.6473423310048
 20
773.6604768882228
 30
0.0
  0
VERTEX
  5
424
330
418
100
AcDbEntity
  8
Make2D$可见线$普通线
100
AcDbVertex
100
AcDb2dVertex
 10
780.782320553276
 20
773.5957147088196
 30
0.0
  0
VERTEX
  5
425
330
418
100
AcDbEntity
  8
Make2D$可见线$普通线
100
AcDbVertex
100
AcDb2dVertex
 10
780.9186108649267
 20
773.534033637957
 30
0.0
  0
VERTEX
  5
426
330
418
100
AcDbEntity
  8
Make2D$可见线$普通线
100
AcDbVertex
100
AcDb2dVertex
 10
781.0561076529082
 20
773.4754718271773
 30
0.0
  0
VERTEX
  5
427
330
418
100
AcDbEntity
  8
Make2D$可见线$普通线
100
AcDbVertex
100
AcDb2dVertex
 10
781.1947039193724
 20
773.4200626051031
 30
0.0
  0
VERTEX
  5
428
330
418
100
AcDbEntity
  8
Make2D$可见线$普通线
100
AcDbVertex
100
AcDb2dVertex
 10
781.3342915560211
 20
773.3678344214328
 30
0.0
  0
VERTEX
  5
429
330
418
100
AcDbEntity
  8
Make2D$可见线$普通线
100
AcDbVertex
100
AcDb2dVertex
 10
781.4747616205531
 20
773.3188108095591
 30
0.0
  0
VERTEX
  5
42A
330
418
100
AcDbEntity
  8
Make2D$可见线$普通线
100
AcDbVertex
100
AcDb2dVertex
 10
781.7547607259696
 20
773.2256757892757
 30
0.0
  0
VERTEX
  5
42B
330
418
100
AcDbEntity
  8
Make2D$可见线$普通线
100
AcDbVertex
100
AcDb2dVertex
 10
782.0373951190971
 20
773.139819952909
 30
0.0
  0
VERTEX
  5
42C
330
418
100
AcDbEntity
  8
Make2D$可见线$普通线
100
AcDbVertex
100
AcDb2dVertex
 10
782.3223796560989
 20
773.0613507835599
 30
0.0
  0
VERTEX
  5
42D
330
418
100
AcDbEntity
  8
Make2D$可见线$普通线
100
AcDbVertex
100
AcDb2dVertex
 10
782.6094235515283
 20
772.9903607976004
 30
0.0
  0
VERTEX
  5
42E
330
418
100
AcDbEntity
  8
Make2D$可见线$普通线
100
AcDbVertex
100
AcDb2dVertex
 10
782.898231364989
 20
772.9269271874732
 30
0.0
  0
VERTEX
  5
42F
330
418
100
AcDbEntity
  8
Make2D$可见线$普通线
100
AcDbVertex
100
AcDb2dVertex
 10
783.1885040138632
 20
772.8711115428564
 30
0.0
  0
VERTEX
  5
430
330
418
100
AcDbEntity
  8
Make2D$可见线$普通线
100
AcDbVertex
100
AcDb2dVertex
 10
783.479939804824
 20
772.822959652303
 30
0.0
  0
VERTEX
  5
431
330
418
100
AcDbEntity
  8
Make2D$可见线$普通线
100
AcDbVertex
100
AcDb2dVertex
 10
783.7722354766713
 20
772.7825013866867
 30
0.0
 42
0.0400153127359259
  0
VERTEX
  5
432
330
418
100
AcDbEntity
  8
Make2D$可见线$普通线
100
AcDbVertex
100
AcDb2dVertex
 10
785.9504056749097
 20
772.6685056284526
 30
0.0
  0
VERTEX
  5
433
330
418
100
AcDbEntity
  8
Make2D$可见线$普通线
100
AcDbVertex
100
AcDb2dVertex
 10
786.1927276237951
 20
772.6760051755759
 30
0.0
  0
VERTEX
  5
434
330
418
100
AcDbEntity
  8
Make2D$可见线$普通线
100
AcDbVertex
100
AcDb2dVertex
 10
786.4350236658173
 20
772.6900441788507
 30
0.0
  0
VERTEX
  5
435
330
418
100
AcDbEntity
  8
Make2D$可见线$普通线
100
AcDbVertex
100
AcDb2dVertex
 10
786.6770291463396
 20
772.7106251603685
 30
0.0
  0
VERTEX
  5
436
330
418
100
AcDbEntity
  8
Make2D$可见线$普通线
100
AcDbVertex
100
AcDb2dVertex
 10
786.9184792746153
 20
772.7377363594672
 30
0.0
  0
VERTEX
  5
437
330
418
100
AcDbEntity
  8
Make2D$可见线$普通线
100
AcDbVertex
100
AcDb2dVertex
 10
787.1591100872405
 20
772.7713517365476
 30
0.0
  0
VERTEX
  5
438
330
418
100
AcDbEntity
  8
Make2D$可见线$普通线
100
AcDbVertex
100
AcDb2dVertex
 10
787.3986594091976
 20
772.8114310548177
 30
0.0
  0
VERTEX
  5
439
330
418
100
AcDbEntity
  8
Make2D$可见线$普通线
100
AcDbVertex
100
AcDb2dVertex
 10
787.636867805148
 20
772.8579200394414
 30
0.0
  0
VERTEX
  5
43A
330
418
100
AcDbEntity
  8
Make2D$可见线$普通线
100
AcDbVertex
100
AcDb2dVertex
 10
787.8734795137337
 20
772.9107506127763
 30
0.0
  0
VERTEX
  5
43B
330
418
100
AcDbEntity
  8
Make2D$可见线$普通线
100
AcDbVertex
100
AcDb2dVertex
 10
788.0578201831474
 20
772.9601673187375
 30
0.0
  0
VERTEX
  5
43C
330
418
100
AcDbEntity
  8
Make2D$可见线$普通线
100
AcDbVertex
100
AcDb2dVertex
 10
788.2379353739699
 20
773.0147699851415
 30
0.0
  0
VERTEX
  5
43D
330
418
100
AcDbEntity
  8
Make2D$可见线$普通线
100
AcDbVertex
100
AcDb2dVertex
 10
788.3263542943755
 20
773.0440955460358
 30
0.0
  0
VERTEX
  5
43E
330
418
100
AcDbEntity
  8
Make2D$可见线$普通线
100
AcDbVertex
100
AcDb2dVertex
 10
788.4136519004928
 20
773.0748129880724
 30
0.0
  0
VERTEX
  5
43F
330
418
100
AcDbEntity
  8
Make2D$可见线$普通线
100
AcDbVertex
100
AcDb2dVertex
 10
788.4998065441081
 20
773.1069541082618
 30
0.0
  0
VERTEX
  5
440
330
418
100
AcDbEntity
  8
Make2D$可见线$普通线
100
AcDbVertex
100
AcDb2dVertex
 10
788.5847965770079
 20
773.1405507036145
 30
0.0
  0
VERTEX
  5
441
330
418
100
AcDbEntity
  8
Make2D$可见线$普通线
100
AcDbVertex
100
AcDb2dVertex
 10
788.6686003509787
 20
773.1756345711409
 30
0.0
  0
VERTEX
  5
442
330
418
100
AcDbEntity
  8
Make2D$可见线$普通线
100
AcDbVertex
100
AcDb2dVertex
 10
788.751196217807
 20
773.2122375078516
 30
0.0
  0
VERTEX
  5
443
330
418
100
AcDbEntity
  8
Make2D$可见线$普通线
100
AcDbVertex
100
AcDb2dVertex
 10
788.8325625292789
 20
773.2503913107568
 30
0.0
  0
VERTEX
  5
444
330
418
100
AcDbEntity
  8
Make2D$可见线$普通线
100
AcDbVertex
100
AcDb2dVertex
 10
788.9126776371817
 20
773.2901277768677
 30
0.0
  0
VERTEX
  5
445
330
418
100
AcDbEntity
  8
Make2D$可见线$普通线
100
AcDbVertex
100
AcDb2dVertex
 10
788.9915198933012
 20
773.3314787031944
 30
0.0
  0
VERTEX
  5
446
330
418
100
AcDbEntity
  8
Make2D$可见线$普通线
100
AcDbVertex
100
AcDb2dVertex
 10
789.0690676494241
 20
773.3744758867475
 30
0.0
  0
VERTEX
  5
447
330
418
100
AcDbEntity
  8
Make2D$可见线$普通线
100
AcDbVertex
100
AcDb2dVertex
 10
789.1452992573369
 20
773.4191511245374
 30
0.0
  0
VERTEX
  5
448
330
418
100
AcDbEntity
  8
Make2D$可见线$普通线
100
AcDbVertex
100
AcDb2dVertex
 10
789.2201930688261
 20
773.4655362135746
 30
0.0
  0
VERTEX
  5
449
330
418
100
AcDbEntity
  8
Make2D$可见线$普通线
100
AcDbVertex
100
AcDb2dVertex
 10
789.2937274356781
 20
773.5136629508697
 30
0.0
  0
VERTEX
  5
44A
330
418
100
AcDbEntity
  8
Make2D$可见线$普通线
100
AcDbVertex
100
AcDb2dVertex
 10
789.3658807096791
 20
773.5635631334333
 30
0.0
  0
VERTEX
  5
44B
330
418
100
AcDbEntity
  8
Make2D$可见线$普通线
100
AcDbVertex
100
AcDb2dVertex
 10
789.436631242616
 20
773.6152685582757
 30
0.0
  0
VERTEX
  5
44C
330
418
100
AcDbEntity
  8
Make2D$可见线$普通线
100
AcDbVertex
100
AcDb2dVertex
 10
789.5059573862751
 20
773.6688110224075
 30
0.0
  0
VERTEX
  5
44D
330
418
100
AcDbEntity
  8
Make2D$可见线$普通线
100
AcDbVertex
100
AcDb2dVertex
 10
789.573837492443
 20
773.7242223228392
 30
0.0
  0
VERTEX
  5
44E
330
418
100
AcDbEntity
  8
Make2D$可见线$普通线
100
AcDbVertex
100
AcDb2dVertex
 10
789.6402499129059
 20
773.7815342565813
 30
0.0
  0
VERTEX
  5
44F
330
418
100
AcDbEntity
  8
Make2D$可见线$普通线
100
AcDbVertex
100
AcDb2dVertex
 10
789.7051729994504
 20
773.8407786206443
 30
0.0
  0
VERTEX
  5
450
330
418
100
AcDbEntity
  8
Make2D$可见线$普通线
100
AcDbVertex
100
AcDb2dVertex
 10
789.7685851038631
 20
773.901987212039
 30
0.0
  0
VERTEX
  5
451
330
418
100
AcDbEntity
  8
Make2D$可见线$普通线
100
AcDbVertex
100
AcDb2dVertex
 10
789.8304645779302
 20
773.9651918277756
 30
0.0
  0
VERTEX
  5
452
330
418
100
AcDbEntity
  8
Make2D$可见线$普通线
100
AcDbVertex
100
AcDb2dVertex
 10
789.8907897734385
 20
774.0304242648646
 30
0.0
  0
VERTEX
  5
453
330
418
100
AcDbEntity
  8
Make2D$可见线$普通线
100
AcDbVertex
100
AcDb2dVertex
 10
789.9495390421743
 20
774.0977163203164
 30
0.0
  0
VERTEX
  5
454
330
418
100
AcDbEntity
  8
Make2D$可见线$普通线
100
AcDbVertex
100
AcDb2dVertex
 10
790.006690735924
 20
774.167099791142
 30
0.0
  0
VERTEX
  5
455
330
418
100
AcDbEntity
  8
Make2D$可见线$普通线
100
AcDbVertex
100
AcDb2dVertex
 10
790.0622232064743
 20
774.2386064743514
 30
0.0
  0
VERTEX
  5
456
330
418
100
AcDbEntity
  8
Make2D$可见线$普通线
100
AcDbVertex
100
AcDb2dVertex
 10
790.1161148056115
 20
774.3122681669554
 30
0.0
  0
VERTEX
  5
457
330
418
100
AcDbEntity
  8
Make2D$可见线$普通线
100
AcDbVertex
100
AcDb2dVertex
 10
790.168343885122
 20
774.3881166659645
 30
0.0
  0
VERTEX
  5
458
330
418
100
AcDbEntity
  8
Make2D$可见线$普通线
100
AcDbVertex
100
AcDb2dVertex
 10
790.2188887967926
 20
774.4661837683891
 30
0.0
 42
-0.2713326264074528
  0
VERTEX
  5
459
330
418
100
AcDbEntity
  8
Make2D$可见线$普通线
100
AcDbVertex
100
AcDb2dVertex
 10
790.2187569401431
 20
780.3163403903402
 30
0.0
  0
VERTEX
  5
45A
330
418
100
AcDbEntity
  8
Make2D$可见线$普通线
100
AcDbVertex
100
AcDb2dVertex
 10
790.1682051810739
 20
780.3944046788945
 30
0.0
  0
VERTEX
  5
45B
330
418
100
AcDbEntity
  8
Make2D$可见线$普通线
100
AcDbVertex
100
AcDb2dVertex
 10
790.1159799083897
 20
780.4702488374804
 30
0.0
  0
VERTEX
  5
45C
330
418
100
AcDbEntity
  8
Make2D$可见线$普通线
100
AcDbVertex
100
AcDb2dVertex
 10
790.0621018578018
 20
780.5439048007996
 30
0.0
  0
VERTEX
  5
45D
330
418
100
AcDbEntity
  8
Make2D$可见线$普通线
100
AcDbVertex
100
AcDb2dVertex
 10
790.0065917650201
 20
780.6154045035521
 30
0.0
  0
VERTEX
  5
45E
330
418
100
AcDbEntity
  8
Make2D$可见线$普通线
100
AcDbVertex
100
AcDb2dVertex
 10
789.9494703657547
 20
780.6847798804387
 30
0.0
  0
VERTEX
  5
45F
330
418
100
AcDbEntity
  8
Make2D$可见线$普通线
100
AcDbVertex
100
AcDb2dVertex
 10
789.890758395716
 20
780.7520628661596
 30
0.0
  0
VERTEX
  5
460
330
418
100
AcDbEntity
  8
Make2D$可见线$普通线
100
AcDbVertex
100
AcDb2dVertex
 10
789.8304765906149
 20
780.8172853954161
 30
0.0
  0
VERTEX
  5
461
330
418
100
AcDbEntity
  8
Make2D$可见线$普通线
100
AcDbVertex
100
AcDb2dVertex
 10
789.7686456861616
 20
780.8804794029088
 30
0.0
  0
VERTEX
  5
462
330
418
100
AcDbEntity
  8
Make2D$可见线$普通线
100
AcDbVertex
100
AcDb2dVertex
 10
789.7052864180662
 20
780.9416768233382
 30
0.0
  0
VERTEX
  5
463
330
418
100
AcDbEntity
  8
Make2D$可见线$普通线
100
AcDbVertex
100
AcDb2dVertex
 10
789.6404195220392
 20
781.0009095914049
 30
0.0
  0
VERTEX
  5
464
330
418
100
AcDbEntity
  8
Make2D$可见线$普通线
100
AcDbVertex
100
AcDb2dVertex
 10
789.5740657337907
 20
781.0582096418094
 30
0.0
  0
VERTEX
  5
465
330
418
100
AcDbEntity
  8
Make2D$可见线$普通线
100
AcDbVertex
100
AcDb2dVertex
 10
789.5062457890314
 20
781.1136089092529
 30
0.0
  0
VERTEX
  5
466
330
418
100
AcDbEntity
  8
Make2D$可见线$普通线
100
AcDbVertex
100
AcDb2dVertex
 10
789.4369804234717
 20
781.1671393284356
 30
0.0
  0
VERTEX
  5
467
330
418
100
AcDbEntity
  8
Make2D$可见线$普通线
100
AcDbVertex
100
AcDb2dVertex
 10
789.3662903728222
 20
781.2188328340586
 30
0.0
  0
VERTEX
  5
468
330
418
100
AcDbEntity
  8
Make2D$可见线$普通线
100
AcDbVertex
100
AcDb2dVertex
 10
789.2941963727927
 20
781.268721360822
 30
0.0
  0
VERTEX
  5
469
330
418
100
AcDbEntity
  8
Make2D$可见线$普通线
100
AcDbVertex
100
AcDb2dVertex
 10
789.220719159094
 20
781.316836843427
 30
0.0
  0
VERTEX
  5
46A
330
418
100
AcDbEntity
  8
Make2D$可见线$普通线
100
AcDbVertex
100
AcDb2dVertex
 10
789.1458794674362
 20
781.363211216574
 30
0.0
  0
VERTEX
  5
46B
330
418
100
AcDbEntity
  8
Make2D$可见线$普通线
100
AcDbVertex
100
AcDb2dVertex
 10
789.0696980335298
 20
781.4078764149634
 30
0.0
  0
VERTEX
  5
46C
330
418
100
AcDbEntity
  8
Make2D$可见线$普通线
100
AcDbVertex
100
AcDb2dVertex
 10
788.9921955930851
 20
781.4508643732964
 30
0.0
  0
VERTEX
  5
46D
330
418
100
AcDbEntity
  8
Make2D$可见线$普通线
100
AcDbVertex
100
AcDb2dVertex
 10
788.9133928818125
 20
781.4922070262734
 30
0.0
  0
VERTEX
  5
46E
330
418
100
AcDbEntity
  8
Make2D$可见线$普通线
100
AcDbVertex
100
AcDb2dVertex
 10
788.8333106354223
 20
781.5319363085949
 30
0.0
  0
VERTEX
  5
46F
330
418
100
AcDbEntity
  8
Make2D$可见线$普通线
100
AcDbVertex
100
AcDb2dVertex
 10
788.7519695896251
 20
781.5700841549618
 30
0.0
  0
VERTEX
  5
470
330
418
100
AcDbEntity
  8
Make2D$可见线$普通线
100
AcDbVertex
100
AcDb2dVertex
 10
788.6693904801311
 20
781.6066825000747
 30
0.0
  0
VERTEX
  5
471
330
418
100
AcDbEntity
  8
Make2D$可见线$普通线
100
AcDbVertex
100
AcDb2dVertex
 10
788.5855940426507
 20
781.6417632786342
 30
0.0
  0
VERTEX
  5
472
330
418
100
AcDbEntity
  8
Make2D$可见线$普通线
100
AcDbVertex
100
AcDb2dVertex
 10
788.5006010128942
 20
781.6753584253411
 30
0.0
  0
VERTEX
  5
473
330
418
100
AcDbEntity
  8
Make2D$可见线$普通线
100
AcDbVertex
100
AcDb2dVertex
 10
788.414432126572
 20
781.7074998748959
 30
0.0
  0
VERTEX
  5
474
330
418
100
AcDbEntity
  8
Make2D$可见线$普通线
100
AcDbVertex
100
AcDb2dVertex
 10
788.3271081193947
 20
781.7382195619995
 30
0.0
  0
VERTEX
  5
475
330
418
100
AcDbEntity
  8
Make2D$可见线$普通线
100
AcDbVertex
100
AcDb2dVertex
 10
788.2386497270724
 20
781.7675494213522
 30
0.0
  0
VERTEX
  5
476
330
418
100
AcDbEntity
  8
Make2D$可见线$普通线
100
AcDbVertex
100
AcDb2dVertex
 10
788.0584127298345
 20
781.8221673956085
 30
0.0
  0
VERTEX
  5
477
330
418
100
AcDbEntity
  8
Make2D$可见线$普通线
100
AcDbVertex
100
AcDb2dVertex
 10
787.8738870205416
 20
781.87160927527
 30
0.0
  0
VERTEX
  5
478
330
418
100
AcDbEntity
  8
Make2D$可见线$普通线
100
AcDbVertex
100
AcDb2dVertex
 10
787.6370874728635
 20
781.9244717625654
 30
0.0
  0
VERTEX
  5
479
330
418
100
AcDbEntity
  8
Make2D$可见线$普通线
100
AcDbVertex
100
AcDb2dVertex
 10
787.3986912806815
 20
781.9709913258849
 30
0.0
  0
VERTEX
  5
47A
330
418
100
AcDbEntity
  8
Make2D$可见线$普通线
100
AcDbVertex
100
AcDb2dVertex
 10
787.1589541094534
 20
782.0110999306718
 30
0.0
  0
VERTEX
  5
47B
330
418
100
AcDbEntity
  8
Make2D$可见线$普通线
100
AcDbVertex
100
AcDb2dVertex
 10
786.9181352941317
 20
782.04474333188
 30
0.0
  0
VERTEX
  5
47C
330
418
100
AcDbEntity
  8
Make2D$可见线$普通线
100
AcDbVertex
100
AcDb2dVertex
 10
786.6764969063149
 20
782.0718813087936
 30
0.0
  0
VERTEX
  5
47D
330
418
100
AcDbEntity
  8
Make2D$可见线$普通线
100
AcDbVertex
100
AcDb2dVertex
 10
786.434302804444
 20
782.0924878239147
 30
0.0
  0
VERTEX
  5
47E
330
418
100
AcDbEntity
  8
Make2D$可见线$普通线
100
AcDbVertex
100
AcDb2dVertex
 10
786.1918176742728
 20
782.1065511046181
 30
0.0
  0
VERTEX
  5
47F
330
418
100
AcDbEntity
  8
Make2D$可见线$普通线
100
AcDbVertex
100
AcDb2dVertex
 10
785.9493060669236
 20
782.1140736470455
 30
0.0
  0
VERTEX
  5
480
330
418
100
AcDbEntity
  8
Make2D$可见线$普通线
100
AcDbVertex
100
AcDb2dVertex
 10
785.4045644520844
 20
782.1180156702327
 30
0.0
  0
VERTEX
  5
481
330
418
100
AcDbEntity
  8
Make2D$可见线$普通线
100
AcDbVertex
100
AcDb2dVertex
 10
785.1320533358544
 20
782.1118360222343
 30
0.0
  0
VERTEX
  5
482
330
418
100
AcDbEntity
  8
Make2D$可见线$普通线
100
AcDbVertex
100
AcDb2dVertex
 10
784.859665524218
 20
782.1002188683362
 30
0.0
  0
VERTEX
  5
483
330
418
100
AcDbEntity
  8
Make2D$可见线$普通线
100
AcDbVertex
100
AcDb2dVertex
 10
784.5875637087373
 20
782.0831695221649
 30
0.0
  0
VERTEX
  5
484
330
418
100
AcDbEntity
  8
Make2D$可见线$普通线
100
AcDbVertex
100
AcDb2dVertex
 10
784.3159102395146
 20
782.0606997830128
 30
0.0
  0
VERTEX
  5
485
330
418
100
AcDbEntity
  8
Make2D$可见线$普通线
100
AcDbVertex
100
AcDb2dVertex
 10
784.0448668024645
 20
782.0328279091453
 30
0.0
  0
VERTEX
  5
486
330
418
100
AcDbEntity
  8
Make2D$可见线$普通线
100
AcDbVertex
100
AcDb2dVertex
 10
783.774594098951
 20
781.9995785718847
 30
0.0
  0
VERTEX
  5
487
330
418
100
AcDbEntity
  8
Make2D$可见线$普通线
100
AcDbVertex
100
AcDb2dVertex
 10
783.4874144831732
 20
781.9587616709435
 30
0.0
  0
VERTEX
  5
488
330
418
100
AcDbEntity
  8
Make2D$可见线$普通线
100
AcDbVertex
100
AcDb2dVertex
 10
783.1987214673497
 20
781.9113780894049
 30
0.0
  0
VERTEX
  5
489
330
418
100
AcDbEntity
  8
Make2D$可见线$普通线
100
AcDbVertex
100
AcDb2dVertex
 10
782.9092174359662
 20
781.856995679496
 30
0.0
  0
VERTEX
  5
48A
330
418
100
AcDbEntity
  8
Make2D$可见线$普通线
100
AcDbVertex
100
AcDb2dVertex
 10
782.6196047735078
 20
781.7951822934439
 30
0.0
  0
VERTEX
  5
48B
330
418
100
AcDbEntity
  8
Make2D$可见线$普通线
100
AcDbVertex
100
AcDb2dVertex
 10
782.3305858644604
 20
781.7255057834756
 30
0.0
  0
VERTEX
  5
48C
330
418
100
AcDbEntity
  8
Make2D$可见线$普通线
100
AcDbVertex
100
AcDb2dVertex
 10
782.0428630933089
 20
781.6475340018176
 30
0.0
  0
VERTEX
  5
48D
330
418
100
AcDbEntity
  8
Make2D$可见线$普通线
100
AcDbVertex
100
AcDb2dVertex
 10
781.7571388445391
 20
781.5608348006973
 30
0.0
  0
VERTEX
  5
48E
330
418
100
AcDbEntity
  8
Make2D$可见线$普通线
100
AcDbVertex
100
AcDb2dVertex
 10
781.4741155026366
 20
781.4649760323414
 30
0.0
  0
VERTEX
  5
48F
330
418
100
AcDbEntity
  8
Make2D$可见线$普通线
100
AcDbVertex
100
AcDb2dVertex
 10
781.3338361669123
 20
781.4134767642713
 30
0.0
  0
VERTEX
  5
490
330
418
100
AcDbEntity
  8
Make2D$可见线$普通线
100
AcDbVertex
100
AcDb2dVertex
 10
781.1944954520866
 20
781.3595255489772
 30
0.0
  0
VERTEX
  5
491
330
418
100
AcDbEntity
  8
Make2D$可见线$普通线
100
AcDbVertex
100
AcDb2dVertex
 10
781.0561811562204
 20
781.3030683679876
 30
0.0
  0
VERTEX
  5
492
330
418
100
AcDbEntity
  8
Make2D$可见线$普通线
100
AcDbVertex
100
AcDb2dVertex
 10
780.9189810773744
 20
781.2440512028311
 30
0.0
  0
VERTEX
  5
493
330
418
100
AcDbEntity
  8
Make2D$可见线$普通线
100
AcDbVertex
100
AcDb2dVertex
 10
780.782983013609
 20
781.1824200350359
 30
0.0
  0
VERTEX
  5
494
330
418
100
AcDbEntity
  8
Make2D$可见线$普通线
100
AcDbVertex
100
AcDb2dVertex
 10
780.6482747629855
 20
781.1181208461303
 30
0.0
  0
VERTEX
  5
495
330
418
100
AcDbEntity
  8
Make2D$可见线$普通线
100
AcDbVertex
100
AcDb2dVertex
 10
780.514944123564
 20
781.0510996176429
 30
0.0
  0
VERTEX
  5
496
330
418
100
AcDbEntity
  8
Make2D$可见线$普通线
100
AcDbVertex
100
AcDb2dVertex
 10
780.3830788934054
 20
780.9813023311018
 30
0.0
  0
VERTEX
  5
497
330
418
100
AcDbEntity
  8
Make2D$可见线$普通线
100
AcDbVertex
100
AcDb2dVertex
 10
780.2527668705703
 20
780.9086749680357
 30
0.0
  0
VERTEX
  5
498
330
418
100
AcDbEntity
  8
Make2D$可见线$普通线
100
AcDbVertex
100
AcDb2dVertex
 10
780.1240958531196
 20
780.8331635099726
 30
0.0
  0
VERTEX
  5
499
330
418
100
AcDbEntity
  8
Make2D$可见线$普通线
100
AcDbVertex
100
AcDb2dVertex
 10
779.9971536391138
 20
780.754713938441
 30
0.0
  0
VERTEX
  5
49A
330
418
100
AcDbEntity
  8
Make2D$可见线$普通线
100
AcDbVertex
100
AcDb2dVertex
 10
779.8720280266134
 20
780.6732722349694
 30
0.0
  0
VERTEX
  5
49B
330
418
100
AcDbEntity
  8
Make2D$可见线$普通线
100
AcDbVertex
100
AcDb2dVertex
 10
779.7488068136795
 20
780.588784381086
 30
0.0
  0
VERTEX
  5
49C
330
418
100
AcDbEntity
  8
Make2D$可见线$普通线
100
AcDbVertex
100
AcDb2dVertex
 10
779.6275777983725
 20
780.5011963583195
 30
0.0
  0
VERTEX
  5
49D
330
418
100
AcDbEntity
  8
Make2D$可见线$普通线
100
AcDbVertex
100
AcDb2dVertex
 10
779.5084287787532
 20
780.4104541481977
 30
0.0
  0
VERTEX
  5
49E
330
418
100
AcDbEntity
  8
Make2D$可见线$普通线
100
AcDbVertex
100
AcDb2dVertex
 10
779.3914475528823
 20
780.3165037322494
 30
0.0
 42
-0.0108583417100573
  0
VERTEX
  5
49F
330
418
100
AcDbEntity
  8
Make2D$可见线$普通线
100
AcDbVertex
100
AcDb2dVertex
 10
779.3914473920665
 20
774.4659198762157
 30
0.0
  0
SEQEND
  5
4A0
330
418
100
AcDbEntity
  8
Make2D$可见线$普通线
  0
POLYLINE
  5
4A1
330
1F
100
AcDbEntity
  8
Make2D$可见线$普通线
100
AcDb2dPolyline
 66
     1
 10
0.0
 20
0.0
 30
0.0
  0
VERTEX
  5
4A2
330
4A1
100
AcDbEntity
  8
Make2D$可见线$普通线
100
AcDbVertex
100
AcDb2dVertex
 10
778.9575194353355
 20
780.3165037322559
 30
0.0
  0
VERTEX
  5
4A3
330
4A1
100
AcDbEntity
  8
Make2D$可见线$普通线
100
AcDbVertex
100
AcDb2dVertex
 10
778.8409812809073
 20
780.4089933491373
 30
0.0
  0
VERTEX
  5
4A4
330
4A1
100
AcDbEntity
  8
Make2D$可见线$普通线
100
AcDbVertex
100
AcDb2dVertex
 10
778.7222070977506
 20
780.4990236834648
 30
0.0
  0
VERTEX
  5
4A5
330
4A1
100
AcDbEntity
  8
Make2D$可见线$普通线
100
AcDbVertex
100
AcDb2dVertex
 10
778.6012750274252
 20
780.5865152613131
 30
0.0
  0
VERTEX
  5
4A6
330
4A1
100
AcDbEntity
  8
Make2D$可见线$普通线
100
AcDbVertex
100
AcDb2dVertex
 10
778.4782669198486
 20
780.6713919424552
 30
0.0
  0
VERTEX
  5
4A7
330
4A1
100
AcDbEntity
  8
Make2D$可见线$普通线
100
AcDbVertex
100
AcDb2dVertex
 10
778.353268153879
 20
780.7535811339726
 30
0.0
  0
VERTEX
  5
4A8
330
4A1
100
AcDbEntity
  8
Make2D$可见线$普通线
100
AcDbVertex
100
AcDb2dVertex
 10
778.2263674432872
 20
780.83301399214
 30
0.0
  0
VERTEX
  5
4A9
330
4A1
100
AcDbEntity
  8
Make2D$可见线$普通线
100
AcDbVertex
100
AcDb2dVertex
 10
778.097656629024
 20
780.9096256114278
 30
0.0
  0
VERTEX
  5
4AA
330
4A1
100
AcDbEntity
  8
Make2D$可见线$普通线
100
AcDbVertex
100
AcDb2dVertex
 10
777.9672304587883
 20
780.9833551995496
 30
0.0
  0
VERTEX
  5
4AB
330
4A1
100
AcDbEntity
  8
Make2D$可见线$普通线
100
AcDbVertex
100
AcDb2dVertex
 10
777.8351863550077
 20
781.0541462375712
 30
0.0
  0
VERTEX
  5
4AC
330
4A1
100
AcDbEntity
  8
Make2D$可见线$普通线
100
AcDbVertex
100
AcDb2dVertex
 10
777.7016241724143
 20
781.1219466241987
 30
0.0
  0
VERTEX
  5
4AD
330
4A1
100
AcDbEntity
  8
Make2D$可见线$普通线
100
AcDbVertex
100
AcDb2dVertex
 10
777.5666459464857
 20
781.1867088034757
 30
0.0
  0
VERTEX
  5
4AE
330
4A1
100
AcDbEntity
  8
Make2D$可见线$普通线
100
AcDbVertex
100
AcDb2dVertex
 10
777.4303556340808
 20
781.2483898752291
 30
0.0
  0
VERTEX
  5
4AF
330
4A1
100
AcDbEntity
  8
Make2D$可见线$普通线
100
AcDbVertex
100
AcDb2dVertex
 10
777.2928588476507
 20
781.3069516877341
 30
0.0
  0
VERTEX
  5
4B0
330
4A1
100
AcDbEntity
  8
Make2D$可见线$普通线
100
AcDbVertex
100
AcDb2dVertex
 10
777.1542625844446
 20
781.3623609121856
 30
0.0
  0
VERTEX
  5
4B1
330
4A1
100
AcDbEntity
  8
Make2D$可见线$普通线
100
AcDbVertex
100
AcDb2dVertex
 10
777.0146749521625
 20
781.4145890987016
 30
0.0
  0
VERTEX
  5
4B2
330
4A1
100
AcDbEntity
  8
Make2D$可见线$普通线
100
AcDbVertex
100
AcDb2dVertex
 10
776.8742048925096
 20
781.4636127137074
 30
0.0
  0
VERTEX
  5
4B3
330
4A1
100
AcDbEntity
  8
Make2D$可见线$普通线
100
AcDbVertex
100
AcDb2dVertex
 10
776.5942058008233
 20
781.5567477387788
 30
0.0
  0
VERTEX
  5
4B4
330
4A1
100
AcDbEntity
  8
Make2D$可见线$普通线
100
AcDbVertex
100
AcDb2dVertex
 10
776.3115714212552
 20
781.6426035801561
 30
0.0
  0
VERTEX
  5
4B5
330
4A1
100
AcDbEntity
  8
Make2D$可见线$普通线
100
AcDbVertex
100
AcDb2dVertex
 10
776.0265868976378
 20
781.7210727547301
 30
0.0
  0
VERTEX
  5
4B6
330
4A1
100
AcDbEntity
  8
Make2D$可见线$普通线
100
AcDbVertex
100
AcDb2dVertex
 10
775.7395430154157
 20
781.7920627461198
 30
0.0
  0
VERTEX
  5
4B7
330
4A1
100
AcDbEntity
  8
Make2D$可见线$普通线
100
AcDbVertex
100
AcDb2dVertex
 10
775.4507352149826
 20
781.8554963618739
 30
0.0
  0
VERTEX
  5
4B8
330
4A1
100
AcDbEntity
  8
Make2D$可见线$普通线
100
AcDbVertex
100
AcDb2dVertex
 10
775.1604625789552
 20
781.9113120123059
 30
0.0
  0
VERTEX
  5
4B9
330
4A1
100
AcDbEntity
  8
Make2D$可见线$普通线
100
AcDbVertex
100
AcDb2dVertex
 10
774.8690268006586
 20
781.9594639088552
 30
0.0
  0
VERTEX
  5
4BA
330
4A1
100
AcDbEntity
  8
Make2D$可见线$普通线
100
AcDbVertex
100
AcDb2dVertex
 10
774.5767311412924
 20
781.9999221806399
 30
0.0
  0
VERTEX
  5
4BB
330
4A1
100
AcDbEntity
  8
Make2D$可见线$普通线
100
AcDbVertex
100
AcDb2dVertex
 10
774.3060285200934
 20
782.033190864013
 30
0.0
  0
VERTEX
  5
4BC
330
4A1
100
AcDbEntity
  8
Make2D$可见线$普通线
100
AcDbVertex
100
AcDb2dVertex
 10
774.0345522162222
 20
782.0610589017607
 30
0.0
  0
VERTEX
  5
4BD
330
4A1
100
AcDbEntity
  8
Make2D$可见线$普通线
100
AcDbVertex
100
AcDb2dVertex
 10
773.7624640625985
 20
782.0835014555679
 30
0.0
  0
VERTEX
  5
4BE
330
4A1
100
AcDbEntity
  8
Make2D$可见线$普通线
100
AcDbVertex
100
AcDb2dVertex
 10
773.4899268860555
 20
782.1005001629145
 30
0.0
  0
VERTEX
  5
4BF
330
4A1
100
AcDbEntity
  8
Make2D$可见线$普通线
100
AcDbVertex
100
AcDb2dVertex
 10
773.2171041829599
 20
782.1120431835451
 30
0.0
  0
VERTEX
  5
4C0
330
4A1
100
AcDbEntity
  8
Make2D$可见线$普通线
100
AcDbVertex
100
AcDb2dVertex
 10
772.9441597924366
 20
782.1181252264208
 30
0.0
  0
VERTEX
  5
4C1
330
4A1
100
AcDbEntity
  8
Make2D$可见线$普通线
100
AcDbVertex
100
AcDb2dVertex
 10
772.6712575685613
 20
782.1187475570256
 30
0.0
  0
VERTEX
  5
4C2
330
4A1
100
AcDbEntity
  8
Make2D$可见线$普通线
100
AcDbVertex
100
AcDb2dVertex
 10
772.3985610529041
 20
782.1139179850101
 30
0.0
  0
VERTEX
  5
4C3
330
4A1
100
AcDbEntity
  8
Make2D$可见线$普通线
100
AcDbVertex
100
AcDb2dVertex
 10
772.1562391178937
 20
782.1064184434209
 30
0.0
  0
VERTEX
  5
4C4
330
4A1
100
AcDbEntity
  8
Make2D$可见线$普通线
100
AcDbVertex
100
AcDb2dVertex
 10
771.9139430896001
 20
782.0923794457216
 30
0.0
  0
VERTEX
  5
4C5
330
4A1
100
AcDbEntity
  8
Make2D$可见线$普通线
100
AcDbVertex
100
AcDb2dVertex
 10
771.6719376226708
 20
782.0717984698139
 30
0.0
  0
VERTEX
  5
4C6
330
4A1
100
AcDbEntity
  8
Make2D$可见线$普通线
100
AcDbVertex
100
AcDb2dVertex
 10
771.4304875078658
 20
782.0446872763558
 30
0.0
  0
VERTEX
  5
4C7
330
4A1
100
AcDbEntity
  8
Make2D$可见线$普通线
100
AcDbVertex
100
AcDb2dVertex
 10
771.1898567086009
 20
782.0110719049429
 30
0.0
  0
VERTEX
  5
4C8
330
4A1
100
AcDbEntity
  8
Make2D$可见线$普通线
100
AcDbVertex
100
AcDb2dVertex
 10
770.9503073999061
 20
781.9709925923647
 30
0.0
  0
VERTEX
  5
4C9
330
4A1
100
AcDbEntity
  8
Make2D$可见线$普通线
100
AcDbVertex
100
AcDb2dVertex
 10
770.7120990171327
 20
781.924503613457
 30
0.0
  0
VERTEX
  5
4CA
330
4A1
100
AcDbEntity
  8
Make2D$可见线$普通线
100
AcDbVertex
100
AcDb2dVertex
 10
770.4754873216507
 20
781.8716730458626
 30
0.0
  0
VERTEX
  5
4CB
330
4A1
100
AcDbEntity
  8
Make2D$可见线$普通线
100
AcDbVertex
100
AcDb2dVertex
 10
770.2911466603139
 20
781.8222563504225
 30
0.0
  0
VERTEX
  5
4CC
330
4A1
100
AcDbEntity
  8
Make2D$可见线$普通线
100
AcDbVertex
100
AcDb2dVertex
 10
770.1110314572986
 20
781.7676537291426
 30
0.0
  0
VERTEX
  5
4CD
330
4A1
100
AcDbEntity
  8
Make2D$可见线$普通线
100
AcDbVertex
100
AcDb2dVertex
 10
770.0226125168914
 20
781.7383282146038
 30
0.0
  0
VERTEX
  5
4CE
330
4A1
100
AcDbEntity
  8
Make2D$可见线$普通线
100
AcDbVertex
100
AcDb2dVertex
 10
769.9353148781406
 20
781.7076108405546
 30
0.0
  0
VERTEX
  5
4CF
330
4A1
100
AcDbEntity
  8
Make2D$可见线$普通线
100
AcDbVertex
100
AcDb2dVertex
 10
769.8491601867377
 20
781.6754698143111
 30
0.0
  0
VERTEX
  5
4D0
330
4A1
100
AcDbEntity
  8
Make2D$可见线$普通线
100
AcDbVertex
100
AcDb2dVertex
 10
769.7641700883746
 20
781.6418733431898
 30
0.0
  0
VERTEX
  5
4D1
330
4A1
100
AcDbEntity
  8
Make2D$可见线$普通线
100
AcDbVertex
100
AcDb2dVertex
 10
769.6803662287433
 20
781.6067896345073
 30
0.0
  0
VERTEX
  5
4D2
330
4A1
100
AcDbEntity
  8
Make2D$可见线$普通线
100
AcDbVertex
100
AcDb2dVertex
 10
769.5977702535358
 20
781.57018689558
 30
0.0
  0
VERTEX
  5
4D3
330
4A1
100
AcDbEntity
  8
Make2D$可见线$普通线
100
AcDbVertex
100
AcDb2dVertex
 10
769.5164038084439
 20
781.5320333337241
 30
0.0
  0
VERTEX
  5
4D4
330
4A1
100
AcDbEntity
  8
Make2D$可见线$普通线
100
AcDbVertex
100
AcDb2dVertex
 10
769.4362885391596
 20
781.4922971562568
 30
0.0
  0
VERTEX
  5
4D5
330
4A1
100
AcDbEntity
  8
Make2D$可见线$普通线
100
AcDbVertex
100
AcDb2dVertex
 10
769.3574460913745
 20
781.4509465704936
 30
0.0
  0
VERTEX
  5
4D6
330
4A1
100
AcDbEntity
  8
Make2D$可见线$普通线
100
AcDbVertex
100
AcDb2dVertex
 10
769.2798981107807
 20
781.4079497837514
 30
0.0
  0
VERTEX
  5
4D7
330
4A1
100
AcDbEntity
  8
Make2D$可见线$普通线
100
AcDbVertex
100
AcDb2dVertex
 10
769.2036662430701
 20
781.3632750033469
 30
0.0
  0
VERTEX
  5
4D8
330
4A1
100
AcDbEntity
  8
Make2D$可见线$普通线
100
AcDbVertex
100
AcDb2dVertex
 10
769.1287721339345
 20
781.3168904365959
 30
0.0
  0
VERTEX
  5
4D9
330
4A1
100
AcDbEntity
  8
Make2D$可见线$普通线
100
AcDbVertex
100
AcDb2dVertex
 10
769.0552374290659
 20
781.2687642908154
 30
0.0
  0
VERTEX
  5
4DA
330
4A1
100
AcDbEntity
  8
Make2D$可见线$普通线
100
AcDbVertex
100
AcDb2dVertex
 10
768.9830837741563
 20
781.2188647733217
 30
0.0
  0
VERTEX
  5
4DB
330
4A1
100
AcDbEntity
  8
Make2D$可见线$普通线
100
AcDbVertex
100
AcDb2dVertex
 10
768.9123328148971
 20
781.167160091431
 30
0.0
  0
VERTEX
  5
4DC
330
4A1
100
AcDbEntity
  8
Make2D$可见线$普通线
100
AcDbVertex
100
AcDb2dVertex
 10
768.8430061969807
 20
781.1136184524601
 30
0.0
  0
VERTEX
  5
4DD
330
4A1
100
AcDbEntity
  8
Make2D$可见线$普通线
100
AcDbVertex
100
AcDb2dVertex
 10
768.7751255660986
 20
781.0582080637251
 30
0.0
  0
VERTEX
  5
4DE
330
4A1
100
AcDbEntity
  8
Make2D$可见线$普通线
100
AcDbVertex
100
AcDb2dVertex
 10
768.7087125679433
 20
781.0008971325428
 30
0.0
  0
VERTEX
  5
4DF
330
4A1
100
AcDbEntity
  8
Make2D$可见线$普通线
100
AcDbVertex
100
AcDb2dVertex
 10
768.6437888482059
 20
780.9416538662293
 30
0.0
  0
VERTEX
  5
4E0
330
4A1
100
AcDbEntity
  8
Make2D$可见线$普通线
100
AcDbVertex
100
AcDb2dVertex
 10
768.5803760525789
 20
780.8804464721013
 30
0.0
  0
VERTEX
  5
4E1
330
4A1
100
AcDbEntity
  8
Make2D$可见线$普通线
100
AcDbVertex
100
AcDb2dVertex
 10
768.5184958267539
 20
780.8172431574752
 30
0.0
  0
VERTEX
  5
4E2
330
4A1
100
AcDbEntity
  8
Make2D$可见线$普通线
100
AcDbVertex
100
AcDb2dVertex
 10
768.4581698164229
 20
780.7520121296675
 30
0.0
  0
VERTEX
  5
4E3
330
4A1
100
AcDbEntity
  8
Make2D$可见线$普通线
100
AcDbVertex
100
AcDb2dVertex
 10
768.3994196672777
 20
780.6847215959943
 30
0.0
  0
VERTEX
  5
4E4
330
4A1
100
AcDbEntity
  8
Make2D$可见线$普通线
100
AcDbVertex
100
AcDb2dVertex
 10
768.3422670250102
 20
780.6153397637723
 30
0.0
  0
VERTEX
  5
4E5
330
4A1
100
AcDbEntity
  8
Make2D$可见线$普通线
100
AcDbVertex
100
AcDb2dVertex
 10
768.2867335353122
 20
780.543834840318
 30
0.0
  0
VERTEX
  5
4E6
330
4A1
100
AcDbEntity
  8
Make2D$可见线$普通线
100
AcDbVertex
100
AcDb2dVertex
 10
768.232840843876
 20
780.470175032948
 30
0.0
  0
VERTEX
  5
4E7
330
4A1
100
AcDbEntity
  8
Make2D$可见线$普通线
100
AcDbVertex
100
AcDb2dVertex
 10
768.1806105963932
 20
780.3943285489783
 30
0.0
  0
VERTEX
  5
4E8
330
4A1
100
AcDbEntity
  8
Make2D$可见线$普通线
100
AcDbVertex
100
AcDb2dVertex
 10
768.1300644385557
 20
780.3162635957257
 30
0.0
 42
-0.2713402418854685
  0
VERTEX
  5
4E9
330
4A1
100
AcDbEntity
  8
Make2D$可见线$普通线
100
AcDbVertex
100
AcDb2dVertex
 10
768.130155503697
 20
774.4660521178382
 30
0.0
  0
VERTEX
  5
4EA
330
4A1
100
AcDbEntity
  8
Make2D$可见线$普通线
100
AcDbVertex
100
AcDb2dVertex
 10
768.1807101346478
 20
774.3879919459158
 30
0.0
  0
VERTEX
  5
4EB
330
4A1
100
AcDbEntity
  8
Make2D$可见线$普通线
100
AcDbVertex
100
AcDb2dVertex
 10
768.2329479234443
 20
774.3121503110858
 30
0.0
  0
VERTEX
  5
4EC
330
4A1
100
AcDbEntity
  8
Make2D$可见线$普通线
100
AcDbVertex
100
AcDb2dVertex
 10
768.28684724783
 20
774.2384954104039
 30
0.0
  0
VERTEX
  5
4ED
330
4A1
100
AcDbEntity
  8
Make2D$可见线$普通线
100
AcDbVertex
100
AcDb2dVertex
 10
768.3423864855483
 20
774.1669954409256
 30
0.0
  0
VERTEX
  5
4EE
330
4A1
100
AcDbEntity
  8
Make2D$可见线$普通线
100
AcDbVertex
100
AcDb2dVertex
 10
768.3995440143431
 20
774.0976185997065
 30
0.0
  0
VERTEX
  5
4EF
330
4A1
100
AcDbEntity
  8
Make2D$可见线$普通线
100
AcDbVertex
100
AcDb2dVertex
 10
768.4582982119575
 20
774.0303330838022
 30
0.0
  0
VERTEX
  5
4F0
330
4A1
100
AcDbEntity
  8
Make2D$可见线$普通线
100
AcDbVertex
100
AcDb2dVertex
 10
768.5186274561354
 20
773.9651070902684
 30
0.0
  0
VERTEX
  5
4F1
330
4A1
100
AcDbEntity
  8
Make2D$可见线$普通线
100
AcDbVertex
100
AcDb2dVertex
 10
768.5805101246203
 20
773.9019088161605
 30
0.0
  0
VERTEX
  5
4F2
330
4A1
100
AcDbEntity
  8
Make2D$可见线$普通线
100
AcDbVertex
100
AcDb2dVertex
 10
768.6439245951558
 20
773.8407064585342
 30
0.0
  0
VERTEX
  5
4F3
330
4A1
100
AcDbEntity
  8
Make2D$可见线$普通线
100
AcDbVertex
100
AcDb2dVertex
 10
768.7088492454856
 20
773.7814682144452
 30
0.0
  0
VERTEX
  5
4F4
330
4A1
100
AcDbEntity
  8
Make2D$可见线$普通线
100
AcDbVertex
100
AcDb2dVertex
 10
768.7752624533526
 20
773.7241622809488
 30
0.0
  0
VERTEX
  5
4F5
330
4A1
100
AcDbEntity
  8
Make2D$可见线$普通线
100
AcDbVertex
100
AcDb2dVertex
 10
768.8431425965013
 20
773.6687568551012
 30
0.0
  0
VERTEX
  5
4F6
330
4A1
100
AcDbEntity
  8
Make2D$可见线$普通线
100
AcDbVertex
100
AcDb2dVertex
 10
768.9124680526746
 20
773.6152201339575
 30
0.0
  0
VERTEX
  5
4F7
330
4A1
100
AcDbEntity
  8
Make2D$可见线$普通线
100
AcDbVertex
100
AcDb2dVertex
 10
768.9832171996164
 20
773.5635203145736
 30
0.0
  0
VERTEX
  5
4F8
330
4A1
100
AcDbEntity
  8
Make2D$可见线$普通线
100
AcDbVertex
100
AcDb2dVertex
 10
769.0553684150701
 20
773.513625594005
 30
0.0
  0
VERTEX
  5
4F9
330
4A1
100
AcDbEntity
  8
Make2D$可见线$普通线
100
AcDbVertex
100
AcDb2dVertex
 10
769.1289000767794
 20
773.4655041693071
 30
0.0
  0
VERTEX
  5
4FA
330
4A1
100
AcDbEntity
  8
Make2D$可见线$普通线
100
AcDbVertex
100
AcDb2dVertex
 10
769.2037905624876
 20
773.4191242375357
 30
0.0
  0
VERTEX
  5
4FB
330
4A1
100
AcDbEntity
  8
Make2D$可见线$普通线
100
AcDbVertex
100
AcDb2dVertex
 10
769.2800182499386
 20
773.3744539957464
 30
0.0
  0
VERTEX
  5
4FC
330
4A1
100
AcDbEntity
  8
Make2D$可见线$普通线
100
AcDbVertex
100
AcDb2dVertex
 10
769.3575615168758
 20
773.3314616409947
 30
0.0
  0
VERTEX
  5
4FD
330
4A1
100
AcDbEntity
  8
Make2D$可见线$普通线
100
AcDbVertex
100
AcDb2dVertex
 10
769.4363987410428
 20
773.2901153703364
 30
0.0
  0
VERTEX
  5
4FE
330
4A1
100
AcDbEntity
  8
Make2D$可见线$普通线
100
AcDbVertex
100
AcDb2dVertex
 10
769.5165083001831
 20
773.2503833808269
 30
0.0
  0
VERTEX
  5
4FF
330
4A1
100
AcDbEntity
  8
Make2D$可见线$普通线
100
AcDbVertex
100
AcDb2dVertex
 10
769.5978685720399
 20
773.2122338695216
 30
0.0
  0
VERTEX
  5
500
330
4A1
100
AcDbEntity
  8
Make2D$可见线$普通线
100
AcDbVertex
100
AcDb2dVertex
 10
769.6804579343576
 20
773.1756350334767
 30
0.0
  0
VERTEX
  5
501
330
4A1
100
AcDbEntity
  8
Make2D$可见线$普通线
100
AcDbVertex
100
AcDb2dVertex
 10
769.7642547648793
 20
773.1405550697475
 30
0.0
  0
VERTEX
  5
502
330
4A1
100
AcDbEntity
  8
Make2D$可见线$普通线
100
AcDbVertex
100
AcDb2dVertex
 10
769.8492374413486
 20
773.1069621753896
 30
0.0
  0
VERTEX
  5
503
330
4A1
100
AcDbEntity
  8
Make2D$可见线$普通线
100
AcDbVertex
100
AcDb2dVertex
 10
769.935384341509
 20
773.0748245474585
 30
0.0
  0
VERTEX
  5
504
330
4A1
100
AcDbEntity
  8
Make2D$可见线$普通线
100
AcDbVertex
100
AcDb2dVertex
 10
770.0226738431041
 20
773.0441103830099
 30
0.0
  0
VERTEX
  5
505
330
4A1
100
AcDbEntity
  8
Make2D$可见线$普通线
100
AcDbVertex
100
AcDb2dVertex
 10
770.1110843238775
 20
773.0147878790996
 30
0.0
  0
VERTEX
  5
506
330
4A1
100
AcDbEntity
  8
Make2D$可见线$普通线
100
AcDbVertex
100
AcDb2dVertex
 10
770.2911817339336
 20
772.9601906411154
 30
0.0
  0
VERTEX
  5
507
330
4A1
100
AcDbEntity
  8
Make2D$可见线$普通线
100
AcDbVertex
100
AcDb2dVertex
 10
770.4755035936253
 20
772.9107784099508
 30
0.0
  0
VERTEX
  5
508
330
4A1
100
AcDbEntity
  8
Make2D$可见线$普通线
100
AcDbVertex
100
AcDb2dVertex
 10
770.7121146728653
 20
772.8579469024027
 30
0.0
  0
VERTEX
  5
509
330
4A1
100
AcDbEntity
  8
Make2D$可见线$普通线
100
AcDbVertex
100
AcDb2dVertex
 10
770.9503224700597
 20
772.8114569867854
 30
0.0
  0
VERTEX
  5
50A
330
4A1
100
AcDbEntity
  8
Make2D$可见线$普通线
100
AcDbVertex
100
AcDb2dVertex
 10
771.1898712228926
 20
772.7713767422183
 30
0.0
  0
VERTEX
  5
50B
330
4A1
100
AcDbEntity
  8
Make2D$可见线$普通线
100
AcDbVertex
100
AcDb2dVertex
 10
771.4305014949745
 20
772.7377604449167
 30
0.0
  0
VERTEX
  5
50C
330
4A1
100
AcDbEntity
  8
Make2D$可见线$普通线
100
AcDbVertex
100
AcDb2dVertex
 10
771.6719511101556
 20
772.7106483329479
 30
0.0
  0
VERTEX
  5
50D
330
4A1
100
AcDbEntity
  8
Make2D$可见线$普通线
100
AcDbVertex
100
AcDb2dVertex
 10
771.9139561038277
 20
772.6900664470753
 30
0.0
  0
VERTEX
  5
50E
330
4A1
100
AcDbEntity
  8
Make2D$可见线$普通线
100
AcDbVertex
100
AcDb2dVertex
 10
772.1562516839786
 20
772.6760265490115
 30
0.0
  0
VERTEX
  5
50F
330
4A1
100
AcDbEntity
  8
Make2D$可见线$普通线
100
AcDbVertex
100
AcDb2dVertex
 10
772.3985731946572
 20
772.6685261175967
 30
0.0
  0
VERTEX
  5
510
330
4A1
100
AcDbEntity
  8
Make2D$可见线$普通线
100
AcDbVertex
100
AcDb2dVertex
 10
772.9441707700913
 20
772.6643169218066
 30
0.0
  0
VERTEX
  5
511
330
4A1
100
AcDbEntity
  8
Make2D$可见线$普通线
100
AcDbVertex
100
AcDb2dVertex
 10
773.2171146087038
 20
772.6703980054017
 30
0.0
  0
VERTEX
  5
512
330
4A1
100
AcDbEntity
  8
Make2D$可见线$普通线
100
AcDbVertex
100
AcDb2dVertex
 10
773.4899367785512
 20
772.6819400795118
 30
0.0
  0
VERTEX
  5
513
330
4A1
100
AcDbEntity
  8
Make2D$可见线$普通线
100
AcDbVertex
100
AcDb2dVertex
 10
773.7624734394064
 20
772.698937853624
 30
0.0
  0
VERTEX
  5
514
330
4A1
100
AcDbEntity
  8
Make2D$可见线$普通线
100
AcDbVertex
100
AcDb2dVertex
 10
774.0345610937821
 20
772.7213794879358
 30
0.0
  0
VERTEX
  5
515
330
4A1
100
AcDbEntity
  8
Make2D$可见线$普通线
100
AcDbVertex
100
AcDb2dVertex
 10
774.3060369137119
 20
772.7492466203068
 30
0.0
  0
VERTEX
  5
516
330
4A1
100
AcDbEntity
  8
Make2D$可见线$普通线
100
AcDbVertex
100
AcDb2dVertex
 10
774.5767390651342
 20
772.7825144127272
 30
0.0
  0
VERTEX
  5
517
330
4A1
100
AcDbEntity
  8
Make2D$可见线$普通线
100
AcDbVertex
100
AcDb2dVertex
 10
774.869034157383
 20
772.8229717269943
 30
0.0
  0
VERTEX
  5
518
330
4A1
100
AcDbEntity
  8
Make2D$可见线$普通线
100
AcDbVertex
100
AcDb2dVertex
 10
775.1604693905656
 20
772.8711226823674
 30
0.0
  0
VERTEX
  5
519
330
4A1
100
AcDbEntity
  8
Make2D$可见线$普通线
100
AcDbVertex
100
AcDb2dVertex
 10
775.4507415015967
 20
772.9269374087322
 30
0.0
  0
VERTEX
  5
51A
330
4A1
100
AcDbEntity
  8
Make2D$可见线$普通线
100
AcDbVertex
100
AcDb2dVertex
 10
775.7395487952293
 20
772.9903701181308
 30
0.0
  0
VERTEX
  5
51B
330
4A1
100
AcDbEntity
  8
Make2D$可见线$普通线
100
AcDbVertex
100
AcDb2dVertex
 10
776.0265921869079
 20
773.061359221313
 30
0.0
  0
VERTEX
  5
51C
330
4A1
100
AcDbEntity
  8
Make2D$可见线$普通线
100
AcDbVertex
100
AcDb2dVertex
 10
776.3115762342959
 20
773.1398275260972
 30
0.0
  0
VERTEX
  5
51D
330
4A1
100
AcDbEntity
  8
Make2D$可见线$普通线
100
AcDbVertex
100
AcDb2dVertex
 10
776.5942101500187
 20
773.2256825162077
 30
0.0
  0
VERTEX
  5
51E
330
4A1
100
AcDbEntity
  8
Make2D$可见线$普通线
100
AcDbVertex
100
AcDb2dVertex
 10
776.8742087883375
 20
773.3188167084784
 30
0.0
  0
VERTEX
  5
51F
330
4A1
100
AcDbEntity
  8
Make2D$可见线$普通线
100
AcDbVertex
100
AcDb2dVertex
 10
777.0146786110292
 20
773.3678399072778
 30
0.0
  0
VERTEX
  5
520
330
4A1
100
AcDbEntity
  8
Make2D$可见线$普通线
100
AcDbVertex
100
AcDb2dVertex
 10
777.1542660122667
 20
773.4200676836875
 30
0.0
  0
VERTEX
  5
521
330
4A1
100
AcDbEntity
  8
Make2D$可见线$普通线
100
AcDbVertex
100
AcDb2dVertex
 10
777.2928620491653
 20
773.4754765044784
 30
0.0
  0
VERTEX
  5
522
330
4A1
100
AcDbEntity
  8
Make2D$可见线$普通线
100
AcDbVertex
100
AcDb2dVertex
 10
777.430358612839
 20
773.5340379200705
 30
0.0
  0
VERTEX
  5
523
330
4A1
100
AcDbEntity
  8
Make2D$可见线$普通线
100
AcDbVertex
100
AcDb2dVertex
 10
777.566648704847
 20
773.5957186019167
 30
0.0
  0
VERTEX
  5
524
330
4A1
100
AcDbEntity
  8
Make2D$可见线$普通线
100
AcDbVertex
100
AcDb2dVertex
 10
777.701626711551
 20
773.6604803985059
 30
0.0
  0
VERTEX
  5
525
330
4A1
100
AcDbEntity
  8
Make2D$可见线$普通线
100
AcDbVertex
100
AcDb2dVertex
 10
777.8351886749093
 20
773.7282804098336
 30
0.0
  0
VERTEX
  5
526
330
4A1
100
AcDbEntity
  8
Make2D$可见线$普通线
100
AcDbVertex
100
AcDb2dVertex
 10
777.9672325582744
 20
773.7990710800674
 30
0.0
  0
VERTEX
  5
527
330
4A1
100
AcDbEntity
  8
Make2D$可见线$普通线
100
AcDbVertex
100
AcDb2dVertex
 10
778.0976585057605
 20
773.8728003079932
 30
0.0
  0
VERTEX
  5
528
330
4A1
100
AcDbEntity
  8
Make2D$可见线$普通线
100
AcDbVertex
100
AcDb2dVertex
 10
778.2263690938079
 20
773.949411574713
 30
0.0
  0
VERTEX
  5
529
330
4A1
100
AcDbEntity
  8
Make2D$可见线$普通线
100
AcDbVertex
100
AcDb2dVertex
 10
778.35326957361
 20
774.0288440879342
 30
0.0
  0
VERTEX
  5
52A
330
4A1
100
AcDbEntity
  8
Make2D$可见线$普通线
100
AcDbVertex
100
AcDb2dVertex
 10
778.4782681031404
 20
774.1110329420799
 30
0.0
  0
VERTEX
  5
52B
330
4A1
100
AcDbEntity
  8
Make2D$可见线$普通线
100
AcDbVertex
100
AcDb2dVertex
 10
778.6012759675855
 20
774.195909293337
 30
0.0
  0
VERTEX
  5
52C
330
4A1
100
AcDbEntity
  8
Make2D$可见线$普通线
100
AcDbVertex
100
AcDb2dVertex
 10
778.7222077870838
 20
774.2834005486617
 30
0.0
  0
VERTEX
  5
52D
330
4A1
100
AcDbEntity
  8
Make2D$可见线$普通线
100
AcDbVertex
100
AcDb2dVertex
 10
778.8409817107557
 20
774.3734305676651
 30
0.0
  0
VERTEX
  5
52E
330
4A1
100
AcDbEntity
  8
Make2D$可见线$普通线
100
AcDbVertex
100
AcDb2dVertex
 10
778.9575195961254
 20
774.4659198762274
 30
0.0
 42
-0.0108583417164416
  0
VERTEX
  5
52F
330
4A1
100
AcDbEntity
  8
Make2D$可见线$普通线
100
AcDbVertex
100
AcDb2dVertex
 10
778.9575194353355
 20
780.3165037322559
 30
0.0
  0
SEQEND
  5
530
330
4A1
100
AcDbEntity
  8
Make2D$可见线$普通线
  0
ARC
  5
531
330
1F
100
AcDbEntity
  8
Make2D$可见线$普通线
100
AcDbCircle
 10
779.1744834940937
 20
612.8912109939465
 30
0.0
 40
171.0000008714636
100
AcDbArc
 50
85.83963645337171
 51
94.16036352886906
  0
POLYLINE
  5
532
330
1F
100
AcDbEntity
  8
dessin 2D
100
AcDb2dPolyline
 66
     1
 10
0.0
 20
0.0
 30
0.0
  0
VERTEX
  5
533
330
532
100
AcDbEntity
  8
dessin 2D
100
AcDbVertex
100
AcDb2dVertex
 10
805.8123958734748
 20
763.3539835191898
 30
0.0
 42
-0.3618946383296521
  0
VERTEX
  5
534
330
532
100
AcDbEntity
  8
dessin 2D
100
AcDbVertex
100
AcDb2dVertex
 10
804.1741370847609
 20
765.32099003401
 30
0.0
  0
VERTEX
  5
535
330
532
100
AcDbEntity
  8
dessin 2D
100
AcDbVertex
100
AcDb2dVertex
 10
804.1741308969431
 20
770.8911980546059
 30
0.0
  0
VERTEX
  5
536
330
532
100
AcDbEntity
  8
dessin 2D
100
AcDbVertex
100
AcDb2dVertex
 10
804.1741308969431
 20
781.8911980546059
 30
0.0
  0
VERTEX
  5
537
330
532
100
AcDbEntity
  8
dessin 2D
100
AcDbVertex
100
AcDb2dVertex
 10
804.1744025659609
 20
782.3911980546059
 30
0.0
 42
0.4147884418523801
  0
VERTEX
  5
538
330
532
100
AcDbEntity
  8
dessin 2D
100
AcDbVertex
100
AcDb2dVertex
 10
803.6743971326795
 20
782.8911980546059
 30
0.0
  0
VERTEX
  5
539
330
532
100
AcDbEntity
  8
dessin 2D
100
AcDbVertex
100
AcDb2dVertex
 10
796.7990369008954
 20
782.8911980546059
 30
0.0
  0
VERTEX
  5
53A
330
532
100
AcDbEntity
  8
dessin 2D
100
AcDbVertex
100
AcDb2dVertex
 10
792.1744834941028
 20
782.8912049611592
 30
0.0
  0
VERTEX
  5
53B
330
532
100
AcDbEntity
  8
dessin 2D
100
AcDbVertex
100
AcDb2dVertex
 10
796.7991704690237
 20
782.8912118677129
 30
0.0
  0
VERTEX
  5
53C
330
532
100
AcDbEntity
  8
dessin 2D
100
AcDbVertex
100
AcDb2dVertex
 10
797.3730813858597
 20
782.8912118677127
 30
0.0
  0
SEQEND
  5
53D
330
532
100
AcDbEntity
  8
dessin 2D
  0
POLYLINE
  5
53E
330
1F
100
AcDbEntity
  8
Make2D$可见线$普通线
100
AcDb2dPolyline
 66
     1
 10
0.0
 20
0.0
 30
0.0
  0
VERTEX
  5
53F
330
53E
100
AcDbEntity
  8
Make2D$可见线$普通线
100
AcDbVertex
100
AcDb2dVertex
 10
764.2058291340306
 20
763.8605529259308
 30
0.0
  0
VERTEX
  5
540
330
53E
100
AcDbEntity
  8
Make2D$可见线$普通线
100
AcDbVertex
100
AcDb2dVertex
 10
764.1996899248641
 20
763.8599685249238
 30
0.0
  0
VERTEX
  5
541
330
53E
100
AcDbEntity
  8
Make2D$可见线$普通线
100
AcDbVertex
100
AcDb2dVertex
 10
764.4205477923635
 20
763.8566639469109
 30
0.0
  0
VERTEX
  5
542
330
53E
100
AcDbEntity
  8
Make2D$可见线$普通线
100
AcDbVertex
100
AcDb2dVertex
 10
764.4913035710496
 20
763.8557067414397
 30
0.0
  0
SEQEND
  5
543
330
53E
100
AcDbEntity
  8
Make2D$可见线$普通线
  0
POLYLINE
  5
544
330
1F
100
AcDbEntity
  8
Make2D$可见线$普通线
100
AcDb2dPolyline
 66
     1
 10
0.0
 20
0.0
 30
0.0
  0
VERTEX
  5
545
330
544
100
AcDbEntity
  8
Make2D$可见线$普通线
100
AcDbVertex
100
AcDb2dVertex
 10
793.8576586028157
 20
763.8557017815269
 30
0.0
  0
VERTEX
  5
546
330
544
100
AcDbEntity
  8
Make2D$可见线$普通线
100
AcDbVertex
100
AcDb2dVertex
 10
793.9284161737289
 20
763.8566589043339
 30
0.0
  0
VERTEX
  5
547
330
544
100
AcDbEntity
  8
Make2D$可见线$普通线
100
AcDbVertex
100
AcDb2dVertex
 10
794.1492739605161
 20
763.8599630422999
 30
0.0
  0
SEQEND
  5
548
330
544
100
AcDbEntity
  8
Make2D$可见线$普通线
  0
POLYLINE
  5
549
330
1F
100
AcDbEntity
  8
Make2D$可见线$普通线
100
AcDb2dPolyline
 66
     1
 10
0.0
 20
0.0
 30
0.0
  0
VERTEX
  5
54A
330
549
100
AcDbEntity
  8
Make2D$可见线$普通线
100
AcDbVertex
100
AcDb2dVertex
 10
766.1744834940927
 20
771.8500403826679
 30
0.0
  0
VERTEX
  5
54B
330
549
100
AcDbEntity
  8
Make2D$可见线$普通线
100
AcDbVertex
100
AcDb2dVertex
 10
766.177043435417
 20
772.2695263483287
 30
0.0
 42
0.1008547925391575
  0
VERTEX
  5
54C
330
549
100
AcDbEntity
  8
Make2D$可见线$普通线
100
AcDbVertex
100
AcDb2dVertex
 10
767.9159536270844
 20
774.2212063012545
 30
0.0
  0
VERTEX
  5
54D
330
549
100
AcDbEntity
  8
Make2D$可见线$普通线
100
AcDbVertex
100
AcDb2dVertex
 10
767.9666217493727
 20
774.1366488428631
 30
0.0
  0
VERTEX
  5
54E
330
549
100
AcDbEntity
  8
Make2D$可见线$普通线
100
AcDbVertex
100
AcDb2dVertex
 10
768.0190332858724
 20
774.0544942426022
 30
0.0
  0
VERTEX
  5
54F
330
549
100
AcDbEntity
  8
Make2D$可见线$普通线
100
AcDbVertex
100
AcDb2dVertex
 10
768.073167742192
 20
773.9747080640428
 30
0.0
  0
VERTEX
  5
550
330
549
100
AcDbEntity
  8
Make2D$可见线$普通线
100
AcDbVertex
100
AcDb2dVertex
 10
768.1290046239399
 20
773.8972558707555
 30
0.0
  0
VERTEX
  5
551
330
549
100
AcDbEntity
  8
Make2D$可见线$普通线
100
AcDbVertex
100
AcDb2dVertex
 10
768.1865234367243
 20
773.8221032263115
 30
0.0
  0
VERTEX
  5
552
330
549
100
AcDbEntity
  8
Make2D$可见线$普通线
100
AcDbVertex
100
AcDb2dVertex
 10
768.245703686154
 20
773.7492156942812
 30
0.0
  0
VERTEX
  5
553
330
549
100
AcDbEntity
  8
Make2D$可见线$普通线
100
AcDbVertex
100
AcDb2dVertex
 10
768.3065248778372
 20
773.6785588382357
 30
0.0
  0
VERTEX
  5
554
330
549
100
AcDbEntity
  8
Make2D$可见线$普通线
100
AcDbVertex
100
AcDb2dVertex
 10
768.3689665173825
 20
773.6100982217461
 30
0.0
  0
VERTEX
  5
555
330
549
100
AcDbEntity
  8
Make2D$可见线$普通线
100
AcDbVertex
100
AcDb2dVertex
 10
768.4330081103983
 20
773.5437994083827
 30
0.0
  0
VERTEX
  5
556
330
549
100
AcDbEntity
  8
Make2D$可见线$普通线
100
AcDbVertex
100
AcDb2dVertex
 10
768.498629162493
 20
773.479627961717
 30
0.0
  0
VERTEX
  5
557
330
549
100
AcDbEntity
  8
Make2D$可见线$普通线
100
AcDbVertex
100
AcDb2dVertex
 10
768.5658091792747
 20
773.4175494453192
 30
0.0
  0
VERTEX
  5
558
330
549
100
AcDbEntity
  8
Make2D$可见线$普通线
100
AcDbVertex
100
AcDb2dVertex
 10
768.6345276663523
 20
773.3575294227608
 30
0.0
  0
VERTEX
  5
559
330
549
100
AcDbEntity
  8
Make2D$可见线$普通线
100
AcDbVertex
100
AcDb2dVertex
 10
768.7047641293342
 20
773.2995334576125
 30
0.0
  0
VERTEX
  5
55A
330
549
100
AcDbEntity
  8
Make2D$可见线$普通线
100
AcDbVertex
100
AcDb2dVertex
 10
768.7764980738289
 20
773.2435271134449
 30
0.0
  0
VERTEX
  5
55B
330
549
100
AcDbEntity
  8
Make2D$可见线$普通线
100
AcDbVertex
100
AcDb2dVertex
 10
768.8497090054444
 20
773.189475953829
 30
0.0
  0
VERTEX
  5
55C
330
549
100
AcDbEntity
  8
Make2D$可见线$普通线
100
AcDbVertex
100
AcDb2dVertex
 10
768.9243764297897
 20
773.1373455423358
 30
0.0
  0
VERTEX
  5
55D
330
549
100
AcDbEntity
  8
Make2D$可见线$普通线
100
AcDbVertex
100
AcDb2dVertex
 10
769.000479852473
 20
773.087101442536
 30
0.0
  0
VERTEX
  5
55E
330
549
100
AcDbEntity
  8
Make2D$可见线$普通线
100
AcDbVertex
100
AcDb2dVertex
 10
769.0779987791025
 20
773.0387092180005
 30
0.0
  0
VERTEX
  5
55F
330
549
100
AcDbEntity
  8
Make2D$可见线$普通线
100
AcDbVertex
100
AcDb2dVertex
 10
769.1569127152869
 20
772.9921344323001
 30
0.0
  0
VERTEX
  5
560
330
549
100
AcDbEntity
  8
Make2D$可见线$普通线
100
AcDbVertex
100
AcDb2dVertex
 10
769.2372011666345
 20
772.9473426490058
 30
0.0
  0
VERTEX
  5
561
330
549
100
AcDbEntity
  8
Make2D$可见线$普通线
100
AcDbVertex
100
AcDb2dVertex
 10
769.3188436387537
 20
772.9042994316884
 30
0.0
  0
VERTEX
  5
562
330
549
100
AcDbEntity
  8
Make2D$可见线$普通线
100
AcDbVertex
100
AcDb2dVertex
 10
769.4018196372529
 20
772.8629703439185
 30
0.0
  0
VERTEX
  5
563
330
549
100
AcDbEntity
  8
Make2D$可见线$普通线
100
AcDbVertex
100
AcDb2dVertex
 10
769.486108667741
 20
772.8233209492673
 30
0.0
  0
VERTEX
  5
564
330
549
100
AcDbEntity
  8
Make2D$可见线$普通线
100
AcDbVertex
100
AcDb2dVertex
 10
769.5716902358262
 20
772.7853168113058
 30
0.0
  0
VERTEX
  5
565
330
549
100
AcDbEntity
  8
Make2D$可见线$普通线
100
AcDbVertex
100
AcDb2dVertex
 10
769.6585438471168
 20
772.7489234936047
 30
0.0
  0
VERTEX
  5
566
330
549
100
AcDbEntity
  8
Make2D$可见线$普通线
100
AcDbVertex
100
AcDb2dVertex
 10
769.7466490072212
 20
772.7141065597348
 30
0.0
  0
VERTEX
  5
567
330
549
100
AcDbEntity
  8
Make2D$可见线$普通线
100
AcDbVertex
100
AcDb2dVertex
 10
769.8359852217479
 20
772.6808315732667
 30
0.0
  0
VERTEX
  5
568
330
549
100
AcDbEntity
  8
Make2D$可见线$普通线
100
AcDbVertex
100
AcDb2dVertex
 10
769.9265319963055
 20
772.6490640977718
 30
0.0
  0
VERTEX
  5
569
330
549
100
AcDbEntity
  8
Make2D$可见线$普通线
100
AcDbVertex
100
AcDb2dVertex
 10
770.0182688365022
 20
772.6187696968207
 30
0.0
  0
VERTEX
  5
56A
330
549
100
AcDbEntity
  8
Make2D$可见线$普通线
100
AcDbVertex
100
AcDb2dVertex
 10
770.1111752479466
 20
772.5899139339841
 30
0.0
  0
VERTEX
  5
56B
330
549
100
AcDbEntity
  8
Make2D$可见线$普通线
100
AcDbVertex
100
AcDb2dVertex
 10
770.3004148070117
 20
772.5363805769383
 30
0.0
  0
VERTEX
  5
56C
330
549
100
AcDbEntity
  8
Make2D$可见线$普通线
100
AcDbVertex
100
AcDb2dVertex
 10
770.5445144316836
 20
772.4790482099048
 30
0.0
  0
VERTEX
  5
56D
330
549
100
AcDbEntity
  8
Make2D$可见线$普通线
100
AcDbVertex
100
AcDb2dVertex
 10
770.7904388716337
 20
772.4286004237791
 30
0.0
  0
VERTEX
  5
56E
330
549
100
AcDbEntity
  8
Make2D$可见线$普通线
100
AcDbVertex
100
AcDb2dVertex
 10
771.0378958383753
 20
772.3851191535123
 30
0.0
  0
VERTEX
  5
56F
330
549
100
AcDbEntity
  8
Make2D$可见线$普通线
100
AcDbVertex
100
AcDb2dVertex
 10
771.2865883868262
 20
772.348669722474
 30
0.0
  0
VERTEX
  5
570
330
549
100
AcDbEntity
  8
Make2D$可见线$普通线
100
AcDbVertex
100
AcDb2dVertex
 10
771.5362160998748
 20
772.3193005284753
 30
0.0
  0
VERTEX
  5
571
330
549
100
AcDbEntity
  8
Make2D$可见线$普通线
100
AcDbVertex
100
AcDb2dVertex
 10
771.786476296822
 20
772.2970428314509
 30
0.0
  0
VERTEX
  5
572
330
549
100
AcDbEntity
  8
Make2D$可见线$普通线
100
AcDbVertex
100
AcDb2dVertex
 10
772.0370652555081
 20
772.2819106447446
 30
0.0
  0
VERTEX
  5
573
330
549
100
AcDbEntity
  8
Make2D$可见线$普通线
100
AcDbVertex
100
AcDb2dVertex
 10
772.2876794377737
 20
772.2739007307691
 30
0.0
  0
VERTEX
  5
574
330
549
100
AcDbEntity
  8
Make2D$可见线$普通线
100
AcDbVertex
100
AcDb2dVertex
 10
772.8565835422411
 20
772.2694252928366
 30
0.0
  0
VERTEX
  5
575
330
549
100
AcDbEntity
  8
Make2D$可见线$普通线
100
AcDbVertex
100
AcDb2dVertex
 10
773.141196881886
 20
772.276032479381
 30
0.0
  0
VERTEX
  5
576
330
549
100
AcDbEntity
  8
Make2D$可见线$普通线
100
AcDbVertex
100
AcDb2dVertex
 10
773.4256732306917
 20
772.28854072836
 30
0.0
  0
VERTEX
  5
577
330
549
100
AcDbEntity
  8
Make2D$可见线$普通线
100
AcDbVertex
100
AcDb2dVertex
 10
773.7098291270374
 20
772.30694387739
 30
0.0
  0
VERTEX
  5
578
330
549
100
AcDbEntity
  8
Make2D$可见线$普通线
100
AcDbVertex
100
AcDb2dVertex
 10
773.9934815223963
 20
772.3312281650092
 30
0.0
  0
VERTEX
  5
579
330
549
100
AcDbEntity
  8
Make2D$可见线$普通线
100
AcDbVertex
100
AcDb2dVertex
 10
774.2764481741791
 20
772.3613722643056
 30
0.0
  0
VERTEX
  5
57A
330
549
100
AcDbEntity
  8
Make2D$可见线$普通线
100
AcDbVertex
100
AcDb2dVertex
 10
774.558548035481
 20
772.3973473408558
 30
0.0
  0
VERTEX
  5
57B
330
549
100
AcDbEntity
  8
Make2D$可见线$普通线
100
AcDbVertex
100
AcDb2dVertex
 10
774.8659010946467
 20
772.4414631821319
 30
0.0
  0
VERTEX
  5
57C
330
549
100
AcDbEntity
  8
Make2D$可见线$普通线
100
AcDbVertex
100
AcDb2dVertex
 10
775.1722938807795
 20
772.4938352454478
 30
0.0
  0
VERTEX
  5
57D
330
549
100
AcDbEntity
  8
Make2D$可见线$普通线
100
AcDbVertex
100
AcDb2dVertex
 10
775.4773943009471
 20
772.5544294050508
 30
0.0
  0
VERTEX
  5
57E
330
549
100
AcDbEntity
  8
Make2D$可见线$普通线
100
AcDbVertex
100
AcDb2dVertex
 10
775.7808720899026
 20
772.6231937491715
 30
0.0
  0
VERTEX
  5
57F
330
549
100
AcDbEntity
  8
Make2D$可见线$普通线
100
AcDbVertex
100
AcDb2dVertex
 10
776.0823999989465
 20
772.7000587183
 30
0.0
  0
VERTEX
  5
580
330
549
100
AcDbEntity
  8
Make2D$可见线$普通线
100
AcDbVertex
100
AcDb2dVertex
 10
776.3816549711355
 20
772.784937338604
 30
0.0
  0
VERTEX
  5
581
330
549
100
AcDbEntity
  8
Make2D$可见线$普通线
100
AcDbVertex
100
AcDb2dVertex
 10
776.6783192939799
 20
772.8777255488538
 30
0.0
  0
VERTEX
  5
582
330
549
100
AcDbEntity
  8
Make2D$可见线$普通线
100
AcDbVertex
100
AcDb2dVertex
 10
776.97208172101
 20
772.9783026182856
 30
0.0
  0
VERTEX
  5
583
330
549
100
AcDbEntity
  8
Make2D$可见线$普通线
100
AcDbVertex
100
AcDb2dVertex
 10
777.1209486284101
 20
773.0318311370734
 30
0.0
  0
VERTEX
  5
584
330
549
100
AcDbEntity
  8
Make2D$可见线$普通线
100
AcDbVertex
100
AcDb2dVertex
 10
777.2688408914505
 20
773.0887786209291
 30
0.0
  0
VERTEX
  5
585
330
549
100
AcDbEntity
  8
Make2D$可见线$普通线
100
AcDbVertex
100
AcDb2dVertex
 10
777.4156415262756
 20
773.149118727977
 30
0.0
  0
VERTEX
  5
586
330
549
100
AcDbEntity
  8
Make2D$可见线$普通线
100
AcDbVertex
100
AcDb2dVertex
 10
777.5612344963772
 20
773.2128198031245
 30
0.0
  0
VERTEX
  5
587
330
549
100
AcDbEntity
  8
Make2D$可见线$普通线
100
AcDbVertex
100
AcDb2dVertex
 10
777.7055050132094
 20
773.2798449212492
 30
0.0
  0
VERTEX
  5
588
330
549
100
AcDbEntity
  8
Make2D$可见线$普通线
100
AcDbVertex
100
AcDb2dVertex
 10
777.8483398343442
 20
773.3501519507556
 30
0.0
  0
VERTEX
  5
589
330
549
100
AcDbEntity
  8
Make2D$可见线$普通线
100
AcDbVertex
100
AcDb2dVertex
 10
777.9896275575577
 20
773.4236936373255
 30
0.0
  0
VERTEX
  5
58A
330
549
100
AcDbEntity
  8
Make2D$可见线$普通线
100
AcDbVertex
100
AcDb2dVertex
 10
778.1292589092599
 20
773.5004177075455
 30
0.0
  0
VERTEX
  5
58B
330
549
100
AcDbEntity
  8
Make2D$可见线$普通线
100
AcDbVertex
100
AcDb2dVertex
 10
778.2671270257011
 20
773.580266991943
 30
0.0
  0
VERTEX
  5
58C
330
549
100
AcDbEntity
  8
Make2D$可见线$普通线
100
AcDbVertex
100
AcDb2dVertex
 10
778.4031277254443
 20
773.6631795668316
 30
0.0
  0
VERTEX
  5
58D
330
549
100
AcDbEntity
  8
Make2D$可见线$普通线
100
AcDbVertex
100
AcDb2dVertex
 10
778.5371597716386
 20
773.7490889142247
 30
0.0
  0
VERTEX
  5
58E
330
549
100
AcDbEntity
  8
Make2D$可见线$普通线
100
AcDbVertex
100
AcDb2dVertex
 10
778.6691251227173
 20
773.8379240989523
 30
0.0
  0
VERTEX
  5
58F
330
549
100
AcDbEntity
  8
Make2D$可见线$普通线
100
AcDbVertex
100
AcDb2dVertex
 10
778.7989291702121
 20
773.9296099619952
 30
0.0
  0
VERTEX
  5
590
330
549
100
AcDbEntity
  8
Make2D$可见线$普通线
100
AcDbVertex
100
AcDb2dVertex
 10
778.9264809624851
 20
774.0240673289394
 30
0.0
  0
VERTEX
  5
591
330
549
100
AcDbEntity
  8
Make2D$可见线$普通线
100
AcDbVertex
100
AcDb2dVertex
 10
779.0516934132768
 20
774.1212132323529
 30
0.0
  0
VERTEX
  5
592
330
549
100
AcDbEntity
  8
Make2D$可见线$普通线
100
AcDbVertex
100
AcDb2dVertex
 10
779.17448349409
 20
774.2209611468011
 30
0.0
  0
VERTEX
  5
593
330
549
100
AcDbEntity
  8
Make2D$可见线$普通线
100
AcDbVertex
100
AcDb2dVertex
 10
779.2972734972972
 20
774.1212133702596
 30
0.0
  0
VERTEX
  5
594
330
549
100
AcDbEntity
  8
Make2D$可见线$普通线
100
AcDbVertex
100
AcDb2dVertex
 10
779.4224858709891
 20
774.0240676067091
 30
0.0
  0
VERTEX
  5
595
330
549
100
AcDbEntity
  8
Make2D$可见线$普通线
100
AcDbVertex
100
AcDb2dVertex
 10
779.5500375864927
 20
773.9296103817352
 30
0.0
  0
VERTEX
  5
596
330
549
100
AcDbEntity
  8
Make2D$可见线$普通线
100
AcDbVertex
100
AcDb2dVertex
 10
779.6798415573583
 20
773.8379246629095
 30
0.0
  0
VERTEX
  5
597
330
549
100
AcDbEntity
  8
Make2D$可见线$普通线
100
AcDbVertex
100
AcDb2dVertex
 10
779.8118068317447
 20
773.7490896247708
 30
0.0
  0
VERTEX
  5
598
330
549
100
AcDbEntity
  8
Make2D$可见线$普通线
100
AcDbVertex
100
AcDb2dVertex
 10
779.9458388009709
 20
773.6631804264495
 30
0.0
  0
VERTEX
  5
599
330
549
100
AcDbEntity
  8
Make2D$可见线$普通线
100
AcDbVertex
100
AcDb2dVertex
 10
780.0818394232458
 20
773.5802680032102
 30
0.0
  0
VERTEX
  5
59A
330
549
100
AcDbEntity
  8
Make2D$可见线$普通线
100
AcDbVertex
100
AcDb2dVertex
 10
780.2197074614868
 20
773.5004188731185
 30
0.0
  0
VERTEX
  5
59B
330
549
100
AcDbEntity
  8
Make2D$可见线$普通线
100
AcDbVertex
100
AcDb2dVertex
 10
780.3593387340159
 20
773.4236949599226
 30
0.0
  0
VERTEX
  5
59C
330
549
100
AcDbEntity
  8
Make2D$可见线$普通线
100
AcDbVertex
100
AcDb2dVertex
 10
780.5006263768377
 20
773.3501534331384
 30
0.0
  0
VERTEX
  5
59D
330
549
100
AcDbEntity
  8
Make2D$可见线$普通线
100
AcDbVertex
100
AcDb2dVertex
 10
780.64346111611
 20
773.2798465662046
 30
0.0
  0
VERTEX
  5
59E
330
549
100
AcDbEntity
  8
Make2D$可见线$普通线
100
AcDbVertex
100
AcDb2dVertex
 10
780.7877315493555
 20
773.2128216134466
 30
0.0
  0
VERTEX
  5
59F
330
549
100
AcDbEntity
  8
Make2D$可见线$普通线
100
AcDbVertex
100
AcDb2dVertex
 10
780.9333244338891
 20
773.1491207064477
 30
0.0
  0
VERTEX
  5
5A0
330
549
100
AcDbEntity
  8
Make2D$可见线$普通线
100
AcDbVertex
100
AcDb2dVertex
 10
781.0801249809083
 20
773.0887807702992
 30
0.0
  0
VERTEX
  5
5A1
330
549
100
AcDbEntity
  8
Make2D$可见线$普通线
100
AcDbVertex
100
AcDb2dVertex
 10
781.2280171536493
 20
773.0318334600425
 30
0.0
  0
VERTEX
  5
5A2
330
549
100
AcDbEntity
  8
Make2D$可见线$普通线
100
AcDbVertex
100
AcDb2dVertex
 10
781.3768839680026
 20
772.9783051174858
 30
0.0
  0
VERTEX
  5
5A3
330
549
100
AcDbEntity
  8
Make2D$可见线$普通线
100
AcDbVertex
100
AcDb2dVertex
 10
781.6706462199955
 20
772.8777283969875
 30
0.0
  0
VERTEX
  5
5A4
330
549
100
AcDbEntity
  8
Make2D$可见线$普通线
100
AcDbVertex
100
AcDb2dVertex
 10
781.9673103634594
 20
772.7849405439291
 30
0.0
  0
VERTEX
  5
5A5
330
549
100
AcDbEntity
  8
Make2D$可见线$普通线
100
AcDbVertex
100
AcDb2dVertex
 10
782.2665651510811
 20
772.700062289111
 30
0.0
  0
VERTEX
  5
5A6
330
549
100
AcDbEntity
  8
Make2D$可见线$普通线
100
AcDbVertex
100
AcDb2dVertex
 10
782.5680928695142
 20
772.6231976937249
 30
0.0
  0
VERTEX
  5
5A7
330
549
100
AcDbEntity
  8
Make2D$可见线$普通线
100
AcDbVertex
100
AcDb2dVertex
 10
782.8715704609529
 20
772.554433731493
 30
0.0
  0
VERTEX
  5
5A8
330
549
100
AcDbEntity
  8
Make2D$可见线$普通线
100
AcDbVertex
100
AcDb2dVertex
 10
783.1766706758368
 20
772.4938399617387
 30
0.0
  0
VERTEX
  5
5A9
330
549
100
AcDbEntity
  8
Make2D$可见线$普通线
100
AcDbVertex
100
AcDb2dVertex
 10
783.483063248066
 20
772.4414682959708
 30
0.0
  0
VERTEX
  5
5AA
330
549
100
AcDbEntity
  8
Make2D$可见线$普通线
100
AcDbVertex
100
AcDb2dVertex
 10
783.7904160838696
 20
772.3973528596073
 30
0.0
 42
0.0414672954907431
  0
VERTEX
  5
5AB
330
549
100
AcDbEntity
  8
Make2D$可见线$普通线
100
AcDbVertex
100
AcDb2dVertex
 10
786.0612830379473
 20
772.2739094114116
 30
0.0
  0
VERTEX
  5
5AC
330
549
100
AcDbEntity
  8
Make2D$可见线$普通线
100
AcDbVertex
100
AcDb2dVertex
 10
786.3118970597585
 20
772.2819196991022
 30
0.0
  0
VERTEX
  5
5AD
330
549
100
AcDbEntity
  8
Make2D$可见线$普通线
100
AcDbVertex
100
AcDb2dVertex
 10
786.5624858474749
 20
772.2970522643325
 30
0.0
  0
VERTEX
  5
5AE
330
549
100
AcDbEntity
  8
Make2D$可见线$普通线
100
AcDbVertex
100
AcDb2dVertex
 10
786.81274586234
 20
772.3193103442545
 30
0.0
  0
VERTEX
  5
5AF
330
549
100
AcDbEntity
  8
Make2D$可见线$普通线
100
AcDbVertex
100
AcDb2dVertex
 10
787.0623733816205
 20
772.3486799250326
 30
0.0
  0
VERTEX
  5
5B0
330
549
100
AcDbEntity
  8
Make2D$可见线$普通线
100
AcDbVertex
100
AcDb2dVertex
 10
787.311065724074
 20
772.3851297461866
 30
0.0
  0
VERTEX
  5
5B1
330
549
100
AcDbEntity
  8
Make2D$可见线$普通线
100
AcDbVertex
100
AcDb2dVertex
 10
787.5585224720812
 20
772.4286114093082
 30
0.0
  0
VERTEX
  5
5B2
330
549
100
AcDbEntity
  8
Make2D$可见线$普通线
100
AcDbVertex
100
AcDb2dVertex
 10
787.8044466800928
 20
772.4790595903816
 30
0.0
  0
VERTEX
  5
5B3
330
549
100
AcDbEntity
  8
Make2D$可见线$普通线
100
AcDbVertex
100
AcDb2dVertex
 10
788.0485460591992
 20
772.5363923537643
 30
0.0
  0
VERTEX
  5
5B4
330
549
100
AcDbEntity
  8
Make2D$可见线$普通线
100
AcDbVertex
100
AcDb2dVertex
 10
788.2378060050144
 20
772.5899322140829
 30
0.0
  0
VERTEX
  5
5B5
330
549
100
AcDbEntity
  8
Make2D$可见线$普通线
100
AcDbVertex
100
AcDb2dVertex
 10
788.330722161457
 20
772.6187916715699
 30
0.0
  0
VERTEX
  5
5B6
330
549
100
AcDbEntity
  8
Make2D$可见线$普通线
100
AcDbVertex
100
AcDb2dVertex
 10
788.4224684035933
 20
772.6490900639769
 30
0.0
  0
VERTEX
  5
5B7
330
549
100
AcDbEntity
  8
Make2D$可见线$普通线
100
AcDbVertex
100
AcDb2dVertex
 10
788.5130242039262
 20
772.6808618288306
 30
0.0
  0
VERTEX
  5
5B8
330
549
100
AcDbEntity
  8
Make2D$可见线$普通线
100
AcDbVertex
100
AcDb2dVertex
 10
788.6023690349584
 20
772.7141414036573
 30
0.0
  0
VERTEX
  5
5B9
330
549
100
AcDbEntity
  8
Make2D$可见线$普通线
100
AcDbVertex
100
AcDb2dVertex
 10
788.6904823691929
 20
772.7489632259835
 30
0.0
  0
VERTEX
  5
5BA
330
549
100
AcDbEntity
  8
Make2D$可见线$普通线
100
AcDbVertex
100
AcDb2dVertex
 10
788.7773436791324
 20
772.7853617333354
 30
0.0
  0
VERTEX
  5
5BB
330
549
100
AcDbEntity
  8
Make2D$可见线$普通线
100
AcDbVertex
100
AcDb2dVertex
 10
788.8629324372796
 20
772.8233713632395
 30
0.0
  0
VERTEX
  5
5BC
330
549
100
AcDbEntity
  8
Make2D$可见线$普通线
100
AcDbVertex
100
AcDb2dVertex
 10
788.9472281161376
 20
772.8630265532222
 30
0.0
  0
VERTEX
  5
5BD
330
549
100
AcDbEntity
  8
Make2D$可见线$普通线
100
AcDbVertex
100
AcDb2dVertex
 10
789.0302101882088
 20
772.9043617408095
 30
0.0
  0
VERTEX
  5
5BE
330
549
100
AcDbEntity
  8
Make2D$可见线$普通线
100
AcDbVertex
100
AcDb2dVertex
 10
789.1118581259965
 20
772.9474113635283
 30
0.0
  0
VERTEX
  5
5BF
330
549
100
AcDbEntity
  8
Make2D$可见线$普通线
100
AcDbVertex
100
AcDb2dVertex
 10
789.1921514020033
 20
772.9922098589049
 30
0.0
  0
VERTEX
  5
5C0
330
549
100
AcDbEntity
  8
Make2D$可见线$普通线
100
AcDbVertex
100
AcDb2dVertex
 10
789.271069488732
 20
773.0387916644655
 30
0.0
  0
VERTEX
  5
5C1
330
549
100
AcDbEntity
  8
Make2D$可见线$普通线
100
AcDbVertex
100
AcDb2dVertex
 10
789.3485918586854
 20
773.0871912177367
 30
0.0
  0
VERTEX
  5
5C2
330
549
100
AcDbEntity
  8
Make2D$可见线$普通线
100
AcDbVertex
100
AcDb2dVertex
 10
789.4246979843665
 20
773.1374429562447
 30
0.0
  0
VERTEX
  5
5C3
330
549
100
AcDbEntity
  8
Make2D$可见线$普通线
100
AcDbVertex
100
AcDb2dVertex
 10
789.4993673382779
 20
773.189581317516
 30
0.0
  0
VERTEX
  5
5C4
330
549
100
AcDbEntity
  8
Make2D$可见线$普通线
100
AcDbVertex
100
AcDb2dVertex
 10
789.5725793929225
 20
773.2436407390769
 30
0.0
  0
VERTEX
  5
5C5
330
549
100
AcDbEntity
  8
Make2D$可见线$普通线
100
AcDbVertex
100
AcDb2dVertex
 10
789.6443136208031
 20
773.2996556584538
 30
0.0
  0
VERTEX
  5
5C6
330
549
100
AcDbEntity
  8
Make2D$可见线$普通线
100
AcDbVertex
100
AcDb2dVertex
 10
789.7145494944225
 20
773.3576605131732
 30
0.0
  0
VERTEX
  5
5C7
330
549
100
AcDbEntity
  8
Make2D$可见线$普通线
100
AcDbVertex
100
AcDb2dVertex
 10
789.7832664862835
 20
773.4176897407614
 30
0.0
  0
VERTEX
  5
5C8
330
549
100
AcDbEntity
  8
Make2D$可见线$普通线
100
AcDbVertex
100
AcDb2dVertex
 10
789.850444068889
 20
773.4797777787447
 30
0.0
  0
VERTEX
  5
5C9
330
549
100
AcDbEntity
  8
Make2D$可见线$普通线
100
AcDbVertex
100
AcDb2dVertex
 10
789.9160617147418
 20
773.5439590646497
 30
0.0
  0
VERTEX
  5
5CA
330
549
100
AcDbEntity
  8
Make2D$可见线$普通线
100
AcDbVertex
100
AcDb2dVertex
 10
789.9800988963445
 20
773.6102680360025
 30
0.0
  0
VERTEX
  5
5CB
330
549
100
AcDbEntity
  8
Make2D$可见线$普通线
100
AcDbVertex
100
AcDb2dVertex
 10
790.0425350862002
 20
773.6787391303296
 30
0.0
  0
VERTEX
  5
5CC
330
549
100
AcDbEntity
  8
Make2D$可见线$普通线
100
AcDbVertex
100
AcDb2dVertex
 10
790.1033497568118
 20
773.7494067851577
 30
0.0
  0
VERTEX
  5
5CD
330
549
100
AcDbEntity
  8
Make2D$可见线$普通线
100
AcDbVertex
100
AcDb2dVertex
 10
790.1625223806817
 20
773.8223054380127
 30
0.0
  0
VERTEX
  5
5CE
330
549
100
AcDbEntity
  8
Make2D$可见线$普通线
100
AcDbVertex
100
AcDb2dVertex
 10
790.2200324303132
 20
773.8974695264211
 30
0.0
  0
VERTEX
  5
5CF
330
549
100
AcDbEntity
  8
Make2D$可见线$普通线
100
AcDbVertex
100
AcDb2dVertex
 10
790.2758593782086
 20
773.9749334879095
 30
0.0
  0
VERTEX
  5
5D0
330
549
100
AcDbEntity
  8
Make2D$可见线$普通线
100
AcDbVertex
100
AcDb2dVertex
 10
790.3299826968712
 20
774.0547317600042
 30
0.0
  0
VERTEX
  5
5D1
330
549
100
AcDbEntity
  8
Make2D$可见线$普通线
100
AcDbVertex
100
AcDb2dVertex
 10
790.3823818588036
 20
774.1368987802315
 30
0.0
  0
VERTEX
  5
5D2
330
549
100
AcDbEntity
  8
Make2D$可见线$普通线
100
AcDbVertex
100
AcDb2dVertex
 10
790.4330363365086
 20
774.2214689861179
 30
0.0
 42
0.1010214286065161
  0
VERTEX
  5
5D3
330
549
100
AcDbEntity
  8
Make2D$可见线$普通线
100
AcDbVertex
100
AcDb2dVertex
 10
792.1744834940928
 20
772.267565488371
 30
0.0
  0
VERTEX
  5
5D4
330
549
100
AcDbEntity
  8
Make2D$可见线$普通线
100
AcDbVertex
100
AcDb2dVertex
 10
792.1744834941039
 20
771.8500403826869
 30
0.0
  0
VERTEX
  5
5D5
330
549
100
AcDbEntity
  8
Make2D$可见线$普通线
100
AcDbVertex
100
AcDb2dVertex
 10
792.1747657405972
 20
771.850040382687
 30
0.0
  0
VERTEX
  5
5D6
330
549
100
AcDbEntity
  8
Make2D$可见线$普通线
100
AcDbVertex
100
AcDb2dVertex
 10
792.1747084792012
 20
771.850040382687
 30
0.0
  0
VERTEX
  5
5D7
330
549
100
AcDbEntity
  8
Make2D$可见线$普通线
100
AcDbVertex
100
AcDb2dVertex
 10
779.1744836431567
 20
771.8500403826869
 30
0.0
  0
VERTEX
  5
5D8
330
549
100
AcDbEntity
  8
Make2D$可见线$普通线
100
AcDbVertex
100
AcDb2dVertex
 10
766.1742585156122
 20
771.850040382669
 30
0.0
  0
VERTEX
  5
5D9
330
549
100
AcDbEntity
  8
Make2D$可见线$普通线
100
AcDbVertex
100
AcDb2dVertex
 10
766.1742012521217
 20
771.8500403826686
 30
0.0
  0
VERTEX
  5
5DA
330
549
100
AcDbEntity
  8
Make2D$可见线$普通线
100
AcDbVertex
100
AcDb2dVertex
 10
766.1744834940927
 20
771.8500403826679
 30
0.0
  0
SEQEND
  5
5DB
330
549
100
AcDbEntity
  8
Make2D$可见线$普通线
  0
POLYLINE
  5
5DC
330
1F
100
AcDbEntity
  8
Make2D$可见线$普通线
100
AcDb2dPolyline
 66
     1
 10
0.0
 20
0.0
 30
0.0
  0
VERTEX
  5
5DD
330
5DC
100
AcDbEntity
  8
Make2D$可见线$普通线
100
AcDbVertex
100
AcDb2dVertex
 10
792.1744834940927
 20
772.267565488371
 30
0.0
 42
0.2309719522194013
  0
VERTEX
  5
5DE
330
5DC
100
AcDbEntity
  8
Make2D$可见线$普通线
100
AcDbVertex
100
AcDb2dVertex
 10
791.9821589564846
 20
772.6616921338008
 30
0.0
 42
-0.0982240943055741
  0
VERTEX
  5
5DF
330
5DC
100
AcDbEntity
  8
Make2D$可见线$普通线
100
AcDbVertex
100
AcDb2dVertex
 10
790.4636858340352
 20
774.416484909244
 30
0.0
  0
SEQEND
  5
5E0
330
5DC
100
AcDbEntity
  8
Make2D$可见线$普通线
  0
POLYLINE
  5
5E1
330
1F
100
AcDbEntity
  8
dessin 2D
100
AcDb2dPolyline
 66
     1
 10
0.0
 20
0.0
 30
0.0
  0
VERTEX
  5
5E2
330
5E1
100
AcDbEntity
  8
dessin 2D
100
AcDbVertex
100
AcDb2dVertex
 10
773.8150454834105
 20
795.846103050083
 30
0.0
 42
-0.0062559594025407
  0
VERTEX
  5
5E3
330
5E1
100
AcDbEntity
  8
dessin 2D
100
AcDbVertex
100
AcDb2dVertex
 10
773.4216879866706
 20
794.247626399762
 30
0.0
  0
VERTEX
  5
5E4
330
5E1
100
AcDbEntity
  8
dessin 2D
100
AcDbVertex
100
AcDb2dVertex
 10
772.974194558403
 20
792.5763407307307
 30
0.0
  0
VERTEX
  5
5E5
330
5E1
100
AcDbEntity
  8
dessin 2D
100
AcDbVertex
100
AcDb2dVertex
 10
772.5106310278338
 20
790.9050550616995
 30
0.0
  0
VERTEX
  5
5E6
330
5E1
100
AcDbEntity
  8
dessin 2D
100
AcDbVertex
100
AcDb2dVertex
 10
772.0563811108545
 20
789.2337693926684
 30
0.0
 42
0.0077381435400906
  0
VERTEX
  5
5E7
330
5E1
100
AcDbEntity
  8
dessin 2D
100
AcDbVertex
100
AcDb2dVertex
 10
771.6409315281993
 20
787.5624837236371
 30
0.0
 42
0.010397115273516
  0
VERTEX
  5
5E8
330
5E1
100
AcDbEntity
  8
dessin 2D
100
AcDbVertex
100
AcDb2dVertex
 10
771.2888729016904
 20
785.8911980546059
 30
0.0
  0
VERTEX
  5
5E9
330
5E1
100
AcDbEntity
  8
dessin 2D
100
AcDbVertex
100
AcDb2dVertex
 10
771.2798737979349
 20
784.8911980546058
 30
0.0
 42
-0.1624723655683713
  0
VERTEX
  5
5EA
330
5E1
100
AcDbEntity
  8
dessin 2D
100
AcDbVertex
100
AcDb2dVertex
 10
770.87900546505
 20
783.6898800249357
 30
0.0
 42
0.1624913783382959
  0
VERTEX
  5
5EB
330
5E1
100
AcDbEntity
  8
dessin 2D
100
AcDbVertex
100
AcDb2dVertex
 10
771.2800073660633
 20
784.8912118677127
 30
0.0
  0
VERTEX
  5
5EC
330
5E1
100
AcDbEntity
  8
dessin 2D
100
AcDbVertex
100
AcDb2dVertex
 10
771.280007366063
 20
785.8912118677127
 30
0.0
  0
VERTEX
  5
5ED
330
5E1
100
AcDbEntity
  8
dessin 2D
100
AcDbVertex
100
AcDb2dVertex
 10
787.07727169982
 20
785.8912118677127
 30
0.0
  0
VERTEX
  5
5EE
330
5E1
100
AcDbEntity
  8
dessin 2D
100
AcDbVertex
100
AcDb2dVertex
 10
787.07727169982
 20
784.8912118677126
 30
0.0
 42
0.1626523700280897
  0
VERTEX
  5
5EF
330
5E1
100
AcDbEntity
  8
dessin 2D
100
AcDbVertex
100
AcDb2dVertex
 10
787.4788891530031
 20
783.6894461868562
 30
0.0
 42
-0.1628562237468556
  0
VERTEX
  5
5F0
330
5E1
100
AcDbEntity
  8
dessin 2D
100
AcDbVertex
100
AcDb2dVertex
 10
787.0771381316918
 20
784.8911980546056
 30
0.0
  0
VERTEX
  5
5F1
330
5E1
100
AcDbEntity
  8
dessin 2D
100
AcDbVertex
100
AcDb2dVertex
 10
787.0771381316918
 20
785.8911980546059
 30
0.0
  0
SEQEND
  5
5F2
330
5E1
100
AcDbEntity
  8
dessin 2D
  0
POLYLINE
  5
5F3
330
1F
100
AcDbEntity
  8
Make2D$可见线$普通线
100
AcDb2dPolyline
 66
     1
 10
0.0
 20
0.0
 30
0.0
  0
VERTEX
  5
5F4
330
5F3
100
AcDbEntity
  8
Make2D$可见线$普通线
100
AcDbVertex
100
AcDb2dVertex
 10
790.5845069571612
 20
768.9004275017463
 30
0.0
 42
-0.3633273175256873
  0
VERTEX
  5
5F5
330
5F3
100
AcDbEntity
  8
Make2D$可见线$普通线
100
AcDbVertex
100
AcDb2dVertex
 10
790.1746030284904
 20
769.3912118677126
 30
0.0
  0
VERTEX
  5
5F6
330
5F3
100
AcDbEntity
  8
Make2D$可见线$普通线
100
AcDbVertex
100
AcDb2dVertex
 10
790.1744834941219
 20
771.2453798061023
 30
0.0
  0
VERTEX
  5
5F7
330
5F3
100
AcDbEntity
  8
Make2D$可见线$普通线
100
AcDbVertex
100
AcDb2dVertex
 10
768.1744834941217
 20
771.2453798060992
 30
0.0
  0
VERTEX
  5
5F8
330
5F3
100
AcDbEntity
  8
Make2D$可见线$普通线
100
AcDbVertex
100
AcDb2dVertex
 10
766.7687323906499
 20
771.3418133359107
 30
0.0
  0
SEQEND
  5
5F9
330
5F3
100
AcDbEntity
  8
Make2D$可见线$普通线
  0
POLYLINE
  5
5FA
330
1F
100
AcDbEntity
  8
dessin 2D
100
AcDb2dPolyline
 66
     1
 10
0.0
 20
0.0
 30
0.0
  0
VERTEX
  5
5FB
330
5FA
100
AcDbEntity
  8
dessin 2D
100
AcDbVertex
100
AcDb2dVertex
 10
725.5694871606994
 20
761.8909177892045
 30
0.0
  0
VERTEX
  5
5FC
330
5FA
100
AcDbEntity
  8
dessin 2D
100
AcDbVertex
100
AcDb2dVertex
 10
726.9258307515447
 20
761.8918754705226
 30
0.0
  0
VERTEX
  5
5FD
330
5FA
100
AcDbEntity
  8
dessin 2D
100
AcDbVertex
100
AcDb2dVertex
 10
728.7135769583675
 20
761.901119548846
 30
0.0
 42
0.0142744048383456
  0
VERTEX
  5
5FE
330
5FA
100
AcDbEntity
  8
dessin 2D
100
AcDbVertex
100
AcDb2dVertex
 10
739.6293827725411
 20
762.2245313879391
 30
0.0
  0
VERTEX
  5
5FF
330
5FA
100
AcDbEntity
  8
dessin 2D
100
AcDbVertex
100
AcDb2dVertex
 10
741.606598525201
 20
762.363852668723
 30
0.0
  0
VERTEX
  5
600
330
5FA
100
AcDbEntity
  8
dessin 2D
100
AcDbVertex
100
AcDb2dVertex
 10
743.583815028044
 20
762.5266110261632
 30
0.0
  0
VERTEX
  5
601
330
5FA
100
AcDbEntity
  8
dessin 2D
100
AcDbVertex
100
AcDb2dVertex
 10
747.5382546992194
 20
762.8911903442038
 30
0.0
  0
VERTEX
  5
602
330
5FA
100
AcDbEntity
  8
dessin 2D
100
AcDbVertex
100
AcDb2dVertex
 10
751.492710615946
 20
763.2557720884436
 30
0.0
  0
VERTEX
  5
603
330
5FA
100
AcDbEntity
  8
dessin 2D
100
AcDbVertex
100
AcDb2dVertex
 10
753.4699474257282
 20
763.4185334786325
 30
0.0
  0
VERTEX
  5
604
330
5FA
100
AcDbEntity
  8
dessin 2D
100
AcDbVertex
100
AcDb2dVertex
 10
755.4471916081026
 20
763.5578590052648
 30
0.0
  0
VERTEX
  5
605
330
5FA
100
AcDbEntity
  8
dessin 2D
100
AcDbVertex
100
AcDb2dVertex
 10
757.4244588580721
 20
763.6678869336606
 30
0.0
  0
VERTEX
  5
606
330
5FA
100
AcDbEntity
  8
dessin 2D
100
AcDbVertex
100
AcDb2dVertex
 10
759.4017186912517
 20
763.7505706431651
 30
0.0
  0
VERTEX
  5
607
330
5FA
100
AcDbEntity
  8
dessin 2D
100
AcDbVertex
100
AcDb2dVertex
 10
761.3789721671832
 20
763.8098164507628
 30
0.0
  0
VERTEX
  5
608
330
5FA
100
AcDbEntity
  8
dessin 2D
100
AcDbVertex
100
AcDb2dVertex
 10
763.3562203454075
 20
763.8495306734383
 30
0.0
  0
VERTEX
  5
609
330
5FA
100
AcDbEntity
  8
dessin 2D
100
AcDbVertex
100
AcDb2dVertex
 10
765.3334642854662
 20
763.8736196281758
 30
0.0
  0
VERTEX
  5
60A
330
5FA
100
AcDbEntity
  8
dessin 2D
100
AcDbVertex
100
AcDb2dVertex
 10
767.3107050469007
 20
763.8859896319599
 30
0.0
  0
VERTEX
  5
60B
330
5FA
100
AcDbEntity
  8
dessin 2D
100
AcDbVertex
100
AcDb2dVertex
 10
771.2651812720628
 20
763.8911980546059
 30
0.0
  0
VERTEX
  5
60C
330
5FA
100
AcDbEntity
  8
dessin 2D
100
AcDbVertex
100
AcDb2dVertex
 10
787.0830805218236
 20
763.8911980546059
 30
0.0
  0
VERTEX
  5
60D
330
5FA
100
AcDbEntity
  8
dessin 2D
100
AcDbVertex
100
AcDb2dVertex
 10
791.0375567469857
 20
763.8859896319599
 30
0.0
  0
VERTEX
  5
60E
330
5FA
100
AcDbEntity
  8
dessin 2D
100
AcDbVertex
100
AcDb2dVertex
 10
793.0147975084201
 20
763.8736196281758
 30
0.0
  0
VERTEX
  5
60F
330
5FA
100
AcDbEntity
  8
dessin 2D
100
AcDbVertex
100
AcDb2dVertex
 10
794.9920414484789
 20
763.8495306734383
 30
0.0
  0
VERTEX
  5
610
330
5FA
100
AcDbEntity
  8
dessin 2D
100
AcDbVertex
100
AcDb2dVertex
 10
796.9692896267032
 20
763.8098164507628
 30
0.0
  0
VERTEX
  5
611
330
5FA
100
AcDbEntity
  8
dessin 2D
100
AcDbVertex
100
AcDb2dVertex
 10
798.9465431026346
 20
763.7505706431651
 30
0.0
  0
VERTEX
  5
612
330
5FA
100
AcDbEntity
  8
dessin 2D
100
AcDbVertex
100
AcDb2dVertex
 10
800.9238029358143
 20
763.6678869336606
 30
0.0
  0
VERTEX
  5
613
330
5FA
100
AcDbEntity
  8
dessin 2D
100
AcDbVertex
100
AcDb2dVertex
 10
802.9010701857837
 20
763.5578590052648
 30
0.0
  0
VERTEX
  5
614
330
5FA
100
AcDbEntity
  8
dessin 2D
100
AcDbVertex
100
AcDb2dVertex
 10
804.8783148322034
 20
763.4185334427763
 30
0.0
  0
VERTEX
  5
615
330
5FA
100
AcDbEntity
  8
dessin 2D
100
AcDbVertex
100
AcDb2dVertex
 10
806.8555520618334
 20
763.2557720102122
 30
0.0
  0
VERTEX
  5
616
330
5FA
100
AcDbEntity
  8
dessin 2D
100
AcDbVertex
100
AcDb2dVertex
 10
810.8100085088893
 20
762.8911901951934
 30
0.0
  0
VERTEX
  5
617
330
5FA
100
AcDbEntity
  8
dessin 2D
100
AcDbVertex
100
AcDb2dVertex
 10
814.764448003283
 20
762.5266108808789
 30
0.0
  0
VERTEX
  5
618
330
5FA
100
AcDbEntity
  8
dessin 2D
100
AcDbVertex
100
AcDb2dVertex
 10
816.7416640420848
 20
762.3638525741952
 30
0.0
  0
VERTEX
  5
619
330
5FA
100
AcDbEntity
  8
dessin 2D
100
AcDbVertex
100
AcDb2dVertex
 10
818.7188790213454
 20
762.2245313879391
 30
0.0
 42
0.014013316531048
  0
VERTEX
  5
61A
330
5FA
100
AcDbEntity
  8
dessin 2D
100
AcDbVertex
100
AcDb2dVertex
 10
829.2305931137481
 20
761.9037809194443
 30
0.0
  0
VERTEX
  5
61B
330
5FA
100
AcDbEntity
  8
dessin 2D
100
AcDbVertex
100
AcDb2dVertex
 10
831.7944578250931
 20
761.8916875942716
 30
0.0
  0
VERTEX
  5
61C
330
5FA
100
AcDbEntity
  8
dessin 2D
100
AcDbVertex
100
AcDb2dVertex
 10
832.1473880918444
 20
761.8915105268686
 30
0.0
  0
VERTEX
  5
61D
330
5FA
100
AcDbEntity
  8
dessin 2D
100
AcDbVertex
100
AcDb2dVertex
 10
832.1727513661338
 20
761.8914982397889
 30
0.0
  0
VERTEX
  5
61E
330
5FA
100
AcDbEntity
  8
dessin 2D
100
AcDbVertex
100
AcDb2dVertex
 10
832.3272188709572
 20
761.8914265032604
 30
0.0
  0
VERTEX
  5
61F
330
5FA
100
AcDbEntity
  8
dessin 2D
100
AcDbVertex
100
AcDb2dVertex
 10
832.3727705942307
 20
761.891406851797
 30
0.0
  0
VERTEX
  5
620
330
5FA
100
AcDbEntity
  8
dessin 2D
100
AcDbVertex
100
AcDb2dVertex
 10
832.4750644249109
 20
761.8913670569135
 30
0.0
  0
VERTEX
  5
621
330
5FA
100
AcDbEntity
  8
dessin 2D
100
AcDbVertex
100
AcDb2dVertex
 10
832.5298904329354
 20
761.8913495571237
 30
0.0
  0
VERTEX
  5
622
330
5FA
100
AcDbEntity
  8
dessin 2D
100
AcDbVertex
100
AcDb2dVertex
 10
832.5600852623039
 20
761.8913417082894
 30
0.0
  0
VERTEX
  5
623
330
5FA
100
AcDbEntity
  8
dessin 2D
100
AcDbVertex
100
AcDb2dVertex
 10
832.6166991051016
 20
761.8913323396853
 30
0.0
  0
VERTEX
  5
624
330
5FA
100
AcDbEntity
  8
dessin 2D
100
AcDbVertex
100
AcDb2dVertex
 10
832.6722212009715
 20
761.891335732301
 30
0.0
  0
VERTEX
  5
625
330
5FA
100
AcDbEntity
  8
dessin 2D
100
AcDbVertex
100
AcDb2dVertex
 10
832.6829621713322
 20
761.8913391925666
 30
0.0
  0
VERTEX
  5
626
330
5FA
100
AcDbEntity
  8
dessin 2D
100
AcDbVertex
100
AcDb2dVertex
 10
832.7339260118443
 20
761.8914355014954
 30
0.0
  0
VERTEX
  5
627
330
5FA
100
AcDbEntity
  8
dessin 2D
100
AcDbVertex
100
AcDb2dVertex
 10
832.8510003868957
 20
761.8787368145383
 30
0.0
  0
VERTEX
  5
628
330
5FA
100
AcDbEntity
  8
dessin 2D
100
AcDbVertex
100
AcDb2dVertex
 10
832.9625255501918
 20
761.8633082347285
 30
0.0
  0
VERTEX
  5
629
330
5FA
100
AcDbEntity
  8
dessin 2D
100
AcDbVertex
100
AcDb2dVertex
 10
833.068736771027
 20
761.8451777080412
 30
0.0
  0
VERTEX
  5
62A
330
5FA
100
AcDbEntity
  8
dessin 2D
100
AcDbVertex
100
AcDb2dVertex
 10
833.1199231746764
 20
761.8351079477359
 30
0.0
  0
VERTEX
  5
62B
330
5FA
100
AcDbEntity
  8
dessin 2D
100
AcDbVertex
100
AcDb2dVertex
 10
833.1698693186961
 20
761.8243731804521
 30
0.0
  0
VERTEX
  5
62C
330
5FA
100
AcDbEntity
  8
dessin 2D
100
AcDbVertex
100
AcDb2dVertex
 10
833.2186046117479
 20
761.8129768994368
 30
0.0
  0
VERTEX
  5
62D
330
5FA
100
AcDbEntity
  8
dessin 2D
100
AcDbVertex
100
AcDb2dVertex
 10
833.2661584624936
 20
761.8009225979367
 30
0.0
  0
VERTEX
  5
62E
330
5FA
100
AcDbEntity
  8
dessin 2D
100
AcDbVertex
100
AcDb2dVertex
 10
833.3125602795952
 20
761.788213769199
 30
0.0
  0
VERTEX
  5
62F
330
5FA
100
AcDbEntity
  8
dessin 2D
100
AcDbVertex
100
AcDb2dVertex
 10
833.3578394717144
 20
761.7748539064708
 30
0.0
  0
VERTEX
  5
630
330
5FA
100
AcDbEntity
  8
dessin 2D
100
AcDbVertex
100
AcDb2dVertex
 10
833.4020254475131
 20
761.7608465029987
 30
0.0
  0
VERTEX
  5
631
330
5FA
100
AcDbEntity
  8
dessin 2D
100
AcDbVertex
100
AcDb2dVertex
 10
833.445147615653
 20
761.7461950520299
 30
0.0
  0
VERTEX
  5
632
330
5FA
100
AcDbEntity
  8
dessin 2D
100
AcDbVertex
100
AcDb2dVertex
 10
833.4872353847961
 20
761.7309030468111
 30
0.0
  0
VERTEX
  5
633
330
5FA
100
AcDbEntity
  8
dessin 2D
100
AcDbVertex
100
AcDb2dVertex
 10
833.5283181636041
 20
761.7149739805897
 30
0.0
  0
VERTEX
  5
634
330
5FA
100
AcDbEntity
  8
dessin 2D
100
AcDbVertex
100
AcDb2dVertex
 10
833.568425360739
 20
761.6984113466121
 30
0.0
  0
VERTEX
  5
635
330
5FA
100
AcDbEntity
  8
dessin 2D
100
AcDbVertex
100
AcDb2dVertex
 10
833.6075863848623
 20
761.6812186381256
 30
0.0
  0
VERTEX
  5
636
330
5FA
100
AcDbEntity
  8
dessin 2D
100
AcDbVertex
100
AcDb2dVertex
 10
833.6458306446364
 20
761.6633993483771
 30
0.0
  0
VERTEX
  5
637
330
5FA
100
AcDbEntity
  8
dessin 2D
100
AcDbVertex
100
AcDb2dVertex
 10
833.6831875487226
 20
761.6449569706133
 30
0.0
  0
VERTEX
  5
638
330
5FA
100
AcDbEntity
  8
dessin 2D
100
AcDbVertex
100
AcDb2dVertex
 10
833.7196865057829
 20
761.6258949980814
 30
0.0
  0
VERTEX
  5
639
330
5FA
100
AcDbEntity
  8
dessin 2D
100
AcDbVertex
100
AcDb2dVertex
 10
833.7553569244792
 20
761.6062169240284
 30
0.0
  0
VERTEX
  5
63A
330
5FA
100
AcDbEntity
  8
dessin 2D
100
AcDbVertex
100
AcDb2dVertex
 10
833.7902282134733
 20
761.5859262417011
 30
0.0
  0
VERTEX
  5
63B
330
5FA
100
AcDbEntity
  8
dessin 2D
100
AcDbVertex
100
AcDb2dVertex
 10
833.824329781427
 20
761.5650264443468
 30
0.0
  0
VERTEX
  5
63C
330
5FA
100
AcDbEntity
  8
dessin 2D
100
AcDbVertex
100
AcDb2dVertex
 10
833.8576910370022
 20
761.5435210252118
 30
0.0
  0
VERTEX
  5
63D
330
5FA
100
AcDbEntity
  8
dessin 2D
100
AcDbVertex
100
AcDb2dVertex
 10
833.8903413888606
 20
761.5214134775435
 30
0.0
  0
VERTEX
  5
63E
330
5FA
100
AcDbEntity
  8
dessin 2D
100
AcDbVertex
100
AcDb2dVertex
 10
833.9223102456642
 20
761.4987072945888
 30
0.0
  0
VERTEX
  5
63F
330
5FA
100
AcDbEntity
  8
dessin 2D
100
AcDbVertex
100
AcDb2dVertex
 10
833.9536270160747
 20
761.4754059695947
 30
0.0
  0
VERTEX
  5
640
330
5FA
100
AcDbEntity
  8
dessin 2D
100
AcDbVertex
100
AcDb2dVertex
 10
833.9843211087541
 20
761.4515129958081
 30
0.0
  0
VERTEX
  5
641
330
5FA
100
AcDbEntity
  8
dessin 2D
100
AcDbVertex
100
AcDb2dVertex
 10
834.014421932364
 20
761.4270318664757
 30
0.0
  0
VERTEX
  5
642
330
5FA
100
AcDbEntity
  8
dessin 2D
100
AcDbVertex
100
AcDb2dVertex
 10
834.0439588955664
 20
761.4019660748446
 30
0.0
  0
VERTEX
  5
643
330
5FA
100
AcDbEntity
  8
dessin 2D
100
AcDbVertex
100
AcDb2dVertex
 10
834.0729614070233
 20
761.3763191141619
 30
0.0
  0
VERTEX
  5
644
330
5FA
100
AcDbEntity
  8
dessin 2D
100
AcDbVertex
100
AcDb2dVertex
 10
834.1070327891107
 20
761.34485341746
 30
0.0
  0
VERTEX
  5
645
330
5FA
100
AcDbEntity
  8
dessin 2D
100
AcDbVertex
100
AcDb2dVertex
 10
834.1402953836553
 20
761.3126765665929
 30
0.0
  0
VERTEX
  5
646
330
5FA
100
AcDbEntity
  8
dessin 2D
100
AcDbVertex
100
AcDb2dVertex
 10
834.1727411912184
 20
761.2798047850802
 30
0.0
  0
VERTEX
  5
647
330
5FA
100
AcDbEntity
  8
dessin 2D
100
AcDbVertex
100
AcDb2dVertex
 10
834.204362212362
 20
761.2462542964406
 30
0.0
  0
VERTEX
  5
648
330
5FA
100
AcDbEntity
  8
dessin 2D
100
AcDbVertex
100
AcDb2dVertex
 10
834.2351504476477
 20
761.2120413241936
 30
0.0
  0
VERTEX
  5
649
330
5FA
100
AcDbEntity
  8
dessin 2D
100
AcDbVertex
100
AcDb2dVertex
 10
834.2650978976374
 20
761.1771820918584
 30
0.0
  0
VERTEX
  5
64A
330
5FA
100
AcDbEntity
  8
dessin 2D
100
AcDbVertex
100
AcDb2dVertex
 10
834.2941965628927
 20
761.1416928229542
 30
0.0
  0
VERTEX
  5
64B
330
5FA
100
AcDbEntity
  8
dessin 2D
100
AcDbVertex
100
AcDb2dVertex
 10
834.3224384439754
 20
761.1055897409997
 30
0.0
  0
VERTEX
  5
64C
330
5FA
100
AcDbEntity
  8
dessin 2D
100
AcDbVertex
100
AcDb2dVertex
 10
834.3498155414472
 20
761.0688890695144
 30
0.0
  0
VERTEX
  5
64D
330
5FA
100
AcDbEntity
  8
dessin 2D
100
AcDbVertex
100
AcDb2dVertex
 10
834.37631985587
 20
761.0316070320175
 30
0.0
  0
VERTEX
  5
64E
330
5FA
100
AcDbEntity
  8
dessin 2D
100
AcDbVertex
100
AcDb2dVertex
 10
834.4019433878053
 20
760.993759852028
 30
0.0
  0
VERTEX
  5
64F
330
5FA
100
AcDbEntity
  8
dessin 2D
100
AcDbVertex
100
AcDb2dVertex
 10
834.4266781378149
 20
760.9553637530651
 30
0.0
  0
VERTEX
  5
650
330
5FA
100
AcDbEntity
  8
dessin 2D
100
AcDbVertex
100
AcDb2dVertex
 10
834.4505161064606
 20
760.916434958648
 30
0.0
  0
VERTEX
  5
651
330
5FA
100
AcDbEntity
  8
dessin 2D
100
AcDbVertex
100
AcDb2dVertex
 10
834.4734492943039
 20
760.8769896922959
 30
0.0
  0
VERTEX
  5
652
330
5FA
100
AcDbEntity
  8
dessin 2D
100
AcDbVertex
100
AcDb2dVertex
 10
834.4954697019069
 20
760.8370441775278
 30
0.0
  0
VERTEX
  5
653
330
5FA
100
AcDbEntity
  8
dessin 2D
100
AcDbVertex
100
AcDb2dVertex
 10
834.5165693298311
 20
760.7966146378628
 30
0.0
  0
VERTEX
  5
654
330
5FA
100
AcDbEntity
  8
dessin 2D
100
AcDbVertex
100
AcDb2dVertex
 10
834.5367401786384
 20
760.7557172968204
 30
0.0
  0
VERTEX
  5
655
330
5FA
100
AcDbEntity
  8
dessin 2D
100
AcDbVertex
100
AcDb2dVertex
 10
834.5559742488904
 20
760.7143683779195
 30
0.0
  0
VERTEX
  5
656
330
5FA
100
AcDbEntity
  8
dessin 2D
100
AcDbVertex
100
AcDb2dVertex
 10
834.5742635411489
 20
760.6725841046793
 30
0.0
  0
VERTEX
  5
657
330
5FA
100
AcDbEntity
  8
dessin 2D
100
AcDbVertex
100
AcDb2dVertex
 10
834.5916000559755
 20
760.6303807006191
 30
0.0
  0
VERTEX
  5
658
330
5FA
100
AcDbEntity
  8
dessin 2D
100
AcDbVertex
100
AcDb2dVertex
 10
834.6079757939322
 20
760.5877743892577
 30
0.0
  0
VERTEX
  5
659
330
5FA
100
AcDbEntity
  8
dessin 2D
100
AcDbVertex
100
AcDb2dVertex
 10
834.6233827555803
 20
760.5447813941146
 30
0.0
  0
VERTEX
  5
65A
330
5FA
100
AcDbEntity
  8
dessin 2D
100
AcDbVertex
100
AcDb2dVertex
 10
834.637812941482
 20
760.5014179387089
 30
0.0
  0
VERTEX
  5
65B
330
5FA
100
AcDbEntity
  8
dessin 2D
100
AcDbVertex
100
AcDb2dVertex
 10
834.6512583521989
 20
760.4577002465596
 30
0.0
  0
VERTEX
  5
65C
330
5FA
100
AcDbEntity
  8
dessin 2D
100
AcDbVertex
100
AcDb2dVertex
 10
834.6637109882926
 20
760.4136445411859
 30
0.0
  0
VERTEX
  5
65D
330
5FA
100
AcDbEntity
  8
dessin 2D
100
AcDbVertex
100
AcDb2dVertex
 10
834.6751628503249
 20
760.3692670461071
 30
0.0
  0
VERTEX
  5
65E
330
5FA
100
AcDbEntity
  8
dessin 2D
100
AcDbVertex
100
AcDb2dVertex
 10
834.6856059388576
 20
760.3245839848422
 30
0.0
  0
VERTEX
  5
65F
330
5FA
100
AcDbEntity
  8
dessin 2D
100
AcDbVertex
100
AcDb2dVertex
 10
834.6950322544524
 20
760.2796115809105
 30
0.0
  0
VERTEX
  5
660
330
5FA
100
AcDbEntity
  8
dessin 2D
100
AcDbVertex
100
AcDb2dVertex
 10
834.7034337976709
 20
760.2343660578309
 30
0.0
  0
VERTEX
  5
661
330
5FA
100
AcDbEntity
  8
dessin 2D
100
AcDbVertex
100
AcDb2dVertex
 10
834.7108025690751
 20
760.1888636391228
 30
0.0
  0
VERTEX
  5
662
330
5FA
100
AcDbEntity
  8
dessin 2D
100
AcDbVertex
100
AcDb2dVertex
 10
834.7171305692266
 20
760.1431205483053
 30
0.0
  0
VERTEX
  5
663
330
5FA
100
AcDbEntity
  8
dessin 2D
100
AcDbVertex
100
AcDb2dVertex
 10
834.7224097986871
 20
760.0971530088976
 30
0.0
  0
VERTEX
  5
664
330
5FA
100
AcDbEntity
  8
dessin 2D
100
AcDbVertex
100
AcDb2dVertex
 10
835.4462646772047
 20
753.0968928565749
 30
0.0
 42
-0.4448167976771839
  0
VERTEX
  5
665
330
5FA
100
AcDbEntity
  8
dessin 2D
100
AcDbVertex
100
AcDb2dVertex
 10
833.4568487670723
 20
750.8911980546058
 30
0.0
  0
VERTEX
  5
666
330
5FA
100
AcDbEntity
  8
dessin 2D
100
AcDbVertex
100
AcDb2dVertex
 10
724.8926504331771
 20
750.8911980546058
 30
0.0
 42
-0.4450017576608016
  0
VERTEX
  5
667
330
5FA
100
AcDbEntity
  8
dessin 2D
100
AcDbVertex
100
AcDb2dVertex
 10
722.9019971166816
 20
753.0968928565749
 30
0.0
  0
VERTEX
  5
668
330
5FA
100
AcDbEntity
  8
dessin 2D
100
AcDbVertex
100
AcDb2dVertex
 10
723.6258519951992
 20
760.0971530088976
 30
0.0
 42
-0.3773104136118162
  0
VERTEX
  5
669
330
5FA
100
AcDbEntity
  8
dessin 2D
100
AcDbVertex
100
AcDb2dVertex
 10
725.5694871606994
 20
761.8909177892047
 30
0.0
  0
SEQEND
  5
66A
330
5FA
100
AcDbEntity
  8
dessin 2D
  0
ENDSEC
  0
SECTION
  2
OBJECTS
  0
DICTIONARY
  5
C
330
0
100
AcDbDictionary
281
     1
  3
ACAD_GROUP
350
D
  3
ACAD_LAYOUT
350
1A
  3
ACAD_MATERIAL
350
3B
  3
ACAD_MLEADERSTYLE
350
695
  3
ACAD_MLINESTYLE
350
17
  3
ACAD_PLOTSETTINGS
350
19
  3
ACAD_PLOTSTYLENAME
350
E
  3
ACAD_SCALELIST
350
3F
  3
ACAD_TABLESTYLE
350
694
  3
ACAD_VISUALSTYLE
350
2A
  3
AcDbVariableDictionary
350
66B
  0
DICTIONARY
  5
D
102
{ACAD_REACTORS
330
C
102
}
330
C
100
AcDbDictionary
281
     1
  0
DICTIONARY
  5
1A
102
{ACAD_REACTORS
330
C
102
}
330
C
100
AcDbDictionary
281
     1
  3
Layout1
350
1E
  3
Layout2
350
26
  3
Model
350
22
  0
DICTIONARY
  5
3B
102
{ACAD_REACTORS
330
C
102
}
330
C
100
AcDbDictionary
281
     1
  3
ByBlock
350
3D
  3
ByLayer
350
3C
  3
Global
350
3E
  0
DICTIONARY
  5
695
102
{ACAD_REACTORS
330
C
102
}
330
C
100
AcDbDictionary
281
     1
  0
DICTIONARY
  5
17
102
{ACAD_REACTORS
330
C
102
}
330
C
100
AcDbDictionary
281
     1
  3
Standard
350
18
  0
DICTIONARY
  5
19
102
{ACAD_REACTORS
330
C
102
}
330
C
100
AcDbDictionary
281
     1
  0
ACDBDICTIONARYWDFLT
  5
E
102
{ACAD_REACTORS
330
C
102
}
330
C
100
AcDbDictionary
281
     1
  3
Normal
350
F
100
AcDbDictionaryWithDefault
340
F
  0
DICTIONARY
  5
3F
102
{ACAD_REACTORS
330
C
102
}
330
C
100
AcDbDictionary
281
     1
  3
A0
350
40
  3
A1
350
41
  3
A2
350
42
  3
A3
350
43
  3
A4
350
44
  3
A5
350
45
  3
A6
350
46
  3
A7
350
47
  3
A8
350
48
  3
A9
350
49
  3
B0
350
4A
  3
B1
350
4B
  3
B2
350
4C
  3
B3
350
4D
  3
B4
350
4E
  3
B5
350
4F
  3
B6
350
50
  3
B7
350
51
  3
B8
350
52
  3
B9
350
53
  3
C0
350
54
  3
C1
350
55
  3
C2
350
56
  3
C3
350
57
  3
C4
350
58
  3
C5
350
59
  3
C6
350
5A
  3
C7
350
5B
  3
C8
350
5C
  3
C9
350
5D
  3
D0
350
5E
  3
D1
350
5F
  3
D2
350
60
  0
DICTIONARY
  5
694
102
{ACAD_REACTORS
330
C
102
}
330
C
100
AcDbDictionary
281
     1
  0
DICTIONARY
  5
2A
102
{ACAD_REACTORS
330
C
102
}
330
C
100
AcDbDictionary
281
     1
  3
2dWireframe
350
2F
  3
3D Hidden
350
31
  3
3dWireframe
350
30
  3
Basic
350
32
  3
Brighten
350
36
  3
ColorChange
350
3A
  3
Conceptual
350
34
  3
Dim
350
35
  3
Facepattern
350
39
  3
Flat
350
2B
  3
FlatWithEdges
350
2C
  3
Gouraud
350
2D
  3
GouraudWithEdges
350
2E
  3
Linepattern
350
38
  3
Realistic
350
33
  3
Thicken
350
37
  0
DICTIONARY
  5
66B
102
{ACAD_REACTORS
330
C
102
}
330
C
100
AcDbDictionary
281
     1
  3
CANNOSCALE
350
66C
  3
MSLTSCALE
350
66D
  0
LAYOUT
  5
1E
102
{ACAD_REACTORS
330
1A
102
}
330
1A
100
AcDbPlotSettings
  1

  2
none_device
  4

  6

 40
0.0
 41
0.0
 42
0.0
 43
0.0
 44
0.0
 45
0.0
 46
0.0
 47
0.0
 48
0.0
 49
0.0
140
0.0
141
0.0
142
1.0
143
1.0
 70
   688
 72
     0
 73
     0
 74
     5
  7

 75
    16
 76
     0
 77
     2
 78
   300
147
1.0
148
0.0
149
0.0
100
AcDbLayout
  1
Layout1
 70
     1
 71
     1
 10
0.0
 20
0.0
 11
12.0
 21
9.0
 12
0.0
 22
0.0
 32
0.0
 14
1.000000000000000E+20
 24
1.000000000000000E+20
 34
1.000000000000000E+20
 15
-1.000000000000000E+20
 25
-1.000000000000000E+20
 35
-1.000000000000000E+20
146
0.0
 13
0.0
 23
0.0
 33
0.0
 16
1.0
 26
0.0
 36
0.0
 17
0.0
 27
1.0
 37
0.0
 76
     0
330
1B
  0
LAYOUT
  5
26
102
{ACAD_REACTORS
330
1A
102
}
330
1A
100
AcDbPlotSettings
  1

  2
none_device
  4

  6

 40
0.0
 41
0.0
 42
0.0
 43
0.0
 44
0.0
 45
0.0
 46
0.0
 47
0.0
 48
0.0
 49
0.0
140
0.0
141
0.0
142
1.0
143
1.0
 70
   688
 72
     0
 73
     0
 74
     5
  7

 75
    16
 76
     0
 77
     2
 78
   300
147
1.0
148
0.0
149
0.0
100
AcDbLayout
  1
Layout2
 70
     1
 71
     2
 10
0.0
 20
0.0
 11
0.0
 21
0.0
 12
0.0
 22
0.0
 32
0.0
 14
0.0
 24
0.0
 34
0.0
 15
0.0
 25
0.0
 35
0.0
146
0.0
 13
0.0
 23
0.0
 33
0.0
 16
1.0
 26
0.0
 36
0.0
 17
0.0
 27
1.0
 37
0.0
 76
     0
330
23
  0
LAYOUT
  5
22
102
{ACAD_REACTORS
330
1A
102
}
330
1A
100
AcDbPlotSettings
  1

  2
none_device
  4
Letter_(8.50_x_11.00_Inches)
  6

 40
6.35
 41
6.35
 42
6.35000508
 43
6.35000508
 44
215.9
 45
279.4
 46
0.0
 47
0.0
 48
0.0
 49
0.0
140
0.0
141
0.0
142
1.0
143
1.0
 70
  1712
 72
     0
 73
     0
 74
     0
  7

 75
     0
 76
     0
 77
     2
 78
   300
147
1.0
148
0.0
149
0.0
100
AcDbLayout
  1
Model
 70
     1
 71
     0
 10
0.0
 20
0.0
 11
12.0
 21
9.0
 12
0.0
 22
0.0
 32
0.0
 14
722.8913616505218
 24
750.8911974448071
 34
0.0
 15
835.4569002321889
 25
818.8461030500832
 35
0.0
146
0.0
 13
0.0
 23
0.0
 33
0.0
 16
1.0
 26
0.0
 36
0.0
 17
0.0
 27
1.0
 37
0.0
 76
     0
330
1F
331
29
  0
MATERIAL
  5
3D
102
{ACAD_REACTORS
330
3B
102
}
102
{ACAD_XDICTIONARY
360
690
102
}
330
3B
100
AcDbMaterial
  1
ByBlock
  0
MATERIAL
  5
3C
102
{ACAD_REACTORS
330
3B
102
}
102
{ACAD_XDICTIONARY
360
68E
102
}
330
3B
100
AcDbMaterial
  1
ByLayer
  0
MATERIAL
  5
3E
102
{ACAD_REACTORS
330
3B
102
}
102
{ACAD_XDICTIONARY
360
692
102
}
330
3B
100
AcDbMaterial
  1
Global
  0
MLINESTYLE
  5
18
102
{ACAD_REACTORS
330
17
102
}
330
17
100
AcDbMlineStyle
  2
Standard
 70
     0
  3

 62
   256
 51
90.0
 52
90.0
 71
     2
 49
0.5
 62
   256
  6
BYLAYER
 49
-0.5
 62
   256
  6
BYLAYER
  0
ACDBPLACEHOLDER
  5
F
102
{ACAD_REACTORS
330
E
102
}
330
E
  0
SCALE
  5
40
102
{ACAD_REACTORS
330
3F
102
}
330
3F
100
AcDbScale
 70
     0
300
1:1
140
1.0
141
1.0
290
     1
  0
SCALE
  5
41
102
{ACAD_REACTORS
330
3F
102
}
330
3F
100
AcDbScale
 70
     0
300
1:2
140
1.0
141
2.0
290
     0
  0
SCALE
  5
42
102
{ACAD_REACTORS
330
3F
102
}
330
3F
100
AcDbScale
 70
     0
300
1:4
140
1.0
141
4.0
290
     0
  0
SCALE
  5
43
102
{ACAD_REACTORS
330
3F
102
}
330
3F
100
AcDbScale
 70
     0
300
1:5
140
1.0
141
5.0
290
     0
  0
SCALE
  5
44
102
{ACAD_REACTORS
330
3F
102
}
330
3F
100
AcDbScale
 70
     0
300
1:8
140
1.0
141
8.0
290
     0
  0
SCALE
  5
45
102
{ACAD_REACTORS
330
3F
102
}
330
3F
100
AcDbScale
 70
     0
300
1:10
140
1.0
141
10.0
290
     0
  0
SCALE
  5
46
102
{ACAD_REACTORS
330
3F
102
}
330
3F
100
AcDbScale
 70
     0
300
1:16
140
1.0
141
16.0
290
     0
  0
SCALE
  5
47
102
{ACAD_REACTORS
330
3F
102
}
330
3F
100
AcDbScale
 70
     0
300
1:20
140
1.0
141
20.0
290
     0
  0
SCALE
  5
48
102
{ACAD_REACTORS
330
3F
102
}
330
3F
100
AcDbScale
 70
     0
300
1:30
140
1.0
141
30.0
290
     0
  0
SCALE
  5
49
102
{ACAD_REACTORS
330
3F
102
}
330
3F
100
AcDbScale
 70
     0
300
1:40
140
1.0
141
40.0
290
     0
  0
SCALE
  5
4A
102
{ACAD_REACTORS
330
3F
102
}
330
3F
100
AcDbScale
 70
     0
300
1:50
140
1.0
141
50.0
290
     0
  0
SCALE
  5
4B
102
{ACAD_REACTORS
330
3F
102
}
330
3F
100
AcDbScale
 70
     0
300
1:100
140
1.0
141
100.0
290
     0
  0
SCALE
  5
4C
102
{ACAD_REACTORS
330
3F
102
}
330
3F
100
AcDbScale
 70
     0
300
2:1
140
2.0
141
1.0
290
     0
  0
SCALE
  5
4D
102
{ACAD_REACTORS
330
3F
102
}
330
3F
100
AcDbScale
 70
     0
300
4:1
140
4.0
141
1.0
290
     0
  0
SCALE
  5
4E
102
{ACAD_REACTORS
330
3F
102
}
330
3F
100
AcDbScale
 70
     0
300
8:1
140
8.0
141
1.0
290
     0
  0
SCALE
  5
4F
102
{ACAD_REACTORS
330
3F
102
}
330
3F
100
AcDbScale
 70
     0
300
10:1
140
10.0
141
1.0
290
     0
  0
SCALE
  5
50
102
{ACAD_REACTORS
330
3F
102
}
330
3F
100
AcDbScale
 70
     0
300
100:1
140
100.0
141
1.0
290
     0
  0
SCALE
  5
51
102
{ACAD_REACTORS
330
3F
102
}
330
3F
100
AcDbScale
 70
     0
300
1/128" = 1'-0"
140
0.0078125
141
12.0
290
     0
  0
SCALE
  5
52
102
{ACAD_REACTORS
330
3F
102
}
330
3F
100
AcDbScale
 70
     0
300
1/64" = 1'-0"
140
0.015625
141
12.0
290
     0
  0
SCALE
  5
53
102
{ACAD_REACTORS
330
3F
102
}
330
3F
100
AcDbScale
 70
     0
300
1/32" = 1'-0"
140
0.03125
141
12.0
290
     0
  0
SCALE
  5
54
102
{ACAD_REACTORS
330
3F
102
}
330
3F
100
AcDbScale
 70
     0
300
1/16" = 1'-0"
140
0.0625
141
12.0
290
     0
  0
SCALE
  5
55
102
{ACAD_REACTORS
330
3F
102
}
330
3F
100
AcDbScale
 70
     0
300
3/32" = 1'-0"
140
0.09375
141
12.0
290
     0
  0
SCALE
  5
56
102
{ACAD_REACTORS
330
3F
102
}
330
3F
100
AcDbScale
 70
     0
300
1/8" = 1'-0"
140
0.125
141
12.0
290
     0
  0
SCALE
  5
57
102
{ACAD_REACTORS
330
3F
102
}
330
3F
100
AcDbScale
 70
     0
300
3/16" = 1'-0"
140
0.1875
141
12.0
290
     0
  0
SCALE
  5
58
102
{ACAD_REACTORS
330
3F
102
}
330
3F
100
AcDbScale
 70
     0
300
1/4" = 1'-0"
140
0.25
141
12.0
290
     0
  0
SCALE
  5
59
102
{ACAD_REACTORS
330
3F
102
}
330
3F
100
AcDbScale
 70
     0
300
3/8" = 1'-0"
140
0.375
141
12.0
290
     0
  0
SCALE
  5
5A
102
{ACAD_REACTORS
330
3F
102
}
330
3F
100
AcDbScale
 70
     0
300
1/2" = 1'-0"
140
0.5
141
12.0
290
     0
  0
SCALE
  5
5B
102
{ACAD_REACTORS
330
3F
102
}
330
3F
100
AcDbScale
 70
     0
300
3/4" = 1'-0"
140
0.75
141
12.0
290
     0
  0
SCALE
  5
5C
102
{ACAD_REACTORS
330
3F
102
}
330
3F
100
AcDbScale
 70
     0
300
1" = 1'-0"
140
1.0
141
12.0
290
     0
  0
SCALE
  5
5D
102
{ACAD_REACTORS
330
3F
102
}
330
3F
100
AcDbScale
 70
     0
300
1-1/2" = 1'-0"
140
1.5
141
12.0
290
     0
  0
SCALE
  5
5E
102
{ACAD_REACTORS
330
3F
102
}
330
3F
100
AcDbScale
 70
     0
300
3" = 1'-0"
140
3.0
141
12.0
290
     0
  0
SCALE
  5
5F
102
{ACAD_REACTORS
330
3F
102
}
330
3F
100
AcDbScale
 70
     0
300
6" = 1'-0"
140
6.0
141
12.0
290
     0
  0
SCALE
  5
60
102
{ACAD_REACTORS
330
3F
102
}
330
3F
100
AcDbScale
 70
     0
300
1'-0" = 1'-0"
140
12.0
141
12.0
290
     0
  0
VISUALSTYLE
  5
2F
102
{ACAD_REACTORS
330
2A
102
}
102
{ACAD_XDICTIONARY
360
676
102
}
330
2A
100
AcDbVisualStyle
  2
2dWireframe
 70
     4
 71
     0
 72
     2
 73
     0
 90
        0
 40
0.6
 41
30.0
 62
     5
 63
     7
421
 16777215
 74
     1
 91
        4
 64
     7
 65
   257
 75
     1
175
     1
 42
1.0
 92
        0
 66
   257
 43
1.0
 76
     1
 77
     6
 78
     2
 67
     7
 79
     5
170
     0
171
     0
290
     0
174
     0
 93
        1
 44
0.0
173
     0
291
     0
 45
0.0
1001
ACAD
1000
AcDbSavedByObjectVersion
1070
     0
  0
VISUALSTYLE
  5
31
102
{ACAD_REACTORS
330
2A
102
}
102
{ACAD_XDICTIONARY
360
67A
102
}
330
2A
100
AcDbVisualStyle
  2
3D Hidden
 70
     6
 71
     1
 72
     2
 73
     2
 90
        0
 40
0.6
 41
30.0
 62
     5
 63
     7
421
 16777215
 74
     2
 91
        2
 64
     7
 65
   257
 75
     2
175
     1
 42
40.0
 92
        0
 66
   257
 43
1.0
 76
     1
 77
     6
 78
     2
 67
     7
 79
     3
170
     0
171
     0
290
     0
174
     0
 93
        1
 44
0.0
173
     0
291
     0
 45
0.0
1001
ACAD
1000
AcDbSavedByObjectVersion
1070
     0
  0
VISUALSTYLE
  5
30
102
{ACAD_REACTORS
330
2A
102
}
102
{ACAD_XDICTIONARY
360
678
102
}
330
2A
100
AcDbVisualStyle
  2
3dWireframe
 70
     5
 71
     0
 72
     2
 73
     0
 90
        0
 40
0.6
 41
30.0
 62
     5
 63
     7
421
 16777215
 74
     1
 91
        4
 64
     7
 65
   257
 75
     1
175
     1
 42
1.0
 92
        0
 66
   257
 43
1.0
 76
     1
 77
     6
 78
     2
 67
     7
 79
     5
170
     0
171
     0
290
     0
174
     0
 93
        1
 44
0.0
173
     0
291
     0
 45
0.0
1001
ACAD
1000
AcDbSavedByObjectVersion
1070
     0
  0
VISUALSTYLE
  5
32
102
{ACAD_REACTORS
330
2A
102
}
102
{ACAD_XDICTIONARY
360
67C
102
}
330
2A
100
AcDbVisualStyle
  2
Basic
 70
     7
 71
     1
 72
     0
 73
     1
 90
        0
 40
0.6
 41
30.0
 62
     5
 63
     7
421
 16777215
 74
     0
 91
        4
 64
     7
 65
   257
 75
     1
175
     1
 42
1.0
 92
        8
 66
     7
 43
1.0
 76
     1
 77
     6
 78
     2
 67
     7
 79
     5
170
     0
171
     0
290
     0
174
     0
 93
        1
 44
0.0
173
     0
291
     1
 45
0.0
1001
ACAD
1000
AcDbSavedByObjectVersion
1070
     0
  0
VISUALSTYLE
  5
36
102
{ACAD_REACTORS
330
2A
102
}
102
{ACAD_XDICTIONARY
360
684
102
}
330
2A
100
AcDbVisualStyle
  2
Brighten
 70
    12
 71
     2
 72
     2
 73
     0
 90
        0
 40
0.6
 41
30.0
 62
     5
 63
     7
421
 16777215
 74
     1
 91
        4
 64
     7
 65
   257
 75
     1
175
     1
 42
1.0
 92
        8
 66
     7
 43
1.0
 76
     1
 77
     6
 78
     2
 67
     7
 79
     5
170
     0
171
     0
290
     0
174
     0
 93
        1
 44
50.0
173
     0
291
     1
 45
0.0
1001
ACAD
1000
AcDbSavedByObjectVersion
1070
     0
  0
VISUALSTYLE
  5
3A
102
{ACAD_REACTORS
330
2A
102
}
102
{ACAD_XDICTIONARY
360
68C
102
}
330
2A
100
AcDbVisualStyle
  2
ColorChange
 70
    16
 71
     2
 72
     2
 73
     3
 90
        0
 40
0.6
 41
30.0
 62
     5
 63
     8
421
  8421504
 74
     1
 91
        4
 64
     7
 65
   257
 75
     1
175
     1
 42
1.0
 92
        8
 66
     8
424
  8421504
 43
1.0
 76
     1
 77
     6
 78
     2
 67
     7
 79
     5
170
     0
171
     0
290
     0
174
     0
 93
        1
 44
0.0
173
     0
291
     1
 45
0.0
1001
ACAD
1000
AcDbSavedByObjectVersion
1070
     0
  0
VISUALSTYLE
  5
34
102
{ACAD_REACTORS
330
2A
102
}
102
{ACAD_XDICTIONARY
360
680
102
}
330
2A
100
AcDbVisualStyle
  2
Conceptual
 70
     9
 71
     3
 72
     2
 73
     0
 90
        0
 40
0.6
 41
30.0
 62
     5
 63
     7
421
 16777215
 74
     2
 91
        2
 64
     7
 65
   257
 75
     1
175
     1
 42
40.0
 92
        8
 66
     7
 43
1.0
 76
     1
 77
     6
 78
     2
 67
     7
 79
     3
170
     0
171
     0
290
     0
174
     0
 93
        1
 44
0.0
173
     0
291
     0
 45
0.0
1001
ACAD
1000
AcDbSavedByObjectVersion
1070
     0
  0
VISUALSTYLE
  5
35
102
{ACAD_REACTORS
330
2A
102
}
102
{ACAD_XDICTIONARY
360
682
102
}
330
2A
100
AcDbVisualStyle
  2
Dim
 70
    11
 71
     2
 72
     2
 73
     0
 90
        0
 40
0.6
 41
30.0
 62
     5
 63
     7
421
 16777215
 74
     1
 91
        4
 64
     7
 65
   257
 75
     1
175
     1
 42
1.0
 92
        8
 66
     7
 43
1.0
 76
     1
 77
     6
 78
     2
 67
     7
 79
     5
170
     0
171
     0
290
     0
174
     0
 93
        1
 44
-50.0
173
     0
291
     1
 45
0.0
1001
ACAD
1000
AcDbSavedByObjectVersion
1070
     0
  0
VISUALSTYLE
  5
39
102
{ACAD_REACTORS
330
2A
102
}
102
{ACAD_XDICTIONARY
360
68A
102
}
330
2A
100
AcDbVisualStyle
  2
Facepattern
 70
    15
 71
     2
 72
     2
 73
     0
 90
        0
 40
0.6
 41
30.0
 62
     5
 63
     7
421
 16777215
 74
     1
 91
        4
 64
     7
 65
   257
 75
     1
175
     1
 42
1.0
 92
        8
 66
     7
 43
1.0
 76
     1
 77
     6
 78
     2
 67
     7
 79
     5
170
     0
171
     0
290
     0
174
     0
 93
        1
 44
0.0
173
     0
291
     1
 45
0.0
1001
ACAD
1000
AcDbSavedByObjectVersion
1070
     0
  0
VISUALSTYLE
  5
2B
102
{ACAD_REACTORS
330
2A
102
}
102
{ACAD_XDICTIONARY
360
66E
102
}
330
2A
100
AcDbVisualStyle
  2
Flat
 70
     0
 71
     2
 72
     1
 73
     1
 90
        2
 40
0.6
 41
30.0
 62
     5
 63
     7
421
 16777215
 74
     0
 91
        4
 64
     7
 65
   257
 75
     1
175
     1
 42
1.0
 92
        8
 66
     7
 43
1.0
 76
     1
 77
     6
 78
     2
 67
     7
 79
     5
170
     0
171
     0
290
     0
174
     0
 93
       13
 44
0.0
173
     0
291
     1
 45
0.0
1001
ACAD
1000
AcDbSavedByObjectVersion
1070
     0
  0
VISUALSTYLE
  5
2C
102
{ACAD_REACTORS
330
2A
102
}
102
{ACAD_XDICTIONARY
360
670
102
}
330
2A
100
AcDbVisualStyle
  2
FlatWithEdges
 70
     1
 71
     2
 72
     1
 73
     1
 90
        2
 40
0.6
 41
30.0
 62
     5
 63
     7
421
 16777215
 74
     1
 91
        4
 64
     7
 65
   257
 75
     1
175
     1
 42
1.0
 92
        0
 66
   257
 43
1.0
 76
     1
 77
     6
 78
     2
 67
     7
 79
     5
170
     0
171
     0
290
     0
174
     0
 93
       13
 44
0.0
173
     0
291
     1
 45
0.0
1001
ACAD
1000
AcDbSavedByObjectVersion
1070
     0
  0
VISUALSTYLE
  5
2D
102
{ACAD_REACTORS
330
2A
102
}
102
{ACAD_XDICTIONARY
360
672
102
}
330
2A
100
AcDbVisualStyle
  2
Gouraud
 70
     2
 71
     2
 72
     2
 73
     1
 90
        2
 40
0.6
 41
30.0
 62
     5
 63
     7
421
 16777215
 74
     0
 91
        4
 64
     7
 65
   257
 75
     1
175
     1
 42
1.0
 92
        0
 66
     7
 43
1.0
 76
     1
 77
     6
 78
     2
 67
     7
 79
     5
170
     0
171
     0
290
     0
174
     0
 93
       13
 44
0.0
173
     0
291
     1
 45
0.0
1001
ACAD
1000
AcDbSavedByObjectVersion
1070
     0
  0
VISUALSTYLE
  5
2E
102
{ACAD_REACTORS
330
2A
102
}
102
{ACAD_XDICTIONARY
360
674
102
}
330
2A
100
AcDbVisualStyle
  2
GouraudWithEdges
 70
     3
 71
     2
 72
     2
 73
     1
 90
        2
 40
0.6
 41
30.0
 62
     5
 63
     7
421
 16777215
 74
     1
 91
        4
 64
     7
 65
   257
 75
     1
175
     1
 42
1.0
 92
        0
 66
   257
 43
1.0
 76
     1
 77
     6
 78
     2
 67
     7
 79
     5
170
     0
171
     0
290
     0
174
     0
 93
       13
 44
0.0
173
     0
291
     1
 45
0.0
1001
ACAD
1000
AcDbSavedByObjectVersion
1070
     0
  0
VISUALSTYLE
  5
38
102
{ACAD_REACTORS
330
2A
102
}
102
{ACAD_XDICTIONARY
360
688
102
}
330
2A
100
AcDbVisualStyle
  2
Linepattern
 70
    14
 71
     2
 72
     2
 73
     0
 90
        0
 40
0.6
 41
30.0
 62
     5
 63
     7
421
 16777215
 74
     1
 91
        4
 64
     7
 65
   257
 75
     7
175
     7
 42
1.0
 92
        8
 66
     7
 43
1.0
 76
     1
 77
     6
 78
     2
 67
     7
 79
     5
170
     0
171
     0
290
     0
174
     0
 93
        1
 44
0.0
173
     0
291
     1
 45
0.0
1001
ACAD
1000
AcDbSavedByObjectVersion
1070
     0
  0
VISUALSTYLE
  5
33
102
{ACAD_REACTORS
330
2A
102
}
102
{ACAD_XDICTIONARY
360
67E
102
}
330
2A
100
AcDbVisualStyle
  2
Realistic
 70
     8
 71
     2
 72
     3
 73
     0
 90
        2
 40
0.6
 41
30.0
 62
     5
 63
     7
421
 16777215
 74
     0
 91
        0
 64
     7
 65
   257
 75
     1
175
     1
 42
1.0
 92
        8
 66
   257
 43
1.0
 76
     1
 77
     6
 78
     2
 67
     7
 79
     3
170
     0
171
     0
290
     0
174
     0
 93
       13
 44
0.0
173
     0
291
     0
 45
0.0
1001
ACAD
1000
AcDbSavedByObjectVersion
1070
     0
  0
VISUALSTYLE
  5
37
102
{ACAD_REACTORS
330
2A
102
}
102
{ACAD_XDICTIONARY
360
686
102
}
330
2A
100
AcDbVisualStyle
  2
Thicken
 70
    13
 71
     2
 72
     2
 73
     0
 90
        0
 40
0.6
 41
30.0
 62
     5
 63
     7
421
 16777215
 74
     1
 91
        4
 64
     7
 65
   257
 75
     1
175
     1
 42
1.0
 92
       12
 66
     7
 43
1.0
 76
     1
 77
     6
 78
     2
 67
     7
 79
     5
170
     0
171
     0
290
     0
174
     0
 93
        1
 44
0.0
173
     0
291
     1
 45
0.0
1001
ACAD
1000
AcDbSavedByObjectVersion
1070
     0
  0
DICTIONARYVAR
  5
66C
102
{ACAD_REACTORS
330
66B
102
}
330
66B
100
DictionaryVariables
280
     0
  1
1:1
  0
DICTIONARYVAR
  5
66D
102
{ACAD_REACTORS
330
66B
102
}
330
66B
100
DictionaryVariables
280
     0
  1
1
  0
DICTIONARY
  5
690
330
3D
100
AcDbDictionary
280
     1
281
     1
  3
ACAD_XREC_ROUNDTRIP
360
691
  0
DICTIONARY
  5
68E
330
3C
100
AcDbDictionary
280
     1
281
     1
  3
ACAD_XREC_ROUNDTRIP
360
68F
  0
DICTIONARY
  5
692
330
3E
100
AcDbDictionary
280
     1
281
     1
  3
ACAD_XREC_ROUNDTRIP
360
693
  0
DICTIONARY
  5
676
330
2F
100
AcDbDictionary
280
     1
281
     1
  3
ACAD_XREC_ROUNDTRIP
360
677
  0
DICTIONARY
  5
67A
330
31
100
AcDbDictionary
280
     1
281
     1
  3
ACAD_XREC_ROUNDTRIP
360
67B
  0
DICTIONARY
  5
678
330
30
100
AcDbDictionary
280
     1
281
     1
  3
ACAD_XREC_ROUNDTRIP
360
679
  0
DICTIONARY
  5
67C
330
32
100
AcDbDictionary
280
     1
281
     1
  3
ACAD_XREC_ROUNDTRIP
360
67D
  0
DICTIONARY
  5
684
330
36
100
AcDbDictionary
280
     1
281
     1
  3
ACAD_XREC_ROUNDTRIP
360
685
  0
DICTIONARY
  5
68C
330
3A
100
AcDbDictionary
280
     1
281
     1
  3
ACAD_XREC_ROUNDTRIP
360
68D
  0
DICTIONARY
  5
680
330
34
100
AcDbDictionary
280
     1
281
     1
  3
ACAD_XREC_ROUNDTRIP
360
681
  0
DICTIONARY
  5
682
330
35
100
AcDbDictionary
280
     1
281
     1
  3
ACAD_XREC_ROUNDTRIP
360
683
  0
DICTIONARY
  5
68A
330
39
100
AcDbDictionary
280
     1
281
     1
  3
ACAD_XREC_ROUNDTRIP
360
68B
  0
DICTIONARY
  5
66E
330
2B
100
AcDbDictionary
280
     1
281
     1
  3
ACAD_XREC_ROUNDTRIP
360
66F
  0
DICTIONARY
  5
670
330
2C
100
AcDbDictionary
280
     1
281
     1
  3
ACAD_XREC_ROUNDTRIP
360
671
  0
DICTIONARY
  5
672
330
2D
100
AcDbDictionary
280
     1
281
     1
  3
ACAD_XREC_ROUNDTRIP
360
673
  0
DICTIONARY
  5
674
330
2E
100
AcDbDictionary
280
     1
281
     1
  3
ACAD_XREC_ROUNDTRIP
360
675
  0
DICTIONARY
  5
688
330
38
100
AcDbDictionary
280
     1
281
     1
  3
ACAD_XREC_ROUNDTRIP
360
689
  0
DICTIONARY
  5
67E
330
33
100
AcDbDictionary
280
     1
281
     1
  3
ACAD_XREC_ROUNDTRIP
360
67F
  0
DICTIONARY
  5
686
330
37
100
AcDbDictionary
280
     1
281
     1
  3
ACAD_XREC_ROUNDTRIP
360
687
  0
XRECORD
  5
691
102
{ACAD_REACTORS
330
690
102
}
330
690
100
AcDbXrecord
280
     1
102
MATERIAL
148
0.0
149
0.0
149
0.0
 93
        0
 94
      127
282
     0
 72
     1
 77
     1
171
     1
175
     1
179
     1
273
     0
  0
XRECORD
  5
68F
102
{ACAD_REACTORS
330
68E
102
}
330
68E
100
AcDbXrecord
280
     1
102
MATERIAL
148
0.0
149
0.0
149
0.0
 93
        0
 94
      127
282
     0
 72
     1
 77
     1
171
     1
175
     1
179
     1
273
     0
  0
XRECORD
  5
693
102
{ACAD_REACTORS
330
692
102
}
330
692
100
AcDbXrecord
280
     1
102
MATERIAL
148
0.0
149
0.0
149
0.0
 93
        0
 94
      127
282
     0
 72
     1
 77
     1
171
     1
175
     1
179
     1
273
     0
  0
XRECORD
  5
677
102
{ACAD_REACTORS
330
676
102
}
330
676
100
AcDbXrecord
280
     1
102
RTVSPropertyOp0
 70
     1
102
RTVSPropertyOp1
 70
     1
102
RTVSPropertyOp2
 70
     1
102
RTVSPropertyOp3
 70
     1
102
RTVSPropertyOp4
 70
     1
102
RTVSPropertyOp5
 70
     1
102
RTVSPropertyOp6
 70
     1
102
RTVSPropertyOp7
 70
     1
102
RTVSPropertyOp8
 70
     1
102
RTVSPropertyOp9
 70
     1
102
RTVSPropertyOp10
 70
     1
102
RTVSPropertyOp11
 70
     1
102
RTVSPropertyOp12
 70
     1
102
RTVSPropertyOp13
 70
     1
102
RTVSPropertyOp14
 70
     1
102
RTVSPropertyOp15
 70
     1
102
RTVSPropertyOp16
 70
     1
102
RTVSPropertyOp17
 70
     1
102
RTVSPropertyOp18
 70
     1
102
RTVSPropertyOp19
 70
     1
102
RTVSPropertyOp20
 70
     1
102
RTVSPropertyOp21
 70
     1
102
RTVSPropertyOp22
 70
     1
102
RTVSPropertyOp23
 70
     1
102
RTVSPropertyOp24
 70
     1
102
RTVSPropertyOp25
 70
     1
102
RTVSPropertyOp26
 70
     1
102
RTVSPropertyOp27
 70
     1
102
RTVSPropertyOp28
 70
     1
102
RTVSPropertyOp29
 70
     1
102
RTVSPropertyOp30
 70
     1
102
RTVSPropertyOp31
 70
     1
102
RTVSPropertyOp32
 70
     1
102
RTVSPropertyOp33
 70
     1
102
RTVSPropertyOp34
 70
     1
102
RTVSPropertyOp35
 70
     1
102
RTVSPropertyOp36
 70
     1
102
RTVSPropertyOp37
 70
     1
102
RTVSPropertyOp38
 70
     1
102
RTVSPropertyOp39
 70
     1
102
RTVSPropertyOp40
 70
     1
102
RTVSPropertyOp41
 70
     1
102
RTVSPropertyOp42
 70
     1
102
RTVSPropertyOp43
 70
     1
102
RTVSPropertyOp44
 70
     1
102
RTVSPropertyOp45
 70
     1
102
RTVSPropertyOp46
 70
     1
102
RTVSPropertyOp47
 70
     1
102
RTVSPropertyOp48
 70
     1
102
RTVSPropertyOp49
 70
     1
102
RTVSPropertyOp50
 70
     1
102
RTVSPropertyOp51
 70
     0
102
RTVSPropertyOp52
 70
     0
102
RTVSPropertyOp53
 70
     1
102
RTVSPropertyOp54
 70
     1
102
RTVSPropertyOp55
 70
     1
102
RTVSPropertyOp56
 70
     1
102
RTVSPropertyOp57
 70
     1
102
RTVSPost2010Prop28
280
     1
102
RTVSPost2010PropOp28
 70
     1
102
RTVSPost2010Prop29
280
     1
102
RTVSPost2010PropOp29
 70
     1
102
RTVSPost2010Prop30
280
     0
102
RTVSPost2010PropOp30
 70
     1
102
RTVSPost2010Prop31
280
     0
102
RTVSPost2010PropOp31
 70
     1
102
RTVSPost2010Prop32
280
     0
102
RTVSPost2010PropOp32
 70
     1
102
RTVSPost2010Prop33
280
     0
102
RTVSPost2010PropOp33
 70
     1
102
RTVSPost2010Prop34
280
     0
102
RTVSPost2010PropOp34
 70
     1
102
RTVSPost2010Prop35
280
     0
102
RTVSPost2010PropOp35
 70
     1
102
RTVSPost2010Prop36
280
     0
102
RTVSPost2010PropOp36
 70
     1
102
RTVSPost2010Prop37
 90
       50
102
RTVSPost2010PropOp37
 70
     1
102
RTVSPost2010Prop38
140
0.0
102
RTVSPost2010PropOp38
 70
     1
102
RTVSPost2010Prop39
140
1.0
102
RTVSPost2010PropOp39
 70
     1
102
RTVSPost2010Prop40
 90
        0
102
RTVSPost2010PropOp40
 70
     1
102
RTVSPost2010Prop41ColorIndex
 90
       18
102
RTVSPost2010Prop41ColorRGB
 90
        0
102
RTVSPost2010PropOp41
 70
     1
102
RTVSPost2010Prop42
 90
       50
102
RTVSPost2010PropOp42
 70
     1
102
RTVSPost2010Prop43
 90
        3
102
RTVSPost2010PropOp43
 70
     1
102
RTVSPost2010Prop44ColorIndex
 90
        5
102
RTVSPost2010Prop44ColorRGB
 90
      255
102
RTVSPost2010PropOp44
 70
     1
102
RTVSPost2010Prop45
280
     0
102
RTVSPost2010PropOp45
 70
     1
102
RTVSPost2010Prop46
 90
       50
102
RTVSPost2010PropOp46
 70
     1
102
RTVSPost2010Prop47
 90
       50
102
RTVSPost2010PropOp47
 70
     1
102
RTVSPost2010Prop48
 90
       50
102
RTVSPost2010PropOp48
 70
     1
102
RTVSPost2010Prop49
280
     0
102
RTVSPost2010PropOp49
 70
     1
102
RTVSPost2010Prop50
 90
       50
102
RTVSPost2010PropOp50
 70
     1
102
RTVSPost2010Prop51ColorIndex
 90
      256
102
RTVSPost2010Prop51ColorRGB
 90
-16777216
102
RTVSPost2010PropOp51
 70
     0
102
RTVSPost2010Prop52
140
1.0
102
RTVSPost2010PropOp52
 70
     0
102
RTVSPost2010Prop53
 90
        2
102
RTVSPost2010PropOp53
 70
     1
102
RTVSPost2010Prop54
  1
strokes_ogs.tif
102
RTVSPost2010PropOp54
 70
     1
102
RTVSPost2010Prop55
280
     0
102
RTVSPost2010PropOp55
 70
     1
102
RTVSPost2010Prop56
140
1.0
102
RTVSPost2010PropOp56
 70
     1
102
RTVSPost2010Prop57
140
1.0
102
RTVSPost2010PropOp57
 70
     1
  0
XRECORD
  5
67B
102
{ACAD_REACTORS
330
67A
102
}
330
67A
100
AcDbXrecord
280
     1
102
RTVSPropertyOp0
 70
     1
102
RTVSPropertyOp1
 70
     1
102
RTVSPropertyOp2
 70
     1
102
RTVSPropertyOp3
 70
     1
102
RTVSPropertyOp4
 70
     1
102
RTVSPropertyOp5
 70
     1
102
RTVSPropertyOp6
 70
     1
102
RTVSPropertyOp7
 70
     1
102
RTVSPropertyOp8
 70
     1
102
RTVSPropertyOp9
 70
     1
102
RTVSPropertyOp10
 70
     1
102
RTVSPropertyOp11
 70
     1
102
RTVSPropertyOp12
 70
     1
102
RTVSPropertyOp13
 70
     1
102
RTVSPropertyOp14
 70
     1
102
RTVSPropertyOp15
 70
     1
102
RTVSPropertyOp16
 70
     1
102
RTVSPropertyOp17
 70
     1
102
RTVSPropertyOp18
 70
     1
102
RTVSPropertyOp19
 70
     1
102
RTVSPropertyOp20
 70
     1
102
RTVSPropertyOp21
 70
     1
102
RTVSPropertyOp22
 70
     1
102
RTVSPropertyOp23
 70
     1
102
RTVSPropertyOp24
 70
     1
102
RTVSPropertyOp25
 70
     1
102
RTVSPropertyOp26
 70
     1
102
RTVSPropertyOp27
 70
     1
102
RTVSPropertyOp28
 70
     1
102
RTVSPropertyOp29
 70
     1
102
RTVSPropertyOp30
 70
     1
102
RTVSPropertyOp31
 70
     1
102
RTVSPropertyOp32
 70
     1
102
RTVSPropertyOp33
 70
     1
102
RTVSPropertyOp34
 70
     1
102
RTVSPropertyOp35
 70
     1
102
RTVSPropertyOp36
 70
     1
102
RTVSPropertyOp37
 70
     1
102
RTVSPropertyOp38
 70
     1
102
RTVSPropertyOp39
 70
     1
102
RTVSPropertyOp40
 70
     1
102
RTVSPropertyOp41
 70
     1
102
RTVSPropertyOp42
 70
     1
102
RTVSPropertyOp43
 70
     1
102
RTVSPropertyOp44
 70
     1
102
RTVSPropertyOp45
 70
     1
102
RTVSPropertyOp46
 70
     1
102
RTVSPropertyOp47
 70
     1
102
RTVSPropertyOp48
 70
     1
102
RTVSPropertyOp49
 70
     1
102
RTVSPropertyOp50
 70
     1
102
RTVSPropertyOp51
 70
     0
102
RTVSPropertyOp52
 70
     0
102
RTVSPropertyOp53
 70
     1
102
RTVSPropertyOp54
 70
     1
102
RTVSPropertyOp55
 70
     1
102
RTVSPropertyOp56
 70
     1
102
RTVSPropertyOp57
 70
     1
102
RTVSPost2010Prop28
280
     0
102
RTVSPost2010PropOp28
 70
     1
102
RTVSPost2010Prop29
280
     1
102
RTVSPost2010PropOp29
 70
     1
102
RTVSPost2010Prop30
280
     1
102
RTVSPost2010PropOp30
 70
     1
102
RTVSPost2010Prop31
280
     0
102
RTVSPost2010PropOp31
 70
     1
102
RTVSPost2010Prop32
280
     0
102
RTVSPost2010PropOp32
 70
     1
102
RTVSPost2010Prop33
280
     0
102
RTVSPost2010PropOp33
 70
     1
102
RTVSPost2010Prop34
280
     0
102
RTVSPost2010PropOp34
 70
     1
102
RTVSPost2010Prop35
280
     0
102
RTVSPost2010PropOp35
 70
     1
102
RTVSPost2010Prop36
280
     0
102
RTVSPost2010PropOp36
 70
     1
102
RTVSPost2010Prop37
 90
       50
102
RTVSPost2010PropOp37
 70
     1
102
RTVSPost2010Prop38
140
0.0
102
RTVSPost2010PropOp38
 70
     1
102
RTVSPost2010Prop39
140
1.0
102
RTVSPost2010PropOp39
 70
     1
102
RTVSPost2010Prop40
 90
        0
102
RTVSPost2010PropOp40
 70
     1
102
RTVSPost2010Prop41ColorIndex
 90
       18
102
RTVSPost2010Prop41ColorRGB
 90
        0
102
RTVSPost2010PropOp41
 70
     1
102
RTVSPost2010Prop42
 90
       50
102
RTVSPost2010PropOp42
 70
     1
102
RTVSPost2010Prop43
 90
        3
102
RTVSPost2010PropOp43
 70
     1
102
RTVSPost2010Prop44ColorIndex
 90
        5
102
RTVSPost2010Prop44ColorRGB
 90
      255
102
RTVSPost2010PropOp44
 70
     1
102
RTVSPost2010Prop45
280
     0
102
RTVSPost2010PropOp45
 70
     1
102
RTVSPost2010Prop46
 90
       50
102
RTVSPost2010PropOp46
 70
     1
102
RTVSPost2010Prop47
 90
       50
102
RTVSPost2010PropOp47
 70
     1
102
RTVSPost2010Prop48
 90
       50
102
RTVSPost2010PropOp48
 70
     1
102
RTVSPost2010Prop49
280
     0
102
RTVSPost2010PropOp49
 70
     1
102
RTVSPost2010Prop50
 90
       50
102
RTVSPost2010PropOp50
 70
     1
102
RTVSPost2010Prop51ColorIndex
 90
      256
102
RTVSPost2010Prop51ColorRGB
 90
-16777216
102
RTVSPost2010PropOp51
 70
     0
102
RTVSPost2010Prop52
140
1.0
102
RTVSPost2010PropOp52
 70
     0
102
RTVSPost2010Prop53
 90
        2
102
RTVSPost2010PropOp53
 70
     1
102
RTVSPost2010Prop54
  1
strokes_ogs.tif
102
RTVSPost2010PropOp54
 70
     1
102
RTVSPost2010Prop55
280
     0
102
RTVSPost2010PropOp55
 70
     1
102
RTVSPost2010Prop56
140
1.0
102
RTVSPost2010PropOp56
 70
     1
102
RTVSPost2010Prop57
140
1.0
102
RTVSPost2010PropOp57
 70
     1
  0
XRECORD
  5
679
102
{ACAD_REACTORS
330
678
102
}
330
678
100
AcDbXrecord
280
     1
102
RTVSPropertyOp0
 70
     1
102
RTVSPropertyOp1
 70
     1
102
RTVSPropertyOp2
 70
     1
102
RTVSPropertyOp3
 70
     1
102
RTVSPropertyOp4
 70
     1
102
RTVSPropertyOp5
 70
     1
102
RTVSPropertyOp6
 70
     1
102
RTVSPropertyOp7
 70
     1
102
RTVSPropertyOp8
 70
     1
102
RTVSPropertyOp9
 70
     1
102
RTVSPropertyOp10
 70
     1
102
RTVSPropertyOp11
 70
     1
102
RTVSPropertyOp12
 70
     1
102
RTVSPropertyOp13
 70
     1
102
RTVSPropertyOp14
 70
     1
102
RTVSPropertyOp15
 70
     1
102
RTVSPropertyOp16
 70
     1
102
RTVSPropertyOp17
 70
     1
102
RTVSPropertyOp18
 70
     1
102
RTVSPropertyOp19
 70
     1
102
RTVSPropertyOp20
 70
     1
102
RTVSPropertyOp21
 70
     1
102
RTVSPropertyOp22
 70
     1
102
RTVSPropertyOp23
 70
     1
102
RTVSPropertyOp24
 70
     1
102
RTVSPropertyOp25
 70
     1
102
RTVSPropertyOp26
 70
     1
102
RTVSPropertyOp27
 70
     1
102
RTVSPropertyOp28
 70
     1
102
RTVSPropertyOp29
 70
     1
102
RTVSPropertyOp30
 70
     1
102
RTVSPropertyOp31
 70
     1
102
RTVSPropertyOp32
 70
     1
102
RTVSPropertyOp33
 70
     1
102
RTVSPropertyOp34
 70
     1
102
RTVSPropertyOp35
 70
     1
102
RTVSPropertyOp36
 70
     1
102
RTVSPropertyOp37
 70
     1
102
RTVSPropertyOp38
 70
     1
102
RTVSPropertyOp39
 70
     1
102
RTVSPropertyOp40
 70
     1
102
RTVSPropertyOp41
 70
     1
102
RTVSPropertyOp42
 70
     1
102
RTVSPropertyOp43
 70
     1
102
RTVSPropertyOp44
 70
     1
102
RTVSPropertyOp45
 70
     1
102
RTVSPropertyOp46
 70
     1
102
RTVSPropertyOp47
 70
     1
102
RTVSPropertyOp48
 70
     1
102
RTVSPropertyOp49
 70
     1
102
RTVSPropertyOp50
 70
     1
102
RTVSPropertyOp51
 70
     0
102
RTVSPropertyOp52
 70
     0
102
RTVSPropertyOp53
 70
     1
102
RTVSPropertyOp54
 70
     1
102
RTVSPropertyOp55
 70
     1
102
RTVSPropertyOp56
 70
     1
102
RTVSPropertyOp57
 70
     1
102
RTVSPost2010Prop28
280
     0
102
RTVSPost2010PropOp28
 70
     1
102
RTVSPost2010Prop29
280
     1
102
RTVSPost2010PropOp29
 70
     1
102
RTVSPost2010Prop30
280
     1
102
RTVSPost2010PropOp30
 70
     1
102
RTVSPost2010Prop31
280
     0
102
RTVSPost2010PropOp31
 70
     1
102
RTVSPost2010Prop32
280
     0
102
RTVSPost2010PropOp32
 70
     1
102
RTVSPost2010Prop33
280
     0
102
RTVSPost2010PropOp33
 70
     1
102
RTVSPost2010Prop34
280
     0
102
RTVSPost2010PropOp34
 70
     1
102
RTVSPost2010Prop35
280
     0
102
RTVSPost2010PropOp35
 70
     1
102
RTVSPost2010Prop36
280
     0
102
RTVSPost2010PropOp36
 70
     1
102
RTVSPost2010Prop37
 90
       50
102
RTVSPost2010PropOp37
 70
     1
102
RTVSPost2010Prop38
140
0.0
102
RTVSPost2010PropOp38
 70
     1
102
RTVSPost2010Prop39
140
1.0
102
RTVSPost2010PropOp39
 70
     1
102
RTVSPost2010Prop40
 90
        0
102
RTVSPost2010PropOp40
 70
     1
102
RTVSPost2010Prop41ColorIndex
 90
       18
102
RTVSPost2010Prop41ColorRGB
 90
        0
102
RTVSPost2010PropOp41
 70
     1
102
RTVSPost2010Prop42
 90
       50
102
RTVSPost2010PropOp42
 70
     1
102
RTVSPost2010Prop43
 90
        3
102
RTVSPost2010PropOp43
 70
     1
102
RTVSPost2010Prop44ColorIndex
 90
        5
102
RTVSPost2010Prop44ColorRGB
 90
      255
102
RTVSPost2010PropOp44
 70
     1
102
RTVSPost2010Prop45
280
     0
102
RTVSPost2010PropOp45
 70
     1
102
RTVSPost2010Prop46
 90
       50
102
RTVSPost2010PropOp46
 70
     1
102
RTVSPost2010Prop47
 90
       50
102
RTVSPost2010PropOp47
 70
     1
102
RTVSPost2010Prop48
 90
       50
102
RTVSPost2010PropOp48
 70
     1
102
RTVSPost2010Prop49
280
     0
102
RTVSPost2010PropOp49
 70
     1
102
RTVSPost2010Prop50
 90
       50
102
RTVSPost2010PropOp50
 70
     1
102
RTVSPost2010Prop51ColorIndex
 90
      256
102
RTVSPost2010Prop51ColorRGB
 90
-16777216
102
RTVSPost2010PropOp51
 70
     0
102
RTVSPost2010Prop52
140
1.0
102
RTVSPost2010PropOp52
 70
     0
102
RTVSPost2010Prop53
 90
        2
102
RTVSPost2010PropOp53
 70
     1
102
RTVSPost2010Prop54
  1
strokes_ogs.tif
102
RTVSPost2010PropOp54
 70
     1
102
RTVSPost2010Prop55
280
     0
102
RTVSPost2010PropOp55
 70
     1
102
RTVSPost2010Prop56
140
1.0
102
RTVSPost2010PropOp56
 70
     1
102
RTVSPost2010Prop57
140
1.0
102
RTVSPost2010PropOp57
 70
     1
  0
XRECORD
  5
67D
102
{ACAD_REACTORS
330
67C
102
}
330
67C
100
AcDbXrecord
280
     1
102
RTVSPropertyOp0
 70
     1
102
RTVSPropertyOp1
 70
     1
102
RTVSPropertyOp2
 70
     1
102
RTVSPropertyOp3
 70
     1
102
RTVSPropertyOp4
 70
     1
102
RTVSPropertyOp5
 70
     1
102
RTVSPropertyOp6
 70
     1
102
RTVSPropertyOp7
 70
     1
102
RTVSPropertyOp8
 70
     1
102
RTVSPropertyOp9
 70
     1
102
RTVSPropertyOp10
 70
     1
102
RTVSPropertyOp11
 70
     1
102
RTVSPropertyOp12
 70
     1
102
RTVSPropertyOp13
 70
     1
102
RTVSPropertyOp14
 70
     1
102
RTVSPropertyOp15
 70
     1
102
RTVSPropertyOp16
 70
     1
102
RTVSPropertyOp17
 70
     1
102
RTVSPropertyOp18
 70
     1
102
RTVSPropertyOp19
 70
     1
102
RTVSPropertyOp20
 70
     1
102
RTVSPropertyOp21
 70
     1
102
RTVSPropertyOp22
 70
     1
102
RTVSPropertyOp23
 70
     1
102
RTVSPropertyOp24
 70
     1
102
RTVSPropertyOp25
 70
     1
102
RTVSPropertyOp26
 70
     1
102
RTVSPropertyOp27
 70
     1
102
RTVSPropertyOp28
 70
     1
102
RTVSPropertyOp29
 70
     1
102
RTVSPropertyOp30
 70
     1
102
RTVSPropertyOp31
 70
     1
102
RTVSPropertyOp32
 70
     1
102
RTVSPropertyOp33
 70
     1
102
RTVSPropertyOp34
 70
     1
102
RTVSPropertyOp35
 70
     1
102
RTVSPropertyOp36
 70
     1
102
RTVSPropertyOp37
 70
     1
102
RTVSPropertyOp38
 70
     1
102
RTVSPropertyOp39
 70
     1
102
RTVSPropertyOp40
 70
     1
102
RTVSPropertyOp41
 70
     1
102
RTVSPropertyOp42
 70
     1
102
RTVSPropertyOp43
 70
     1
102
RTVSPropertyOp44
 70
     1
102
RTVSPropertyOp45
 70
     1
102
RTVSPropertyOp46
 70
     1
102
RTVSPropertyOp47
 70
     1
102
RTVSPropertyOp48
 70
     1
102
RTVSPropertyOp49
 70
     1
102
RTVSPropertyOp50
 70
     1
102
RTVSPropertyOp51
 70
     0
102
RTVSPropertyOp52
 70
     0
102
RTVSPropertyOp53
 70
     1
102
RTVSPropertyOp54
 70
     1
102
RTVSPropertyOp55
 70
     1
102
RTVSPropertyOp56
 70
     1
102
RTVSPropertyOp57
 70
     1
102
RTVSPost2010Prop28
280
     0
102
RTVSPost2010PropOp28
 70
     1
102
RTVSPost2010Prop29
280
     1
102
RTVSPost2010PropOp29
 70
     1
102
RTVSPost2010Prop30
280
     1
102
RTVSPost2010PropOp30
 70
     1
102
RTVSPost2010Prop31
280
     0
102
RTVSPost2010PropOp31
 70
     1
102
RTVSPost2010Prop32
280
     0
102
RTVSPost2010PropOp32
 70
     1
102
RTVSPost2010Prop33
280
     0
102
RTVSPost2010PropOp33
 70
     1
102
RTVSPost2010Prop34
280
     0
102
RTVSPost2010PropOp34
 70
     1
102
RTVSPost2010Prop35
280
     0
102
RTVSPost2010PropOp35
 70
     1
102
RTVSPost2010Prop36
280
     0
102
RTVSPost2010PropOp36
 70
     1
102
RTVSPost2010Prop37
 90
       50
102
RTVSPost2010PropOp37
 70
     1
102
RTVSPost2010Prop38
140
0.0
102
RTVSPost2010PropOp38
 70
     1
102
RTVSPost2010Prop39
140
1.0
102
RTVSPost2010PropOp39
 70
     1
102
RTVSPost2010Prop40
 90
        0
102
RTVSPost2010PropOp40
 70
     1
102
RTVSPost2010Prop41ColorIndex
 90
       18
102
RTVSPost2010Prop41ColorRGB
 90
        0
102
RTVSPost2010PropOp41
 70
     1
102
RTVSPost2010Prop42
 90
       50
102
RTVSPost2010PropOp42
 70
     1
102
RTVSPost2010Prop43
 90
        3
102
RTVSPost2010PropOp43
 70
     1
102
RTVSPost2010Prop44ColorIndex
 90
        5
102
RTVSPost2010Prop44ColorRGB
 90
      255
102
RTVSPost2010PropOp44
 70
     1
102
RTVSPost2010Prop45
280
     0
102
RTVSPost2010PropOp45
 70
     1
102
RTVSPost2010Prop46
 90
       50
102
RTVSPost2010PropOp46
 70
     1
102
RTVSPost2010Prop47
 90
       50
102
RTVSPost2010PropOp47
 70
     1
102
RTVSPost2010Prop48
 90
       50
102
RTVSPost2010PropOp48
 70
     1
102
RTVSPost2010Prop49
280
     0
102
RTVSPost2010PropOp49
 70
     1
102
RTVSPost2010Prop50
 90
       50
102
RTVSPost2010PropOp50
 70
     1
102
RTVSPost2010Prop51ColorIndex
 90
      256
102
RTVSPost2010Prop51ColorRGB
 90
-16777216
102
RTVSPost2010PropOp51
 70
     0
102
RTVSPost2010Prop52
140
1.0
102
RTVSPost2010PropOp52
 70
     0
102
RTVSPost2010Prop53
 90
        2
102
RTVSPost2010PropOp53
 70
     1
102
RTVSPost2010Prop54
  1
strokes_ogs.tif
102
RTVSPost2010PropOp54
 70
     1
102
RTVSPost2010Prop55
280
     0
102
RTVSPost2010PropOp55
 70
     1
102
RTVSPost2010Prop56
140
1.0
102
RTVSPost2010PropOp56
 70
     1
102
RTVSPost2010Prop57
140
1.0
102
RTVSPost2010PropOp57
 70
     1
  0
XRECORD
  5
685
102
{ACAD_REACTORS
330
684
102
}
330
684
100
AcDbXrecord
280
     1
102
RTVSPropertyOp0
 70
     1
102
RTVSPropertyOp1
 70
     1
102
RTVSPropertyOp2
 70
     1
102
RTVSPropertyOp3
 70
     1
102
RTVSPropertyOp4
 70
     1
102
RTVSPropertyOp5
 70
     1
102
RTVSPropertyOp6
 70
     1
102
RTVSPropertyOp7
 70
     1
102
RTVSPropertyOp8
 70
     1
102
RTVSPropertyOp9
 70
     1
102
RTVSPropertyOp10
 70
     1
102
RTVSPropertyOp11
 70
     1
102
RTVSPropertyOp12
 70
     1
102
RTVSPropertyOp13
 70
     1
102
RTVSPropertyOp14
 70
     1
102
RTVSPropertyOp15
 70
     1
102
RTVSPropertyOp16
 70
     1
102
RTVSPropertyOp17
 70
     1
102
RTVSPropertyOp18
 70
     1
102
RTVSPropertyOp19
 70
     1
102
RTVSPropertyOp20
 70
     1
102
RTVSPropertyOp21
 70
     1
102
RTVSPropertyOp22
 70
     1
102
RTVSPropertyOp23
 70
     1
102
RTVSPropertyOp24
 70
     1
102
RTVSPropertyOp25
 70
     1
102
RTVSPropertyOp26
 70
     1
102
RTVSPropertyOp27
 70
     1
102
RTVSPropertyOp28
 70
     1
102
RTVSPropertyOp29
 70
     1
102
RTVSPropertyOp30
 70
     1
102
RTVSPropertyOp31
 70
     1
102
RTVSPropertyOp32
 70
     1
102
RTVSPropertyOp33
 70
     1
102
RTVSPropertyOp34
 70
     1
102
RTVSPropertyOp35
 70
     1
102
RTVSPropertyOp36
 70
     1
102
RTVSPropertyOp37
 70
     1
102
RTVSPropertyOp38
 70
     1
102
RTVSPropertyOp39
 70
     1
102
RTVSPropertyOp40
 70
     1
102
RTVSPropertyOp41
 70
     1
102
RTVSPropertyOp42
 70
     1
102
RTVSPropertyOp43
 70
     1
102
RTVSPropertyOp44
 70
     1
102
RTVSPropertyOp45
 70
     1
102
RTVSPropertyOp46
 70
     1
102
RTVSPropertyOp47
 70
     1
102
RTVSPropertyOp48
 70
     1
102
RTVSPropertyOp49
 70
     1
102
RTVSPropertyOp50
 70
     1
102
RTVSPropertyOp51
 70
     0
102
RTVSPropertyOp52
 70
     0
102
RTVSPropertyOp53
 70
     1
102
RTVSPropertyOp54
 70
     1
102
RTVSPropertyOp55
 70
     1
102
RTVSPropertyOp56
 70
     1
102
RTVSPropertyOp57
 70
     1
102
RTVSPost2010Prop28
280
     0
102
RTVSPost2010PropOp28
 70
     1
102
RTVSPost2010Prop29
280
     1
102
RTVSPost2010PropOp29
 70
     1
102
RTVSPost2010Prop30
280
     1
102
RTVSPost2010PropOp30
 70
     1
102
RTVSPost2010Prop31
280
     0
102
RTVSPost2010PropOp31
 70
     1
102
RTVSPost2010Prop32
280
     0
102
RTVSPost2010PropOp32
 70
     1
102
RTVSPost2010Prop33
280
     0
102
RTVSPost2010PropOp33
 70
     1
102
RTVSPost2010Prop34
280
     0
102
RTVSPost2010PropOp34
 70
     1
102
RTVSPost2010Prop35
280
     0
102
RTVSPost2010PropOp35
 70
     1
102
RTVSPost2010Prop36
280
     0
102
RTVSPost2010PropOp36
 70
     1
102
RTVSPost2010Prop37
 90
       50
102
RTVSPost2010PropOp37
 70
     1
102
RTVSPost2010Prop38
140
0.0
102
RTVSPost2010PropOp38
 70
     1
102
RTVSPost2010Prop39
140
1.0
102
RTVSPost2010PropOp39
 70
     1
102
RTVSPost2010Prop40
 90
        0
102
RTVSPost2010PropOp40
 70
     1
102
RTVSPost2010Prop41ColorIndex
 90
       18
102
RTVSPost2010Prop41ColorRGB
 90
        0
102
RTVSPost2010PropOp41
 70
     1
102
RTVSPost2010Prop42
 90
       50
102
RTVSPost2010PropOp42
 70
     1
102
RTVSPost2010Prop43
 90
        3
102
RTVSPost2010PropOp43
 70
     1
102
RTVSPost2010Prop44ColorIndex
 90
        5
102
RTVSPost2010Prop44ColorRGB
 90
      255
102
RTVSPost2010PropOp44
 70
     1
102
RTVSPost2010Prop45
280
     0
102
RTVSPost2010PropOp45
 70
     1
102
RTVSPost2010Prop46
 90
       50
102
RTVSPost2010PropOp46
 70
     1
102
RTVSPost2010Prop47
 90
       50
102
RTVSPost2010PropOp47
 70
     1
102
RTVSPost2010Prop48
 90
       50
102
RTVSPost2010PropOp48
 70
     1
102
RTVSPost2010Prop49
280
     0
102
RTVSPost2010PropOp49
 70
     1
102
RTVSPost2010Prop50
 90
       50
102
RTVSPost2010PropOp50
 70
     1
102
RTVSPost2010Prop51ColorIndex
 90
      256
102
RTVSPost2010Prop51ColorRGB
 90
-16777216
102
RTVSPost2010PropOp51
 70
     0
102
RTVSPost2010Prop52
140
1.0
102
RTVSPost2010PropOp52
 70
     0
102
RTVSPost2010Prop53
 90
        2
102
RTVSPost2010PropOp53
 70
     1
102
RTVSPost2010Prop54
  1
strokes_ogs.tif
102
RTVSPost2010PropOp54
 70
     1
102
RTVSPost2010Prop55
280
     0
102
RTVSPost2010PropOp55
 70
     1
102
RTVSPost2010Prop56
140
1.0
102
RTVSPost2010PropOp56
 70
     1
102
RTVSPost2010Prop57
140
1.0
102
RTVSPost2010PropOp57
 70
     1
  0
XRECORD
  5
68D
102
{ACAD_REACTORS
330
68C
102
}
330
68C
100
AcDbXrecord
280
     1
102
RTVSPropertyOp0
 70
     1
102
RTVSPropertyOp1
 70
     1
102
RTVSPropertyOp2
 70
     1
102
RTVSPropertyOp3
 70
     1
102
RTVSPropertyOp4
 70
     1
102
RTVSPropertyOp5
 70
     1
102
RTVSPropertyOp6
 70
     1
102
RTVSPropertyOp7
 70
     1
102
RTVSPropertyOp8
 70
     1
102
RTVSPropertyOp9
 70
     1
102
RTVSPropertyOp10
 70
     1
102
RTVSPropertyOp11
 70
     1
102
RTVSPropertyOp12
 70
     1
102
RTVSPropertyOp13
 70
     1
102
RTVSPropertyOp14
 70
     1
102
RTVSPropertyOp15
 70
     1
102
RTVSPropertyOp16
 70
     1
102
RTVSPropertyOp17
 70
     1
102
RTVSPropertyOp18
 70
     1
102
RTVSPropertyOp19
 70
     1
102
RTVSPropertyOp20
 70
     1
102
RTVSPropertyOp21
 70
     1
102
RTVSPropertyOp22
 70
     1
102
RTVSPropertyOp23
 70
     1
102
RTVSPropertyOp24
 70
     1
102
RTVSPropertyOp25
 70
     1
102
RTVSPropertyOp26
 70
     1
102
RTVSPropertyOp27
 70
     1
102
RTVSPropertyOp28
 70
     1
102
RTVSPropertyOp29
 70
     1
102
RTVSPropertyOp30
 70
     1
102
RTVSPropertyOp31
 70
     1
102
RTVSPropertyOp32
 70
     1
102
RTVSPropertyOp33
 70
     1
102
RTVSPropertyOp34
 70
     1
102
RTVSPropertyOp35
 70
     1
102
RTVSPropertyOp36
 70
     1
102
RTVSPropertyOp37
 70
     1
102
RTVSPropertyOp38
 70
     1
102
RTVSPropertyOp39
 70
     1
102
RTVSPropertyOp40
 70
     1
102
RTVSPropertyOp41
 70
     1
102
RTVSPropertyOp42
 70
     1
102
RTVSPropertyOp43
 70
     1
102
RTVSPropertyOp44
 70
     1
102
RTVSPropertyOp45
 70
     1
102
RTVSPropertyOp46
 70
     1
102
RTVSPropertyOp47
 70
     1
102
RTVSPropertyOp48
 70
     1
102
RTVSPropertyOp49
 70
     1
102
RTVSPropertyOp50
 70
     1
102
RTVSPropertyOp51
 70
     0
102
RTVSPropertyOp52
 70
     0
102
RTVSPropertyOp53
 70
     1
102
RTVSPropertyOp54
 70
     1
102
RTVSPropertyOp55
 70
     1
102
RTVSPropertyOp56
 70
     1
102
RTVSPropertyOp57
 70
     1
102
RTVSPost2010Prop28
280
     0
102
RTVSPost2010PropOp28
 70
     1
102
RTVSPost2010Prop29
280
     1
102
RTVSPost2010PropOp29
 70
     1
102
RTVSPost2010Prop30
280
     1
102
RTVSPost2010PropOp30
 70
     1
102
RTVSPost2010Prop31
280
     0
102
RTVSPost2010PropOp31
 70
     1
102
RTVSPost2010Prop32
280
     0
102
RTVSPost2010PropOp32
 70
     1
102
RTVSPost2010Prop33
280
     0
102
RTVSPost2010PropOp33
 70
     1
102
RTVSPost2010Prop34
280
     0
102
RTVSPost2010PropOp34
 70
     1
102
RTVSPost2010Prop35
280
     0
102
RTVSPost2010PropOp35
 70
     1
102
RTVSPost2010Prop36
280
     0
102
RTVSPost2010PropOp36
 70
     1
102
RTVSPost2010Prop37
 90
       50
102
RTVSPost2010PropOp37
 70
     1
102
RTVSPost2010Prop38
140
0.0
102
RTVSPost2010PropOp38
 70
     1
102
RTVSPost2010Prop39
140
1.0
102
RTVSPost2010PropOp39
 70
     1
102
RTVSPost2010Prop40
 90
        0
102
RTVSPost2010PropOp40
 70
     1
102
RTVSPost2010Prop41ColorIndex
 90
       18
102
RTVSPost2010Prop41ColorRGB
 90
        0
102
RTVSPost2010PropOp41
 70
     1
102
RTVSPost2010Prop42
 90
       50
102
RTVSPost2010PropOp42
 70
     1
102
RTVSPost2010Prop43
 90
        3
102
RTVSPost2010PropOp43
 70
     1
102
RTVSPost2010Prop44ColorIndex
 90
        5
102
RTVSPost2010Prop44ColorRGB
 90
      255
102
RTVSPost2010PropOp44
 70
     1
102
RTVSPost2010Prop45
280
     0
102
RTVSPost2010PropOp45
 70
     1
102
RTVSPost2010Prop46
 90
       50
102
RTVSPost2010PropOp46
 70
     1
102
RTVSPost2010Prop47
 90
       50
102
RTVSPost2010PropOp47
 70
     1
102
RTVSPost2010Prop48
 90
       50
102
RTVSPost2010PropOp48
 70
     1
102
RTVSPost2010Prop49
280
     0
102
RTVSPost2010PropOp49
 70
     1
102
RTVSPost2010Prop50
 90
       50
102
RTVSPost2010PropOp50
 70
     1
102
RTVSPost2010Prop51ColorIndex
 90
      256
102
RTVSPost2010Prop51ColorRGB
 90
-16777216
102
RTVSPost2010PropOp51
 70
     0
102
RTVSPost2010Prop52
140
1.0
102
RTVSPost2010PropOp52
 70
     0
102
RTVSPost2010Prop53
 90
        2
102
RTVSPost2010PropOp53
 70
     1
102
RTVSPost2010Prop54
  1
strokes_ogs.tif
102
RTVSPost2010PropOp54
 70
     1
102
RTVSPost2010Prop55
280
     0
102
RTVSPost2010PropOp55
 70
     1
102
RTVSPost2010Prop56
140
1.0
102
RTVSPost2010PropOp56
 70
     1
102
RTVSPost2010Prop57
140
1.0
102
RTVSPost2010PropOp57
 70
     1
  0
XRECORD
  5
681
102
{ACAD_REACTORS
330
680
102
}
330
680
100
AcDbXrecord
280
     1
102
RTVSPropertyOp0
 70
     1
102
RTVSPropertyOp1
 70
     1
102
RTVSPropertyOp2
 70
     1
102
RTVSPropertyOp3
 70
     1
102
RTVSPropertyOp4
 70
     1
102
RTVSPropertyOp5
 70
     1
102
RTVSPropertyOp6
 70
     1
102
RTVSPropertyOp7
 70
     1
102
RTVSPropertyOp8
 70
     1
102
RTVSPropertyOp9
 70
     1
102
RTVSPropertyOp10
 70
     1
102
RTVSPropertyOp11
 70
     1
102
RTVSPropertyOp12
 70
     1
102
RTVSPropertyOp13
 70
     1
102
RTVSPropertyOp14
 70
     1
102
RTVSPropertyOp15
 70
     1
102
RTVSPropertyOp16
 70
     1
102
RTVSPropertyOp17
 70
     1
102
RTVSPropertyOp18
 70
     1
102
RTVSPropertyOp19
 70
     1
102
RTVSPropertyOp20
 70
     1
102
RTVSPropertyOp21
 70
     1
102
RTVSPropertyOp22
 70
     1
102
RTVSPropertyOp23
 70
     1
102
RTVSPropertyOp24
 70
     1
102
RTVSPropertyOp25
 70
     1
102
RTVSPropertyOp26
 70
     1
102
RTVSPropertyOp27
 70
     1
102
RTVSPropertyOp28
 70
     1
102
RTVSPropertyOp29
 70
     1
102
RTVSPropertyOp30
 70
     1
102
RTVSPropertyOp31
 70
     1
102
RTVSPropertyOp32
 70
     1
102
RTVSPropertyOp33
 70
     1
102
RTVSPropertyOp34
 70
     1
102
RTVSPropertyOp35
 70
     1
102
RTVSPropertyOp36
 70
     1
102
RTVSPropertyOp37
 70
     1
102
RTVSPropertyOp38
 70
     1
102
RTVSPropertyOp39
 70
     1
102
RTVSPropertyOp40
 70
     1
102
RTVSPropertyOp41
 70
     1
102
RTVSPropertyOp42
 70
     1
102
RTVSPropertyOp43
 70
     1
102
RTVSPropertyOp44
 70
     1
102
RTVSPropertyOp45
 70
     1
102
RTVSPropertyOp46
 70
     1
102
RTVSPropertyOp47
 70
     1
102
RTVSPropertyOp48
 70
     1
102
RTVSPropertyOp49
 70
     1
102
RTVSPropertyOp50
 70
     1
102
RTVSPropertyOp51
 70
     0
102
RTVSPropertyOp52
 70
     0
102
RTVSPropertyOp53
 70
     1
102
RTVSPropertyOp54
 70
     1
102
RTVSPropertyOp55
 70
     1
102
RTVSPropertyOp56
 70
     1
102
RTVSPropertyOp57
 70
     1
102
RTVSPost2010Prop28
280
     0
102
RTVSPost2010PropOp28
 70
     1
102
RTVSPost2010Prop29
280
     1
102
RTVSPost2010PropOp29
 70
     1
102
RTVSPost2010Prop30
280
     1
102
RTVSPost2010PropOp30
 70
     1
102
RTVSPost2010Prop31
280
     0
102
RTVSPost2010PropOp31
 70
     1
102
RTVSPost2010Prop32
280
     0
102
RTVSPost2010PropOp32
 70
     1
102
RTVSPost2010Prop33
280
     0
102
RTVSPost2010PropOp33
 70
     1
102
RTVSPost2010Prop34
280
     0
102
RTVSPost2010PropOp34
 70
     1
102
RTVSPost2010Prop35
280
     0
102
RTVSPost2010PropOp35
 70
     1
102
RTVSPost2010Prop36
280
     0
102
RTVSPost2010PropOp36
 70
     1
102
RTVSPost2010Prop37
 90
       50
102
RTVSPost2010PropOp37
 70
     1
102
RTVSPost2010Prop38
140
0.0
102
RTVSPost2010PropOp38
 70
     1
102
RTVSPost2010Prop39
140
1.0
102
RTVSPost2010PropOp39
 70
     1
102
RTVSPost2010Prop40
 90
        0
102
RTVSPost2010PropOp40
 70
     1
102
RTVSPost2010Prop41ColorIndex
 90
       18
102
RTVSPost2010Prop41ColorRGB
 90
        0
102
RTVSPost2010PropOp41
 70
     1
102
RTVSPost2010Prop42
 90
       50
102
RTVSPost2010PropOp42
 70
     1
102
RTVSPost2010Prop43
 90
        3
102
RTVSPost2010PropOp43
 70
     1
102
RTVSPost2010Prop44ColorIndex
 90
        5
102
RTVSPost2010Prop44ColorRGB
 90
      255
102
RTVSPost2010PropOp44
 70
     1
102
RTVSPost2010Prop45
280
     0
102
RTVSPost2010PropOp45
 70
     1
102
RTVSPost2010Prop46
 90
       50
102
RTVSPost2010PropOp46
 70
     1
102
RTVSPost2010Prop47
 90
       50
102
RTVSPost2010PropOp47
 70
     1
102
RTVSPost2010Prop48
 90
       50
102
RTVSPost2010PropOp48
 70
     1
102
RTVSPost2010Prop49
280
     0
102
RTVSPost2010PropOp49
 70
     1
102
RTVSPost2010Prop50
 90
       50
102
RTVSPost2010PropOp50
 70
     1
102
RTVSPost2010Prop51ColorIndex
 90
      256
102
RTVSPost2010Prop51ColorRGB
 90
-16777216
102
RTVSPost2010PropOp51
 70
     0
102
RTVSPost2010Prop52
140
1.0
102
RTVSPost2010PropOp52
 70
     0
102
RTVSPost2010Prop53
 90
        2
102
RTVSPost2010PropOp53
 70
     1
102
RTVSPost2010Prop54
  1
strokes_ogs.tif
102
RTVSPost2010PropOp54
 70
     1
102
RTVSPost2010Prop55
280
     0
102
RTVSPost2010PropOp55
 70
     1
102
RTVSPost2010Prop56
140
1.0
102
RTVSPost2010PropOp56
 70
     1
102
RTVSPost2010Prop57
140
1.0
102
RTVSPost2010PropOp57
 70
     1
  0
XRECORD
  5
683
102
{ACAD_REACTORS
330
682
102
}
330
682
100
AcDbXrecord
280
     1
102
RTVSPropertyOp0
 70
     1
102
RTVSPropertyOp1
 70
     1
102
RTVSPropertyOp2
 70
     1
102
RTVSPropertyOp3
 70
     1
102
RTVSPropertyOp4
 70
     1
102
RTVSPropertyOp5
 70
     1
102
RTVSPropertyOp6
 70
     1
102
RTVSPropertyOp7
 70
     1
102
RTVSPropertyOp8
 70
     1
102
RTVSPropertyOp9
 70
     1
102
RTVSPropertyOp10
 70
     1
102
RTVSPropertyOp11
 70
     1
102
RTVSPropertyOp12
 70
     1
102
RTVSPropertyOp13
 70
     1
102
RTVSPropertyOp14
 70
     1
102
RTVSPropertyOp15
 70
     1
102
RTVSPropertyOp16
 70
     1
102
RTVSPropertyOp17
 70
     1
102
RTVSPropertyOp18
 70
     1
102
RTVSPropertyOp19
 70
     1
102
RTVSPropertyOp20
 70
     1
102
RTVSPropertyOp21
 70
     1
102
RTVSPropertyOp22
 70
     1
102
RTVSPropertyOp23
 70
     1
102
RTVSPropertyOp24
 70
     1
102
RTVSPropertyOp25
 70
     1
102
RTVSPropertyOp26
 70
     1
102
RTVSPropertyOp27
 70
     1
102
RTVSPropertyOp28
 70
     1
102
RTVSPropertyOp29
 70
     1
102
RTVSPropertyOp30
 70
     1
102
RTVSPropertyOp31
 70
     1
102
RTVSPropertyOp32
 70
     1
102
RTVSPropertyOp33
 70
     1
102
RTVSPropertyOp34
 70
     1
102
RTVSPropertyOp35
 70
     1
102
RTVSPropertyOp36
 70
     1
102
RTVSPropertyOp37
 70
     1
102
RTVSPropertyOp38
 70
     1
102
RTVSPropertyOp39
 70
     1
102
RTVSPropertyOp40
 70
     1
102
RTVSPropertyOp41
 70
     1
102
RTVSPropertyOp42
 70
     1
102
RTVSPropertyOp43
 70
     1
102
RTVSPropertyOp44
 70
     1
102
RTVSPropertyOp45
 70
     1
102
RTVSPropertyOp46
 70
     1
102
RTVSPropertyOp47
 70
     1
102
RTVSPropertyOp48
 70
     1
102
RTVSPropertyOp49
 70
     1
102
RTVSPropertyOp50
 70
     1
102
RTVSPropertyOp51
 70
     0
102
RTVSPropertyOp52
 70
     0
102
RTVSPropertyOp53
 70
     1
102
RTVSPropertyOp54
 70
     1
102
RTVSPropertyOp55
 70
     1
102
RTVSPropertyOp56
 70
     1
102
RTVSPropertyOp57
 70
     1
102
RTVSPost2010Prop28
280
     0
102
RTVSPost2010PropOp28
 70
     1
102
RTVSPost2010Prop29
280
     1
102
RTVSPost2010PropOp29
 70
     1
102
RTVSPost2010Prop30
280
     1
102
RTVSPost2010PropOp30
 70
     1
102
RTVSPost2010Prop31
280
     0
102
RTVSPost2010PropOp31
 70
     1
102
RTVSPost2010Prop32
280
     0
102
RTVSPost2010PropOp32
 70
     1
102
RTVSPost2010Prop33
280
     0
102
RTVSPost2010PropOp33
 70
     1
102
RTVSPost2010Prop34
280
     0
102
RTVSPost2010PropOp34
 70
     1
102
RTVSPost2010Prop35
280
     0
102
RTVSPost2010PropOp35
 70
     1
102
RTVSPost2010Prop36
280
     0
102
RTVSPost2010PropOp36
 70
     1
102
RTVSPost2010Prop37
 90
       50
102
RTVSPost2010PropOp37
 70
     1
102
RTVSPost2010Prop38
140
0.0
102
RTVSPost2010PropOp38
 70
     1
102
RTVSPost2010Prop39
140
1.0
102
RTVSPost2010PropOp39
 70
     1
102
RTVSPost2010Prop40
 90
        0
102
RTVSPost2010PropOp40
 70
     1
102
RTVSPost2010Prop41ColorIndex
 90
       18
102
RTVSPost2010Prop41ColorRGB
 90
        0
102
RTVSPost2010PropOp41
 70
     1
102
RTVSPost2010Prop42
 90
       50
102
RTVSPost2010PropOp42
 70
     1
102
RTVSPost2010Prop43
 90
        3
102
RTVSPost2010PropOp43
 70
     1
102
RTVSPost2010Prop44ColorIndex
 90
        5
102
RTVSPost2010Prop44ColorRGB
 90
      255
102
RTVSPost2010PropOp44
 70
     1
102
RTVSPost2010Prop45
280
     0
102
RTVSPost2010PropOp45
 70
     1
102
RTVSPost2010Prop46
 90
       50
102
RTVSPost2010PropOp46
 70
     1
102
RTVSPost2010Prop47
 90
       50
102
RTVSPost2010PropOp47
 70
     1
102
RTVSPost2010Prop48
 90
       50
102
RTVSPost2010PropOp48
 70
     1
102
RTVSPost2010Prop49
280
     0
102
RTVSPost2010PropOp49
 70
     1
102
RTVSPost2010Prop50
 90
       50
102
RTVSPost2010PropOp50
 70
     1
102
RTVSPost2010Prop51ColorIndex
 90
      256
102
RTVSPost2010Prop51ColorRGB
 90
-16777216
102
RTVSPost2010PropOp51
 70
     0
102
RTVSPost2010Prop52
140
1.0
102
RTVSPost2010PropOp52
 70
     0
102
RTVSPost2010Prop53
 90
        2
102
RTVSPost2010PropOp53
 70
     1
102
RTVSPost2010Prop54
  1
strokes_ogs.tif
102
RTVSPost2010PropOp54
 70
     1
102
RTVSPost2010Prop55
280
     0
102
RTVSPost2010PropOp55
 70
     1
102
RTVSPost2010Prop56
140
1.0
102
RTVSPost2010PropOp56
 70
     1
102
RTVSPost2010Prop57
140
1.0
102
RTVSPost2010PropOp57
 70
     1
  0
XRECORD
  5
68B
102
{ACAD_REACTORS
330
68A
102
}
330
68A
100
AcDbXrecord
280
     1
102
RTVSPropertyOp0
 70
     1
102
RTVSPropertyOp1
 70
     1
102
RTVSPropertyOp2
 70
     1
102
RTVSPropertyOp3
 70
     1
102
RTVSPropertyOp4
 70
     1
102
RTVSPropertyOp5
 70
     1
102
RTVSPropertyOp6
 70
     1
102
RTVSPropertyOp7
 70
     1
102
RTVSPropertyOp8
 70
     1
102
RTVSPropertyOp9
 70
     1
102
RTVSPropertyOp10
 70
     1
102
RTVSPropertyOp11
 70
     1
102
RTVSPropertyOp12
 70
     1
102
RTVSPropertyOp13
 70
     1
102
RTVSPropertyOp14
 70
     1
102
RTVSPropertyOp15
 70
     1
102
RTVSPropertyOp16
 70
     1
102
RTVSPropertyOp17
 70
     1
102
RTVSPropertyOp18
 70
     1
102
RTVSPropertyOp19
 70
     1
102
RTVSPropertyOp20
 70
     1
102
RTVSPropertyOp21
 70
     1
102
RTVSPropertyOp22
 70
     1
102
RTVSPropertyOp23
 70
     1
102
RTVSPropertyOp24
 70
     1
102
RTVSPropertyOp25
 70
     1
102
RTVSPropertyOp26
 70
     1
102
RTVSPropertyOp27
 70
     1
102
RTVSPropertyOp28
 70
     1
102
RTVSPropertyOp29
 70
     1
102
RTVSPropertyOp30
 70
     1
102
RTVSPropertyOp31
 70
     1
102
RTVSPropertyOp32
 70
     1
102
RTVSPropertyOp33
 70
     1
102
RTVSPropertyOp34
 70
     1
102
RTVSPropertyOp35
 70
     1
102
RTVSPropertyOp36
 70
     1
102
RTVSPropertyOp37
 70
     1
102
RTVSPropertyOp38
 70
     1
102
RTVSPropertyOp39
 70
     1
102
RTVSPropertyOp40
 70
     1
102
RTVSPropertyOp41
 70
     1
102
RTVSPropertyOp42
 70
     1
102
RTVSPropertyOp43
 70
     1
102
RTVSPropertyOp44
 70
     1
102
RTVSPropertyOp45
 70
     1
102
RTVSPropertyOp46
 70
     1
102
RTVSPropertyOp47
 70
     1
102
RTVSPropertyOp48
 70
     1
102
RTVSPropertyOp49
 70
     1
102
RTVSPropertyOp50
 70
     1
102
RTVSPropertyOp51
 70
     0
102
RTVSPropertyOp52
 70
     0
102
RTVSPropertyOp53
 70
     1
102
RTVSPropertyOp54
 70
     1
102
RTVSPropertyOp55
 70
     1
102
RTVSPropertyOp56
 70
     1
102
RTVSPropertyOp57
 70
     1
102
RTVSPost2010Prop28
280
     0
102
RTVSPost2010PropOp28
 70
     1
102
RTVSPost2010Prop29
280
     1
102
RTVSPost2010PropOp29
 70
     1
102
RTVSPost2010Prop30
280
     1
102
RTVSPost2010PropOp30
 70
     1
102
RTVSPost2010Prop31
280
     0
102
RTVSPost2010PropOp31
 70
     1
102
RTVSPost2010Prop32
280
     0
102
RTVSPost2010PropOp32
 70
     1
102
RTVSPost2010Prop33
280
     0
102
RTVSPost2010PropOp33
 70
     1
102
RTVSPost2010Prop34
280
     0
102
RTVSPost2010PropOp34
 70
     1
102
RTVSPost2010Prop35
280
     0
102
RTVSPost2010PropOp35
 70
     1
102
RTVSPost2010Prop36
280
     0
102
RTVSPost2010PropOp36
 70
     1
102
RTVSPost2010Prop37
 90
       50
102
RTVSPost2010PropOp37
 70
     1
102
RTVSPost2010Prop38
140
0.0
102
RTVSPost2010PropOp38
 70
     1
102
RTVSPost2010Prop39
140
1.0
102
RTVSPost2010PropOp39
 70
     1
102
RTVSPost2010Prop40
 90
        0
102
RTVSPost2010PropOp40
 70
     1
102
RTVSPost2010Prop41ColorIndex
 90
       18
102
RTVSPost2010Prop41ColorRGB
 90
        0
102
RTVSPost2010PropOp41
 70
     1
102
RTVSPost2010Prop42
 90
       50
102
RTVSPost2010PropOp42
 70
     1
102
RTVSPost2010Prop43
 90
        3
102
RTVSPost2010PropOp43
 70
     1
102
RTVSPost2010Prop44ColorIndex
 90
        5
102
RTVSPost2010Prop44ColorRGB
 90
      255
102
RTVSPost2010PropOp44
 70
     1
102
RTVSPost2010Prop45
280
     0
102
RTVSPost2010PropOp45
 70
     1
102
RTVSPost2010Prop46
 90
       50
102
RTVSPost2010PropOp46
 70
     1
102
RTVSPost2010Prop47
 90
       50
102
RTVSPost2010PropOp47
 70
     1
102
RTVSPost2010Prop48
 90
       50
102
RTVSPost2010PropOp48
 70
     1
102
RTVSPost2010Prop49
280
     0
102
RTVSPost2010PropOp49
 70
     1
102
RTVSPost2010Prop50
 90
       50
102
RTVSPost2010PropOp50
 70
     1
102
RTVSPost2010Prop51ColorIndex
 90
      256
102
RTVSPost2010Prop51ColorRGB
 90
-16777216
102
RTVSPost2010PropOp51
 70
     0
102
RTVSPost2010Prop52
140
1.0
102
RTVSPost2010PropOp52
 70
     0
102
RTVSPost2010Prop53
 90
        2
102
RTVSPost2010PropOp53
 70
     1
102
RTVSPost2010Prop54
  1
strokes_ogs.tif
102
RTVSPost2010PropOp54
 70
     1
102
RTVSPost2010Prop55
280
     0
102
RTVSPost2010PropOp55
 70
     1
102
RTVSPost2010Prop56
140
1.0
102
RTVSPost2010PropOp56
 70
     1
102
RTVSPost2010Prop57
140
1.0
102
RTVSPost2010PropOp57
 70
     1
  0
XRECORD
  5
66F
102
{ACAD_REACTORS
330
66E
102
}
330
66E
100
AcDbXrecord
280
     1
102
RTVSPropertyOp0
 70
     1
102
RTVSPropertyOp1
 70
     1
102
RTVSPropertyOp2
 70
     1
102
RTVSPropertyOp3
 70
     1
102
RTVSPropertyOp4
 70
     1
102
RTVSPropertyOp5
 70
     1
102
RTVSPropertyOp6
 70
     1
102
RTVSPropertyOp7
 70
     1
102
RTVSPropertyOp8
 70
     1
102
RTVSPropertyOp9
 70
     1
102
RTVSPropertyOp10
 70
     1
102
RTVSPropertyOp11
 70
     1
102
RTVSPropertyOp12
 70
     1
102
RTVSPropertyOp13
 70
     1
102
RTVSPropertyOp14
 70
     1
102
RTVSPropertyOp15
 70
     1
102
RTVSPropertyOp16
 70
     1
102
RTVSPropertyOp17
 70
     1
102
RTVSPropertyOp18
 70
     1
102
RTVSPropertyOp19
 70
     1
102
RTVSPropertyOp20
 70
     1
102
RTVSPropertyOp21
 70
     1
102
RTVSPropertyOp22
 70
     1
102
RTVSPropertyOp23
 70
     1
102
RTVSPropertyOp24
 70
     1
102
RTVSPropertyOp25
 70
     1
102
RTVSPropertyOp26
 70
     1
102
RTVSPropertyOp27
 70
     1
102
RTVSPropertyOp28
 70
     1
102
RTVSPropertyOp29
 70
     1
102
RTVSPropertyOp30
 70
     1
102
RTVSPropertyOp31
 70
     1
102
RTVSPropertyOp32
 70
     1
102
RTVSPropertyOp33
 70
     1
102
RTVSPropertyOp34
 70
     1
102
RTVSPropertyOp35
 70
     1
102
RTVSPropertyOp36
 70
     1
102
RTVSPropertyOp37
 70
     1
102
RTVSPropertyOp38
 70
     1
102
RTVSPropertyOp39
 70
     1
102
RTVSPropertyOp40
 70
     1
102
RTVSPropertyOp41
 70
     1
102
RTVSPropertyOp42
 70
     1
102
RTVSPropertyOp43
 70
     1
102
RTVSPropertyOp44
 70
     1
102
RTVSPropertyOp45
 70
     1
102
RTVSPropertyOp46
 70
     1
102
RTVSPropertyOp47
 70
     1
102
RTVSPropertyOp48
 70
     1
102
RTVSPropertyOp49
 70
     1
102
RTVSPropertyOp50
 70
     1
102
RTVSPropertyOp51
 70
     0
102
RTVSPropertyOp52
 70
     0
102
RTVSPropertyOp53
 70
     1
102
RTVSPropertyOp54
 70
     1
102
RTVSPropertyOp55
 70
     1
102
RTVSPropertyOp56
 70
     1
102
RTVSPropertyOp57
 70
     1
102
RTVSPost2010Prop28
280
     0
102
RTVSPost2010PropOp28
 70
     1
102
RTVSPost2010Prop29
280
     1
102
RTVSPost2010PropOp29
 70
     1
102
RTVSPost2010Prop30
280
     1
102
RTVSPost2010PropOp30
 70
     1
102
RTVSPost2010Prop31
280
     0
102
RTVSPost2010PropOp31
 70
     1
102
RTVSPost2010Prop32
280
     0
102
RTVSPost2010PropOp32
 70
     1
102
RTVSPost2010Prop33
280
     0
102
RTVSPost2010PropOp33
 70
     1
102
RTVSPost2010Prop34
280
     0
102
RTVSPost2010PropOp34
 70
     1
102
RTVSPost2010Prop35
280
     0
102
RTVSPost2010PropOp35
 70
     1
102
RTVSPost2010Prop36
280
     0
102
RTVSPost2010PropOp36
 70
     1
102
RTVSPost2010Prop37
 90
       50
102
RTVSPost2010PropOp37
 70
     1
102
RTVSPost2010Prop38
140
0.0
102
RTVSPost2010PropOp38
 70
     1
102
RTVSPost2010Prop39
140
1.0
102
RTVSPost2010PropOp39
 70
     1
102
RTVSPost2010Prop40
 90
        0
102
RTVSPost2010PropOp40
 70
     1
102
RTVSPost2010Prop41ColorIndex
 90
       18
102
RTVSPost2010Prop41ColorRGB
 90
        0
102
RTVSPost2010PropOp41
 70
     1
102
RTVSPost2010Prop42
 90
       50
102
RTVSPost2010PropOp42
 70
     1
102
RTVSPost2010Prop43
 90
        3
102
RTVSPost2010PropOp43
 70
     1
102
RTVSPost2010Prop44ColorIndex
 90
        5
102
RTVSPost2010Prop44ColorRGB
 90
      255
102
RTVSPost2010PropOp44
 70
     1
102
RTVSPost2010Prop45
280
     0
102
RTVSPost2010PropOp45
 70
     1
102
RTVSPost2010Prop46
 90
       50
102
RTVSPost2010PropOp46
 70
     1
102
RTVSPost2010Prop47
 90
       50
102
RTVSPost2010PropOp47
 70
     1
102
RTVSPost2010Prop48
 90
       50
102
RTVSPost2010PropOp48
 70
     1
102
RTVSPost2010Prop49
280
     0
102
RTVSPost2010PropOp49
 70
     1
102
RTVSPost2010Prop50
 90
       50
102
RTVSPost2010PropOp50
 70
     1
102
RTVSPost2010Prop51ColorIndex
 90
      256
102
RTVSPost2010Prop51ColorRGB
 90
-16777216
102
RTVSPost2010PropOp51
 70
     0
102
RTVSPost2010Prop52
140
1.0
102
RTVSPost2010PropOp52
 70
     0
102
RTVSPost2010Prop53
 90
        2
102
RTVSPost2010PropOp53
 70
     1
102
RTVSPost2010Prop54
  1
strokes_ogs.tif
102
RTVSPost2010PropOp54
 70
     1
102
RTVSPost2010Prop55
280
     0
102
RTVSPost2010PropOp55
 70
     1
102
RTVSPost2010Prop56
140
1.0
102
RTVSPost2010PropOp56
 70
     1
102
RTVSPost2010Prop57
140
1.0
102
RTVSPost2010PropOp57
 70
     1
  0
XRECORD
  5
671
102
{ACAD_REACTORS
330
670
102
}
330
670
100
AcDbXrecord
280
     1
102
RTVSPropertyOp0
 70
     1
102
RTVSPropertyOp1
 70
     1
102
RTVSPropertyOp2
 70
     1
102
RTVSPropertyOp3
 70
     1
102
RTVSPropertyOp4
 70
     1
102
RTVSPropertyOp5
 70
     1
102
RTVSPropertyOp6
 70
     1
102
RTVSPropertyOp7
 70
     1
102
RTVSPropertyOp8
 70
     1
102
RTVSPropertyOp9
 70
     1
102
RTVSPropertyOp10
 70
     1
102
RTVSPropertyOp11
 70
     1
102
RTVSPropertyOp12
 70
     1
102
RTVSPropertyOp13
 70
     1
102
RTVSPropertyOp14
 70
     1
102
RTVSPropertyOp15
 70
     1
102
RTVSPropertyOp16
 70
     1
102
RTVSPropertyOp17
 70
     1
102
RTVSPropertyOp18
 70
     1
102
RTVSPropertyOp19
 70
     1
102
RTVSPropertyOp20
 70
     1
102
RTVSPropertyOp21
 70
     1
102
RTVSPropertyOp22
 70
     1
102
RTVSPropertyOp23
 70
     1
102
RTVSPropertyOp24
 70
     1
102
RTVSPropertyOp25
 70
     1
102
RTVSPropertyOp26
 70
     1
102
RTVSPropertyOp27
 70
     1
102
RTVSPropertyOp28
 70
     1
102
RTVSPropertyOp29
 70
     1
102
RTVSPropertyOp30
 70
     1
102
RTVSPropertyOp31
 70
     1
102
RTVSPropertyOp32
 70
     1
102
RTVSPropertyOp33
 70
     1
102
RTVSPropertyOp34
 70
     1
102
RTVSPropertyOp35
 70
     1
102
RTVSPropertyOp36
 70
     1
102
RTVSPropertyOp37
 70
     1
102
RTVSPropertyOp38
 70
     1
102
RTVSPropertyOp39
 70
     1
102
RTVSPropertyOp40
 70
     1
102
RTVSPropertyOp41
 70
     1
102
RTVSPropertyOp42
 70
     1
102
RTVSPropertyOp43
 70
     1
102
RTVSPropertyOp44
 70
     1
102
RTVSPropertyOp45
 70
     1
102
RTVSPropertyOp46
 70
     1
102
RTVSPropertyOp47
 70
     1
102
RTVSPropertyOp48
 70
     1
102
RTVSPropertyOp49
 70
     1
102
RTVSPropertyOp50
 70
     1
102
RTVSPropertyOp51
 70
     0
102
RTVSPropertyOp52
 70
     0
102
RTVSPropertyOp53
 70
     1
102
RTVSPropertyOp54
 70
     1
102
RTVSPropertyOp55
 70
     1
102
RTVSPropertyOp56
 70
     1
102
RTVSPropertyOp57
 70
     1
102
RTVSPost2010Prop28
280
     0
102
RTVSPost2010PropOp28
 70
     1
102
RTVSPost2010Prop29
280
     1
102
RTVSPost2010PropOp29
 70
     1
102
RTVSPost2010Prop30
280
     1
102
RTVSPost2010PropOp30
 70
     1
102
RTVSPost2010Prop31
280
     0
102
RTVSPost2010PropOp31
 70
     1
102
RTVSPost2010Prop32
280
     0
102
RTVSPost2010PropOp32
 70
     1
102
RTVSPost2010Prop33
280
     0
102
RTVSPost2010PropOp33
 70
     1
102
RTVSPost2010Prop34
280
     0
102
RTVSPost2010PropOp34
 70
     1
102
RTVSPost2010Prop35
280
     0
102
RTVSPost2010PropOp35
 70
     1
102
RTVSPost2010Prop36
280
     0
102
RTVSPost2010PropOp36
 70
     1
102
RTVSPost2010Prop37
 90
       50
102
RTVSPost2010PropOp37
 70
     1
102
RTVSPost2010Prop38
140
0.0
102
RTVSPost2010PropOp38
 70
     1
102
RTVSPost2010Prop39
140
1.0
102
RTVSPost2010PropOp39
 70
     1
102
RTVSPost2010Prop40
 90
        0
102
RTVSPost2010PropOp40
 70
     1
102
RTVSPost2010Prop41ColorIndex
 90
       18
102
RTVSPost2010Prop41ColorRGB
 90
        0
102
RTVSPost2010PropOp41
 70
     1
102
RTVSPost2010Prop42
 90
       50
102
RTVSPost2010PropOp42
 70
     1
102
RTVSPost2010Prop43
 90
        3
102
RTVSPost2010PropOp43
 70
     1
102
RTVSPost2010Prop44ColorIndex
 90
        5
102
RTVSPost2010Prop44ColorRGB
 90
      255
102
RTVSPost2010PropOp44
 70
     1
102
RTVSPost2010Prop45
280
     0
102
RTVSPost2010PropOp45
 70
     1
102
RTVSPost2010Prop46
 90
       50
102
RTVSPost2010PropOp46
 70
     1
102
RTVSPost2010Prop47
 90
       50
102
RTVSPost2010PropOp47
 70
     1
102
RTVSPost2010Prop48
 90
       50
102
RTVSPost2010PropOp48
 70
     1
102
RTVSPost2010Prop49
280
     0
102
RTVSPost2010PropOp49
 70
     1
102
RTVSPost2010Prop50
 90
       50
102
RTVSPost2010PropOp50
 70
     1
102
RTVSPost2010Prop51ColorIndex
 90
      256
102
RTVSPost2010Prop51ColorRGB
 90
-16777216
102
RTVSPost2010PropOp51
 70
     0
102
RTVSPost2010Prop52
140
1.0
102
RTVSPost2010PropOp52
 70
     0
102
RTVSPost2010Prop53
 90
        2
102
RTVSPost2010PropOp53
 70
     1
102
RTVSPost2010Prop54
  1
strokes_ogs.tif
102
RTVSPost2010PropOp54
 70
     1
102
RTVSPost2010Prop55
280
     0
102
RTVSPost2010PropOp55
 70
     1
102
RTVSPost2010Prop56
140
1.0
102
RTVSPost2010PropOp56
 70
     1
102
RTVSPost2010Prop57
140
1.0
102
RTVSPost2010PropOp57
 70
     1
  0
XRECORD
  5
673
102
{ACAD_REACTORS
330
672
102
}
330
672
100
AcDbXrecord
280
     1
102
RTVSPropertyOp0
 70
     1
102
RTVSPropertyOp1
 70
     1
102
RTVSPropertyOp2
 70
     1
102
RTVSPropertyOp3
 70
     1
102
RTVSPropertyOp4
 70
     1
102
RTVSPropertyOp5
 70
     1
102
RTVSPropertyOp6
 70
     1
102
RTVSPropertyOp7
 70
     1
102
RTVSPropertyOp8
 70
     1
102
RTVSPropertyOp9
 70
     1
102
RTVSPropertyOp10
 70
     1
102
RTVSPropertyOp11
 70
     1
102
RTVSPropertyOp12
 70
     1
102
RTVSPropertyOp13
 70
     1
102
RTVSPropertyOp14
 70
     1
102
RTVSPropertyOp15
 70
     1
102
RTVSPropertyOp16
 70
     1
102
RTVSPropertyOp17
 70
     1
102
RTVSPropertyOp18
 70
     1
102
RTVSPropertyOp19
 70
     1
102
RTVSPropertyOp20
 70
     1
102
RTVSPropertyOp21
 70
     1
102
RTVSPropertyOp22
 70
     1
102
RTVSPropertyOp23
 70
     1
102
RTVSPropertyOp24
 70
     1
102
RTVSPropertyOp25
 70
     1
102
RTVSPropertyOp26
 70
     1
102
RTVSPropertyOp27
 70
     1
102
RTVSPropertyOp28
 70
     1
102
RTVSPropertyOp29
 70
     1
102
RTVSPropertyOp30
 70
     1
102
RTVSPropertyOp31
 70
     1
102
RTVSPropertyOp32
 70
     1
102
RTVSPropertyOp33
 70
     1
102
RTVSPropertyOp34
 70
     1
102
RTVSPropertyOp35
 70
     1
102
RTVSPropertyOp36
 70
     1
102
RTVSPropertyOp37
 70
     1
102
RTVSPropertyOp38
 70
     1
102
RTVSPropertyOp39
 70
     1
102
RTVSPropertyOp40
 70
     1
102
RTVSPropertyOp41
 70
     1
102
RTVSPropertyOp42
 70
     1
102
RTVSPropertyOp43
 70
     1
102
RTVSPropertyOp44
 70
     1
102
RTVSPropertyOp45
 70
     1
102
RTVSPropertyOp46
 70
     1
102
RTVSPropertyOp47
 70
     1
102
RTVSPropertyOp48
 70
     1
102
RTVSPropertyOp49
 70
     1
102
RTVSPropertyOp50
 70
     1
102
RTVSPropertyOp51
 70
     0
102
RTVSPropertyOp52
 70
     0
102
RTVSPropertyOp53
 70
     1
102
RTVSPropertyOp54
 70
     1
102
RTVSPropertyOp55
 70
     1
102
RTVSPropertyOp56
 70
     1
102
RTVSPropertyOp57
 70
     1
102
RTVSPost2010Prop28
280
     0
102
RTVSPost2010PropOp28
 70
     1
102
RTVSPost2010Prop29
280
     1
102
RTVSPost2010PropOp29
 70
     1
102
RTVSPost2010Prop30
280
     1
102
RTVSPost2010PropOp30
 70
     1
102
RTVSPost2010Prop31
280
     0
102
RTVSPost2010PropOp31
 70
     1
102
RTVSPost2010Prop32
280
     0
102
RTVSPost2010PropOp32
 70
     1
102
RTVSPost2010Prop33
280
     0
102
RTVSPost2010PropOp33
 70
     1
102
RTVSPost2010Prop34
280
     0
102
RTVSPost2010PropOp34
 70
     1
102
RTVSPost2010Prop35
280
     0
102
RTVSPost2010PropOp35
 70
     1
102
RTVSPost2010Prop36
280
     0
102
RTVSPost2010PropOp36
 70
     1
102
RTVSPost2010Prop37
 90
       50
102
RTVSPost2010PropOp37
 70
     1
102
RTVSPost2010Prop38
140
0.0
102
RTVSPost2010PropOp38
 70
     1
102
RTVSPost2010Prop39
140
1.0
102
RTVSPost2010PropOp39
 70
     1
102
RTVSPost2010Prop40
 90
        0
102
RTVSPost2010PropOp40
 70
     1
102
RTVSPost2010Prop41ColorIndex
 90
       18
102
RTVSPost2010Prop41ColorRGB
 90
        0
102
RTVSPost2010PropOp41
 70
     1
102
RTVSPost2010Prop42
 90
       50
102
RTVSPost2010PropOp42
 70
     1
102
RTVSPost2010Prop43
 90
        3
102
RTVSPost2010PropOp43
 70
     1
102
RTVSPost2010Prop44ColorIndex
 90
        5
102
RTVSPost2010Prop44ColorRGB
 90
      255
102
RTVSPost2010PropOp44
 70
     1
102
RTVSPost2010Prop45
280
     0
102
RTVSPost2010PropOp45
 70
     1
102
RTVSPost2010Prop46
 90
       50
102
RTVSPost2010PropOp46
 70
     1
102
RTVSPost2010Prop47
 90
       50
102
RTVSPost2010PropOp47
 70
     1
102
RTVSPost2010Prop48
 90
       50
102
RTVSPost2010PropOp48
 70
     1
102
RTVSPost2010Prop49
280
     0
102
RTVSPost2010PropOp49
 70
     1
102
RTVSPost2010Prop50
 90
       50
102
RTVSPost2010PropOp50
 70
     1
102
RTVSPost2010Prop51ColorIndex
 90
      256
102
RTVSPost2010Prop51ColorRGB
 90
-16777216
102
RTVSPost2010PropOp51
 70
     0
102
RTVSPost2010Prop52
140
1.0
102
RTVSPost2010PropOp52
 70
     0
102
RTVSPost2010Prop53
 90
        2
102
RTVSPost2010PropOp53
 70
     1
102
RTVSPost2010Prop54
  1
strokes_ogs.tif
102
RTVSPost2010PropOp54
 70
     1
102
RTVSPost2010Prop55
280
     0
102
RTVSPost2010PropOp55
 70
     1
102
RTVSPost2010Prop56
140
1.0
102
RTVSPost2010PropOp56
 70
     1
102
RTVSPost2010Prop57
140
1.0
102
RTVSPost2010PropOp57
 70
     1
  0
XRECORD
  5
675
102
{ACAD_REACTORS
330
674
102
}
330
674
100
AcDbXrecord
280
     1
102
RTVSPropertyOp0
 70
     1
102
RTVSPropertyOp1
 70
     1
102
RTVSPropertyOp2
 70
     1
102
RTVSPropertyOp3
 70
     1
102
RTVSPropertyOp4
 70
     1
102
RTVSPropertyOp5
 70
     1
102
RTVSPropertyOp6
 70
     1
102
RTVSPropertyOp7
 70
     1
102
RTVSPropertyOp8
 70
     1
102
RTVSPropertyOp9
 70
     1
102
RTVSPropertyOp10
 70
     1
102
RTVSPropertyOp11
 70
     1
102
RTVSPropertyOp12
 70
     1
102
RTVSPropertyOp13
 70
     1
102
RTVSPropertyOp14
 70
     1
102
RTVSPropertyOp15
 70
     1
102
RTVSPropertyOp16
 70
     1
102
RTVSPropertyOp17
 70
     1
102
RTVSPropertyOp18
 70
     1
102
RTVSPropertyOp19
 70
     1
102
RTVSPropertyOp20
 70
     1
102
RTVSPropertyOp21
 70
     1
102
RTVSPropertyOp22
 70
     1
102
RTVSPropertyOp23
 70
     1
102
RTVSPropertyOp24
 70
     1
102
RTVSPropertyOp25
 70
     1
102
RTVSPropertyOp26
 70
     1
102
RTVSPropertyOp27
 70
     1
102
RTVSPropertyOp28
 70
     1
102
RTVSPropertyOp29
 70
     1
102
RTVSPropertyOp30
 70
     1
102
RTVSPropertyOp31
 70
     1
102
RTVSPropertyOp32
 70
     1
102
RTVSPropertyOp33
 70
     1
102
RTVSPropertyOp34
 70
     1
102
RTVSPropertyOp35
 70
     1
102
RTVSPropertyOp36
 70
     1
102
RTVSPropertyOp37
 70
     1
102
RTVSPropertyOp38
 70
     1
102
RTVSPropertyOp39
 70
     1
102
RTVSPropertyOp40
 70
     1
102
RTVSPropertyOp41
 70
     1
102
RTVSPropertyOp42
 70
     1
102
RTVSPropertyOp43
 70
     1
102
RTVSPropertyOp44
 70
     1
102
RTVSPropertyOp45
 70
     1
102
RTVSPropertyOp46
 70
     1
102
RTVSPropertyOp47
 70
     1
102
RTVSPropertyOp48
 70
     1
102
RTVSPropertyOp49
 70
     1
102
RTVSPropertyOp50
 70
     1
102
RTVSPropertyOp51
 70
     0
102
RTVSPropertyOp52
 70
     0
102
RTVSPropertyOp53
 70
     1
102
RTVSPropertyOp54
 70
     1
102
RTVSPropertyOp55
 70
     1
102
RTVSPropertyOp56
 70
     1
102
RTVSPropertyOp57
 70
     1
102
RTVSPost2010Prop28
280
     0
102
RTVSPost2010PropOp28
 70
     1
102
RTVSPost2010Prop29
280
     1
102
RTVSPost2010PropOp29
 70
     1
102
RTVSPost2010Prop30
280
     1
102
RTVSPost2010PropOp30
 70
     1
102
RTVSPost2010Prop31
280
     0
102
RTVSPost2010PropOp31
 70
     1
102
RTVSPost2010Prop32
280
     0
102
RTVSPost2010PropOp32
 70
     1
102
RTVSPost2010Prop33
280
     0
102
RTVSPost2010PropOp33
 70
     1
102
RTVSPost2010Prop34
280
     0
102
RTVSPost2010PropOp34
 70
     1
102
RTVSPost2010Prop35
280
     0
102
RTVSPost2010PropOp35
 70
     1
102
RTVSPost2010Prop36
280
     0
102
RTVSPost2010PropOp36
 70
     1
102
RTVSPost2010Prop37
 90
       50
102
RTVSPost2010PropOp37
 70
     1
102
RTVSPost2010Prop38
140
0.0
102
RTVSPost2010PropOp38
 70
     1
102
RTVSPost2010Prop39
140
1.0
102
RTVSPost2010PropOp39
 70
     1
102
RTVSPost2010Prop40
 90
        0
102
RTVSPost2010PropOp40
 70
     1
102
RTVSPost2010Prop41ColorIndex
 90
       18
102
RTVSPost2010Prop41ColorRGB
 90
        0
102
RTVSPost2010PropOp41
 70
     1
102
RTVSPost2010Prop42
 90
       50
102
RTVSPost2010PropOp42
 70
     1
102
RTVSPost2010Prop43
 90
        3
102
RTVSPost2010PropOp43
 70
     1
102
RTVSPost2010Prop44ColorIndex
 90
        5
102
RTVSPost2010Prop44ColorRGB
 90
      255
102
RTVSPost2010PropOp44
 70
     1
102
RTVSPost2010Prop45
280
     0
102
RTVSPost2010PropOp45
 70
     1
102
RTVSPost2010Prop46
 90
       50
102
RTVSPost2010PropOp46
 70
     1
102
RTVSPost2010Prop47
 90
       50
102
RTVSPost2010PropOp47
 70
     1
102
RTVSPost2010Prop48
 90
       50
102
RTVSPost2010PropOp48
 70
     1
102
RTVSPost2010Prop49
280
     0
102
RTVSPost2010PropOp49
 70
     1
102
RTVSPost2010Prop50
 90
       50
102
RTVSPost2010PropOp50
 70
     1
102
RTVSPost2010Prop51ColorIndex
 90
      256
102
RTVSPost2010Prop51ColorRGB
 90
-16777216
102
RTVSPost2010PropOp51
 70
     0
102
RTVSPost2010Prop52
140
1.0
102
RTVSPost2010PropOp52
 70
     0
102
RTVSPost2010Prop53
 90
        2
102
RTVSPost2010PropOp53
 70
     1
102
RTVSPost2010Prop54
  1
strokes_ogs.tif
102
RTVSPost2010PropOp54
 70
     1
102
RTVSPost2010Prop55
280
     0
102
RTVSPost2010PropOp55
 70
     1
102
RTVSPost2010Prop56
140
1.0
102
RTVSPost2010PropOp56
 70
     1
102
RTVSPost2010Prop57
140
1.0
102
RTVSPost2010PropOp57
 70
     1
  0
XRECORD
  5
689
102
{ACAD_REACTORS
330
688
102
}
330
688
100
AcDbXrecord
280
     1
102
RTVSPropertyOp0
 70
     1
102
RTVSPropertyOp1
 70
     1
102
RTVSPropertyOp2
 70
     1
102
RTVSPropertyOp3
 70
     1
102
RTVSPropertyOp4
 70
     1
102
RTVSPropertyOp5
 70
     1
102
RTVSPropertyOp6
 70
     1
102
RTVSPropertyOp7
 70
     1
102
RTVSPropertyOp8
 70
     1
102
RTVSPropertyOp9
 70
     1
102
RTVSPropertyOp10
 70
     1
102
RTVSPropertyOp11
 70
     1
102
RTVSPropertyOp12
 70
     1
102
RTVSPropertyOp13
 70
     1
102
RTVSPropertyOp14
 70
     1
102
RTVSPropertyOp15
 70
     1
102
RTVSPropertyOp16
 70
     1
102
RTVSPropertyOp17
 70
     1
102
RTVSPropertyOp18
 70
     1
102
RTVSPropertyOp19
 70
     1
102
RTVSPropertyOp20
 70
     1
102
RTVSPropertyOp21
 70
     1
102
RTVSPropertyOp22
 70
     1
102
RTVSPropertyOp23
 70
     1
102
RTVSPropertyOp24
 70
     1
102
RTVSPropertyOp25
 70
     1
102
RTVSPropertyOp26
 70
     1
102
RTVSPropertyOp27
 70
     1
102
RTVSPropertyOp28
 70
     1
102
RTVSPropertyOp29
 70
     1
102
RTVSPropertyOp30
 70
     1
102
RTVSPropertyOp31
 70
     1
102
RTVSPropertyOp32
 70
     1
102
RTVSPropertyOp33
 70
     1
102
RTVSPropertyOp34
 70
     1
102
RTVSPropertyOp35
 70
     1
102
RTVSPropertyOp36
 70
     1
102
RTVSPropertyOp37
 70
     1
102
RTVSPropertyOp38
 70
     1
102
RTVSPropertyOp39
 70
     1
102
RTVSPropertyOp40
 70
     1
102
RTVSPropertyOp41
 70
     1
102
RTVSPropertyOp42
 70
     1
102
RTVSPropertyOp43
 70
     1
102
RTVSPropertyOp44
 70
     1
102
RTVSPropertyOp45
 70
     1
102
RTVSPropertyOp46
 70
     1
102
RTVSPropertyOp47
 70
     1
102
RTVSPropertyOp48
 70
     1
102
RTVSPropertyOp49
 70
     1
102
RTVSPropertyOp50
 70
     1
102
RTVSPropertyOp51
 70
     0
102
RTVSPropertyOp52
 70
     0
102
RTVSPropertyOp53
 70
     1
102
RTVSPropertyOp54
 70
     1
102
RTVSPropertyOp55
 70
     1
102
RTVSPropertyOp56
 70
     1
102
RTVSPropertyOp57
 70
     1
102
RTVSPost2010Prop28
280
     0
102
RTVSPost2010PropOp28
 70
     1
102
RTVSPost2010Prop29
280
     1
102
RTVSPost2010PropOp29
 70
     1
102
RTVSPost2010Prop30
280
     1
102
RTVSPost2010PropOp30
 70
     1
102
RTVSPost2010Prop31
280
     0
102
RTVSPost2010PropOp31
 70
     1
102
RTVSPost2010Prop32
280
     0
102
RTVSPost2010PropOp32
 70
     1
102
RTVSPost2010Prop33
280
     0
102
RTVSPost2010PropOp33
 70
     1
102
RTVSPost2010Prop34
280
     0
102
RTVSPost2010PropOp34
 70
     1
102
RTVSPost2010Prop35
280
     0
102
RTVSPost2010PropOp35
 70
     1
102
RTVSPost2010Prop36
280
     0
102
RTVSPost2010PropOp36
 70
     1
102
RTVSPost2010Prop37
 90
       50
102
RTVSPost2010PropOp37
 70
     1
102
RTVSPost2010Prop38
140
0.0
102
RTVSPost2010PropOp38
 70
     1
102
RTVSPost2010Prop39
140
1.0
102
RTVSPost2010PropOp39
 70
     1
102
RTVSPost2010Prop40
 90
        0
102
RTVSPost2010PropOp40
 70
     1
102
RTVSPost2010Prop41ColorIndex
 90
       18
102
RTVSPost2010Prop41ColorRGB
 90
        0
102
RTVSPost2010PropOp41
 70
     1
102
RTVSPost2010Prop42
 90
       50
102
RTVSPost2010PropOp42
 70
     1
102
RTVSPost2010Prop43
 90
        3
102
RTVSPost2010PropOp43
 70
     1
102
RTVSPost2010Prop44ColorIndex
 90
        5
102
RTVSPost2010Prop44ColorRGB
 90
      255
102
RTVSPost2010PropOp44
 70
     1
102
RTVSPost2010Prop45
280
     0
102
RTVSPost2010PropOp45
 70
     1
102
RTVSPost2010Prop46
 90
       50
102
RTVSPost2010PropOp46
 70
     1
102
RTVSPost2010Prop47
 90
       50
102
RTVSPost2010PropOp47
 70
     1
102
RTVSPost2010Prop48
 90
       50
102
RTVSPost2010PropOp48
 70
     1
102
RTVSPost2010Prop49
280
     0
102
RTVSPost2010PropOp49
 70
     1
102
RTVSPost2010Prop50
 90
       50
102
RTVSPost2010PropOp50
 70
     1
102
RTVSPost2010Prop51ColorIndex
 90
      256
102
RTVSPost2010Prop51ColorRGB
 90
-16777216
102
RTVSPost2010PropOp51
 70
     0
102
RTVSPost2010Prop52
140
1.0
102
RTVSPost2010PropOp52
 70
     0
102
RTVSPost2010Prop53
 90
        2
102
RTVSPost2010PropOp53
 70
     1
102
RTVSPost2010Prop54
  1
strokes_ogs.tif
102
RTVSPost2010PropOp54
 70
     1
102
RTVSPost2010Prop55
280
     0
102
RTVSPost2010PropOp55
 70
     1
102
RTVSPost2010Prop56
140
1.0
102
RTVSPost2010PropOp56
 70
     1
102
RTVSPost2010Prop57
140
1.0
102
RTVSPost2010PropOp57
 70
     1
  0
XRECORD
  5
67F
102
{ACAD_REACTORS
330
67E
102
}
330
67E
100
AcDbXrecord
280
     1
102
RTVSPropertyOp0
 70
     1
102
RTVSPropertyOp1
 70
     1
102
RTVSPropertyOp2
 70
     1
102
RTVSPropertyOp3
 70
     1
102
RTVSPropertyOp4
 70
     1
102
RTVSPropertyOp5
 70
     1
102
RTVSPropertyOp6
 70
     1
102
RTVSPropertyOp7
 70
     1
102
RTVSPropertyOp8
 70
     1
102
RTVSPropertyOp9
 70
     1
102
RTVSPropertyOp10
 70
     1
102
RTVSPropertyOp11
 70
     1
102
RTVSPropertyOp12
 70
     1
102
RTVSPropertyOp13
 70
     1
102
RTVSPropertyOp14
 70
     1
102
RTVSPropertyOp15
 70
     1
102
RTVSPropertyOp16
 70
     1
102
RTVSPropertyOp17
 70
     1
102
RTVSPropertyOp18
 70
     1
102
RTVSPropertyOp19
 70
     1
102
RTVSPropertyOp20
 70
     1
102
RTVSPropertyOp21
 70
     1
102
RTVSPropertyOp22
 70
     1
102
RTVSPropertyOp23
 70
     1
102
RTVSPropertyOp24
 70
     1
102
RTVSPropertyOp25
 70
     1
102
RTVSPropertyOp26
 70
     1
102
RTVSPropertyOp27
 70
     1
102
RTVSPropertyOp28
 70
     1
102
RTVSPropertyOp29
 70
     1
102
RTVSPropertyOp30
 70
     1
102
RTVSPropertyOp31
 70
     1
102
RTVSPropertyOp32
 70
     1
102
RTVSPropertyOp33
 70
     1
102
RTVSPropertyOp34
 70
     1
102
RTVSPropertyOp35
 70
     1
102
RTVSPropertyOp36
 70
     1
102
RTVSPropertyOp37
 70
     1
102
RTVSPropertyOp38
 70
     1
102
RTVSPropertyOp39
 70
     1
102
RTVSPropertyOp40
 70
     1
102
RTVSPropertyOp41
 70
     1
102
RTVSPropertyOp42
 70
     1
102
RTVSPropertyOp43
 70
     1
102
RTVSPropertyOp44
 70
     1
102
RTVSPropertyOp45
 70
     1
102
RTVSPropertyOp46
 70
     1
102
RTVSPropertyOp47
 70
     1
102
RTVSPropertyOp48
 70
     1
102
RTVSPropertyOp49
 70
     1
102
RTVSPropertyOp50
 70
     1
102
RTVSPropertyOp51
 70
     0
102
RTVSPropertyOp52
 70
     0
102
RTVSPropertyOp53
 70
     1
102
RTVSPropertyOp54
 70
     1
102
RTVSPropertyOp55
 70
     1
102
RTVSPropertyOp56
 70
     1
102
RTVSPropertyOp57
 70
     1
102
RTVSPost2010Prop28
280
     0
102
RTVSPost2010PropOp28
 70
     1
102
RTVSPost2010Prop29
280
     1
102
RTVSPost2010PropOp29
 70
     1
102
RTVSPost2010Prop30
280
     1
102
RTVSPost2010PropOp30
 70
     1
102
RTVSPost2010Prop31
280
     0
102
RTVSPost2010PropOp31
 70
     1
102
RTVSPost2010Prop32
280
     0
102
RTVSPost2010PropOp32
 70
     1
102
RTVSPost2010Prop33
280
     0
102
RTVSPost2010PropOp33
 70
     1
102
RTVSPost2010Prop34
280
     0
102
RTVSPost2010PropOp34
 70
     1
102
RTVSPost2010Prop35
280
     0
102
RTVSPost2010PropOp35
 70
     1
102
RTVSPost2010Prop36
280
     0
102
RTVSPost2010PropOp36
 70
     1
102
RTVSPost2010Prop37
 90
       50
102
RTVSPost2010PropOp37
 70
     1
102
RTVSPost2010Prop38
140
0.0
102
RTVSPost2010PropOp38
 70
     1
102
RTVSPost2010Prop39
140
1.0
102
RTVSPost2010PropOp39
 70
     1
102
RTVSPost2010Prop40
 90
        0
102
RTVSPost2010PropOp40
 70
     1
102
RTVSPost2010Prop41ColorIndex
 90
       18
102
RTVSPost2010Prop41ColorRGB
 90
        0
102
RTVSPost2010PropOp41
 70
     1
102
RTVSPost2010Prop42
 90
       50
102
RTVSPost2010PropOp42
 70
     1
102
RTVSPost2010Prop43
 90
        3
102
RTVSPost2010PropOp43
 70
     1
102
RTVSPost2010Prop44ColorIndex
 90
        5
102
RTVSPost2010Prop44ColorRGB
 90
      255
102
RTVSPost2010PropOp44
 70
     1
102
RTVSPost2010Prop45
280
     0
102
RTVSPost2010PropOp45
 70
     1
102
RTVSPost2010Prop46
 90
       50
102
RTVSPost2010PropOp46
 70
     1
102
RTVSPost2010Prop47
 90
       50
102
RTVSPost2010PropOp47
 70
     1
102
RTVSPost2010Prop48
 90
       50
102
RTVSPost2010PropOp48
 70
     1
102
RTVSPost2010Prop49
280
     0
102
RTVSPost2010PropOp49
 70
     1
102
RTVSPost2010Prop50
 90
       50
102
RTVSPost2010PropOp50
 70
     1
102
RTVSPost2010Prop51ColorIndex
 90
      256
102
RTVSPost2010Prop51ColorRGB
 90
-16777216
102
RTVSPost2010PropOp51
 70
     0
102
RTVSPost2010Prop52
140
1.0
102
RTVSPost2010PropOp52
 70
     0
102
RTVSPost2010Prop53
 90
        2
102
RTVSPost2010PropOp53
 70
     1
102
RTVSPost2010Prop54
  1
strokes_ogs.tif
102
RTVSPost2010PropOp54
 70
     1
102
RTVSPost2010Prop55
280
     0
102
RTVSPost2010PropOp55
 70
     1
102
RTVSPost2010Prop56
140
1.0
102
RTVSPost2010PropOp56
 70
     1
102
RTVSPost2010Prop57
140
1.0
102
RTVSPost2010PropOp57
 70
     1
  0
XRECORD
  5
687
102
{ACAD_REACTORS
330
686
102
}
330
686
100
AcDbXrecord
280
     1
102
RTVSPropertyOp0
 70
     1
102
RTVSPropertyOp1
 70
     1
102
RTVSPropertyOp2
 70
     1
102
RTVSPropertyOp3
 70
     1
102
RTVSPropertyOp4
 70
     1
102
RTVSPropertyOp5
 70
     1
102
RTVSPropertyOp6
 70
     1
102
RTVSPropertyOp7
 70
     1
102
RTVSPropertyOp8
 70
     1
102
RTVSPropertyOp9
 70
     1
102
RTVSPropertyOp10
 70
     1
102
RTVSPropertyOp11
 70
     1
102
RTVSPropertyOp12
 70
     1
102
RTVSPropertyOp13
 70
     1
102
RTVSPropertyOp14
 70
     1
102
RTVSPropertyOp15
 70
     1
102
RTVSPropertyOp16
 70
     1
102
RTVSPropertyOp17
 70
     1
102
RTVSPropertyOp18
 70
     1
102
RTVSPropertyOp19
 70
     1
102
RTVSPropertyOp20
 70
     1
102
RTVSPropertyOp21
 70
     1
102
RTVSPropertyOp22
 70
     1
102
RTVSPropertyOp23
 70
     1
102
RTVSPropertyOp24
 70
     1
102
RTVSPropertyOp25
 70
     1
102
RTVSPropertyOp26
 70
     1
102
RTVSPropertyOp27
 70
     1
102
RTVSPropertyOp28
 70
     1
102
RTVSPropertyOp29
 70
     1
102
RTVSPropertyOp30
 70
     1
102
RTVSPropertyOp31
 70
     1
102
RTVSPropertyOp32
 70
     1
102
RTVSPropertyOp33
 70
     1
102
RTVSPropertyOp34
 70
     1
102
RTVSPropertyOp35
 70
     1
102
RTVSPropertyOp36
 70
     1
102
RTVSPropertyOp37
 70
     1
102
RTVSPropertyOp38
 70
     1
102
RTVSPropertyOp39
 70
     1
102
RTVSPropertyOp40
 70
     1
102
RTVSPropertyOp41
 70
     1
102
RTVSPropertyOp42
 70
     1
102
RTVSPropertyOp43
 70
     1
102
RTVSPropertyOp44
 70
     1
102
RTVSPropertyOp45
 70
     1
102
RTVSPropertyOp46
 70
     1
102
RTVSPropertyOp47
 70
     1
102
RTVSPropertyOp48
 70
     1
102
RTVSPropertyOp49
 70
     1
102
RTVSPropertyOp50
 70
     1
102
RTVSPropertyOp51
 70
     0
102
RTVSPropertyOp52
 70
     0
102
RTVSPropertyOp53
 70
     1
102
RTVSPropertyOp54
 70
     1
102
RTVSPropertyOp55
 70
     1
102
RTVSPropertyOp56
 70
     1
102
RTVSPropertyOp57
 70
     1
102
RTVSPost2010Prop28
280
     0
102
RTVSPost2010PropOp28
 70
     1
102
RTVSPost2010Prop29
280
     1
102
RTVSPost2010PropOp29
 70
     1
102
RTVSPost2010Prop30
280
     1
102
RTVSPost2010PropOp30
 70
     1
102
RTVSPost2010Prop31
280
     0
102
RTVSPost2010PropOp31
 70
     1
102
RTVSPost2010Prop32
280
     0
102
RTVSPost2010PropOp32
 70
     1
102
RTVSPost2010Prop33
280
     0
102
RTVSPost2010PropOp33
 70
     1
102
RTVSPost2010Prop34
280
     0
102
RTVSPost2010PropOp34
 70
     1
102
RTVSPost2010Prop35
280
     0
102
RTVSPost2010PropOp35
 70
     1
102
RTVSPost2010Prop36
280
     0
102
RTVSPost2010PropOp36
 70
     1
102
RTVSPost2010Prop37
 90
       50
102
RTVSPost2010PropOp37
 70
     1
102
RTVSPost2010Prop38
140
0.0
102
RTVSPost2010PropOp38
 70
     1
102
RTVSPost2010Prop39
140
1.0
102
RTVSPost2010PropOp39
 70
     1
102
RTVSPost2010Prop40
 90
        0
102
RTVSPost2010PropOp40
 70
     1
102
RTVSPost2010Prop41ColorIndex
 90
       18
102
RTVSPost2010Prop41ColorRGB
 90
        0
102
RTVSPost2010PropOp41
 70
     1
102
RTVSPost2010Prop42
 90
       50
102
RTVSPost2010PropOp42
 70
     1
102
RTVSPost2010Prop43
 90
        3
102
RTVSPost2010PropOp43
 70
     1
102
RTVSPost2010Prop44ColorIndex
 90
        5
102
RTVSPost2010Prop44ColorRGB
 90
      255
102
RTVSPost2010PropOp44
 70
     1
102
RTVSPost2010Prop45
280
     0
102
RTVSPost2010PropOp45
 70
     1
102
RTVSPost2010Prop46
 90
       50
102
RTVSPost2010PropOp46
 70
     1
102
RTVSPost2010Prop47
 90
       50
102
RTVSPost2010PropOp47
 70
     1
102
RTVSPost2010Prop48
 90
       50
102
RTVSPost2010PropOp48
 70
     1
102
RTVSPost2010Prop49
280
     0
102
RTVSPost2010PropOp49
 70
     1
102
RTVSPost2010Prop50
 90
       50
102
RTVSPost2010PropOp50
 70
     1
102
RTVSPost2010Prop51ColorIndex
 90
      256
102
RTVSPost2010Prop51ColorRGB
 90
-16777216
102
RTVSPost2010PropOp51
 70
     0
102
RTVSPost2010Prop52
140
1.0
102
RTVSPost2010PropOp52
 70
     0
102
RTVSPost2010Prop53
 90
        2
102
RTVSPost2010PropOp53
 70
     1
102
RTVSPost2010Prop54
  1
strokes_ogs.tif
102
RTVSPost2010PropOp54
 70
     1
102
RTVSPost2010Prop55
280
     0
102
RTVSPost2010PropOp55
 70
     1
102
RTVSPost2010Prop56
140
1.0
102
RTVSPost2010PropOp56
 70
     1
102
RTVSPost2010Prop57
140
1.0
102
RTVSPost2010PropOp57
 70
     1
  0
ENDSEC
  0
EOF
