  0
SECTION
  2
HEADER
  9
$ACADVER
  1
AC1018
  9
$ACADMAINTVER
 70
     0
  9
$DWGCODEPAGE
  3
ANSI_936
  9
$INSBASE
 10
0.0
 20
0.0
 30
0.0
  9
$EXTMIN
 10
1028.581500717178
 20
479.3895165239196
 30
0.0
  9
$EXTMAX
 10
1295.499998514003
 20
550.5810950877473
 30
0.0
  9
$LIMMIN
 10
0.0
 20
0.0
  9
$LIMMAX
 10
12.0
 20
9.0
  9
$ORTHOMODE
 70
     0
  9
$REGENMODE
 70
     1
  9
$FILLMODE
 70
     1
  9
$QTEXTMODE
 70
     0
  9
$MIRRTEXT
 70
     1
  9
$LTSCALE
 40
1.0
  9
$ATTMODE
 70
     1
  9
$TEXTSIZE
 40
0.2
  9
$TRACEWID
 40
0.05
  9
$TEXTSTYLE
  7
Standard
  9
$CLAYER
  8
0
  9
$CELTYPE
  6
ByLayer
  9
$CECOLOR
 62
   256
  9
$CELTSCALE
 40
1.0
  9
$DISPSILH
 70
     0
  9
$DIMSCALE
 40
1.0
  9
$DIMASZ
 40
0.18
  9
$DIMEXO
 40
0.0625
  9
$DIMDLI
 40
0.38
  9
$DIMRND
 40
0.0
  9
$DIMDLE
 40
0.0
  9
$DIMEXE
 40
0.18
  9
$DIMTP
 40
0.0
  9
$DIMTM
 40
0.0
  9
$DIMTXT
 40
0.18
  9
$DIMCEN
 40
0.09
  9
$DIMTSZ
 40
0.0
  9
$DIMTOL
 70
     0
  9
$DIMLIM
 70
     0
  9
$DIMTIH
 70
     1
  9
$DIMTOH
 70
     1
  9
$DIMSE1
 70
     0
  9
$DIMSE2
 70
     0
  9
$DIMTAD
 70
     0
  9
$DIMZIN
 70
     0
  9
$DIMBLK
  1

  9
$DIMASO
 70
     1
  9
$DIMSHO
 70
     1
  9
$DIMPOST
  1

  9
$DIMAPOST
  1

  9
$DIMALT
 70
     0
  9
$DIMALTD
 70
     2
  9
$DIMALTF
 40
25.4
  9
$DIMLFAC
 40
1.0
  9
$DIMTOFL
 70
     0
  9
$DIMTVP
 40
0.0
  9
$DIMTIX
 70
     0
  9
$DIMSOXD
 70
     0
  9
$DIMSAH
 70
     0
  9
$DIMBLK1
  1

  9
$DIMBLK2
  1

  9
$DIMSTYLE
  2
Standard
  9
$DIMCLRD
 70
     0
  9
$DIMCLRE
 70
     0
  9
$DIMCLRT
 70
     0
  9
$DIMTFAC
 40
1.0
  9
$DIMGAP
 40
0.09
  9
$DIMJUST
 70
     0
  9
$DIMSD1
 70
     0
  9
$DIMSD2
 70
     0
  9
$DIMTOLJ
 70
     1
  9
$DIMTZIN
 70
     0
  9
$DIMALTZ
 70
     0
  9
$DIMALTTZ
 70
     0
  9
$DIMUPT
 70
     0
  9
$DIMDEC
 70
     4
  9
$DIMTDEC
 70
     4
  9
$DIMALTU
 70
     2
  9
$DIMALTTD
 70
     2
  9
$DIMTXSTY
  7
Standard
  9
$DIMAUNIT
 70
     0
  9
$DIMADEC
 70
     0
  9
$DIMALTRND
 40
0.0
  9
$DIMAZIN
 70
     0
  9
$DIMDSEP
 70
    46
  9
$DIMATFIT
 70
     3
  9
$DIMFRAC
 70
     0
  9
$DIMLDRBLK
  1

  9
$DIMLUNIT
 70
     2
  9
$DIMLWD
 70
    -2
  9
$DIMLWE
 70
    -2
  9
$DIMTMOVE
 70
     2
  9
$LUNITS
 70
     2
  9
$LUPREC
 70
     3
  9
$SKETCHINC
 40
0.1
  9
$FILLETRAD
 40
0.5
  9
$AUNITS
 70
     0
  9
$AUPREC
 70
     0
  9
$MENU
  1
.
  9
$ELEVATION
 40
0.0
  9
$PELEVATION
 40
0.0
  9
$THICKNESS
 40
0.0
  9
$LIMCHECK
 70
     0
  9
$CHAMFERA
 40
0.5
  9
$CHAMFERB
 40
0.5
  9
$CHAMFERC
 40
1.0
  9
$CHAMFERD
 40
0.0
  9
$SKPOLY
 70
     0
  9
$TDCREATE
 40
2457486.844758206
  9
$TDUCREATE
 40
2457486.511424873
  9
$TDUPDATE
 40
2457486.844758345
  9
$TDUUPDATE
 40
2457486.511425012
  9
$TDINDWG
 40
0.0000000116
  9
$TDUSRTIMER
 40
0.0000000116
  9
$USRTIMER
 70
     1
  9
$ANGBASE
 50
0.0
  9
$ANGDIR
 70
     0
  9
$PDMODE
 70
     0
  9
$PDSIZE
 40
0.0
  9
$PLINEWID
 40
0.0
  9
$SPLFRAME
 70
     0
  9
$SPLINETYPE
 70
     6
  9
$SPLINESEGS
 70
     8
  9
$HANDSEED
  5
6AF
  9
$SURFTAB1
 70
     6
  9
$SURFTAB2
 70
     6
  9
$SURFTYPE
 70
     6
  9
$SURFU
 70
     6
  9
$SURFV
 70
     6
  9
$UCSBASE
  2

  9
$UCSNAME
  2

  9
$UCSORG
 10
0.0
 20
0.0
 30
0.0
  9
$UCSXDIR
 10
1.0
 20
0.0
 30
0.0
  9
$UCSYDIR
 10
0.0
 20
1.0
 30
0.0
  9
$UCSORTHOREF
  2

  9
$UCSORTHOVIEW
 70
     0
  9
$UCSORGTOP
 10
0.0
 20
0.0
 30
0.0
  9
$UCSORGBOTTOM
 10
0.0
 20
0.0
 30
0.0
  9
$UCSORGLEFT
 10
0.0
 20
0.0
 30
0.0
  9
$UCSORGRIGHT
 10
0.0
 20
0.0
 30
0.0
  9
$UCSORGFRONT
 10
0.0
 20
0.0
 30
0.0
  9
$UCSORGBACK
 10
0.0
 20
0.0
 30
0.0
  9
$PUCSBASE
  2

  9
$PUCSNAME
  2

  9
$PUCSORG
 10
0.0
 20
0.0
 30
0.0
  9
$PUCSXDIR
 10
1.0
 20
0.0
 30
0.0
  9
$PUCSYDIR
 10
0.0
 20
1.0
 30
0.0
  9
$PUCSORTHOREF
  2

  9
$PUCSORTHOVIEW
 70
     0
  9
$PUCSORGTOP
 10
0.0
 20
0.0
 30
0.0
  9
$PUCSORGBOTTOM
 10
0.0
 20
0.0
 30
0.0
  9
$PUCSORGLEFT
 10
0.0
 20
0.0
 30
0.0
  9
$PUCSORGRIGHT
 10
0.0
 20
0.0
 30
0.0
  9
$PUCSORGFRONT
 10
0.0
 20
0.0
 30
0.0
  9
$PUCSORGBACK
 10
0.0
 20
0.0
 30
0.0
  9
$USERI1
 70
     0
  9
$USERI2
 70
     0
  9
$USERI3
 70
     0
  9
$USERI4
 70
     0
  9
$USERI5
 70
     0
  9
$USERR1
 40
0.0
  9
$USERR2
 40
0.0
  9
$USERR3
 40
0.0
  9
$USERR4
 40
0.0
  9
$USERR5
 40
0.0
  9
$WORLDVIEW
 70
     1
  9
$SHADEDGE
 70
     3
  9
$SHADEDIF
 70
    70
  9
$TILEMODE
 70
     1
  9
$MAXACTVP
 70
    64
  9
$PINSBASE
 10
0.0
 20
0.0
 30
0.0
  9
$PLIMCHECK
 70
     0
  9
$PEXTMIN
 10
1.000000000000000E+20
 20
1.000000000000000E+20
 30
1.000000000000000E+20
  9
$PEXTMAX
 10
-1.000000000000000E+20
 20
-1.000000000000000E+20
 30
-1.000000000000000E+20
  9
$PLIMMIN
 10
0.0
 20
0.0
  9
$PLIMMAX
 10
12.0
 20
9.0
  9
$UNITMODE
 70
     0
  9
$VISRETAIN
 70
     1
  9
$PLINEGEN
 70
     0
  9
$PSLTSCALE
 70
     1
  9
$TREEDEPTH
 70
  3020
  9
$CMLSTYLE
  2
Standard
  9
$CMLJUST
 70
     0
  9
$CMLSCALE
 40
1.0
  9
$PROXYGRAPHICS
 70
     1
  9
$MEASUREMENT
 70
     0
  9
$CELWEIGHT
370
    -1
  9
$ENDCAPS
280
     0
  9
$JOINSTYLE
280
     0
  9
$LWDISPLAY
290
     0
  9
$INSUNITS
 70
     4
  9
$HYPERLINKBASE
  1

  9
$STYLESHEET
  1

  9
$XEDIT
290
     1
  9
$CEPSNTYPE
380
     0
  9
$PSTYLEMODE
290
     1
  9
$FINGERPRINTGUID
  2
{734E6759-B858-4E35-8C34-B3BC90E2712B}
  9
$VERSIONGUID
  2
{FAEB1C32-E019-11D5-929B-00C0DF256EC4}
  9
$EXTNAMES
290
     1
  9
$PSVPSCALE
 40
0.0
  9
$OLESTARTUP
290
     0
  9
$SORTENTS
280
   127
  9
$INDEXCTL
280
     0
  9
$HIDETEXT
280
     1
  9
$XCLIPFRAME
290
     0
  9
$HALOGAP
280
     0
  9
$OBSCOLOR
 70
   257
  9
$OBSLTYPE
280
     0
  9
$INTERSECTIONDISPLAY
280
     0
  9
$INTERSECTIONCOLOR
 70
   257
  9
$DIMASSOC
280
     2
  9
$PROJECTNAME
  1

  0
ENDSEC
  0
SECTION
  2
CLASSES
  0
CLASS
  1
ACDBDICTIONARYWDFLT
  2
AcDbDictionaryWithDefault
  3
ObjectDBX Classes
 90
        0
 91
        4
280
     0
281
     0
  0
CLASS
  1
VISUALSTYLE
  2
AcDbVisualStyle
  3
ObjectDBX Classes
 90
     4095
 91
        4
280
     0
281
     0
  0
CLASS
  1
MATERIAL
  2
AcDbMaterial
  3
ObjectDBX Classes
 90
     1153
 91
        4
280
     0
281
     0
  0
CLASS
  1
SCALE
  2
AcDbScale
  3
ObjectDBX Classes
 90
     1153
 91
        4
280
     0
281
     0
  0
CLASS
  1
SUN
  2
AcDbSun
  3
SCENEOE
 90
     1153
 91
        4
280
     0
281
     0
  0
CLASS
  1
DICTIONARYVAR
  2
AcDbDictionaryVar
  3
ObjectDBX Classes
 90
        0
 91
        4
280
     0
281
     0
  0
ENDSEC
  0
SECTION
  2
TABLES
  0
TABLE
  2
VPORT
  5
8
330
0
100
AcDbSymbolTable
 70
     1
  0
VPORT
  5
29
330
8
100
AcDbSymbolTableRecord
100
AcDbViewportTableRecord
  2
*Active
 70
     0
 10
0.0
 20
0.0
 11
1.0
 21
1.0
 12
1162.04074960553
 22
514.985228247175
 13
0.0
 23
0.0
 14
0.5
 24
0.5
 15
0.5
 25
0.5
 16
0.0
 26
0.0
 36
1.0
 17
0.0
 27
0.0
 37
0.0
 40
72.61525191544094
 41
3.749306936912855
 42
50.0
 43
0.0
 44
0.0
 50
0.0
 51
0.0
 71
     0
 72
   100
 73
     1
 74
     3
 75
     0
 76
     0
 77
     0
 78
     0
281
     0
 65
     1
110
0.0
120
0.0
130
0.0
111
1.0
121
0.0
131
0.0
112
0.0
122
1.0
132
0.0
 79
     0
146
0.0
  0
ENDTAB
  0
TABLE
  2
LTYPE
  5
5
330
0
100
AcDbSymbolTable
 70
     1
  0
LTYPE
  5
14
330
5
100
AcDbSymbolTableRecord
100
AcDbLinetypeTableRecord
  2
ByBlock
 70
     0
  3

 72
    65
 73
     0
 40
0.0
  0
LTYPE
  5
15
330
5
100
AcDbSymbolTableRecord
100
AcDbLinetypeTableRecord
  2
ByLayer
 70
     0
  3

 72
    65
 73
     0
 40
0.0
  0
LTYPE
  5
16
330
5
100
AcDbSymbolTableRecord
100
AcDbLinetypeTableRecord
  2
Continuous
 70
     0
  3
Solid line
 72
    65
 73
     0
 40
0.0
  0
ENDTAB
  0
TABLE
  2
LAYER
  5
2
330
0
100
AcDbSymbolTable
 70
     3
  0
LAYER
  5
10
330
2
100
AcDbSymbolTableRecord
100
AcDbLayerTableRecord
  2
0
 70
     0
 62
     7
  6
Continuous
370
    -3
390
F
  0
LAYER
  5
62
330
2
100
AcDbSymbolTableRecord
100
AcDbLayerTableRecord
  2
Lines
 70
     0
 62
    18
420
        0
  6
Continuous
370
    -3
390
F
  0
LAYER
  5
60D
330
2
100
AcDbSymbolTableRecord
100
AcDbLayerTableRecord
  2
Make2D$可见线$普通线
 70
     0
 62
    18
420
        0
  6
Continuous
370
    -3
390
F
  0
ENDTAB
  0
TABLE
  2
STYLE
  5
3
330
0
100
AcDbSymbolTable
 70
     1
  0
STYLE
  5
11
330
3
100
AcDbSymbolTableRecord
100
AcDbTextStyleTableRecord
  2
Standard
 70
     0
 40
0.0
 41
1.0
 50
0.0
 71
     0
 42
0.2
  3
txt
  4

  0
ENDTAB
  0
TABLE
  2
VIEW
  5
6
330
0
100
AcDbSymbolTable
 70
     0
  0
ENDTAB
  0
TABLE
  2
UCS
  5
7
330
0
100
AcDbSymbolTable
 70
     0
  0
ENDTAB
  0
TABLE
  2
APPID
  5
9
330
0
100
AcDbSymbolTable
 70
     1
  0
APPID
  5
12
330
9
100
AcDbSymbolTableRecord
100
AcDbRegAppTableRecord
  2
ACAD
 70
     0
  0
ENDTAB
  0
TABLE
  2
DIMSTYLE
  5
A
330
0
100
AcDbSymbolTable
 70
     1
100
AcDbDimStyleTable
  0
DIMSTYLE
105
27
330
A
100
AcDbSymbolTableRecord
100
AcDbDimStyleTableRecord
  2
Standard
 70
     0
178
     0
340
11
  0
ENDTAB
  0
TABLE
  2
BLOCK_RECORD
  5
1
330
0
100
AcDbSymbolTable
 70
     1
  0
BLOCK_RECORD
  5
1F
330
1
100
AcDbSymbolTableRecord
100
AcDbBlockTableRecord
  2
*Model_Space
340
22
  0
BLOCK_RECORD
  5
1B
330
1
100
AcDbSymbolTableRecord
100
AcDbBlockTableRecord
  2
*Paper_Space
340
1E
  0
BLOCK_RECORD
  5
23
330
1
100
AcDbSymbolTableRecord
100
AcDbBlockTableRecord
  2
*Paper_Space0
340
26
  0
ENDTAB
  0
ENDSEC
  0
SECTION
  2
BLOCKS
  0
BLOCK
  5
20
330
1F
100
AcDbEntity
  8
0
100
AcDbBlockBegin
  2
*Model_Space
 70
     0
 10
0.0
 20
0.0
 30
0.0
  3
*Model_Space
  1
*Model_Space
  0
ENDBLK
  5
21
330
1F
100
AcDbEntity
  8
0
100
AcDbBlockEnd
  0
BLOCK
  5
1C
330
1B
100
AcDbEntity
 67
     1
  8
0
100
AcDbBlockBegin
  2
*Paper_Space
 70
     0
 10
0.0
 20
0.0
 30
0.0
  3
*Paper_Space
  1
*Paper_Space
  0
ENDBLK
  5
1D
330
1B
100
AcDbEntity
 67
     1
  8
0
100
AcDbBlockEnd
  0
BLOCK
  5
24
330
23
100
AcDbEntity
  8
0
100
AcDbBlockBegin
  2
*Paper_Space0
 70
     0
 10
0.0
 20
0.0
 30
0.0
  3
*Paper_Space0
  1
*Paper_Space0
  0
ENDBLK
  5
25
330
23
100
AcDbEntity
  8
0
100
AcDbBlockEnd
  0
ENDSEC
  0
SECTION
  2
ENTITIES
  0
POLYLINE
  5
63
330
1F
100
AcDbEntity
  8
Lines
100
AcDb2dPolyline
 66
     1
 10
0.0
 20
0.0
 30
0.0
  0
VERTEX
  5
64
330
63
100
AcDbEntity
  8
Lines
100
AcDbVertex
100
AcDb2dVertex
 10
1185.225836658205
 20
493.3895153657334
 30
0.0
  0
VERTEX
  5
65
330
63
100
AcDbEntity
  8
Lines
100
AcDbVertex
100
AcDb2dVertex
 10
1184.977703427253
 20
493.3895153657338
 30
0.0
 42
-0.361906858293185
  0
VERTEX
  5
66
330
63
100
AcDbEntity
  8
Lines
100
AcDbVertex
100
AcDb2dVertex
 10
1183.994307507292
 20
494.2086632970266
 30
0.0
 42
0.0170994517386118
  0
VERTEX
  5
67
330
63
100
AcDbEntity
  8
Lines
100
AcDbVertex
100
AcDb2dVertex
 10
1183.738619077989
 20
495.016900904506
 30
0.0
  0
VERTEX
  5
68
330
63
100
AcDbEntity
  8
Lines
100
AcDbVertex
100
AcDb2dVertex
 10
1183.491819073231
 20
495.5343584969417
 30
0.0
 42
0.0884961981543887
  0
VERTEX
  5
69
330
63
100
AcDbEntity
  8
Lines
100
AcDbVertex
100
AcDb2dVertex
 10
1182.474161839943
 20
496.7801766598114
 30
0.0
 42
0.0355973975176434
  0
VERTEX
  5
6A
330
63
100
AcDbEntity
  8
Lines
100
AcDbVertex
100
AcDb2dVertex
 10
1181.954757699796
 20
497.1659912635976
 30
0.0
 42
0.0505670117987931
  0
VERTEX
  5
6B
330
63
100
AcDbEntity
  8
Lines
100
AcDbVertex
100
AcDb2dVertex
 10
1177.437037487401
 20
499.415560751316
 30
0.0
  0
VERTEX
  5
6C
330
63
100
AcDbEntity
  8
Lines
100
AcDbVertex
100
AcDb2dVertex
 10
1177.175689637909
 20
499.5185891437881
 30
0.0
 42
-5.205556109177494
  0
VERTEX
  5
6D
330
63
100
AcDbEntity
  8
Lines
100
AcDbVertex
100
AcDb2dVertex
 10
1193.824310362117
 20
499.5185891437881
 30
0.0
  0
VERTEX
  5
6E
330
63
100
AcDbEntity
  8
Lines
100
AcDbVertex
100
AcDb2dVertex
 10
1193.562962512625
 20
499.4155607513162
 30
0.0
 42
0.050567011798746
  0
VERTEX
  5
6F
330
63
100
AcDbEntity
  8
Lines
100
AcDbVertex
100
AcDb2dVertex
 10
1189.04524230023
 20
497.1659912635978
 30
0.0
 42
0.0355973975436682
  0
VERTEX
  5
70
330
63
100
AcDbEntity
  8
Lines
100
AcDbVertex
100
AcDb2dVertex
 10
1188.525838160079
 20
496.7801766598078
 30
0.0
 42
0.0884961981575933
  0
VERTEX
  5
71
330
63
100
AcDbEntity
  8
Lines
100
AcDbVertex
100
AcDb2dVertex
 10
1187.508180926796
 20
495.534358496943
 30
0.0
  0
VERTEX
  5
72
330
63
100
AcDbEntity
  8
Lines
100
AcDbVertex
100
AcDb2dVertex
 10
1187.261380922025
 20
495.0169009044773
 30
0.0
 42
0.0170994517320706
  0
VERTEX
  5
73
330
63
100
AcDbEntity
  8
Lines
100
AcDbVertex
100
AcDb2dVertex
 10
1187.005692492735
 20
494.2086632970273
 30
0.0
 42
-0.3619068582843708
  0
VERTEX
  5
74
330
63
100
AcDbEntity
  8
Lines
100
AcDbVertex
100
AcDb2dVertex
 10
1186.022296572737
 20
493.3895153657346
 30
0.0
  0
VERTEX
  5
75
330
63
100
AcDbEntity
  8
Lines
100
AcDbVertex
100
AcDb2dVertex
 10
1185.774163341822
 20
493.3895153657337
 30
0.0
  0
SEQEND
  5
76
330
63
100
AcDbEntity
  8
Lines
  0
POLYLINE
  5
77
330
1F
100
AcDbEntity
  8
Lines
100
AcDb2dPolyline
 66
     1
 10
0.0
 20
0.0
 30
0.0
  0
VERTEX
  5
78
330
77
100
AcDbEntity
  8
Lines
100
AcDbVertex
100
AcDb2dVertex
 10
1182.806588587499
 20
489.4664488349126
 30
0.0
 42
-0.3971835406417739
  0
VERTEX
  5
79
330
77
100
AcDbEntity
  8
Lines
100
AcDbVertex
100
AcDb2dVertex
 10
1183.281371192993
 20
488.9638687272535
 30
0.0
  0
VERTEX
  5
7A
330
77
100
AcDbEntity
  8
Lines
100
AcDbVertex
100
AcDb2dVertex
 10
1183.281371192993
 20
487.9537460447428
 30
0.0
 42
-0.3766855262572915
  0
VERTEX
  5
7B
330
77
100
AcDbEntity
  8
Lines
100
AcDbVertex
100
AcDb2dVertex
 10
1182.836709707422
 20
487.4528304495859
 30
0.0
  0
SEQEND
  5
7C
330
77
100
AcDbEntity
  8
Lines
  0
ARC
  5
7D
330
1F
100
AcDbEntity
  8
Lines
100
AcDbCircle
 10
1181.401658194972
 20
490.4675572672438
 30
0.0
 40
1.000305189875695
100
AcDbArc
 50
180.0174780945494
 51
270.0174674376486
  0
LINE
  5
7E
330
1F
100
AcDbEntity
  8
Lines
100
AcDbLine
 10
1204.59126831573
 20
490.4672521238535
 30
0.0
 11
1204.59126831573
 21
501.389515365733
 31
0.0
  0
ARC
  5
7F
330
1F
100
AcDbEntity
  8
Lines
100
AcDbCircle
 10
1202.987139508155
 20
482.0897272944609
 30
0.0
 40
0.4874732692766237
100
AcDbArc
 50
117.1307277008389
 51
250.7046379146076
  0
ARC
  5
80
330
1F
100
AcDbEntity
  8
Lines
100
AcDbCircle
 10
1202.990197923998
 20
480.4440978119397
 30
0.0
 40
0.4902230924180868
100
AcDbArc
 50
117.3291779050936
 51
235.6426241419632
  0
POLYLINE
  5
81
330
1F
100
AcDbEntity
  8
Lines
100
AcDb2dPolyline
 66
     1
 10
0.0
 20
0.0
 30
0.0
  0
VERTEX
  5
82
330
81
100
AcDbEntity
  8
Lines
100
AcDbVertex
100
AcDb2dVertex
 10
1202.192078491854
 20
489.4663721183866
 30
0.0
 42
0.3964158872700032
  0
VERTEX
  5
83
330
81
100
AcDbEntity
  8
Lines
100
AcDbVertex
100
AcDb2dVertex
 10
1201.718627065799
 20
488.9638687272535
 30
0.0
  0
VERTEX
  5
84
330
81
100
AcDbEntity
  8
Lines
100
AcDbVertex
100
AcDb2dVertex
 10
1201.718627065798
 20
487.9537460447428
 30
0.0
 42
0.3768463537238319
  0
VERTEX
  5
85
330
81
100
AcDbEntity
  8
Lines
100
AcDbVertex
100
AcDb2dVertex
 10
1202.163572872229
 20
487.4527951370176
 30
0.0
  0
SEQEND
  5
86
330
81
100
AcDbEntity
  8
Lines
  0
ARC
  5
87
330
1F
100
AcDbEntity
  8
Lines
100
AcDbCircle
 10
1203.598340063819
 20
490.467557267244
 30
0.0
 40
1.000305189875808
100
AcDbArc
 50
269.9825325623643
 51
359.9825219054473
  0
ARC
  5
88
330
1F
100
AcDbEntity
  8
Lines
100
AcDbCircle
 10
1225.973434847144
 20
538.5141010646438
 30
0.0
 40
0.1010062924235581
100
AcDbArc
 50
1.104300345816068
 51
15.32058444784426
  0
LINE
  5
89
330
1F
100
AcDbEntity
  8
Lines
100
AcDbLine
 10
1226.047139443042
 20
538.648411498667
 30
0.0
 11
1226.042471107785
 21
538.6645027553727
 31
0.0
  0
ARC
  5
8A
330
1F
100
AcDbEntity
  8
Lines
100
AcDbCircle
 10
1185.777794848698
 20
494.6865009074985
 30
0.0
 40
1.853013865213633
100
AcDbArc
 50
192.1188256895729
 51
202.5333031609633
  0
ARC
  5
8B
330
1F
100
AcDbEntity
  8
Lines
100
AcDbCircle
 10
1185.222205137867
 20
494.6865009130255
 30
0.0
 40
1.85301387977048
100
AcDbArc
 50
337.466696840136
 51
347.8811744417723
  0
ARC
  5
8C
330
1F
100
AcDbEntity
  8
Lines
100
AcDbCircle
 10
1182.174819047456
 20
479.7766163176449
 30
0.0
 40
0.2662192904720266
100
AcDbArc
 50
37.65559000319369
 51
45.87384657626747
  0
POLYLINE
  5
8D
330
1F
100
AcDbEntity
  8
Lines
100
AcDb2dPolyline
 66
     1
 10
0.0
 20
0.0
 30
0.0
  0
VERTEX
  5
8E
330
8D
100
AcDbEntity
  8
Lines
100
AcDbVertex
100
AcDb2dVertex
 10
1243.560544326451
 20
537.5774377671468
 30
0.0
 42
-0.4025344855164764
  0
VERTEX
  5
8F
330
8D
100
AcDbEntity
  8
Lines
100
AcDbVertex
100
AcDb2dVertex
 10
1242.561504358651
 20
536.6166710117551
 30
0.0
  0
VERTEX
  5
90
330
8D
100
AcDbEntity
  8
Lines
100
AcDbVertex
100
AcDb2dVertex
 10
1240.081826643919
 20
536.6162198896894
 30
0.0
 42
0.2220862033018416
  0
VERTEX
  5
91
330
8D
100
AcDbEntity
  8
Lines
100
AcDbVertex
100
AcDb2dVertex
 10
1239.315478743652
 20
536.2584262904887
 30
0.0
  0
VERTEX
  5
92
330
8D
100
AcDbEntity
  8
Lines
100
AcDbVertex
100
AcDb2dVertex
 10
1238.869743053383
 20
535.7266307161071
 30
0.0
 42
-0.2212631526110077
  0
VERTEX
  5
93
330
8D
100
AcDbEntity
  8
Lines
100
AcDbVertex
100
AcDb2dVertex
 10
1238.10343856387
 20
535.3690976388132
 30
0.0
  0
VERTEX
  5
94
330
8D
100
AcDbEntity
  8
Lines
100
AcDbVertex
100
AcDb2dVertex
 10
1229.079282215051
 20
535.3690879894846
 30
0.0
 42
0.4143803304859687
  0
VERTEX
  5
95
330
8D
100
AcDbEntity
  8
Lines
100
AcDbVertex
100
AcDb2dVertex
 10
1228.079282215608
 20
534.3695053338251
 30
0.0
  0
VERTEX
  5
96
330
8D
100
AcDbEntity
  8
Lines
100
AcDbVertex
100
AcDb2dVertex
 10
1228.079282215608
 20
506.4095163924825
 30
0.0
 42
0.4143869675153566
  0
VERTEX
  5
97
330
8D
100
AcDbEntity
  8
Lines
100
AcDbVertex
100
AcDb2dVertex
 10
1229.079282215051
 20
505.4099330925887
 30
0.0
  0
VERTEX
  5
98
330
8D
100
AcDbEntity
  8
Lines
100
AcDbVertex
100
AcDb2dVertex
 10
1238.10343856087
 20
505.4099427420087
 30
0.0
 42
-0.2212769189114847
  0
VERTEX
  5
99
330
8D
100
AcDbEntity
  8
Lines
100
AcDbVertex
100
AcDb2dVertex
 10
1238.86974791526
 20
505.0524040996256
 30
0.0
  0
VERTEX
  5
9A
330
8D
100
AcDbEntity
  8
Lines
100
AcDbVertex
100
AcDb2dVertex
 10
1239.31547874365
 20
504.5205985314244
 30
0.0
 42
0.2220924110892049
  0
VERTEX
  5
9B
330
8D
100
AcDbEntity
  8
Lines
100
AcDbVertex
100
AcDb2dVertex
 10
1240.081826642834
 20
504.1628047989204
 30
0.0
  0
VERTEX
  5
9C
330
8D
100
AcDbEntity
  8
Lines
100
AcDbVertex
100
AcDb2dVertex
 10
1242.56150435865
 20
504.1623657627098
 30
0.0
 42
-0.4025405038169833
  0
VERTEX
  5
9D
330
8D
100
AcDbEntity
  8
Lines
100
AcDbVertex
100
AcDb2dVertex
 10
1243.560544801947
 20
503.2015937359407
 30
0.0
  0
SEQEND
  5
9E
330
8D
100
AcDbEntity
  8
Lines
  0
POLYLINE
  5
9F
330
1F
100
AcDbEntity
  8
Lines
100
AcDb2dPolyline
 66
     1
 10
0.0
 20
0.0
 30
0.0
  0
VERTEX
  5
A0
330
9F
100
AcDbEntity
  8
Lines
100
AcDbVertex
100
AcDb2dVertex
 10
1243.561443212665
 20
531.7488456712399
 30
0.0
  0
VERTEX
  5
A1
330
9F
100
AcDbEntity
  8
Lines
100
AcDbVertex
100
AcDb2dVertex
 10
1243.561443212665
 20
502.397460068884
 30
0.0
 42
0.4091753438958826
  0
VERTEX
  5
A2
330
9F
100
AcDbEntity
  8
Lines
100
AcDbVertex
100
AcDb2dVertex
 10
1244.544060672191
 20
501.3976450467849
 30
0.0
  0
VERTEX
  5
A3
330
9F
100
AcDbEntity
  8
Lines
100
AcDbVertex
100
AcDb2dVertex
 10
1257.570835715986
 20
501.1714395699446
 30
0.0
 42
-0.4029714583202123
  0
VERTEX
  5
A4
330
9F
100
AcDbEntity
  8
Lines
100
AcDbVertex
100
AcDb2dVertex
 10
1259.043000697393
 20
499.7089893996308
 30
0.0
  0
SEQEND
  5
A5
330
9F
100
AcDbEntity
  8
Lines
  0
POLYLINE
  5
A6
330
1F
100
AcDbEntity
  8
Lines
100
AcDb2dPolyline
 66
     1
 10
0.0
 20
0.0
 30
0.0
  0
VERTEX
  5
A7
330
A6
100
AcDbEntity
  8
Lines
100
AcDbVertex
100
AcDb2dVertex
 10
1228.078401252174
 20
532.084744611888
 30
0.0
 42
-0.4024086708451979
  0
VERTEX
  5
A8
330
A6
100
AcDbEntity
  8
Lines
100
AcDbVertex
100
AcDb2dVertex
 10
1227.079349136738
 20
531.1247427425036
 30
0.0
  0
VERTEX
  5
A9
330
A6
100
AcDbEntity
  8
Lines
100
AcDbVertex
100
AcDb2dVertex
 10
1226.08159752577
 20
531.1244782173134
 30
0.0
  0
SEQEND
  5
AA
330
A6
100
AcDbEntity
  8
Lines
  0
POLYLINE
  5
AB
330
1F
100
AcDbEntity
  8
Lines
100
AcDb2dPolyline
 66
     1
 10
0.0
 20
0.0
 30
0.0
  0
VERTEX
  5
AC
330
AB
100
AcDbEntity
  8
Lines
100
AcDbVertex
100
AcDb2dVertex
 10
1228.078069754754
 20
508.7018350459604
 30
0.0
 42
0.4002188029478495
  0
VERTEX
  5
AD
330
AB
100
AcDbEntity
  8
Lines
100
AcDbVertex
100
AcDb2dVertex
 10
1227.079349136738
 20
509.6542913330513
 30
0.0
  0
VERTEX
  5
AE
330
AB
100
AcDbEntity
  8
Lines
100
AcDbVertex
100
AcDb2dVertex
 10
1226.08159752577
 20
509.6545525141527
 30
0.0
  0
SEQEND
  5
AF
330
AB
100
AcDbEntity
  8
Lines
  0
POLYLINE
  5
B0
330
1F
100
AcDbEntity
  8
Lines
100
AcDb2dPolyline
 66
     1
 10
0.0
 20
0.0
 30
0.0
  0
VERTEX
  5
B1
330
B0
100
AcDbEntity
  8
Lines
100
AcDbVertex
100
AcDb2dVertex
 10
1185.229444198759
 20
493.3901966619341
 30
0.0
  0
VERTEX
  5
B2
330
B0
100
AcDbEntity
  8
Lines
100
AcDbVertex
100
AcDb2dVertex
 10
1185.268642554273
 20
493.3894928574144
 30
0.0
  0
VERTEX
  5
B3
330
B0
100
AcDbEntity
  8
Lines
100
AcDbVertex
100
AcDb2dVertex
 10
1185.731357334519
 20
493.3894928563147
 30
0.0
  0
VERTEX
  5
B4
330
B0
100
AcDbEntity
  8
Lines
100
AcDbVertex
100
AcDb2dVertex
 10
1185.770554480565
 20
493.3901965890759
 30
0.0
  0
SEQEND
  5
B5
330
B0
100
AcDbEntity
  8
Lines
  0
POLYLINE
  5
B6
330
1F
100
AcDbEntity
  8
Lines
100
AcDb2dPolyline
 66
     1
 10
0.0
 20
0.0
 30
0.0
  0
VERTEX
  5
B7
330
B6
100
AcDbEntity
  8
Lines
100
AcDbVertex
100
AcDb2dVertex
 10
1196.544536084123
 20
540.0322356503842
 30
0.0
  0
VERTEX
  5
B8
330
B6
100
AcDbEntity
  8
Lines
100
AcDbVertex
100
AcDb2dVertex
 10
1196.843566858184
 20
539.9116085564344
 30
0.0
 42
0.091069136557473
  0
VERTEX
  5
B9
330
B6
100
AcDbEntity
  8
Lines
100
AcDbVertex
100
AcDb2dVertex
 10
1199.68625812023
 20
539.3895157389532
 30
0.0
  0
VERTEX
  5
BA
330
B6
100
AcDbEntity
  8
Lines
100
AcDbVertex
100
AcDb2dVertex
 10
1225.08159752577
 20
539.3895159794807
 30
0.0
 42
-0.3138631997048076
  0
VERTEX
  5
BB
330
B6
100
AcDbEntity
  8
Lines
100
AcDbVertex
100
AcDb2dVertex
 10
1226.019363417433
 20
538.7365748606802
 30
0.0
  0
VERTEX
  5
BC
330
B6
100
AcDbEntity
  8
Lines
100
AcDbVertex
100
AcDb2dVertex
 10
1226.03344602986
 20
538.6960854070535
 30
0.0
  0
VERTEX
  5
BD
330
B6
100
AcDbEntity
  8
Lines
100
AcDbVertex
100
AcDb2dVertex
 10
1226.050485284409
 20
538.6370221179933
 30
0.0
  0
VERTEX
  5
BE
330
B6
100
AcDbEntity
  8
Lines
100
AcDbVertex
100
AcDb2dVertex
 10
1226.052093220953
 20
538.6305706868557
 30
0.0
  0
VERTEX
  5
BF
330
B6
100
AcDbEntity
  8
Lines
100
AcDbVertex
100
AcDb2dVertex
 10
1226.052768567965
 20
538.6277151106115
 30
0.0
  0
VERTEX
  5
C0
330
B6
100
AcDbEntity
  8
Lines
100
AcDbVertex
100
AcDb2dVertex
 10
1226.070468325253
 20
538.5378827417786
 30
0.0
  0
VERTEX
  5
C1
330
B6
100
AcDbEntity
  8
Lines
100
AcDbVertex
100
AcDb2dVertex
 10
1226.070727102849
 20
538.535761007167
 30
0.0
  0
VERTEX
  5
C2
330
B6
100
AcDbEntity
  8
Lines
100
AcDbVertex
100
AcDb2dVertex
 10
1226.073407492229
 20
538.5167688502438
 30
0.0
  0
VERTEX
  5
C3
330
B6
100
AcDbEntity
  8
Lines
100
AcDbVertex
100
AcDb2dVertex
 10
1226.073931782935
 20
538.513110175608
 30
0.0
  0
VERTEX
  5
C4
330
B6
100
AcDbEntity
  8
Lines
100
AcDbVertex
100
AcDb2dVertex
 10
1226.074593279167
 20
538.5076076441995
 30
0.0
  0
VERTEX
  5
C5
330
B6
100
AcDbEntity
  8
Lines
100
AcDbVertex
100
AcDb2dVertex
 10
1226.075913330184
 20
538.4957565880712
 30
0.0
  0
VERTEX
  5
C6
330
B6
100
AcDbEntity
  8
Lines
100
AcDbVertex
100
AcDb2dVertex
 10
1226.08159752577
 20
538.3895159471774
 30
0.0
  0
VERTEX
  5
C7
330
B6
100
AcDbEntity
  8
Lines
100
AcDbVertex
100
AcDb2dVertex
 10
1226.08159752577
 20
502.389515365731
 30
0.0
 42
-0.4142133564405721
  0
VERTEX
  5
C8
330
B6
100
AcDbEntity
  8
Lines
100
AcDbVertex
100
AcDb2dVertex
 10
1225.08159752577
 20
501.389514751985
 30
0.0
  0
VERTEX
  5
C9
330
B6
100
AcDbEntity
  8
Lines
100
AcDbVertex
100
AcDb2dVertex
 10
1199.686259136091
 20
501.3895151279087
 30
0.0
 42
0.0707157859849916
  0
VERTEX
  5
CA
330
B6
100
AcDbEntity
  8
Lines
100
AcDbVertex
100
AcDb2dVertex
 10
1197.457018878575
 20
501.0726449199166
 30
0.0
  0
VERTEX
  5
CB
330
B6
100
AcDbEntity
  8
Lines
100
AcDbVertex
100
AcDb2dVertex
 10
1197.302218989674
 20
501.0260250235202
 30
0.0
 42
0.0252467577229779
  0
VERTEX
  5
CC
330
B6
100
AcDbEntity
  8
Lines
100
AcDbVertex
100
AcDb2dVertex
 10
1196.544536084123
 20
500.7467950810818
 30
0.0
  0
SEQEND
  5
CD
330
B6
100
AcDbEntity
  8
Lines
  0
POLYLINE
  5
CE
330
1F
100
AcDbEntity
  8
Lines
100
AcDb2dPolyline
 66
     1
 10
0.0
 20
0.0
 30
0.0
  0
VERTEX
  5
CF
330
CE
100
AcDbEntity
  8
Lines
100
AcDbVertex
100
AcDb2dVertex
 10
1202.765004644722
 20
483.2974508648961
 30
0.0
 42
-0.1298339337401212
  0
VERTEX
  5
D0
330
CE
100
AcDbEntity
  8
Lines
100
AcDbVertex
100
AcDb2dVertex
 10
1203.057626900755
 20
483.2357050565527
 30
0.0
 42
-0.2643044725902886
  0
VERTEX
  5
D1
330
CE
100
AcDbEntity
  8
Lines
100
AcDbVertex
100
AcDb2dVertex
 10
1203.045523387286
 20
483.2231705921947
 30
0.0
  0
VERTEX
  5
D2
330
CE
100
AcDbEntity
  8
Lines
100
AcDbVertex
100
AcDb2dVertex
 10
1202.825779338688
 20
483.1807701802949
 30
0.0
  0
VERTEX
  5
D3
330
CE
100
AcDbEntity
  8
Lines
100
AcDbVertex
100
AcDb2dVertex
 10
1202.821839738829
 20
483.1803038037484
 30
0.0
 42
-0.0133182317993118
  0
VERTEX
  5
D4
330
CE
100
AcDbEntity
  8
Lines
100
AcDbVertex
100
AcDb2dVertex
 10
1201.561991934737
 20
483.0947241681065
 30
0.0
 42
-0.0032056083462841
  0
VERTEX
  5
D5
330
CE
100
AcDbEntity
  8
Lines
100
AcDbVertex
100
AcDb2dVertex
 10
1199.974113247655
 20
483.0305018670724
 30
0.0
 42
-0.0000105289799072
  0
VERTEX
  5
D6
330
CE
100
AcDbEntity
  8
Lines
100
AcDbVertex
100
AcDb2dVertex
 10
1199.965369319767
 20
483.0301952212951
 30
0.0
 42
-0.0015078733747012
  0
VERTEX
  5
D7
330
CE
100
AcDbEntity
  8
Lines
100
AcDbVertex
100
AcDb2dVertex
 10
1197.938100312897
 20
482.9662778885203
 30
0.0
 42
-0.0007432643870733
  0
VERTEX
  5
D8
330
CE
100
AcDbEntity
  8
Lines
100
AcDbVertex
100
AcDb2dVertex
 10
1195.576652598614
 20
482.9020699918362
 30
0.0
  0
VERTEX
  5
D9
330
CE
100
AcDbEntity
  8
Lines
100
AcDbVertex
100
AcDb2dVertex
 10
1192.499999129395
 20
482.8247076015882
 30
0.0
  0
VERTEX
  5
DA
330
CE
100
AcDbEntity
  8
Lines
100
AcDbVertex
100
AcDb2dVertex
 10
1185.500000000013
 20
482.6350553203915
 30
0.0
  0
VERTEX
  5
DB
330
CE
100
AcDbEntity
  8
Lines
100
AcDbVertex
100
AcDb2dVertex
 10
1184.027240052069
 20
482.5809783870998
 30
0.0
  0
VERTEX
  5
DC
330
CE
100
AcDbEntity
  8
Lines
100
AcDbVertex
100
AcDb2dVertex
 10
1182.750845089104
 20
482.5167722494693
 30
0.0
  0
VERTEX
  5
DD
330
CE
100
AcDbEntity
  8
Lines
100
AcDbVertex
100
AcDb2dVertex
 10
1182.328114136707
 20
482.4846613170192
 30
0.0
  0
VERTEX
  5
DE
330
CE
100
AcDbEntity
  8
Lines
100
AcDbVertex
100
AcDb2dVertex
 10
1182.173896135303
 20
482.4686101104526
 30
0.0
  0
VERTEX
  5
DF
330
CE
100
AcDbEntity
  8
Lines
100
AcDbVertex
100
AcDb2dVertex
 10
1182.111288458306
 20
482.4605790840507
 30
0.0
  0
VERTEX
  5
E0
330
CE
100
AcDbEntity
  8
Lines
100
AcDbVertex
100
AcDb2dVertex
 10
1182.058430027594
 20
482.4525419706047
 30
0.0
  0
VERTEX
  5
E1
330
CE
100
AcDbEntity
  8
Lines
100
AcDbVertex
100
AcDb2dVertex
 10
1182.031259386098
 20
482.4476860179217
 30
0.0
  0
VERTEX
  5
E2
330
CE
100
AcDbEntity
  8
Lines
100
AcDbVertex
100
AcDb2dVertex
 10
1182.007699336419
 20
482.4428324890653
 30
0.0
  0
VERTEX
  5
E3
330
CE
100
AcDbEntity
  8
Lines
100
AcDbVertex
100
AcDb2dVertex
 10
1181.997274454781
 20
482.4404063814947
 30
0.0
  0
VERTEX
  5
E4
330
CE
100
AcDbEntity
  8
Lines
100
AcDbVertex
100
AcDb2dVertex
 10
1181.98775362662
 20
482.4379805773881
 30
0.0
  0
VERTEX
  5
E5
330
CE
100
AcDbEntity
  8
Lines
100
AcDbVertex
100
AcDb2dVertex
 10
1181.979137320446
 20
482.4355549759146
 30
0.0
  0
VERTEX
  5
E6
330
CE
100
AcDbEntity
  8
Lines
100
AcDbVertex
100
AcDb2dVertex
 10
1181.971426004765
 20
482.4331294762432
 30
0.0
  0
VERTEX
  5
E7
330
CE
100
AcDbEntity
  8
Lines
100
AcDbVertex
100
AcDb2dVertex
 10
1181.967909864768
 20
482.4319167330737
 30
0.0
  0
VERTEX
  5
E8
330
CE
100
AcDbEntity
  8
Lines
100
AcDbVertex
100
AcDb2dVertex
 10
1181.964620148085
 20
482.4307039775431
 30
0.0
  0
VERTEX
  5
E9
330
CE
100
AcDbEntity
  8
Lines
100
AcDbVertex
100
AcDb2dVertex
 10
1181.96155691328
 20
482.4294911970477
 30
0.0
  0
VERTEX
  5
EA
330
CE
100
AcDbEntity
  8
Lines
100
AcDbVertex
100
AcDb2dVertex
 10
1181.958720218915
 20
482.4282783789835
 30
0.0
  0
VERTEX
  5
EB
330
CE
100
AcDbEntity
  8
Lines
100
AcDbVertex
100
AcDb2dVertex
 10
1181.956110123555
 20
482.4270655107467
 30
0.0
  0
VERTEX
  5
EC
330
CE
100
AcDbEntity
  8
Lines
100
AcDbVertex
100
AcDb2dVertex
 10
1181.954890068803
 20
482.4264590538748
 30
0.0
  0
VERTEX
  5
ED
330
CE
100
AcDbEntity
  8
Lines
100
AcDbVertex
100
AcDb2dVertex
 10
1181.953726685763
 20
482.4258525797334
 30
0.0
  0
VERTEX
  5
EE
330
CE
100
AcDbEntity
  8
Lines
100
AcDbVertex
100
AcDb2dVertex
 10
1181.952619981756
 20
482.4252460867468
 30
0.0
  0
VERTEX
  5
EF
330
CE
100
AcDbEntity
  8
Lines
100
AcDbVertex
100
AcDb2dVertex
 10
1181.951569964102
 20
482.4246395733397
 30
0.0
  0
VERTEX
  5
F0
330
CE
100
AcDbEntity
  8
Lines
100
AcDbVertex
100
AcDb2dVertex
 10
1181.950576640122
 20
482.4240330379366
 30
0.0
  0
VERTEX
  5
F1
330
CE
100
AcDbEntity
  8
Lines
100
AcDbVertex
100
AcDb2dVertex
 10
1181.949640017136
 20
482.4234264789619
 30
0.0
  0
VERTEX
  5
F2
330
CE
100
AcDbEntity
  8
Lines
100
AcDbVertex
100
AcDb2dVertex
 10
1181.948760102464
 20
482.4228198948402
 30
0.0
  0
VERTEX
  5
F3
330
CE
100
AcDbEntity
  8
Lines
100
AcDbVertex
100
AcDb2dVertex
 10
1181.947936903427
 20
482.422213283996
 30
0.0
  0
VERTEX
  5
F4
330
CE
100
AcDbEntity
  8
Lines
100
AcDbVertex
100
AcDb2dVertex
 10
1181.94754657456
 20
482.4219099680606
 30
0.0
  0
VERTEX
  5
F5
330
CE
100
AcDbEntity
  8
Lines
100
AcDbVertex
100
AcDb2dVertex
 10
1181.947170427346
 20
482.4216066448538
 30
0.0
  0
VERTEX
  5
F6
330
CE
100
AcDbEntity
  8
Lines
100
AcDbVertex
100
AcDb2dVertex
 10
1181.946808462702
 20
482.4213033141787
 30
0.0
  0
VERTEX
  5
F7
330
CE
100
AcDbEntity
  8
Lines
100
AcDbVertex
100
AcDb2dVertex
 10
1181.946460681541
 20
482.4209999758382
 30
0.0
  0
VERTEX
  5
F8
330
CE
100
AcDbEntity
  8
Lines
100
AcDbVertex
100
AcDb2dVertex
 10
1181.94612708478
 20
482.4206966296355
 30
0.0
  0
VERTEX
  5
F9
330
CE
100
AcDbEntity
  8
Lines
100
AcDbVertex
100
AcDb2dVertex
 10
1181.945807673332
 20
482.4203932753736
 30
0.0
  0
VERTEX
  5
FA
330
CE
100
AcDbEntity
  8
Lines
100
AcDbVertex
100
AcDb2dVertex
 10
1181.945502448114
 20
482.4200899128556
 30
0.0
  0
VERTEX
  5
FB
330
CE
100
AcDbEntity
  8
Lines
100
AcDbVertex
100
AcDb2dVertex
 10
1181.94521141004
 20
482.4197865418846
 30
0.0
  0
VERTEX
  5
FC
330
CE
100
AcDbEntity
  8
Lines
100
AcDbVertex
100
AcDb2dVertex
 10
1181.944934560026
 20
482.4194831622636
 30
0.0
  0
VERTEX
  5
FD
330
CE
100
AcDbEntity
  8
Lines
100
AcDbVertex
100
AcDb2dVertex
 10
1181.944671898985
 20
482.4191797737956
 30
0.0
  0
VERTEX
  5
FE
330
CE
100
AcDbEntity
  8
Lines
100
AcDbVertex
100
AcDb2dVertex
 10
1181.944423427834
 20
482.4188763762838
 30
0.0
  0
VERTEX
  5
FF
330
CE
100
AcDbEntity
  8
Lines
100
AcDbVertex
100
AcDb2dVertex
 10
1181.944189147488
 20
482.4185729695313
 30
0.0
  0
VERTEX
  5
100
330
CE
100
AcDbEntity
  8
Lines
100
AcDbVertex
100
AcDb2dVertex
 10
1181.943969058861
 20
482.418269553341
 30
0.0
  0
VERTEX
  5
101
330
CE
100
AcDbEntity
  8
Lines
100
AcDbVertex
100
AcDb2dVertex
 10
1181.943763162869
 20
482.4179661275161
 30
0.0
  0
VERTEX
  5
102
330
CE
100
AcDbEntity
  8
Lines
100
AcDbVertex
100
AcDb2dVertex
 10
1181.943571460426
 20
482.4176626918596
 30
0.0
  0
VERTEX
  5
103
330
CE
100
AcDbEntity
  8
Lines
100
AcDbVertex
100
AcDb2dVertex
 10
1181.943393952448
 20
482.4173592461746
 30
0.0
  0
VERTEX
  5
104
330
CE
100
AcDbEntity
  8
Lines
100
AcDbVertex
100
AcDb2dVertex
 10
1181.943310521669
 20
482.4172075195098
 30
0.0
  0
VERTEX
  5
105
330
CE
100
AcDbEntity
  8
Lines
100
AcDbVertex
100
AcDb2dVertex
 10
1181.94323063985
 20
482.417055790264
 30
0.0
  0
VERTEX
  5
106
330
CE
100
AcDbEntity
  8
Lines
100
AcDbVertex
100
AcDb2dVertex
 10
1181.943154307104
 20
482.4169040584127
 30
0.0
  0
VERTEX
  5
107
330
CE
100
AcDbEntity
  8
Lines
100
AcDbVertex
100
AcDb2dVertex
 10
1181.943081523546
 20
482.4167523239312
 30
0.0
  0
VERTEX
  5
108
330
CE
100
AcDbEntity
  8
Lines
100
AcDbVertex
100
AcDb2dVertex
 10
1181.943012289291
 20
482.4166005867947
 30
0.0
  0
VERTEX
  5
109
330
CE
100
AcDbEntity
  8
Lines
100
AcDbVertex
100
AcDb2dVertex
 10
1181.942946604453
 20
482.4164488469789
 30
0.0
  0
VERTEX
  5
10A
330
CE
100
AcDbEntity
  8
Lines
100
AcDbVertex
100
AcDb2dVertex
 10
1181.942884469145
 20
482.4162971044591
 30
0.0
  0
VERTEX
  5
10B
330
CE
100
AcDbEntity
  8
Lines
100
AcDbVertex
100
AcDb2dVertex
 10
1181.942825883483
 20
482.4161453592104
 30
0.0
  0
VERTEX
  5
10C
330
CE
100
AcDbEntity
  8
Lines
100
AcDbVertex
100
AcDb2dVertex
 10
1181.942770847582
 20
482.4159936112085
 30
0.0
  0
VERTEX
  5
10D
330
CE
100
AcDbEntity
  8
Lines
100
AcDbVertex
100
AcDb2dVertex
 10
1181.942719361555
 20
482.4158418604287
 30
0.0
  0
VERTEX
  5
10E
330
CE
100
AcDbEntity
  8
Lines
100
AcDbVertex
100
AcDb2dVertex
 10
1181.942671425516
 20
482.4156901068463
 30
0.0
  0
VERTEX
  5
10F
330
CE
100
AcDbEntity
  8
Lines
100
AcDbVertex
100
AcDb2dVertex
 10
1181.942627039581
 20
482.4155383504369
 30
0.0
  0
VERTEX
  5
110
330
CE
100
AcDbEntity
  8
Lines
100
AcDbVertex
100
AcDb2dVertex
 10
1181.942586203863
 20
482.4153865911756
 30
0.0
  0
VERTEX
  5
111
330
CE
100
AcDbEntity
  8
Lines
100
AcDbVertex
100
AcDb2dVertex
 10
1181.942548918477
 20
482.415234829038
 30
0.0
  0
VERTEX
  5
112
330
CE
100
AcDbEntity
  8
Lines
100
AcDbVertex
100
AcDb2dVertex
 10
1181.942515183537
 20
482.4150830639994
 30
0.0
  0
VERTEX
  5
113
330
CE
100
AcDbEntity
  8
Lines
100
AcDbVertex
100
AcDb2dVertex
 10
1181.942484999158
 20
482.4149312960351
 30
0.0
  0
VERTEX
  5
114
330
CE
100
AcDbEntity
  8
Lines
100
AcDbVertex
100
AcDb2dVertex
 10
1181.942458365455
 20
482.4147795251206
 30
0.0
  0
VERTEX
  5
115
330
CE
100
AcDbEntity
  8
Lines
100
AcDbVertex
100
AcDb2dVertex
 10
1181.94243528254
 20
482.4146277512313
 30
0.0
  0
VERTEX
  5
116
330
CE
100
AcDbEntity
  8
Lines
100
AcDbVertex
100
AcDb2dVertex
 10
1181.942415750529
 20
482.4144759743424
 30
0.0
  0
VERTEX
  5
117
330
CE
100
AcDbEntity
  8
Lines
100
AcDbVertex
100
AcDb2dVertex
 10
1181.942399769537
 20
482.4143241944295
 30
0.0
  0
VERTEX
  5
118
330
CE
100
AcDbEntity
  8
Lines
100
AcDbVertex
100
AcDb2dVertex
 10
1181.942387339677
 20
482.4141724114679
 30
0.0
  0
VERTEX
  5
119
330
CE
100
AcDbEntity
  8
Lines
100
AcDbVertex
100
AcDb2dVertex
 10
1181.942378461064
 20
482.4140206254329
 30
0.0
  0
VERTEX
  5
11A
330
CE
100
AcDbEntity
  8
Lines
100
AcDbVertex
100
AcDb2dVertex
 10
1181.942373133812
 20
482.4138688363
 30
0.0
  0
VERTEX
  5
11B
330
CE
100
AcDbEntity
  8
Lines
100
AcDbVertex
100
AcDb2dVertex
 10
1181.942371358036
 20
482.4137170440446
 30
0.0
  0
VERTEX
  5
11C
330
CE
100
AcDbEntity
  8
Lines
100
AcDbVertex
100
AcDb2dVertex
 10
1181.942371358036
 20
481.7664635274384
 30
0.0
  0
SEQEND
  5
11D
330
CE
100
AcDbEntity
  8
Lines
  0
LINE
  5
11E
330
1F
100
AcDbEntity
  8
Lines
100
AcDbLine
 10
1243.561443212665
 20
534.2100237739558
 30
0.0
 11
1243.561443212665
 21
535.9979634034341
 31
0.0
  0
POLYLINE
  5
11F
330
1F
100
AcDbEntity
  8
Lines
100
AcDb2dPolyline
 66
     1
 10
0.0
 20
0.0
 30
0.0
  0
VERTEX
  5
120
330
11F
100
AcDbEntity
  8
Lines
100
AcDbVertex
100
AcDb2dVertex
 10
1259.042966753091
 20
541.0686620445258
 30
0.0
 42
-0.4027046862027655
  0
VERTEX
  5
121
330
11F
100
AcDbEntity
  8
Lines
100
AcDbVertex
100
AcDb2dVertex
 10
1257.570835715986
 20
539.6075911615214
 30
0.0
  0
VERTEX
  5
122
330
11F
100
AcDbEntity
  8
Lines
100
AcDbVertex
100
AcDb2dVertex
 10
1244.544060777645
 20
539.3813796229651
 30
0.0
 42
0.4091727833899559
  0
VERTEX
  5
123
330
11F
100
AcDbEntity
  8
Lines
100
AcDbVertex
100
AcDb2dVertex
 10
1243.561443212665
 20
538.3818747413791
 30
0.0
  0
VERTEX
  5
124
330
11F
100
AcDbEntity
  8
Lines
100
AcDbVertex
100
AcDb2dVertex
 10
1243.561443212665
 20
536.0235105794873
 30
0.0
  0
SEQEND
  5
125
330
11F
100
AcDbEntity
  8
Lines
  0
POLYLINE
  5
126
330
1F
100
AcDbEntity
  8
Lines
100
AcDb2dPolyline
 66
     1
 10
0.0
 20
0.0
 30
0.0
  0
VERTEX
  5
127
330
126
100
AcDbEntity
  8
Lines
100
AcDbVertex
100
AcDb2dVertex
 10
1182.235082910307
 20
485.7634624207059
 30
0.0
 42
0.5205612153024025
  0
VERTEX
  5
128
330
126
100
AcDbEntity
  8
Lines
100
AcDbVertex
100
AcDb2dVertex
 10
1182.342441057575
 20
486.5595909392598
 30
0.0
 42
0.1218757795109852
  0
VERTEX
  5
129
330
126
100
AcDbEntity
  8
Lines
100
AcDbVertex
100
AcDb2dVertex
 10
1182.174537659817
 20
486.6572700687379
 30
0.0
  0
SEQEND
  5
12A
330
126
100
AcDbEntity
  8
Lines
  0
POLYLINE
  5
12B
330
1F
100
AcDbEntity
  8
Lines
100
AcDb2dPolyline
 66
     1
 10
0.0
 20
0.0
 30
0.0
  0
VERTEX
  5
12C
330
12B
100
AcDbEntity
  8
Lines
100
AcDbVertex
100
AcDb2dVertex
 10
1182.234865139149
 20
480.8314320847942
 30
0.0
 42
0.6564878970886772
  0
VERTEX
  5
12D
330
12B
100
AcDbEntity
  8
Lines
100
AcDbVertex
100
AcDb2dVertex
 10
1182.176651698429
 20
481.7246824092484
 30
0.0
  0
VERTEX
  5
12E
330
12B
100
AcDbEntity
  8
Lines
100
AcDbVertex
100
AcDb2dVertex
 10
1182.174476777776
 20
481.7253198195777
 30
0.0
  0
SEQEND
  5
12F
330
12B
100
AcDbEntity
  8
Lines
  0
POLYLINE
  5
130
330
1F
100
AcDbEntity
  8
Lines
100
AcDb2dPolyline
 66
     1
 10
0.0
 20
0.0
 30
0.0
  0
VERTEX
  5
131
330
130
100
AcDbEntity
  8
Lines
100
AcDbVertex
100
AcDb2dVertex
 10
1182.2351608912
 20
482.4754785316579
 30
0.0
 42
0.6184492539113005
  0
VERTEX
  5
132
330
130
100
AcDbEntity
  8
Lines
100
AcDbVertex
100
AcDb2dVertex
 10
1182.22405136108
 20
483.3507907308973
 30
0.0
  0
VERTEX
  5
133
330
130
100
AcDbEntity
  8
Lines
100
AcDbVertex
100
AcDb2dVertex
 10
1182.173420907327
 20
483.3695278171239
 30
0.0
  0
SEQEND
  5
134
330
130
100
AcDbEntity
  8
Lines
  0
POLYLINE
  5
135
330
1F
100
AcDbEntity
  8
Lines
100
AcDb2dPolyline
 66
     1
 10
0.0
 20
0.0
 30
0.0
  0
VERTEX
  5
136
330
135
100
AcDbEntity
  8
Lines
100
AcDbVertex
100
AcDb2dVertex
 10
1180.408729943061
 20
490.4672521238535
 30
0.0
  0
VERTEX
  5
137
330
135
100
AcDbEntity
  8
Lines
100
AcDbVertex
100
AcDb2dVertex
 10
1180.408729633685
 20
496.2072636798532
 30
0.0
 42
0.1710385661327204
  0
VERTEX
  5
138
330
135
100
AcDbEntity
  8
Lines
100
AcDbVertex
100
AcDb2dVertex
 10
1179.745963811545
 20
498.0880436715829
 30
0.0
  0
VERTEX
  5
139
330
135
100
AcDbEntity
  8
Lines
100
AcDbVertex
100
AcDb2dVertex
 10
1179.641540355616
 20
498.2108987091738
 30
0.0
  0
VERTEX
  5
13A
330
135
100
AcDbEntity
  8
Lines
100
AcDbVertex
100
AcDb2dVertex
 10
1179.517607038032
 20
498.340957892472
 30
0.0
  0
VERTEX
  5
13B
330
135
100
AcDbEntity
  8
Lines
100
AcDbVertex
100
AcDb2dVertex
 10
1179.294371138136
 20
498.5405772550215
 30
0.0
  0
SEQEND
  5
13C
330
135
100
AcDbEntity
  8
Lines
  0
POLYLINE
  5
13D
330
1F
100
AcDbEntity
  8
Lines
100
AcDb2dPolyline
 66
     1
 10
0.0
 20
0.0
 30
0.0
  0
VERTEX
  5
13E
330
13D
100
AcDbEntity
  8
Lines
100
AcDbVertex
100
AcDb2dVertex
 10
1275.027416727892
 20
531.8294548994008
 30
0.0
 42
0.4005489256658938
  0
VERTEX
  5
13F
330
13D
100
AcDbEntity
  8
Lines
100
AcDbVertex
100
AcDb2dVertex
 10
1276.026297943297
 20
530.8759721622914
 30
0.0
  0
VERTEX
  5
140
330
13D
100
AcDbEntity
  8
Lines
100
AcDbVertex
100
AcDb2dVertex
 10
1294.088324199501
 20
530.8754334012509
 30
0.0
 42
-0.1994655556008965
  0
VERTEX
  5
141
330
13D
100
AcDbEntity
  8
Lines
100
AcDbVertex
100
AcDb2dVertex
 10
1294.796554399779
 20
530.5813819551474
 30
0.0
  0
VERTEX
  5
142
330
13D
100
AcDbEntity
  8
Lines
100
AcDbVertex
100
AcDb2dVertex
 10
1295.208312852242
 20
530.1682726986105
 30
0.0
 42
-0.1984972805700147
  0
VERTEX
  5
143
330
13D
100
AcDbEntity
  8
Lines
100
AcDbVertex
100
AcDb2dVertex
 10
1295.499998493881
 20
529.4621508035187
 30
0.0
  0
VERTEX
  5
144
330
13D
100
AcDbEntity
  8
Lines
100
AcDbVertex
100
AcDb2dVertex
 10
1295.499998493882
 20
511.3169383507553
 30
0.0
 42
-0.1984975233684201
  0
VERTEX
  5
145
330
13D
100
AcDbEntity
  8
Lines
100
AcDbVertex
100
AcDb2dVertex
 10
1295.208314375566
 20
510.6107565155473
 30
0.0
  0
VERTEX
  5
146
330
13D
100
AcDbEntity
  8
Lines
100
AcDbVertex
100
AcDb2dVertex
 10
1294.796554399779
 20
510.1976456014887
 30
0.0
 42
-0.199469377049278
  0
VERTEX
  5
147
330
13D
100
AcDbEntity
  8
Lines
100
AcDbVertex
100
AcDb2dVertex
 10
1294.088324199501
 20
509.903594063786
 30
0.0
  0
VERTEX
  5
148
330
13D
100
AcDbEntity
  8
Lines
100
AcDbVertex
100
AcDb2dVertex
 10
1276.026297943297
 20
509.9030618357709
 30
0.0
 42
0.4005523296455688
  0
VERTEX
  5
149
330
13D
100
AcDbEntity
  8
Lines
100
AcDbVertex
100
AcDb2dVertex
 10
1275.027416399202
 20
508.9495759216813
 30
0.0
  0
SEQEND
  5
14A
330
13D
100
AcDbEntity
  8
Lines
  0
POLYLINE
  5
14B
330
1F
100
AcDbEntity
  8
Lines
100
AcDb2dPolyline
 66
     1
 10
0.0
 20
0.0
 30
0.0
  0
VERTEX
  5
14C
330
14B
100
AcDbEntity
  8
Lines
100
AcDbVertex
100
AcDb2dVertex
 10
1182.234970519037
 20
484.1194406384872
 30
0.0
 42
0.5694128622706861
  0
VERTEX
  5
14D
330
14B
100
AcDbEntity
  8
Lines
100
AcDbVertex
100
AcDb2dVertex
 10
1182.284090616132
 20
484.9611743217536
 30
0.0
 42
0.0819683828135653
  0
VERTEX
  5
14E
330
14B
100
AcDbEntity
  8
Lines
100
AcDbVertex
100
AcDb2dVertex
 10
1182.173696302142
 20
485.0134583371054
 30
0.0
  0
SEQEND
  5
14F
330
14B
100
AcDbEntity
  8
Lines
  0
POLYLINE
  5
150
330
1F
100
AcDbEntity
  8
Lines
100
AcDb2dPolyline
 66
     1
 10
0.0
 20
0.0
 30
0.0
  0
VERTEX
  5
151
330
150
100
AcDbEntity
  8
Lines
100
AcDbVertex
100
AcDb2dVertex
 10
1182.235171671707
 20
483.3455580512158
 30
0.0
  0
VERTEX
  5
152
330
150
100
AcDbEntity
  8
Lines
100
AcDbVertex
100
AcDb2dVertex
 10
1182.156844326572
 20
483.354493736107
 30
0.0
  0
VERTEX
  5
153
330
150
100
AcDbEntity
  8
Lines
100
AcDbVertex
100
AcDb2dVertex
 10
1182.090570009127
 20
483.3634312714013
 30
0.0
  0
VERTEX
  5
154
330
150
100
AcDbEntity
  8
Lines
100
AcDbVertex
100
AcDb2dVertex
 10
1182.061974488724
 20
483.3679015776292
 30
0.0
  0
VERTEX
  5
155
330
150
100
AcDbEntity
  8
Lines
100
AcDbVertex
100
AcDb2dVertex
 10
1182.036418328767
 20
483.3723733600734
 30
0.0
  0
VERTEX
  5
156
330
150
100
AcDbEntity
  8
Lines
100
AcDbVertex
100
AcDb2dVertex
 10
1182.013910230428
 20
483.3768469566057
 30
0.0
  0
VERTEX
  5
157
330
150
100
AcDbEntity
  8
Lines
100
AcDbVertex
100
AcDb2dVertex
 10
1181.994458894883
 20
483.381322705098
 30
0.0
  0
VERTEX
  5
158
330
150
100
AcDbEntity
  8
Lines
100
AcDbVertex
100
AcDb2dVertex
 10
1181.982257035629
 20
483.3845733296062
 30
0.0
  0
VERTEX
  5
159
330
150
100
AcDbEntity
  8
Lines
100
AcDbVertex
100
AcDb2dVertex
 10
1181.976765234547
 20
483.3861982444776
 30
0.0
  0
VERTEX
  5
15A
330
150
100
AcDbEntity
  8
Lines
100
AcDbVertex
100
AcDb2dVertex
 10
1181.971679644818
 20
483.3878229424922
 30
0.0
  0
VERTEX
  5
15B
330
150
100
AcDbEntity
  8
Lines
100
AcDbVertex
100
AcDb2dVertex
 10
1181.967000360687
 20
483.3894474596985
 30
0.0
  0
VERTEX
  5
15C
330
150
100
AcDbEntity
  8
Lines
100
AcDbVertex
100
AcDb2dVertex
 10
1181.962727476394
 20
483.3910718321453
 30
0.0
  0
VERTEX
  5
15D
330
150
100
AcDbEntity
  8
Lines
100
AcDbVertex
100
AcDb2dVertex
 10
1181.960743463638
 20
483.3918839753489
 30
0.0
  0
VERTEX
  5
15E
330
150
100
AcDbEntity
  8
Lines
100
AcDbVertex
100
AcDb2dVertex
 10
1181.958861086183
 20
483.392696095881
 30
0.0
  0
VERTEX
  5
15F
330
150
100
AcDbEntity
  8
Lines
100
AcDbVertex
100
AcDb2dVertex
 10
1181.957080355809
 20
483.3935081982474
 30
0.0
  0
VERTEX
  5
160
330
150
100
AcDbEntity
  8
Lines
100
AcDbVertex
100
AcDb2dVertex
 10
1181.955401284297
 20
483.3943202869543
 30
0.0
  0
VERTEX
  5
161
330
150
100
AcDbEntity
  8
Lines
100
AcDbVertex
100
AcDb2dVertex
 10
1181.953823883427
 20
483.3951323665078
 30
0.0
  0
VERTEX
  5
162
330
150
100
AcDbEntity
  8
Lines
100
AcDbVertex
100
AcDb2dVertex
 10
1181.952348164979
 20
483.395944441414
 30
0.0
  0
VERTEX
  5
163
330
150
100
AcDbEntity
  8
Lines
100
AcDbVertex
100
AcDb2dVertex
 10
1181.950974140734
 20
483.3967565161788
 30
0.0
  0
VERTEX
  5
164
330
150
100
AcDbEntity
  8
Lines
100
AcDbVertex
100
AcDb2dVertex
 10
1181.950325267618
 20
483.3971625549164
 30
0.0
  0
VERTEX
  5
165
330
150
100
AcDbEntity
  8
Lines
100
AcDbVertex
100
AcDb2dVertex
 10
1181.949701822471
 20
483.3975685953085
 30
0.0
  0
VERTEX
  5
166
330
150
100
AcDbEntity
  8
Lines
100
AcDbVertex
100
AcDb2dVertex
 10
1181.949103806765
 20
483.3979746379183
 30
0.0
  0
VERTEX
  5
167
330
150
100
AcDbEntity
  8
Lines
100
AcDbVertex
100
AcDb2dVertex
 10
1181.948531221972
 20
483.398380683309
 30
0.0
  0
VERTEX
  5
168
330
150
100
AcDbEntity
  8
Lines
100
AcDbVertex
100
AcDb2dVertex
 10
1181.947984069565
 20
483.398786732044
 30
0.0
  0
VERTEX
  5
169
330
150
100
AcDbEntity
  8
Lines
100
AcDbVertex
100
AcDb2dVertex
 10
1181.947462351016
 20
483.3991927846865
 30
0.0
  0
VERTEX
  5
16A
330
150
100
AcDbEntity
  8
Lines
100
AcDbVertex
100
AcDb2dVertex
 10
1181.946966067799
 20
483.3995988417997
 30
0.0
  0
VERTEX
  5
16B
330
150
100
AcDbEntity
  8
Lines
100
AcDbVertex
100
AcDb2dVertex
 10
1181.946495221385
 20
483.400004903947
 30
0.0
  0
VERTEX
  5
16C
330
150
100
AcDbEntity
  8
Lines
100
AcDbVertex
100
AcDb2dVertex
 10
1181.946049813247
 20
483.4004109716916
 30
0.0
  0
VERTEX
  5
16D
330
150
100
AcDbEntity
  8
Lines
100
AcDbVertex
100
AcDb2dVertex
 10
1181.945629844857
 20
483.4008170455967
 30
0.0
  0
VERTEX
  5
16E
330
150
100
AcDbEntity
  8
Lines
100
AcDbVertex
100
AcDb2dVertex
 10
1181.945235317689
 20
483.4012231262256
 30
0.0
  0
VERTEX
  5
16F
330
150
100
AcDbEntity
  8
Lines
100
AcDbVertex
100
AcDb2dVertex
 10
1181.944866233215
 20
483.4016292141416
 30
0.0
  0
VERTEX
  5
170
330
150
100
AcDbEntity
  8
Lines
100
AcDbVertex
100
AcDb2dVertex
 10
1181.944691232448
 20
483.4018322610082
 30
0.0
  0
VERTEX
  5
171
330
150
100
AcDbEntity
  8
Lines
100
AcDbVertex
100
AcDb2dVertex
 10
1181.944522592907
 20
483.4020353099078
 30
0.0
  0
VERTEX
  5
172
330
150
100
AcDbEntity
  8
Lines
100
AcDbVertex
100
AcDb2dVertex
 10
1181.944360314775
 20
483.4022383609108
 30
0.0
  0
VERTEX
  5
173
330
150
100
AcDbEntity
  8
Lines
100
AcDbVertex
100
AcDb2dVertex
 10
1181.944204398237
 20
483.4024414140877
 30
0.0
  0
VERTEX
  5
174
330
150
100
AcDbEntity
  8
Lines
100
AcDbVertex
100
AcDb2dVertex
 10
1181.944054843477
 20
483.4026444695087
 30
0.0
  0
VERTEX
  5
175
330
150
100
AcDbEntity
  8
Lines
100
AcDbVertex
100
AcDb2dVertex
 10
1181.943911650679
 20
483.4028475272444
 30
0.0
  0
VERTEX
  5
176
330
150
100
AcDbEntity
  8
Lines
100
AcDbVertex
100
AcDb2dVertex
 10
1181.943774820027
 20
483.403050587365
 30
0.0
  0
VERTEX
  5
177
330
150
100
AcDbEntity
  8
Lines
100
AcDbVertex
100
AcDb2dVertex
 10
1181.943644351705
 20
483.4032536499412
 30
0.0
  0
VERTEX
  5
178
330
150
100
AcDbEntity
  8
Lines
100
AcDbVertex
100
AcDb2dVertex
 10
1181.943520245897
 20
483.4034567150431
 30
0.0
  0
VERTEX
  5
179
330
150
100
AcDbEntity
  8
Lines
100
AcDbVertex
100
AcDb2dVertex
 10
1181.943402502787
 20
483.4036597827413
 30
0.0
  0
VERTEX
  5
17A
330
150
100
AcDbEntity
  8
Lines
100
AcDbVertex
100
AcDb2dVertex
 10
1181.943291122559
 20
483.4038628531061
 30
0.0
  0
VERTEX
  5
17B
330
150
100
AcDbEntity
  8
Lines
100
AcDbVertex
100
AcDb2dVertex
 10
1181.943186105398
 20
483.404065926208
 30
0.0
  0
VERTEX
  5
17C
330
150
100
AcDbEntity
  8
Lines
100
AcDbVertex
100
AcDb2dVertex
 10
1181.943087451487
 20
483.4042690021174
 30
0.0
  0
VERTEX
  5
17D
330
150
100
AcDbEntity
  8
Lines
100
AcDbVertex
100
AcDb2dVertex
 10
1181.942995161011
 20
483.4044720809046
 30
0.0
  0
VERTEX
  5
17E
330
150
100
AcDbEntity
  8
Lines
100
AcDbVertex
100
AcDb2dVertex
 10
1181.942909234153
 20
483.4046751626402
 30
0.0
  0
VERTEX
  5
17F
330
150
100
AcDbEntity
  8
Lines
100
AcDbVertex
100
AcDb2dVertex
 10
1181.942829671098
 20
483.4048782473944
 30
0.0
  0
VERTEX
  5
180
330
150
100
AcDbEntity
  8
Lines
100
AcDbVertex
100
AcDb2dVertex
 10
1181.942756472029
 20
483.4050813352378
 30
0.0
  0
VERTEX
  5
181
330
150
100
AcDbEntity
  8
Lines
100
AcDbVertex
100
AcDb2dVertex
 10
1181.942689637131
 20
483.4052844262407
 30
0.0
  0
VERTEX
  5
182
330
150
100
AcDbEntity
  8
Lines
100
AcDbVertex
100
AcDb2dVertex
 10
1181.942629166588
 20
483.4054875204735
 30
0.0
  0
VERTEX
  5
183
330
150
100
AcDbEntity
  8
Lines
100
AcDbVertex
100
AcDb2dVertex
 10
1181.942575060584
 20
483.4056906180065
 30
0.0
  0
VERTEX
  5
184
330
150
100
AcDbEntity
  8
Lines
100
AcDbVertex
100
AcDb2dVertex
 10
1181.942527319302
 20
483.4058937189103
 30
0.0
  0
VERTEX
  5
185
330
150
100
AcDbEntity
  8
Lines
100
AcDbVertex
100
AcDb2dVertex
 10
1181.942485942928
 20
483.4060968232553
 30
0.0
  0
VERTEX
  5
186
330
150
100
AcDbEntity
  8
Lines
100
AcDbVertex
100
AcDb2dVertex
 10
1181.942450931645
 20
483.4062999311118
 30
0.0
  0
VERTEX
  5
187
330
150
100
AcDbEntity
  8
Lines
100
AcDbVertex
100
AcDb2dVertex
 10
1181.942422285636
 20
483.4065030425502
 30
0.0
  0
VERTEX
  5
188
330
150
100
AcDbEntity
  8
Lines
100
AcDbVertex
100
AcDb2dVertex
 10
1181.942400005087
 20
483.406706157641
 30
0.0
  0
VERTEX
  5
189
330
150
100
AcDbEntity
  8
Lines
100
AcDbVertex
100
AcDb2dVertex
 10
1181.942384090181
 20
483.4069092764546
 30
0.0
  0
VERTEX
  5
18A
330
150
100
AcDbEntity
  8
Lines
100
AcDbVertex
100
AcDb2dVertex
 10
1181.942374541103
 20
483.4071123990614
 30
0.0
  0
VERTEX
  5
18B
330
150
100
AcDbEntity
  8
Lines
100
AcDbVertex
100
AcDb2dVertex
 10
1181.942371358036
 20
483.4073155255317
 30
0.0
  0
VERTEX
  5
18C
330
150
100
AcDbEntity
  8
Lines
100
AcDbVertex
100
AcDb2dVertex
 10
1181.942373078119
 20
483.4074648472318
 30
0.0
  0
VERTEX
  5
18D
330
150
100
AcDbEntity
  8
Lines
100
AcDbVertex
100
AcDb2dVertex
 10
1181.942378238298
 20
483.4076141688586
 30
0.0
  0
VERTEX
  5
18E
330
150
100
AcDbEntity
  8
Lines
100
AcDbVertex
100
AcDb2dVertex
 10
1181.942386838464
 20
483.4077634904127
 30
0.0
  0
VERTEX
  5
18F
330
150
100
AcDbEntity
  8
Lines
100
AcDbVertex
100
AcDb2dVertex
 10
1181.942398878512
 20
483.407912811895
 30
0.0
  0
VERTEX
  5
190
330
150
100
AcDbEntity
  8
Lines
100
AcDbVertex
100
AcDb2dVertex
 10
1181.942414358333
 20
483.4080621333063
 30
0.0
  0
VERTEX
  5
191
330
150
100
AcDbEntity
  8
Lines
100
AcDbVertex
100
AcDb2dVertex
 10
1181.942433277819
 20
483.4082114546476
 30
0.0
  0
VERTEX
  5
192
330
150
100
AcDbEntity
  8
Lines
100
AcDbVertex
100
AcDb2dVertex
 10
1181.942455636864
 20
483.4083607759197
 30
0.0
  0
VERTEX
  5
193
330
150
100
AcDbEntity
  8
Lines
100
AcDbVertex
100
AcDb2dVertex
 10
1181.942481435361
 20
483.4085100971236
 30
0.0
  0
VERTEX
  5
194
330
150
100
AcDbEntity
  8
Lines
100
AcDbVertex
100
AcDb2dVertex
 10
1181.942510673201
 20
483.4086594182598
 30
0.0
  0
VERTEX
  5
195
330
150
100
AcDbEntity
  8
Lines
100
AcDbVertex
100
AcDb2dVertex
 10
1181.942543350278
 20
483.4088087393295
 30
0.0
  0
VERTEX
  5
196
330
150
100
AcDbEntity
  8
Lines
100
AcDbVertex
100
AcDb2dVertex
 10
1181.942579466485
 20
483.4089580603335
 30
0.0
  0
VERTEX
  5
197
330
150
100
AcDbEntity
  8
Lines
100
AcDbVertex
100
AcDb2dVertex
 10
1181.942619021713
 20
483.4091073812725
 30
0.0
  0
VERTEX
  5
198
330
150
100
AcDbEntity
  8
Lines
100
AcDbVertex
100
AcDb2dVertex
 10
1181.942662015856
 20
483.4092567021475
 30
0.0
  0
VERTEX
  5
199
330
150
100
AcDbEntity
  8
Lines
100
AcDbVertex
100
AcDb2dVertex
 10
1181.942708448807
 20
483.4094060229594
 30
0.0
  0
VERTEX
  5
19A
330
150
100
AcDbEntity
  8
Lines
100
AcDbVertex
100
AcDb2dVertex
 10
1181.942758320457
 20
483.4095553437089
 30
0.0
  0
VERTEX
  5
19B
330
150
100
AcDbEntity
  8
Lines
100
AcDbVertex
100
AcDb2dVertex
 10
1181.9428116307
 20
483.4097046643969
 30
0.0
  0
VERTEX
  5
19C
330
150
100
AcDbEntity
  8
Lines
100
AcDbVertex
100
AcDb2dVertex
 10
1181.942868379429
 20
483.4098539850244
 30
0.0
  0
VERTEX
  5
19D
330
150
100
AcDbEntity
  8
Lines
100
AcDbVertex
100
AcDb2dVertex
 10
1181.942928566535
 20
483.4100033055922
 30
0.0
  0
VERTEX
  5
19E
330
150
100
AcDbEntity
  8
Lines
100
AcDbVertex
100
AcDb2dVertex
 10
1181.942992191912
 20
483.4101526261012
 30
0.0
  0
VERTEX
  5
19F
330
150
100
AcDbEntity
  8
Lines
100
AcDbVertex
100
AcDb2dVertex
 10
1181.943059255452
 20
483.4103019465522
 30
0.0
  0
VERTEX
  5
1A0
330
150
100
AcDbEntity
  8
Lines
100
AcDbVertex
100
AcDb2dVertex
 10
1181.943129757049
 20
483.410451266946
 30
0.0
  0
VERTEX
  5
1A1
330
150
100
AcDbEntity
  8
Lines
100
AcDbVertex
100
AcDb2dVertex
 10
1181.943203696594
 20
483.4106005872835
 30
0.0
  0
VERTEX
  5
1A2
330
150
100
AcDbEntity
  8
Lines
100
AcDbVertex
100
AcDb2dVertex
 10
1181.94328107398
 20
483.4107499075656
 30
0.0
  0
VERTEX
  5
1A3
330
150
100
AcDbEntity
  8
Lines
100
AcDbVertex
100
AcDb2dVertex
 10
1181.943361889101
 20
483.4108992277932
 30
0.0
  0
VERTEX
  5
1A4
330
150
100
AcDbEntity
  8
Lines
100
AcDbVertex
100
AcDb2dVertex
 10
1181.943533832114
 20
483.411197868088
 30
0.0
  0
VERTEX
  5
1A5
330
150
100
AcDbEntity
  8
Lines
100
AcDbVertex
100
AcDb2dVertex
 10
1181.943719524776
 20
483.4114965081752
 30
0.0
  0
VERTEX
  5
1A6
330
150
100
AcDbEntity
  8
Lines
100
AcDbVertex
100
AcDb2dVertex
 10
1181.943918966227
 20
483.4117951480613
 30
0.0
  0
VERTEX
  5
1A7
330
150
100
AcDbEntity
  8
Lines
100
AcDbVertex
100
AcDb2dVertex
 10
1181.944132155609
 20
483.4120937877534
 30
0.0
  0
VERTEX
  5
1A8
330
150
100
AcDbEntity
  8
Lines
100
AcDbVertex
100
AcDb2dVertex
 10
1181.944359092064
 20
483.4123924272584
 30
0.0
  0
VERTEX
  5
1A9
330
150
100
AcDbEntity
  8
Lines
100
AcDbVertex
100
AcDb2dVertex
 10
1181.944599774732
 20
483.412691066583
 30
0.0
  0
VERTEX
  5
1AA
330
150
100
AcDbEntity
  8
Lines
100
AcDbVertex
100
AcDb2dVertex
 10
1181.944854202754
 20
483.4129897057343
 30
0.0
  0
VERTEX
  5
1AB
330
150
100
AcDbEntity
  8
Lines
100
AcDbVertex
100
AcDb2dVertex
 10
1181.945122375273
 20
483.413288344719
 30
0.0
  0
VERTEX
  5
1AC
330
150
100
AcDbEntity
  8
Lines
100
AcDbVertex
100
AcDb2dVertex
 10
1181.94540429143
 20
483.4135869835442
 30
0.0
  0
VERTEX
  5
1AD
330
150
100
AcDbEntity
  8
Lines
100
AcDbVertex
100
AcDb2dVertex
 10
1181.945699950366
 20
483.4138856222166
 30
0.0
  0
VERTEX
  5
1AE
330
150
100
AcDbEntity
  8
Lines
100
AcDbVertex
100
AcDb2dVertex
 10
1181.946009351222
 20
483.4141842607434
 30
0.0
  0
VERTEX
  5
1AF
330
150
100
AcDbEntity
  8
Lines
100
AcDbVertex
100
AcDb2dVertex
 10
1181.94633249314
 20
483.4144828991311
 30
0.0
  0
VERTEX
  5
1B0
330
150
100
AcDbEntity
  8
Lines
100
AcDbVertex
100
AcDb2dVertex
 10
1181.94666937526
 20
483.4147815373869
 30
0.0
  0
VERTEX
  5
1B1
330
150
100
AcDbEntity
  8
Lines
100
AcDbVertex
100
AcDb2dVertex
 10
1181.947019996725
 20
483.4150801755176
 30
0.0
  0
VERTEX
  5
1B2
330
150
100
AcDbEntity
  8
Lines
100
AcDbVertex
100
AcDb2dVertex
 10
1181.947384356677
 20
483.4153788135301
 30
0.0
  0
VERTEX
  5
1B3
330
150
100
AcDbEntity
  8
Lines
100
AcDbVertex
100
AcDb2dVertex
 10
1181.947762454255
 20
483.4156774514312
 30
0.0
  0
VERTEX
  5
1B4
330
150
100
AcDbEntity
  8
Lines
100
AcDbVertex
100
AcDb2dVertex
 10
1181.948559858858
 20
483.416274726927
 30
0.0
  0
VERTEX
  5
1B5
330
150
100
AcDbEntity
  8
Lines
100
AcDbVertex
100
AcDb2dVertex
 10
1181.949412203666
 20
483.4168720020604
 30
0.0
  0
VERTEX
  5
1B6
330
150
100
AcDbEntity
  8
Lines
100
AcDbVertex
100
AcDb2dVertex
 10
1181.95031948181
 20
483.4174692768862
 30
0.0
  0
VERTEX
  5
1B7
330
150
100
AcDbEntity
  8
Lines
100
AcDbVertex
100
AcDb2dVertex
 10
1181.951281686421
 20
483.4180665514599
 30
0.0
  0
VERTEX
  5
1B8
330
150
100
AcDbEntity
  8
Lines
100
AcDbVertex
100
AcDb2dVertex
 10
1181.952298810629
 20
483.4186638258365
 30
0.0
  0
VERTEX
  5
1B9
330
150
100
AcDbEntity
  8
Lines
100
AcDbVertex
100
AcDb2dVertex
 10
1181.953370847565
 20
483.4192611000711
 30
0.0
  0
VERTEX
  5
1BA
330
150
100
AcDbEntity
  8
Lines
100
AcDbVertex
100
AcDb2dVertex
 10
1181.954497790361
 20
483.4198583742191
 30
0.0
  0
VERTEX
  5
1BB
330
150
100
AcDbEntity
  8
Lines
100
AcDbVertex
100
AcDb2dVertex
 10
1181.955679632146
 20
483.4204556483353
 30
0.0
  0
VERTEX
  5
1BC
330
150
100
AcDbEntity
  8
Lines
100
AcDbVertex
100
AcDb2dVertex
 10
1181.958207985211
 20
483.4216501966937
 30
0.0
  0
VERTEX
  5
1BD
330
150
100
AcDbEntity
  8
Lines
100
AcDbVertex
100
AcDb2dVertex
 10
1181.960955851807
 20
483.4228447455876
 30
0.0
  0
VERTEX
  5
1BE
330
150
100
AcDbEntity
  8
Lines
100
AcDbVertex
100
AcDb2dVertex
 10
1181.96392317698
 20
483.4240392954582
 30
0.0
  0
VERTEX
  5
1BF
330
150
100
AcDbEntity
  8
Lines
100
AcDbVertex
100
AcDb2dVertex
 10
1181.967109905779
 20
483.4252338467469
 30
0.0
  0
VERTEX
  5
1C0
330
150
100
AcDbEntity
  8
Lines
100
AcDbVertex
100
AcDb2dVertex
 10
1181.970515983249
 20
483.4264283998948
 30
0.0
  0
VERTEX
  5
1C1
330
150
100
AcDbEntity
  8
Lines
100
AcDbVertex
100
AcDb2dVertex
 10
1181.977985964391
 20
483.4288175135335
 30
0.0
  0
VERTEX
  5
1C2
330
150
100
AcDbEntity
  8
Lines
100
AcDbVertex
100
AcDb2dVertex
 10
1181.986332680783
 20
483.4312066399046
 30
0.0
  0
VERTEX
  5
1C3
330
150
100
AcDbEntity
  8
Lines
100
AcDbVertex
100
AcDb2dVertex
 10
1181.9955556928
 20
483.4335957825382
 30
0.0
  0
VERTEX
  5
1C4
330
150
100
AcDbEntity
  8
Lines
100
AcDbVertex
100
AcDb2dVertex
 10
1182.005654560819
 20
483.4359849449644
 30
0.0
  0
VERTEX
  5
1C5
330
150
100
AcDbEntity
  8
Lines
100
AcDbVertex
100
AcDb2dVertex
 10
1182.028478106361
 20
483.4407633433155
 30
0.0
  0
VERTEX
  5
1C6
330
150
100
AcDbEntity
  8
Lines
100
AcDbVertex
100
AcDb2dVertex
 10
1182.054799800413
 20
483.445541863199
 30
0.0
  0
VERTEX
  5
1C7
330
150
100
AcDbEntity
  8
Lines
100
AcDbVertex
100
AcDb2dVertex
 10
1182.10690839521
 20
483.4535757569085
 30
0.0
  0
VERTEX
  5
1C8
330
150
100
AcDbEntity
  8
Lines
100
AcDbVertex
100
AcDb2dVertex
 10
1182.168770892596
 20
483.4616041615117
 30
0.0
  0
VERTEX
  5
1C9
330
150
100
AcDbEntity
  8
Lines
100
AcDbVertex
100
AcDb2dVertex
 10
1182.3215145617
 20
483.4776524950377
 30
0.0
  0
VERTEX
  5
1CA
330
150
100
AcDbEntity
  8
Lines
100
AcDbVertex
100
AcDb2dVertex
 10
1182.741375363187
 20
483.5097712008442
 30
0.0
  0
VERTEX
  5
1CB
330
150
100
AcDbEntity
  8
Lines
100
AcDbVertex
100
AcDb2dVertex
 10
1184.01250033536
 20
483.5739782852743
 30
0.0
  0
VERTEX
  5
1CC
330
150
100
AcDbEntity
  8
Lines
100
AcDbVertex
100
AcDb2dVertex
 10
1185.500000000013
 20
483.6286598396628
 30
0.0
  0
VERTEX
  5
1CD
330
150
100
AcDbEntity
  8
Lines
100
AcDbVertex
100
AcDb2dVertex
 10
1192.499999129395
 20
483.8183259350115
 30
0.0
  0
VERTEX
  5
1CE
330
150
100
AcDbEntity
  8
Lines
100
AcDbVertex
100
AcDb2dVertex
 10
1195.552972467121
 20
483.8950934808644
 30
0.0
 42
0.0007367645322822
  0
VERTEX
  5
1CF
330
150
100
AcDbEntity
  8
Lines
100
AcDbVertex
100
AcDb2dVertex
 10
1197.916874684821
 20
483.9593055081536
 30
0.0
 42
0.0015083653471991
  0
VERTEX
  5
1D0
330
150
100
AcDbEntity
  8
Lines
100
AcDbVertex
100
AcDb2dVertex
 10
1199.956615138405
 20
484.0235311388249
 30
0.0
 42
0.0000099845950133
  0
VERTEX
  5
1D1
330
150
100
AcDbEntity
  8
Lines
100
AcDbVertex
100
AcDb2dVertex
 10
1199.965369319767
 20
484.0238377835545
 30
0.0
 42
0.0031730827183814
  0
VERTEX
  5
1D2
330
150
100
AcDbEntity
  8
Lines
100
AcDbVertex
100
AcDb2dVertex
 10
1201.549270192334
 20
484.0877517853344
 30
0.0
  0
VERTEX
  5
1D3
330
150
100
AcDbEntity
  8
Lines
100
AcDbVertex
100
AcDb2dVertex
 10
1202.599365811232
 20
484.1519609067498
 30
0.0
  0
VERTEX
  5
1D4
330
150
100
AcDbEntity
  8
Lines
100
AcDbVertex
100
AcDb2dVertex
 10
1202.769125882111
 20
484.1680237715454
 30
0.0
  0
VERTEX
  5
1D5
330
150
100
AcDbEntity
  8
Lines
100
AcDbVertex
100
AcDb2dVertex
 10
1202.839473340117
 20
484.1760489925481
 30
0.0
  0
VERTEX
  5
1D6
330
150
100
AcDbEntity
  8
Lines
100
AcDbVertex
100
AcDb2dVertex
 10
1202.900079913246
 20
484.1840725947421
 30
0.0
  0
VERTEX
  5
1D7
330
150
100
AcDbEntity
  8
Lines
100
AcDbVertex
100
AcDb2dVertex
 10
1202.950906226557
 20
484.1920964697183
 30
0.0
  0
VERTEX
  5
1D8
330
150
100
AcDbEntity
  8
Lines
100
AcDbVertex
100
AcDb2dVertex
 10
1202.972639481112
 20
484.1961091006219
 30
0.0
  0
VERTEX
  5
1D9
330
150
100
AcDbEntity
  8
Lines
100
AcDbVertex
100
AcDb2dVertex
 10
1202.99191290511
 20
484.2001225090678
 30
0.0
  0
VERTEX
  5
1DA
330
150
100
AcDbEntity
  8
Lines
100
AcDbVertex
100
AcDb2dVertex
 10
1203.008721576682
 20
484.2041369315048
 30
0.0
  0
VERTEX
  5
1DB
330
150
100
AcDbEntity
  8
Lines
100
AcDbVertex
100
AcDb2dVertex
 10
1203.016200092226
 20
484.2061445968601
 30
0.0
  0
VERTEX
  5
1DC
330
150
100
AcDbEntity
  8
Lines
100
AcDbVertex
100
AcDb2dVertex
 10
1203.023060573962
 20
484.2081526043816
 30
0.0
  0
VERTEX
  5
1DD
330
150
100
AcDbEntity
  8
Lines
100
AcDbVertex
100
AcDb2dVertex
 10
1203.029302406659
 20
484.2101609836253
 30
0.0
  0
VERTEX
  5
1DE
330
150
100
AcDbEntity
  8
Lines
100
AcDbVertex
100
AcDb2dVertex
 10
1203.032191137356
 20
484.2111653218793
 30
0.0
  0
VERTEX
  5
1DF
330
150
100
AcDbEntity
  8
Lines
100
AcDbVertex
100
AcDb2dVertex
 10
1203.034924975082
 20
484.2121697641473
 30
0.0
  0
VERTEX
  5
1E0
330
150
100
AcDbEntity
  8
Lines
100
AcDbVertex
100
AcDb2dVertex
 10
1203.03750384293
 20
484.213174314124
 30
0.0
  0
VERTEX
  5
1E1
330
150
100
AcDbEntity
  8
Lines
100
AcDbVertex
100
AcDb2dVertex
 10
1203.039927663998
 20
484.2141789755038
 30
0.0
  0
VERTEX
  5
1E2
330
150
100
AcDbEntity
  8
Lines
100
AcDbVertex
100
AcDb2dVertex
 10
1203.04219636138
 20
484.2151837519812
 30
0.0
  0
VERTEX
  5
1E3
330
150
100
AcDbEntity
  8
Lines
100
AcDbVertex
100
AcDb2dVertex
 10
1203.044309858174
 20
484.2161886472508
 30
0.0
  0
VERTEX
  5
1E4
330
150
100
AcDbEntity
  8
Lines
100
AcDbVertex
100
AcDb2dVertex
 10
1203.057626900755
 20
484.229327631778
 30
0.0
  0
VERTEX
  5
1E5
330
150
100
AcDbEntity
  8
Lines
100
AcDbVertex
100
AcDb2dVertex
 10
1203.057626900755
 20
484.8765125243442
 30
0.0
  0
SEQEND
  5
1E6
330
150
100
AcDbEntity
  8
Lines
  0
POLYLINE
  5
1E7
330
1F
100
AcDbEntity
  8
Lines
100
AcDb2dPolyline
 66
     1
 10
0.0
 20
0.0
 30
0.0
  0
VERTEX
  5
1E8
330
1E7
100
AcDbEntity
  8
Lines
100
AcDbVertex
100
AcDb2dVertex
 10
1182.235292930812
 20
484.9895583344205
 30
0.0
  0
VERTEX
  5
1E9
330
1E7
100
AcDbEntity
  8
Lines
100
AcDbVertex
100
AcDb2dVertex
 10
1182.107986138423
 20
485.0049311674061
 30
0.0
  0
VERTEX
  5
1EA
330
1E7
100
AcDbEntity
  8
Lines
100
AcDbVertex
100
AcDb2dVertex
 10
1182.057790323159
 20
485.0126122973946
 30
0.0
  0
VERTEX
  5
1EB
330
1E7
100
AcDbEntity
  8
Lines
100
AcDbVertex
100
AcDb2dVertex
 10
1182.036067655861
 20
485.0164522632102
 30
0.0
  0
VERTEX
  5
1EC
330
1E7
100
AcDbEntity
  8
Lines
100
AcDbVertex
100
AcDb2dVertex
 10
1182.016599280254
 20
485.0202921047915
 30
0.0
  0
VERTEX
  5
1ED
330
1E7
100
AcDbEntity
  8
Lines
100
AcDbVertex
100
AcDb2dVertex
 10
1181.999388294939
 20
485.0241320285519
 30
0.0
  0
VERTEX
  5
1EE
330
1E7
100
AcDbEntity
  8
Lines
100
AcDbVertex
100
AcDb2dVertex
 10
1181.991630291953
 20
485.0260520857536
 30
0.0
  0
VERTEX
  5
1EF
330
1E7
100
AcDbEntity
  8
Lines
100
AcDbVertex
100
AcDb2dVertex
 10
1181.984437798515
 20
485.0279722409051
 30
0.0
  0
VERTEX
  5
1F0
330
1E7
100
AcDbEntity
  8
Lines
100
AcDbVertex
100
AcDb2dVertex
 10
1181.977811201951
 20
485.0298925198082
 30
0.0
  0
VERTEX
  5
1F1
330
1E7
100
AcDbEntity
  8
Lines
100
AcDbVertex
100
AcDb2dVertex
 10
1181.971750889584
 20
485.0318129482646
 30
0.0
  0
VERTEX
  5
1F2
330
1E7
100
AcDbEntity
  8
Lines
100
AcDbVertex
100
AcDb2dVertex
 10
1181.966257248741
 20
485.0337335520759
 30
0.0
  0
VERTEX
  5
1F3
330
1E7
100
AcDbEntity
  8
Lines
100
AcDbVertex
100
AcDb2dVertex
 10
1181.96372305118
 20
485.0346939278027
 30
0.0
  0
VERTEX
  5
1F4
330
1E7
100
AcDbEntity
  8
Lines
100
AcDbVertex
100
AcDb2dVertex
 10
1181.961330666746
 20
485.0356543570439
 30
0.0
  0
VERTEX
  5
1F5
330
1E7
100
AcDbEntity
  8
Lines
100
AcDbVertex
100
AcDb2dVertex
 10
1181.959080143856
 20
485.0366148430246
 30
0.0
  0
VERTEX
  5
1F6
330
1E7
100
AcDbEntity
  8
Lines
100
AcDbVertex
100
AcDb2dVertex
 10
1181.956971530925
 20
485.0375753889703
 30
0.0
  0
VERTEX
  5
1F7
330
1E7
100
AcDbEntity
  8
Lines
100
AcDbVertex
100
AcDb2dVertex
 10
1181.955004876368
 20
485.0385359981059
 30
0.0
  0
VERTEX
  5
1F8
330
1E7
100
AcDbEntity
  8
Lines
100
AcDbVertex
100
AcDb2dVertex
 10
1181.953180228602
 20
485.0394966736566
 30
0.0
  0
VERTEX
  5
1F9
330
1E7
100
AcDbEntity
  8
Lines
100
AcDbVertex
100
AcDb2dVertex
 10
1181.952321172395
 20
485.0399770373456
 30
0.0
  0
VERTEX
  5
1FA
330
1E7
100
AcDbEntity
  8
Lines
100
AcDbVertex
100
AcDb2dVertex
 10
1181.951497636041
 20
485.0404574188478
 30
0.0
  0
VERTEX
  5
1FB
330
1E7
100
AcDbEntity
  8
Lines
100
AcDbVertex
100
AcDb2dVertex
 10
1181.950709625593
 20
485.0409378185665
 30
0.0
  0
VERTEX
  5
1FC
330
1E7
100
AcDbEntity
  8
Lines
100
AcDbVertex
100
AcDb2dVertex
 10
1181.949957147102
 20
485.0414182369047
 30
0.0
  0
VERTEX
  5
1FD
330
1E7
100
AcDbEntity
  8
Lines
100
AcDbVertex
100
AcDb2dVertex
 10
1181.949240206621
 20
485.0418986742657
 30
0.0
  0
VERTEX
  5
1FE
330
1E7
100
AcDbEntity
  8
Lines
100
AcDbVertex
100
AcDb2dVertex
 10
1181.948558810201
 20
485.0423791310525
 30
0.0
  0
VERTEX
  5
1FF
330
1E7
100
AcDbEntity
  8
Lines
100
AcDbVertex
100
AcDb2dVertex
 10
1181.947912963893
 20
485.0428596076683
 30
0.0
  0
VERTEX
  5
200
330
1E7
100
AcDbEntity
  8
Lines
100
AcDbVertex
100
AcDb2dVertex
 10
1181.947302673752
 20
485.0433401045163
 30
0.0
  0
VERTEX
  5
201
330
1E7
100
AcDbEntity
  8
Lines
100
AcDbVertex
100
AcDb2dVertex
 10
1181.946727945827
 20
485.0438206219996
 30
0.0
  0
VERTEX
  5
202
330
1E7
100
AcDbEntity
  8
Lines
100
AcDbVertex
100
AcDb2dVertex
 10
1181.946188786171
 20
485.0443011605213
 30
0.0
  0
VERTEX
  5
203
330
1E7
100
AcDbEntity
  8
Lines
100
AcDbVertex
100
AcDb2dVertex
 10
1181.945932546335
 20
485.0445414377976
 30
0.0
  0
VERTEX
  5
204
330
1E7
100
AcDbEntity
  8
Lines
100
AcDbVertex
100
AcDb2dVertex
 10
1181.945685200837
 20
485.0447817204848
 30
0.0
  0
VERTEX
  5
205
330
1E7
100
AcDbEntity
  8
Lines
100
AcDbVertex
100
AcDb2dVertex
 10
1181.945446750431
 20
485.0450220086331
 30
0.0
  0
VERTEX
  5
206
330
1E7
100
AcDbEntity
  8
Lines
100
AcDbVertex
100
AcDb2dVertex
 10
1181.945217195875
 20
485.0452623022929
 30
0.0
  0
VERTEX
  5
207
330
1E7
100
AcDbEntity
  8
Lines
100
AcDbVertex
100
AcDb2dVertex
 10
1181.944996537925
 20
485.0455026015148
 30
0.0
  0
VERTEX
  5
208
330
1E7
100
AcDbEntity
  8
Lines
100
AcDbVertex
100
AcDb2dVertex
 10
1181.944784777338
 20
485.0457429063491
 30
0.0
  0
VERTEX
  5
209
330
1E7
100
AcDbEntity
  8
Lines
100
AcDbVertex
100
AcDb2dVertex
 10
1181.94458191487
 20
485.0459832168461
 30
0.0
  0
VERTEX
  5
20A
330
1E7
100
AcDbEntity
  8
Lines
100
AcDbVertex
100
AcDb2dVertex
 10
1181.944387951278
 20
485.0462235330563
 30
0.0
  0
VERTEX
  5
20B
330
1E7
100
AcDbEntity
  8
Lines
100
AcDbVertex
100
AcDb2dVertex
 10
1181.944202887318
 20
485.04646385503
 30
0.0
  0
VERTEX
  5
20C
330
1E7
100
AcDbEntity
  8
Lines
100
AcDbVertex
100
AcDb2dVertex
 10
1181.944026723747
 20
485.0467041828176
 30
0.0
  0
VERTEX
  5
20D
330
1E7
100
AcDbEntity
  8
Lines
100
AcDbVertex
100
AcDb2dVertex
 10
1181.943859461321
 20
485.0469445164696
 30
0.0
  0
VERTEX
  5
20E
330
1E7
100
AcDbEntity
  8
Lines
100
AcDbVertex
100
AcDb2dVertex
 10
1181.943701100796
 20
485.0471848560364
 30
0.0
  0
VERTEX
  5
20F
330
1E7
100
AcDbEntity
  8
Lines
100
AcDbVertex
100
AcDb2dVertex
 10
1181.94355164293
 20
485.0474252015684
 30
0.0
  0
VERTEX
  5
210
330
1E7
100
AcDbEntity
  8
Lines
100
AcDbVertex
100
AcDb2dVertex
 10
1181.943411088479
 20
485.0476655531158
 30
0.0
  0
VERTEX
  5
211
330
1E7
100
AcDbEntity
  8
Lines
100
AcDbVertex
100
AcDb2dVertex
 10
1181.943279438199
 20
485.0479059107291
 30
0.0
  0
VERTEX
  5
212
330
1E7
100
AcDbEntity
  8
Lines
100
AcDbVertex
100
AcDb2dVertex
 10
1181.943156692846
 20
485.0481462744588
 30
0.0
  0
VERTEX
  5
213
330
1E7
100
AcDbEntity
  8
Lines
100
AcDbVertex
100
AcDb2dVertex
 10
1181.943042853178
 20
485.0483866443552
 30
0.0
  0
VERTEX
  5
214
330
1E7
100
AcDbEntity
  8
Lines
100
AcDbVertex
100
AcDb2dVertex
 10
1181.94293791995
 20
485.0486270204687
 30
0.0
  0
VERTEX
  5
215
330
1E7
100
AcDbEntity
  8
Lines
100
AcDbVertex
100
AcDb2dVertex
 10
1181.942841893919
 20
485.0488674028496
 30
0.0
  0
VERTEX
  5
216
330
1E7
100
AcDbEntity
  8
Lines
100
AcDbVertex
100
AcDb2dVertex
 10
1181.942754775842
 20
485.0491077915485
 30
0.0
  0
VERTEX
  5
217
330
1E7
100
AcDbEntity
  8
Lines
100
AcDbVertex
100
AcDb2dVertex
 10
1181.942676566475
 20
485.0493481866157
 30
0.0
  0
VERTEX
  5
218
330
1E7
100
AcDbEntity
  8
Lines
100
AcDbVertex
100
AcDb2dVertex
 10
1181.942607266575
 20
485.0495885881015
 30
0.0
  0
VERTEX
  5
219
330
1E7
100
AcDbEntity
  8
Lines
100
AcDbVertex
100
AcDb2dVertex
 10
1181.942546876898
 20
485.0498289960564
 30
0.0
  0
VERTEX
  5
21A
330
1E7
100
AcDbEntity
  8
Lines
100
AcDbVertex
100
AcDb2dVertex
 10
1181.942495398201
 20
485.0500694105307
 30
0.0
  0
VERTEX
  5
21B
330
1E7
100
AcDbEntity
  8
Lines
100
AcDbVertex
100
AcDb2dVertex
 10
1181.94245283124
 20
485.050309831575
 30
0.0
  0
VERTEX
  5
21C
330
1E7
100
AcDbEntity
  8
Lines
100
AcDbVertex
100
AcDb2dVertex
 10
1181.942419176771
 20
485.0505502592395
 30
0.0
  0
VERTEX
  5
21D
330
1E7
100
AcDbEntity
  8
Lines
100
AcDbVertex
100
AcDb2dVertex
 10
1181.942394435551
 20
485.0507906935746
 30
0.0
  0
VERTEX
  5
21E
330
1E7
100
AcDbEntity
  8
Lines
100
AcDbVertex
100
AcDb2dVertex
 10
1181.942378608337
 20
485.0510311346308
 30
0.0
  0
VERTEX
  5
21F
330
1E7
100
AcDbEntity
  8
Lines
100
AcDbVertex
100
AcDb2dVertex
 10
1181.942373170612
 20
485.0511844581166
 30
0.0
  0
VERTEX
  5
220
330
1E7
100
AcDbEntity
  8
Lines
100
AcDbVertex
100
AcDb2dVertex
 10
1181.942371358036
 20
485.0513377793603
 30
0.0
  0
VERTEX
  5
221
330
1E7
100
AcDbEntity
  8
Lines
100
AcDbVertex
100
AcDb2dVertex
 10
1181.942376176176
 20
485.0515877526955
 30
0.0
  0
VERTEX
  5
222
330
1E7
100
AcDbEntity
  8
Lines
100
AcDbVertex
100
AcDb2dVertex
 10
1181.942390630039
 20
485.0518377185552
 30
0.0
  0
VERTEX
  5
223
330
1E7
100
AcDbEntity
  8
Lines
100
AcDbVertex
100
AcDb2dVertex
 10
1181.942414718785
 20
485.0520876769992
 30
0.0
  0
VERTEX
  5
224
330
1E7
100
AcDbEntity
  8
Lines
100
AcDbVertex
100
AcDb2dVertex
 10
1181.942448441576
 20
485.0523376280869
 30
0.0
  0
VERTEX
  5
225
330
1E7
100
AcDbEntity
  8
Lines
100
AcDbVertex
100
AcDb2dVertex
 10
1181.942491797576
 20
485.0525875718781
 30
0.0
  0
VERTEX
  5
226
330
1E7
100
AcDbEntity
  8
Lines
100
AcDbVertex
100
AcDb2dVertex
 10
1181.942544785944
 20
485.0528375084324
 30
0.0
  0
VERTEX
  5
227
330
1E7
100
AcDbEntity
  8
Lines
100
AcDbVertex
100
AcDb2dVertex
 10
1181.942607405844
 20
485.0530874378094
 30
0.0
  0
VERTEX
  5
228
330
1E7
100
AcDbEntity
  8
Lines
100
AcDbVertex
100
AcDb2dVertex
 10
1181.942679656437
 20
485.0533373600688
 30
0.0
  0
VERTEX
  5
229
330
1E7
100
AcDbEntity
  8
Lines
100
AcDbVertex
100
AcDb2dVertex
 10
1181.942761536885
 20
485.0535872752702
 30
0.0
  0
VERTEX
  5
22A
330
1E7
100
AcDbEntity
  8
Lines
100
AcDbVertex
100
AcDb2dVertex
 10
1181.942853046349
 20
485.0538371834733
 30
0.0
  0
VERTEX
  5
22B
330
1E7
100
AcDbEntity
  8
Lines
100
AcDbVertex
100
AcDb2dVertex
 10
1181.942954183992
 20
485.0540870847377
 30
0.0
  0
VERTEX
  5
22C
330
1E7
100
AcDbEntity
  8
Lines
100
AcDbVertex
100
AcDb2dVertex
 10
1181.943064948976
 20
485.0543369791232
 30
0.0
  0
VERTEX
  5
22D
330
1E7
100
AcDbEntity
  8
Lines
100
AcDbVertex
100
AcDb2dVertex
 10
1181.943185340462
 20
485.0545868666893
 30
0.0
  0
VERTEX
  5
22E
330
1E7
100
AcDbEntity
  8
Lines
100
AcDbVertex
100
AcDb2dVertex
 10
1181.943315357611
 20
485.0548367474955
 30
0.0
  0
VERTEX
  5
22F
330
1E7
100
AcDbEntity
  8
Lines
100
AcDbVertex
100
AcDb2dVertex
 10
1181.943454999588
 20
485.0550866216017
 30
0.0
  0
VERTEX
  5
230
330
1E7
100
AcDbEntity
  8
Lines
100
AcDbVertex
100
AcDb2dVertex
 10
1181.943604265551
 20
485.0553364890674
 30
0.0
  0
VERTEX
  5
231
330
1E7
100
AcDbEntity
  8
Lines
100
AcDbVertex
100
AcDb2dVertex
 10
1181.943763154665
 20
485.0555863499523
 30
0.0
  0
VERTEX
  5
232
330
1E7
100
AcDbEntity
  8
Lines
100
AcDbVertex
100
AcDb2dVertex
 10
1181.94393166609
 20
485.0558362043161
 30
0.0
  0
VERTEX
  5
233
330
1E7
100
AcDbEntity
  8
Lines
100
AcDbVertex
100
AcDb2dVertex
 10
1181.944109798988
 20
485.0560860522182
 30
0.0
  0
VERTEX
  5
234
330
1E7
100
AcDbEntity
  8
Lines
100
AcDbVertex
100
AcDb2dVertex
 10
1181.944297552522
 20
485.0563358937185
 30
0.0
  0
VERTEX
  5
235
330
1E7
100
AcDbEntity
  8
Lines
100
AcDbVertex
100
AcDb2dVertex
 10
1181.944494925852
 20
485.0565857288766
 30
0.0
  0
VERTEX
  5
236
330
1E7
100
AcDbEntity
  8
Lines
100
AcDbVertex
100
AcDb2dVertex
 10
1181.944701918142
 20
485.056835557752
 30
0.0
  0
VERTEX
  5
237
330
1E7
100
AcDbEntity
  8
Lines
100
AcDbVertex
100
AcDb2dVertex
 10
1181.944918528552
 20
485.0570853804046
 30
0.0
  0
VERTEX
  5
238
330
1E7
100
AcDbEntity
  8
Lines
100
AcDbVertex
100
AcDb2dVertex
 10
1181.945144756245
 20
485.0573351968939
 30
0.0
  0
VERTEX
  5
239
330
1E7
100
AcDbEntity
  8
Lines
100
AcDbVertex
100
AcDb2dVertex
 10
1181.945380600382
 20
485.0575850072794
 30
0.0
  0
VERTEX
  5
23A
330
1E7
100
AcDbEntity
  8
Lines
100
AcDbVertex
100
AcDb2dVertex
 10
1181.945626060126
 20
485.0578348116209
 30
0.0
  0
VERTEX
  5
23B
330
1E7
100
AcDbEntity
  8
Lines
100
AcDbVertex
100
AcDb2dVertex
 10
1181.945881134638
 20
485.0580846099781
 30
0.0
  0
VERTEX
  5
23C
330
1E7
100
AcDbEntity
  8
Lines
100
AcDbVertex
100
AcDb2dVertex
 10
1181.946145823079
 20
485.0583344024105
 30
0.0
  0
VERTEX
  5
23D
330
1E7
100
AcDbEntity
  8
Lines
100
AcDbVertex
100
AcDb2dVertex
 10
1181.9467040384
 20
485.0588339697398
 30
0.0
  0
VERTEX
  5
23E
330
1E7
100
AcDbEntity
  8
Lines
100
AcDbVertex
100
AcDb2dVertex
 10
1181.947300699384
 20
485.0593335140858
 30
0.0
  0
VERTEX
  5
23F
330
1E7
100
AcDbEntity
  8
Lines
100
AcDbVertex
100
AcDb2dVertex
 10
1181.947935799324
 20
485.0598330359259
 30
0.0
  0
VERTEX
  5
240
330
1E7
100
AcDbEntity
  8
Lines
100
AcDbVertex
100
AcDb2dVertex
 10
1181.948609331516
 20
485.060332535737
 30
0.0
  0
VERTEX
  5
241
330
1E7
100
AcDbEntity
  8
Lines
100
AcDbVertex
100
AcDb2dVertex
 10
1181.949321289254
 20
485.0608320139963
 30
0.0
  0
VERTEX
  5
242
330
1E7
100
AcDbEntity
  8
Lines
100
AcDbVertex
100
AcDb2dVertex
 10
1181.950071665834
 20
485.0613314711811
 30
0.0
  0
VERTEX
  5
243
330
1E7
100
AcDbEntity
  8
Lines
100
AcDbVertex
100
AcDb2dVertex
 10
1181.95086045455
 20
485.0618309077684
 30
0.0
  0
VERTEX
  5
244
330
1E7
100
AcDbEntity
  8
Lines
100
AcDbVertex
100
AcDb2dVertex
 10
1181.951687648697
 20
485.0623303242355
 30
0.0
  0
VERTEX
  5
245
330
1E7
100
AcDbEntity
  8
Lines
100
AcDbVertex
100
AcDb2dVertex
 10
1181.952553241569
 20
485.0628297210595
 30
0.0
  0
VERTEX
  5
246
330
1E7
100
AcDbEntity
  8
Lines
100
AcDbVertex
100
AcDb2dVertex
 10
1181.953457226462
 20
485.0633290987174
 30
0.0
  0
VERTEX
  5
247
330
1E7
100
AcDbEntity
  8
Lines
100
AcDbVertex
100
AcDb2dVertex
 10
1181.955380345488
 20
485.0643277984441
 30
0.0
  0
VERTEX
  5
248
330
1E7
100
AcDbEntity
  8
Lines
100
AcDbVertex
100
AcDb2dVertex
 10
1181.957456952134
 20
485.0653264272325
 30
0.0
  0
VERTEX
  5
249
330
1E7
100
AcDbEntity
  8
Lines
100
AcDbVertex
100
AcDb2dVertex
 10
1181.959686992757
 20
485.0663249889003
 30
0.0
  0
VERTEX
  5
24A
330
1E7
100
AcDbEntity
  8
Lines
100
AcDbVertex
100
AcDb2dVertex
 10
1181.962070413716
 20
485.0673234872643
 30
0.0
  0
VERTEX
  5
24B
330
1E7
100
AcDbEntity
  8
Lines
100
AcDbVertex
100
AcDb2dVertex
 10
1181.964607161369
 20
485.0683219261418
 30
0.0
  0
VERTEX
  5
24C
330
1E7
100
AcDbEntity
  8
Lines
100
AcDbVertex
100
AcDb2dVertex
 10
1181.967297182074
 20
485.0693203093502
 30
0.0
  0
VERTEX
  5
24D
330
1E7
100
AcDbEntity
  8
Lines
100
AcDbVertex
100
AcDb2dVertex
 10
1181.973136828074
 20
485.0713169240283
 30
0.0
  0
VERTEX
  5
24E
330
1E7
100
AcDbEntity
  8
Lines
100
AcDbVertex
100
AcDb2dVertex
 10
1181.979588922583
 20
485.0733133618362
 30
0.0
  0
VERTEX
  5
24F
330
1E7
100
AcDbEntity
  8
Lines
100
AcDbVertex
100
AcDb2dVertex
 10
1181.986653036466
 20
485.0753096533115
 30
0.0
  0
VERTEX
  5
250
330
1E7
100
AcDbEntity
  8
Lines
100
AcDbVertex
100
AcDb2dVertex
 10
1181.99432874059
 20
485.0773058289922
 30
0.0
  0
VERTEX
  5
251
330
1E7
100
AcDbEntity
  8
Lines
100
AcDbVertex
100
AcDb2dVertex
 10
1182.00261560582
 20
485.0793019194159
 30
0.0
  0
VERTEX
  5
252
330
1E7
100
AcDbEntity
  8
Lines
100
AcDbVertex
100
AcDb2dVertex
 10
1182.021021103066
 20
485.0832939666436
 30
0.0
  0
VERTEX
  5
253
330
1E7
100
AcDbEntity
  8
Lines
100
AcDbVertex
100
AcDb2dVertex
 10
1182.041866095133
 20
485.0872860392964
 30
0.0
  0
VERTEX
  5
254
330
1E7
100
AcDbEntity
  8
Lines
100
AcDbVertex
100
AcDb2dVertex
 10
1182.06514714895
 20
485.0912783816764
 30
0.0
  0
VERTEX
  5
255
330
1E7
100
AcDbEntity
  8
Lines
100
AcDbVertex
100
AcDb2dVertex
 10
1182.119003709551
 20
485.0992648528262
 30
0.0
  0
VERTEX
  5
256
330
1E7
100
AcDbEntity
  8
Lines
100
AcDbVertex
100
AcDb2dVertex
 10
1182.255798516636
 20
485.1152517811402
 30
0.0
  0
VERTEX
  5
257
330
1E7
100
AcDbEntity
  8
Lines
100
AcDbVertex
100
AcDb2dVertex
 10
1182.645349133397
 20
485.1473585548775
 30
0.0
  0
VERTEX
  5
258
330
1E7
100
AcDbEntity
  8
Lines
100
AcDbVertex
100
AcDb2dVertex
 10
1183.183088450157
 20
485.1794609025555
 30
0.0
  0
VERTEX
  5
259
330
1E7
100
AcDbEntity
  8
Lines
100
AcDbVertex
100
AcDb2dVertex
 10
1185.500006206169
 20
485.2726649708018
 30
0.0
  0
VERTEX
  5
25A
330
1E7
100
AcDbEntity
  8
Lines
100
AcDbVertex
100
AcDb2dVertex
 10
1192.499999129395
 20
485.4623155235975
 30
0.0
  0
VERTEX
  5
25B
330
1E7
100
AcDbEntity
  8
Lines
100
AcDbVertex
100
AcDb2dVertex
 10
1196.528989865072
 20
485.5647711924559
 30
0.0
 42
0.0009862041689068
  0
VERTEX
  5
25C
330
1E7
100
AcDbEntity
  8
Lines
100
AcDbVertex
100
AcDb2dVertex
 10
1198.779001309664
 20
485.6289782768858
 30
0.0
  0
VERTEX
  5
25D
330
1E7
100
AcDbEntity
  8
Lines
100
AcDbVertex
100
AcDb2dVertex
 10
1200.653508429153
 20
485.6932135727911
 30
0.0
  0
VERTEX
  5
25E
330
1E7
100
AcDbEntity
  8
Lines
100
AcDbVertex
100
AcDb2dVertex
 10
1202.038665099371
 20
485.7574252778971
 30
0.0
  0
VERTEX
  5
25F
330
1E7
100
AcDbEntity
  8
Lines
100
AcDbVertex
100
AcDb2dVertex
 10
1202.520817305698
 20
485.7895304985608
 30
0.0
  0
VERTEX
  5
260
330
1E7
100
AcDbEntity
  8
Lines
100
AcDbVertex
100
AcDb2dVertex
 10
1202.705672585528
 20
485.8055771658259
 30
0.0
  0
VERTEX
  5
261
330
1E7
100
AcDbEntity
  8
Lines
100
AcDbVertex
100
AcDb2dVertex
 10
1202.85227975822
 20
485.8216397563085
 30
0.0
  0
VERTEX
  5
262
330
1E7
100
AcDbEntity
  8
Lines
100
AcDbVertex
100
AcDb2dVertex
 10
1202.900311972004
 20
485.8281047192453
 30
0.0
  0
VERTEX
  5
263
330
1E7
100
AcDbEntity
  8
Lines
100
AcDbVertex
100
AcDb2dVertex
 10
1202.941978038429
 20
485.8345656724192
 30
0.0
  0
VERTEX
  5
264
330
1E7
100
AcDbEntity
  8
Lines
100
AcDbVertex
100
AcDb2dVertex
 10
1202.977266199609
 20
485.8410240596658
 30
0.0
  0
VERTEX
  5
265
330
1E7
100
AcDbEntity
  8
Lines
100
AcDbVertex
100
AcDb2dVertex
 10
1202.992514891391
 20
485.8442527422651
 30
0.0
  0
VERTEX
  5
266
330
1E7
100
AcDbEntity
  8
Lines
100
AcDbVertex
100
AcDb2dVertex
 10
1203.006164697655
 20
485.847481324821
 30
0.0
  0
VERTEX
  5
267
330
1E7
100
AcDbEntity
  8
Lines
100
AcDbVertex
100
AcDb2dVertex
 10
1203.018214148663
 20
485.850709987813
 30
0.0
  0
VERTEX
  5
268
330
1E7
100
AcDbEntity
  8
Lines
100
AcDbVertex
100
AcDb2dVertex
 10
1203.023638281653
 20
485.8523244058724
 30
0.0
  0
VERTEX
  5
269
330
1E7
100
AcDbEntity
  8
Lines
100
AcDbVertex
100
AcDb2dVertex
 10
1203.02866177468
 20
485.8539389117205
 30
0.0
  0
VERTEX
  5
26A
330
1E7
100
AcDbEntity
  8
Lines
100
AcDbVertex
100
AcDb2dVertex
 10
1203.033284444024
 20
485.8555535279174
 30
0.0
  0
VERTEX
  5
26B
330
1E7
100
AcDbEntity
  8
Lines
100
AcDbVertex
100
AcDb2dVertex
 10
1203.037506105969
 20
485.8571682770231
 30
0.0
  0
VERTEX
  5
26C
330
1E7
100
AcDbEntity
  8
Lines
100
AcDbVertex
100
AcDb2dVertex
 10
1203.039466501756
 20
485.8579757084667
 30
0.0
  0
VERTEX
  5
26D
330
1E7
100
AcDbEntity
  8
Lines
100
AcDbVertex
100
AcDb2dVertex
 10
1203.041326576799
 20
485.8587831815973
 30
0.0
  0
VERTEX
  5
26E
330
1E7
100
AcDbEntity
  8
Lines
100
AcDbVertex
100
AcDb2dVertex
 10
1203.043086308134
 20
485.8595906992351
 30
0.0
  0
VERTEX
  5
26F
330
1E7
100
AcDbEntity
  8
Lines
100
AcDbVertex
100
AcDb2dVertex
 10
1203.044745672796
 20
485.8603982642001
 30
0.0
  0
VERTEX
  5
270
330
1E7
100
AcDbEntity
  8
Lines
100
AcDbVertex
100
AcDb2dVertex
 10
1203.046304647821
 20
485.8612058793123
 30
0.0
  0
VERTEX
  5
271
330
1E7
100
AcDbEntity
  8
Lines
100
AcDbVertex
100
AcDb2dVertex
 10
1203.047763210244
 20
485.8620135473914
 30
0.0
  0
VERTEX
  5
272
330
1E7
100
AcDbEntity
  8
Lines
100
AcDbVertex
100
AcDb2dVertex
 10
1203.0491213371
 20
485.8628212712576
 30
0.0
  0
VERTEX
  5
273
330
1E7
100
AcDbEntity
  8
Lines
100
AcDbVertex
100
AcDb2dVertex
 10
1203.049762730014
 20
485.8632251549922
 30
0.0
  0
VERTEX
  5
274
330
1E7
100
AcDbEntity
  8
Lines
100
AcDbVertex
100
AcDb2dVertex
 10
1203.050379005424
 20
485.8636290537311
 30
0.0
  0
VERTEX
  5
275
330
1E7
100
AcDbEntity
  8
Lines
100
AcDbVertex
100
AcDb2dVertex
 10
1203.050970160461
 20
485.8640329678267
 30
0.0
  0
VERTEX
  5
276
330
1E7
100
AcDbEntity
  8
Lines
100
AcDbVertex
100
AcDb2dVertex
 10
1203.051536192253
 20
485.8644368976315
 30
0.0
  0
VERTEX
  5
277
330
1E7
100
AcDbEntity
  8
Lines
100
AcDbVertex
100
AcDb2dVertex
 10
1203.05207709793
 20
485.8648408434982
 30
0.0
  0
VERTEX
  5
278
330
1E7
100
AcDbEntity
  8
Lines
100
AcDbVertex
100
AcDb2dVertex
 10
1203.052592874621
 20
485.8652448057791
 30
0.0
  0
VERTEX
  5
279
330
1E7
100
AcDbEntity
  8
Lines
100
AcDbVertex
100
AcDb2dVertex
 10
1203.053083519456
 20
485.8656487848268
 30
0.0
  0
VERTEX
  5
27A
330
1E7
100
AcDbEntity
  8
Lines
100
AcDbVertex
100
AcDb2dVertex
 10
1203.053549029564
 20
485.8660527809938
 30
0.0
  0
VERTEX
  5
27B
330
1E7
100
AcDbEntity
  8
Lines
100
AcDbVertex
100
AcDb2dVertex
 10
1203.053989402074
 20
485.8664567946325
 30
0.0
  0
VERTEX
  5
27C
330
1E7
100
AcDbEntity
  8
Lines
100
AcDbVertex
100
AcDb2dVertex
 10
1203.054404634117
 20
485.8668608260955
 30
0.0
  0
VERTEX
  5
27D
330
1E7
100
AcDbEntity
  8
Lines
100
AcDbVertex
100
AcDb2dVertex
 10
1203.054794722821
 20
485.8672648757353
 30
0.0
  0
VERTEX
  5
27E
330
1E7
100
AcDbEntity
  8
Lines
100
AcDbVertex
100
AcDb2dVertex
 10
1203.055159665316
 20
485.8676689439042
 30
0.0
  0
VERTEX
  5
27F
330
1E7
100
AcDbEntity
  8
Lines
100
AcDbVertex
100
AcDb2dVertex
 10
1203.055332705838
 20
485.8678709850474
 30
0.0
  0
VERTEX
  5
280
330
1E7
100
AcDbEntity
  8
Lines
100
AcDbVertex
100
AcDb2dVertex
 10
1203.055499458731
 20
485.868073030955
 30
0.0
  0
VERTEX
  5
281
330
1E7
100
AcDbEntity
  8
Lines
100
AcDbVertex
100
AcDb2dVertex
 10
1203.055659923637
 20
485.8682750816712
 30
0.0
  0
VERTEX
  5
282
330
1E7
100
AcDbEntity
  8
Lines
100
AcDbVertex
100
AcDb2dVertex
 10
1203.055814100196
 20
485.86847713724
 30
0.0
  0
VERTEX
  5
283
330
1E7
100
AcDbEntity
  8
Lines
100
AcDbVertex
100
AcDb2dVertex
 10
1203.05596198805
 20
485.8686791977055
 30
0.0
  0
VERTEX
  5
284
330
1E7
100
AcDbEntity
  8
Lines
100
AcDbVertex
100
AcDb2dVertex
 10
1203.05610358684
 20
485.8688812631118
 30
0.0
  0
VERTEX
  5
285
330
1E7
100
AcDbEntity
  8
Lines
100
AcDbVertex
100
AcDb2dVertex
 10
1203.056238896206
 20
485.8690833335029
 30
0.0
  0
VERTEX
  5
286
330
1E7
100
AcDbEntity
  8
Lines
100
AcDbVertex
100
AcDb2dVertex
 10
1203.056367915792
 20
485.8692854089228
 30
0.0
  0
VERTEX
  5
287
330
1E7
100
AcDbEntity
  8
Lines
100
AcDbVertex
100
AcDb2dVertex
 10
1203.056490645236
 20
485.8694874894157
 30
0.0
  0
VERTEX
  5
288
330
1E7
100
AcDbEntity
  8
Lines
100
AcDbVertex
100
AcDb2dVertex
 10
1203.056607084182
 20
485.8696895750256
 30
0.0
  0
VERTEX
  5
289
330
1E7
100
AcDbEntity
  8
Lines
100
AcDbVertex
100
AcDb2dVertex
 10
1203.056717232269
 20
485.8698916657966
 30
0.0
  0
VERTEX
  5
28A
330
1E7
100
AcDbEntity
  8
Lines
100
AcDbVertex
100
AcDb2dVertex
 10
1203.056821089139
 20
485.8700937617727
 30
0.0
  0
VERTEX
  5
28B
330
1E7
100
AcDbEntity
  8
Lines
100
AcDbVertex
100
AcDb2dVertex
 10
1203.056918654434
 20
485.870295862998
 30
0.0
  0
VERTEX
  5
28C
330
1E7
100
AcDbEntity
  8
Lines
100
AcDbVertex
100
AcDb2dVertex
 10
1203.057009927794
 20
485.8704979695165
 30
0.0
  0
VERTEX
  5
28D
330
1E7
100
AcDbEntity
  8
Lines
100
AcDbVertex
100
AcDb2dVertex
 10
1203.05709490886
 20
485.8707000813723
 30
0.0
  0
VERTEX
  5
28E
330
1E7
100
AcDbEntity
  8
Lines
100
AcDbVertex
100
AcDb2dVertex
 10
1203.057173597274
 20
485.8709021986095
 30
0.0
  0
VERTEX
  5
28F
330
1E7
100
AcDbEntity
  8
Lines
100
AcDbVertex
100
AcDb2dVertex
 10
1203.057245992677
 20
485.8711043212722
 30
0.0
  0
VERTEX
  5
290
330
1E7
100
AcDbEntity
  8
Lines
100
AcDbVertex
100
AcDb2dVertex
 10
1203.05731209471
 20
485.8713064494044
 30
0.0
  0
VERTEX
  5
291
330
1E7
100
AcDbEntity
  8
Lines
100
AcDbVertex
100
AcDb2dVertex
 10
1203.057371903014
 20
485.8715085830501
 30
0.0
  0
VERTEX
  5
292
330
1E7
100
AcDbEntity
  8
Lines
100
AcDbVertex
100
AcDb2dVertex
 10
1203.057425417231
 20
485.8717107222535
 30
0.0
  0
VERTEX
  5
293
330
1E7
100
AcDbEntity
  8
Lines
100
AcDbVertex
100
AcDb2dVertex
 10
1203.057472637002
 20
485.8719128670585
 30
0.0
  0
VERTEX
  5
294
330
1E7
100
AcDbEntity
  8
Lines
100
AcDbVertex
100
AcDb2dVertex
 10
1203.057513561967
 20
485.8721150175093
 30
0.0
  0
VERTEX
  5
295
330
1E7
100
AcDbEntity
  8
Lines
100
AcDbVertex
100
AcDb2dVertex
 10
1203.057548191768
 20
485.8723171736499
 30
0.0
  0
VERTEX
  5
296
330
1E7
100
AcDbEntity
  8
Lines
100
AcDbVertex
100
AcDb2dVertex
 10
1203.057576526046
 20
485.8725193355244
 30
0.0
  0
VERTEX
  5
297
330
1E7
100
AcDbEntity
  8
Lines
100
AcDbVertex
100
AcDb2dVertex
 10
1203.057598564443
 20
485.8727215031769
 30
0.0
  0
VERTEX
  5
298
330
1E7
100
AcDbEntity
  8
Lines
100
AcDbVertex
100
AcDb2dVertex
 10
1203.057614306599
 20
485.8729236766512
 30
0.0
  0
VERTEX
  5
299
330
1E7
100
AcDbEntity
  8
Lines
100
AcDbVertex
100
AcDb2dVertex
 10
1203.057623752156
 20
485.8731258559917
 30
0.0
  0
VERTEX
  5
29A
330
1E7
100
AcDbEntity
  8
Lines
100
AcDbVertex
100
AcDb2dVertex
 10
1203.057626900755
 20
485.8733280412423
 30
0.0
  0
VERTEX
  5
29B
330
1E7
100
AcDbEntity
  8
Lines
100
AcDbVertex
100
AcDb2dVertex
 10
1203.057537085701
 20
487.4503628179253
 30
0.0
  0
VERTEX
  5
29C
330
1E7
100
AcDbEntity
  8
Lines
100
AcDbVertex
100
AcDb2dVertex
 10
1203.057601327327
 20
487.450362672314
 30
0.0
  0
VERTEX
  5
29D
330
1E7
100
AcDbEntity
  8
Lines
100
AcDbVertex
100
AcDb2dVertex
 10
1192.499999129395
 20
487.4512016204703
 30
0.0
  0
VERTEX
  5
29E
330
1E7
100
AcDbEntity
  8
Lines
100
AcDbVertex
100
AcDb2dVertex
 10
1192.499999129395
 20
487.4503626481427
 30
0.0
  0
VERTEX
  5
29F
330
1E7
100
AcDbEntity
  8
Lines
100
AcDbVertex
100
AcDb2dVertex
 10
1181.942806819374
 20
487.4503626481426
 30
0.0
  0
VERTEX
  5
2A0
330
1E7
100
AcDbEntity
  8
Lines
100
AcDbVertex
100
AcDb2dVertex
 10
1181.942371358036
 20
486.6984826749306
 30
0.0
  0
SEQEND
  5
2A1
330
1E7
100
AcDbEntity
  8
Lines
  0
POLYLINE
  5
2A2
330
1F
100
AcDbEntity
  8
Lines
100
AcDb2dPolyline
 66
     1
 10
0.0
 20
0.0
 30
0.0
  0
VERTEX
  5
2A3
330
2A2
100
AcDbEntity
  8
Lines
100
AcDbVertex
100
AcDb2dVertex
 10
1203.057626900755
 20
481.591725795612
 30
0.0
  0
VERTEX
  5
2A4
330
2A2
100
AcDbEntity
  8
Lines
100
AcDbVertex
100
AcDb2dVertex
 10
1203.057623275604
 20
480.9411844737723
 30
0.0
  0
VERTEX
  5
2A5
330
2A2
100
AcDbEntity
  8
Lines
100
AcDbVertex
100
AcDb2dVertex
 10
1203.057606489819
 20
480.9409314879866
 30
0.0
  0
VERTEX
  5
2A6
330
2A2
100
AcDbEntity
  8
Lines
100
AcDbVertex
100
AcDb2dVertex
 10
1203.057579975096
 20
480.9406785235166
 30
0.0
  0
VERTEX
  5
2A7
330
2A2
100
AcDbEntity
  8
Lines
100
AcDbVertex
100
AcDb2dVertex
 10
1203.057543732297
 20
480.9404255802498
 30
0.0
  0
VERTEX
  5
2A8
330
2A2
100
AcDbEntity
  8
Lines
100
AcDbVertex
100
AcDb2dVertex
 10
1203.057497762284
 20
480.9401726580739
 30
0.0
  0
VERTEX
  5
2A9
330
2A2
100
AcDbEntity
  8
Lines
100
AcDbVertex
100
AcDb2dVertex
 10
1203.057442065918
 20
480.9399197568768
 30
0.0
  0
VERTEX
  5
2AA
330
2A2
100
AcDbEntity
  8
Lines
100
AcDbVertex
100
AcDb2dVertex
 10
1203.057376644061
 20
480.939666876546
 30
0.0
  0
VERTEX
  5
2AB
330
2A2
100
AcDbEntity
  8
Lines
100
AcDbVertex
100
AcDb2dVertex
 10
1203.057301497573
 20
480.9394140169693
 30
0.0
  0
VERTEX
  5
2AC
330
2A2
100
AcDbEntity
  8
Lines
100
AcDbVertex
100
AcDb2dVertex
 10
1203.057216627315
 20
480.9391611780343
 30
0.0
  0
VERTEX
  5
2AD
330
2A2
100
AcDbEntity
  8
Lines
100
AcDbVertex
100
AcDb2dVertex
 10
1203.05712203415
 20
480.9389083596289
 30
0.0
  0
VERTEX
  5
2AE
330
2A2
100
AcDbEntity
  8
Lines
100
AcDbVertex
100
AcDb2dVertex
 10
1203.057017718938
 20
480.9386555616406
 30
0.0
  0
VERTEX
  5
2AF
330
2A2
100
AcDbEntity
  8
Lines
100
AcDbVertex
100
AcDb2dVertex
 10
1203.056903682542
 20
480.9384027839573
 30
0.0
  0
VERTEX
  5
2B0
330
2A2
100
AcDbEntity
  8
Lines
100
AcDbVertex
100
AcDb2dVertex
 10
1203.056779925821
 20
480.9381500264665
 30
0.0
  0
VERTEX
  5
2B1
330
2A2
100
AcDbEntity
  8
Lines
100
AcDbVertex
100
AcDb2dVertex
 10
1203.056646449638
 20
480.937897289056
 30
0.0
  0
VERTEX
  5
2B2
330
2A2
100
AcDbEntity
  8
Lines
100
AcDbVertex
100
AcDb2dVertex
 10
1203.056503254854
 20
480.9376445716135
 30
0.0
  0
VERTEX
  5
2B3
330
2A2
100
AcDbEntity
  8
Lines
100
AcDbVertex
100
AcDb2dVertex
 10
1203.05635034233
 20
480.9373918740267
 30
0.0
  0
VERTEX
  5
2B4
330
2A2
100
AcDbEntity
  8
Lines
100
AcDbVertex
100
AcDb2dVertex
 10
1203.056187712927
 20
480.9371391961834
 30
0.0
  0
VERTEX
  5
2B5
330
2A2
100
AcDbEntity
  8
Lines
100
AcDbVertex
100
AcDb2dVertex
 10
1203.056015367507
 20
480.9368865379712
 30
0.0
  0
VERTEX
  5
2B6
330
2A2
100
AcDbEntity
  8
Lines
100
AcDbVertex
100
AcDb2dVertex
 10
1203.055833306931
 20
480.9366338992778
 30
0.0
  0
VERTEX
  5
2B7
330
2A2
100
AcDbEntity
  8
Lines
100
AcDbVertex
100
AcDb2dVertex
 10
1203.055641532061
 20
480.9363812799909
 30
0.0
  0
VERTEX
  5
2B8
330
2A2
100
AcDbEntity
  8
Lines
100
AcDbVertex
100
AcDb2dVertex
 10
1203.055440043757
 20
480.9361286799983
 30
0.0
  0
VERTEX
  5
2B9
330
2A2
100
AcDbEntity
  8
Lines
100
AcDbVertex
100
AcDb2dVertex
 10
1203.055228842882
 20
480.9358760991876
 30
0.0
  0
VERTEX
  5
2BA
330
2A2
100
AcDbEntity
  8
Lines
100
AcDbVertex
100
AcDb2dVertex
 10
1203.055007930295
 20
480.9356235374465
 30
0.0
  0
VERTEX
  5
2BB
330
2A2
100
AcDbEntity
  8
Lines
100
AcDbVertex
100
AcDb2dVertex
 10
1203.05477730686
 20
480.9353709946628
 30
0.0
  0
VERTEX
  5
2BC
330
2A2
100
AcDbEntity
  8
Lines
100
AcDbVertex
100
AcDb2dVertex
 10
1203.054536973436
 20
480.9351184707241
 30
0.0
  0
VERTEX
  5
2BD
330
2A2
100
AcDbEntity
  8
Lines
100
AcDbVertex
100
AcDb2dVertex
 10
1203.054286930886
 20
480.9348659655182
 30
0.0
  0
VERTEX
  5
2BE
330
2A2
100
AcDbEntity
  8
Lines
100
AcDbVertex
100
AcDb2dVertex
 10
1203.054027180071
 20
480.9346134789328
 30
0.0
  0
VERTEX
  5
2BF
330
2A2
100
AcDbEntity
  8
Lines
100
AcDbVertex
100
AcDb2dVertex
 10
1203.053757721851
 20
480.9343610108554
 30
0.0
  0
VERTEX
  5
2C0
330
2A2
100
AcDbEntity
  8
Lines
100
AcDbVertex
100
AcDb2dVertex
 10
1203.053478557089
 20
480.934108561174
 30
0.0
  0
VERTEX
  5
2C1
330
2A2
100
AcDbEntity
  8
Lines
100
AcDbVertex
100
AcDb2dVertex
 10
1203.052891111382
 20
480.9336037165496
 30
0.0
  0
VERTEX
  5
2C2
330
2A2
100
AcDbEntity
  8
Lines
100
AcDbVertex
100
AcDb2dVertex
 10
1203.052264849841
 20
480.933098944161
 30
0.0
  0
VERTEX
  5
2C3
330
2A2
100
AcDbEntity
  8
Lines
100
AcDbVertex
100
AcDb2dVertex
 10
1203.051599779355
 20
480.93259424311
 30
0.0
  0
VERTEX
  5
2C4
330
2A2
100
AcDbEntity
  8
Lines
100
AcDbVertex
100
AcDb2dVertex
 10
1203.050895906815
 20
480.9320896124981
 30
0.0
  0
VERTEX
  5
2C5
330
2A2
100
AcDbEntity
  8
Lines
100
AcDbVertex
100
AcDb2dVertex
 10
1203.050153239113
 20
480.9315850514271
 30
0.0
  0
VERTEX
  5
2C6
330
2A2
100
AcDbEntity
  8
Lines
100
AcDbVertex
100
AcDb2dVertex
 10
1203.049371783138
 20
480.9310805589985
 30
0.0
  0
VERTEX
  5
2C7
330
2A2
100
AcDbEntity
  8
Lines
100
AcDbVertex
100
AcDb2dVertex
 10
1203.04855154578
 20
480.930576134314
 30
0.0
  0
VERTEX
  5
2C8
330
2A2
100
AcDbEntity
  8
Lines
100
AcDbVertex
100
AcDb2dVertex
 10
1203.047692533932
 20
480.9300717764752
 30
0.0
  0
VERTEX
  5
2C9
330
2A2
100
AcDbEntity
  8
Lines
100
AcDbVertex
100
AcDb2dVertex
 10
1203.046794754483
 20
480.9295674845839
 30
0.0
  0
VERTEX
  5
2CA
330
2A2
100
AcDbEntity
  8
Lines
100
AcDbVertex
100
AcDb2dVertex
 10
1203.045858214323
 20
480.9290632577414
 30
0.0
  0
VERTEX
  5
2CB
330
2A2
100
AcDbEntity
  8
Lines
100
AcDbVertex
100
AcDb2dVertex
 10
1203.043868879436
 20
480.92805499561
 30
0.0
  0
VERTEX
  5
2CC
330
2A2
100
AcDbEntity
  8
Lines
100
AcDbVertex
100
AcDb2dVertex
 10
1203.041724584395
 20
480.9270469828941
 30
0.0
  0
VERTEX
  5
2CD
330
2A2
100
AcDbEntity
  8
Lines
100
AcDbVertex
100
AcDb2dVertex
 10
1203.039425384325
 20
480.9260392124069
 30
0.0
  0
VERTEX
  5
2CE
330
2A2
100
AcDbEntity
  8
Lines
100
AcDbVertex
100
AcDb2dVertex
 10
1203.03697133435
 20
480.9250316769612
 30
0.0
  0
VERTEX
  5
2CF
330
2A2
100
AcDbEntity
  8
Lines
100
AcDbVertex
100
AcDb2dVertex
 10
1203.034362489596
 20
480.9240243693703
 30
0.0
  0
VERTEX
  5
2D0
330
2A2
100
AcDbEntity
  8
Lines
100
AcDbVertex
100
AcDb2dVertex
 10
1203.031598905186
 20
480.9230172824473
 30
0.0
  0
VERTEX
  5
2D1
330
2A2
100
AcDbEntity
  8
Lines
100
AcDbVertex
100
AcDb2dVertex
 10
1203.0256077379
 20
480.9210037418569
 30
0.0
  0
VERTEX
  5
2D2
330
2A2
100
AcDbEntity
  8
Lines
100
AcDbVertex
100
AcDb2dVertex
 10
1203.018998273488
 20
480.9189909976945
 30
0.0
  0
VERTEX
  5
2D3
330
2A2
100
AcDbEntity
  8
Lines
100
AcDbVertex
100
AcDb2dVertex
 10
1203.011770952948
 20
480.9169789924647
 30
0.0
  0
VERTEX
  5
2D4
330
2A2
100
AcDbEntity
  8
Lines
100
AcDbVertex
100
AcDb2dVertex
 10
1203.003926217277
 20
480.9149676686721
 30
0.0
  0
VERTEX
  5
2D5
330
2A2
100
AcDbEntity
  8
Lines
100
AcDbVertex
100
AcDb2dVertex
 10
1202.995464507472
 20
480.9129569688213
 30
0.0
  0
VERTEX
  5
2D6
330
2A2
100
AcDbEntity
  8
Lines
100
AcDbVertex
100
AcDb2dVertex
 10
1202.976691929449
 20
480.908937210963
 30
0.0
  0
VERTEX
  5
2D7
330
2A2
100
AcDbEntity
  8
Lines
100
AcDbVertex
100
AcDb2dVertex
 10
1202.955456746857
 20
480.9049192589264
 30
0.0
  0
VERTEX
  5
2D8
330
2A2
100
AcDbEntity
  8
Lines
100
AcDbVertex
100
AcDb2dVertex
 10
1202.931762487671
 20
480.9009026527477
 30
0.0
  0
VERTEX
  5
2D9
330
2A2
100
AcDbEntity
  8
Lines
100
AcDbVertex
100
AcDb2dVertex
 10
1202.877010851429
 20
480.8928716381105
 30
0.0
  0
VERTEX
  5
2DA
330
2A2
100
AcDbEntity
  8
Lines
100
AcDbVertex
100
AcDb2dVertex
 10
1202.738153890817
 20
480.8768055207362
 30
0.0
  0
VERTEX
  5
2DB
330
2A2
100
AcDbEntity
  8
Lines
100
AcDbVertex
100
AcDb2dVertex
 10
1202.34570367134
 20
480.844700125047
 30
0.0
  0
VERTEX
  5
2DC
330
2A2
100
AcDbEntity
  8
Lines
100
AcDbVertex
100
AcDb2dVertex
 10
1201.805204986806
 20
480.8125934934473
 30
0.0
  0
VERTEX
  5
2DD
330
2A2
100
AcDbEntity
  8
Lines
100
AcDbVertex
100
AcDb2dVertex
 10
1199.965369319767
 20
480.7358259475941
 30
0.0
  0
VERTEX
  5
2DE
330
2A2
100
AcDbEntity
  8
Lines
100
AcDbVertex
100
AcDb2dVertex
 10
1198.354938321813
 20
480.6841397772793
 30
0.0
 42
-0.0008573631319146
  0
VERTEX
  5
2DF
330
2A2
100
AcDbEntity
  8
Lines
100
AcDbVertex
100
AcDb2dVertex
 10
1196.045061115049
 20
480.6199252988679
 30
0.0
  0
VERTEX
  5
2E0
330
2A2
100
AcDbEntity
  8
Lines
100
AcDbVertex
100
AcDb2dVertex
 10
1192.499999129395
 20
480.5303073202318
 30
0.0
  0
VERTEX
  5
2E1
330
2A2
100
AcDbEntity
  8
Lines
100
AcDbVertex
100
AcDb2dVertex
 10
1186.633073033064
 20
480.3761479812558
 30
0.0
  0
VERTEX
  5
2E2
330
2A2
100
AcDbEntity
  8
Lines
100
AcDbVertex
100
AcDb2dVertex
 10
1181.943242280712
 20
480.3761479812558
 30
0.0
  0
SEQEND
  5
2E3
330
2A2
100
AcDbEntity
  8
Lines
  0
LINE
  5
2E4
330
1F
100
AcDbEntity
  8
Lines
100
AcDbLine
 10
1181.408729943061
 20
489.4672521238535
 30
0.0
 11
1203.591267838974
 21
489.4672521238534
 31
0.0
  0
POLYLINE
  5
2E5
330
1F
100
AcDbEntity
  8
Lines
100
AcDb2dPolyline
 66
     1
 10
0.0
 20
0.0
 30
0.0
  0
VERTEX
  5
2E6
330
2E5
100
AcDbEntity
  8
Lines
100
AcDbVertex
100
AcDb2dVertex
 10
1182.235157439459
 20
486.6335631565379
 30
0.0
  0
VERTEX
  5
2E7
330
2E5
100
AcDbEntity
  8
Lines
100
AcDbVertex
100
AcDb2dVertex
 10
1182.146665422527
 20
486.643737858271
 30
0.0
  0
VERTEX
  5
2E8
330
2E5
100
AcDbEntity
  8
Lines
100
AcDbVertex
100
AcDb2dVertex
 10
1182.058506197591
 20
486.656478057429
 30
0.0
  0
VERTEX
  5
2E9
330
2E5
100
AcDbEntity
  8
Lines
100
AcDbVertex
100
AcDb2dVertex
 10
1182.031317738609
 20
486.6613330462699
 30
0.0
  0
VERTEX
  5
2EA
330
2E5
100
AcDbEntity
  8
Lines
100
AcDbVertex
100
AcDb2dVertex
 10
1182.007742233261
 20
486.666185929987
 30
0.0
  0
VERTEX
  5
2EB
330
2E5
100
AcDbEntity
  8
Lines
100
AcDbVertex
100
AcDb2dVertex
 10
1181.997310510803
 20
486.6686118495894
 30
0.0
  0
VERTEX
  5
2EC
330
2E5
100
AcDbEntity
  8
Lines
100
AcDbVertex
100
AcDb2dVertex
 10
1181.987783433878
 20
486.6710375635095
 30
0.0
  0
VERTEX
  5
2ED
330
2E5
100
AcDbEntity
  8
Lines
100
AcDbVertex
100
AcDb2dVertex
 10
1181.979161471527
 20
486.673463178613
 30
0.0
  0
VERTEX
  5
2EE
330
2E5
100
AcDbEntity
  8
Lines
100
AcDbVertex
100
AcDb2dVertex
 10
1181.971445092792
 20
486.6758888017664
 30
0.0
  0
VERTEX
  5
2EF
330
2E5
100
AcDbEntity
  8
Lines
100
AcDbVertex
100
AcDb2dVertex
 10
1181.967926643855
 20
486.6771016497574
 30
0.0
  0
VERTEX
  5
2F0
330
2E5
100
AcDbEntity
  8
Lines
100
AcDbVertex
100
AcDb2dVertex
 10
1181.964634766713
 20
486.6783145398357
 30
0.0
  0
VERTEX
  5
2F1
330
2E5
100
AcDbEntity
  8
Lines
100
AcDbVertex
100
AcDb2dVertex
 10
1181.961569519996
 20
486.6795274853595
 30
0.0
  0
VERTEX
  5
2F2
330
2E5
100
AcDbEntity
  8
Lines
100
AcDbVertex
100
AcDb2dVertex
 10
1181.958730962333
 20
486.6807404996871
 30
0.0
  0
VERTEX
  5
2F3
330
2E5
100
AcDbEntity
  8
Lines
100
AcDbVertex
100
AcDb2dVertex
 10
1181.956119152355
 20
486.6819535961768
 30
0.0
  0
VERTEX
  5
2F4
330
2E5
100
AcDbEntity
  8
Lines
100
AcDbVertex
100
AcDb2dVertex
 10
1181.95489829607
 20
486.6825601794068
 30
0.0
  0
VERTEX
  5
2F5
330
2E5
100
AcDbEntity
  8
Lines
100
AcDbVertex
100
AcDb2dVertex
 10
1181.953734148693
 20
486.6831667881868
 30
0.0
  0
VERTEX
  5
2F6
330
2E5
100
AcDbEntity
  8
Lines
100
AcDbVertex
100
AcDb2dVertex
 10
1181.952626717551
 20
486.6837734241864
 30
0.0
  0
VERTEX
  5
2F7
330
2E5
100
AcDbEntity
  8
Lines
100
AcDbVertex
100
AcDb2dVertex
 10
1181.951576009975
 20
486.6843800890754
 30
0.0
  0
VERTEX
  5
2F8
330
2E5
100
AcDbEntity
  8
Lines
100
AcDbVertex
100
AcDb2dVertex
 10
1181.950582033293
 20
486.6849867845235
 30
0.0
  0
VERTEX
  5
2F9
330
2E5
100
AcDbEntity
  8
Lines
100
AcDbVertex
100
AcDb2dVertex
 10
1181.949644794833
 20
486.6855935122007
 30
0.0
  0
VERTEX
  5
2FA
330
2E5
100
AcDbEntity
  8
Lines
100
AcDbVertex
100
AcDb2dVertex
 10
1181.948764301925
 20
486.6862002737768
 30
0.0
  0
VERTEX
  5
2FB
330
2E5
100
AcDbEntity
  8
Lines
100
AcDbVertex
100
AcDb2dVertex
 10
1181.947940561897
 20
486.6868070709213
 30
0.0
  0
VERTEX
  5
2FC
330
2E5
100
AcDbEntity
  8
Lines
100
AcDbVertex
100
AcDb2dVertex
 10
1181.947549976503
 20
486.6871104833536
 30
0.0
  0
VERTEX
  5
2FD
330
2E5
100
AcDbEntity
  8
Lines
100
AcDbVertex
100
AcDb2dVertex
 10
1181.947173582078
 20
486.6874139053042
 30
0.0
  0
VERTEX
  5
2FE
330
2E5
100
AcDbEntity
  8
Lines
100
AcDbVertex
100
AcDb2dVertex
 10
1181.946811379537
 20
486.6877173369818
 30
0.0
  0
VERTEX
  5
2FF
330
2E5
100
AcDbEntity
  8
Lines
100
AcDbVertex
100
AcDb2dVertex
 10
1181.946463369796
 20
486.6880207785953
 30
0.0
  0
VERTEX
  5
300
330
2E5
100
AcDbEntity
  8
Lines
100
AcDbVertex
100
AcDb2dVertex
 10
1181.946129553773
 20
486.6883242303531
 30
0.0
  0
VERTEX
  5
301
330
2E5
100
AcDbEntity
  8
Lines
100
AcDbVertex
100
AcDb2dVertex
 10
1181.945809932382
 20
486.6886276924643
 30
0.0
  0
VERTEX
  5
302
330
2E5
100
AcDbEntity
  8
Lines
100
AcDbVertex
100
AcDb2dVertex
 10
1181.945504506539
 20
486.6889311651372
 30
0.0
  0
VERTEX
  5
303
330
2E5
100
AcDbEntity
  8
Lines
100
AcDbVertex
100
AcDb2dVertex
 10
1181.945213277162
 20
486.6892346485809
 30
0.0
  0
VERTEX
  5
304
330
2E5
100
AcDbEntity
  8
Lines
100
AcDbVertex
100
AcDb2dVertex
 10
1181.944936245166
 20
486.6895381430039
 30
0.0
  0
VERTEX
  5
305
330
2E5
100
AcDbEntity
  8
Lines
100
AcDbVertex
100
AcDb2dVertex
 10
1181.944673411467
 20
486.689841648615
 30
0.0
  0
VERTEX
  5
306
330
2E5
100
AcDbEntity
  8
Lines
100
AcDbVertex
100
AcDb2dVertex
 10
1181.94442477698
 20
486.690145165623
 30
0.0
  0
VERTEX
  5
307
330
2E5
100
AcDbEntity
  8
Lines
100
AcDbVertex
100
AcDb2dVertex
 10
1181.944190342624
 20
486.6904486942365
 30
0.0
  0
VERTEX
  5
308
330
2E5
100
AcDbEntity
  8
Lines
100
AcDbVertex
100
AcDb2dVertex
 10
1181.943970109312
 20
486.6907522346642
 30
0.0
  0
VERTEX
  5
309
330
2E5
100
AcDbEntity
  8
Lines
100
AcDbVertex
100
AcDb2dVertex
 10
1181.943764077963
 20
486.6910557871149
 30
0.0
  0
VERTEX
  5
30A
330
2E5
100
AcDbEntity
  8
Lines
100
AcDbVertex
100
AcDb2dVertex
 10
1181.94357224949
 20
486.6913593517974
 30
0.0
  0
VERTEX
  5
30B
330
2E5
100
AcDbEntity
  8
Lines
100
AcDbVertex
100
AcDb2dVertex
 10
1181.943394624812
 20
486.6916629289202
 30
0.0
  0
VERTEX
  5
30C
330
2E5
100
AcDbEntity
  8
Lines
100
AcDbVertex
100
AcDb2dVertex
 10
1181.943311139181
 20
486.691814722212
 30
0.0
  0
VERTEX
  5
30D
330
2E5
100
AcDbEntity
  8
Lines
100
AcDbVertex
100
AcDb2dVertex
 10
1181.943231204843
 20
486.6919665186922
 30
0.0
  0
VERTEX
  5
30E
330
2E5
100
AcDbEntity
  8
Lines
100
AcDbVertex
100
AcDb2dVertex
 10
1181.943154821911
 20
486.6921183183869
 30
0.0
  0
VERTEX
  5
30F
330
2E5
100
AcDbEntity
  8
Lines
100
AcDbVertex
100
AcDb2dVertex
 10
1181.9430819905
 20
486.6922701213222
 30
0.0
  0
VERTEX
  5
310
330
2E5
100
AcDbEntity
  8
Lines
100
AcDbVertex
100
AcDb2dVertex
 10
1181.943012710725
 20
486.692421927524
 30
0.0
  0
VERTEX
  5
311
330
2E5
100
AcDbEntity
  8
Lines
100
AcDbVertex
100
AcDb2dVertex
 10
1181.942946982699
 20
486.6925737370187
 30
0.0
  0
VERTEX
  5
312
330
2E5
100
AcDbEntity
  8
Lines
100
AcDbVertex
100
AcDb2dVertex
 10
1181.942884806538
 20
486.6927255498322
 30
0.0
  0
VERTEX
  5
313
330
2E5
100
AcDbEntity
  8
Lines
100
AcDbVertex
100
AcDb2dVertex
 10
1181.942826182356
 20
486.6928773659905
 30
0.0
  0
VERTEX
  5
314
330
2E5
100
AcDbEntity
  8
Lines
100
AcDbVertex
100
AcDb2dVertex
 10
1181.942771110268
 20
486.6930291855198
 30
0.0
  0
VERTEX
  5
315
330
2E5
100
AcDbEntity
  8
Lines
100
AcDbVertex
100
AcDb2dVertex
 10
1181.942719590388
 20
486.6931810084463
 30
0.0
  0
VERTEX
  5
316
330
2E5
100
AcDbEntity
  8
Lines
100
AcDbVertex
100
AcDb2dVertex
 10
1181.94267162283
 20
486.6933328347959
 30
0.0
  0
VERTEX
  5
317
330
2E5
100
AcDbEntity
  8
Lines
100
AcDbVertex
100
AcDb2dVertex
 10
1181.942627207709
 20
486.6934846645949
 30
0.0
  0
VERTEX
  5
318
330
2E5
100
AcDbEntity
  8
Lines
100
AcDbVertex
100
AcDb2dVertex
 10
1181.94258634514
 20
486.6936364978693
 30
0.0
  0
VERTEX
  5
319
330
2E5
100
AcDbEntity
  8
Lines
100
AcDbVertex
100
AcDb2dVertex
 10
1181.942549035237
 20
486.6937883346451
 30
0.0
  0
VERTEX
  5
31A
330
2E5
100
AcDbEntity
  8
Lines
100
AcDbVertex
100
AcDb2dVertex
 10
1181.942515278115
 20
486.6939401749484
 30
0.0
  0
VERTEX
  5
31B
330
2E5
100
AcDbEntity
  8
Lines
100
AcDbVertex
100
AcDb2dVertex
 10
1181.942485073888
 20
486.6940920188054
 30
0.0
  0
VERTEX
  5
31C
330
2E5
100
AcDbEntity
  8
Lines
100
AcDbVertex
100
AcDb2dVertex
 10
1181.94245842267
 20
486.6942438662421
 30
0.0
  0
VERTEX
  5
31D
330
2E5
100
AcDbEntity
  8
Lines
100
AcDbVertex
100
AcDb2dVertex
 10
1181.942435324577
 20
486.6943957172847
 30
0.0
  0
VERTEX
  5
31E
330
2E5
100
AcDbEntity
  8
Lines
100
AcDbVertex
100
AcDb2dVertex
 10
1181.942415779722
 20
486.6945475719592
 30
0.0
  0
VERTEX
  5
31F
330
2E5
100
AcDbEntity
  8
Lines
100
AcDbVertex
100
AcDb2dVertex
 10
1181.94239978822
 20
486.6946994302916
 30
0.0
  0
VERTEX
  5
320
330
2E5
100
AcDbEntity
  8
Lines
100
AcDbVertex
100
AcDb2dVertex
 10
1181.942387350186
 20
486.6948512923082
 30
0.0
  0
VERTEX
  5
321
330
2E5
100
AcDbEntity
  8
Lines
100
AcDbVertex
100
AcDb2dVertex
 10
1181.942378465735
 20
486.695003158035
 30
0.0
  0
VERTEX
  5
322
330
2E5
100
AcDbEntity
  8
Lines
100
AcDbVertex
100
AcDb2dVertex
 10
1181.94237313498
 20
486.6951550274979
 30
0.0
  0
VERTEX
  5
323
330
2E5
100
AcDbEntity
  8
Lines
100
AcDbVertex
100
AcDb2dVertex
 10
1181.942371358036
 20
486.6953069007233
 30
0.0
  0
VERTEX
  5
324
330
2E5
100
AcDbEntity
  8
Lines
100
AcDbVertex
100
AcDb2dVertex
 10
1181.942374392818
 20
486.6955053794804
 30
0.0
  0
VERTEX
  5
325
330
2E5
100
AcDbEntity
  8
Lines
100
AcDbVertex
100
AcDb2dVertex
 10
1181.942383497054
 20
486.6957038592749
 30
0.0
  0
VERTEX
  5
326
330
2E5
100
AcDbEntity
  8
Lines
100
AcDbVertex
100
AcDb2dVertex
 10
1181.942398670577
 20
486.6959023400882
 30
0.0
  0
VERTEX
  5
327
330
2E5
100
AcDbEntity
  8
Lines
100
AcDbVertex
100
AcDb2dVertex
 10
1181.942419913218
 20
486.6961008219018
 30
0.0
  0
VERTEX
  5
328
330
2E5
100
AcDbEntity
  8
Lines
100
AcDbVertex
100
AcDb2dVertex
 10
1181.942447224811
 20
486.6962993046971
 30
0.0
  0
VERTEX
  5
329
330
2E5
100
AcDbEntity
  8
Lines
100
AcDbVertex
100
AcDb2dVertex
 10
1181.942480605188
 20
486.6964977884555
 30
0.0
  0
VERTEX
  5
32A
330
2E5
100
AcDbEntity
  8
Lines
100
AcDbVertex
100
AcDb2dVertex
 10
1181.942520054182
 20
486.6966962731586
 30
0.0
  0
VERTEX
  5
32B
330
2E5
100
AcDbEntity
  8
Lines
100
AcDbVertex
100
AcDb2dVertex
 10
1181.942565571626
 20
486.6968947587877
 30
0.0
  0
VERTEX
  5
32C
330
2E5
100
AcDbEntity
  8
Lines
100
AcDbVertex
100
AcDb2dVertex
 10
1181.942617157353
 20
486.6970932453243
 30
0.0
  0
VERTEX
  5
32D
330
2E5
100
AcDbEntity
  8
Lines
100
AcDbVertex
100
AcDb2dVertex
 10
1181.942674811194
 20
486.6972917327498
 30
0.0
  0
VERTEX
  5
32E
330
2E5
100
AcDbEntity
  8
Lines
100
AcDbVertex
100
AcDb2dVertex
 10
1181.942738532984
 20
486.6974902210457
 30
0.0
  0
VERTEX
  5
32F
330
2E5
100
AcDbEntity
  8
Lines
100
AcDbVertex
100
AcDb2dVertex
 10
1181.942808322554
 20
486.6976887101933
 30
0.0
  0
VERTEX
  5
330
330
2E5
100
AcDbEntity
  8
Lines
100
AcDbVertex
100
AcDb2dVertex
 10
1181.942884179738
 20
486.6978872001742
 30
0.0
  0
VERTEX
  5
331
330
2E5
100
AcDbEntity
  8
Lines
100
AcDbVertex
100
AcDb2dVertex
 10
1181.942966104368
 20
486.6980856909698
 30
0.0
  0
VERTEX
  5
332
330
2E5
100
AcDbEntity
  8
Lines
100
AcDbVertex
100
AcDb2dVertex
 10
1181.943054096276
 20
486.6982841825615
 30
0.0
  0
VERTEX
  5
333
330
2E5
100
AcDbEntity
  8
Lines
100
AcDbVertex
100
AcDb2dVertex
 10
1181.943148155296
 20
486.6984826749307
 30
0.0
  0
VERTEX
  5
334
330
2E5
100
AcDbEntity
  8
Lines
100
AcDbVertex
100
AcDb2dVertex
 10
1181.943248281259
 20
486.6986811680589
 30
0.0
  0
VERTEX
  5
335
330
2E5
100
AcDbEntity
  8
Lines
100
AcDbVertex
100
AcDb2dVertex
 10
1181.943354474
 20
486.6988796619275
 30
0.0
  0
VERTEX
  5
336
330
2E5
100
AcDbEntity
  8
Lines
100
AcDbVertex
100
AcDb2dVertex
 10
1181.943466733351
 20
486.6990781565181
 30
0.0
  0
VERTEX
  5
337
330
2E5
100
AcDbEntity
  8
Lines
100
AcDbVertex
100
AcDb2dVertex
 10
1181.943585059144
 20
486.6992766518119
 30
0.0
  0
VERTEX
  5
338
330
2E5
100
AcDbEntity
  8
Lines
100
AcDbVertex
100
AcDb2dVertex
 10
1181.943709451211
 20
486.6994751477905
 30
0.0
  0
VERTEX
  5
339
330
2E5
100
AcDbEntity
  8
Lines
100
AcDbVertex
100
AcDb2dVertex
 10
1181.943839909387
 20
486.6996736444352
 30
0.0
  0
VERTEX
  5
33A
330
2E5
100
AcDbEntity
  8
Lines
100
AcDbVertex
100
AcDb2dVertex
 10
1181.943976433503
 20
486.6998721417276
 30
0.0
  0
VERTEX
  5
33B
330
2E5
100
AcDbEntity
  8
Lines
100
AcDbVertex
100
AcDb2dVertex
 10
1181.944119023392
 20
486.7000706396491
 30
0.0
  0
VERTEX
  5
33C
330
2E5
100
AcDbEntity
  8
Lines
100
AcDbVertex
100
AcDb2dVertex
 10
1181.944267678887
 20
486.7002691381811
 30
0.0
  0
VERTEX
  5
33D
330
2E5
100
AcDbEntity
  8
Lines
100
AcDbVertex
100
AcDb2dVertex
 10
1181.94442239982
 20
486.700467637305
 30
0.0
  0
VERTEX
  5
33E
330
2E5
100
AcDbEntity
  8
Lines
100
AcDbVertex
100
AcDb2dVertex
 10
1181.944583186025
 20
486.7006661370023
 30
0.0
  0
VERTEX
  5
33F
330
2E5
100
AcDbEntity
  8
Lines
100
AcDbVertex
100
AcDb2dVertex
 10
1181.944750037334
 20
486.7008646372544
 30
0.0
  0
VERTEX
  5
340
330
2E5
100
AcDbEntity
  8
Lines
100
AcDbVertex
100
AcDb2dVertex
 10
1181.945101934594
 20
486.7012616393489
 30
0.0
  0
VERTEX
  5
341
330
2E5
100
AcDbEntity
  8
Lines
100
AcDbVertex
100
AcDb2dVertex
 10
1181.945478090263
 20
486.7016586434399
 30
0.0
  0
VERTEX
  5
342
330
2E5
100
AcDbEntity
  8
Lines
100
AcDbVertex
100
AcDb2dVertex
 10
1181.945878503002
 20
486.7020556493791
 30
0.0
  0
VERTEX
  5
343
330
2E5
100
AcDbEntity
  8
Lines
100
AcDbVertex
100
AcDb2dVertex
 10
1181.946303171473
 20
486.7024526570178
 30
0.0
  0
VERTEX
  5
344
330
2E5
100
AcDbEntity
  8
Lines
100
AcDbVertex
100
AcDb2dVertex
 10
1181.946752094337
 20
486.7028496662076
 30
0.0
  0
VERTEX
  5
345
330
2E5
100
AcDbEntity
  8
Lines
100
AcDbVertex
100
AcDb2dVertex
 10
1181.947225270257
 20
486.7032466768
 30
0.0
  0
VERTEX
  5
346
330
2E5
100
AcDbEntity
  8
Lines
100
AcDbVertex
100
AcDb2dVertex
 10
1181.947722697893
 20
486.7036436886465
 30
0.0
  0
VERTEX
  5
347
330
2E5
100
AcDbEntity
  8
Lines
100
AcDbVertex
100
AcDb2dVertex
 10
1181.948244375908
 20
486.7040407015987
 30
0.0
  0
VERTEX
  5
348
330
2E5
100
AcDbEntity
  8
Lines
100
AcDbVertex
100
AcDb2dVertex
 10
1181.948790302964
 20
486.7044377155081
 30
0.0
  0
VERTEX
  5
349
330
2E5
100
AcDbEntity
  8
Lines
100
AcDbVertex
100
AcDb2dVertex
 10
1181.949360477721
 20
486.7048347302262
 30
0.0
  0
VERTEX
  5
34A
330
2E5
100
AcDbEntity
  8
Lines
100
AcDbVertex
100
AcDb2dVertex
 10
1181.949954898842
 20
486.7052317456045
 30
0.0
  0
VERTEX
  5
34B
330
2E5
100
AcDbEntity
  8
Lines
100
AcDbVertex
100
AcDb2dVertex
 10
1181.950573564988
 20
486.7056287614944
 30
0.0
  0
VERTEX
  5
34C
330
2E5
100
AcDbEntity
  8
Lines
100
AcDbVertex
100
AcDb2dVertex
 10
1181.951883627004
 20
486.7064227942154
 30
0.0
  0
VERTEX
  5
34D
330
2E5
100
AcDbEntity
  8
Lines
100
AcDbVertex
100
AcDb2dVertex
 10
1181.95329065306
 20
486.7072168272014
 30
0.0
  0
VERTEX
  5
34E
330
2E5
100
AcDbEntity
  8
Lines
100
AcDbVertex
100
AcDb2dVertex
 10
1181.954794632452
 20
486.7080108592644
 30
0.0
  0
VERTEX
  5
34F
330
2E5
100
AcDbEntity
  8
Lines
100
AcDbVertex
100
AcDb2dVertex
 10
1181.956395554472
 20
486.7088048892166
 30
0.0
  0
VERTEX
  5
350
330
2E5
100
AcDbEntity
  8
Lines
100
AcDbVertex
100
AcDb2dVertex
 10
1181.958093408415
 20
486.7095989158702
 30
0.0
  0
VERTEX
  5
351
330
2E5
100
AcDbEntity
  8
Lines
100
AcDbVertex
100
AcDb2dVertex
 10
1181.959888183573
 20
486.7103929380371
 30
0.0
  0
VERTEX
  5
352
330
2E5
100
AcDbEntity
  8
Lines
100
AcDbVertex
100
AcDb2dVertex
 10
1181.96177986924
 20
486.7111869545296
 30
0.0
  0
VERTEX
  5
353
330
2E5
100
AcDbEntity
  8
Lines
100
AcDbVertex
100
AcDb2dVertex
 10
1181.965853929274
 20
486.7127749657396
 30
0.0
  0
VERTEX
  5
354
330
2E5
100
AcDbEntity
  8
Lines
100
AcDbVertex
100
AcDb2dVertex
 10
1181.970315502866
 20
486.7143629399969
 30
0.0
  0
VERTEX
  5
355
330
2E5
100
AcDbEntity
  8
Lines
100
AcDbVertex
100
AcDb2dVertex
 10
1181.975164504364
 20
486.7159508677987
 30
0.0
  0
VERTEX
  5
356
330
2E5
100
AcDbEntity
  8
Lines
100
AcDbVertex
100
AcDb2dVertex
 10
1181.980400848115
 20
486.7175387396414
 30
0.0
  0
VERTEX
  5
357
330
2E5
100
AcDbEntity
  8
Lines
100
AcDbVertex
100
AcDb2dVertex
 10
1181.992035219768
 20
486.720714277438
 30
0.0
  0
VERTEX
  5
358
330
2E5
100
AcDbEntity
  8
Lines
100
AcDbVertex
100
AcDb2dVertex
 10
1182.008977327298
 20
486.7247328496911
 30
0.0
  0
VERTEX
  5
359
330
2E5
100
AcDbEntity
  8
Lines
100
AcDbVertex
100
AcDb2dVertex
 10
1182.02838392507
 20
486.7287494784239
 30
0.0
  0
VERTEX
  5
35A
330
2E5
100
AcDbEntity
  8
Lines
100
AcDbVertex
100
AcDb2dVertex
 10
1182.050248785677
 20
486.7327644234717
 30
0.0
  0
VERTEX
  5
35B
330
2E5
100
AcDbEntity
  8
Lines
100
AcDbVertex
100
AcDb2dVertex
 10
1182.074565681712
 20
486.7367779446698
 30
0.0
  0
VERTEX
  5
35C
330
2E5
100
AcDbEntity
  8
Lines
100
AcDbVertex
100
AcDb2dVertex
 10
1182.130530670432
 20
486.7448017548573
 30
0.0
  0
VERTEX
  5
35D
330
2E5
100
AcDbEntity
  8
Lines
100
AcDbVertex
100
AcDb2dVertex
 10
1182.196229071967
 20
486.7528229876682
 30
0.0
  0
VERTEX
  5
35E
330
2E5
100
AcDbEntity
  8
Lines
100
AcDbVertex
100
AcDb2dVertex
 10
1182.356626836432
 20
486.7688660358858
 30
0.0
  0
VERTEX
  5
35F
330
2E5
100
AcDbEntity
  8
Lines
100
AcDbVertex
100
AcDb2dVertex
 10
1182.555360421008
 20
486.7849237187752
 30
0.0
  0
VERTEX
  5
360
330
2E5
100
AcDbEntity
  8
Lines
100
AcDbVertex
100
AcDb2dVertex
 10
1183.714895915633
 20
486.8491591029303
 30
0.0
  0
VERTEX
  5
361
330
2E5
100
AcDbEntity
  8
Lines
100
AcDbVertex
100
AcDb2dVertex
 10
1185.500000000013
 20
486.9166594823075
 30
0.0
  0
VERTEX
  5
362
330
2E5
100
AcDbEntity
  8
Lines
100
AcDbVertex
100
AcDb2dVertex
 10
1192.487626423039
 20
487.1060311343057
 30
0.0
  0
VERTEX
  5
363
330
2E5
100
AcDbEntity
  8
Lines
100
AcDbVertex
100
AcDb2dVertex
 10
1192.499999129395
 20
487.1061844157247
 30
0.0
 42
-0.9900794815610203
  0
VERTEX
  5
364
330
2E5
100
AcDbEntity
  8
Lines
100
AcDbVertex
100
AcDb2dVertex
 10
1192.512371835752
 20
486.1130018464264
 30
0.0
  0
VERTEX
  5
365
330
2E5
100
AcDbEntity
  8
Lines
100
AcDbVertex
100
AcDb2dVertex
 10
1192.499999129395
 20
486.1126971175948
 30
0.0
  0
VERTEX
  5
366
330
2E5
100
AcDbEntity
  8
Lines
100
AcDbVertex
100
AcDb2dVertex
 10
1185.500000000013
 20
485.9230583441675
 30
0.0
  0
VERTEX
  5
367
330
2E5
100
AcDbEntity
  8
Lines
100
AcDbVertex
100
AcDb2dVertex
 10
1183.728643456195
 20
485.8561327009112
 30
0.0
  0
VERTEX
  5
368
330
2E5
100
AcDbEntity
  8
Lines
100
AcDbVertex
100
AcDb2dVertex
 10
1182.563696782208
 20
485.7919222409374
 30
0.0
  0
VERTEX
  5
369
330
2E5
100
AcDbEntity
  8
Lines
100
AcDbVertex
100
AcDb2dVertex
 10
1182.363518313914
 20
485.7758599612089
 30
0.0
  0
VERTEX
  5
36A
330
2E5
100
AcDbEntity
  8
Lines
100
AcDbVertex
100
AcDb2dVertex
 10
1182.201651086472
 20
485.7598129447116
 30
0.0
  0
VERTEX
  5
36B
330
2E5
100
AcDbEntity
  8
Lines
100
AcDbVertex
100
AcDb2dVertex
 10
1182.135210048023
 20
485.7517908722797
 30
0.0
  0
VERTEX
  5
36C
330
2E5
100
AcDbEntity
  8
Lines
100
AcDbVertex
100
AcDb2dVertex
 10
1182.078497851732
 20
485.7437674701816
 30
0.0
  0
VERTEX
  5
36D
330
2E5
100
AcDbEntity
  8
Lines
100
AcDbVertex
100
AcDb2dVertex
 10
1182.053805801888
 20
485.7397547345209
 30
0.0
  0
VERTEX
  5
36E
330
2E5
100
AcDbEntity
  8
Lines
100
AcDbVertex
100
AcDb2dVertex
 10
1182.031564841577
 20
485.7357410232594
 30
0.0
  0
VERTEX
  5
36F
330
2E5
100
AcDbEntity
  8
Lines
100
AcDbVertex
100
AcDb2dVertex
 10
1182.011781263796
 20
485.7317261220024
 30
0.0
  0
VERTEX
  5
370
330
2E5
100
AcDbEntity
  8
Lines
100
AcDbVertex
100
AcDb2dVertex
 10
1181.994461361542
 20
485.7277098163551
 30
0.0
  0
VERTEX
  5
371
330
2E5
100
AcDbEntity
  8
Lines
100
AcDbVertex
100
AcDb2dVertex
 10
1181.982258924171
 20
485.7244604090951
 30
0.0
  0
VERTEX
  5
372
330
2E5
100
AcDbEntity
  8
Lines
100
AcDbVertex
100
AcDb2dVertex
 10
1181.976766862935
 20
485.7228361220647
 30
0.0
  0
VERTEX
  5
373
330
2E5
100
AcDbEntity
  8
Lines
100
AcDbVertex
100
AcDb2dVertex
 10
1181.971681032323
 20
485.7212120580352
 30
0.0
  0
VERTEX
  5
374
330
2E5
100
AcDbEntity
  8
Lines
100
AcDbVertex
100
AcDb2dVertex
 10
1181.967001526578
 20
485.7195881759578
 30
0.0
  0
VERTEX
  5
375
330
2E5
100
AcDbEntity
  8
Lines
100
AcDbVertex
100
AcDb2dVertex
 10
1181.962728439942
 20
485.7179644347835
 30
0.0
  0
VERTEX
  5
376
330
2E5
100
AcDbEntity
  8
Lines
100
AcDbVertex
100
AcDb2dVertex
 10
1181.960744333241
 20
485.7171526042072
 30
0.0
  0
VERTEX
  5
377
330
2E5
100
AcDbEntity
  8
Lines
100
AcDbVertex
100
AcDb2dVertex
 10
1181.958861866659
 20
485.7163407934632
 30
0.0
  0
VERTEX
  5
378
330
2E5
100
AcDbEntity
  8
Lines
100
AcDbVertex
100
AcDb2dVertex
 10
1181.957081051975
 20
485.7155289974206
 30
0.0
  0
VERTEX
  5
379
330
2E5
100
AcDbEntity
  8
Lines
100
AcDbVertex
100
AcDb2dVertex
 10
1181.955401900971
 20
485.714717210948
 30
0.0
  0
VERTEX
  5
37A
330
2E5
100
AcDbEntity
  8
Lines
100
AcDbVertex
100
AcDb2dVertex
 10
1181.953824425426
 20
485.7139054289145
 30
0.0
  0
VERTEX
  5
37B
330
2E5
100
AcDbEntity
  8
Lines
100
AcDbVertex
100
AcDb2dVertex
 10
1181.95234863712
 20
485.7130936461889
 30
0.0
  0
VERTEX
  5
37C
330
2E5
100
AcDbEntity
  8
Lines
100
AcDbVertex
100
AcDb2dVertex
 10
1181.950974547835
 20
485.7122818576401
 30
0.0
  0
VERTEX
  5
37D
330
2E5
100
AcDbEntity
  8
Lines
100
AcDbVertex
100
AcDb2dVertex
 10
1181.950325644007
 20
485.7118759595785
 30
0.0
  0
VERTEX
  5
37E
330
2E5
100
AcDbEntity
  8
Lines
100
AcDbVertex
100
AcDb2dVertex
 10
1181.949702169351
 20
485.7114700581369
 30
0.0
  0
VERTEX
  5
37F
330
2E5
100
AcDbEntity
  8
Lines
100
AcDbVertex
100
AcDb2dVertex
 10
1181.94910412534
 20
485.7110641526739
 30
0.0
  0
VERTEX
  5
380
330
2E5
100
AcDbEntity
  8
Lines
100
AcDbVertex
100
AcDb2dVertex
 10
1181.948531513448
 20
485.7106582425482
 30
0.0
  0
VERTEX
  5
381
330
2E5
100
AcDbEntity
  8
Lines
100
AcDbVertex
100
AcDb2dVertex
 10
1181.947984335145
 20
485.7102523271183
 30
0.0
  0
VERTEX
  5
382
330
2E5
100
AcDbEntity
  8
Lines
100
AcDbVertex
100
AcDb2dVertex
 10
1181.947462591906
 20
485.7098464057429
 30
0.0
  0
VERTEX
  5
383
330
2E5
100
AcDbEntity
  8
Lines
100
AcDbVertex
100
AcDb2dVertex
 10
1181.946966285202
 20
485.7094404777806
 30
0.0
  0
VERTEX
  5
384
330
2E5
100
AcDbEntity
  8
Lines
100
AcDbVertex
100
AcDb2dVertex
 10
1181.946495416506
 20
485.7090345425899
 30
0.0
  0
VERTEX
  5
385
330
2E5
100
AcDbEntity
  8
Lines
100
AcDbVertex
100
AcDb2dVertex
 10
1181.94604998729
 20
485.7086285995296
 30
0.0
  0
VERTEX
  5
386
330
2E5
100
AcDbEntity
  8
Lines
100
AcDbVertex
100
AcDb2dVertex
 10
1181.945629999027
 20
485.7082226479581
 30
0.0
  0
VERTEX
  5
387
330
2E5
100
AcDbEntity
  8
Lines
100
AcDbVertex
100
AcDb2dVertex
 10
1181.94523545319
 20
485.7078166872341
 30
0.0
  0
VERTEX
  5
388
330
2E5
100
AcDbEntity
  8
Lines
100
AcDbVertex
100
AcDb2dVertex
 10
1181.944866351251
 20
485.7074107167163
 30
0.0
  0
VERTEX
  5
389
330
2E5
100
AcDbEntity
  8
Lines
100
AcDbVertex
100
AcDb2dVertex
 10
1181.944691342203
 20
485.7072077275842
 30
0.0
  0
VERTEX
  5
38A
330
2E5
100
AcDbEntity
  8
Lines
100
AcDbVertex
100
AcDb2dVertex
 10
1181.944522694682
 20
485.7070047357631
 30
0.0
  0
VERTEX
  5
38B
330
2E5
100
AcDbEntity
  8
Lines
100
AcDbVertex
100
AcDb2dVertex
 10
1181.944360408872
 20
485.7068017411729
 30
0.0
  0
VERTEX
  5
38C
330
2E5
100
AcDbEntity
  8
Lines
100
AcDbVertex
100
AcDb2dVertex
 10
1181.944204484957
 20
485.7065987437333
 30
0.0
  0
VERTEX
  5
38D
330
2E5
100
AcDbEntity
  8
Lines
100
AcDbVertex
100
AcDb2dVertex
 10
1181.944054923121
 20
485.7063957433643
 30
0.0
  0
VERTEX
  5
38E
330
2E5
100
AcDbEntity
  8
Lines
100
AcDbVertex
100
AcDb2dVertex
 10
1181.943911723548
 20
485.7061927399855
 30
0.0
  0
VERTEX
  5
38F
330
2E5
100
AcDbEntity
  8
Lines
100
AcDbVertex
100
AcDb2dVertex
 10
1181.943774886422
 20
485.7059897335168
 30
0.0
  0
VERTEX
  5
390
330
2E5
100
AcDbEntity
  8
Lines
100
AcDbVertex
100
AcDb2dVertex
 10
1181.943644411927
 20
485.7057867238782
 30
0.0
  0
VERTEX
  5
391
330
2E5
100
AcDbEntity
  8
Lines
100
AcDbVertex
100
AcDb2dVertex
 10
1181.943520300248
 20
485.7055837109893
 30
0.0
  0
VERTEX
  5
392
330
2E5
100
AcDbEntity
  8
Lines
100
AcDbVertex
100
AcDb2dVertex
 10
1181.943402551567
 20
485.70538069477
 30
0.0
  0
VERTEX
  5
393
330
2E5
100
AcDbEntity
  8
Lines
100
AcDbVertex
100
AcDb2dVertex
 10
1181.94329116607
 20
485.7051776751402
 30
0.0
  0
VERTEX
  5
394
330
2E5
100
AcDbEntity
  8
Lines
100
AcDbVertex
100
AcDb2dVertex
 10
1181.943186143941
 20
485.7049746520197
 30
0.0
  0
VERTEX
  5
395
330
2E5
100
AcDbEntity
  8
Lines
100
AcDbVertex
100
AcDb2dVertex
 10
1181.943087485363
 20
485.7047716253282
 30
0.0
  0
VERTEX
  5
396
330
2E5
100
AcDbEntity
  8
Lines
100
AcDbVertex
100
AcDb2dVertex
 10
1181.94299519052
 20
485.7045685949857
 30
0.0
  0
VERTEX
  5
397
330
2E5
100
AcDbEntity
  8
Lines
100
AcDbVertex
100
AcDb2dVertex
 10
1181.942909259597
 20
485.7043655609119
 30
0.0
  0
VERTEX
  5
398
330
2E5
100
AcDbEntity
  8
Lines
100
AcDbVertex
100
AcDb2dVertex
 10
1181.942829692778
 20
485.7041625230268
 30
0.0
  0
VERTEX
  5
399
330
2E5
100
AcDbEntity
  8
Lines
100
AcDbVertex
100
AcDb2dVertex
 10
1181.942756490246
 20
485.70395948125
 30
0.0
  0
VERTEX
  5
39A
330
2E5
100
AcDbEntity
  8
Lines
100
AcDbVertex
100
AcDb2dVertex
 10
1181.942689652187
 20
485.7037564355013
 30
0.0
  0
VERTEX
  5
39B
330
2E5
100
AcDbEntity
  8
Lines
100
AcDbVertex
100
AcDb2dVertex
 10
1181.942629178783
 20
485.7035533857007
 30
0.0
  0
VERTEX
  5
39C
330
2E5
100
AcDbEntity
  8
Lines
100
AcDbVertex
100
AcDb2dVertex
 10
1181.942575070219
 20
485.7033503317681
 30
0.0
  0
VERTEX
  5
39D
330
2E5
100
AcDbEntity
  8
Lines
100
AcDbVertex
100
AcDb2dVertex
 10
1181.94252732668
 20
485.7031472736232
 30
0.0
  0
VERTEX
  5
39E
330
2E5
100
AcDbEntity
  8
Lines
100
AcDbVertex
100
AcDb2dVertex
 10
1181.942485948348
 20
485.7029442111858
 30
0.0
  0
VERTEX
  5
39F
330
2E5
100
AcDbEntity
  8
Lines
100
AcDbVertex
100
AcDb2dVertex
 10
1181.942450935408
 20
485.7027411443758
 30
0.0
  0
VERTEX
  5
3A0
330
2E5
100
AcDbEntity
  8
Lines
100
AcDbVertex
100
AcDb2dVertex
 10
1181.942422288045
 20
485.7025380731129
 30
0.0
  0
VERTEX
  5
3A1
330
2E5
100
AcDbEntity
  8
Lines
100
AcDbVertex
100
AcDb2dVertex
 10
1181.942400006442
 20
485.7023349973171
 30
0.0
  0
VERTEX
  5
3A2
330
2E5
100
AcDbEntity
  8
Lines
100
AcDbVertex
100
AcDb2dVertex
 10
1181.942384090784
 20
485.702131916908
 30
0.0
  0
VERTEX
  5
3A3
330
2E5
100
AcDbEntity
  8
Lines
100
AcDbVertex
100
AcDb2dVertex
 10
1181.942374541254
 20
485.7019288318056
 30
0.0
  0
VERTEX
  5
3A4
330
2E5
100
AcDbEntity
  8
Lines
100
AcDbVertex
100
AcDb2dVertex
 10
1181.942371358036
 20
485.7017257419297
 30
0.0
  0
VERTEX
  5
3A5
330
2E5
100
AcDbEntity
  8
Lines
100
AcDbVertex
100
AcDb2dVertex
 10
1181.942371358036
 20
485.0513377793603
 30
0.0
  0
SEQEND
  5
3A6
330
2E5
100
AcDbEntity
  8
Lines
  0
POLYLINE
  5
3A7
330
1F
100
AcDbEntity
  8
Lines
100
AcDb2dPolyline
 66
     1
 10
0.0
 20
0.0
 30
0.0
  0
VERTEX
  5
3A8
330
3A7
100
AcDbEntity
  8
Lines
100
AcDbVertex
100
AcDb2dVertex
 10
1202.765115171259
 20
484.9414354314655
 30
0.0
 42
-0.0603679393671803
  0
VERTEX
  5
3A9
330
3A7
100
AcDbEntity
  8
Lines
100
AcDbVertex
100
AcDb2dVertex
 10
1203.044311965225
 20
484.8928433095101
 30
0.0
 42
-0.2658671071904882
  0
VERTEX
  5
3AA
330
3A7
100
AcDbEntity
  8
Lines
100
AcDbVertex
100
AcDb2dVertex
 10
1203.057626900755
 20
484.8797053974826
 30
0.0
  0
VERTEX
  5
3AB
330
3A7
100
AcDbEntity
  8
Lines
100
AcDbVertex
100
AcDb2dVertex
 10
1203.057623826539
 20
484.879505830608
 30
0.0
  0
VERTEX
  5
3AC
330
3A7
100
AcDbEntity
  8
Lines
100
AcDbVertex
100
AcDb2dVertex
 10
1203.057614604119
 20
484.8793062654496
 30
0.0
  0
VERTEX
  5
3AD
330
3A7
100
AcDbEntity
  8
Lines
100
AcDbVertex
100
AcDb2dVertex
 10
1203.057599233837
 20
484.8791067019911
 30
0.0
  0
VERTEX
  5
3AE
330
3A7
100
AcDbEntity
  8
Lines
100
AcDbVertex
100
AcDb2dVertex
 10
1203.057577716036
 20
484.8789071402163
 30
0.0
  0
VERTEX
  5
3AF
330
3A7
100
AcDbEntity
  8
Lines
100
AcDbVertex
100
AcDb2dVertex
 10
1203.057550051057
 20
484.8787075801089
 30
0.0
  0
VERTEX
  5
3B0
330
3A7
100
AcDbEntity
  8
Lines
100
AcDbVertex
100
AcDb2dVertex
 10
1203.057516239243
 20
484.8785080216528
 30
0.0
  0
VERTEX
  5
3B1
330
3A7
100
AcDbEntity
  8
Lines
100
AcDbVertex
100
AcDb2dVertex
 10
1203.057476280936
 20
484.8783084648317
 30
0.0
  0
VERTEX
  5
3B2
330
3A7
100
AcDbEntity
  8
Lines
100
AcDbVertex
100
AcDb2dVertex
 10
1203.057430176478
 20
484.8781089096294
 30
0.0
  0
VERTEX
  5
3B3
330
3A7
100
AcDbEntity
  8
Lines
100
AcDbVertex
100
AcDb2dVertex
 10
1203.05737792621
 20
484.8779093560297
 30
0.0
  0
VERTEX
  5
3B4
330
3A7
100
AcDbEntity
  8
Lines
100
AcDbVertex
100
AcDb2dVertex
 10
1203.057319530476
 20
484.8777098040165
 30
0.0
  0
VERTEX
  5
3B5
330
3A7
100
AcDbEntity
  8
Lines
100
AcDbVertex
100
AcDb2dVertex
 10
1203.057254989618
 20
484.8775102535735
 30
0.0
  0
VERTEX
  5
3B6
330
3A7
100
AcDbEntity
  8
Lines
100
AcDbVertex
100
AcDb2dVertex
 10
1203.057184303977
 20
484.8773107046844
 30
0.0
  0
VERTEX
  5
3B7
330
3A7
100
AcDbEntity
  8
Lines
100
AcDbVertex
100
AcDb2dVertex
 10
1203.057107473895
 20
484.8771111573332
 30
0.0
  0
VERTEX
  5
3B8
330
3A7
100
AcDbEntity
  8
Lines
100
AcDbVertex
100
AcDb2dVertex
 10
1203.057024499716
 20
484.8769116115035
 30
0.0
  0
VERTEX
  5
3B9
330
3A7
100
AcDbEntity
  8
Lines
100
AcDbVertex
100
AcDb2dVertex
 10
1203.056935381781
 20
484.8767120671793
 30
0.0
  0
VERTEX
  5
3BA
330
3A7
100
AcDbEntity
  8
Lines
100
AcDbVertex
100
AcDb2dVertex
 10
1203.056840120431
 20
484.8765125243441
 30
0.0
  0
VERTEX
  5
3BB
330
3A7
100
AcDbEntity
  8
Lines
100
AcDbVertex
100
AcDb2dVertex
 10
1203.05673871601
 20
484.8763129829819
 30
0.0
  0
VERTEX
  5
3BC
330
3A7
100
AcDbEntity
  8
Lines
100
AcDbVertex
100
AcDb2dVertex
 10
1203.056631168859
 20
484.8761134430765
 30
0.0
  0
VERTEX
  5
3BD
330
3A7
100
AcDbEntity
  8
Lines
100
AcDbVertex
100
AcDb2dVertex
 10
1203.056517479321
 20
484.8759139046115
 30
0.0
  0
VERTEX
  5
3BE
330
3A7
100
AcDbEntity
  8
Lines
100
AcDbVertex
100
AcDb2dVertex
 10
1203.056397647738
 20
484.8757143675709
 30
0.0
  0
VERTEX
  5
3BF
330
3A7
100
AcDbEntity
  8
Lines
100
AcDbVertex
100
AcDb2dVertex
 10
1203.056271674451
 20
484.8755148319385
 30
0.0
  0
VERTEX
  5
3C0
330
3A7
100
AcDbEntity
  8
Lines
100
AcDbVertex
100
AcDb2dVertex
 10
1203.056139559803
 20
484.8753152976979
 30
0.0
  0
VERTEX
  5
3C1
330
3A7
100
AcDbEntity
  8
Lines
100
AcDbVertex
100
AcDb2dVertex
 10
1203.056001304137
 20
484.8751157648329
 30
0.0
  0
VERTEX
  5
3C2
330
3A7
100
AcDbEntity
  8
Lines
100
AcDbVertex
100
AcDb2dVertex
 10
1203.055856907793
 20
484.8749162333276
 30
0.0
  0
VERTEX
  5
3C3
330
3A7
100
AcDbEntity
  8
Lines
100
AcDbVertex
100
AcDb2dVertex
 10
1203.055706371115
 20
484.8747167031654
 30
0.0
  0
VERTEX
  5
3C4
330
3A7
100
AcDbEntity
  8
Lines
100
AcDbVertex
100
AcDb2dVertex
 10
1203.055549694445
 20
484.8745171743303
 30
0.0
  0
VERTEX
  5
3C5
330
3A7
100
AcDbEntity
  8
Lines
100
AcDbVertex
100
AcDb2dVertex
 10
1203.055386878124
 20
484.8743176468062
 30
0.0
  0
VERTEX
  5
3C6
330
3A7
100
AcDbEntity
  8
Lines
100
AcDbVertex
100
AcDb2dVertex
 10
1203.055217922496
 20
484.8741181205766
 30
0.0
  0
VERTEX
  5
3C7
330
3A7
100
AcDbEntity
  8
Lines
100
AcDbVertex
100
AcDb2dVertex
 10
1203.054861594682
 20
484.8737190719366
 30
0.0
  0
VERTEX
  5
3C8
330
3A7
100
AcDbEntity
  8
Lines
100
AcDbVertex
100
AcDb2dVertex
 10
1203.054480713742
 20
484.8733200282808
 30
0.0
  0
VERTEX
  5
3C9
330
3A7
100
AcDbEntity
  8
Lines
100
AcDbVertex
100
AcDb2dVertex
 10
1203.054075282411
 20
484.8729209894793
 30
0.0
  0
VERTEX
  5
3CA
330
3A7
100
AcDbEntity
  8
Lines
100
AcDbVertex
100
AcDb2dVertex
 10
1203.053645303429
 20
484.8725219554025
 30
0.0
  0
VERTEX
  5
3CB
330
3A7
100
AcDbEntity
  8
Lines
100
AcDbVertex
100
AcDb2dVertex
 10
1203.05319077953
 20
484.8721229259208
 30
0.0
  0
VERTEX
  5
3CC
330
3A7
100
AcDbEntity
  8
Lines
100
AcDbVertex
100
AcDb2dVertex
 10
1203.052711713454
 20
484.8717239009046
 30
0.0
  0
VERTEX
  5
3CD
330
3A7
100
AcDbEntity
  8
Lines
100
AcDbVertex
100
AcDb2dVertex
 10
1203.052208107936
 20
484.871324880224
 30
0.0
  0
VERTEX
  5
3CE
330
3A7
100
AcDbEntity
  8
Lines
100
AcDbVertex
100
AcDb2dVertex
 10
1203.051679965714
 20
484.8709258637494
 30
0.0
  0
VERTEX
  5
3CF
330
3A7
100
AcDbEntity
  8
Lines
100
AcDbVertex
100
AcDb2dVertex
 10
1203.051127289525
 20
484.8705268513513
 30
0.0
  0
VERTEX
  5
3D0
330
3A7
100
AcDbEntity
  8
Lines
100
AcDbVertex
100
AcDb2dVertex
 10
1203.050550082107
 20
484.8701278428999
 30
0.0
  0
VERTEX
  5
3D1
330
3A7
100
AcDbEntity
  8
Lines
100
AcDbVertex
100
AcDb2dVertex
 10
1203.049948346196
 20
484.8697288382656
 30
0.0
  0
VERTEX
  5
3D2
330
3A7
100
AcDbEntity
  8
Lines
100
AcDbVertex
100
AcDb2dVertex
 10
1203.049322084529
 20
484.8693298373185
 30
0.0
  0
VERTEX
  5
3D3
330
3A7
100
AcDbEntity
  8
Lines
100
AcDbVertex
100
AcDb2dVertex
 10
1203.047995994879
 20
484.8685318459678
 30
0.0
  0
VERTEX
  5
3D4
330
3A7
100
AcDbEntity
  8
Lines
100
AcDbVertex
100
AcDb2dVertex
 10
1203.046571835052
 20
484.8677338678106
 30
0.0
  0
VERTEX
  5
3D5
330
3A7
100
AcDbEntity
  8
Lines
100
AcDbVertex
100
AcDb2dVertex
 10
1203.045049626948
 20
484.8669359018091
 30
0.0
  0
VERTEX
  5
3D6
330
3A7
100
AcDbEntity
  8
Lines
100
AcDbVertex
100
AcDb2dVertex
 10
1203.043429392461
 20
484.8661379469264
 30
0.0
  0
VERTEX
  5
3D7
330
3A7
100
AcDbEntity
  8
Lines
100
AcDbVertex
100
AcDb2dVertex
 10
1203.04171115349
 20
484.8653400021248
 30
0.0
  0
VERTEX
  5
3D8
330
3A7
100
AcDbEntity
  8
Lines
100
AcDbVertex
100
AcDb2dVertex
 10
1203.039894931932
 20
484.8645420663671
 30
0.0
  0
VERTEX
  5
3D9
330
3A7
100
AcDbEntity
  8
Lines
100
AcDbVertex
100
AcDb2dVertex
 10
1203.037980749684
 20
484.8637441386158
 30
0.0
  0
VERTEX
  5
3DA
330
3A7
100
AcDbEntity
  8
Lines
100
AcDbVertex
100
AcDb2dVertex
 10
1203.033858590708
 20
484.862148302983
 30
0.0
  0
VERTEX
  5
3DB
330
3A7
100
AcDbEntity
  8
Lines
100
AcDbVertex
100
AcDb2dVertex
 10
1203.029344851738
 20
484.8605524869274
 30
0.0
  0
VERTEX
  5
3DC
330
3A7
100
AcDbEntity
  8
Lines
100
AcDbVertex
100
AcDb2dVertex
 10
1203.024439707953
 20
484.85895668215
 30
0.0
  0
VERTEX
  5
3DD
330
3A7
100
AcDbEntity
  8
Lines
100
AcDbVertex
100
AcDb2dVertex
 10
1203.01914333453
 20
484.8573608803515
 30
0.0
  0
VERTEX
  5
3DE
330
3A7
100
AcDbEntity
  8
Lines
100
AcDbVertex
100
AcDb2dVertex
 10
1203.007377599481
 20
484.8541692524956
 30
0.0
  0
VERTEX
  5
3DF
330
3A7
100
AcDbEntity
  8
Lines
100
AcDbVertex
100
AcDb2dVertex
 10
1202.994049048011
 20
484.850977536967
 30
0.0
  0
VERTEX
  5
3E0
330
3A7
100
AcDbEntity
  8
Lines
100
AcDbVertex
100
AcDb2dVertex
 10
1202.979159081541
 20
484.8477856673734
 30
0.0
  0
VERTEX
  5
3E1
330
3A7
100
AcDbEntity
  8
Lines
100
AcDbVertex
100
AcDb2dVertex
 10
1202.944700509285
 20
484.8414012004208
 30
0.0
  0
VERTEX
  5
3E2
330
3A7
100
AcDbEntity
  8
Lines
100
AcDbVertex
100
AcDb2dVertex
 10
1202.904013094081
 20
484.8350153204975
 30
0.0
  0
VERTEX
  5
3E3
330
3A7
100
AcDbEntity
  8
Lines
100
AcDbVertex
100
AcDb2dVertex
 10
1202.857108047293
 20
484.8286274964635
 30
0.0
  0
VERTEX
  5
3E4
330
3A7
100
AcDbEntity
  8
Lines
100
AcDbVertex
100
AcDb2dVertex
 10
1202.711980505515
 20
484.8125687314991
 30
0.0
  0
VERTEX
  5
3E5
330
3A7
100
AcDbEntity
  8
Lines
100
AcDbVertex
100
AcDb2dVertex
 10
1202.528579741553
 20
484.7965248151658
 30
0.0
  0
VERTEX
  5
3E6
330
3A7
100
AcDbEntity
  8
Lines
100
AcDbVertex
100
AcDb2dVertex
 10
1202.04924497734
 20
484.7644183727983
 30
0.0
  0
VERTEX
  5
3E7
330
3A7
100
AcDbEntity
  8
Lines
100
AcDbVertex
100
AcDb2dVertex
 10
1199.965369319767
 20
484.6742262112195
 30
0.0
  0
VERTEX
  5
3E8
330
3A7
100
AcDbEntity
  8
Lines
100
AcDbVertex
100
AcDb2dVertex
 10
1198.798876630678
 20
484.6359783787114
 30
0.0
 42
-0.0010018726959269
  0
VERTEX
  5
3E9
330
3A7
100
AcDbEntity
  8
Lines
100
AcDbVertex
100
AcDb2dVertex
 10
1196.551850515768
 20
484.5717722410808
 30
0.0
  0
VERTEX
  5
3EA
330
3A7
100
AcDbEntity
  8
Lines
100
AcDbVertex
100
AcDb2dVertex
 10
1192.499999129395
 20
484.4687170257335
 30
0.0
  0
VERTEX
  5
3EB
330
3A7
100
AcDbEntity
  8
Lines
100
AcDbVertex
100
AcDb2dVertex
 10
1185.500000000013
 20
484.2790497624202
 30
0.0
  0
VERTEX
  5
3EC
330
3A7
100
AcDbEntity
  8
Lines
100
AcDbVertex
100
AcDb2dVertex
 10
1183.194753126117
 20
484.1864374159682
 30
0.0
  0
VERTEX
  5
3ED
330
3A7
100
AcDbEntity
  8
Lines
100
AcDbVertex
100
AcDb2dVertex
 10
1182.654255006584
 20
484.154328480352
 30
0.0
  0
VERTEX
  5
3EE
330
3A7
100
AcDbEntity
  8
Lines
100
AcDbVertex
100
AcDb2dVertex
 10
1182.261811557271
 20
484.1222241639123
 30
0.0
  0
VERTEX
  5
3EF
330
3A7
100
AcDbEntity
  8
Lines
100
AcDbVertex
100
AcDb2dVertex
 10
1182.122968849897
 20
484.1061593872791
 30
0.0
  0
VERTEX
  5
3F0
330
3A7
100
AcDbEntity
  8
Lines
100
AcDbVertex
100
AcDb2dVertex
 10
1182.068222842589
 20
484.0981288180986
 30
0.0
  0
VERTEX
  5
3F1
330
3A7
100
AcDbEntity
  8
Lines
100
AcDbVertex
100
AcDb2dVertex
 10
1182.044531020833
 20
484.0941123955347
 30
0.0
  0
VERTEX
  5
3F2
330
3A7
100
AcDbEntity
  8
Lines
100
AcDbVertex
100
AcDb2dVertex
 10
1182.023298023313
 20
484.0900946075567
 30
0.0
  0
VERTEX
  5
3F3
330
3A7
100
AcDbEntity
  8
Lines
100
AcDbVertex
100
AcDb2dVertex
 10
1182.004527377259
 20
484.0860749990911
 30
0.0
  0
VERTEX
  5
3F4
330
3A7
100
AcDbEntity
  8
Lines
100
AcDbVertex
100
AcDb2dVertex
 10
1181.996066538291
 20
484.0840643699648
 30
0.0
  0
VERTEX
  5
3F5
330
3A7
100
AcDbEntity
  8
Lines
100
AcDbVertex
100
AcDb2dVertex
 10
1181.988222609901
 20
484.082053115064
 30
0.0
  0
VERTEX
  5
3F6
330
3A7
100
AcDbEntity
  8
Lines
100
AcDbVertex
100
AcDb2dVertex
 10
1181.980996032992
 20
484.0800411775045
 30
0.0
  0
VERTEX
  5
3F7
330
3A7
100
AcDbEntity
  8
Lines
100
AcDbVertex
100
AcDb2dVertex
 10
1181.974387248467
 20
484.078028500402
 30
0.0
  0
VERTEX
  5
3F8
330
3A7
100
AcDbEntity
  8
Lines
100
AcDbVertex
100
AcDb2dVertex
 10
1181.968396697231
 20
484.0760150268723
 30
0.0
  0
VERTEX
  5
3F9
330
3A7
100
AcDbEntity
  8
Lines
100
AcDbVertex
100
AcDb2dVertex
 10
1181.965633396879
 20
484.075007973671
 30
0.0
  0
VERTEX
  5
3FA
330
3A7
100
AcDbEntity
  8
Lines
100
AcDbVertex
100
AcDb2dVertex
 10
1181.963024820187
 20
484.0740007000314
 30
0.0
  0
VERTEX
  5
3FB
330
3A7
100
AcDbEntity
  8
Lines
100
AcDbVertex
100
AcDb2dVertex
 10
1181.96057102227
 20
484.0729931988429
 30
0.0
  0
VERTEX
  5
3FC
330
3A7
100
AcDbEntity
  8
Lines
100
AcDbVertex
100
AcDb2dVertex
 10
1181.958272058239
 20
484.0719854629949
 30
0.0
  0
VERTEX
  5
3FD
330
3A7
100
AcDbEntity
  8
Lines
100
AcDbVertex
100
AcDb2dVertex
 10
1181.956127983208
 20
484.0709774853769
 30
0.0
  0
VERTEX
  5
3FE
330
3A7
100
AcDbEntity
  8
Lines
100
AcDbVertex
100
AcDb2dVertex
 10
1181.95413885229
 20
484.0699692588785
 30
0.0
  0
VERTEX
  5
3FF
330
3A7
100
AcDbEntity
  8
Lines
100
AcDbVertex
100
AcDb2dVertex
 10
1181.953202408096
 20
484.0694650500771
 30
0.0
  0
VERTEX
  5
400
330
3A7
100
AcDbEntity
  8
Lines
100
AcDbVertex
100
AcDb2dVertex
 10
1181.952304720598
 20
484.0689607763891
 30
0.0
  0
VERTEX
  5
401
330
3A7
100
AcDbEntity
  8
Lines
100
AcDbVertex
100
AcDb2dVertex
 10
1181.951445796684
 20
484.0684564369258
 30
0.0
  0
VERTEX
  5
402
330
3A7
100
AcDbEntity
  8
Lines
100
AcDbVertex
100
AcDb2dVertex
 10
1181.950625643244
 20
484.0679520307982
 30
0.0
  0
VERTEX
  5
403
330
3A7
100
AcDbEntity
  8
Lines
100
AcDbVertex
100
AcDb2dVertex
 10
1181.949844267167
 20
484.0674475571176
 30
0.0
  0
VERTEX
  5
404
330
3A7
100
AcDbEntity
  8
Lines
100
AcDbVertex
100
AcDb2dVertex
 10
1181.949101675342
 20
484.0669430149952
 30
0.0
  0
VERTEX
  5
405
330
3A7
100
AcDbEntity
  8
Lines
100
AcDbVertex
100
AcDb2dVertex
 10
1181.948397874658
 20
484.0664384035421
 30
0.0
  0
VERTEX
  5
406
330
3A7
100
AcDbEntity
  8
Lines
100
AcDbVertex
100
AcDb2dVertex
 10
1181.947732872005
 20
484.0659337218697
 30
0.0
  0
VERTEX
  5
407
330
3A7
100
AcDbEntity
  8
Lines
100
AcDbVertex
100
AcDb2dVertex
 10
1181.947106674271
 20
484.0654289690889
 30
0.0
  0
VERTEX
  5
408
330
3A7
100
AcDbEntity
  8
Lines
100
AcDbVertex
100
AcDb2dVertex
 10
1181.946519288345
 20
484.0649241443111
 30
0.0
  0
VERTEX
  5
409
330
3A7
100
AcDbEntity
  8
Lines
100
AcDbVertex
100
AcDb2dVertex
 10
1181.946240151963
 20
484.0646717046454
 30
0.0
  0
VERTEX
  5
40A
330
3A7
100
AcDbEntity
  8
Lines
100
AcDbVertex
100
AcDb2dVertex
 10
1181.945970721117
 20
484.0644192466473
 30
0.0
  0
VERTEX
  5
40B
330
3A7
100
AcDbEntity
  8
Lines
100
AcDbVertex
100
AcDb2dVertex
 10
1181.945710996667
 20
484.0641667702054
 30
0.0
  0
VERTEX
  5
40C
330
3A7
100
AcDbEntity
  8
Lines
100
AcDbVertex
100
AcDb2dVertex
 10
1181.945460979476
 20
484.0639142752088
 30
0.0
  0
VERTEX
  5
40D
330
3A7
100
AcDbEntity
  8
Lines
100
AcDbVertex
100
AcDb2dVertex
 10
1181.945220670403
 20
484.0636617615463
 30
0.0
  0
VERTEX
  5
40E
330
3A7
100
AcDbEntity
  8
Lines
100
AcDbVertex
100
AcDb2dVertex
 10
1181.94499007031
 20
484.0634092291067
 30
0.0
  0
VERTEX
  5
40F
330
3A7
100
AcDbEntity
  8
Lines
100
AcDbVertex
100
AcDb2dVertex
 10
1181.944769180059
 20
484.0631566777791
 30
0.0
  0
VERTEX
  5
410
330
3A7
100
AcDbEntity
  8
Lines
100
AcDbVertex
100
AcDb2dVertex
 10
1181.94455800051
 20
484.0629041074523
 30
0.0
  0
VERTEX
  5
411
330
3A7
100
AcDbEntity
  8
Lines
100
AcDbVertex
100
AcDb2dVertex
 10
1181.944356532525
 20
484.0626515180152
 30
0.0
  0
VERTEX
  5
412
330
3A7
100
AcDbEntity
  8
Lines
100
AcDbVertex
100
AcDb2dVertex
 10
1181.944164776964
 20
484.0623989093568
 30
0.0
  0
VERTEX
  5
413
330
3A7
100
AcDbEntity
  8
Lines
100
AcDbVertex
100
AcDb2dVertex
 10
1181.943982734688
 20
484.0621462813658
 30
0.0
  0
VERTEX
  5
414
330
3A7
100
AcDbEntity
  8
Lines
100
AcDbVertex
100
AcDb2dVertex
 10
1181.94381040656
 20
484.0618936339313
 30
0.0
  0
VERTEX
  5
415
330
3A7
100
AcDbEntity
  8
Lines
100
AcDbVertex
100
AcDb2dVertex
 10
1181.943647793441
 20
484.061640966942
 30
0.0
  0
VERTEX
  5
416
330
3A7
100
AcDbEntity
  8
Lines
100
AcDbVertex
100
AcDb2dVertex
 10
1181.94349489619
 20
484.0613882802869
 30
0.0
  0
VERTEX
  5
417
330
3A7
100
AcDbEntity
  8
Lines
100
AcDbVertex
100
AcDb2dVertex
 10
1181.943351715669
 20
484.0611355738549
 30
0.0
  0
VERTEX
  5
418
330
3A7
100
AcDbEntity
  8
Lines
100
AcDbVertex
100
AcDb2dVertex
 10
1181.943218252741
 20
484.0608828475349
 30
0.0
  0
VERTEX
  5
419
330
3A7
100
AcDbEntity
  8
Lines
100
AcDbVertex
100
AcDb2dVertex
 10
1181.943094508264
 20
484.0606301012158
 30
0.0
  0
VERTEX
  5
41A
330
3A7
100
AcDbEntity
  8
Lines
100
AcDbVertex
100
AcDb2dVertex
 10
1181.942980483102
 20
484.0603773347865
 30
0.0
  0
VERTEX
  5
41B
330
3A7
100
AcDbEntity
  8
Lines
100
AcDbVertex
100
AcDb2dVertex
 10
1181.942876178114
 20
484.0601245481358
 30
0.0
  0
VERTEX
  5
41C
330
3A7
100
AcDbEntity
  8
Lines
100
AcDbVertex
100
AcDb2dVertex
 10
1181.942781594163
 20
484.0598717411528
 30
0.0
  0
VERTEX
  5
41D
330
3A7
100
AcDbEntity
  8
Lines
100
AcDbVertex
100
AcDb2dVertex
 10
1181.942696732109
 20
484.0596189137264
 30
0.0
  0
VERTEX
  5
41E
330
3A7
100
AcDbEntity
  8
Lines
100
AcDbVertex
100
AcDb2dVertex
 10
1181.942621592813
 20
484.0593660657452
 30
0.0
  0
VERTEX
  5
41F
330
3A7
100
AcDbEntity
  8
Lines
100
AcDbVertex
100
AcDb2dVertex
 10
1181.942556177136
 20
484.0591131970983
 30
0.0
  0
VERTEX
  5
420
330
3A7
100
AcDbEntity
  8
Lines
100
AcDbVertex
100
AcDb2dVertex
 10
1181.94250048594
 20
484.0588603076746
 30
0.0
  0
VERTEX
  5
421
330
3A7
100
AcDbEntity
  8
Lines
100
AcDbVertex
100
AcDb2dVertex
 10
1181.942454520086
 20
484.058607397363
 30
0.0
  0
VERTEX
  5
422
330
3A7
100
AcDbEntity
  8
Lines
100
AcDbVertex
100
AcDb2dVertex
 10
1181.942418280436
 20
484.0583544660524
 30
0.0
  0
VERTEX
  5
423
330
3A7
100
AcDbEntity
  8
Lines
100
AcDbVertex
100
AcDb2dVertex
 10
1181.942391767848
 20
484.0581015136316
 30
0.0
  0
VERTEX
  5
424
330
3A7
100
AcDbEntity
  8
Lines
100
AcDbVertex
100
AcDb2dVertex
 10
1181.942374983187
 20
484.0578485399895
 30
0.0
  0
VERTEX
  5
425
330
3A7
100
AcDbEntity
  8
Lines
100
AcDbVertex
100
AcDb2dVertex
 10
1181.942371358036
 20
483.4073155255317
 30
0.0
  0
SEQEND
  5
426
330
3A7
100
AcDbEntity
  8
Lines
  0
POLYLINE
  5
427
330
1F
100
AcDbEntity
  8
Lines
100
AcDb2dPolyline
 66
     1
 10
0.0
 20
0.0
 30
0.0
  0
VERTEX
  5
428
330
427
100
AcDbEntity
  8
Lines
100
AcDbVertex
100
AcDb2dVertex
 10
1202.764877560204
 20
481.653465902954
 30
0.0
  0
VERTEX
  5
429
330
427
100
AcDbEntity
  8
Lines
100
AcDbVertex
100
AcDb2dVertex
 10
1202.843185417456
 20
481.6445313087866
 30
0.0
  0
VERTEX
  5
42A
330
427
100
AcDbEntity
  8
Lines
100
AcDbVertex
100
AcDb2dVertex
 10
1202.909444286507
 20
481.6355956032713
 30
0.0
  0
VERTEX
  5
42B
330
427
100
AcDbEntity
  8
Lines
100
AcDbVertex
100
AcDb2dVertex
 10
1202.938033609466
 20
481.6311265601545
 30
0.0
  0
VERTEX
  5
42C
330
427
100
AcDbEntity
  8
Lines
100
AcDbVertex
100
AcDb2dVertex
 10
1202.963584596185
 20
481.6266563108762
 30
0.0
  0
VERTEX
  5
42D
330
427
100
AcDbEntity
  8
Lines
100
AcDbVertex
100
AcDb2dVertex
 10
1202.986088550267
 20
481.622184545995
 30
0.0
  0
VERTEX
  5
42E
330
427
100
AcDbEntity
  8
Lines
100
AcDbVertex
100
AcDb2dVertex
 10
1203.005536775317
 20
481.6177109560692
 30
0.0
  0
VERTEX
  5
42F
330
427
100
AcDbEntity
  8
Lines
100
AcDbVertex
100
AcDb2dVertex
 10
1203.017739241233
 20
481.6144614229108
 30
0.0
  0
VERTEX
  5
430
330
427
100
AcDbEntity
  8
Lines
100
AcDbVertex
100
AcDb2dVertex
 10
1203.023231315319
 20
481.6128370692269
 30
0.0
  0
VERTEX
  5
431
330
427
100
AcDbEntity
  8
Lines
100
AcDbVertex
100
AcDb2dVertex
 10
1203.028317157833
 20
481.6112129366178
 30
0.0
  0
VERTEX
  5
432
330
427
100
AcDbEntity
  8
Lines
100
AcDbVertex
100
AcDb2dVertex
 10
1203.032996674531
 20
481.609588984442
 30
0.0
  0
VERTEX
  5
433
330
427
100
AcDbEntity
  8
Lines
100
AcDbVertex
100
AcDb2dVertex
 10
1203.03726977117
 20
481.6079651720579
 30
0.0
  0
VERTEX
  5
434
330
427
100
AcDbEntity
  8
Lines
100
AcDbVertex
100
AcDb2dVertex
 10
1203.039253882515
 20
481.6071533055872
 30
0.0
  0
VERTEX
  5
435
330
427
100
AcDbEntity
  8
Lines
100
AcDbVertex
100
AcDb2dVertex
 10
1203.041136353505
 20
481.6063414588239
 30
0.0
  0
VERTEX
  5
436
330
427
100
AcDbEntity
  8
Lines
100
AcDbVertex
100
AcDb2dVertex
 10
1203.042917172359
 20
481.6055296266876
 30
0.0
  0
VERTEX
  5
437
330
427
100
AcDbEntity
  8
Lines
100
AcDbVertex
100
AcDb2dVertex
 10
1203.044596327295
 20
481.6047178040983
 30
0.0
  0
VERTEX
  5
438
330
427
100
AcDbEntity
  8
Lines
100
AcDbVertex
100
AcDb2dVertex
 10
1203.046173806534
 20
481.6039059859757
 30
0.0
  0
VERTEX
  5
439
330
427
100
AcDbEntity
  8
Lines
100
AcDbVertex
100
AcDb2dVertex
 10
1203.047649598296
 20
481.6030941672397
 30
0.0
  0
VERTEX
  5
43A
330
427
100
AcDbEntity
  8
Lines
100
AcDbVertex
100
AcDb2dVertex
 10
1203.049023690799
 20
481.60228234281
 30
0.0
  0
VERTEX
  5
43B
330
427
100
AcDbEntity
  8
Lines
100
AcDbVertex
100
AcDb2dVertex
 10
1203.049672596147
 20
481.6018764268725
 30
0.0
  0
VERTEX
  5
43C
330
427
100
AcDbEntity
  8
Lines
100
AcDbVertex
100
AcDb2dVertex
 10
1203.050296072263
 20
481.6014705076065
 30
0.0
  0
VERTEX
  5
43D
330
427
100
AcDbEntity
  8
Lines
100
AcDbVertex
100
AcDb2dVertex
 10
1203.050894117675
 20
481.601064584377
 30
0.0
  0
VERTEX
  5
43E
330
427
100
AcDbEntity
  8
Lines
100
AcDbVertex
100
AcDb2dVertex
 10
1203.051466730909
 20
481.6006586565489
 30
0.0
  0
VERTEX
  5
43F
330
427
100
AcDbEntity
  8
Lines
100
AcDbVertex
100
AcDb2dVertex
 10
1203.052013910493
 20
481.6002527234873
 30
0.0
  0
VERTEX
  5
440
330
427
100
AcDbEntity
  8
Lines
100
AcDbVertex
100
AcDb2dVertex
 10
1203.052535654955
 20
481.5998467845571
 30
0.0
  0
VERTEX
  5
441
330
427
100
AcDbEntity
  8
Lines
100
AcDbVertex
100
AcDb2dVertex
 10
1203.053031962822
 20
481.5994408391233
 30
0.0
  0
VERTEX
  5
442
330
427
100
AcDbEntity
  8
Lines
100
AcDbVertex
100
AcDb2dVertex
 10
1203.053502832621
 20
481.5990348865508
 30
0.0
  0
VERTEX
  5
443
330
427
100
AcDbEntity
  8
Lines
100
AcDbVertex
100
AcDb2dVertex
 10
1203.053948262881
 20
481.5986289262047
 30
0.0
  0
VERTEX
  5
444
330
427
100
AcDbEntity
  8
Lines
100
AcDbVertex
100
AcDb2dVertex
 10
1203.054368252127
 20
481.5982229574499
 30
0.0
  0
VERTEX
  5
445
330
427
100
AcDbEntity
  8
Lines
100
AcDbVertex
100
AcDb2dVertex
 10
1203.054762798889
 20
481.5978169796514
 30
0.0
  0
VERTEX
  5
446
330
427
100
AcDbEntity
  8
Lines
100
AcDbVertex
100
AcDb2dVertex
 10
1203.055131901693
 20
481.5974109921742
 30
0.0
  0
VERTEX
  5
447
330
427
100
AcDbEntity
  8
Lines
100
AcDbVertex
100
AcDb2dVertex
 10
1203.05530691115
 20
481.5972079946076
 30
0.0
  0
VERTEX
  5
448
330
427
100
AcDbEntity
  8
Lines
100
AcDbVertex
100
AcDb2dVertex
 10
1203.055475559066
 20
481.5970049943832
 30
0.0
  0
VERTEX
  5
449
330
427
100
AcDbEntity
  8
Lines
100
AcDbVertex
100
AcDb2dVertex
 10
1203.055637845256
 20
481.5968019914216
 30
0.0
  0
VERTEX
  5
44A
330
427
100
AcDbEntity
  8
Lines
100
AcDbVertex
100
AcDb2dVertex
 10
1203.055793769537
 20
481.5965989856434
 30
0.0
  0
VERTEX
  5
44B
330
427
100
AcDbEntity
  8
Lines
100
AcDbVertex
100
AcDb2dVertex
 10
1203.055943331723
 20
481.5963959769692
 30
0.0
  0
VERTEX
  5
44C
330
427
100
AcDbEntity
  8
Lines
100
AcDbVertex
100
AcDb2dVertex
 10
1203.056086531632
 20
481.5961929653198
 30
0.0
  0
VERTEX
  5
44D
330
427
100
AcDbEntity
  8
Lines
100
AcDbVertex
100
AcDb2dVertex
 10
1203.056223369079
 20
481.5959899506157
 30
0.0
  0
VERTEX
  5
44E
330
427
100
AcDbEntity
  8
Lines
100
AcDbVertex
100
AcDb2dVertex
 10
1203.056353843879
 20
481.5957869327774
 30
0.0
  0
VERTEX
  5
44F
330
427
100
AcDbEntity
  8
Lines
100
AcDbVertex
100
AcDb2dVertex
 10
1203.05647795585
 20
481.5955839117257
 30
0.0
  0
VERTEX
  5
450
330
427
100
AcDbEntity
  8
Lines
100
AcDbVertex
100
AcDb2dVertex
 10
1203.056595704806
 20
481.5953808873811
 30
0.0
  0
VERTEX
  5
451
330
427
100
AcDbEntity
  8
Lines
100
AcDbVertex
100
AcDb2dVertex
 10
1203.056707090564
 20
481.5951778596643
 30
0.0
  0
VERTEX
  5
452
330
427
100
AcDbEntity
  8
Lines
100
AcDbVertex
100
AcDb2dVertex
 10
1203.05681211294
 20
481.5949748284959
 30
0.0
  0
VERTEX
  5
453
330
427
100
AcDbEntity
  8
Lines
100
AcDbVertex
100
AcDb2dVertex
 10
1203.056910771749
 20
481.5947717937966
 30
0.0
  0
VERTEX
  5
454
330
427
100
AcDbEntity
  8
Lines
100
AcDbVertex
100
AcDb2dVertex
 10
1203.057003066808
 20
481.5945687554869
 30
0.0
  0
VERTEX
  5
455
330
427
100
AcDbEntity
  8
Lines
100
AcDbVertex
100
AcDb2dVertex
 10
1203.057088997933
 20
481.5943657134875
 30
0.0
  0
VERTEX
  5
456
330
427
100
AcDbEntity
  8
Lines
100
AcDbVertex
100
AcDb2dVertex
 10
1203.057168564938
 20
481.5941626677189
 30
0.0
  0
VERTEX
  5
457
330
427
100
AcDbEntity
  8
Lines
100
AcDbVertex
100
AcDb2dVertex
 10
1203.057241767641
 20
481.5939596181018
 30
0.0
  0
VERTEX
  5
458
330
427
100
AcDbEntity
  8
Lines
100
AcDbVertex
100
AcDb2dVertex
 10
1203.057308605858
 20
481.5937565645569
 30
0.0
  0
VERTEX
  5
459
330
427
100
AcDbEntity
  8
Lines
100
AcDbVertex
100
AcDb2dVertex
 10
1203.057369079403
 20
481.5935535070048
 30
0.0
  0
VERTEX
  5
45A
330
427
100
AcDbEntity
  8
Lines
100
AcDbVertex
100
AcDb2dVertex
 10
1203.057423188094
 20
481.593350445366
 30
0.0
  0
VERTEX
  5
45B
330
427
100
AcDbEntity
  8
Lines
100
AcDbVertex
100
AcDb2dVertex
 10
1203.057470931745
 20
481.5931473795612
 30
0.0
  0
VERTEX
  5
45C
330
427
100
AcDbEntity
  8
Lines
100
AcDbVertex
100
AcDb2dVertex
 10
1203.057512310174
 20
481.592944309511
 30
0.0
  0
VERTEX
  5
45D
330
427
100
AcDbEntity
  8
Lines
100
AcDbVertex
100
AcDb2dVertex
 10
1203.057547323196
 20
481.5927412351361
 30
0.0
  0
VERTEX
  5
45E
330
427
100
AcDbEntity
  8
Lines
100
AcDbVertex
100
AcDb2dVertex
 10
1203.057575970626
 20
481.5925381563571
 30
0.0
  0
VERTEX
  5
45F
330
427
100
AcDbEntity
  8
Lines
100
AcDbVertex
100
AcDb2dVertex
 10
1203.057598252281
 20
481.5923350730945
 30
0.0
  0
VERTEX
  5
460
330
427
100
AcDbEntity
  8
Lines
100
AcDbVertex
100
AcDb2dVertex
 10
1203.057614167977
 20
481.5921319852691
 30
0.0
  0
VERTEX
  5
461
330
427
100
AcDbEntity
  8
Lines
100
AcDbVertex
100
AcDb2dVertex
 10
1203.05762371753
 20
481.5919288928013
 30
0.0
  0
VERTEX
  5
462
330
427
100
AcDbEntity
  8
Lines
100
AcDbVertex
100
AcDb2dVertex
 10
1203.057626900755
 20
481.591725795612
 30
0.0
  0
VERTEX
  5
463
330
427
100
AcDbEntity
  8
Lines
100
AcDbVertex
100
AcDb2dVertex
 10
1203.057625179521
 20
481.5915764486427
 30
0.0
  0
VERTEX
  5
464
330
427
100
AcDbEntity
  8
Lines
100
AcDbVertex
100
AcDb2dVertex
 10
1203.057620015892
 20
481.5914271012068
 30
0.0
  0
VERTEX
  5
465
330
427
100
AcDbEntity
  8
Lines
100
AcDbVertex
100
AcDb2dVertex
 10
1203.057611409975
 20
481.5912777533042
 30
0.0
  0
VERTEX
  5
466
330
427
100
AcDbEntity
  8
Lines
100
AcDbVertex
100
AcDb2dVertex
 10
1203.057599361877
 20
481.5911284049352
 30
0.0
  0
VERTEX
  5
467
330
427
100
AcDbEntity
  8
Lines
100
AcDbVertex
100
AcDb2dVertex
 10
1203.057583871706
 20
481.5909790561001
 30
0.0
  0
VERTEX
  5
468
330
427
100
AcDbEntity
  8
Lines
100
AcDbVertex
100
AcDb2dVertex
 10
1203.057564939569
 20
481.5908297067991
 30
0.0
  0
VERTEX
  5
469
330
427
100
AcDbEntity
  8
Lines
100
AcDbVertex
100
AcDb2dVertex
 10
1203.057542565574
 20
481.5906803570326
 30
0.0
  0
VERTEX
  5
46A
330
427
100
AcDbEntity
  8
Lines
100
AcDbVertex
100
AcDb2dVertex
 10
1203.057516749829
 20
481.5905310068006
 30
0.0
  0
VERTEX
  5
46B
330
427
100
AcDbEntity
  8
Lines
100
AcDbVertex
100
AcDb2dVertex
 10
1203.05748749244
 20
481.5903816561034
 30
0.0
  0
VERTEX
  5
46C
330
427
100
AcDbEntity
  8
Lines
100
AcDbVertex
100
AcDb2dVertex
 10
1203.057454793516
 20
481.5902323049413
 30
0.0
  0
VERTEX
  5
46D
330
427
100
AcDbEntity
  8
Lines
100
AcDbVertex
100
AcDb2dVertex
 10
1203.057418653163
 20
481.5900829533145
 30
0.0
  0
VERTEX
  5
46E
330
427
100
AcDbEntity
  8
Lines
100
AcDbVertex
100
AcDb2dVertex
 10
1203.05737907149
 20
481.5899336012234
 30
0.0
  0
VERTEX
  5
46F
330
427
100
AcDbEntity
  8
Lines
100
AcDbVertex
100
AcDb2dVertex
 10
1203.057336048603
 20
481.589784248668
 30
0.0
  0
VERTEX
  5
470
330
427
100
AcDbEntity
  8
Lines
100
AcDbVertex
100
AcDb2dVertex
 10
1203.057289584611
 20
481.5896348956486
 30
0.0
  0
VERTEX
  5
471
330
427
100
AcDbEntity
  8
Lines
100
AcDbVertex
100
AcDb2dVertex
 10
1203.057239679621
 20
481.5894855421654
 30
0.0
  0
VERTEX
  5
472
330
427
100
AcDbEntity
  8
Lines
100
AcDbVertex
100
AcDb2dVertex
 10
1203.05718633374
 20
481.5893361882189
 30
0.0
  0
VERTEX
  5
473
330
427
100
AcDbEntity
  8
Lines
100
AcDbVertex
100
AcDb2dVertex
 10
1203.057129547075
 20
481.589186833809
 30
0.0
  0
VERTEX
  5
474
330
427
100
AcDbEntity
  8
Lines
100
AcDbVertex
100
AcDb2dVertex
 10
1203.057069319736
 20
481.5890374789361
 30
0.0
  0
VERTEX
  5
475
330
427
100
AcDbEntity
  8
Lines
100
AcDbVertex
100
AcDb2dVertex
 10
1203.057005651827
 20
481.5888881236004
 30
0.0
  0
VERTEX
  5
476
330
427
100
AcDbEntity
  8
Lines
100
AcDbVertex
100
AcDb2dVertex
 10
1203.056938543458
 20
481.5887387678022
 30
0.0
  0
VERTEX
  5
477
330
427
100
AcDbEntity
  8
Lines
100
AcDbVertex
100
AcDb2dVertex
 10
1203.056867994736
 20
481.5885894115416
 30
0.0
  0
VERTEX
  5
478
330
427
100
AcDbEntity
  8
Lines
100
AcDbVertex
100
AcDb2dVertex
 10
1203.056794005767
 20
481.588440054819
 30
0.0
  0
VERTEX
  5
479
330
427
100
AcDbEntity
  8
Lines
100
AcDbVertex
100
AcDb2dVertex
 10
1203.056716576661
 20
481.5882906976345
 30
0.0
  0
VERTEX
  5
47A
330
427
100
AcDbEntity
  8
Lines
100
AcDbVertex
100
AcDb2dVertex
 10
1203.056635707523
 20
481.5881413399885
 30
0.0
  0
VERTEX
  5
47B
330
427
100
AcDbEntity
  8
Lines
100
AcDbVertex
100
AcDb2dVertex
 10
1203.056463649586
 20
481.5878426233126
 30
0.0
  0
VERTEX
  5
47C
330
427
100
AcDbEntity
  8
Lines
100
AcDbVertex
100
AcDb2dVertex
 10
1203.056277832816
 20
481.5875439047931
 30
0.0
  0
VERTEX
  5
47D
330
427
100
AcDbEntity
  8
Lines
100
AcDbVertex
100
AcDb2dVertex
 10
1203.056078258072
 20
481.5872451844319
 30
0.0
  0
VERTEX
  5
47E
330
427
100
AcDbEntity
  8
Lines
100
AcDbVertex
100
AcDb2dVertex
 10
1203.055864926214
 20
481.5869464622311
 30
0.0
  0
VERTEX
  5
47F
330
427
100
AcDbEntity
  8
Lines
100
AcDbVertex
100
AcDb2dVertex
 10
1203.055637838103
 20
481.5866477381925
 30
0.0
  0
VERTEX
  5
480
330
427
100
AcDbEntity
  8
Lines
100
AcDbVertex
100
AcDb2dVertex
 10
1203.055396994598
 20
481.5863490123179
 30
0.0
  0
VERTEX
  5
481
330
427
100
AcDbEntity
  8
Lines
100
AcDbVertex
100
AcDb2dVertex
 10
1203.055142396559
 20
481.5860502846093
 30
0.0
  0
VERTEX
  5
482
330
427
100
AcDbEntity
  8
Lines
100
AcDbVertex
100
AcDb2dVertex
 10
1203.054874044847
 20
481.5857515550686
 30
0.0
  0
VERTEX
  5
483
330
427
100
AcDbEntity
  8
Lines
100
AcDbVertex
100
AcDb2dVertex
 10
1203.05459194032
 20
481.5854528236977
 30
0.0
  0
VERTEX
  5
484
330
427
100
AcDbEntity
  8
Lines
100
AcDbVertex
100
AcDb2dVertex
 10
1203.05429608384
 20
481.5851540904983
 30
0.0
  0
VERTEX
  5
485
330
427
100
AcDbEntity
  8
Lines
100
AcDbVertex
100
AcDb2dVertex
 10
1203.053986476265
 20
481.5848553554728
 30
0.0
  0
VERTEX
  5
486
330
427
100
AcDbEntity
  8
Lines
100
AcDbVertex
100
AcDb2dVertex
 10
1203.053663118456
 20
481.5845566186226
 30
0.0
  0
VERTEX
  5
487
330
427
100
AcDbEntity
  8
Lines
100
AcDbVertex
100
AcDb2dVertex
 10
1203.053326011273
 20
481.5842578799497
 30
0.0
  0
VERTEX
  5
488
330
427
100
AcDbEntity
  8
Lines
100
AcDbVertex
100
AcDb2dVertex
 10
1203.052975155576
 20
481.5839591394563
 30
0.0
  0
VERTEX
  5
489
330
427
100
AcDbEntity
  8
Lines
100
AcDbVertex
100
AcDb2dVertex
 10
1203.052610552224
 20
481.583660397144
 30
0.0
  0
VERTEX
  5
48A
330
427
100
AcDbEntity
  8
Lines
100
AcDbVertex
100
AcDb2dVertex
 10
1203.052232202078
 20
481.5833616530148
 30
0.0
  0
VERTEX
  5
48B
330
427
100
AcDbEntity
  8
Lines
100
AcDbVertex
100
AcDb2dVertex
 10
1203.051434264841
 20
481.5827641593132
 30
0.0
  0
VERTEX
  5
48C
330
427
100
AcDbEntity
  8
Lines
100
AcDbVertex
100
AcDb2dVertex
 10
1203.050581350746
 20
481.582166658367
 30
0.0
  0
VERTEX
  5
48D
330
427
100
AcDbEntity
  8
Lines
100
AcDbVertex
100
AcDb2dVertex
 10
1203.049673466671
 20
481.5815691501911
 30
0.0
  0
VERTEX
  5
48E
330
427
100
AcDbEntity
  8
Lines
100
AcDbVertex
100
AcDb2dVertex
 10
1203.048710619495
 20
481.5809716348009
 30
0.0
  0
VERTEX
  5
48F
330
427
100
AcDbEntity
  8
Lines
100
AcDbVertex
100
AcDb2dVertex
 10
1203.047692816099
 20
481.5803741122115
 30
0.0
  0
VERTEX
  5
490
330
427
100
AcDbEntity
  8
Lines
100
AcDbVertex
100
AcDb2dVertex
 10
1203.04662006336
 20
481.5797765824382
 30
0.0
  0
VERTEX
  5
491
330
427
100
AcDbEntity
  8
Lines
100
AcDbVertex
100
AcDb2dVertex
 10
1203.04549236816
 20
481.5791790454962
 30
0.0
  0
VERTEX
  5
492
330
427
100
AcDbEntity
  8
Lines
100
AcDbVertex
100
AcDb2dVertex
 10
1203.044309737377
 20
481.5785815014006
 30
0.0
  0
VERTEX
  5
493
330
427
100
AcDbEntity
  8
Lines
100
AcDbVertex
100
AcDb2dVertex
 10
1203.04177969658
 20
481.5773863918099
 30
0.0
  0
VERTEX
  5
494
330
427
100
AcDbEntity
  8
Lines
100
AcDbVertex
100
AcDb2dVertex
 10
1203.039029996004
 20
481.5761912537878
 30
0.0
  0
VERTEX
  5
495
330
427
100
AcDbEntity
  8
Lines
100
AcDbVertex
100
AcDb2dVertex
 10
1203.036060690683
 20
481.5749960874559
 30
0.0
  0
VERTEX
  5
496
330
427
100
AcDbEntity
  8
Lines
100
AcDbVertex
100
AcDb2dVertex
 10
1203.032871835652
 20
481.5738008929362
 30
0.0
  0
VERTEX
  5
497
330
427
100
AcDbEntity
  8
Lines
100
AcDbVertex
100
AcDb2dVertex
 10
1203.029463485947
 20
481.5726056703502
 30
0.0
  0
VERTEX
  5
498
330
427
100
AcDbEntity
  8
Lines
100
AcDbVertex
100
AcDb2dVertex
 10
1203.021988522653
 20
481.5702151414664
 30
0.0
  0
VERTEX
  5
499
330
427
100
AcDbEntity
  8
Lines
100
AcDbVertex
100
AcDb2dVertex
 10
1203.013636241078
 20
481.5678245017784
 30
0.0
  0
VERTEX
  5
49A
330
427
100
AcDbEntity
  8
Lines
100
AcDbVertex
100
AcDb2dVertex
 10
1203.004407081502
 20
481.5654337522599
 30
0.0
  0
VERTEX
  5
49B
330
427
100
AcDbEntity
  8
Lines
100
AcDbVertex
100
AcDb2dVertex
 10
1202.994301484202
 20
481.5630428938849
 30
0.0
  0
VERTEX
  5
49C
330
427
100
AcDbEntity
  8
Lines
100
AcDbVertex
100
AcDb2dVertex
 10
1202.971462737551
 20
481.5582608544599
 30
0.0
  0
VERTEX
  5
49D
330
427
100
AcDbEntity
  8
Lines
100
AcDbVertex
100
AcDb2dVertex
 10
1202.945123523353
 20
481.553478391294
 30
0.0
  0
VERTEX
  5
49E
330
427
100
AcDbEntity
  8
Lines
100
AcDbVertex
100
AcDb2dVertex
 10
1202.89301997591
 20
481.5454436842272
 30
0.0
  0
VERTEX
  5
49F
330
427
100
AcDbEntity
  8
Lines
100
AcDbVertex
100
AcDb2dVertex
 10
1202.831169635485
 20
481.5374154117161
 30
0.0
  0
VERTEX
  5
4A0
330
427
100
AcDbEntity
  8
Lines
100
AcDbVertex
100
AcDb2dVertex
 10
1202.678471340939
 20
481.5213704097426
 30
0.0
  0
VERTEX
  5
4A1
330
427
100
AcDbEntity
  8
Lines
100
AcDbVertex
100
AcDb2dVertex
 10
1202.258783653782
 20
481.4892722536635
 30
0.0
  0
VERTEX
  5
4A2
330
427
100
AcDbEntity
  8
Lines
100
AcDbVertex
100
AcDb2dVertex
 10
1200.987191768597
 20
481.4250419747989
 30
0.0
  0
VERTEX
  5
4A3
330
427
100
AcDbEntity
  8
Lines
100
AcDbVertex
100
AcDb2dVertex
 10
1197.024886430807
 20
481.2965993959853
 30
0.0
  0
VERTEX
  5
4A4
330
427
100
AcDbEntity
  8
Lines
100
AcDbVertex
100
AcDb2dVertex
 10
1192.499999129395
 20
481.1807050649412
 30
0.0
  0
VERTEX
  5
4A5
330
427
100
AcDbEntity
  8
Lines
100
AcDbVertex
100
AcDb2dVertex
 10
1185.500000000013
 20
480.9910366978369
 30
0.0
  0
VERTEX
  5
4A6
330
427
100
AcDbEntity
  8
Lines
100
AcDbVertex
100
AcDb2dVertex
 10
1185.034628939024
 20
480.9751952296835
 30
0.0
 42
0.003172823855292
  0
VERTEX
  5
4A7
330
427
100
AcDbEntity
  8
Lines
100
AcDbVertex
100
AcDb2dVertex
 10
1183.450658839818
 20
480.9112778969086
 30
0.0
  0
VERTEX
  5
4A8
330
427
100
AcDbEntity
  8
Lines
100
AcDbVertex
100
AcDb2dVertex
 10
1182.400607682931
 20
480.8470700002246
 30
0.0
  0
VERTEX
  5
4A9
330
427
100
AcDbEntity
  8
Lines
100
AcDbVertex
100
AcDb2dVertex
 10
1182.230884613819
 20
480.8310086455514
 30
0.0
  0
VERTEX
  5
4AA
330
427
100
AcDbEntity
  8
Lines
100
AcDbVertex
100
AcDb2dVertex
 10
1182.160549463676
 20
480.8229845674691
 30
0.0
  0
VERTEX
  5
4AB
330
427
100
AcDbEntity
  8
Lines
100
AcDbVertex
100
AcDb2dVertex
 10
1182.099951042826
 20
480.814962413018
 30
0.0
  0
VERTEX
  5
4AC
330
427
100
AcDbEntity
  8
Lines
100
AcDbVertex
100
AcDb2dVertex
 10
1182.049128706031
 20
480.8069403252939
 30
0.0
  0
VERTEX
  5
4AD
330
427
100
AcDbEntity
  8
Lines
100
AcDbVertex
100
AcDb2dVertex
 10
1182.027395867518
 20
480.8029287261722
 30
0.0
  0
VERTEX
  5
4AE
330
427
100
AcDbEntity
  8
Lines
100
AcDbVertex
100
AcDb2dVertex
 10
1182.008121808055
 20
480.7989164473934
 30
0.0
  0
VERTEX
  5
4AF
330
427
100
AcDbEntity
  8
Lines
100
AcDbVertex
100
AcDb2dVertex
 10
1181.991311446988
 20
480.7949032568444
 30
0.0
  0
VERTEX
  5
4B0
330
427
100
AcDbEntity
  8
Lines
100
AcDbVertex
100
AcDb2dVertex
 10
1181.983831690648
 20
480.7928962471208
 30
0.0
  0
VERTEX
  5
4B1
330
427
100
AcDbEntity
  8
Lines
100
AcDbVertex
100
AcDb2dVertex
 10
1181.976969703661
 20
480.7908889224124
 30
0.0
  0
VERTEX
  5
4B2
330
427
100
AcDbEntity
  8
Lines
100
AcDbVertex
100
AcDb2dVertex
 10
1181.970726100946
 20
480.7888812537049
 30
0.0
  0
VERTEX
  5
4B3
330
427
100
AcDbEntity
  8
Lines
100
AcDbVertex
100
AcDb2dVertex
 10
1181.967836385852
 20
480.7878772812845
 30
0.0
  0
VERTEX
  5
4B4
330
427
100
AcDbEntity
  8
Lines
100
AcDbVertex
100
AcDb2dVertex
 10
1181.96510149742
 20
480.7868732119842
 30
0.0
  0
VERTEX
  5
4B5
330
427
100
AcDbEntity
  8
Lines
100
AcDbVertex
100
AcDb2dVertex
 10
1181.962521512516
 20
480.7858690421771
 30
0.0
  0
VERTEX
  5
4B6
330
427
100
AcDbEntity
  8
Lines
100
AcDbVertex
100
AcDb2dVertex
 10
1181.960096508003
 20
480.7848647682363
 30
0.0
  0
VERTEX
  5
4B7
330
427
100
AcDbEntity
  8
Lines
100
AcDbVertex
100
AcDb2dVertex
 10
1181.957826560746
 20
480.7838603865353
 30
0.0
  0
VERTEX
  5
4B8
330
427
100
AcDbEntity
  8
Lines
100
AcDbVertex
100
AcDb2dVertex
 10
1181.955711747611
 20
480.782855893447
 30
0.0
  0
VERTEX
  5
4B9
330
427
100
AcDbEntity
  8
Lines
100
AcDbVertex
100
AcDb2dVertex
 10
1181.942371358036
 20
480.7697076099766
 30
0.0
  0
VERTEX
  5
4BA
330
427
100
AcDbEntity
  8
Lines
100
AcDbVertex
100
AcDb2dVertex
 10
1181.942589088705
 20
480.3759302505868
 30
0.0
  0
VERTEX
  5
4BB
330
427
100
AcDbEntity
  8
Lines
100
AcDbVertex
100
AcDb2dVertex
 10
1182.275725484639
 20
480.0427938546529
 30
0.0
  0
SEQEND
  5
4BC
330
427
100
AcDbEntity
  8
Lines
  0
POLYLINE
  5
4BD
330
1F
100
AcDbEntity
  8
Lines
100
AcDb2dPolyline
 66
     1
 10
0.0
 20
0.0
 30
0.0
  0
VERTEX
  5
4BE
330
4BD
100
AcDbEntity
  8
Lines
100
AcDbVertex
100
AcDb2dVertex
 10
1202.56970711422
 20
487.4512849917845
 30
0.0
  0
VERTEX
  5
4BF
330
4BD
100
AcDbEntity
  8
Lines
100
AcDbVertex
100
AcDb2dVertex
 10
1202.169927224941
 20
487.4520480409466
 30
0.0
  0
VERTEX
  5
4C0
330
4BD
100
AcDbEntity
  8
Lines
100
AcDbVertex
100
AcDb2dVertex
 10
1202.169534449887
 20
487.4520661035482
 30
0.0
  0
VERTEX
  5
4C1
330
4BD
100
AcDbEntity
  8
Lines
100
AcDbVertex
100
AcDb2dVertex
 10
1192.499999129395
 20
487.452040592798
 30
0.0
  0
VERTEX
  5
4C2
330
4BD
100
AcDbEntity
  8
Lines
100
AcDbVertex
100
AcDb2dVertex
 10
1182.830382196199
 20
487.452040592798
 30
0.0
  0
VERTEX
  5
4C3
330
4BD
100
AcDbEntity
  8
Lines
100
AcDbVertex
100
AcDb2dVertex
 10
1182.464218148969
 20
487.4513491260083
 30
0.0
  0
SEQEND
  5
4C4
330
4BD
100
AcDbEntity
  8
Lines
  0
POLYLINE
  5
4C5
330
1F
100
AcDbEntity
  8
Lines
100
AcDb2dPolyline
 66
     1
 10
0.0
 20
0.0
 30
0.0
  0
VERTEX
  5
4C6
330
4C5
100
AcDbEntity
  8
Lines
100
AcDbVertex
100
AcDb2dVertex
 10
1182.418023569873
 20
479.9004957694191
 30
0.0
  0
VERTEX
  5
4C7
330
4C5
100
AcDbEntity
  8
Lines
100
AcDbVertex
100
AcDb2dVertex
 10
1182.92936533686
 20
479.3895165239197
 30
0.0
  0
VERTEX
  5
4C8
330
4C5
100
AcDbEntity
  8
Lines
100
AcDbVertex
100
AcDb2dVertex
 10
1202.070772162572
 20
479.3895165239196
 30
0.0
  0
VERTEX
  5
4C9
330
4C5
100
AcDbEntity
  8
Lines
100
AcDbVertex
100
AcDb2dVertex
 10
1202.711777731949
 20
480.0308949219556
 30
0.0
  0
VERTEX
  5
4CA
330
4C5
100
AcDbEntity
  8
Lines
100
AcDbVertex
100
AcDb2dVertex
 10
1202.711200175184
 20
480.0306269346797
 30
0.0
  0
VERTEX
  5
4CB
330
4C5
100
AcDbEntity
  8
Lines
100
AcDbVertex
100
AcDb2dVertex
 10
1202.710590182805
 20
480.0303589998709
 30
0.0
  0
VERTEX
  5
4CC
330
4C5
100
AcDbEntity
  8
Lines
100
AcDbVertex
100
AcDb2dVertex
 10
1202.709272911566
 20
480.0298232905641
 30
0.0
  0
VERTEX
  5
4CD
330
4C5
100
AcDbEntity
  8
Lines
100
AcDbVertex
100
AcDb2dVertex
 10
1202.707825958955
 20
480.029287799853
 30
0.0
  0
VERTEX
  5
4CE
330
4C5
100
AcDbEntity
  8
Lines
100
AcDbVertex
100
AcDb2dVertex
 10
1202.706249365699
 20
480.0287525335558
 30
0.0
  0
VERTEX
  5
4CF
330
4C5
100
AcDbEntity
  8
Lines
100
AcDbVertex
100
AcDb2dVertex
 10
1202.704543172524
 20
480.0282174974903
 30
0.0
  0
VERTEX
  5
4D0
330
4C5
100
AcDbEntity
  8
Lines
100
AcDbVertex
100
AcDb2dVertex
 10
1202.702707420156
 20
480.0276826974746
 30
0.0
  0
VERTEX
  5
4D1
330
4C5
100
AcDbEntity
  8
Lines
100
AcDbVertex
100
AcDb2dVertex
 10
1202.698647400743
 20
480.0266138288644
 30
0.0
  0
VERTEX
  5
4D2
330
4C5
100
AcDbEntity
  8
Lines
100
AcDbVertex
100
AcDb2dVertex
 10
1202.694069633268
 20
480.0255459742691
 30
0.0
  0
VERTEX
  5
4D3
330
4C5
100
AcDbEntity
  8
Lines
100
AcDbVertex
100
AcDb2dVertex
 10
1202.688974443538
 20
480.0244791802326
 30
0.0
  0
VERTEX
  5
4D4
330
4C5
100
AcDbEntity
  8
Lines
100
AcDbVertex
100
AcDb2dVertex
 10
1202.677233100541
 20
480.0223489600116
 30
0.0
  0
VERTEX
  5
4D5
330
4C5
100
AcDbEntity
  8
Lines
100
AcDbVertex
100
AcDb2dVertex
 10
1202.663425978208
 20
480.0202235405527
 30
0.0
  0
VERTEX
  5
4D6
330
4C5
100
AcDbEntity
  8
Lines
100
AcDbVertex
100
AcDb2dVertex
 10
1202.647555682998
 20
480.0181032942072
 30
0.0
  0
VERTEX
  5
4D7
330
4C5
100
AcDbEntity
  8
Lines
100
AcDbVertex
100
AcDb2dVertex
 10
1202.60963599977
 20
480.013879810261
 30
0.0
  0
VERTEX
  5
4D8
330
4C5
100
AcDbEntity
  8
Lines
100
AcDbVertex
100
AcDb2dVertex
 10
1202.509153242879
 20
480.0055113031832
 30
0.0
  0
VERTEX
  5
4D9
330
4C5
100
AcDbEntity
  8
Lines
100
AcDbVertex
100
AcDb2dVertex
 10
1202.375951643116
 20
479.9972672692573
 30
0.0
  0
VERTEX
  5
4DA
330
4C5
100
AcDbEntity
  8
Lines
100
AcDbVertex
100
AcDb2dVertex
 10
1201.45148811077
 20
479.9637929279825
 30
0.0
  0
VERTEX
  5
4DB
330
4C5
100
AcDbEntity
  8
Lines
100
AcDbVertex
100
AcDb2dVertex
 10
1198.109620396258
 20
479.9056258630545
 30
0.0
 42
-0.0006847956997488
  0
VERTEX
  5
4DC
330
4C5
100
AcDbEntity
  8
Lines
100
AcDbVertex
100
AcDb2dVertex
 10
1195.895568276869
 20
479.8811068159922
 30
0.0
  0
VERTEX
  5
4DD
330
4C5
100
AcDbEntity
  8
Lines
100
AcDbVertex
100
AcDb2dVertex
 10
1192.499999129395
 20
479.8522543641875
 30
0.0
  0
VERTEX
  5
4DE
330
4C5
100
AcDbEntity
  8
Lines
100
AcDbVertex
100
AcDb2dVertex
 10
1185.500000000013
 20
479.8184783451505
 30
0.0
  0
VERTEX
  5
4DF
330
4C5
100
AcDbEntity
  8
Lines
100
AcDbVertex
100
AcDb2dVertex
 10
1182.980371226308
 20
479.8356093050555
 30
0.0
 42
-0.0108773801528724
  0
VERTEX
  5
4E0
330
4C5
100
AcDbEntity
  8
Lines
100
AcDbVertex
100
AcDb2dVertex
 10
1182.659658433191
 20
479.8508145836606
 30
0.0
 42
-0.0315924382518177
  0
VERTEX
  5
4E1
330
4C5
100
AcDbEntity
  8
Lines
100
AcDbVertex
100
AcDb2dVertex
 10
1182.493688640466
 20
479.8710313277787
 30
0.0
 42
-0.2121400380147752
  0
VERTEX
  5
4E2
330
4C5
100
AcDbEntity
  8
Lines
100
AcDbVertex
100
AcDb2dVertex
 10
1182.398725337982
 20
479.9218080226074
 30
0.0
  0
VERTEX
  5
4E3
330
4C5
100
AcDbEntity
  8
Lines
100
AcDbVertex
100
AcDb2dVertex
 10
1182.323790137381
 20
480.0000828504973
 30
0.0
  0
VERTEX
  5
4E4
330
4C5
100
AcDbEntity
  8
Lines
100
AcDbVertex
100
AcDb2dVertex
 10
1182.287004264687
 20
480.0316498305023
 30
0.0
  0
VERTEX
  5
4E5
330
4C5
100
AcDbEntity
  8
Lines
100
AcDbVertex
100
AcDb2dVertex
 10
1182.285861706352
 20
480.0326922345062
 30
0.0
  0
VERTEX
  5
4E6
330
4C5
100
AcDbEntity
  8
Lines
100
AcDbVertex
100
AcDb2dVertex
 10
1182.284968019325
 20
480.0335513199672
 30
0.0
  0
VERTEX
  5
4E7
330
4C5
100
AcDbEntity
  8
Lines
100
AcDbVertex
100
AcDb2dVertex
 10
1182.282542764899
 20
480.0360252099949
 30
0.0
  0
VERTEX
  5
4E8
330
4C5
100
AcDbEntity
  8
Lines
100
AcDbVertex
100
AcDb2dVertex
 10
1182.280259409952
 20
480.0384541476398
 30
0.0
  0
VERTEX
  5
4E9
330
4C5
100
AcDbEntity
  8
Lines
100
AcDbVertex
100
AcDb2dVertex
 10
1182.278116511063
 20
480.0408390901627
 30
0.0
  0
VERTEX
  5
4EA
330
4C5
100
AcDbEntity
  8
Lines
100
AcDbVertex
100
AcDb2dVertex
 10
1182.276112624811
 20
480.0431809948247
 30
0.0
  0
VERTEX
  5
4EB
330
4C5
100
AcDbEntity
  8
Lines
100
AcDbVertex
100
AcDb2dVertex
 10
1182.274246307773
 20
480.0454808188867
 30
0.0
  0
VERTEX
  5
4EC
330
4C5
100
AcDbEntity
  8
Lines
100
AcDbVertex
100
AcDb2dVertex
 10
1182.272516116528
 20
480.0477395196096
 30
0.0
  0
VERTEX
  5
4ED
330
4C5
100
AcDbEntity
  8
Lines
100
AcDbVertex
100
AcDb2dVertex
 10
1182.270920607655
 20
480.0499580542545
 30
0.0
  0
VERTEX
  5
4EE
330
4C5
100
AcDbEntity
  8
Lines
100
AcDbVertex
100
AcDb2dVertex
 10
1182.269458337732
 20
480.0521373800823
 30
0.0
  0
VERTEX
  5
4EF
330
4C5
100
AcDbEntity
  8
Lines
100
AcDbVertex
100
AcDb2dVertex
 10
1182.268776716307
 20
480.0532126388339
 30
0.0
  0
VERTEX
  5
4F0
330
4C5
100
AcDbEntity
  8
Lines
100
AcDbVertex
100
AcDb2dVertex
 10
1182.268127863337
 20
480.0542784543541
 30
0.0
  0
VERTEX
  5
4F1
330
4C5
100
AcDbEntity
  8
Lines
100
AcDbVertex
100
AcDb2dVertex
 10
1182.267511598394
 20
480.0553349463004
 30
0.0
  0
VERTEX
  5
4F2
330
4C5
100
AcDbEntity
  8
Lines
100
AcDbVertex
100
AcDb2dVertex
 10
1182.26692774105
 20
480.0563822343306
 30
0.0
  0
VERTEX
  5
4F3
330
4C5
100
AcDbEntity
  8
Lines
100
AcDbVertex
100
AcDb2dVertex
 10
1182.266376110877
 20
480.0574204381021
 30
0.0
  0
VERTEX
  5
4F4
330
4C5
100
AcDbEntity
  8
Lines
100
AcDbVertex
100
AcDb2dVertex
 10
1182.265856527448
 20
480.0584496772728
 30
0.0
  0
VERTEX
  5
4F5
330
4C5
100
AcDbEntity
  8
Lines
100
AcDbVertex
100
AcDb2dVertex
 10
1182.265368810335
 20
480.0594700715002
 30
0.0
  0
VERTEX
  5
4F6
330
4C5
100
AcDbEntity
  8
Lines
100
AcDbVertex
100
AcDb2dVertex
 10
1182.26491277911
 20
480.0604817404419
 30
0.0
  0
VERTEX
  5
4F7
330
4C5
100
AcDbEntity
  8
Lines
100
AcDbVertex
100
AcDb2dVertex
 10
1182.264488253345
 20
480.0614848037555
 30
0.0
  0
VERTEX
  5
4F8
330
4C5
100
AcDbEntity
  8
Lines
100
AcDbVertex
100
AcDb2dVertex
 10
1182.264095052614
 20
480.0624793810987
 30
0.0
  0
VERTEX
  5
4F9
330
4C5
100
AcDbEntity
  8
Lines
100
AcDbVertex
100
AcDb2dVertex
 10
1182.263732996488
 20
480.0634655921291
 30
0.0
  0
VERTEX
  5
4FA
330
4C5
100
AcDbEntity
  8
Lines
100
AcDbVertex
100
AcDb2dVertex
 10
1182.263401904539
 20
480.0644435565042
 30
0.0
  0
VERTEX
  5
4FB
330
4C5
100
AcDbEntity
  8
Lines
100
AcDbVertex
100
AcDb2dVertex
 10
1182.26310159634
 20
480.0654133938817
 30
0.0
  0
VERTEX
  5
4FC
330
4C5
100
AcDbEntity
  8
Lines
100
AcDbVertex
100
AcDb2dVertex
 10
1182.262831891463
 20
480.0663752239194
 30
0.0
  0
VERTEX
  5
4FD
330
4C5
100
AcDbEntity
  8
Lines
100
AcDbVertex
100
AcDb2dVertex
 10
1182.262592609481
 20
480.0673291662746
 30
0.0
  0
VERTEX
  5
4FE
330
4C5
100
AcDbEntity
  8
Lines
100
AcDbVertex
100
AcDb2dVertex
 10
1182.262383569965
 20
480.0682753406052
 30
0.0
  0
VERTEX
  5
4FF
330
4C5
100
AcDbEntity
  8
Lines
100
AcDbVertex
100
AcDb2dVertex
 10
1182.262204592488
 20
480.0692138665686
 30
0.0
  0
VERTEX
  5
500
330
4C5
100
AcDbEntity
  8
Lines
100
AcDbVertex
100
AcDb2dVertex
 10
1182.262055496623
 20
480.0701448638226
 30
0.0
  0
VERTEX
  5
501
330
4C5
100
AcDbEntity
  8
Lines
100
AcDbVertex
100
AcDb2dVertex
 10
1182.261936101941
 20
480.0710684520246
 30
0.0
  0
VERTEX
  5
502
330
4C5
100
AcDbEntity
  8
Lines
100
AcDbVertex
100
AcDb2dVertex
 10
1182.261846228015
 20
480.0719847508325
 30
0.0
  0
VERTEX
  5
503
330
4C5
100
AcDbEntity
  8
Lines
100
AcDbVertex
100
AcDb2dVertex
 10
1182.261785694418
 20
480.0728938799037
 30
0.0
  0
VERTEX
  5
504
330
4C5
100
AcDbEntity
  8
Lines
100
AcDbVertex
100
AcDb2dVertex
 10
1182.261754320721
 20
480.073795958896
 30
0.0
  0
VERTEX
  5
505
330
4C5
100
AcDbEntity
  8
Lines
100
AcDbVertex
100
AcDb2dVertex
 10
1182.261751926497
 20
480.0746911074668
 30
0.0
  0
VERTEX
  5
506
330
4C5
100
AcDbEntity
  8
Lines
100
AcDbVertex
100
AcDb2dVertex
 10
1182.261778331318
 20
480.0755794452739
 30
0.0
  0
VERTEX
  5
507
330
4C5
100
AcDbEntity
  8
Lines
100
AcDbVertex
100
AcDb2dVertex
 10
1182.261833354757
 20
480.0764610919749
 30
0.0
  0
VERTEX
  5
508
330
4C5
100
AcDbEntity
  8
Lines
100
AcDbVertex
100
AcDb2dVertex
 10
1182.261916816385
 20
480.0773361672273
 30
0.0
  0
VERTEX
  5
509
330
4C5
100
AcDbEntity
  8
Lines
100
AcDbVertex
100
AcDb2dVertex
 10
1182.262028535776
 20
480.0782047906888
 30
0.0
  0
VERTEX
  5
50A
330
4C5
100
AcDbEntity
  8
Lines
100
AcDbVertex
100
AcDb2dVertex
 10
1182.262168332501
 20
480.079067082017
 30
0.0
  0
VERTEX
  5
50B
330
4C5
100
AcDbEntity
  8
Lines
100
AcDbVertex
100
AcDb2dVertex
 10
1182.262336026132
 20
480.0799231608696
 30
0.0
  0
VERTEX
  5
50C
330
4C5
100
AcDbEntity
  8
Lines
100
AcDbVertex
100
AcDb2dVertex
 10
1182.262531436243
 20
480.0807731469042
 30
0.0
  0
VERTEX
  5
50D
330
4C5
100
AcDbEntity
  8
Lines
100
AcDbVertex
100
AcDb2dVertex
 10
1182.262754382405
 20
480.0816171597784
 30
0.0
  0
VERTEX
  5
50E
330
4C5
100
AcDbEntity
  8
Lines
100
AcDbVertex
100
AcDb2dVertex
 10
1182.26300468419
 20
480.0824553191497
 30
0.0
  0
VERTEX
  5
50F
330
4C5
100
AcDbEntity
  8
Lines
100
AcDbVertex
100
AcDb2dVertex
 10
1182.263282161172
 20
480.0832877446759
 30
0.0
  0
VERTEX
  5
510
330
4C5
100
AcDbEntity
  8
Lines
100
AcDbVertex
100
AcDb2dVertex
 10
1182.263586632922
 20
480.0841145560145
 30
0.0
  0
VERTEX
  5
511
330
4C5
100
AcDbEntity
  8
Lines
100
AcDbVertex
100
AcDb2dVertex
 10
1182.263917919012
 20
480.0849358728233
 30
0.0
  0
VERTEX
  5
512
330
4C5
100
AcDbEntity
  8
Lines
100
AcDbVertex
100
AcDb2dVertex
 10
1182.264275839015
 20
480.0857518147596
 30
0.0
  0
VERTEX
  5
513
330
4C5
100
AcDbEntity
  8
Lines
100
AcDbVertex
100
AcDb2dVertex
 10
1182.264660212504
 20
480.0865625014814
 30
0.0
  0
VERTEX
  5
514
330
4C5
100
AcDbEntity
  8
Lines
100
AcDbVertex
100
AcDb2dVertex
 10
1182.26507085905
 20
480.087368052646
 30
0.0
  0
VERTEX
  5
515
330
4C5
100
AcDbEntity
  8
Lines
100
AcDbVertex
100
AcDb2dVertex
 10
1182.265507598226
 20
480.0881685879112
 30
0.0
  0
VERTEX
  5
516
330
4C5
100
AcDbEntity
  8
Lines
100
AcDbVertex
100
AcDb2dVertex
 10
1182.265970249603
 20
480.0889642269345
 30
0.0
  0
VERTEX
  5
517
330
4C5
100
AcDbEntity
  8
Lines
100
AcDbVertex
100
AcDb2dVertex
 10
1182.266458632755
 20
480.0897550893737
 30
0.0
  0
VERTEX
  5
518
330
4C5
100
AcDbEntity
  8
Lines
100
AcDbVertex
100
AcDb2dVertex
 10
1182.266972567254
 20
480.0905412948863
 30
0.0
  0
VERTEX
  5
519
330
4C5
100
AcDbEntity
  8
Lines
100
AcDbVertex
100
AcDb2dVertex
 10
1182.267511872672
 20
480.0913229631299
 30
0.0
  0
VERTEX
  5
51A
330
4C5
100
AcDbEntity
  8
Lines
100
AcDbVertex
100
AcDb2dVertex
 10
1182.268076368581
 20
480.0921002137621
 30
0.0
  0
VERTEX
  5
51B
330
4C5
100
AcDbEntity
  8
Lines
100
AcDbVertex
100
AcDb2dVertex
 10
1182.268665874554
 20
480.0928731664406
 30
0.0
  0
VERTEX
  5
51C
330
4C5
100
AcDbEntity
  8
Lines
100
AcDbVertex
100
AcDb2dVertex
 10
1182.269280210163
 20
480.093641940823
 30
0.0
  0
VERTEX
  5
51D
330
4C5
100
AcDbEntity
  8
Lines
100
AcDbVertex
100
AcDb2dVertex
 10
1182.26991919498
 20
480.094406656567
 30
0.0
  0
VERTEX
  5
51E
330
4C5
100
AcDbEntity
  8
Lines
100
AcDbVertex
100
AcDb2dVertex
 10
1182.270582648577
 20
480.0951674333301
 30
0.0
  0
VERTEX
  5
51F
330
4C5
100
AcDbEntity
  8
Lines
100
AcDbVertex
100
AcDb2dVertex
 10
1182.271318060845
 20
480.0959756856149
 30
0.0
  0
VERTEX
  5
520
330
4C5
100
AcDbEntity
  8
Lines
100
AcDbVertex
100
AcDb2dVertex
 10
1182.272082047782
 20
480.0967805993481
 30
0.0
  0
VERTEX
  5
521
330
4C5
100
AcDbEntity
  8
Lines
100
AcDbVertex
100
AcDb2dVertex
 10
1182.272874562826
 20
480.0975822023769
 30
0.0
  0
VERTEX
  5
522
330
4C5
100
AcDbEntity
  8
Lines
100
AcDbVertex
100
AcDb2dVertex
 10
1182.273695559421
 20
480.0983805225484
 30
0.0
  0
VERTEX
  5
523
330
4C5
100
AcDbEntity
  8
Lines
100
AcDbVertex
100
AcDb2dVertex
 10
1182.274544991005
 20
480.0991755877097
 30
0.0
  0
VERTEX
  5
524
330
4C5
100
AcDbEntity
  8
Lines
100
AcDbVertex
100
AcDb2dVertex
 10
1182.275422811021
 20
480.0999674257079
 30
0.0
  0
VERTEX
  5
525
330
4C5
100
AcDbEntity
  8
Lines
100
AcDbVertex
100
AcDb2dVertex
 10
1182.277263430108
 20
480.1015415316032
 30
0.0
  0
VERTEX
  5
526
330
4C5
100
AcDbEntity
  8
Lines
100
AcDbVertex
100
AcDb2dVertex
 10
1182.279217044209
 20
480.1031030630111
 30
0.0
  0
VERTEX
  5
527
330
4C5
100
AcDbEntity
  8
Lines
100
AcDbVertex
100
AcDb2dVertex
 10
1182.281283280848
 20
480.1046522427084
 30
0.0
  0
VERTEX
  5
528
330
4C5
100
AcDbEntity
  8
Lines
100
AcDbVertex
100
AcDb2dVertex
 10
1182.283461767553
 20
480.106189293472
 30
0.0
  0
VERTEX
  5
529
330
4C5
100
AcDbEntity
  8
Lines
100
AcDbVertex
100
AcDb2dVertex
 10
1182.285752131848
 20
480.1077144380786
 30
0.0
  0
VERTEX
  5
52A
330
4C5
100
AcDbEntity
  8
Lines
100
AcDbVertex
100
AcDb2dVertex
 10
1182.288154001261
 20
480.1092278993049
 30
0.0
  0
VERTEX
  5
52B
330
4C5
100
AcDbEntity
  8
Lines
100
AcDbVertex
100
AcDb2dVertex
 10
1182.290667003317
 20
480.1107298999277
 30
0.0
  0
VERTEX
  5
52C
330
4C5
100
AcDbEntity
  8
Lines
100
AcDbVertex
100
AcDb2dVertex
 10
1182.293290765543
 20
480.1122206627239
 30
0.0
  0
VERTEX
  5
52D
330
4C5
100
AcDbEntity
  8
Lines
100
AcDbVertex
100
AcDb2dVertex
 10
1182.296024915463
 20
480.1137004104701
 30
0.0
  0
VERTEX
  5
52E
330
4C5
100
AcDbEntity
  8
Lines
100
AcDbVertex
100
AcDb2dVertex
 10
1182.298869080606
 20
480.1151693659432
 30
0.0
  0
VERTEX
  5
52F
330
4C5
100
AcDbEntity
  8
Lines
100
AcDbVertex
100
AcDb2dVertex
 10
1182.301822888495
 20
480.11662775192
 30
0.0
  0
VERTEX
  5
530
330
4C5
100
AcDbEntity
  8
Lines
100
AcDbVertex
100
AcDb2dVertex
 10
1182.308057942621
 20
480.1195137064917
 30
0.0
  0
VERTEX
  5
531
330
4C5
100
AcDbEntity
  8
Lines
100
AcDbVertex
100
AcDb2dVertex
 10
1182.314727098049
 20
480.1223600563994
 30
0.0
  0
VERTEX
  5
532
330
4C5
100
AcDbEntity
  8
Lines
100
AcDbVertex
100
AcDb2dVertex
 10
1182.321827374988
 20
480.1251685838573
 30
0.0
  0
VERTEX
  5
533
330
4C5
100
AcDbEntity
  8
Lines
100
AcDbVertex
100
AcDb2dVertex
 10
1182.329355793646
 20
480.1279410710797
 30
0.0
  0
VERTEX
  5
534
330
4C5
100
AcDbEntity
  8
Lines
100
AcDbVertex
100
AcDb2dVertex
 10
1182.337309374231
 20
480.1306793002807
 30
0.0
  0
VERTEX
  5
535
330
4C5
100
AcDbEntity
  8
Lines
100
AcDbVertex
100
AcDb2dVertex
 10
1182.354480102016
 20
480.1360601134759
 30
0.0
  0
VERTEX
  5
536
330
4C5
100
AcDbEntity
  8
Lines
100
AcDbVertex
100
AcDb2dVertex
 10
1182.373315720011
 20
480.1413252811569
 30
0.0
 42
-0.0316747188414633
  0
VERTEX
  5
537
330
4C5
100
AcDbEntity
  8
Lines
100
AcDbVertex
100
AcDb2dVertex
 10
1182.645239975841
 20
480.1882532979375
 30
0.0
  0
VERTEX
  5
538
330
4C5
100
AcDbEntity
  8
Lines
100
AcDbVertex
100
AcDb2dVertex
 10
1183.422585021006
 20
480.2533880842064
 30
0.0
  0
VERTEX
  5
539
330
4C5
100
AcDbEntity
  8
Lines
100
AcDbVertex
100
AcDb2dVertex
 10
1185.500001020605
 20
480.3426831415642
 30
0.0
  0
VERTEX
  5
53A
330
4C5
100
AcDbEntity
  8
Lines
100
AcDbVertex
100
AcDb2dVertex
 10
1186.605999251938
 20
480.3754134587908
 30
0.0
  0
SEQEND
  5
53B
330
4C5
100
AcDbEntity
  8
Lines
  0
POLYLINE
  5
53C
330
1F
100
AcDbEntity
  8
Lines
100
AcDb2dPolyline
 66
     1
 10
0.0
 20
0.0
 30
0.0
  0
VERTEX
  5
53D
330
53C
100
AcDbEntity
  8
Lines
100
AcDbVertex
100
AcDb2dVertex
 10
1202.764930480012
 20
485.8115732766247
 30
0.0
  0
VERTEX
  5
53E
330
53C
100
AcDbEntity
  8
Lines
100
AcDbVertex
100
AcDb2dVertex
 10
1202.686140001947
 20
485.7617327031734
 30
0.0
 42
0.5927458096292015
  0
VERTEX
  5
53F
330
53C
100
AcDbEntity
  8
Lines
100
AcDbVertex
100
AcDb2dVertex
 10
1202.826435646575
 20
484.9175402811136
 30
0.0
  0
SEQEND
  5
540
330
53C
100
AcDbEntity
  8
Lines
  0
POLYLINE
  5
541
330
1F
100
AcDbEntity
  8
Lines
100
AcDb2dPolyline
 66
     1
 10
0.0
 20
0.0
 30
0.0
  0
VERTEX
  5
542
330
541
100
AcDbEntity
  8
Lines
100
AcDbVertex
100
AcDb2dVertex
 10
1202.765134811571
 20
484.1675992431082
 30
0.0
  0
VERTEX
  5
543
330
541
100
AcDbEntity
  8
Lines
100
AcDbVertex
100
AcDb2dVertex
 10
1202.746151796797
 20
484.1576268521226
 30
0.0
 42
0.642953206516332
  0
VERTEX
  5
544
330
541
100
AcDbEntity
  8
Lines
100
AcDbVertex
100
AcDb2dVertex
 10
1202.826278465812
 20
483.2735397807074
 30
0.0
  0
SEQEND
  5
545
330
541
100
AcDbEntity
  8
Lines
  0
POLYLINE
  5
546
330
1F
100
AcDbEntity
  8
Lines
100
AcDb2dPolyline
 66
     1
 10
0.0
 20
0.0
 30
0.0
  0
VERTEX
  5
547
330
546
100
AcDbEntity
  8
Lines
100
AcDbVertex
100
AcDb2dVertex
 10
1182.235193420265
 20
481.7015611600919
 30
0.0
 42
-0.1297984347675504
  0
VERTEX
  5
548
330
546
100
AcDbEntity
  8
Lines
100
AcDbVertex
100
AcDb2dVertex
 10
1181.942371358036
 20
481.7633259433999
 30
0.0
 42
-0.2643282140822829
  0
VERTEX
  5
549
330
546
100
AcDbEntity
  8
Lines
100
AcDbVertex
100
AcDb2dVertex
 10
1181.954497130492
 20
481.7758739329812
 30
0.0
  0
VERTEX
  5
54A
330
546
100
AcDbEntity
  8
Lines
100
AcDbVertex
100
AcDb2dVertex
 10
1181.956517061677
 20
481.7768786670858
 30
0.0
  0
VERTEX
  5
54B
330
546
100
AcDbEntity
  8
Lines
100
AcDbVertex
100
AcDb2dVertex
 10
1181.958692156991
 20
481.7778832796193
 30
0.0
  0
VERTEX
  5
54C
330
546
100
AcDbEntity
  8
Lines
100
AcDbVertex
100
AcDb2dVertex
 10
1181.961022340602
 20
481.778887774462
 30
0.0
  0
VERTEX
  5
54D
330
546
100
AcDbEntity
  8
Lines
100
AcDbVertex
100
AcDb2dVertex
 10
1181.963507536677
 20
481.7798921554937
 30
0.0
  0
VERTEX
  5
54E
330
546
100
AcDbEntity
  8
Lines
100
AcDbVertex
100
AcDb2dVertex
 10
1181.966147669384
 20
481.7808964265947
 30
0.0
  0
VERTEX
  5
54F
330
546
100
AcDbEntity
  8
Lines
100
AcDbVertex
100
AcDb2dVertex
 10
1181.968942662892
 20
481.781900591645
 30
0.0
  0
VERTEX
  5
550
330
546
100
AcDbEntity
  8
Lines
100
AcDbVertex
100
AcDb2dVertex
 10
1181.974996928981
 20
481.7839086191141
 30
0.0
  0
VERTEX
  5
551
330
546
100
AcDbEntity
  8
Lines
100
AcDbVertex
100
AcDb2dVertex
 10
1181.981669728287
 20
481.7859162689419
 30
0.0
  0
VERTEX
  5
552
330
546
100
AcDbEntity
  8
Lines
100
AcDbVertex
100
AcDb2dVertex
 10
1181.988960454154
 20
481.7879235721693
 30
0.0
  0
VERTEX
  5
553
330
546
100
AcDbEntity
  8
Lines
100
AcDbVertex
100
AcDb2dVertex
 10
1182.005393258943
 20
481.7919372629865
 30
0.0
  0
VERTEX
  5
554
330
546
100
AcDbEntity
  8
Lines
100
AcDbVertex
100
AcDb2dVertex
 10
1182.024290490097
 20
481.7959499398926
 30
0.0
  0
VERTEX
  5
555
330
546
100
AcDbEntity
  8
Lines
100
AcDbVertex
100
AcDb2dVertex
 10
1182.045647294364
 20
481.7999618512147
 30
0.0
  0
VERTEX
  5
556
330
546
100
AcDbEntity
  8
Lines
100
AcDbVertex
100
AcDb2dVertex
 10
1182.09572020923
 20
481.8079843704145
 30
0.0
  0
VERTEX
  5
557
330
546
100
AcDbEntity
  8
Lines
100
AcDbVertex
100
AcDb2dVertex
 10
1182.15557317753
 20
481.8160068072023
 30
0.0
  0
VERTEX
  5
558
330
546
100
AcDbEntity
  8
Lines
100
AcDbVertex
100
AcDb2dVertex
 10
1182.225167373249
 20
481.8240311481939
 30
0.0
  0
VERTEX
  5
559
330
546
100
AcDbEntity
  8
Lines
100
AcDbVertex
100
AcDb2dVertex
 10
1182.393424142897
 20
481.840093489253
 30
0.0
  0
VERTEX
  5
55A
330
546
100
AcDbEntity
  8
Lines
100
AcDbVertex
100
AcDb2dVertex
 10
1183.437937367543
 20
481.904305516542
 30
0.0
 42
-0.0032064406610592
  0
VERTEX
  5
55B
330
546
100
AcDbEntity
  8
Lines
100
AcDbVertex
100
AcDb2dVertex
 10
1185.025885011136
 20
481.9685311472134
 30
0.0
  0
VERTEX
  5
55C
330
546
100
AcDbEntity
  8
Lines
100
AcDbVertex
100
AcDb2dVertex
 10
1185.499983540424
 20
481.9846776935681
 30
0.0
  0
VERTEX
  5
55D
330
546
100
AcDbEntity
  8
Lines
100
AcDbVertex
100
AcDb2dVertex
 10
1192.499999129395
 20
482.1743276401664
 30
0.0
  0
VERTEX
  5
55E
330
546
100
AcDbEntity
  8
Lines
100
AcDbVertex
100
AcDb2dVertex
 10
1197.002517078133
 20
482.2896062915511
 30
0.0
  0
VERTEX
  5
55F
330
546
100
AcDbEntity
  8
Lines
100
AcDbVertex
100
AcDb2dVertex
 10
1200.972451083029
 20
482.4180418673932
 30
0.0
  0
VERTEX
  5
560
330
546
100
AcDbEntity
  8
Lines
100
AcDbVertex
100
AcDb2dVertex
 10
1202.249314840064
 20
482.4822712050384
 30
0.0
  0
VERTEX
  5
561
330
546
100
AcDbEntity
  8
Lines
100
AcDbVertex
100
AcDb2dVertex
 10
1202.671871540946
 20
482.5143796256391
 30
0.0
  0
VERTEX
  5
562
330
546
100
AcDbEntity
  8
Lines
100
AcDbVertex
100
AcDb2dVertex
 10
1202.826043680204
 20
482.5304225989237
 30
0.0
  0
VERTEX
  5
563
330
546
100
AcDbEntity
  8
Lines
100
AcDbVertex
100
AcDb2dVertex
 10
1202.888638961179
 20
482.5384479072602
 30
0.0
  0
VERTEX
  5
564
330
546
100
AcDbEntity
  8
Lines
100
AcDbVertex
100
AcDb2dVertex
 10
1202.941492102724
 20
482.5464782894686
 30
0.0
  0
VERTEX
  5
565
330
546
100
AcDbEntity
  8
Lines
100
AcDbVertex
100
AcDb2dVertex
 10
1202.968680545627
 20
482.5513333721737
 30
0.0
  0
VERTEX
  5
566
330
546
100
AcDbEntity
  8
Lines
100
AcDbVertex
100
AcDb2dVertex
 10
1202.992256038074
 20
482.5561863422065
 30
0.0
  0
VERTEX
  5
567
330
546
100
AcDbEntity
  8
Lines
100
AcDbVertex
100
AcDb2dVertex
 10
1203.002687755263
 20
482.5586123001245
 30
0.0
  0
VERTEX
  5
568
330
546
100
AcDbEntity
  8
Lines
100
AcDbVertex
100
AcDb2dVertex
 10
1203.012214827701
 20
482.5610380480591
 30
0.0
  0
VERTEX
  5
569
330
546
100
AcDbEntity
  8
Lines
100
AcDbVertex
100
AcDb2dVertex
 10
1203.020836786342
 20
482.5634636920715
 30
0.0
  0
VERTEX
  5
56A
330
546
100
AcDbEntity
  8
Lines
100
AcDbVertex
100
AcDb2dVertex
 10
1203.028553162141
 20
482.5658893382234
 30
0.0
  0
VERTEX
  5
56B
330
546
100
AcDbEntity
  8
Lines
100
AcDbVertex
100
AcDb2dVertex
 10
1203.032071609899
 20
482.5671021952459
 30
0.0
  0
VERTEX
  5
56C
330
546
100
AcDbEntity
  8
Lines
100
AcDbVertex
100
AcDb2dVertex
 10
1203.035363486053
 20
482.5683150925763
 30
0.0
  0
VERTEX
  5
56D
330
546
100
AcDbEntity
  8
Lines
100
AcDbVertex
100
AcDb2dVertex
 10
1203.038428731974
 20
482.5695280434724
 30
0.0
  0
VERTEX
  5
56E
330
546
100
AcDbEntity
  8
Lines
100
AcDbVertex
100
AcDb2dVertex
 10
1203.041267289032
 20
482.5707410611917
 30
0.0
  0
VERTEX
  5
56F
330
546
100
AcDbEntity
  8
Lines
100
AcDbVertex
100
AcDb2dVertex
 10
1203.043879098594
 20
482.5719541589921
 30
0.0
  0
VERTEX
  5
570
330
546
100
AcDbEntity
  8
Lines
100
AcDbVertex
100
AcDb2dVertex
 10
1203.045099954743
 20
482.5725607420655
 30
0.0
  0
VERTEX
  5
571
330
546
100
AcDbEntity
  8
Lines
100
AcDbVertex
100
AcDb2dVertex
 10
1203.046264102031
 20
482.573167350131
 30
0.0
  0
VERTEX
  5
572
330
546
100
AcDbEntity
  8
Lines
100
AcDbVertex
100
AcDb2dVertex
 10
1203.047371533131
 20
482.5737739848456
 30
0.0
  0
VERTEX
  5
573
330
546
100
AcDbEntity
  8
Lines
100
AcDbVertex
100
AcDb2dVertex
 10
1203.048422240713
 20
482.5743806478664
 30
0.0
  0
VERTEX
  5
574
330
546
100
AcDbEntity
  8
Lines
100
AcDbVertex
100
AcDb2dVertex
 10
1203.049416217448
 20
482.5749873408508
 30
0.0
  0
VERTEX
  5
575
330
546
100
AcDbEntity
  8
Lines
100
AcDbVertex
100
AcDb2dVertex
 10
1203.050353456007
 20
482.5755940654559
 30
0.0
  0
VERTEX
  5
576
330
546
100
AcDbEntity
  8
Lines
100
AcDbVertex
100
AcDb2dVertex
 10
1203.051233949062
 20
482.5762008233389
 30
0.0
  0
VERTEX
  5
577
330
546
100
AcDbEntity
  8
Lines
100
AcDbVertex
100
AcDb2dVertex
 10
1203.052057689284
 20
482.5768076161571
 30
0.0
  0
VERTEX
  5
578
330
546
100
AcDbEntity
  8
Lines
100
AcDbVertex
100
AcDb2dVertex
 10
1203.052448274792
 20
482.5771110261848
 30
0.0
  0
VERTEX
  5
579
330
546
100
AcDbEntity
  8
Lines
100
AcDbVertex
100
AcDb2dVertex
 10
1203.052824669344
 20
482.5774144455676
 30
0.0
  0
VERTEX
  5
57A
330
546
100
AcDbEntity
  8
Lines
100
AcDbVertex
100
AcDb2dVertex
 10
1203.053186872023
 20
482.5777178745129
 30
0.0
  0
VERTEX
  5
57B
330
546
100
AcDbEntity
  8
Lines
100
AcDbVertex
100
AcDb2dVertex
 10
1203.053534881913
 20
482.5780213132278
 30
0.0
  0
VERTEX
  5
57C
330
546
100
AcDbEntity
  8
Lines
100
AcDbVertex
100
AcDb2dVertex
 10
1203.053868698098
 20
482.5783247619193
 30
0.0
  0
VERTEX
  5
57D
330
546
100
AcDbEntity
  8
Lines
100
AcDbVertex
100
AcDb2dVertex
 10
1203.054188319662
 20
482.5786282207947
 30
0.0
  0
VERTEX
  5
57E
330
546
100
AcDbEntity
  8
Lines
100
AcDbVertex
100
AcDb2dVertex
 10
1203.054493745689
 20
482.578931690061
 30
0.0
  0
VERTEX
  5
57F
330
546
100
AcDbEntity
  8
Lines
100
AcDbVertex
100
AcDb2dVertex
 10
1203.054784975263
 20
482.5792351699256
 30
0.0
  0
VERTEX
  5
580
330
546
100
AcDbEntity
  8
Lines
100
AcDbVertex
100
AcDb2dVertex
 10
1203.055062007467
 20
482.5795386605955
 30
0.0
  0
VERTEX
  5
581
330
546
100
AcDbEntity
  8
Lines
100
AcDbVertex
100
AcDb2dVertex
 10
1203.055324841386
 20
482.5798421622777
 30
0.0
  0
VERTEX
  5
582
330
546
100
AcDbEntity
  8
Lines
100
AcDbVertex
100
AcDb2dVertex
 10
1203.055573476103
 20
482.5801456751797
 30
0.0
  0
VERTEX
  5
583
330
546
100
AcDbEntity
  8
Lines
100
AcDbVertex
100
AcDb2dVertex
 10
1203.055807910703
 20
482.5804491995083
 30
0.0
  0
VERTEX
  5
584
330
546
100
AcDbEntity
  8
Lines
100
AcDbVertex
100
AcDb2dVertex
 10
1203.056028144269
 20
482.5807527354708
 30
0.0
  0
VERTEX
  5
585
330
546
100
AcDbEntity
  8
Lines
100
AcDbVertex
100
AcDb2dVertex
 10
1203.056234175885
 20
482.5810562832745
 30
0.0
  0
VERTEX
  5
586
330
546
100
AcDbEntity
  8
Lines
100
AcDbVertex
100
AcDb2dVertex
 10
1203.056426004635
 20
482.5813598431263
 30
0.0
  0
VERTEX
  5
587
330
546
100
AcDbEntity
  8
Lines
100
AcDbVertex
100
AcDb2dVertex
 10
1203.056603629603
 20
482.5816634152335
 30
0.0
  0
VERTEX
  5
588
330
546
100
AcDbEntity
  8
Lines
100
AcDbVertex
100
AcDb2dVertex
 10
1203.056687115383
 20
482.5818152059476
 30
0.0
  0
VERTEX
  5
589
330
546
100
AcDbEntity
  8
Lines
100
AcDbVertex
100
AcDb2dVertex
 10
1203.056767049873
 20
482.5819669998032
 30
0.0
  0
VERTEX
  5
58A
330
546
100
AcDbEntity
  8
Lines
100
AcDbVertex
100
AcDb2dVertex
 10
1203.05684343296
 20
482.5821187968262
 30
0.0
  0
VERTEX
  5
58B
330
546
100
AcDbEntity
  8
Lines
100
AcDbVertex
100
AcDb2dVertex
 10
1203.056916264528
 20
482.5822705970426
 30
0.0
  0
VERTEX
  5
58C
330
546
100
AcDbEntity
  8
Lines
100
AcDbVertex
100
AcDb2dVertex
 10
1203.056985544465
 20
482.5824224004781
 30
0.0
  0
VERTEX
  5
58D
330
546
100
AcDbEntity
  8
Lines
100
AcDbVertex
100
AcDb2dVertex
 10
1203.057051272654
 20
482.5825742071587
 30
0.0
  0
VERTEX
  5
58E
330
546
100
AcDbEntity
  8
Lines
100
AcDbVertex
100
AcDb2dVertex
 10
1203.057113448981
 20
482.5827260171103
 30
0.0
  0
VERTEX
  5
58F
330
546
100
AcDbEntity
  8
Lines
100
AcDbVertex
100
AcDb2dVertex
 10
1203.057172073332
 20
482.5828778303588
 30
0.0
  0
VERTEX
  5
590
330
546
100
AcDbEntity
  8
Lines
100
AcDbVertex
100
AcDb2dVertex
 10
1203.057227145593
 20
482.5830296469301
 30
0.0
  0
VERTEX
  5
591
330
546
100
AcDbEntity
  8
Lines
100
AcDbVertex
100
AcDb2dVertex
 10
1203.057278665648
 20
482.5831814668501
 30
0.0
  0
VERTEX
  5
592
330
546
100
AcDbEntity
  8
Lines
100
AcDbVertex
100
AcDb2dVertex
 10
1203.057326633384
 20
482.5833332901445
 30
0.0
  0
VERTEX
  5
593
330
546
100
AcDbEntity
  8
Lines
100
AcDbVertex
100
AcDb2dVertex
 10
1203.057371048686
 20
482.5834851168396
 30
0.0
  0
VERTEX
  5
594
330
546
100
AcDbEntity
  8
Lines
100
AcDbVertex
100
AcDb2dVertex
 10
1203.057411911439
 20
482.583636946961
 30
0.0
  0
VERTEX
  5
595
330
546
100
AcDbEntity
  8
Lines
100
AcDbVertex
100
AcDb2dVertex
 10
1203.057449221528
 20
482.5837887805346
 30
0.0
  0
VERTEX
  5
596
330
546
100
AcDbEntity
  8
Lines
100
AcDbVertex
100
AcDb2dVertex
 10
1203.05748297884
 20
482.5839406175863
 30
0.0
  0
VERTEX
  5
597
330
546
100
AcDbEntity
  8
Lines
100
AcDbVertex
100
AcDb2dVertex
 10
1203.05751318326
 20
482.5840924581421
 30
0.0
  0
VERTEX
  5
598
330
546
100
AcDbEntity
  8
Lines
100
AcDbVertex
100
AcDb2dVertex
 10
1203.057539834673
 20
482.5842443022278
 30
0.0
  0
VERTEX
  5
599
330
546
100
AcDbEntity
  8
Lines
100
AcDbVertex
100
AcDb2dVertex
 10
1203.057562932964
 20
482.5843961498693
 30
0.0
  0
VERTEX
  5
59A
330
546
100
AcDbEntity
  8
Lines
100
AcDbVertex
100
AcDb2dVertex
 10
1203.05758247802
 20
482.5845480010926
 30
0.0
  0
VERTEX
  5
59B
330
546
100
AcDbEntity
  8
Lines
100
AcDbVertex
100
AcDb2dVertex
 10
1203.057598469726
 20
482.5846998559234
 30
0.0
  0
VERTEX
  5
59C
330
546
100
AcDbEntity
  8
Lines
100
AcDbVertex
100
AcDb2dVertex
 10
1203.057610907966
 20
482.5848517143878
 30
0.0
  0
VERTEX
  5
59D
330
546
100
AcDbEntity
  8
Lines
100
AcDbVertex
100
AcDb2dVertex
 10
1203.057619792628
 20
482.5850035765116
 30
0.0
  0
VERTEX
  5
59E
330
546
100
AcDbEntity
  8
Lines
100
AcDbVertex
100
AcDb2dVertex
 10
1203.057625123595
 20
482.5851554423207
 30
0.0
  0
VERTEX
  5
59F
330
546
100
AcDbEntity
  8
Lines
100
AcDbVertex
100
AcDb2dVertex
 10
1203.057626900755
 20
482.5853073118409
 30
0.0
  0
VERTEX
  5
5A0
330
546
100
AcDbEntity
  8
Lines
100
AcDbVertex
100
AcDb2dVertex
 10
1203.057626900755
 20
483.2325707770692
 30
0.0
  0
SEQEND
  5
5A1
330
546
100
AcDbEntity
  8
Lines
  0
POLYLINE
  5
5A2
330
1F
100
AcDbEntity
  8
Lines
100
AcDb2dPolyline
 66
     1
 10
0.0
 20
0.0
 30
0.0
  0
VERTEX
  5
5A3
330
5A2
100
AcDbEntity
  8
Lines
100
AcDbVertex
100
AcDb2dVertex
 10
1192.720969994087
 20
499.0797149831742
 30
0.0
 42
0.3214533484906308
  0
VERTEX
  5
5A4
330
5A2
100
AcDbEntity
  8
Lines
100
AcDbVertex
100
AcDb2dVertex
 10
1208.0
 20
520.389515365733
 30
0.0
 42
0.1966967374532036
  0
VERTEX
  5
5A5
330
5A2
100
AcDbEntity
  8
Lines
100
AcDbVertex
100
AcDb2dVertex
 10
1201.397390990751
 20
536.5238873609861
 30
0.0
 42
0.2025363278916295
  0
VERTEX
  5
5A6
330
5A2
100
AcDbEntity
  8
Lines
100
AcDbVertex
100
AcDb2dVertex
 10
1185.37675302815
 20
543.1891822532946
 30
0.0
  0
VERTEX
  5
5A7
330
5A2
100
AcDbEntity
  8
Lines
100
AcDbVertex
100
AcDb2dVertex
 10
1185.367561576018
 20
543.1891307147624
 30
0.0
  0
VERTEX
  5
5A8
330
5A2
100
AcDbEntity
  8
Lines
100
AcDbVertex
100
AcDb2dVertex
 10
1185.294084060016
 20
543.1885854920672
 30
0.0
  0
VERTEX
  5
5A9
330
5A2
100
AcDbEntity
  8
Lines
100
AcDbVertex
100
AcDb2dVertex
 10
1185.206429552009
 20
543.1876255856381
 30
0.0
  0
VERTEX
  5
5AA
330
5A2
100
AcDbEntity
  8
Lines
100
AcDbVertex
100
AcDb2dVertex
 10
1185.207049863376
 20
543.1876336623327
 30
0.0
  0
VERTEX
  5
5AB
330
5A2
100
AcDbEntity
  8
Lines
100
AcDbVertex
100
AcDb2dVertex
 10
1185.207104543153
 20
543.1876343555014
 30
0.0
  0
VERTEX
  5
5AC
330
5A2
100
AcDbEntity
  8
Lines
100
AcDbVertex
100
AcDb2dVertex
 10
1185.207116822862
 20
543.187634504326
 30
0.0
  0
VERTEX
  5
5AD
330
5A2
100
AcDbEntity
  8
Lines
100
AcDbVertex
100
AcDb2dVertex
 10
1185.207119197634
 20
543.1876345293891
 30
0.0
  0
VERTEX
  5
5AE
330
5A2
100
AcDbEntity
  8
Lines
100
AcDbVertex
100
AcDb2dVertex
 10
1185.207119062337
 20
543.1876345215874
 30
0.0
  0
VERTEX
  5
5AF
330
5A2
100
AcDbEntity
  8
Lines
100
AcDbVertex
100
AcDb2dVertex
 10
1185.207027616188
 20
543.1876332791489
 30
0.0
  0
VERTEX
  5
5B0
330
5A2
100
AcDbEntity
  8
Lines
100
AcDbVertex
100
AcDb2dVertex
 10
1185.205055271093
 20
543.1876075579919
 30
0.0
  0
VERTEX
  5
5B1
330
5A2
100
AcDbEntity
  8
Lines
100
AcDbVertex
100
AcDb2dVertex
 10
1185.15327556085
 20
543.1868788572234
 30
0.0
  0
VERTEX
  5
5B2
330
5A2
100
AcDbEntity
  8
Lines
100
AcDbVertex
100
AcDb2dVertex
 10
1185.109035267377
 20
543.1861630705533
 30
0.0
  0
VERTEX
  5
5B3
330
5A2
100
AcDbEntity
  8
Lines
100
AcDbVertex
100
AcDb2dVertex
 10
1185.093676529947
 20
543.1858944913206
 30
0.0
  0
VERTEX
  5
5B4
330
5A2
100
AcDbEntity
  8
Lines
100
AcDbVertex
100
AcDb2dVertex
 10
1185.089913609901
 20
543.1858271102345
 30
0.0
  0
VERTEX
  5
5B5
330
5A2
100
AcDbEntity
  8
Lines
100
AcDbVertex
100
AcDb2dVertex
 10
1185.019164613504
 20
543.1844445667621
 30
0.0
  0
VERTEX
  5
5B6
330
5A2
100
AcDbEntity
  8
Lines
100
AcDbVertex
100
AcDb2dVertex
 10
1184.9661029595
 20
543.1832634987186
 30
0.0
  0
VERTEX
  5
5B7
330
5A2
100
AcDbEntity
  8
Lines
100
AcDbVertex
100
AcDb2dVertex
 10
1184.953809575194
 20
543.1829722343102
 30
0.0
  0
VERTEX
  5
5B8
330
5A2
100
AcDbEntity
  8
Lines
100
AcDbVertex
100
AcDb2dVertex
 10
1184.952410815026
 20
543.1829386734405
 30
0.0
  0
VERTEX
  5
5B9
330
5A2
100
AcDbEntity
  8
Lines
100
AcDbVertex
100
AcDb2dVertex
 10
1184.792812252288
 20
543.1785453031684
 30
0.0
  0
VERTEX
  5
5BA
330
5A2
100
AcDbEntity
  8
Lines
100
AcDbVertex
100
AcDb2dVertex
 10
1184.751196018442
 20
543.1772159058639
 30
0.0
  0
VERTEX
  5
5BB
330
5A2
100
AcDbEntity
  8
Lines
100
AcDbVertex
100
AcDb2dVertex
 10
1184.714206329779
 20
543.175970296408
 30
0.0
  0
VERTEX
  5
5BC
330
5A2
100
AcDbEntity
  8
Lines
100
AcDbVertex
100
AcDb2dVertex
 10
1184.642108672626
 20
543.1733697909672
 30
0.0
  0
VERTEX
  5
5BD
330
5A2
100
AcDbEntity
  8
Lines
100
AcDbVertex
100
AcDb2dVertex
 10
1184.505672627517
 20
543.1678233159776
 30
0.0
  0
VERTEX
  5
5BE
330
5A2
100
AcDbEntity
  8
Lines
100
AcDbVertex
100
AcDb2dVertex
 10
1184.394618286347
 20
543.1627042348168
 30
0.0
  0
VERTEX
  5
5BF
330
5A2
100
AcDbEntity
  8
Lines
100
AcDbVertex
100
AcDb2dVertex
 10
1184.284803513289
 20
543.1571085081476
 30
0.0
  0
VERTEX
  5
5C0
330
5A2
100
AcDbEntity
  8
Lines
100
AcDbVertex
100
AcDb2dVertex
 10
1184.131643757812
 20
543.1484169467969
 30
0.0
  0
VERTEX
  5
5C1
330
5A2
100
AcDbEntity
  8
Lines
100
AcDbVertex
100
AcDb2dVertex
 10
1184.036727172417
 20
543.1425114900219
 30
0.0
  0
VERTEX
  5
5C2
330
5A2
100
AcDbEntity
  8
Lines
100
AcDbVertex
100
AcDb2dVertex
 10
1183.657454398098
 20
543.1149422199145
 30
0.0
  0
VERTEX
  5
5C3
330
5A2
100
AcDbEntity
  8
Lines
100
AcDbVertex
100
AcDb2dVertex
 10
1183.380562014714
 20
543.0907924801679
 30
0.0
  0
VERTEX
  5
5C4
330
5A2
100
AcDbEntity
  8
Lines
100
AcDbVertex
100
AcDb2dVertex
 10
1183.228549457608
 20
543.076086557372
 30
0.0
  0
VERTEX
  5
5C5
330
5A2
100
AcDbEntity
  8
Lines
100
AcDbVertex
100
AcDb2dVertex
 10
1182.972609362505
 20
543.0490011623115
 30
0.0
  0
VERTEX
  5
5C6
330
5A2
100
AcDbEntity
  8
Lines
100
AcDbVertex
100
AcDb2dVertex
 10
1182.694953315357
 20
543.0163072969108
 30
0.0
  0
VERTEX
  5
5C7
330
5A2
100
AcDbEntity
  8
Lines
100
AcDbVertex
100
AcDb2dVertex
 10
1182.507727503972
 20
542.9923095582517
 30
0.0
  0
VERTEX
  5
5C8
330
5A2
100
AcDbEntity
  8
Lines
100
AcDbVertex
100
AcDb2dVertex
 10
1182.175147303858
 20
542.9457862132999
 30
0.0
  0
VERTEX
  5
5C9
330
5A2
100
AcDbEntity
  8
Lines
100
AcDbVertex
100
AcDb2dVertex
 10
1181.952560939863
 20
542.9118526359733
 30
0.0
  0
VERTEX
  5
5CA
330
5A2
100
AcDbEntity
  8
Lines
100
AcDbVertex
100
AcDb2dVertex
 10
1181.690014849301
 20
542.8689284619705
 30
0.0
  0
VERTEX
  5
5CB
330
5A2
100
AcDbEntity
  8
Lines
100
AcDbVertex
100
AcDb2dVertex
 10
1181.404372665699
 20
542.8186445672507
 30
0.0
  0
VERTEX
  5
5CC
330
5A2
100
AcDbEntity
  8
Lines
100
AcDbVertex
100
AcDb2dVertex
 10
1181.246285722377
 20
542.7892009627273
 30
0.0
  0
VERTEX
  5
5CD
330
5A2
100
AcDbEntity
  8
Lines
100
AcDbVertex
100
AcDb2dVertex
 10
1181.148448591467
 20
542.7704000673918
 30
0.0
  0
VERTEX
  5
5CE
330
5A2
100
AcDbEntity
  8
Lines
100
AcDbVertex
100
AcDb2dVertex
 10
1181.072679985275
 20
542.7555350700252
 30
0.0
  0
VERTEX
  5
5CF
330
5A2
100
AcDbEntity
  8
Lines
100
AcDbVertex
100
AcDb2dVertex
 10
1180.964475203311
 20
542.7338438367
 30
0.0
  0
VERTEX
  5
5D0
330
5A2
100
AcDbEntity
  8
Lines
100
AcDbVertex
100
AcDb2dVertex
 10
1180.930561860769
 20
542.7269331907992
 30
0.0
  0
VERTEX
  5
5D1
330
5A2
100
AcDbEntity
  8
Lines
100
AcDbVertex
100
AcDb2dVertex
 10
1180.90995457797
 20
542.722707771288
 30
0.0
  0
VERTEX
  5
5D2
330
5A2
100
AcDbEntity
  8
Lines
100
AcDbVertex
100
AcDb2dVertex
 10
1180.790211310397
 20
542.6977625066254
 30
0.0
  0
VERTEX
  5
5D3
330
5A2
100
AcDbEntity
  8
Lines
100
AcDbVertex
100
AcDb2dVertex
 10
1180.78336644753
 20
542.6963163002367
 30
0.0
  0
VERTEX
  5
5D4
330
5A2
100
AcDbEntity
  8
Lines
100
AcDbVertex
100
AcDb2dVertex
 10
1180.775592323604
 20
542.6946710950045
 30
0.0
  0
VERTEX
  5
5D5
330
5A2
100
AcDbEntity
  8
Lines
100
AcDbVertex
100
AcDb2dVertex
 10
1180.543119473511
 20
542.6441628679056
 30
0.0
  0
VERTEX
  5
5D6
330
5A2
100
AcDbEntity
  8
Lines
100
AcDbVertex
100
AcDb2dVertex
 10
1180.463785962351
 20
542.6263440102774
 30
0.0
  0
VERTEX
  5
5D7
330
5A2
100
AcDbEntity
  8
Lines
100
AcDbVertex
100
AcDb2dVertex
 10
1180.420765376891
 20
542.6165569062363
 30
0.0
  0
VERTEX
  5
5D8
330
5A2
100
AcDbEntity
  8
Lines
100
AcDbVertex
100
AcDb2dVertex
 10
1180.407869014401
 20
542.6136059438734
 30
0.0
  0
VERTEX
  5
5D9
330
5A2
100
AcDbEntity
  8
Lines
100
AcDbVertex
100
AcDb2dVertex
 10
1180.398721634095
 20
542.6115080539103
 30
0.0
  0
VERTEX
  5
5DA
330
5A2
100
AcDbEntity
  8
Lines
100
AcDbVertex
100
AcDb2dVertex
 10
1180.376761552383
 20
542.6064554733064
 30
0.0
  0
VERTEX
  5
5DB
330
5A2
100
AcDbEntity
  8
Lines
100
AcDbVertex
100
AcDb2dVertex
 10
1180.339928881247
 20
542.5979296731359
 30
0.0
  0
VERTEX
  5
5DC
330
5A2
100
AcDbEntity
  8
Lines
100
AcDbVertex
100
AcDb2dVertex
 10
1180.274512023465
 20
542.5826286085147
 30
0.0
  0
VERTEX
  5
5DD
330
5A2
100
AcDbEntity
  8
Lines
100
AcDbVertex
100
AcDb2dVertex
 10
1180.21970588419
 20
542.5696527424578
 30
0.0
  0
VERTEX
  5
5DE
330
5A2
100
AcDbEntity
  8
Lines
100
AcDbVertex
100
AcDb2dVertex
 10
1180.154546810756
 20
542.5540395014737
 30
0.0
  0
VERTEX
  5
5DF
330
5A2
100
AcDbEntity
  8
Lines
100
AcDbVertex
100
AcDb2dVertex
 10
1180.052112541458
 20
542.5290845152348
 30
0.0
  0
VERTEX
  5
5E0
330
5A2
100
AcDbEntity
  8
Lines
100
AcDbVertex
100
AcDb2dVertex
 10
1179.937817188847
 20
542.5006465528785
 30
0.0
  0
VERTEX
  5
5E1
330
5A2
100
AcDbEntity
  8
Lines
100
AcDbVertex
100
AcDb2dVertex
 10
1179.915817411431
 20
542.4951007417766
 30
0.0
  0
VERTEX
  5
5E2
330
5A2
100
AcDbEntity
  8
Lines
100
AcDbVertex
100
AcDb2dVertex
 10
1179.906631926741
 20
542.4927783284019
 30
0.0
  0
VERTEX
  5
5E3
330
5A2
100
AcDbEntity
  8
Lines
100
AcDbVertex
100
AcDb2dVertex
 10
1179.887255227979
 20
542.4878658951043
 30
0.0
  0
VERTEX
  5
5E4
330
5A2
100
AcDbEntity
  8
Lines
100
AcDbVertex
100
AcDb2dVertex
 10
1179.841819138129
 20
542.4762758645975
 30
0.0
  0
VERTEX
  5
5E5
330
5A2
100
AcDbEntity
  8
Lines
100
AcDbVertex
100
AcDb2dVertex
 10
1179.603885239476
 20
542.4139524920382
 30
0.0
  0
VERTEX
  5
5E6
330
5A2
100
AcDbEntity
  8
Lines
100
AcDbVertex
100
AcDb2dVertex
 10
1179.283994447564
 20
542.3258157596445
 30
0.0
  0
VERTEX
  5
5E7
330
5A2
100
AcDbEntity
  8
Lines
100
AcDbVertex
100
AcDb2dVertex
 10
1178.962819554867
 20
542.2322549335532
 30
0.0
  0
VERTEX
  5
5E8
330
5A2
100
AcDbEntity
  8
Lines
100
AcDbVertex
100
AcDb2dVertex
 10
1178.907810958424
 20
542.2157162179193
 30
0.0
  0
VERTEX
  5
5E9
330
5A2
100
AcDbEntity
  8
Lines
100
AcDbVertex
100
AcDb2dVertex
 10
1178.695067694064
 20
542.150326387188
 30
0.0
  0
VERTEX
  5
5EA
330
5A2
100
AcDbEntity
  8
Lines
100
AcDbVertex
100
AcDb2dVertex
 10
1178.601398253438
 20
542.1208129326565
 30
0.0
  0
VERTEX
  5
5EB
330
5A2
100
AcDbEntity
  8
Lines
100
AcDbVertex
100
AcDb2dVertex
 10
1178.332063676422
 20
542.0334680745378
 30
0.0
  0
VERTEX
  5
5EC
330
5A2
100
AcDbEntity
  8
Lines
100
AcDbVertex
100
AcDb2dVertex
 10
1178.087800131959
 20
541.9510388071798
 30
0.0
  0
VERTEX
  5
5ED
330
5A2
100
AcDbEntity
  8
Lines
100
AcDbVertex
100
AcDb2dVertex
 10
1177.902444298501
 20
541.8864255474887
 30
0.0
  0
VERTEX
  5
5EE
330
5A2
100
AcDbEntity
  8
Lines
100
AcDbVertex
100
AcDb2dVertex
 10
1177.661415654772
 20
541.7997137642203
 30
0.0
  0
VERTEX
  5
5EF
330
5A2
100
AcDbEntity
  8
Lines
100
AcDbVertex
100
AcDb2dVertex
 10
1177.464090115471
 20
541.7264353010839
 30
0.0
  0
VERTEX
  5
5F0
330
5A2
100
AcDbEntity
  8
Lines
100
AcDbVertex
100
AcDb2dVertex
 10
1177.317022175145
 20
541.6704663293947
 30
0.0
  0
VERTEX
  5
5F1
330
5A2
100
AcDbEntity
  8
Lines
100
AcDbVertex
100
AcDb2dVertex
 10
1177.018540687998
 20
541.5532779787159
 30
0.0
  0
VERTEX
  5
5F2
330
5A2
100
AcDbEntity
  8
Lines
100
AcDbVertex
100
AcDb2dVertex
 10
1176.642286471207
 20
541.3985827187042
 30
0.0
  0
VERTEX
  5
5F3
330
5A2
100
AcDbEntity
  8
Lines
100
AcDbVertex
100
AcDb2dVertex
 10
1176.557544853721
 20
541.3626528505404
 30
0.0
  0
VERTEX
  5
5F4
330
5A2
100
AcDbEntity
  8
Lines
100
AcDbVertex
100
AcDb2dVertex
 10
1176.485361902235
 20
541.3317287149989
 30
0.0
  0
VERTEX
  5
5F5
330
5A2
100
AcDbEntity
  8
Lines
100
AcDbVertex
100
AcDb2dVertex
 10
1176.095843012436
 20
541.1597303707133
 30
0.0
  0
VERTEX
  5
5F6
330
5A2
100
AcDbEntity
  8
Lines
100
AcDbVertex
100
AcDb2dVertex
 10
1175.71304682465
 20
540.9821244171221
 30
0.0
  0
VERTEX
  5
5F7
330
5A2
100
AcDbEntity
  8
Lines
100
AcDbVertex
100
AcDb2dVertex
 10
1175.566725318584
 20
540.9119434409727
 30
0.0
  0
VERTEX
  5
5F8
330
5A2
100
AcDbEntity
  8
Lines
100
AcDbVertex
100
AcDb2dVertex
 10
1175.507368562094
 20
540.8831079079912
 30
0.0
 42
0.0141552503998959
  0
VERTEX
  5
5F9
330
5A2
100
AcDbEntity
  8
Lines
100
AcDbVertex
100
AcDb2dVertex
 10
1174.363820170512
 20
540.2848791172494
 30
0.0
  0
VERTEX
  5
5FA
330
5A2
100
AcDbEntity
  8
Lines
100
AcDbVertex
100
AcDb2dVertex
 10
1174.236016808146
 20
540.2128017394269
 30
0.0
  0
VERTEX
  5
5FB
330
5A2
100
AcDbEntity
  8
Lines
100
AcDbVertex
100
AcDb2dVertex
 10
1174.206901564804
 20
540.1962295741228
 30
0.0
 42
0.1377506180543727
  0
VERTEX
  5
5FC
330
5A2
100
AcDbEntity
  8
Lines
100
AcDbVertex
100
AcDb2dVertex
 10
1165.952735951974
 20
531.8328308047141
 30
0.0
 42
0.1269369258769977
  0
VERTEX
  5
5FD
330
5A2
100
AcDbEntity
  8
Lines
100
AcDbVertex
100
AcDb2dVertex
 10
1163.0
 20
520.389515365733
 30
0.0
 42
0.3214533485017039
  0
VERTEX
  5
5FE
330
5A2
100
AcDbEntity
  8
Lines
100
AcDbVertex
100
AcDb2dVertex
 10
1178.279030006774
 20
499.0797149828826
 30
0.0
  0
SEQEND
  5
5FF
330
5A2
100
AcDbEntity
  8
Lines
  0
POLYLINE
  5
600
330
1F
100
AcDbEntity
  8
Lines
100
AcDb2dPolyline
 66
     1
 10
0.0
 20
0.0
 30
0.0
  0
VERTEX
  5
601
330
600
100
AcDbEntity
  8
Lines
100
AcDbVertex
100
AcDb2dVertex
 10
1275.026327590496
 20
519.748135802208
 30
0.0
  0
VERTEX
  5
602
330
600
100
AcDbEntity
  8
Lines
100
AcDbVertex
100
AcDb2dVertex
 10
1275.026327590496
 20
491.1979373163989
 30
0.0
 42
-0.4193952102303394
  0
VERTEX
  5
603
330
600
100
AcDbEntity
  8
Lines
100
AcDbVertex
100
AcDb2dVertex
 10
1274.00875835538
 20
490.1980907962603
 30
0.0
  0
VERTEX
  5
604
330
600
100
AcDbEntity
  8
Lines
100
AcDbVertex
100
AcDb2dVertex
 10
1260.516063968126
 20
490.43521001461
 30
0.0
 42
-0.4091369067180323
  0
VERTEX
  5
605
330
600
100
AcDbEntity
  8
Lines
100
AcDbVertex
100
AcDb2dVertex
 10
1259.043449842056
 20
491.931338371627
 30
0.0
  0
VERTEX
  5
606
330
600
100
AcDbEntity
  8
Lines
100
AcDbVertex
100
AcDb2dVertex
 10
1259.043449842055
 20
548.8474328749596
 30
0.0
 42
-0.4091659063652847
  0
VERTEX
  5
607
330
600
100
AcDbEntity
  8
Lines
100
AcDbVertex
100
AcDb2dVertex
 10
1260.516063968126
 20
550.3438207168559
 30
0.0
  0
VERTEX
  5
608
330
600
100
AcDbEntity
  8
Lines
100
AcDbVertex
100
AcDb2dVertex
 10
1274.00875835538
 20
550.5809399704303
 30
0.0
 42
-0.4193877591427163
  0
VERTEX
  5
609
330
600
100
AcDbEntity
  8
Lines
100
AcDbVertex
100
AcDb2dVertex
 10
1275.026327590496
 20
549.581118914912
 30
0.0
  0
VERTEX
  5
60A
330
600
100
AcDbEntity
  8
Lines
100
AcDbVertex
100
AcDb2dVertex
 10
1275.026327590496
 20
519.748135802208
 30
0.0
  0
SEQEND
  5
60B
330
600
100
AcDbEntity
  8
Lines
  0
CIRCLE
  5
60C
330
1F
100
AcDbEntity
  8
Lines
100
AcDbCircle
 10
1185.500000000013
 20
520.3895153657331
 30
0.0
 40
8.000000000000227
  0
POLYLINE
  5
60E
330
1F
100
AcDbEntity
  8
Make2D$可见线$普通线
100
AcDb2dPolyline
 66
     1
 10
0.0
 20
0.0
 30
0.0
  0
VERTEX
  5
60F
330
60E
100
AcDbEntity
  8
Make2D$可见线$普通线
100
AcDbVertex
100
AcDb2dVertex
 10
1163.721346743756
 20
514.7379436954559
 30
0.0
 42
0.077151113744653
  0
VERTEX
  5
610
330
60E
100
AcDbEntity
  8
Make2D$可见线$普通线
100
AcDbVertex
100
AcDb2dVertex
 10
1162.504183986218
 20
517.5544100687848
 30
0.0
  0
VERTEX
  5
611
330
60E
100
AcDbEntity
  8
Make2D$可见线$普通线
100
AcDbVertex
100
AcDb2dVertex
 10
1162.209758188377
 20
517.9956108809488
 30
0.0
 42
0.066366409802437
  0
VERTEX
  5
612
330
60E
100
AcDbEntity
  8
Make2D$可见线$普通线
100
AcDbVertex
100
AcDb2dVertex
 10
1160.412906344505
 20
519.9339739321392
 30
0.0
  0
VERTEX
  5
613
330
60E
100
AcDbEntity
  8
Make2D$可见线$普通线
100
AcDbVertex
100
AcDb2dVertex
 10
1160.412782878918
 20
519.9340889422858
 30
0.0
  0
VERTEX
  5
614
330
60E
100
AcDbEntity
  8
Make2D$可见线$普通线
100
AcDbVertex
100
AcDb2dVertex
 10
1160.412781128658
 20
519.9340906718065
 30
0.0
  0
VERTEX
  5
615
330
60E
100
AcDbEntity
  8
Make2D$可见线$普通线
100
AcDbVertex
100
AcDb2dVertex
 10
1160.412780639113
 20
519.934091181559
 30
0.0
  0
VERTEX
  5
616
330
60E
100
AcDbEntity
  8
Make2D$可见线$普通线
100
AcDbVertex
100
AcDb2dVertex
 10
1160.412780396055
 20
519.9340914643328
 30
0.0
  0
VERTEX
  5
617
330
60E
100
AcDbEntity
  8
Make2D$可见线$普通线
100
AcDbVertex
100
AcDb2dVertex
 10
1160.412780617685
 20
519.9340913780251
 30
0.0
  0
VERTEX
  5
618
330
60E
100
AcDbEntity
  8
Make2D$可见线$普通线
100
AcDbVertex
100
AcDb2dVertex
 10
1160.41278106652
 20
519.9340910234835
 30
0.0
  0
VERTEX
  5
619
330
60E
100
AcDbEntity
  8
Make2D$可见线$普通线
100
AcDbVertex
100
AcDb2dVertex
 10
1160.412781730129
 20
519.9340904710433
 30
0.0
  0
VERTEX
  5
61A
330
60E
100
AcDbEntity
  8
Make2D$可见线$普通线
100
AcDbVertex
100
AcDb2dVertex
 10
1160.4128150884
 20
519.9340606501584
 30
0.0
  0
VERTEX
  5
61B
330
60E
100
AcDbEntity
  8
Make2D$可见线$普通线
100
AcDbVertex
100
AcDb2dVertex
 10
1160.412997035851
 20
519.9338943163991
 30
0.0
  0
VERTEX
  5
61C
330
60E
100
AcDbEntity
  8
Make2D$可见线$普通线
100
AcDbVertex
100
AcDb2dVertex
 10
1160.413010796451
 20
519.9338811138425
 30
0.0
  0
VERTEX
  5
61D
330
60E
100
AcDbEntity
  8
Make2D$可见线$普通线
100
AcDbVertex
100
AcDb2dVertex
 10
1160.41301254078
 20
519.9338793343429
 30
0.0
  0
VERTEX
  5
61E
330
60E
100
AcDbEntity
  8
Make2D$可见线$普通线
100
AcDbVertex
100
AcDb2dVertex
 10
1160.413013186004
 20
519.9338786481571
 30
0.0
  0
VERTEX
  5
61F
330
60E
100
AcDbEntity
  8
Make2D$可见线$普通线
100
AcDbVertex
100
AcDb2dVertex
 10
1160.413013686584
 20
519.9338780917158
 30
0.0
  0
VERTEX
  5
620
330
60E
100
AcDbEntity
  8
Make2D$可见线$普通线
100
AcDbVertex
100
AcDb2dVertex
 10
1160.413014273765
 20
519.9338773501697
 30
0.0
  0
VERTEX
  5
621
330
60E
100
AcDbEntity
  8
Make2D$可见线$普通线
100
AcDbVertex
100
AcDb2dVertex
 10
1160.413014342224
 20
519.933877073913
 30
0.0
  0
VERTEX
  5
622
330
60E
100
AcDbEntity
  8
Make2D$可见线$普通线
100
AcDbVertex
100
AcDb2dVertex
 10
1160.413013931863
 20
519.9338772271542
 30
0.0
  0
VERTEX
  5
623
330
60E
100
AcDbEntity
  8
Make2D$可见线$普通线
100
AcDbVertex
100
AcDb2dVertex
 10
1160.413013559594
 20
519.9338774536516
 30
0.0
  0
VERTEX
  5
624
330
60E
100
AcDbEntity
  8
Make2D$可见线$普通线
100
AcDbVertex
100
AcDb2dVertex
 10
1160.413013082583
 20
519.9338777741016
 30
0.0
  0
VERTEX
  5
625
330
60E
100
AcDbEntity
  8
Make2D$可见线$普通线
100
AcDbVertex
100
AcDb2dVertex
 10
1160.413012505818
 20
519.9338781840304
 30
0.0
  0
VERTEX
  5
626
330
60E
100
AcDbEntity
  8
Make2D$可见线$普通线
100
AcDbVertex
100
AcDb2dVertex
 10
1160.413010226873
 20
519.933879905949
 30
0.0
  0
VERTEX
  5
627
330
60E
100
AcDbEntity
  8
Make2D$可见线$普通线
100
AcDbVertex
100
AcDb2dVertex
 10
1160.206134525421
 20
520.100302629467
 30
0.0
  0
VERTEX
  5
628
330
60E
100
AcDbEntity
  8
Make2D$可见线$普通线
100
AcDbVertex
100
AcDb2dVertex
 10
1159.994903401101
 20
520.26118475152
 30
0.0
  0
VERTEX
  5
629
330
60E
100
AcDbEntity
  8
Make2D$可见线$普通线
100
AcDbVertex
100
AcDb2dVertex
 10
1159.779844253521
 20
520.4161411173219
 30
0.0
  0
VERTEX
  5
62A
330
60E
100
AcDbEntity
  8
Make2D$可见线$普通线
100
AcDbVertex
100
AcDb2dVertex
 10
1159.560746449079
 20
520.5653487842574
 30
0.0
  0
VERTEX
  5
62B
330
60E
100
AcDbEntity
  8
Make2D$可见线$普通线
100
AcDbVertex
100
AcDb2dVertex
 10
1159.337967827605
 20
520.7085733694747
 30
0.0
  0
VERTEX
  5
62C
330
60E
100
AcDbEntity
  8
Make2D$可见线$普通线
100
AcDbVertex
100
AcDb2dVertex
 10
1159.111394307477
 20
520.8458951811599
 30
0.0
  0
VERTEX
  5
62D
330
60E
100
AcDbEntity
  8
Make2D$可见线$普通线
100
AcDbVertex
100
AcDb2dVertex
 10
1158.88126244639
 20
520.9771665279967
 30
0.0
  0
VERTEX
  5
62E
330
60E
100
AcDbEntity
  8
Make2D$可见线$普通线
100
AcDbVertex
100
AcDb2dVertex
 10
1158.647816291133
 20
521.1022524528336
 30
0.0
  0
VERTEX
  5
62F
330
60E
100
AcDbEntity
  8
Make2D$可见线$普通线
100
AcDbVertex
100
AcDb2dVertex
 10
1158.410805495607
 20
521.2212747752794
 30
0.0
  0
VERTEX
  5
630
330
60E
100
AcDbEntity
  8
Make2D$可见线$普通线
100
AcDbVertex
100
AcDb2dVertex
 10
1158.170635676045
 20
521.3340107336162
 30
0.0
  0
VERTEX
  5
631
330
60E
100
AcDbEntity
  8
Make2D$可见线$普通线
100
AcDbVertex
100
AcDb2dVertex
 10
1157.92755781252
 20
521.4403403650454
 30
0.0
  0
VERTEX
  5
632
330
60E
100
AcDbEntity
  8
Make2D$可见线$普通线
100
AcDbVertex
100
AcDb2dVertex
 10
1157.681829022869
 20
521.5401572280643
 30
0.0
  0
VERTEX
  5
633
330
60E
100
AcDbEntity
  8
Make2D$可见线$普通线
100
AcDbVertex
100
AcDb2dVertex
 10
1157.681726618529
 20
521.5402222534417
 30
0.0
  0
VERTEX
  5
634
330
60E
100
AcDbEntity
  8
Make2D$可见线$普通线
100
AcDbVertex
100
AcDb2dVertex
 10
1157.681711294389
 20
521.5402325864786
 30
0.0
  0
VERTEX
  5
635
330
60E
100
AcDbEntity
  8
Make2D$可见线$普通线
100
AcDbVertex
100
AcDb2dVertex
 10
1157.681708495058
 20
521.5402346220637
 30
0.0
  0
VERTEX
  5
636
330
60E
100
AcDbEntity
  8
Make2D$可见线$普通线
100
AcDbVertex
100
AcDb2dVertex
 10
1157.681707493925
 20
521.5402353964172
 30
0.0
  0
VERTEX
  5
637
330
60E
100
AcDbEntity
  8
Make2D$可见线$普通线
100
AcDbVertex
100
AcDb2dVertex
 10
1157.681706748303
 20
521.5402360146122
 30
0.0
  0
VERTEX
  5
638
330
60E
100
AcDbEntity
  8
Make2D$可见线$普通线
100
AcDbVertex
100
AcDb2dVertex
 10
1157.681706250557
 20
521.5402364812498
 30
0.0
  0
VERTEX
  5
639
330
60E
100
AcDbEntity
  8
Make2D$可见线$普通线
100
AcDbVertex
100
AcDb2dVertex
 10
1157.681705993055
 20
521.5402368009304
 30
0.0
  0
VERTEX
  5
63A
330
60E
100
AcDbEntity
  8
Make2D$可见线$普通线
100
AcDbVertex
100
AcDb2dVertex
 10
1157.681706168244
 20
521.5402370178242
 30
0.0
  0
VERTEX
  5
63B
330
60E
100
AcDbEntity
  8
Make2D$可见线$普通线
100
AcDbVertex
100
AcDb2dVertex
 10
1157.681706585668
 20
521.5402369242388
 30
0.0
  0
VERTEX
  5
63C
330
60E
100
AcDbEntity
  8
Make2D$可见线$普通线
100
AcDbVertex
100
AcDb2dVertex
 10
1157.6817072128
 20
521.5402367020996
 30
0.0
  0
VERTEX
  5
63D
330
60E
100
AcDbEntity
  8
Make2D$可见线$普通线
100
AcDbVertex
100
AcDb2dVertex
 10
1157.681708042007
 20
521.5402363560074
 30
0.0
  0
VERTEX
  5
63E
330
60E
100
AcDbEntity
  8
Make2D$可见线$普通线
100
AcDbVertex
100
AcDb2dVertex
 10
1157.681709065655
 20
521.540235890563
 30
0.0
  0
VERTEX
  5
63F
330
60E
100
AcDbEntity
  8
Make2D$可见线$普通线
100
AcDbVertex
100
AcDb2dVertex
 10
1157.681711665738
 20
521.5402346200206
 30
0.0
  0
VERTEX
  5
640
330
60E
100
AcDbEntity
  8
Make2D$可见线$普通线
100
AcDbVertex
100
AcDb2dVertex
 10
1157.681718863315
 20
521.5402308491427
 30
0.0
  0
VERTEX
  5
641
330
60E
100
AcDbEntity
  8
Make2D$可见线$普通线
100
AcDbVertex
100
AcDb2dVertex
 10
1157.681792327108
 20
521.5401892482513
 30
0.0
  0
VERTEX
  5
642
330
60E
100
AcDbEntity
  8
Make2D$可见线$普通线
100
AcDbVertex
100
AcDb2dVertex
 10
1157.681901201591
 20
521.5401254693637
 30
0.0
  0
VERTEX
  5
643
330
60E
100
AcDbEntity
  8
Make2D$可见线$普通线
100
AcDbVertex
100
AcDb2dVertex
 10
1157.681930186191
 20
521.5401076150536
 30
0.0
  0
VERTEX
  5
644
330
60E
100
AcDbEntity
  8
Make2D$可见线$普通线
100
AcDbVertex
100
AcDb2dVertex
 10
1157.681939487491
 20
521.5401015503261
 30
0.0
  0
VERTEX
  5
645
330
60E
100
AcDbEntity
  8
Make2D$可见线$普通线
100
AcDbVertex
100
AcDb2dVertex
 10
1157.681942986911
 20
521.5400991527748
 30
0.0
  0
VERTEX
  5
646
330
60E
100
AcDbEntity
  8
Make2D$可见线$普通线
100
AcDbVertex
100
AcDb2dVertex
 10
1157.681945774662
 20
521.5400971476528
 30
0.0
  0
VERTEX
  5
647
330
60E
100
AcDbEntity
  8
Make2D$可见线$普通线
100
AcDbVertex
100
AcDb2dVertex
 10
1157.681946914743
 20
521.540096285039
 30
0.0
  0
VERTEX
  5
648
330
60E
100
AcDbEntity
  8
Make2D$可见线$普通线
100
AcDbVertex
100
AcDb2dVertex
 10
1157.681947892606
 20
521.5400955118761
 30
0.0
  0
VERTEX
  5
649
330
60E
100
AcDbEntity
  8
Make2D$可见线$普通线
100
AcDbVertex
100
AcDb2dVertex
 10
1157.681948713483
 20
521.5400948252785
 30
0.0
  0
VERTEX
  5
64A
330
60E
100
AcDbEntity
  8
Make2D$可见线$普通线
100
AcDbVertex
100
AcDb2dVertex
 10
1157.681949382607
 20
521.5400942223606
 30
0.0
  0
VERTEX
  5
64B
330
60E
100
AcDbEntity
  8
Make2D$可见线$普通线
100
AcDbVertex
100
AcDb2dVertex
 10
1157.681949905211
 20
521.540093700237
 30
0.0
  0
VERTEX
  5
64C
330
60E
100
AcDbEntity
  8
Make2D$可见线$普通线
100
AcDbVertex
100
AcDb2dVertex
 10
1157.681950286527
 20
521.5400932560221
 30
0.0
  0
VERTEX
  5
64D
330
60E
100
AcDbEntity
  8
Make2D$可见线$普通线
100
AcDbVertex
100
AcDb2dVertex
 10
1157.681950646229
 20
521.5400925897766
 30
0.0
  0
VERTEX
  5
64E
330
60E
100
AcDbEntity
  8
Make2D$可见线$普通线
100
AcDbVertex
100
AcDb2dVertex
 10
1157.681949900431
 20
521.5400920652276
 30
0.0
  0
VERTEX
  5
64F
330
60E
100
AcDbEntity
  8
Make2D$可见线$普通线
100
AcDbVertex
100
AcDb2dVertex
 10
1157.681949439256
 20
521.5400920855793
 30
0.0
  0
VERTEX
  5
650
330
60E
100
AcDbEntity
  8
Make2D$可见线$普通线
100
AcDbVertex
100
AcDb2dVertex
 10
1157.681948878656
 20
521.5400921607558
 30
0.0
  0
VERTEX
  5
651
330
60E
100
AcDbEntity
  8
Make2D$可见线$普通线
100
AcDbVertex
100
AcDb2dVertex
 10
1157.681948223866
 20
521.5400922878713
 30
0.0
  0
VERTEX
  5
652
330
60E
100
AcDbEntity
  8
Make2D$可见线$普通线
100
AcDbVertex
100
AcDb2dVertex
 10
1157.681947480116
 20
521.5400924640403
 30
0.0
  0
VERTEX
  5
653
330
60E
100
AcDbEntity
  8
Make2D$可见线$普通线
100
AcDbVertex
100
AcDb2dVertex
 10
1157.68194665264
 20
521.5400926863773
 30
0.0
  0
VERTEX
  5
654
330
60E
100
AcDbEntity
  8
Make2D$可见线$普通线
100
AcDbVertex
100
AcDb2dVertex
 10
1157.681945746672
 20
521.5400929519969
 30
0.0
  0
VERTEX
  5
655
330
60E
100
AcDbEntity
  8
Make2D$可见线$普通线
100
AcDbVertex
100
AcDb2dVertex
 10
1157.681943720188
 20
521.5400936015419
 30
0.0
  0
VERTEX
  5
656
330
60E
100
AcDbEntity
  8
Make2D$可见线$普通线
100
AcDbVertex
100
AcDb2dVertex
 10
1157.681938955549
 20
521.540095293059
 30
0.0
  0
VERTEX
  5
657
330
60E
100
AcDbEntity
  8
Make2D$可见线$普通线
100
AcDbVertex
100
AcDb2dVertex
 10
1157.433397758431
 20
521.6334384936363
 30
0.0
  0
VERTEX
  5
658
330
60E
100
AcDbEntity
  8
Make2D$可见线$普通线
100
AcDbVertex
100
AcDb2dVertex
 10
1157.182436759549
 20
521.7201662191358
 30
0.0
  0
VERTEX
  5
659
330
60E
100
AcDbEntity
  8
Make2D$可见线$普通线
100
AcDbVertex
100
AcDb2dVertex
 10
1156.929694474542
 20
521.8000663585717
 30
0.0
  0
VERTEX
  5
65A
330
60E
100
AcDbEntity
  8
Make2D$可见线$普通线
100
AcDbVertex
100
AcDb2dVertex
 10
1156.674915394859
 20
521.8732432568347
 30
0.0
  0
VERTEX
  5
65B
330
60E
100
AcDbEntity
  8
Make2D$可见线$普通线
100
AcDbVertex
100
AcDb2dVertex
 10
1156.418511970838
 20
521.9395858533937
 30
0.0
  0
VERTEX
  5
65C
330
60E
100
AcDbEntity
  8
Make2D$可见线$普通线
100
AcDbVertex
100
AcDb2dVertex
 10
1156.160350737679
 20
521.9991348014518
 30
0.0
  0
VERTEX
  5
65D
330
60E
100
AcDbEntity
  8
Make2D$可见线$普通线
100
AcDbVertex
100
AcDb2dVertex
 10
1155.900702579478
 20
522.0518238274774
 30
0.0
  0
VERTEX
  5
65E
330
60E
100
AcDbEntity
  8
Make2D$可见线$普通线
100
AcDbVertex
100
AcDb2dVertex
 10
1155.63984150975
 20
522.0976010955103
 30
0.0
  0
VERTEX
  5
65F
330
60E
100
AcDbEntity
  8
Make2D$可见线$普通线
100
AcDbVertex
100
AcDb2dVertex
 10
1155.377491620817
 20
522.1365037971445
 30
0.0
  0
VERTEX
  5
660
330
60E
100
AcDbEntity
  8
Make2D$可见线$普通线
100
AcDbVertex
100
AcDb2dVertex
 10
1155.114108793813
 20
522.1684459477968
 30
0.0
  0
VERTEX
  5
661
330
60E
100
AcDbEntity
  8
Make2D$可见线$普通线
100
AcDbVertex
100
AcDb2dVertex
 10
1154.849969858999
 20
522.1933906399958
 30
0.0
  0
VERTEX
  5
662
330
60E
100
AcDbEntity
  8
Make2D$可见线$普通线
100
AcDbVertex
100
AcDb2dVertex
 10
1154.585353242463
 20
522.2113157350077
 30
0.0
  0
VERTEX
  5
663
330
60E
100
AcDbEntity
  8
Make2D$可见线$普通线
100
AcDbVertex
100
AcDb2dVertex
 10
1069.862767524831
 20
526.8220776161829
 30
0.0
 42
0.35807801327592
  0
VERTEX
  5
664
330
60E
100
AcDbEntity
  8
Make2D$可见线$普通线
100
AcDbVertex
100
AcDb2dVertex
 10
1068.839546519675
 20
526.0707649808112
 30
0.0
  0
VERTEX
  5
665
330
60E
100
AcDbEntity
  8
Make2D$可见线$普通线
100
AcDbVertex
100
AcDb2dVertex
 10
1068.565809128568
 20
524.9976265385199
 30
0.0
 42
-0.2933320088844732
  0
VERTEX
  5
666
330
60E
100
AcDbEntity
  8
Make2D$可见线$普通线
100
AcDbVertex
100
AcDb2dVertex
 10
1068.170719689711
 20
524.6292714392329
 30
0.0
  0
VERTEX
  5
667
330
60E
100
AcDbEntity
  8
Make2D$可见线$普通线
100
AcDbVertex
100
AcDb2dVertex
 10
1068.167974428964
 20
524.6287859960064
 30
0.0
  0
VERTEX
  5
668
330
60E
100
AcDbEntity
  8
Make2D$可见线$普通线
100
AcDbVertex
100
AcDb2dVertex
 10
1068.126765884308
 20
524.6214066114042
 30
0.0
  0
SEQEND
  5
669
330
60E
100
AcDbEntity
  8
Make2D$可见线$普通线
  0
POLYLINE
  5
66A
330
1F
100
AcDbEntity
  8
Make2D$可见线$普通线
100
AcDb2dPolyline
 66
     1
 10
0.0
 20
0.0
 30
0.0
  0
VERTEX
  5
66B
330
66A
100
AcDbEntity
  8
Make2D$可见线$普通线
100
AcDbVertex
100
AcDb2dVertex
 10
1066.467235999595
 20
524.7051146165237
 30
0.0
 42
-0.3437108605486419
  0
VERTEX
  5
66C
330
66A
100
AcDbEntity
  8
Make2D$可见线$普通线
100
AcDbVertex
100
AcDb2dVertex
 10
1065.661580220749
 20
523.7762466064936
 30
0.0
  0
VERTEX
  5
66D
330
66A
100
AcDbEntity
  8
Make2D$可见线$普通线
100
AcDbVertex
100
AcDb2dVertex
 10
1065.59782937682
 20
523.7658350166716
 30
0.0
  0
VERTEX
  5
66E
330
66A
100
AcDbEntity
  8
Make2D$可见线$普通线
100
AcDbVertex
100
AcDb2dVertex
 10
1065.535819850891
 20
523.7597120302889
 30
0.0
  0
VERTEX
  5
66F
330
66A
100
AcDbEntity
  8
Make2D$可见线$普通线
100
AcDbVertex
100
AcDb2dVertex
 10
1065.45249810742
 20
523.75747108252
 30
0.0
  0
VERTEX
  5
670
330
66A
100
AcDbEntity
  8
Make2D$可见线$普通线
100
AcDbVertex
100
AcDb2dVertex
 10
1065.416270250524
 20
523.758821051537
 30
0.0
  0
VERTEX
  5
671
330
66A
100
AcDbEntity
  8
Make2D$可见线$普通线
100
AcDbVertex
100
AcDb2dVertex
 10
1053.432715446358
 20
524.38685254674
 30
0.0
 42
-0.4142133731447855
  0
VERTEX
  5
672
330
66A
100
AcDbEntity
  8
Make2D$可见线$普通线
100
AcDbVertex
100
AcDb2dVertex
 10
1052.486421609773
 20
525.4378180512625
 30
0.0
  0
SEQEND
  5
673
330
66A
100
AcDbEntity
  8
Make2D$可见线$普通线
  0
POLYLINE
  5
674
330
1F
100
AcDbEntity
  8
Make2D$可见线$普通线
100
AcDb2dPolyline
 66
     1
 10
0.0
 20
0.0
 30
0.0
  0
VERTEX
  5
675
330
674
100
AcDbEntity
  8
Make2D$可见线$普通线
100
AcDbVertex
100
AcDb2dVertex
 10
1068.150578054817
 20
524.6260295718686
 30
0.0
  0
VERTEX
  5
676
330
674
100
AcDbEntity
  8
Make2D$可见线$普通线
100
AcDbVertex
100
AcDb2dVertex
 10
1068.112897069308
 20
524.6222116051127
 30
0.0
  0
VERTEX
  5
677
330
674
100
AcDbEntity
  8
Make2D$可见线$普通线
100
AcDbVertex
100
AcDb2dVertex
 10
1068.093265023499
 20
524.6210412266292
 30
0.0
  0
VERTEX
  5
678
330
674
100
AcDbEntity
  8
Make2D$可见线$普通线
100
AcDbVertex
100
AcDb2dVertex
 10
1068.05522285227
 20
524.6218930893299
 30
0.0
  0
VERTEX
  5
679
330
674
100
AcDbEntity
  8
Make2D$可见线$普通线
100
AcDbVertex
100
AcDb2dVertex
 10
1067.453135572587
 20
524.6534458093071
 30
0.0
  0
VERTEX
  5
67A
330
674
100
AcDbEntity
  8
Make2D$可见线$普通线
100
AcDbVertex
100
AcDb2dVertex
 10
1051.500522036737
 20
525.4894868584815
 30
0.0
  0
VERTEX
  5
67B
330
674
100
AcDbEntity
  8
Make2D$可见线$普通线
100
AcDbVertex
100
AcDb2dVertex
 10
1050.898786371278
 20
525.5210224884236
 30
0.0
 42
-0.3576707182803055
  0
VERTEX
  5
67C
330
674
100
AcDbEntity
  8
Make2D$可见线$普通线
100
AcDbVertex
100
AcDb2dVertex
 10
1050.429920505675
 20
525.9480881865503
 30
0.0
  0
VERTEX
  5
67D
330
674
100
AcDbEntity
  8
Make2D$可见线$普通线
100
AcDbVertex
100
AcDb2dVertex
 10
1050.263769037236
 20
527.0856366203257
 30
0.0
 42
0.3569437804627583
  0
VERTEX
  5
67E
330
674
100
AcDbEntity
  8
Make2D$可见线$普通线
100
AcDbVertex
100
AcDb2dVertex
 10
1049.328630729921
 20
527.9396173875912
 30
0.0
  0
VERTEX
  5
67F
330
674
100
AcDbEntity
  8
Make2D$可见线$普通线
100
AcDbVertex
100
AcDb2dVertex
 10
1028.581500717178
 20
529.0687254033452
 30
0.0
  0
VERTEX
  5
680
330
674
100
AcDbEntity
  8
Make2D$可见线$普通线
100
AcDbVertex
100
AcDb2dVertex
 10
1028.912179137978
 20
531.7141527698705
 30
0.0
 42
-0.3828579010597753
  0
VERTEX
  5
681
330
674
100
AcDbEntity
  8
Make2D$可见线$普通线
100
AcDbVertex
100
AcDb2dVertex
 10
1044.038251309453
 20
544.8516810390141
 30
0.0
  0
VERTEX
  5
682
330
674
100
AcDbEntity
  8
Make2D$可见线$普通线
100
AcDbVertex
100
AcDb2dVertex
 10
1179.975230215064
 20
542.6591491212066
 30
0.0
  0
SEQEND
  5
683
330
674
100
AcDbEntity
  8
Make2D$可见线$普通线
  0
ENDSEC
  0
SECTION
  2
OBJECTS
  0
DICTIONARY
  5
C
330
0
100
AcDbDictionary
281
     1
  3
ACAD_GROUP
350
D
  3
ACAD_LAYOUT
350
1A
  3
ACAD_MATERIAL
350
3B
  3
ACAD_MLEADERSTYLE
350
6AE
  3
ACAD_MLINESTYLE
350
17
  3
ACAD_PLOTSETTINGS
350
19
  3
ACAD_PLOTSTYLENAME
350
E
  3
ACAD_SCALELIST
350
3F
  3
ACAD_TABLESTYLE
350
6AD
  3
ACAD_VISUALSTYLE
350
2A
  3
AcDbVariableDictionary
350
684
  0
DICTIONARY
  5
D
102
{ACAD_REACTORS
330
C
102
}
330
C
100
AcDbDictionary
281
     1
  0
DICTIONARY
  5
1A
102
{ACAD_REACTORS
330
C
102
}
330
C
100
AcDbDictionary
281
     1
  3
Layout1
350
1E
  3
Layout2
350
26
  3
Model
350
22
  0
DICTIONARY
  5
3B
102
{ACAD_REACTORS
330
C
102
}
330
C
100
AcDbDictionary
281
     1
  3
ByBlock
350
3D
  3
ByLayer
350
3C
  3
Global
350
3E
  0
DICTIONARY
  5
6AE
102
{ACAD_REACTORS
330
C
102
}
330
C
100
AcDbDictionary
281
     1
  0
DICTIONARY
  5
17
102
{ACAD_REACTORS
330
C
102
}
330
C
100
AcDbDictionary
281
     1
  3
Standard
350
18
  0
DICTIONARY
  5
19
102
{ACAD_REACTORS
330
C
102
}
330
C
100
AcDbDictionary
281
     1
  0
ACDBDICTIONARYWDFLT
  5
E
102
{ACAD_REACTORS
330
C
102
}
330
C
100
AcDbDictionary
281
     1
  3
Normal
350
F
100
AcDbDictionaryWithDefault
340
F
  0
DICTIONARY
  5
3F
102
{ACAD_REACTORS
330
C
102
}
330
C
100
AcDbDictionary
281
     1
  3
A0
350
40
  3
A1
350
41
  3
A2
350
42
  3
A3
350
43
  3
A4
350
44
  3
A5
350
45
  3
A6
350
46
  3
A7
350
47
  3
A8
350
48
  3
A9
350
49
  3
B0
350
4A
  3
B1
350
4B
  3
B2
350
4C
  3
B3
350
4D
  3
B4
350
4E
  3
B5
350
4F
  3
B6
350
50
  3
B7
350
51
  3
B8
350
52
  3
B9
350
53
  3
C0
350
54
  3
C1
350
55
  3
C2
350
56
  3
C3
350
57
  3
C4
350
58
  3
C5
350
59
  3
C6
350
5A
  3
C7
350
5B
  3
C8
350
5C
  3
C9
350
5D
  3
D0
350
5E
  3
D1
350
5F
  3
D2
350
60
  0
DICTIONARY
  5
6AD
102
{ACAD_REACTORS
330
C
102
}
330
C
100
AcDbDictionary
281
     1
  0
DICTIONARY
  5
2A
102
{ACAD_REACTORS
330
C
102
}
330
C
100
AcDbDictionary
281
     1
  3
2dWireframe
350
2F
  3
3D Hidden
350
31
  3
3dWireframe
350
30
  3
Basic
350
32
  3
Brighten
350
36
  3
ColorChange
350
3A
  3
Conceptual
350
34
  3
Dim
350
35
  3
Facepattern
350
39
  3
Flat
350
2B
  3
FlatWithEdges
350
2C
  3
Gouraud
350
2D
  3
GouraudWithEdges
350
2E
  3
Linepattern
350
38
  3
Realistic
350
33
  3
Thicken
350
37
  0
DICTIONARY
  5
684
102
{ACAD_REACTORS
330
C
102
}
330
C
100
AcDbDictionary
281
     1
  3
CANNOSCALE
350
685
  3
MSLTSCALE
350
686
  0
LAYOUT
  5
1E
102
{ACAD_REACTORS
330
1A
102
}
330
1A
100
AcDbPlotSettings
  1

  2
none_device
  4

  6

 40
0.0
 41
0.0
 42
0.0
 43
0.0
 44
0.0
 45
0.0
 46
0.0
 47
0.0
 48
0.0
 49
0.0
140
0.0
141
0.0
142
1.0
143
1.0
 70
   688
 72
     0
 73
     0
 74
     5
  7

 75
    16
 76
     0
 77
     2
 78
   300
147
1.0
148
0.0
149
0.0
100
AcDbLayout
  1
Layout1
 70
     1
 71
     1
 10
0.0
 20
0.0
 11
12.0
 21
9.0
 12
0.0
 22
0.0
 32
0.0
 14
1.000000000000000E+20
 24
1.000000000000000E+20
 34
1.000000000000000E+20
 15
-1.000000000000000E+20
 25
-1.000000000000000E+20
 35
-1.000000000000000E+20
146
0.0
 13
0.0
 23
0.0
 33
0.0
 16
1.0
 26
0.0
 36
0.0
 17
0.0
 27
1.0
 37
0.0
 76
     0
330
1B
  0
LAYOUT
  5
26
102
{ACAD_REACTORS
330
1A
102
}
330
1A
100
AcDbPlotSettings
  1

  2
none_device
  4

  6

 40
0.0
 41
0.0
 42
0.0
 43
0.0
 44
0.0
 45
0.0
 46
0.0
 47
0.0
 48
0.0
 49
0.0
140
0.0
141
0.0
142
1.0
143
1.0
 70
   688
 72
     0
 73
     0
 74
     5
  7

 75
    16
 76
     0
 77
     2
 78
   300
147
1.0
148
0.0
149
0.0
100
AcDbLayout
  1
Layout2
 70
     1
 71
     2
 10
0.0
 20
0.0
 11
0.0
 21
0.0
 12
0.0
 22
0.0
 32
0.0
 14
0.0
 24
0.0
 34
0.0
 15
0.0
 25
0.0
 35
0.0
146
0.0
 13
0.0
 23
0.0
 33
0.0
 16
1.0
 26
0.0
 36
0.0
 17
0.0
 27
1.0
 37
0.0
 76
     0
330
23
  0
LAYOUT
  5
22
102
{ACAD_REACTORS
330
1A
102
}
330
1A
100
AcDbPlotSettings
  1

  2
none_device
  4
Letter_(8.50_x_11.00_Inches)
  6

 40
6.35
 41
6.35
 42
6.35000508
 43
6.35000508
 44
215.9
 45
279.4
 46
0.0
 47
0.0
 48
0.0
 49
0.0
140
0.0
141
0.0
142
1.0
143
1.0
 70
  1712
 72
     0
 73
     0
 74
     0
  7

 75
     0
 76
     0
 77
     2
 78
   300
147
1.0
148
0.0
149
0.0
100
AcDbLayout
  1
Model
 70
     1
 71
     0
 10
0.0
 20
0.0
 11
12.0
 21
9.0
 12
0.0
 22
0.0
 32
0.0
 14
1028.581500717178
 24
479.3895165239196
 34
0.0
 15
1295.499998514003
 25
550.5810950877473
 35
0.0
146
0.0
 13
0.0
 23
0.0
 33
0.0
 16
1.0
 26
0.0
 36
0.0
 17
0.0
 27
1.0
 37
0.0
 76
     0
330
1F
331
29
  0
MATERIAL
  5
3D
102
{ACAD_REACTORS
330
3B
102
}
102
{ACAD_XDICTIONARY
360
6A9
102
}
330
3B
100
AcDbMaterial
  1
ByBlock
  0
MATERIAL
  5
3C
102
{ACAD_REACTORS
330
3B
102
}
102
{ACAD_XDICTIONARY
360
6A7
102
}
330
3B
100
AcDbMaterial
  1
ByLayer
  0
MATERIAL
  5
3E
102
{ACAD_REACTORS
330
3B
102
}
102
{ACAD_XDICTIONARY
360
6AB
102
}
330
3B
100
AcDbMaterial
  1
Global
  0
MLINESTYLE
  5
18
102
{ACAD_REACTORS
330
17
102
}
330
17
100
AcDbMlineStyle
  2
Standard
 70
     0
  3

 62
   256
 51
90.0
 52
90.0
 71
     2
 49
0.5
 62
   256
  6
BYLAYER
 49
-0.5
 62
   256
  6
BYLAYER
  0
ACDBPLACEHOLDER
  5
F
102
{ACAD_REACTORS
330
E
102
}
330
E
  0
SCALE
  5
40
102
{ACAD_REACTORS
330
3F
102
}
330
3F
100
AcDbScale
 70
     0
300
1:1
140
1.0
141
1.0
290
     1
  0
SCALE
  5
41
102
{ACAD_REACTORS
330
3F
102
}
330
3F
100
AcDbScale
 70
     0
300
1:2
140
1.0
141
2.0
290
     0
  0
SCALE
  5
42
102
{ACAD_REACTORS
330
3F
102
}
330
3F
100
AcDbScale
 70
     0
300
1:4
140
1.0
141
4.0
290
     0
  0
SCALE
  5
43
102
{ACAD_REACTORS
330
3F
102
}
330
3F
100
AcDbScale
 70
     0
300
1:5
140
1.0
141
5.0
290
     0
  0
SCALE
  5
44
102
{ACAD_REACTORS
330
3F
102
}
330
3F
100
AcDbScale
 70
     0
300
1:8
140
1.0
141
8.0
290
     0
  0
SCALE
  5
45
102
{ACAD_REACTORS
330
3F
102
}
330
3F
100
AcDbScale
 70
     0
300
1:10
140
1.0
141
10.0
290
     0
  0
SCALE
  5
46
102
{ACAD_REACTORS
330
3F
102
}
330
3F
100
AcDbScale
 70
     0
300
1:16
140
1.0
141
16.0
290
     0
  0
SCALE
  5
47
102
{ACAD_REACTORS
330
3F
102
}
330
3F
100
AcDbScale
 70
     0
300
1:20
140
1.0
141
20.0
290
     0
  0
SCALE
  5
48
102
{ACAD_REACTORS
330
3F
102
}
330
3F
100
AcDbScale
 70
     0
300
1:30
140
1.0
141
30.0
290
     0
  0
SCALE
  5
49
102
{ACAD_REACTORS
330
3F
102
}
330
3F
100
AcDbScale
 70
     0
300
1:40
140
1.0
141
40.0
290
     0
  0
SCALE
  5
4A
102
{ACAD_REACTORS
330
3F
102
}
330
3F
100
AcDbScale
 70
     0
300
1:50
140
1.0
141
50.0
290
     0
  0
SCALE
  5
4B
102
{ACAD_REACTORS
330
3F
102
}
330
3F
100
AcDbScale
 70
     0
300
1:100
140
1.0
141
100.0
290
     0
  0
SCALE
  5
4C
102
{ACAD_REACTORS
330
3F
102
}
330
3F
100
AcDbScale
 70
     0
300
2:1
140
2.0
141
1.0
290
     0
  0
SCALE
  5
4D
102
{ACAD_REACTORS
330
3F
102
}
330
3F
100
AcDbScale
 70
     0
300
4:1
140
4.0
141
1.0
290
     0
  0
SCALE
  5
4E
102
{ACAD_REACTORS
330
3F
102
}
330
3F
100
AcDbScale
 70
     0
300
8:1
140
8.0
141
1.0
290
     0
  0
SCALE
  5
4F
102
{ACAD_REACTORS
330
3F
102
}
330
3F
100
AcDbScale
 70
     0
300
10:1
140
10.0
141
1.0
290
     0
  0
SCALE
  5
50
102
{ACAD_REACTORS
330
3F
102
}
330
3F
100
AcDbScale
 70
     0
300
100:1
140
100.0
141
1.0
290
     0
  0
SCALE
  5
51
102
{ACAD_REACTORS
330
3F
102
}
330
3F
100
AcDbScale
 70
     0
300
1/128" = 1'-0"
140
0.0078125
141
12.0
290
     0
  0
SCALE
  5
52
102
{ACAD_REACTORS
330
3F
102
}
330
3F
100
AcDbScale
 70
     0
300
1/64" = 1'-0"
140
0.015625
141
12.0
290
     0
  0
SCALE
  5
53
102
{ACAD_REACTORS
330
3F
102
}
330
3F
100
AcDbScale
 70
     0
300
1/32" = 1'-0"
140
0.03125
141
12.0
290
     0
  0
SCALE
  5
54
102
{ACAD_REACTORS
330
3F
102
}
330
3F
100
AcDbScale
 70
     0
300
1/16" = 1'-0"
140
0.0625
141
12.0
290
     0
  0
SCALE
  5
55
102
{ACAD_REACTORS
330
3F
102
}
330
3F
100
AcDbScale
 70
     0
300
3/32" = 1'-0"
140
0.09375
141
12.0
290
     0
  0
SCALE
  5
56
102
{ACAD_REACTORS
330
3F
102
}
330
3F
100
AcDbScale
 70
     0
300
1/8" = 1'-0"
140
0.125
141
12.0
290
     0
  0
SCALE
  5
57
102
{ACAD_REACTORS
330
3F
102
}
330
3F
100
AcDbScale
 70
     0
300
3/16" = 1'-0"
140
0.1875
141
12.0
290
     0
  0
SCALE
  5
58
102
{ACAD_REACTORS
330
3F
102
}
330
3F
100
AcDbScale
 70
     0
300
1/4" = 1'-0"
140
0.25
141
12.0
290
     0
  0
SCALE
  5
59
102
{ACAD_REACTORS
330
3F
102
}
330
3F
100
AcDbScale
 70
     0
300
3/8" = 1'-0"
140
0.375
141
12.0
290
     0
  0
SCALE
  5
5A
102
{ACAD_REACTORS
330
3F
102
}
330
3F
100
AcDbScale
 70
     0
300
1/2" = 1'-0"
140
0.5
141
12.0
290
     0
  0
SCALE
  5
5B
102
{ACAD_REACTORS
330
3F
102
}
330
3F
100
AcDbScale
 70
     0
300
3/4" = 1'-0"
140
0.75
141
12.0
290
     0
  0
SCALE
  5
5C
102
{ACAD_REACTORS
330
3F
102
}
330
3F
100
AcDbScale
 70
     0
300
1" = 1'-0"
140
1.0
141
12.0
290
     0
  0
SCALE
  5
5D
102
{ACAD_REACTORS
330
3F
102
}
330
3F
100
AcDbScale
 70
     0
300
1-1/2" = 1'-0"
140
1.5
141
12.0
290
     0
  0
SCALE
  5
5E
102
{ACAD_REACTORS
330
3F
102
}
330
3F
100
AcDbScale
 70
     0
300
3" = 1'-0"
140
3.0
141
12.0
290
     0
  0
SCALE
  5
5F
102
{ACAD_REACTORS
330
3F
102
}
330
3F
100
AcDbScale
 70
     0
300
6" = 1'-0"
140
6.0
141
12.0
290
     0
  0
SCALE
  5
60
102
{ACAD_REACTORS
330
3F
102
}
330
3F
100
AcDbScale
 70
     0
300
1'-0" = 1'-0"
140
12.0
141
12.0
290
     0
  0
VISUALSTYLE
  5
2F
102
{ACAD_REACTORS
330
2A
102
}
102
{ACAD_XDICTIONARY
360
68F
102
}
330
2A
100
AcDbVisualStyle
  2
2dWireframe
 70
     4
 71
     0
 72
     2
 73
     0
 90
        0
 40
0.6
 41
30.0
 62
     5
 63
     7
421
 16777215
 74
     1
 91
        4
 64
     7
 65
   257
 75
     1
175
     1
 42
1.0
 92
        0
 66
   257
 43
1.0
 76
     1
 77
     6
 78
     2
 67
     7
 79
     5
170
     0
171
     0
290
     0
174
     0
 93
        1
 44
0.0
173
     0
291
     0
 45
0.0
1001
ACAD
1000
AcDbSavedByObjectVersion
1070
     0
  0
VISUALSTYLE
  5
31
102
{ACAD_REACTORS
330
2A
102
}
102
{ACAD_XDICTIONARY
360
693
102
}
330
2A
100
AcDbVisualStyle
  2
3D Hidden
 70
     6
 71
     1
 72
     2
 73
     2
 90
        0
 40
0.6
 41
30.0
 62
     5
 63
     7
421
 16777215
 74
     2
 91
        2
 64
     7
 65
   257
 75
     2
175
     1
 42
40.0
 92
        0
 66
   257
 43
1.0
 76
     1
 77
     6
 78
     2
 67
     7
 79
     3
170
     0
171
     0
290
     0
174
     0
 93
        1
 44
0.0
173
     0
291
     0
 45
0.0
1001
ACAD
1000
AcDbSavedByObjectVersion
1070
     0
  0
VISUALSTYLE
  5
30
102
{ACAD_REACTORS
330
2A
102
}
102
{ACAD_XDICTIONARY
360
691
102
}
330
2A
100
AcDbVisualStyle
  2
3dWireframe
 70
     5
 71
     0
 72
     2
 73
     0
 90
        0
 40
0.6
 41
30.0
 62
     5
 63
     7
421
 16777215
 74
     1
 91
        4
 64
     7
 65
   257
 75
     1
175
     1
 42
1.0
 92
        0
 66
   257
 43
1.0
 76
     1
 77
     6
 78
     2
 67
     7
 79
     5
170
     0
171
     0
290
     0
174
     0
 93
        1
 44
0.0
173
     0
291
     0
 45
0.0
1001
ACAD
1000
AcDbSavedByObjectVersion
1070
     0
  0
VISUALSTYLE
  5
32
102
{ACAD_REACTORS
330
2A
102
}
102
{ACAD_XDICTIONARY
360
695
102
}
330
2A
100
AcDbVisualStyle
  2
Basic
 70
     7
 71
     1
 72
     0
 73
     1
 90
        0
 40
0.6
 41
30.0
 62
     5
 63
     7
421
 16777215
 74
     0
 91
        4
 64
     7
 65
   257
 75
     1
175
     1
 42
1.0
 92
        8
 66
     7
 43
1.0
 76
     1
 77
     6
 78
     2
 67
     7
 79
     5
170
     0
171
     0
290
     0
174
     0
 93
        1
 44
0.0
173
     0
291
     1
 45
0.0
1001
ACAD
1000
AcDbSavedByObjectVersion
1070
     0
  0
VISUALSTYLE
  5
36
102
{ACAD_REACTORS
330
2A
102
}
102
{ACAD_XDICTIONARY
360
69D
102
}
330
2A
100
AcDbVisualStyle
  2
Brighten
 70
    12
 71
     2
 72
     2
 73
     0
 90
        0
 40
0.6
 41
30.0
 62
     5
 63
     7
421
 16777215
 74
     1
 91
        4
 64
     7
 65
   257
 75
     1
175
     1
 42
1.0
 92
        8
 66
     7
 43
1.0
 76
     1
 77
     6
 78
     2
 67
     7
 79
     5
170
     0
171
     0
290
     0
174
     0
 93
        1
 44
50.0
173
     0
291
     1
 45
0.0
1001
ACAD
1000
AcDbSavedByObjectVersion
1070
     0
  0
VISUALSTYLE
  5
3A
102
{ACAD_REACTORS
330
2A
102
}
102
{ACAD_XDICTIONARY
360
6A5
102
}
330
2A
100
AcDbVisualStyle
  2
ColorChange
 70
    16
 71
     2
 72
     2
 73
     3
 90
        0
 40
0.6
 41
30.0
 62
     5
 63
     8
421
  8421504
 74
     1
 91
        4
 64
     7
 65
   257
 75
     1
175
     1
 42
1.0
 92
        8
 66
     8
424
  8421504
 43
1.0
 76
     1
 77
     6
 78
     2
 67
     7
 79
     5
170
     0
171
     0
290
     0
174
     0
 93
        1
 44
0.0
173
     0
291
     1
 45
0.0
1001
ACAD
1000
AcDbSavedByObjectVersion
1070
     0
  0
VISUALSTYLE
  5
34
102
{ACAD_REACTORS
330
2A
102
}
102
{ACAD_XDICTIONARY
360
699
102
}
330
2A
100
AcDbVisualStyle
  2
Conceptual
 70
     9
 71
     3
 72
     2
 73
     0
 90
        0
 40
0.6
 41
30.0
 62
     5
 63
     7
421
 16777215
 74
     2
 91
        2
 64
     7
 65
   257
 75
     1
175
     1
 42
40.0
 92
        8
 66
     7
 43
1.0
 76
     1
 77
     6
 78
     2
 67
     7
 79
     3
170
     0
171
     0
290
     0
174
     0
 93
        1
 44
0.0
173
     0
291
     0
 45
0.0
1001
ACAD
1000
AcDbSavedByObjectVersion
1070
     0
  0
VISUALSTYLE
  5
35
102
{ACAD_REACTORS
330
2A
102
}
102
{ACAD_XDICTIONARY
360
69B
102
}
330
2A
100
AcDbVisualStyle
  2
Dim
 70
    11
 71
     2
 72
     2
 73
     0
 90
        0
 40
0.6
 41
30.0
 62
     5
 63
     7
421
 16777215
 74
     1
 91
        4
 64
     7
 65
   257
 75
     1
175
     1
 42
1.0
 92
        8
 66
     7
 43
1.0
 76
     1
 77
     6
 78
     2
 67
     7
 79
     5
170
     0
171
     0
290
     0
174
     0
 93
        1
 44
-50.0
173
     0
291
     1
 45
0.0
1001
ACAD
1000
AcDbSavedByObjectVersion
1070
     0
  0
VISUALSTYLE
  5
39
102
{ACAD_REACTORS
330
2A
102
}
102
{ACAD_XDICTIONARY
360
6A3
102
}
330
2A
100
AcDbVisualStyle
  2
Facepattern
 70
    15
 71
     2
 72
     2
 73
     0
 90
        0
 40
0.6
 41
30.0
 62
     5
 63
     7
421
 16777215
 74
     1
 91
        4
 64
     7
 65
   257
 75
     1
175
     1
 42
1.0
 92
        8
 66
     7
 43
1.0
 76
     1
 77
     6
 78
     2
 67
     7
 79
     5
170
     0
171
     0
290
     0
174
     0
 93
        1
 44
0.0
173
     0
291
     1
 45
0.0
1001
ACAD
1000
AcDbSavedByObjectVersion
1070
     0
  0
VISUALSTYLE
  5
2B
102
{ACAD_REACTORS
330
2A
102
}
102
{ACAD_XDICTIONARY
360
687
102
}
330
2A
100
AcDbVisualStyle
  2
Flat
 70
     0
 71
     2
 72
     1
 73
     1
 90
        2
 40
0.6
 41
30.0
 62
     5
 63
     7
421
 16777215
 74
     0
 91
        4
 64
     7
 65
   257
 75
     1
175
     1
 42
1.0
 92
        8
 66
     7
 43
1.0
 76
     1
 77
     6
 78
     2
 67
     7
 79
     5
170
     0
171
     0
290
     0
174
     0
 93
       13
 44
0.0
173
     0
291
     1
 45
0.0
1001
ACAD
1000
AcDbSavedByObjectVersion
1070
     0
  0
VISUALSTYLE
  5
2C
102
{ACAD_REACTORS
330
2A
102
}
102
{ACAD_XDICTIONARY
360
689
102
}
330
2A
100
AcDbVisualStyle
  2
FlatWithEdges
 70
     1
 71
     2
 72
     1
 73
     1
 90
        2
 40
0.6
 41
30.0
 62
     5
 63
     7
421
 16777215
 74
     1
 91
        4
 64
     7
 65
   257
 75
     1
175
     1
 42
1.0
 92
        0
 66
   257
 43
1.0
 76
     1
 77
     6
 78
     2
 67
     7
 79
     5
170
     0
171
     0
290
     0
174
     0
 93
       13
 44
0.0
173
     0
291
     1
 45
0.0
1001
ACAD
1000
AcDbSavedByObjectVersion
1070
     0
  0
VISUALSTYLE
  5
2D
102
{ACAD_REACTORS
330
2A
102
}
102
{ACAD_XDICTIONARY
360
68B
102
}
330
2A
100
AcDbVisualStyle
  2
Gouraud
 70
     2
 71
     2
 72
     2
 73
     1
 90
        2
 40
0.6
 41
30.0
 62
     5
 63
     7
421
 16777215
 74
     0
 91
        4
 64
     7
 65
   257
 75
     1
175
     1
 42
1.0
 92
        0
 66
     7
 43
1.0
 76
     1
 77
     6
 78
     2
 67
     7
 79
     5
170
     0
171
     0
290
     0
174
     0
 93
       13
 44
0.0
173
     0
291
     1
 45
0.0
1001
ACAD
1000
AcDbSavedByObjectVersion
1070
     0
  0
VISUALSTYLE
  5
2E
102
{ACAD_REACTORS
330
2A
102
}
102
{ACAD_XDICTIONARY
360
68D
102
}
330
2A
100
AcDbVisualStyle
  2
GouraudWithEdges
 70
     3
 71
     2
 72
     2
 73
     1
 90
        2
 40
0.6
 41
30.0
 62
     5
 63
     7
421
 16777215
 74
     1
 91
        4
 64
     7
 65
   257
 75
     1
175
     1
 42
1.0
 92
        0
 66
   257
 43
1.0
 76
     1
 77
     6
 78
     2
 67
     7
 79
     5
170
     0
171
     0
290
     0
174
     0
 93
       13
 44
0.0
173
     0
291
     1
 45
0.0
1001
ACAD
1000
AcDbSavedByObjectVersion
1070
     0
  0
VISUALSTYLE
  5
38
102
{ACAD_REACTORS
330
2A
102
}
102
{ACAD_XDICTIONARY
360
6A1
102
}
330
2A
100
AcDbVisualStyle
  2
Linepattern
 70
    14
 71
     2
 72
     2
 73
     0
 90
        0
 40
0.6
 41
30.0
 62
     5
 63
     7
421
 16777215
 74
     1
 91
        4
 64
     7
 65
   257
 75
     7
175
     7
 42
1.0
 92
        8
 66
     7
 43
1.0
 76
     1
 77
     6
 78
     2
 67
     7
 79
     5
170
     0
171
     0
290
     0
174
     0
 93
        1
 44
0.0
173
     0
291
     1
 45
0.0
1001
ACAD
1000
AcDbSavedByObjectVersion
1070
     0
  0
VISUALSTYLE
  5
33
102
{ACAD_REACTORS
330
2A
102
}
102
{ACAD_XDICTIONARY
360
697
102
}
330
2A
100
AcDbVisualStyle
  2
Realistic
 70
     8
 71
     2
 72
     3
 73
     0
 90
        2
 40
0.6
 41
30.0
 62
     5
 63
     7
421
 16777215
 74
     0
 91
        0
 64
     7
 65
   257
 75
     1
175
     1
 42
1.0
 92
        8
 66
   257
 43
1.0
 76
     1
 77
     6
 78
     2
 67
     7
 79
     3
170
     0
171
     0
290
     0
174
     0
 93
       13
 44
0.0
173
     0
291
     0
 45
0.0
1001
ACAD
1000
AcDbSavedByObjectVersion
1070
     0
  0
VISUALSTYLE
  5
37
102
{ACAD_REACTORS
330
2A
102
}
102
{ACAD_XDICTIONARY
360
69F
102
}
330
2A
100
AcDbVisualStyle
  2
Thicken
 70
    13
 71
     2
 72
     2
 73
     0
 90
        0
 40
0.6
 41
30.0
 62
     5
 63
     7
421
 16777215
 74
     1
 91
        4
 64
     7
 65
   257
 75
     1
175
     1
 42
1.0
 92
       12
 66
     7
 43
1.0
 76
     1
 77
     6
 78
     2
 67
     7
 79
     5
170
     0
171
     0
290
     0
174
     0
 93
        1
 44
0.0
173
     0
291
     1
 45
0.0
1001
ACAD
1000
AcDbSavedByObjectVersion
1070
     0
  0
DICTIONARYVAR
  5
685
102
{ACAD_REACTORS
330
684
102
}
330
684
100
DictionaryVariables
280
     0
  1
1:1
  0
DICTIONARYVAR
  5
686
102
{ACAD_REACTORS
330
684
102
}
330
684
100
DictionaryVariables
280
     0
  1
1
  0
DICTIONARY
  5
6A9
330
3D
100
AcDbDictionary
280
     1
281
     1
  3
ACAD_XREC_ROUNDTRIP
360
6AA
  0
DICTIONARY
  5
6A7
330
3C
100
AcDbDictionary
280
     1
281
     1
  3
ACAD_XREC_ROUNDTRIP
360
6A8
  0
DICTIONARY
  5
6AB
330
3E
100
AcDbDictionary
280
     1
281
     1
  3
ACAD_XREC_ROUNDTRIP
360
6AC
  0
DICTIONARY
  5
68F
330
2F
100
AcDbDictionary
280
     1
281
     1
  3
ACAD_XREC_ROUNDTRIP
360
690
  0
DICTIONARY
  5
693
330
31
100
AcDbDictionary
280
     1
281
     1
  3
ACAD_XREC_ROUNDTRIP
360
694
  0
DICTIONARY
  5
691
330
30
100
AcDbDictionary
280
     1
281
     1
  3
ACAD_XREC_ROUNDTRIP
360
692
  0
DICTIONARY
  5
695
330
32
100
AcDbDictionary
280
     1
281
     1
  3
ACAD_XREC_ROUNDTRIP
360
696
  0
DICTIONARY
  5
69D
330
36
100
AcDbDictionary
280
     1
281
     1
  3
ACAD_XREC_ROUNDTRIP
360
69E
  0
DICTIONARY
  5
6A5
330
3A
100
AcDbDictionary
280
     1
281
     1
  3
ACAD_XREC_ROUNDTRIP
360
6A6
  0
DICTIONARY
  5
699
330
34
100
AcDbDictionary
280
     1
281
     1
  3
ACAD_XREC_ROUNDTRIP
360
69A
  0
DICTIONARY
  5
69B
330
35
100
AcDbDictionary
280
     1
281
     1
  3
ACAD_XREC_ROUNDTRIP
360
69C
  0
DICTIONARY
  5
6A3
330
39
100
AcDbDictionary
280
     1
281
     1
  3
ACAD_XREC_ROUNDTRIP
360
6A4
  0
DICTIONARY
  5
687
330
2B
100
AcDbDictionary
280
     1
281
     1
  3
ACAD_XREC_ROUNDTRIP
360
688
  0
DICTIONARY
  5
689
330
2C
100
AcDbDictionary
280
     1
281
     1
  3
ACAD_XREC_ROUNDTRIP
360
68A
  0
DICTIONARY
  5
68B
330
2D
100
AcDbDictionary
280
     1
281
     1
  3
ACAD_XREC_ROUNDTRIP
360
68C
  0
DICTIONARY
  5
68D
330
2E
100
AcDbDictionary
280
     1
281
     1
  3
ACAD_XREC_ROUNDTRIP
360
68E
  0
DICTIONARY
  5
6A1
330
38
100
AcDbDictionary
280
     1
281
     1
  3
ACAD_XREC_ROUNDTRIP
360
6A2
  0
DICTIONARY
  5
697
330
33
100
AcDbDictionary
280
     1
281
     1
  3
ACAD_XREC_ROUNDTRIP
360
698
  0
DICTIONARY
  5
69F
330
37
100
AcDbDictionary
280
     1
281
     1
  3
ACAD_XREC_ROUNDTRIP
360
6A0
  0
XRECORD
  5
6AA
102
{ACAD_REACTORS
330
6A9
102
}
330
6A9
100
AcDbXrecord
280
     1
102
MATERIAL
148
0.0
149
0.0
149
0.0
 93
        0
 94
      127
282
     0
 72
     1
 77
     1
171
     1
175
     1
179
     1
273
     0
  0
XRECORD
  5
6A8
102
{ACAD_REACTORS
330
6A7
102
}
330
6A7
100
AcDbXrecord
280
     1
102
MATERIAL
148
0.0
149
0.0
149
0.0
 93
        0
 94
      127
282
     0
 72
     1
 77
     1
171
     1
175
     1
179
     1
273
     0
  0
XRECORD
  5
6AC
102
{ACAD_REACTORS
330
6AB
102
}
330
6AB
100
AcDbXrecord
280
     1
102
MATERIAL
148
0.0
149
0.0
149
0.0
 93
        0
 94
      127
282
     0
 72
     1
 77
     1
171
     1
175
     1
179
     1
273
     0
  0
XRECORD
  5
690
102
{ACAD_REACTORS
330
68F
102
}
330
68F
100
AcDbXrecord
280
     1
102
RTVSPropertyOp0
 70
     1
102
RTVSPropertyOp1
 70
     1
102
RTVSPropertyOp2
 70
     1
102
RTVSPropertyOp3
 70
     1
102
RTVSPropertyOp4
 70
     1
102
RTVSPropertyOp5
 70
     1
102
RTVSPropertyOp6
 70
     1
102
RTVSPropertyOp7
 70
     1
102
RTVSPropertyOp8
 70
     1
102
RTVSPropertyOp9
 70
     1
102
RTVSPropertyOp10
 70
     1
102
RTVSPropertyOp11
 70
     1
102
RTVSPropertyOp12
 70
     1
102
RTVSPropertyOp13
 70
     1
102
RTVSPropertyOp14
 70
     1
102
RTVSPropertyOp15
 70
     1
102
RTVSPropertyOp16
 70
     1
102
RTVSPropertyOp17
 70
     1
102
RTVSPropertyOp18
 70
     1
102
RTVSPropertyOp19
 70
     1
102
RTVSPropertyOp20
 70
     1
102
RTVSPropertyOp21
 70
     1
102
RTVSPropertyOp22
 70
     1
102
RTVSPropertyOp23
 70
     1
102
RTVSPropertyOp24
 70
     1
102
RTVSPropertyOp25
 70
     1
102
RTVSPropertyOp26
 70
     1
102
RTVSPropertyOp27
 70
     1
102
RTVSPropertyOp28
 70
     1
102
RTVSPropertyOp29
 70
     1
102
RTVSPropertyOp30
 70
     1
102
RTVSPropertyOp31
 70
     1
102
RTVSPropertyOp32
 70
     1
102
RTVSPropertyOp33
 70
     1
102
RTVSPropertyOp34
 70
     1
102
RTVSPropertyOp35
 70
     1
102
RTVSPropertyOp36
 70
     1
102
RTVSPropertyOp37
 70
     1
102
RTVSPropertyOp38
 70
     1
102
RTVSPropertyOp39
 70
     1
102
RTVSPropertyOp40
 70
     1
102
RTVSPropertyOp41
 70
     1
102
RTVSPropertyOp42
 70
     1
102
RTVSPropertyOp43
 70
     1
102
RTVSPropertyOp44
 70
     1
102
RTVSPropertyOp45
 70
     1
102
RTVSPropertyOp46
 70
     1
102
RTVSPropertyOp47
 70
     1
102
RTVSPropertyOp48
 70
     1
102
RTVSPropertyOp49
 70
     1
102
RTVSPropertyOp50
 70
     1
102
RTVSPropertyOp51
 70
     0
102
RTVSPropertyOp52
 70
     0
102
RTVSPropertyOp53
 70
     1
102
RTVSPropertyOp54
 70
     1
102
RTVSPropertyOp55
 70
     1
102
RTVSPropertyOp56
 70
     1
102
RTVSPropertyOp57
 70
     1
102
RTVSPost2010Prop28
280
     1
102
RTVSPost2010PropOp28
 70
     1
102
RTVSPost2010Prop29
280
     1
102
RTVSPost2010PropOp29
 70
     1
102
RTVSPost2010Prop30
280
     0
102
RTVSPost2010PropOp30
 70
     1
102
RTVSPost2010Prop31
280
     0
102
RTVSPost2010PropOp31
 70
     1
102
RTVSPost2010Prop32
280
     0
102
RTVSPost2010PropOp32
 70
     1
102
RTVSPost2010Prop33
280
     0
102
RTVSPost2010PropOp33
 70
     1
102
RTVSPost2010Prop34
280
     0
102
RTVSPost2010PropOp34
 70
     1
102
RTVSPost2010Prop35
280
     0
102
RTVSPost2010PropOp35
 70
     1
102
RTVSPost2010Prop36
280
     0
102
RTVSPost2010PropOp36
 70
     1
102
RTVSPost2010Prop37
 90
       50
102
RTVSPost2010PropOp37
 70
     1
102
RTVSPost2010Prop38
140
0.0
102
RTVSPost2010PropOp38
 70
     1
102
RTVSPost2010Prop39
140
1.0
102
RTVSPost2010PropOp39
 70
     1
102
RTVSPost2010Prop40
 90
        0
102
RTVSPost2010PropOp40
 70
     1
102
RTVSPost2010Prop41ColorIndex
 90
       18
102
RTVSPost2010Prop41ColorRGB
 90
        0
102
RTVSPost2010PropOp41
 70
     1
102
RTVSPost2010Prop42
 90
       50
102
RTVSPost2010PropOp42
 70
     1
102
RTVSPost2010Prop43
 90
        3
102
RTVSPost2010PropOp43
 70
     1
102
RTVSPost2010Prop44ColorIndex
 90
        5
102
RTVSPost2010Prop44ColorRGB
 90
      255
102
RTVSPost2010PropOp44
 70
     1
102
RTVSPost2010Prop45
280
     0
102
RTVSPost2010PropOp45
 70
     1
102
RTVSPost2010Prop46
 90
       50
102
RTVSPost2010PropOp46
 70
     1
102
RTVSPost2010Prop47
 90
       50
102
RTVSPost2010PropOp47
 70
     1
102
RTVSPost2010Prop48
 90
       50
102
RTVSPost2010PropOp48
 70
     1
102
RTVSPost2010Prop49
280
     0
102
RTVSPost2010PropOp49
 70
     1
102
RTVSPost2010Prop50
 90
       50
102
RTVSPost2010PropOp50
 70
     1
102
RTVSPost2010Prop51ColorIndex
 90
      256
102
RTVSPost2010Prop51ColorRGB
 90
-16777216
102
RTVSPost2010PropOp51
 70
     0
102
RTVSPost2010Prop52
140
1.0
102
RTVSPost2010PropOp52
 70
     0
102
RTVSPost2010Prop53
 90
        2
102
RTVSPost2010PropOp53
 70
     1
102
RTVSPost2010Prop54
  1
strokes_ogs.tif
102
RTVSPost2010PropOp54
 70
     1
102
RTVSPost2010Prop55
280
     0
102
RTVSPost2010PropOp55
 70
     1
102
RTVSPost2010Prop56
140
1.0
102
RTVSPost2010PropOp56
 70
     1
102
RTVSPost2010Prop57
140
1.0
102
RTVSPost2010PropOp57
 70
     1
  0
XRECORD
  5
694
102
{ACAD_REACTORS
330
693
102
}
330
693
100
AcDbXrecord
280
     1
102
RTVSPropertyOp0
 70
     1
102
RTVSPropertyOp1
 70
     1
102
RTVSPropertyOp2
 70
     1
102
RTVSPropertyOp3
 70
     1
102
RTVSPropertyOp4
 70
     1
102
RTVSPropertyOp5
 70
     1
102
RTVSPropertyOp6
 70
     1
102
RTVSPropertyOp7
 70
     1
102
RTVSPropertyOp8
 70
     1
102
RTVSPropertyOp9
 70
     1
102
RTVSPropertyOp10
 70
     1
102
RTVSPropertyOp11
 70
     1
102
RTVSPropertyOp12
 70
     1
102
RTVSPropertyOp13
 70
     1
102
RTVSPropertyOp14
 70
     1
102
RTVSPropertyOp15
 70
     1
102
RTVSPropertyOp16
 70
     1
102
RTVSPropertyOp17
 70
     1
102
RTVSPropertyOp18
 70
     1
102
RTVSPropertyOp19
 70
     1
102
RTVSPropertyOp20
 70
     1
102
RTVSPropertyOp21
 70
     1
102
RTVSPropertyOp22
 70
     1
102
RTVSPropertyOp23
 70
     1
102
RTVSPropertyOp24
 70
     1
102
RTVSPropertyOp25
 70
     1
102
RTVSPropertyOp26
 70
     1
102
RTVSPropertyOp27
 70
     1
102
RTVSPropertyOp28
 70
     1
102
RTVSPropertyOp29
 70
     1
102
RTVSPropertyOp30
 70
     1
102
RTVSPropertyOp31
 70
     1
102
RTVSPropertyOp32
 70
     1
102
RTVSPropertyOp33
 70
     1
102
RTVSPropertyOp34
 70
     1
102
RTVSPropertyOp35
 70
     1
102
RTVSPropertyOp36
 70
     1
102
RTVSPropertyOp37
 70
     1
102
RTVSPropertyOp38
 70
     1
102
RTVSPropertyOp39
 70
     1
102
RTVSPropertyOp40
 70
     1
102
RTVSPropertyOp41
 70
     1
102
RTVSPropertyOp42
 70
     1
102
RTVSPropertyOp43
 70
     1
102
RTVSPropertyOp44
 70
     1
102
RTVSPropertyOp45
 70
     1
102
RTVSPropertyOp46
 70
     1
102
RTVSPropertyOp47
 70
     1
102
RTVSPropertyOp48
 70
     1
102
RTVSPropertyOp49
 70
     1
102
RTVSPropertyOp50
 70
     1
102
RTVSPropertyOp51
 70
     0
102
RTVSPropertyOp52
 70
     0
102
RTVSPropertyOp53
 70
     1
102
RTVSPropertyOp54
 70
     1
102
RTVSPropertyOp55
 70
     1
102
RTVSPropertyOp56
 70
     1
102
RTVSPropertyOp57
 70
     1
102
RTVSPost2010Prop28
280
     0
102
RTVSPost2010PropOp28
 70
     1
102
RTVSPost2010Prop29
280
     1
102
RTVSPost2010PropOp29
 70
     1
102
RTVSPost2010Prop30
280
     1
102
RTVSPost2010PropOp30
 70
     1
102
RTVSPost2010Prop31
280
     0
102
RTVSPost2010PropOp31
 70
     1
102
RTVSPost2010Prop32
280
     0
102
RTVSPost2010PropOp32
 70
     1
102
RTVSPost2010Prop33
280
     0
102
RTVSPost2010PropOp33
 70
     1
102
RTVSPost2010Prop34
280
     0
102
RTVSPost2010PropOp34
 70
     1
102
RTVSPost2010Prop35
280
     0
102
RTVSPost2010PropOp35
 70
     1
102
RTVSPost2010Prop36
280
     0
102
RTVSPost2010PropOp36
 70
     1
102
RTVSPost2010Prop37
 90
       50
102
RTVSPost2010PropOp37
 70
     1
102
RTVSPost2010Prop38
140
0.0
102
RTVSPost2010PropOp38
 70
     1
102
RTVSPost2010Prop39
140
1.0
102
RTVSPost2010PropOp39
 70
     1
102
RTVSPost2010Prop40
 90
        0
102
RTVSPost2010PropOp40
 70
     1
102
RTVSPost2010Prop41ColorIndex
 90
       18
102
RTVSPost2010Prop41ColorRGB
 90
        0
102
RTVSPost2010PropOp41
 70
     1
102
RTVSPost2010Prop42
 90
       50
102
RTVSPost2010PropOp42
 70
     1
102
RTVSPost2010Prop43
 90
        3
102
RTVSPost2010PropOp43
 70
     1
102
RTVSPost2010Prop44ColorIndex
 90
        5
102
RTVSPost2010Prop44ColorRGB
 90
      255
102
RTVSPost2010PropOp44
 70
     1
102
RTVSPost2010Prop45
280
     0
102
RTVSPost2010PropOp45
 70
     1
102
RTVSPost2010Prop46
 90
       50
102
RTVSPost2010PropOp46
 70
     1
102
RTVSPost2010Prop47
 90
       50
102
RTVSPost2010PropOp47
 70
     1
102
RTVSPost2010Prop48
 90
       50
102
RTVSPost2010PropOp48
 70
     1
102
RTVSPost2010Prop49
280
     0
102
RTVSPost2010PropOp49
 70
     1
102
RTVSPost2010Prop50
 90
       50
102
RTVSPost2010PropOp50
 70
     1
102
RTVSPost2010Prop51ColorIndex
 90
      256
102
RTVSPost2010Prop51ColorRGB
 90
-16777216
102
RTVSPost2010PropOp51
 70
     0
102
RTVSPost2010Prop52
140
1.0
102
RTVSPost2010PropOp52
 70
     0
102
RTVSPost2010Prop53
 90
        2
102
RTVSPost2010PropOp53
 70
     1
102
RTVSPost2010Prop54
  1
strokes_ogs.tif
102
RTVSPost2010PropOp54
 70
     1
102
RTVSPost2010Prop55
280
     0
102
RTVSPost2010PropOp55
 70
     1
102
RTVSPost2010Prop56
140
1.0
102
RTVSPost2010PropOp56
 70
     1
102
RTVSPost2010Prop57
140
1.0
102
RTVSPost2010PropOp57
 70
     1
  0
XRECORD
  5
692
102
{ACAD_REACTORS
330
691
102
}
330
691
100
AcDbXrecord
280
     1
102
RTVSPropertyOp0
 70
     1
102
RTVSPropertyOp1
 70
     1
102
RTVSPropertyOp2
 70
     1
102
RTVSPropertyOp3
 70
     1
102
RTVSPropertyOp4
 70
     1
102
RTVSPropertyOp5
 70
     1
102
RTVSPropertyOp6
 70
     1
102
RTVSPropertyOp7
 70
     1
102
RTVSPropertyOp8
 70
     1
102
RTVSPropertyOp9
 70
     1
102
RTVSPropertyOp10
 70
     1
102
RTVSPropertyOp11
 70
     1
102
RTVSPropertyOp12
 70
     1
102
RTVSPropertyOp13
 70
     1
102
RTVSPropertyOp14
 70
     1
102
RTVSPropertyOp15
 70
     1
102
RTVSPropertyOp16
 70
     1
102
RTVSPropertyOp17
 70
     1
102
RTVSPropertyOp18
 70
     1
102
RTVSPropertyOp19
 70
     1
102
RTVSPropertyOp20
 70
     1
102
RTVSPropertyOp21
 70
     1
102
RTVSPropertyOp22
 70
     1
102
RTVSPropertyOp23
 70
     1
102
RTVSPropertyOp24
 70
     1
102
RTVSPropertyOp25
 70
     1
102
RTVSPropertyOp26
 70
     1
102
RTVSPropertyOp27
 70
     1
102
RTVSPropertyOp28
 70
     1
102
RTVSPropertyOp29
 70
     1
102
RTVSPropertyOp30
 70
     1
102
RTVSPropertyOp31
 70
     1
102
RTVSPropertyOp32
 70
     1
102
RTVSPropertyOp33
 70
     1
102
RTVSPropertyOp34
 70
     1
102
RTVSPropertyOp35
 70
     1
102
RTVSPropertyOp36
 70
     1
102
RTVSPropertyOp37
 70
     1
102
RTVSPropertyOp38
 70
     1
102
RTVSPropertyOp39
 70
     1
102
RTVSPropertyOp40
 70
     1
102
RTVSPropertyOp41
 70
     1
102
RTVSPropertyOp42
 70
     1
102
RTVSPropertyOp43
 70
     1
102
RTVSPropertyOp44
 70
     1
102
RTVSPropertyOp45
 70
     1
102
RTVSPropertyOp46
 70
     1
102
RTVSPropertyOp47
 70
     1
102
RTVSPropertyOp48
 70
     1
102
RTVSPropertyOp49
 70
     1
102
RTVSPropertyOp50
 70
     1
102
RTVSPropertyOp51
 70
     0
102
RTVSPropertyOp52
 70
     0
102
RTVSPropertyOp53
 70
     1
102
RTVSPropertyOp54
 70
     1
102
RTVSPropertyOp55
 70
     1
102
RTVSPropertyOp56
 70
     1
102
RTVSPropertyOp57
 70
     1
102
RTVSPost2010Prop28
280
     0
102
RTVSPost2010PropOp28
 70
     1
102
RTVSPost2010Prop29
280
     1
102
RTVSPost2010PropOp29
 70
     1
102
RTVSPost2010Prop30
280
     1
102
RTVSPost2010PropOp30
 70
     1
102
RTVSPost2010Prop31
280
     0
102
RTVSPost2010PropOp31
 70
     1
102
RTVSPost2010Prop32
280
     0
102
RTVSPost2010PropOp32
 70
     1
102
RTVSPost2010Prop33
280
     0
102
RTVSPost2010PropOp33
 70
     1
102
RTVSPost2010Prop34
280
     0
102
RTVSPost2010PropOp34
 70
     1
102
RTVSPost2010Prop35
280
     0
102
RTVSPost2010PropOp35
 70
     1
102
RTVSPost2010Prop36
280
     0
102
RTVSPost2010PropOp36
 70
     1
102
RTVSPost2010Prop37
 90
       50
102
RTVSPost2010PropOp37
 70
     1
102
RTVSPost2010Prop38
140
0.0
102
RTVSPost2010PropOp38
 70
     1
102
RTVSPost2010Prop39
140
1.0
102
RTVSPost2010PropOp39
 70
     1
102
RTVSPost2010Prop40
 90
        0
102
RTVSPost2010PropOp40
 70
     1
102
RTVSPost2010Prop41ColorIndex
 90
       18
102
RTVSPost2010Prop41ColorRGB
 90
        0
102
RTVSPost2010PropOp41
 70
     1
102
RTVSPost2010Prop42
 90
       50
102
RTVSPost2010PropOp42
 70
     1
102
RTVSPost2010Prop43
 90
        3
102
RTVSPost2010PropOp43
 70
     1
102
RTVSPost2010Prop44ColorIndex
 90
        5
102
RTVSPost2010Prop44ColorRGB
 90
      255
102
RTVSPost2010PropOp44
 70
     1
102
RTVSPost2010Prop45
280
     0
102
RTVSPost2010PropOp45
 70
     1
102
RTVSPost2010Prop46
 90
       50
102
RTVSPost2010PropOp46
 70
     1
102
RTVSPost2010Prop47
 90
       50
102
RTVSPost2010PropOp47
 70
     1
102
RTVSPost2010Prop48
 90
       50
102
RTVSPost2010PropOp48
 70
     1
102
RTVSPost2010Prop49
280
     0
102
RTVSPost2010PropOp49
 70
     1
102
RTVSPost2010Prop50
 90
       50
102
RTVSPost2010PropOp50
 70
     1
102
RTVSPost2010Prop51ColorIndex
 90
      256
102
RTVSPost2010Prop51ColorRGB
 90
-16777216
102
RTVSPost2010PropOp51
 70
     0
102
RTVSPost2010Prop52
140
1.0
102
RTVSPost2010PropOp52
 70
     0
102
RTVSPost2010Prop53
 90
        2
102
RTVSPost2010PropOp53
 70
     1
102
RTVSPost2010Prop54
  1
strokes_ogs.tif
102
RTVSPost2010PropOp54
 70
     1
102
RTVSPost2010Prop55
280
     0
102
RTVSPost2010PropOp55
 70
     1
102
RTVSPost2010Prop56
140
1.0
102
RTVSPost2010PropOp56
 70
     1
102
RTVSPost2010Prop57
140
1.0
102
RTVSPost2010PropOp57
 70
     1
  0
XRECORD
  5
696
102
{ACAD_REACTORS
330
695
102
}
330
695
100
AcDbXrecord
280
     1
102
RTVSPropertyOp0
 70
     1
102
RTVSPropertyOp1
 70
     1
102
RTVSPropertyOp2
 70
     1
102
RTVSPropertyOp3
 70
     1
102
RTVSPropertyOp4
 70
     1
102
RTVSPropertyOp5
 70
     1
102
RTVSPropertyOp6
 70
     1
102
RTVSPropertyOp7
 70
     1
102
RTVSPropertyOp8
 70
     1
102
RTVSPropertyOp9
 70
     1
102
RTVSPropertyOp10
 70
     1
102
RTVSPropertyOp11
 70
     1
102
RTVSPropertyOp12
 70
     1
102
RTVSPropertyOp13
 70
     1
102
RTVSPropertyOp14
 70
     1
102
RTVSPropertyOp15
 70
     1
102
RTVSPropertyOp16
 70
     1
102
RTVSPropertyOp17
 70
     1
102
RTVSPropertyOp18
 70
     1
102
RTVSPropertyOp19
 70
     1
102
RTVSPropertyOp20
 70
     1
102
RTVSPropertyOp21
 70
     1
102
RTVSPropertyOp22
 70
     1
102
RTVSPropertyOp23
 70
     1
102
RTVSPropertyOp24
 70
     1
102
RTVSPropertyOp25
 70
     1
102
RTVSPropertyOp26
 70
     1
102
RTVSPropertyOp27
 70
     1
102
RTVSPropertyOp28
 70
     1
102
RTVSPropertyOp29
 70
     1
102
RTVSPropertyOp30
 70
     1
102
RTVSPropertyOp31
 70
     1
102
RTVSPropertyOp32
 70
     1
102
RTVSPropertyOp33
 70
     1
102
RTVSPropertyOp34
 70
     1
102
RTVSPropertyOp35
 70
     1
102
RTVSPropertyOp36
 70
     1
102
RTVSPropertyOp37
 70
     1
102
RTVSPropertyOp38
 70
     1
102
RTVSPropertyOp39
 70
     1
102
RTVSPropertyOp40
 70
     1
102
RTVSPropertyOp41
 70
     1
102
RTVSPropertyOp42
 70
     1
102
RTVSPropertyOp43
 70
     1
102
RTVSPropertyOp44
 70
     1
102
RTVSPropertyOp45
 70
     1
102
RTVSPropertyOp46
 70
     1
102
RTVSPropertyOp47
 70
     1
102
RTVSPropertyOp48
 70
     1
102
RTVSPropertyOp49
 70
     1
102
RTVSPropertyOp50
 70
     1
102
RTVSPropertyOp51
 70
     0
102
RTVSPropertyOp52
 70
     0
102
RTVSPropertyOp53
 70
     1
102
RTVSPropertyOp54
 70
     1
102
RTVSPropertyOp55
 70
     1
102
RTVSPropertyOp56
 70
     1
102
RTVSPropertyOp57
 70
     1
102
RTVSPost2010Prop28
280
     0
102
RTVSPost2010PropOp28
 70
     1
102
RTVSPost2010Prop29
280
     1
102
RTVSPost2010PropOp29
 70
     1
102
RTVSPost2010Prop30
280
     1
102
RTVSPost2010PropOp30
 70
     1
102
RTVSPost2010Prop31
280
     0
102
RTVSPost2010PropOp31
 70
     1
102
RTVSPost2010Prop32
280
     0
102
RTVSPost2010PropOp32
 70
     1
102
RTVSPost2010Prop33
280
     0
102
RTVSPost2010PropOp33
 70
     1
102
RTVSPost2010Prop34
280
     0
102
RTVSPost2010PropOp34
 70
     1
102
RTVSPost2010Prop35
280
     0
102
RTVSPost2010PropOp35
 70
     1
102
RTVSPost2010Prop36
280
     0
102
RTVSPost2010PropOp36
 70
     1
102
RTVSPost2010Prop37
 90
       50
102
RTVSPost2010PropOp37
 70
     1
102
RTVSPost2010Prop38
140
0.0
102
RTVSPost2010PropOp38
 70
     1
102
RTVSPost2010Prop39
140
1.0
102
RTVSPost2010PropOp39
 70
     1
102
RTVSPost2010Prop40
 90
        0
102
RTVSPost2010PropOp40
 70
     1
102
RTVSPost2010Prop41ColorIndex
 90
       18
102
RTVSPost2010Prop41ColorRGB
 90
        0
102
RTVSPost2010PropOp41
 70
     1
102
RTVSPost2010Prop42
 90
       50
102
RTVSPost2010PropOp42
 70
     1
102
RTVSPost2010Prop43
 90
        3
102
RTVSPost2010PropOp43
 70
     1
102
RTVSPost2010Prop44ColorIndex
 90
        5
102
RTVSPost2010Prop44ColorRGB
 90
      255
102
RTVSPost2010PropOp44
 70
     1
102
RTVSPost2010Prop45
280
     0
102
RTVSPost2010PropOp45
 70
     1
102
RTVSPost2010Prop46
 90
       50
102
RTVSPost2010PropOp46
 70
     1
102
RTVSPost2010Prop47
 90
       50
102
RTVSPost2010PropOp47
 70
     1
102
RTVSPost2010Prop48
 90
       50
102
RTVSPost2010PropOp48
 70
     1
102
RTVSPost2010Prop49
280
     0
102
RTVSPost2010PropOp49
 70
     1
102
RTVSPost2010Prop50
 90
       50
102
RTVSPost2010PropOp50
 70
     1
102
RTVSPost2010Prop51ColorIndex
 90
      256
102
RTVSPost2010Prop51ColorRGB
 90
-16777216
102
RTVSPost2010PropOp51
 70
     0
102
RTVSPost2010Prop52
140
1.0
102
RTVSPost2010PropOp52
 70
     0
102
RTVSPost2010Prop53
 90
        2
102
RTVSPost2010PropOp53
 70
     1
102
RTVSPost2010Prop54
  1
strokes_ogs.tif
102
RTVSPost2010PropOp54
 70
     1
102
RTVSPost2010Prop55
280
     0
102
RTVSPost2010PropOp55
 70
     1
102
RTVSPost2010Prop56
140
1.0
102
RTVSPost2010PropOp56
 70
     1
102
RTVSPost2010Prop57
140
1.0
102
RTVSPost2010PropOp57
 70
     1
  0
XRECORD
  5
69E
102
{ACAD_REACTORS
330
69D
102
}
330
69D
100
AcDbXrecord
280
     1
102
RTVSPropertyOp0
 70
     1
102
RTVSPropertyOp1
 70
     1
102
RTVSPropertyOp2
 70
     1
102
RTVSPropertyOp3
 70
     1
102
RTVSPropertyOp4
 70
     1
102
RTVSPropertyOp5
 70
     1
102
RTVSPropertyOp6
 70
     1
102
RTVSPropertyOp7
 70
     1
102
RTVSPropertyOp8
 70
     1
102
RTVSPropertyOp9
 70
     1
102
RTVSPropertyOp10
 70
     1
102
RTVSPropertyOp11
 70
     1
102
RTVSPropertyOp12
 70
     1
102
RTVSPropertyOp13
 70
     1
102
RTVSPropertyOp14
 70
     1
102
RTVSPropertyOp15
 70
     1
102
RTVSPropertyOp16
 70
     1
102
RTVSPropertyOp17
 70
     1
102
RTVSPropertyOp18
 70
     1
102
RTVSPropertyOp19
 70
     1
102
RTVSPropertyOp20
 70
     1
102
RTVSPropertyOp21
 70
     1
102
RTVSPropertyOp22
 70
     1
102
RTVSPropertyOp23
 70
     1
102
RTVSPropertyOp24
 70
     1
102
RTVSPropertyOp25
 70
     1
102
RTVSPropertyOp26
 70
     1
102
RTVSPropertyOp27
 70
     1
102
RTVSPropertyOp28
 70
     1
102
RTVSPropertyOp29
 70
     1
102
RTVSPropertyOp30
 70
     1
102
RTVSPropertyOp31
 70
     1
102
RTVSPropertyOp32
 70
     1
102
RTVSPropertyOp33
 70
     1
102
RTVSPropertyOp34
 70
     1
102
RTVSPropertyOp35
 70
     1
102
RTVSPropertyOp36
 70
     1
102
RTVSPropertyOp37
 70
     1
102
RTVSPropertyOp38
 70
     1
102
RTVSPropertyOp39
 70
     1
102
RTVSPropertyOp40
 70
     1
102
RTVSPropertyOp41
 70
     1
102
RTVSPropertyOp42
 70
     1
102
RTVSPropertyOp43
 70
     1
102
RTVSPropertyOp44
 70
     1
102
RTVSPropertyOp45
 70
     1
102
RTVSPropertyOp46
 70
     1
102
RTVSPropertyOp47
 70
     1
102
RTVSPropertyOp48
 70
     1
102
RTVSPropertyOp49
 70
     1
102
RTVSPropertyOp50
 70
     1
102
RTVSPropertyOp51
 70
     0
102
RTVSPropertyOp52
 70
     0
102
RTVSPropertyOp53
 70
     1
102
RTVSPropertyOp54
 70
     1
102
RTVSPropertyOp55
 70
     1
102
RTVSPropertyOp56
 70
     1
102
RTVSPropertyOp57
 70
     1
102
RTVSPost2010Prop28
280
     0
102
RTVSPost2010PropOp28
 70
     1
102
RTVSPost2010Prop29
280
     1
102
RTVSPost2010PropOp29
 70
     1
102
RTVSPost2010Prop30
280
     1
102
RTVSPost2010PropOp30
 70
     1
102
RTVSPost2010Prop31
280
     0
102
RTVSPost2010PropOp31
 70
     1
102
RTVSPost2010Prop32
280
     0
102
RTVSPost2010PropOp32
 70
     1
102
RTVSPost2010Prop33
280
     0
102
RTVSPost2010PropOp33
 70
     1
102
RTVSPost2010Prop34
280
     0
102
RTVSPost2010PropOp34
 70
     1
102
RTVSPost2010Prop35
280
     0
102
RTVSPost2010PropOp35
 70
     1
102
RTVSPost2010Prop36
280
     0
102
RTVSPost2010PropOp36
 70
     1
102
RTVSPost2010Prop37
 90
       50
102
RTVSPost2010PropOp37
 70
     1
102
RTVSPost2010Prop38
140
0.0
102
RTVSPost2010PropOp38
 70
     1
102
RTVSPost2010Prop39
140
1.0
102
RTVSPost2010PropOp39
 70
     1
102
RTVSPost2010Prop40
 90
        0
102
RTVSPost2010PropOp40
 70
     1
102
RTVSPost2010Prop41ColorIndex
 90
       18
102
RTVSPost2010Prop41ColorRGB
 90
        0
102
RTVSPost2010PropOp41
 70
     1
102
RTVSPost2010Prop42
 90
       50
102
RTVSPost2010PropOp42
 70
     1
102
RTVSPost2010Prop43
 90
        3
102
RTVSPost2010PropOp43
 70
     1
102
RTVSPost2010Prop44ColorIndex
 90
        5
102
RTVSPost2010Prop44ColorRGB
 90
      255
102
RTVSPost2010PropOp44
 70
     1
102
RTVSPost2010Prop45
280
     0
102
RTVSPost2010PropOp45
 70
     1
102
RTVSPost2010Prop46
 90
       50
102
RTVSPost2010PropOp46
 70
     1
102
RTVSPost2010Prop47
 90
       50
102
RTVSPost2010PropOp47
 70
     1
102
RTVSPost2010Prop48
 90
       50
102
RTVSPost2010PropOp48
 70
     1
102
RTVSPost2010Prop49
280
     0
102
RTVSPost2010PropOp49
 70
     1
102
RTVSPost2010Prop50
 90
       50
102
RTVSPost2010PropOp50
 70
     1
102
RTVSPost2010Prop51ColorIndex
 90
      256
102
RTVSPost2010Prop51ColorRGB
 90
-16777216
102
RTVSPost2010PropOp51
 70
     0
102
RTVSPost2010Prop52
140
1.0
102
RTVSPost2010PropOp52
 70
     0
102
RTVSPost2010Prop53
 90
        2
102
RTVSPost2010PropOp53
 70
     1
102
RTVSPost2010Prop54
  1
strokes_ogs.tif
102
RTVSPost2010PropOp54
 70
     1
102
RTVSPost2010Prop55
280
     0
102
RTVSPost2010PropOp55
 70
     1
102
RTVSPost2010Prop56
140
1.0
102
RTVSPost2010PropOp56
 70
     1
102
RTVSPost2010Prop57
140
1.0
102
RTVSPost2010PropOp57
 70
     1
  0
XRECORD
  5
6A6
102
{ACAD_REACTORS
330
6A5
102
}
330
6A5
100
AcDbXrecord
280
     1
102
RTVSPropertyOp0
 70
     1
102
RTVSPropertyOp1
 70
     1
102
RTVSPropertyOp2
 70
     1
102
RTVSPropertyOp3
 70
     1
102
RTVSPropertyOp4
 70
     1
102
RTVSPropertyOp5
 70
     1
102
RTVSPropertyOp6
 70
     1
102
RTVSPropertyOp7
 70
     1
102
RTVSPropertyOp8
 70
     1
102
RTVSPropertyOp9
 70
     1
102
RTVSPropertyOp10
 70
     1
102
RTVSPropertyOp11
 70
     1
102
RTVSPropertyOp12
 70
     1
102
RTVSPropertyOp13
 70
     1
102
RTVSPropertyOp14
 70
     1
102
RTVSPropertyOp15
 70
     1
102
RTVSPropertyOp16
 70
     1
102
RTVSPropertyOp17
 70
     1
102
RTVSPropertyOp18
 70
     1
102
RTVSPropertyOp19
 70
     1
102
RTVSPropertyOp20
 70
     1
102
RTVSPropertyOp21
 70
     1
102
RTVSPropertyOp22
 70
     1
102
RTVSPropertyOp23
 70
     1
102
RTVSPropertyOp24
 70
     1
102
RTVSPropertyOp25
 70
     1
102
RTVSPropertyOp26
 70
     1
102
RTVSPropertyOp27
 70
     1
102
RTVSPropertyOp28
 70
     1
102
RTVSPropertyOp29
 70
     1
102
RTVSPropertyOp30
 70
     1
102
RTVSPropertyOp31
 70
     1
102
RTVSPropertyOp32
 70
     1
102
RTVSPropertyOp33
 70
     1
102
RTVSPropertyOp34
 70
     1
102
RTVSPropertyOp35
 70
     1
102
RTVSPropertyOp36
 70
     1
102
RTVSPropertyOp37
 70
     1
102
RTVSPropertyOp38
 70
     1
102
RTVSPropertyOp39
 70
     1
102
RTVSPropertyOp40
 70
     1
102
RTVSPropertyOp41
 70
     1
102
RTVSPropertyOp42
 70
     1
102
RTVSPropertyOp43
 70
     1
102
RTVSPropertyOp44
 70
     1
102
RTVSPropertyOp45
 70
     1
102
RTVSPropertyOp46
 70
     1
102
RTVSPropertyOp47
 70
     1
102
RTVSPropertyOp48
 70
     1
102
RTVSPropertyOp49
 70
     1
102
RTVSPropertyOp50
 70
     1
102
RTVSPropertyOp51
 70
     0
102
RTVSPropertyOp52
 70
     0
102
RTVSPropertyOp53
 70
     1
102
RTVSPropertyOp54
 70
     1
102
RTVSPropertyOp55
 70
     1
102
RTVSPropertyOp56
 70
     1
102
RTVSPropertyOp57
 70
     1
102
RTVSPost2010Prop28
280
     0
102
RTVSPost2010PropOp28
 70
     1
102
RTVSPost2010Prop29
280
     1
102
RTVSPost2010PropOp29
 70
     1
102
RTVSPost2010Prop30
280
     1
102
RTVSPost2010PropOp30
 70
     1
102
RTVSPost2010Prop31
280
     0
102
RTVSPost2010PropOp31
 70
     1
102
RTVSPost2010Prop32
280
     0
102
RTVSPost2010PropOp32
 70
     1
102
RTVSPost2010Prop33
280
     0
102
RTVSPost2010PropOp33
 70
     1
102
RTVSPost2010Prop34
280
     0
102
RTVSPost2010PropOp34
 70
     1
102
RTVSPost2010Prop35
280
     0
102
RTVSPost2010PropOp35
 70
     1
102
RTVSPost2010Prop36
280
     0
102
RTVSPost2010PropOp36
 70
     1
102
RTVSPost2010Prop37
 90
       50
102
RTVSPost2010PropOp37
 70
     1
102
RTVSPost2010Prop38
140
0.0
102
RTVSPost2010PropOp38
 70
     1
102
RTVSPost2010Prop39
140
1.0
102
RTVSPost2010PropOp39
 70
     1
102
RTVSPost2010Prop40
 90
        0
102
RTVSPost2010PropOp40
 70
     1
102
RTVSPost2010Prop41ColorIndex
 90
       18
102
RTVSPost2010Prop41ColorRGB
 90
        0
102
RTVSPost2010PropOp41
 70
     1
102
RTVSPost2010Prop42
 90
       50
102
RTVSPost2010PropOp42
 70
     1
102
RTVSPost2010Prop43
 90
        3
102
RTVSPost2010PropOp43
 70
     1
102
RTVSPost2010Prop44ColorIndex
 90
        5
102
RTVSPost2010Prop44ColorRGB
 90
      255
102
RTVSPost2010PropOp44
 70
     1
102
RTVSPost2010Prop45
280
     0
102
RTVSPost2010PropOp45
 70
     1
102
RTVSPost2010Prop46
 90
       50
102
RTVSPost2010PropOp46
 70
     1
102
RTVSPost2010Prop47
 90
       50
102
RTVSPost2010PropOp47
 70
     1
102
RTVSPost2010Prop48
 90
       50
102
RTVSPost2010PropOp48
 70
     1
102
RTVSPost2010Prop49
280
     0
102
RTVSPost2010PropOp49
 70
     1
102
RTVSPost2010Prop50
 90
       50
102
RTVSPost2010PropOp50
 70
     1
102
RTVSPost2010Prop51ColorIndex
 90
      256
102
RTVSPost2010Prop51ColorRGB
 90
-16777216
102
RTVSPost2010PropOp51
 70
     0
102
RTVSPost2010Prop52
140
1.0
102
RTVSPost2010PropOp52
 70
     0
102
RTVSPost2010Prop53
 90
        2
102
RTVSPost2010PropOp53
 70
     1
102
RTVSPost2010Prop54
  1
strokes_ogs.tif
102
RTVSPost2010PropOp54
 70
     1
102
RTVSPost2010Prop55
280
     0
102
RTVSPost2010PropOp55
 70
     1
102
RTVSPost2010Prop56
140
1.0
102
RTVSPost2010PropOp56
 70
     1
102
RTVSPost2010Prop57
140
1.0
102
RTVSPost2010PropOp57
 70
     1
  0
XRECORD
  5
69A
102
{ACAD_REACTORS
330
699
102
}
330
699
100
AcDbXrecord
280
     1
102
RTVSPropertyOp0
 70
     1
102
RTVSPropertyOp1
 70
     1
102
RTVSPropertyOp2
 70
     1
102
RTVSPropertyOp3
 70
     1
102
RTVSPropertyOp4
 70
     1
102
RTVSPropertyOp5
 70
     1
102
RTVSPropertyOp6
 70
     1
102
RTVSPropertyOp7
 70
     1
102
RTVSPropertyOp8
 70
     1
102
RTVSPropertyOp9
 70
     1
102
RTVSPropertyOp10
 70
     1
102
RTVSPropertyOp11
 70
     1
102
RTVSPropertyOp12
 70
     1
102
RTVSPropertyOp13
 70
     1
102
RTVSPropertyOp14
 70
     1
102
RTVSPropertyOp15
 70
     1
102
RTVSPropertyOp16
 70
     1
102
RTVSPropertyOp17
 70
     1
102
RTVSPropertyOp18
 70
     1
102
RTVSPropertyOp19
 70
     1
102
RTVSPropertyOp20
 70
     1
102
RTVSPropertyOp21
 70
     1
102
RTVSPropertyOp22
 70
     1
102
RTVSPropertyOp23
 70
     1
102
RTVSPropertyOp24
 70
     1
102
RTVSPropertyOp25
 70
     1
102
RTVSPropertyOp26
 70
     1
102
RTVSPropertyOp27
 70
     1
102
RTVSPropertyOp28
 70
     1
102
RTVSPropertyOp29
 70
     1
102
RTVSPropertyOp30
 70
     1
102
RTVSPropertyOp31
 70
     1
102
RTVSPropertyOp32
 70
     1
102
RTVSPropertyOp33
 70
     1
102
RTVSPropertyOp34
 70
     1
102
RTVSPropertyOp35
 70
     1
102
RTVSPropertyOp36
 70
     1
102
RTVSPropertyOp37
 70
     1
102
RTVSPropertyOp38
 70
     1
102
RTVSPropertyOp39
 70
     1
102
RTVSPropertyOp40
 70
     1
102
RTVSPropertyOp41
 70
     1
102
RTVSPropertyOp42
 70
     1
102
RTVSPropertyOp43
 70
     1
102
RTVSPropertyOp44
 70
     1
102
RTVSPropertyOp45
 70
     1
102
RTVSPropertyOp46
 70
     1
102
RTVSPropertyOp47
 70
     1
102
RTVSPropertyOp48
 70
     1
102
RTVSPropertyOp49
 70
     1
102
RTVSPropertyOp50
 70
     1
102
RTVSPropertyOp51
 70
     0
102
RTVSPropertyOp52
 70
     0
102
RTVSPropertyOp53
 70
     1
102
RTVSPropertyOp54
 70
     1
102
RTVSPropertyOp55
 70
     1
102
RTVSPropertyOp56
 70
     1
102
RTVSPropertyOp57
 70
     1
102
RTVSPost2010Prop28
280
     0
102
RTVSPost2010PropOp28
 70
     1
102
RTVSPost2010Prop29
280
     1
102
RTVSPost2010PropOp29
 70
     1
102
RTVSPost2010Prop30
280
     1
102
RTVSPost2010PropOp30
 70
     1
102
RTVSPost2010Prop31
280
     0
102
RTVSPost2010PropOp31
 70
     1
102
RTVSPost2010Prop32
280
     0
102
RTVSPost2010PropOp32
 70
     1
102
RTVSPost2010Prop33
280
     0
102
RTVSPost2010PropOp33
 70
     1
102
RTVSPost2010Prop34
280
     0
102
RTVSPost2010PropOp34
 70
     1
102
RTVSPost2010Prop35
280
     0
102
RTVSPost2010PropOp35
 70
     1
102
RTVSPost2010Prop36
280
     0
102
RTVSPost2010PropOp36
 70
     1
102
RTVSPost2010Prop37
 90
       50
102
RTVSPost2010PropOp37
 70
     1
102
RTVSPost2010Prop38
140
0.0
102
RTVSPost2010PropOp38
 70
     1
102
RTVSPost2010Prop39
140
1.0
102
RTVSPost2010PropOp39
 70
     1
102
RTVSPost2010Prop40
 90
        0
102
RTVSPost2010PropOp40
 70
     1
102
RTVSPost2010Prop41ColorIndex
 90
       18
102
RTVSPost2010Prop41ColorRGB
 90
        0
102
RTVSPost2010PropOp41
 70
     1
102
RTVSPost2010Prop42
 90
       50
102
RTVSPost2010PropOp42
 70
     1
102
RTVSPost2010Prop43
 90
        3
102
RTVSPost2010PropOp43
 70
     1
102
RTVSPost2010Prop44ColorIndex
 90
        5
102
RTVSPost2010Prop44ColorRGB
 90
      255
102
RTVSPost2010PropOp44
 70
     1
102
RTVSPost2010Prop45
280
     0
102
RTVSPost2010PropOp45
 70
     1
102
RTVSPost2010Prop46
 90
       50
102
RTVSPost2010PropOp46
 70
     1
102
RTVSPost2010Prop47
 90
       50
102
RTVSPost2010PropOp47
 70
     1
102
RTVSPost2010Prop48
 90
       50
102
RTVSPost2010PropOp48
 70
     1
102
RTVSPost2010Prop49
280
     0
102
RTVSPost2010PropOp49
 70
     1
102
RTVSPost2010Prop50
 90
       50
102
RTVSPost2010PropOp50
 70
     1
102
RTVSPost2010Prop51ColorIndex
 90
      256
102
RTVSPost2010Prop51ColorRGB
 90
-16777216
102
RTVSPost2010PropOp51
 70
     0
102
RTVSPost2010Prop52
140
1.0
102
RTVSPost2010PropOp52
 70
     0
102
RTVSPost2010Prop53
 90
        2
102
RTVSPost2010PropOp53
 70
     1
102
RTVSPost2010Prop54
  1
strokes_ogs.tif
102
RTVSPost2010PropOp54
 70
     1
102
RTVSPost2010Prop55
280
     0
102
RTVSPost2010PropOp55
 70
     1
102
RTVSPost2010Prop56
140
1.0
102
RTVSPost2010PropOp56
 70
     1
102
RTVSPost2010Prop57
140
1.0
102
RTVSPost2010PropOp57
 70
     1
  0
XRECORD
  5
69C
102
{ACAD_REACTORS
330
69B
102
}
330
69B
100
AcDbXrecord
280
     1
102
RTVSPropertyOp0
 70
     1
102
RTVSPropertyOp1
 70
     1
102
RTVSPropertyOp2
 70
     1
102
RTVSPropertyOp3
 70
     1
102
RTVSPropertyOp4
 70
     1
102
RTVSPropertyOp5
 70
     1
102
RTVSPropertyOp6
 70
     1
102
RTVSPropertyOp7
 70
     1
102
RTVSPropertyOp8
 70
     1
102
RTVSPropertyOp9
 70
     1
102
RTVSPropertyOp10
 70
     1
102
RTVSPropertyOp11
 70
     1
102
RTVSPropertyOp12
 70
     1
102
RTVSPropertyOp13
 70
     1
102
RTVSPropertyOp14
 70
     1
102
RTVSPropertyOp15
 70
     1
102
RTVSPropertyOp16
 70
     1
102
RTVSPropertyOp17
 70
     1
102
RTVSPropertyOp18
 70
     1
102
RTVSPropertyOp19
 70
     1
102
RTVSPropertyOp20
 70
     1
102
RTVSPropertyOp21
 70
     1
102
RTVSPropertyOp22
 70
     1
102
RTVSPropertyOp23
 70
     1
102
RTVSPropertyOp24
 70
     1
102
RTVSPropertyOp25
 70
     1
102
RTVSPropertyOp26
 70
     1
102
RTVSPropertyOp27
 70
     1
102
RTVSPropertyOp28
 70
     1
102
RTVSPropertyOp29
 70
     1
102
RTVSPropertyOp30
 70
     1
102
RTVSPropertyOp31
 70
     1
102
RTVSPropertyOp32
 70
     1
102
RTVSPropertyOp33
 70
     1
102
RTVSPropertyOp34
 70
     1
102
RTVSPropertyOp35
 70
     1
102
RTVSPropertyOp36
 70
     1
102
RTVSPropertyOp37
 70
     1
102
RTVSPropertyOp38
 70
     1
102
RTVSPropertyOp39
 70
     1
102
RTVSPropertyOp40
 70
     1
102
RTVSPropertyOp41
 70
     1
102
RTVSPropertyOp42
 70
     1
102
RTVSPropertyOp43
 70
     1
102
RTVSPropertyOp44
 70
     1
102
RTVSPropertyOp45
 70
     1
102
RTVSPropertyOp46
 70
     1
102
RTVSPropertyOp47
 70
     1
102
RTVSPropertyOp48
 70
     1
102
RTVSPropertyOp49
 70
     1
102
RTVSPropertyOp50
 70
     1
102
RTVSPropertyOp51
 70
     0
102
RTVSPropertyOp52
 70
     0
102
RTVSPropertyOp53
 70
     1
102
RTVSPropertyOp54
 70
     1
102
RTVSPropertyOp55
 70
     1
102
RTVSPropertyOp56
 70
     1
102
RTVSPropertyOp57
 70
     1
102
RTVSPost2010Prop28
280
     0
102
RTVSPost2010PropOp28
 70
     1
102
RTVSPost2010Prop29
280
     1
102
RTVSPost2010PropOp29
 70
     1
102
RTVSPost2010Prop30
280
     1
102
RTVSPost2010PropOp30
 70
     1
102
RTVSPost2010Prop31
280
     0
102
RTVSPost2010PropOp31
 70
     1
102
RTVSPost2010Prop32
280
     0
102
RTVSPost2010PropOp32
 70
     1
102
RTVSPost2010Prop33
280
     0
102
RTVSPost2010PropOp33
 70
     1
102
RTVSPost2010Prop34
280
     0
102
RTVSPost2010PropOp34
 70
     1
102
RTVSPost2010Prop35
280
     0
102
RTVSPost2010PropOp35
 70
     1
102
RTVSPost2010Prop36
280
     0
102
RTVSPost2010PropOp36
 70
     1
102
RTVSPost2010Prop37
 90
       50
102
RTVSPost2010PropOp37
 70
     1
102
RTVSPost2010Prop38
140
0.0
102
RTVSPost2010PropOp38
 70
     1
102
RTVSPost2010Prop39
140
1.0
102
RTVSPost2010PropOp39
 70
     1
102
RTVSPost2010Prop40
 90
        0
102
RTVSPost2010PropOp40
 70
     1
102
RTVSPost2010Prop41ColorIndex
 90
       18
102
RTVSPost2010Prop41ColorRGB
 90
        0
102
RTVSPost2010PropOp41
 70
     1
102
RTVSPost2010Prop42
 90
       50
102
RTVSPost2010PropOp42
 70
     1
102
RTVSPost2010Prop43
 90
        3
102
RTVSPost2010PropOp43
 70
     1
102
RTVSPost2010Prop44ColorIndex
 90
        5
102
RTVSPost2010Prop44ColorRGB
 90
      255
102
RTVSPost2010PropOp44
 70
     1
102
RTVSPost2010Prop45
280
     0
102
RTVSPost2010PropOp45
 70
     1
102
RTVSPost2010Prop46
 90
       50
102
RTVSPost2010PropOp46
 70
     1
102
RTVSPost2010Prop47
 90
       50
102
RTVSPost2010PropOp47
 70
     1
102
RTVSPost2010Prop48
 90
       50
102
RTVSPost2010PropOp48
 70
     1
102
RTVSPost2010Prop49
280
     0
102
RTVSPost2010PropOp49
 70
     1
102
RTVSPost2010Prop50
 90
       50
102
RTVSPost2010PropOp50
 70
     1
102
RTVSPost2010Prop51ColorIndex
 90
      256
102
RTVSPost2010Prop51ColorRGB
 90
-16777216
102
RTVSPost2010PropOp51
 70
     0
102
RTVSPost2010Prop52
140
1.0
102
RTVSPost2010PropOp52
 70
     0
102
RTVSPost2010Prop53
 90
        2
102
RTVSPost2010PropOp53
 70
     1
102
RTVSPost2010Prop54
  1
strokes_ogs.tif
102
RTVSPost2010PropOp54
 70
     1
102
RTVSPost2010Prop55
280
     0
102
RTVSPost2010PropOp55
 70
     1
102
RTVSPost2010Prop56
140
1.0
102
RTVSPost2010PropOp56
 70
     1
102
RTVSPost2010Prop57
140
1.0
102
RTVSPost2010PropOp57
 70
     1
  0
XRECORD
  5
6A4
102
{ACAD_REACTORS
330
6A3
102
}
330
6A3
100
AcDbXrecord
280
     1
102
RTVSPropertyOp0
 70
     1
102
RTVSPropertyOp1
 70
     1
102
RTVSPropertyOp2
 70
     1
102
RTVSPropertyOp3
 70
     1
102
RTVSPropertyOp4
 70
     1
102
RTVSPropertyOp5
 70
     1
102
RTVSPropertyOp6
 70
     1
102
RTVSPropertyOp7
 70
     1
102
RTVSPropertyOp8
 70
     1
102
RTVSPropertyOp9
 70
     1
102
RTVSPropertyOp10
 70
     1
102
RTVSPropertyOp11
 70
     1
102
RTVSPropertyOp12
 70
     1
102
RTVSPropertyOp13
 70
     1
102
RTVSPropertyOp14
 70
     1
102
RTVSPropertyOp15
 70
     1
102
RTVSPropertyOp16
 70
     1
102
RTVSPropertyOp17
 70
     1
102
RTVSPropertyOp18
 70
     1
102
RTVSPropertyOp19
 70
     1
102
RTVSPropertyOp20
 70
     1
102
RTVSPropertyOp21
 70
     1
102
RTVSPropertyOp22
 70
     1
102
RTVSPropertyOp23
 70
     1
102
RTVSPropertyOp24
 70
     1
102
RTVSPropertyOp25
 70
     1
102
RTVSPropertyOp26
 70
     1
102
RTVSPropertyOp27
 70
     1
102
RTVSPropertyOp28
 70
     1
102
RTVSPropertyOp29
 70
     1
102
RTVSPropertyOp30
 70
     1
102
RTVSPropertyOp31
 70
     1
102
RTVSPropertyOp32
 70
     1
102
RTVSPropertyOp33
 70
     1
102
RTVSPropertyOp34
 70
     1
102
RTVSPropertyOp35
 70
     1
102
RTVSPropertyOp36
 70
     1
102
RTVSPropertyOp37
 70
     1
102
RTVSPropertyOp38
 70
     1
102
RTVSPropertyOp39
 70
     1
102
RTVSPropertyOp40
 70
     1
102
RTVSPropertyOp41
 70
     1
102
RTVSPropertyOp42
 70
     1
102
RTVSPropertyOp43
 70
     1
102
RTVSPropertyOp44
 70
     1
102
RTVSPropertyOp45
 70
     1
102
RTVSPropertyOp46
 70
     1
102
RTVSPropertyOp47
 70
     1
102
RTVSPropertyOp48
 70
     1
102
RTVSPropertyOp49
 70
     1
102
RTVSPropertyOp50
 70
     1
102
RTVSPropertyOp51
 70
     0
102
RTVSPropertyOp52
 70
     0
102
RTVSPropertyOp53
 70
     1
102
RTVSPropertyOp54
 70
     1
102
RTVSPropertyOp55
 70
     1
102
RTVSPropertyOp56
 70
     1
102
RTVSPropertyOp57
 70
     1
102
RTVSPost2010Prop28
280
     0
102
RTVSPost2010PropOp28
 70
     1
102
RTVSPost2010Prop29
280
     1
102
RTVSPost2010PropOp29
 70
     1
102
RTVSPost2010Prop30
280
     1
102
RTVSPost2010PropOp30
 70
     1
102
RTVSPost2010Prop31
280
     0
102
RTVSPost2010PropOp31
 70
     1
102
RTVSPost2010Prop32
280
     0
102
RTVSPost2010PropOp32
 70
     1
102
RTVSPost2010Prop33
280
     0
102
RTVSPost2010PropOp33
 70
     1
102
RTVSPost2010Prop34
280
     0
102
RTVSPost2010PropOp34
 70
     1
102
RTVSPost2010Prop35
280
     0
102
RTVSPost2010PropOp35
 70
     1
102
RTVSPost2010Prop36
280
     0
102
RTVSPost2010PropOp36
 70
     1
102
RTVSPost2010Prop37
 90
       50
102
RTVSPost2010PropOp37
 70
     1
102
RTVSPost2010Prop38
140
0.0
102
RTVSPost2010PropOp38
 70
     1
102
RTVSPost2010Prop39
140
1.0
102
RTVSPost2010PropOp39
 70
     1
102
RTVSPost2010Prop40
 90
        0
102
RTVSPost2010PropOp40
 70
     1
102
RTVSPost2010Prop41ColorIndex
 90
       18
102
RTVSPost2010Prop41ColorRGB
 90
        0
102
RTVSPost2010PropOp41
 70
     1
102
RTVSPost2010Prop42
 90
       50
102
RTVSPost2010PropOp42
 70
     1
102
RTVSPost2010Prop43
 90
        3
102
RTVSPost2010PropOp43
 70
     1
102
RTVSPost2010Prop44ColorIndex
 90
        5
102
RTVSPost2010Prop44ColorRGB
 90
      255
102
RTVSPost2010PropOp44
 70
     1
102
RTVSPost2010Prop45
280
     0
102
RTVSPost2010PropOp45
 70
     1
102
RTVSPost2010Prop46
 90
       50
102
RTVSPost2010PropOp46
 70
     1
102
RTVSPost2010Prop47
 90
       50
102
RTVSPost2010PropOp47
 70
     1
102
RTVSPost2010Prop48
 90
       50
102
RTVSPost2010PropOp48
 70
     1
102
RTVSPost2010Prop49
280
     0
102
RTVSPost2010PropOp49
 70
     1
102
RTVSPost2010Prop50
 90
       50
102
RTVSPost2010PropOp50
 70
     1
102
RTVSPost2010Prop51ColorIndex
 90
      256
102
RTVSPost2010Prop51ColorRGB
 90
-16777216
102
RTVSPost2010PropOp51
 70
     0
102
RTVSPost2010Prop52
140
1.0
102
RTVSPost2010PropOp52
 70
     0
102
RTVSPost2010Prop53
 90
        2
102
RTVSPost2010PropOp53
 70
     1
102
RTVSPost2010Prop54
  1
strokes_ogs.tif
102
RTVSPost2010PropOp54
 70
     1
102
RTVSPost2010Prop55
280
     0
102
RTVSPost2010PropOp55
 70
     1
102
RTVSPost2010Prop56
140
1.0
102
RTVSPost2010PropOp56
 70
     1
102
RTVSPost2010Prop57
140
1.0
102
RTVSPost2010PropOp57
 70
     1
  0
XRECORD
  5
688
102
{ACAD_REACTORS
330
687
102
}
330
687
100
AcDbXrecord
280
     1
102
RTVSPropertyOp0
 70
     1
102
RTVSPropertyOp1
 70
     1
102
RTVSPropertyOp2
 70
     1
102
RTVSPropertyOp3
 70
     1
102
RTVSPropertyOp4
 70
     1
102
RTVSPropertyOp5
 70
     1
102
RTVSPropertyOp6
 70
     1
102
RTVSPropertyOp7
 70
     1
102
RTVSPropertyOp8
 70
     1
102
RTVSPropertyOp9
 70
     1
102
RTVSPropertyOp10
 70
     1
102
RTVSPropertyOp11
 70
     1
102
RTVSPropertyOp12
 70
     1
102
RTVSPropertyOp13
 70
     1
102
RTVSPropertyOp14
 70
     1
102
RTVSPropertyOp15
 70
     1
102
RTVSPropertyOp16
 70
     1
102
RTVSPropertyOp17
 70
     1
102
RTVSPropertyOp18
 70
     1
102
RTVSPropertyOp19
 70
     1
102
RTVSPropertyOp20
 70
     1
102
RTVSPropertyOp21
 70
     1
102
RTVSPropertyOp22
 70
     1
102
RTVSPropertyOp23
 70
     1
102
RTVSPropertyOp24
 70
     1
102
RTVSPropertyOp25
 70
     1
102
RTVSPropertyOp26
 70
     1
102
RTVSPropertyOp27
 70
     1
102
RTVSPropertyOp28
 70
     1
102
RTVSPropertyOp29
 70
     1
102
RTVSPropertyOp30
 70
     1
102
RTVSPropertyOp31
 70
     1
102
RTVSPropertyOp32
 70
     1
102
RTVSPropertyOp33
 70
     1
102
RTVSPropertyOp34
 70
     1
102
RTVSPropertyOp35
 70
     1
102
RTVSPropertyOp36
 70
     1
102
RTVSPropertyOp37
 70
     1
102
RTVSPropertyOp38
 70
     1
102
RTVSPropertyOp39
 70
     1
102
RTVSPropertyOp40
 70
     1
102
RTVSPropertyOp41
 70
     1
102
RTVSPropertyOp42
 70
     1
102
RTVSPropertyOp43
 70
     1
102
RTVSPropertyOp44
 70
     1
102
RTVSPropertyOp45
 70
     1
102
RTVSPropertyOp46
 70
     1
102
RTVSPropertyOp47
 70
     1
102
RTVSPropertyOp48
 70
     1
102
RTVSPropertyOp49
 70
     1
102
RTVSPropertyOp50
 70
     1
102
RTVSPropertyOp51
 70
     0
102
RTVSPropertyOp52
 70
     0
102
RTVSPropertyOp53
 70
     1
102
RTVSPropertyOp54
 70
     1
102
RTVSPropertyOp55
 70
     1
102
RTVSPropertyOp56
 70
     1
102
RTVSPropertyOp57
 70
     1
102
RTVSPost2010Prop28
280
     0
102
RTVSPost2010PropOp28
 70
     1
102
RTVSPost2010Prop29
280
     1
102
RTVSPost2010PropOp29
 70
     1
102
RTVSPost2010Prop30
280
     1
102
RTVSPost2010PropOp30
 70
     1
102
RTVSPost2010Prop31
280
     0
102
RTVSPost2010PropOp31
 70
     1
102
RTVSPost2010Prop32
280
     0
102
RTVSPost2010PropOp32
 70
     1
102
RTVSPost2010Prop33
280
     0
102
RTVSPost2010PropOp33
 70
     1
102
RTVSPost2010Prop34
280
     0
102
RTVSPost2010PropOp34
 70
     1
102
RTVSPost2010Prop35
280
     0
102
RTVSPost2010PropOp35
 70
     1
102
RTVSPost2010Prop36
280
     0
102
RTVSPost2010PropOp36
 70
     1
102
RTVSPost2010Prop37
 90
       50
102
RTVSPost2010PropOp37
 70
     1
102
RTVSPost2010Prop38
140
0.0
102
RTVSPost2010PropOp38
 70
     1
102
RTVSPost2010Prop39
140
1.0
102
RTVSPost2010PropOp39
 70
     1
102
RTVSPost2010Prop40
 90
        0
102
RTVSPost2010PropOp40
 70
     1
102
RTVSPost2010Prop41ColorIndex
 90
       18
102
RTVSPost2010Prop41ColorRGB
 90
        0
102
RTVSPost2010PropOp41
 70
     1
102
RTVSPost2010Prop42
 90
       50
102
RTVSPost2010PropOp42
 70
     1
102
RTVSPost2010Prop43
 90
        3
102
RTVSPost2010PropOp43
 70
     1
102
RTVSPost2010Prop44ColorIndex
 90
        5
102
RTVSPost2010Prop44ColorRGB
 90
      255
102
RTVSPost2010PropOp44
 70
     1
102
RTVSPost2010Prop45
280
     0
102
RTVSPost2010PropOp45
 70
     1
102
RTVSPost2010Prop46
 90
       50
102
RTVSPost2010PropOp46
 70
     1
102
RTVSPost2010Prop47
 90
       50
102
RTVSPost2010PropOp47
 70
     1
102
RTVSPost2010Prop48
 90
       50
102
RTVSPost2010PropOp48
 70
     1
102
RTVSPost2010Prop49
280
     0
102
RTVSPost2010PropOp49
 70
     1
102
RTVSPost2010Prop50
 90
       50
102
RTVSPost2010PropOp50
 70
     1
102
RTVSPost2010Prop51ColorIndex
 90
      256
102
RTVSPost2010Prop51ColorRGB
 90
-16777216
102
RTVSPost2010PropOp51
 70
     0
102
RTVSPost2010Prop52
140
1.0
102
RTVSPost2010PropOp52
 70
     0
102
RTVSPost2010Prop53
 90
        2
102
RTVSPost2010PropOp53
 70
     1
102
RTVSPost2010Prop54
  1
strokes_ogs.tif
102
RTVSPost2010PropOp54
 70
     1
102
RTVSPost2010Prop55
280
     0
102
RTVSPost2010PropOp55
 70
     1
102
RTVSPost2010Prop56
140
1.0
102
RTVSPost2010PropOp56
 70
     1
102
RTVSPost2010Prop57
140
1.0
102
RTVSPost2010PropOp57
 70
     1
  0
XRECORD
  5
68A
102
{ACAD_REACTORS
330
689
102
}
330
689
100
AcDbXrecord
280
     1
102
RTVSPropertyOp0
 70
     1
102
RTVSPropertyOp1
 70
     1
102
RTVSPropertyOp2
 70
     1
102
RTVSPropertyOp3
 70
     1
102
RTVSPropertyOp4
 70
     1
102
RTVSPropertyOp5
 70
     1
102
RTVSPropertyOp6
 70
     1
102
RTVSPropertyOp7
 70
     1
102
RTVSPropertyOp8
 70
     1
102
RTVSPropertyOp9
 70
     1
102
RTVSPropertyOp10
 70
     1
102
RTVSPropertyOp11
 70
     1
102
RTVSPropertyOp12
 70
     1
102
RTVSPropertyOp13
 70
     1
102
RTVSPropertyOp14
 70
     1
102
RTVSPropertyOp15
 70
     1
102
RTVSPropertyOp16
 70
     1
102
RTVSPropertyOp17
 70
     1
102
RTVSPropertyOp18
 70
     1
102
RTVSPropertyOp19
 70
     1
102
RTVSPropertyOp20
 70
     1
102
RTVSPropertyOp21
 70
     1
102
RTVSPropertyOp22
 70
     1
102
RTVSPropertyOp23
 70
     1
102
RTVSPropertyOp24
 70
     1
102
RTVSPropertyOp25
 70
     1
102
RTVSPropertyOp26
 70
     1
102
RTVSPropertyOp27
 70
     1
102
RTVSPropertyOp28
 70
     1
102
RTVSPropertyOp29
 70
     1
102
RTVSPropertyOp30
 70
     1
102
RTVSPropertyOp31
 70
     1
102
RTVSPropertyOp32
 70
     1
102
RTVSPropertyOp33
 70
     1
102
RTVSPropertyOp34
 70
     1
102
RTVSPropertyOp35
 70
     1
102
RTVSPropertyOp36
 70
     1
102
RTVSPropertyOp37
 70
     1
102
RTVSPropertyOp38
 70
     1
102
RTVSPropertyOp39
 70
     1
102
RTVSPropertyOp40
 70
     1
102
RTVSPropertyOp41
 70
     1
102
RTVSPropertyOp42
 70
     1
102
RTVSPropertyOp43
 70
     1
102
RTVSPropertyOp44
 70
     1
102
RTVSPropertyOp45
 70
     1
102
RTVSPropertyOp46
 70
     1
102
RTVSPropertyOp47
 70
     1
102
RTVSPropertyOp48
 70
     1
102
RTVSPropertyOp49
 70
     1
102
RTVSPropertyOp50
 70
     1
102
RTVSPropertyOp51
 70
     0
102
RTVSPropertyOp52
 70
     0
102
RTVSPropertyOp53
 70
     1
102
RTVSPropertyOp54
 70
     1
102
RTVSPropertyOp55
 70
     1
102
RTVSPropertyOp56
 70
     1
102
RTVSPropertyOp57
 70
     1
102
RTVSPost2010Prop28
280
     0
102
RTVSPost2010PropOp28
 70
     1
102
RTVSPost2010Prop29
280
     1
102
RTVSPost2010PropOp29
 70
     1
102
RTVSPost2010Prop30
280
     1
102
RTVSPost2010PropOp30
 70
     1
102
RTVSPost2010Prop31
280
     0
102
RTVSPost2010PropOp31
 70
     1
102
RTVSPost2010Prop32
280
     0
102
RTVSPost2010PropOp32
 70
     1
102
RTVSPost2010Prop33
280
     0
102
RTVSPost2010PropOp33
 70
     1
102
RTVSPost2010Prop34
280
     0
102
RTVSPost2010PropOp34
 70
     1
102
RTVSPost2010Prop35
280
     0
102
RTVSPost2010PropOp35
 70
     1
102
RTVSPost2010Prop36
280
     0
102
RTVSPost2010PropOp36
 70
     1
102
RTVSPost2010Prop37
 90
       50
102
RTVSPost2010PropOp37
 70
     1
102
RTVSPost2010Prop38
140
0.0
102
RTVSPost2010PropOp38
 70
     1
102
RTVSPost2010Prop39
140
1.0
102
RTVSPost2010PropOp39
 70
     1
102
RTVSPost2010Prop40
 90
        0
102
RTVSPost2010PropOp40
 70
     1
102
RTVSPost2010Prop41ColorIndex
 90
       18
102
RTVSPost2010Prop41ColorRGB
 90
        0
102
RTVSPost2010PropOp41
 70
     1
102
RTVSPost2010Prop42
 90
       50
102
RTVSPost2010PropOp42
 70
     1
102
RTVSPost2010Prop43
 90
        3
102
RTVSPost2010PropOp43
 70
     1
102
RTVSPost2010Prop44ColorIndex
 90
        5
102
RTVSPost2010Prop44ColorRGB
 90
      255
102
RTVSPost2010PropOp44
 70
     1
102
RTVSPost2010Prop45
280
     0
102
RTVSPost2010PropOp45
 70
     1
102
RTVSPost2010Prop46
 90
       50
102
RTVSPost2010PropOp46
 70
     1
102
RTVSPost2010Prop47
 90
       50
102
RTVSPost2010PropOp47
 70
     1
102
RTVSPost2010Prop48
 90
       50
102
RTVSPost2010PropOp48
 70
     1
102
RTVSPost2010Prop49
280
     0
102
RTVSPost2010PropOp49
 70
     1
102
RTVSPost2010Prop50
 90
       50
102
RTVSPost2010PropOp50
 70
     1
102
RTVSPost2010Prop51ColorIndex
 90
      256
102
RTVSPost2010Prop51ColorRGB
 90
-16777216
102
RTVSPost2010PropOp51
 70
     0
102
RTVSPost2010Prop52
140
1.0
102
RTVSPost2010PropOp52
 70
     0
102
RTVSPost2010Prop53
 90
        2
102
RTVSPost2010PropOp53
 70
     1
102
RTVSPost2010Prop54
  1
strokes_ogs.tif
102
RTVSPost2010PropOp54
 70
     1
102
RTVSPost2010Prop55
280
     0
102
RTVSPost2010PropOp55
 70
     1
102
RTVSPost2010Prop56
140
1.0
102
RTVSPost2010PropOp56
 70
     1
102
RTVSPost2010Prop57
140
1.0
102
RTVSPost2010PropOp57
 70
     1
  0
XRECORD
  5
68C
102
{ACAD_REACTORS
330
68B
102
}
330
68B
100
AcDbXrecord
280
     1
102
RTVSPropertyOp0
 70
     1
102
RTVSPropertyOp1
 70
     1
102
RTVSPropertyOp2
 70
     1
102
RTVSPropertyOp3
 70
     1
102
RTVSPropertyOp4
 70
     1
102
RTVSPropertyOp5
 70
     1
102
RTVSPropertyOp6
 70
     1
102
RTVSPropertyOp7
 70
     1
102
RTVSPropertyOp8
 70
     1
102
RTVSPropertyOp9
 70
     1
102
RTVSPropertyOp10
 70
     1
102
RTVSPropertyOp11
 70
     1
102
RTVSPropertyOp12
 70
     1
102
RTVSPropertyOp13
 70
     1
102
RTVSPropertyOp14
 70
     1
102
RTVSPropertyOp15
 70
     1
102
RTVSPropertyOp16
 70
     1
102
RTVSPropertyOp17
 70
     1
102
RTVSPropertyOp18
 70
     1
102
RTVSPropertyOp19
 70
     1
102
RTVSPropertyOp20
 70
     1
102
RTVSPropertyOp21
 70
     1
102
RTVSPropertyOp22
 70
     1
102
RTVSPropertyOp23
 70
     1
102
RTVSPropertyOp24
 70
     1
102
RTVSPropertyOp25
 70
     1
102
RTVSPropertyOp26
 70
     1
102
RTVSPropertyOp27
 70
     1
102
RTVSPropertyOp28
 70
     1
102
RTVSPropertyOp29
 70
     1
102
RTVSPropertyOp30
 70
     1
102
RTVSPropertyOp31
 70
     1
102
RTVSPropertyOp32
 70
     1
102
RTVSPropertyOp33
 70
     1
102
RTVSPropertyOp34
 70
     1
102
RTVSPropertyOp35
 70
     1
102
RTVSPropertyOp36
 70
     1
102
RTVSPropertyOp37
 70
     1
102
RTVSPropertyOp38
 70
     1
102
RTVSPropertyOp39
 70
     1
102
RTVSPropertyOp40
 70
     1
102
RTVSPropertyOp41
 70
     1
102
RTVSPropertyOp42
 70
     1
102
RTVSPropertyOp43
 70
     1
102
RTVSPropertyOp44
 70
     1
102
RTVSPropertyOp45
 70
     1
102
RTVSPropertyOp46
 70
     1
102
RTVSPropertyOp47
 70
     1
102
RTVSPropertyOp48
 70
     1
102
RTVSPropertyOp49
 70
     1
102
RTVSPropertyOp50
 70
     1
102
RTVSPropertyOp51
 70
     0
102
RTVSPropertyOp52
 70
     0
102
RTVSPropertyOp53
 70
     1
102
RTVSPropertyOp54
 70
     1
102
RTVSPropertyOp55
 70
     1
102
RTVSPropertyOp56
 70
     1
102
RTVSPropertyOp57
 70
     1
102
RTVSPost2010Prop28
280
     0
102
RTVSPost2010PropOp28
 70
     1
102
RTVSPost2010Prop29
280
     1
102
RTVSPost2010PropOp29
 70
     1
102
RTVSPost2010Prop30
280
     1
102
RTVSPost2010PropOp30
 70
     1
102
RTVSPost2010Prop31
280
     0
102
RTVSPost2010PropOp31
 70
     1
102
RTVSPost2010Prop32
280
     0
102
RTVSPost2010PropOp32
 70
     1
102
RTVSPost2010Prop33
280
     0
102
RTVSPost2010PropOp33
 70
     1
102
RTVSPost2010Prop34
280
     0
102
RTVSPost2010PropOp34
 70
     1
102
RTVSPost2010Prop35
280
     0
102
RTVSPost2010PropOp35
 70
     1
102
RTVSPost2010Prop36
280
     0
102
RTVSPost2010PropOp36
 70
     1
102
RTVSPost2010Prop37
 90
       50
102
RTVSPost2010PropOp37
 70
     1
102
RTVSPost2010Prop38
140
0.0
102
RTVSPost2010PropOp38
 70
     1
102
RTVSPost2010Prop39
140
1.0
102
RTVSPost2010PropOp39
 70
     1
102
RTVSPost2010Prop40
 90
        0
102
RTVSPost2010PropOp40
 70
     1
102
RTVSPost2010Prop41ColorIndex
 90
       18
102
RTVSPost2010Prop41ColorRGB
 90
        0
102
RTVSPost2010PropOp41
 70
     1
102
RTVSPost2010Prop42
 90
       50
102
RTVSPost2010PropOp42
 70
     1
102
RTVSPost2010Prop43
 90
        3
102
RTVSPost2010PropOp43
 70
     1
102
RTVSPost2010Prop44ColorIndex
 90
        5
102
RTVSPost2010Prop44ColorRGB
 90
      255
102
RTVSPost2010PropOp44
 70
     1
102
RTVSPost2010Prop45
280
     0
102
RTVSPost2010PropOp45
 70
     1
102
RTVSPost2010Prop46
 90
       50
102
RTVSPost2010PropOp46
 70
     1
102
RTVSPost2010Prop47
 90
       50
102
RTVSPost2010PropOp47
 70
     1
102
RTVSPost2010Prop48
 90
       50
102
RTVSPost2010PropOp48
 70
     1
102
RTVSPost2010Prop49
280
     0
102
RTVSPost2010PropOp49
 70
     1
102
RTVSPost2010Prop50
 90
       50
102
RTVSPost2010PropOp50
 70
     1
102
RTVSPost2010Prop51ColorIndex
 90
      256
102
RTVSPost2010Prop51ColorRGB
 90
-16777216
102
RTVSPost2010PropOp51
 70
     0
102
RTVSPost2010Prop52
140
1.0
102
RTVSPost2010PropOp52
 70
     0
102
RTVSPost2010Prop53
 90
        2
102
RTVSPost2010PropOp53
 70
     1
102
RTVSPost2010Prop54
  1
strokes_ogs.tif
102
RTVSPost2010PropOp54
 70
     1
102
RTVSPost2010Prop55
280
     0
102
RTVSPost2010PropOp55
 70
     1
102
RTVSPost2010Prop56
140
1.0
102
RTVSPost2010PropOp56
 70
     1
102
RTVSPost2010Prop57
140
1.0
102
RTVSPost2010PropOp57
 70
     1
  0
XRECORD
  5
68E
102
{ACAD_REACTORS
330
68D
102
}
330
68D
100
AcDbXrecord
280
     1
102
RTVSPropertyOp0
 70
     1
102
RTVSPropertyOp1
 70
     1
102
RTVSPropertyOp2
 70
     1
102
RTVSPropertyOp3
 70
     1
102
RTVSPropertyOp4
 70
     1
102
RTVSPropertyOp5
 70
     1
102
RTVSPropertyOp6
 70
     1
102
RTVSPropertyOp7
 70
     1
102
RTVSPropertyOp8
 70
     1
102
RTVSPropertyOp9
 70
     1
102
RTVSPropertyOp10
 70
     1
102
RTVSPropertyOp11
 70
     1
102
RTVSPropertyOp12
 70
     1
102
RTVSPropertyOp13
 70
     1
102
RTVSPropertyOp14
 70
     1
102
RTVSPropertyOp15
 70
     1
102
RTVSPropertyOp16
 70
     1
102
RTVSPropertyOp17
 70
     1
102
RTVSPropertyOp18
 70
     1
102
RTVSPropertyOp19
 70
     1
102
RTVSPropertyOp20
 70
     1
102
RTVSPropertyOp21
 70
     1
102
RTVSPropertyOp22
 70
     1
102
RTVSPropertyOp23
 70
     1
102
RTVSPropertyOp24
 70
     1
102
RTVSPropertyOp25
 70
     1
102
RTVSPropertyOp26
 70
     1
102
RTVSPropertyOp27
 70
     1
102
RTVSPropertyOp28
 70
     1
102
RTVSPropertyOp29
 70
     1
102
RTVSPropertyOp30
 70
     1
102
RTVSPropertyOp31
 70
     1
102
RTVSPropertyOp32
 70
     1
102
RTVSPropertyOp33
 70
     1
102
RTVSPropertyOp34
 70
     1
102
RTVSPropertyOp35
 70
     1
102
RTVSPropertyOp36
 70
     1
102
RTVSPropertyOp37
 70
     1
102
RTVSPropertyOp38
 70
     1
102
RTVSPropertyOp39
 70
     1
102
RTVSPropertyOp40
 70
     1
102
RTVSPropertyOp41
 70
     1
102
RTVSPropertyOp42
 70
     1
102
RTVSPropertyOp43
 70
     1
102
RTVSPropertyOp44
 70
     1
102
RTVSPropertyOp45
 70
     1
102
RTVSPropertyOp46
 70
     1
102
RTVSPropertyOp47
 70
     1
102
RTVSPropertyOp48
 70
     1
102
RTVSPropertyOp49
 70
     1
102
RTVSPropertyOp50
 70
     1
102
RTVSPropertyOp51
 70
     0
102
RTVSPropertyOp52
 70
     0
102
RTVSPropertyOp53
 70
     1
102
RTVSPropertyOp54
 70
     1
102
RTVSPropertyOp55
 70
     1
102
RTVSPropertyOp56
 70
     1
102
RTVSPropertyOp57
 70
     1
102
RTVSPost2010Prop28
280
     0
102
RTVSPost2010PropOp28
 70
     1
102
RTVSPost2010Prop29
280
     1
102
RTVSPost2010PropOp29
 70
     1
102
RTVSPost2010Prop30
280
     1
102
RTVSPost2010PropOp30
 70
     1
102
RTVSPost2010Prop31
280
     0
102
RTVSPost2010PropOp31
 70
     1
102
RTVSPost2010Prop32
280
     0
102
RTVSPost2010PropOp32
 70
     1
102
RTVSPost2010Prop33
280
     0
102
RTVSPost2010PropOp33
 70
     1
102
RTVSPost2010Prop34
280
     0
102
RTVSPost2010PropOp34
 70
     1
102
RTVSPost2010Prop35
280
     0
102
RTVSPost2010PropOp35
 70
     1
102
RTVSPost2010Prop36
280
     0
102
RTVSPost2010PropOp36
 70
     1
102
RTVSPost2010Prop37
 90
       50
102
RTVSPost2010PropOp37
 70
     1
102
RTVSPost2010Prop38
140
0.0
102
RTVSPost2010PropOp38
 70
     1
102
RTVSPost2010Prop39
140
1.0
102
RTVSPost2010PropOp39
 70
     1
102
RTVSPost2010Prop40
 90
        0
102
RTVSPost2010PropOp40
 70
     1
102
RTVSPost2010Prop41ColorIndex
 90
       18
102
RTVSPost2010Prop41ColorRGB
 90
        0
102
RTVSPost2010PropOp41
 70
     1
102
RTVSPost2010Prop42
 90
       50
102
RTVSPost2010PropOp42
 70
     1
102
RTVSPost2010Prop43
 90
        3
102
RTVSPost2010PropOp43
 70
     1
102
RTVSPost2010Prop44ColorIndex
 90
        5
102
RTVSPost2010Prop44ColorRGB
 90
      255
102
RTVSPost2010PropOp44
 70
     1
102
RTVSPost2010Prop45
280
     0
102
RTVSPost2010PropOp45
 70
     1
102
RTVSPost2010Prop46
 90
       50
102
RTVSPost2010PropOp46
 70
     1
102
RTVSPost2010Prop47
 90
       50
102
RTVSPost2010PropOp47
 70
     1
102
RTVSPost2010Prop48
 90
       50
102
RTVSPost2010PropOp48
 70
     1
102
RTVSPost2010Prop49
280
     0
102
RTVSPost2010PropOp49
 70
     1
102
RTVSPost2010Prop50
 90
       50
102
RTVSPost2010PropOp50
 70
     1
102
RTVSPost2010Prop51ColorIndex
 90
      256
102
RTVSPost2010Prop51ColorRGB
 90
-16777216
102
RTVSPost2010PropOp51
 70
     0
102
RTVSPost2010Prop52
140
1.0
102
RTVSPost2010PropOp52
 70
     0
102
RTVSPost2010Prop53
 90
        2
102
RTVSPost2010PropOp53
 70
     1
102
RTVSPost2010Prop54
  1
strokes_ogs.tif
102
RTVSPost2010PropOp54
 70
     1
102
RTVSPost2010Prop55
280
     0
102
RTVSPost2010PropOp55
 70
     1
102
RTVSPost2010Prop56
140
1.0
102
RTVSPost2010PropOp56
 70
     1
102
RTVSPost2010Prop57
140
1.0
102
RTVSPost2010PropOp57
 70
     1
  0
XRECORD
  5
6A2
102
{ACAD_REACTORS
330
6A1
102
}
330
6A1
100
AcDbXrecord
280
     1
102
RTVSPropertyOp0
 70
     1
102
RTVSPropertyOp1
 70
     1
102
RTVSPropertyOp2
 70
     1
102
RTVSPropertyOp3
 70
     1
102
RTVSPropertyOp4
 70
     1
102
RTVSPropertyOp5
 70
     1
102
RTVSPropertyOp6
 70
     1
102
RTVSPropertyOp7
 70
     1
102
RTVSPropertyOp8
 70
     1
102
RTVSPropertyOp9
 70
     1
102
RTVSPropertyOp10
 70
     1
102
RTVSPropertyOp11
 70
     1
102
RTVSPropertyOp12
 70
     1
102
RTVSPropertyOp13
 70
     1
102
RTVSPropertyOp14
 70
     1
102
RTVSPropertyOp15
 70
     1
102
RTVSPropertyOp16
 70
     1
102
RTVSPropertyOp17
 70
     1
102
RTVSPropertyOp18
 70
     1
102
RTVSPropertyOp19
 70
     1
102
RTVSPropertyOp20
 70
     1
102
RTVSPropertyOp21
 70
     1
102
RTVSPropertyOp22
 70
     1
102
RTVSPropertyOp23
 70
     1
102
RTVSPropertyOp24
 70
     1
102
RTVSPropertyOp25
 70
     1
102
RTVSPropertyOp26
 70
     1
102
RTVSPropertyOp27
 70
     1
102
RTVSPropertyOp28
 70
     1
102
RTVSPropertyOp29
 70
     1
102
RTVSPropertyOp30
 70
     1
102
RTVSPropertyOp31
 70
     1
102
RTVSPropertyOp32
 70
     1
102
RTVSPropertyOp33
 70
     1
102
RTVSPropertyOp34
 70
     1
102
RTVSPropertyOp35
 70
     1
102
RTVSPropertyOp36
 70
     1
102
RTVSPropertyOp37
 70
     1
102
RTVSPropertyOp38
 70
     1
102
RTVSPropertyOp39
 70
     1
102
RTVSPropertyOp40
 70
     1
102
RTVSPropertyOp41
 70
     1
102
RTVSPropertyOp42
 70
     1
102
RTVSPropertyOp43
 70
     1
102
RTVSPropertyOp44
 70
     1
102
RTVSPropertyOp45
 70
     1
102
RTVSPropertyOp46
 70
     1
102
RTVSPropertyOp47
 70
     1
102
RTVSPropertyOp48
 70
     1
102
RTVSPropertyOp49
 70
     1
102
RTVSPropertyOp50
 70
     1
102
RTVSPropertyOp51
 70
     0
102
RTVSPropertyOp52
 70
     0
102
RTVSPropertyOp53
 70
     1
102
RTVSPropertyOp54
 70
     1
102
RTVSPropertyOp55
 70
     1
102
RTVSPropertyOp56
 70
     1
102
RTVSPropertyOp57
 70
     1
102
RTVSPost2010Prop28
280
     0
102
RTVSPost2010PropOp28
 70
     1
102
RTVSPost2010Prop29
280
     1
102
RTVSPost2010PropOp29
 70
     1
102
RTVSPost2010Prop30
280
     1
102
RTVSPost2010PropOp30
 70
     1
102
RTVSPost2010Prop31
280
     0
102
RTVSPost2010PropOp31
 70
     1
102
RTVSPost2010Prop32
280
     0
102
RTVSPost2010PropOp32
 70
     1
102
RTVSPost2010Prop33
280
     0
102
RTVSPost2010PropOp33
 70
     1
102
RTVSPost2010Prop34
280
     0
102
RTVSPost2010PropOp34
 70
     1
102
RTVSPost2010Prop35
280
     0
102
RTVSPost2010PropOp35
 70
     1
102
RTVSPost2010Prop36
280
     0
102
RTVSPost2010PropOp36
 70
     1
102
RTVSPost2010Prop37
 90
       50
102
RTVSPost2010PropOp37
 70
     1
102
RTVSPost2010Prop38
140
0.0
102
RTVSPost2010PropOp38
 70
     1
102
RTVSPost2010Prop39
140
1.0
102
RTVSPost2010PropOp39
 70
     1
102
RTVSPost2010Prop40
 90
        0
102
RTVSPost2010PropOp40
 70
     1
102
RTVSPost2010Prop41ColorIndex
 90
       18
102
RTVSPost2010Prop41ColorRGB
 90
        0
102
RTVSPost2010PropOp41
 70
     1
102
RTVSPost2010Prop42
 90
       50
102
RTVSPost2010PropOp42
 70
     1
102
RTVSPost2010Prop43
 90
        3
102
RTVSPost2010PropOp43
 70
     1
102
RTVSPost2010Prop44ColorIndex
 90
        5
102
RTVSPost2010Prop44ColorRGB
 90
      255
102
RTVSPost2010PropOp44
 70
     1
102
RTVSPost2010Prop45
280
     0
102
RTVSPost2010PropOp45
 70
     1
102
RTVSPost2010Prop46
 90
       50
102
RTVSPost2010PropOp46
 70
     1
102
RTVSPost2010Prop47
 90
       50
102
RTVSPost2010PropOp47
 70
     1
102
RTVSPost2010Prop48
 90
       50
102
RTVSPost2010PropOp48
 70
     1
102
RTVSPost2010Prop49
280
     0
102
RTVSPost2010PropOp49
 70
     1
102
RTVSPost2010Prop50
 90
       50
102
RTVSPost2010PropOp50
 70
     1
102
RTVSPost2010Prop51ColorIndex
 90
      256
102
RTVSPost2010Prop51ColorRGB
 90
-16777216
102
RTVSPost2010PropOp51
 70
     0
102
RTVSPost2010Prop52
140
1.0
102
RTVSPost2010PropOp52
 70
     0
102
RTVSPost2010Prop53
 90
        2
102
RTVSPost2010PropOp53
 70
     1
102
RTVSPost2010Prop54
  1
strokes_ogs.tif
102
RTVSPost2010PropOp54
 70
     1
102
RTVSPost2010Prop55
280
     0
102
RTVSPost2010PropOp55
 70
     1
102
RTVSPost2010Prop56
140
1.0
102
RTVSPost2010PropOp56
 70
     1
102
RTVSPost2010Prop57
140
1.0
102
RTVSPost2010PropOp57
 70
     1
  0
XRECORD
  5
698
102
{ACAD_REACTORS
330
697
102
}
330
697
100
AcDbXrecord
280
     1
102
RTVSPropertyOp0
 70
     1
102
RTVSPropertyOp1
 70
     1
102
RTVSPropertyOp2
 70
     1
102
RTVSPropertyOp3
 70
     1
102
RTVSPropertyOp4
 70
     1
102
RTVSPropertyOp5
 70
     1
102
RTVSPropertyOp6
 70
     1
102
RTVSPropertyOp7
 70
     1
102
RTVSPropertyOp8
 70
     1
102
RTVSPropertyOp9
 70
     1
102
RTVSPropertyOp10
 70
     1
102
RTVSPropertyOp11
 70
     1
102
RTVSPropertyOp12
 70
     1
102
RTVSPropertyOp13
 70
     1
102
RTVSPropertyOp14
 70
     1
102
RTVSPropertyOp15
 70
     1
102
RTVSPropertyOp16
 70
     1
102
RTVSPropertyOp17
 70
     1
102
RTVSPropertyOp18
 70
     1
102
RTVSPropertyOp19
 70
     1
102
RTVSPropertyOp20
 70
     1
102
RTVSPropertyOp21
 70
     1
102
RTVSPropertyOp22
 70
     1
102
RTVSPropertyOp23
 70
     1
102
RTVSPropertyOp24
 70
     1
102
RTVSPropertyOp25
 70
     1
102
RTVSPropertyOp26
 70
     1
102
RTVSPropertyOp27
 70
     1
102
RTVSPropertyOp28
 70
     1
102
RTVSPropertyOp29
 70
     1
102
RTVSPropertyOp30
 70
     1
102
RTVSPropertyOp31
 70
     1
102
RTVSPropertyOp32
 70
     1
102
RTVSPropertyOp33
 70
     1
102
RTVSPropertyOp34
 70
     1
102
RTVSPropertyOp35
 70
     1
102
RTVSPropertyOp36
 70
     1
102
RTVSPropertyOp37
 70
     1
102
RTVSPropertyOp38
 70
     1
102
RTVSPropertyOp39
 70
     1
102
RTVSPropertyOp40
 70
     1
102
RTVSPropertyOp41
 70
     1
102
RTVSPropertyOp42
 70
     1
102
RTVSPropertyOp43
 70
     1
102
RTVSPropertyOp44
 70
     1
102
RTVSPropertyOp45
 70
     1
102
RTVSPropertyOp46
 70
     1
102
RTVSPropertyOp47
 70
     1
102
RTVSPropertyOp48
 70
     1
102
RTVSPropertyOp49
 70
     1
102
RTVSPropertyOp50
 70
     1
102
RTVSPropertyOp51
 70
     0
102
RTVSPropertyOp52
 70
     0
102
RTVSPropertyOp53
 70
     1
102
RTVSPropertyOp54
 70
     1
102
RTVSPropertyOp55
 70
     1
102
RTVSPropertyOp56
 70
     1
102
RTVSPropertyOp57
 70
     1
102
RTVSPost2010Prop28
280
     0
102
RTVSPost2010PropOp28
 70
     1
102
RTVSPost2010Prop29
280
     1
102
RTVSPost2010PropOp29
 70
     1
102
RTVSPost2010Prop30
280
     1
102
RTVSPost2010PropOp30
 70
     1
102
RTVSPost2010Prop31
280
     0
102
RTVSPost2010PropOp31
 70
     1
102
RTVSPost2010Prop32
280
     0
102
RTVSPost2010PropOp32
 70
     1
102
RTVSPost2010Prop33
280
     0
102
RTVSPost2010PropOp33
 70
     1
102
RTVSPost2010Prop34
280
     0
102
RTVSPost2010PropOp34
 70
     1
102
RTVSPost2010Prop35
280
     0
102
RTVSPost2010PropOp35
 70
     1
102
RTVSPost2010Prop36
280
     0
102
RTVSPost2010PropOp36
 70
     1
102
RTVSPost2010Prop37
 90
       50
102
RTVSPost2010PropOp37
 70
     1
102
RTVSPost2010Prop38
140
0.0
102
RTVSPost2010PropOp38
 70
     1
102
RTVSPost2010Prop39
140
1.0
102
RTVSPost2010PropOp39
 70
     1
102
RTVSPost2010Prop40
 90
        0
102
RTVSPost2010PropOp40
 70
     1
102
RTVSPost2010Prop41ColorIndex
 90
       18
102
RTVSPost2010Prop41ColorRGB
 90
        0
102
RTVSPost2010PropOp41
 70
     1
102
RTVSPost2010Prop42
 90
       50
102
RTVSPost2010PropOp42
 70
     1
102
RTVSPost2010Prop43
 90
        3
102
RTVSPost2010PropOp43
 70
     1
102
RTVSPost2010Prop44ColorIndex
 90
        5
102
RTVSPost2010Prop44ColorRGB
 90
      255
102
RTVSPost2010PropOp44
 70
     1
102
RTVSPost2010Prop45
280
     0
102
RTVSPost2010PropOp45
 70
     1
102
RTVSPost2010Prop46
 90
       50
102
RTVSPost2010PropOp46
 70
     1
102
RTVSPost2010Prop47
 90
       50
102
RTVSPost2010PropOp47
 70
     1
102
RTVSPost2010Prop48
 90
       50
102
RTVSPost2010PropOp48
 70
     1
102
RTVSPost2010Prop49
280
     0
102
RTVSPost2010PropOp49
 70
     1
102
RTVSPost2010Prop50
 90
       50
102
RTVSPost2010PropOp50
 70
     1
102
RTVSPost2010Prop51ColorIndex
 90
      256
102
RTVSPost2010Prop51ColorRGB
 90
-16777216
102
RTVSPost2010PropOp51
 70
     0
102
RTVSPost2010Prop52
140
1.0
102
RTVSPost2010PropOp52
 70
     0
102
RTVSPost2010Prop53
 90
        2
102
RTVSPost2010PropOp53
 70
     1
102
RTVSPost2010Prop54
  1
strokes_ogs.tif
102
RTVSPost2010PropOp54
 70
     1
102
RTVSPost2010Prop55
280
     0
102
RTVSPost2010PropOp55
 70
     1
102
RTVSPost2010Prop56
140
1.0
102
RTVSPost2010PropOp56
 70
     1
102
RTVSPost2010Prop57
140
1.0
102
RTVSPost2010PropOp57
 70
     1
  0
XRECORD
  5
6A0
102
{ACAD_REACTORS
330
69F
102
}
330
69F
100
AcDbXrecord
280
     1
102
RTVSPropertyOp0
 70
     1
102
RTVSPropertyOp1
 70
     1
102
RTVSPropertyOp2
 70
     1
102
RTVSPropertyOp3
 70
     1
102
RTVSPropertyOp4
 70
     1
102
RTVSPropertyOp5
 70
     1
102
RTVSPropertyOp6
 70
     1
102
RTVSPropertyOp7
 70
     1
102
RTVSPropertyOp8
 70
     1
102
RTVSPropertyOp9
 70
     1
102
RTVSPropertyOp10
 70
     1
102
RTVSPropertyOp11
 70
     1
102
RTVSPropertyOp12
 70
     1
102
RTVSPropertyOp13
 70
     1
102
RTVSPropertyOp14
 70
     1
102
RTVSPropertyOp15
 70
     1
102
RTVSPropertyOp16
 70
     1
102
RTVSPropertyOp17
 70
     1
102
RTVSPropertyOp18
 70
     1
102
RTVSPropertyOp19
 70
     1
102
RTVSPropertyOp20
 70
     1
102
RTVSPropertyOp21
 70
     1
102
RTVSPropertyOp22
 70
     1
102
RTVSPropertyOp23
 70
     1
102
RTVSPropertyOp24
 70
     1
102
RTVSPropertyOp25
 70
     1
102
RTVSPropertyOp26
 70
     1
102
RTVSPropertyOp27
 70
     1
102
RTVSPropertyOp28
 70
     1
102
RTVSPropertyOp29
 70
     1
102
RTVSPropertyOp30
 70
     1
102
RTVSPropertyOp31
 70
     1
102
RTVSPropertyOp32
 70
     1
102
RTVSPropertyOp33
 70
     1
102
RTVSPropertyOp34
 70
     1
102
RTVSPropertyOp35
 70
     1
102
RTVSPropertyOp36
 70
     1
102
RTVSPropertyOp37
 70
     1
102
RTVSPropertyOp38
 70
     1
102
RTVSPropertyOp39
 70
     1
102
RTVSPropertyOp40
 70
     1
102
RTVSPropertyOp41
 70
     1
102
RTVSPropertyOp42
 70
     1
102
RTVSPropertyOp43
 70
     1
102
RTVSPropertyOp44
 70
     1
102
RTVSPropertyOp45
 70
     1
102
RTVSPropertyOp46
 70
     1
102
RTVSPropertyOp47
 70
     1
102
RTVSPropertyOp48
 70
     1
102
RTVSPropertyOp49
 70
     1
102
RTVSPropertyOp50
 70
     1
102
RTVSPropertyOp51
 70
     0
102
RTVSPropertyOp52
 70
     0
102
RTVSPropertyOp53
 70
     1
102
RTVSPropertyOp54
 70
     1
102
RTVSPropertyOp55
 70
     1
102
RTVSPropertyOp56
 70
     1
102
RTVSPropertyOp57
 70
     1
102
RTVSPost2010Prop28
280
     0
102
RTVSPost2010PropOp28
 70
     1
102
RTVSPost2010Prop29
280
     1
102
RTVSPost2010PropOp29
 70
     1
102
RTVSPost2010Prop30
280
     1
102
RTVSPost2010PropOp30
 70
     1
102
RTVSPost2010Prop31
280
     0
102
RTVSPost2010PropOp31
 70
     1
102
RTVSPost2010Prop32
280
     0
102
RTVSPost2010PropOp32
 70
     1
102
RTVSPost2010Prop33
280
     0
102
RTVSPost2010PropOp33
 70
     1
102
RTVSPost2010Prop34
280
     0
102
RTVSPost2010PropOp34
 70
     1
102
RTVSPost2010Prop35
280
     0
102
RTVSPost2010PropOp35
 70
     1
102
RTVSPost2010Prop36
280
     0
102
RTVSPost2010PropOp36
 70
     1
102
RTVSPost2010Prop37
 90
       50
102
RTVSPost2010PropOp37
 70
     1
102
RTVSPost2010Prop38
140
0.0
102
RTVSPost2010PropOp38
 70
     1
102
RTVSPost2010Prop39
140
1.0
102
RTVSPost2010PropOp39
 70
     1
102
RTVSPost2010Prop40
 90
        0
102
RTVSPost2010PropOp40
 70
     1
102
RTVSPost2010Prop41ColorIndex
 90
       18
102
RTVSPost2010Prop41ColorRGB
 90
        0
102
RTVSPost2010PropOp41
 70
     1
102
RTVSPost2010Prop42
 90
       50
102
RTVSPost2010PropOp42
 70
     1
102
RTVSPost2010Prop43
 90
        3
102
RTVSPost2010PropOp43
 70
     1
102
RTVSPost2010Prop44ColorIndex
 90
        5
102
RTVSPost2010Prop44ColorRGB
 90
      255
102
RTVSPost2010PropOp44
 70
     1
102
RTVSPost2010Prop45
280
     0
102
RTVSPost2010PropOp45
 70
     1
102
RTVSPost2010Prop46
 90
       50
102
RTVSPost2010PropOp46
 70
     1
102
RTVSPost2010Prop47
 90
       50
102
RTVSPost2010PropOp47
 70
     1
102
RTVSPost2010Prop48
 90
       50
102
RTVSPost2010PropOp48
 70
     1
102
RTVSPost2010Prop49
280
     0
102
RTVSPost2010PropOp49
 70
     1
102
RTVSPost2010Prop50
 90
       50
102
RTVSPost2010PropOp50
 70
     1
102
RTVSPost2010Prop51ColorIndex
 90
      256
102
RTVSPost2010Prop51ColorRGB
 90
-16777216
102
RTVSPost2010PropOp51
 70
     0
102
RTVSPost2010Prop52
140
1.0
102
RTVSPost2010PropOp52
 70
     0
102
RTVSPost2010Prop53
 90
        2
102
RTVSPost2010PropOp53
 70
     1
102
RTVSPost2010Prop54
  1
strokes_ogs.tif
102
RTVSPost2010PropOp54
 70
     1
102
RTVSPost2010Prop55
280
     0
102
RTVSPost2010PropOp55
 70
     1
102
RTVSPost2010Prop56
140
1.0
102
RTVSPost2010PropOp56
 70
     1
102
RTVSPost2010Prop57
140
1.0
102
RTVSPost2010PropOp57
 70
     1
  0
ENDSEC
  0
EOF
