  0
SECTION
  2
HEADER
  9
$ACADVER
  1
AC1018
  9
$ACADMAINTVER
 70
     0
  9
$DWGCODEPAGE
  3
ANSI_936
  9
$INSBASE
 10
0.0
 20
0.0
 30
0.0
  9
$EXTMIN
 10
775.606798417054
 20
323.6067993113121
 30
0.0
  9
$EXTMAX
 10
1151.606798417077
 20
440.703563207398
 30
0.0
  9
$LIMMIN
 10
0.0
 20
0.0
  9
$LIMMAX
 10
12.0
 20
9.0
  9
$ORTHOMODE
 70
     0
  9
$REGENMODE
 70
     1
  9
$FILLMODE
 70
     1
  9
$QTEXTMODE
 70
     0
  9
$MIRRTEXT
 70
     1
  9
$LTSCALE
 40
1.0
  9
$ATTMODE
 70
     1
  9
$TEXTSIZE
 40
0.2
  9
$TRACEWID
 40
0.05
  9
$TEXTSTYLE
  7
Standard
  9
$CLAYER
  8
Temp
  9
$CELTYPE
  6
ByLayer
  9
$CECOLOR
 62
   256
  9
$CELTSCALE
 40
1.0
  9
$DISPSILH
 70
     0
  9
$DIMSCALE
 40
1.0
  9
$DIMASZ
 40
0.18
  9
$DIMEXO
 40
0.0625
  9
$DIMDLI
 40
0.38
  9
$DIMRND
 40
0.0
  9
$DIMDLE
 40
0.0
  9
$DIMEXE
 40
0.18
  9
$DIMTP
 40
0.0
  9
$DIMTM
 40
0.0
  9
$DIMTXT
 40
0.18
  9
$DIMCEN
 40
0.09
  9
$DIMTSZ
 40
0.0
  9
$DIMTOL
 70
     0
  9
$DIMLIM
 70
     0
  9
$DIMTIH
 70
     1
  9
$DIMTOH
 70
     1
  9
$DIMSE1
 70
     0
  9
$DIMSE2
 70
     0
  9
$DIMTAD
 70
     0
  9
$DIMZIN
 70
     0
  9
$DIMBLK
  1

  9
$DIMASO
 70
     1
  9
$DIMSHO
 70
     1
  9
$DIMPOST
  1

  9
$DIMAPOST
  1

  9
$DIMALT
 70
     0
  9
$DIMALTD
 70
     2
  9
$DIMALTF
 40
25.4
  9
$DIMLFAC
 40
1.0
  9
$DIMTOFL
 70
     0
  9
$DIMTVP
 40
0.0
  9
$DIMTIX
 70
     0
  9
$DIMSOXD
 70
     0
  9
$DIMSAH
 70
     0
  9
$DIMBLK1
  1

  9
$DIMBLK2
  1

  9
$DIMSTYLE
  2
Standard
  9
$DIMCLRD
 70
     0
  9
$DIMCLRE
 70
     0
  9
$DIMCLRT
 70
     0
  9
$DIMTFAC
 40
1.0
  9
$DIMGAP
 40
0.09
  9
$DIMJUST
 70
     0
  9
$DIMSD1
 70
     0
  9
$DIMSD2
 70
     0
  9
$DIMTOLJ
 70
     1
  9
$DIMTZIN
 70
     0
  9
$DIMALTZ
 70
     0
  9
$DIMALTTZ
 70
     0
  9
$DIMUPT
 70
     0
  9
$DIMDEC
 70
     4
  9
$DIMTDEC
 70
     4
  9
$DIMALTU
 70
     2
  9
$DIMALTTD
 70
     2
  9
$DIMTXSTY
  7
Standard
  9
$DIMAUNIT
 70
     0
  9
$DIMADEC
 70
     0
  9
$DIMALTRND
 40
0.0
  9
$DIMAZIN
 70
     0
  9
$DIMDSEP
 70
    46
  9
$DIMATFIT
 70
     3
  9
$DIMFRAC
 70
     0
  9
$DIMLDRBLK
  1

  9
$DIMLUNIT
 70
     2
  9
$DIMLWD
 70
    -2
  9
$DIMLWE
 70
    -2
  9
$DIMTMOVE
 70
     2
  9
$LUNITS
 70
     2
  9
$LUPREC
 70
     3
  9
$SKETCHINC
 40
0.1
  9
$FILLETRAD
 40
0.5
  9
$AUNITS
 70
     0
  9
$AUPREC
 70
     0
  9
$MENU
  1
.
  9
$ELEVATION
 40
0.0
  9
$PELEVATION
 40
0.0
  9
$THICKNESS
 40
0.0
  9
$LIMCHECK
 70
     0
  9
$CHAMFERA
 40
0.5
  9
$CHAMFERB
 40
0.5
  9
$CHAMFERC
 40
1.0
  9
$CHAMFERD
 40
0.0
  9
$SKPOLY
 70
     0
  9
$TDCREATE
 40
2457487.081558241
  9
$TDUCREATE
 40
2457486.748224908
  9
$TDUPDATE
 40
2457487.081558414
  9
$TDUUPDATE
 40
2457486.748225081
  9
$TDINDWG
 40
0.0000000116
  9
$TDUSRTIMER
 40
0.0000000116
  9
$USRTIMER
 70
     1
  9
$ANGBASE
 50
0.0
  9
$ANGDIR
 70
     0
  9
$PDMODE
 70
     0
  9
$PDSIZE
 40
0.0
  9
$PLINEWID
 40
0.0
  9
$SPLFRAME
 70
     0
  9
$SPLINETYPE
 70
     6
  9
$SPLINESEGS
 70
     8
  9
$HANDSEED
  5
5AF
  9
$SURFTAB1
 70
     6
  9
$SURFTAB2
 70
     6
  9
$SURFTYPE
 70
     6
  9
$SURFU
 70
     6
  9
$SURFV
 70
     6
  9
$UCSBASE
  2

  9
$UCSNAME
  2

  9
$UCSORG
 10
0.0
 20
0.0
 30
0.0
  9
$UCSXDIR
 10
1.0
 20
0.0
 30
0.0
  9
$UCSYDIR
 10
0.0
 20
1.0
 30
0.0
  9
$UCSORTHOREF
  2

  9
$UCSORTHOVIEW
 70
     0
  9
$UCSORGTOP
 10
0.0
 20
0.0
 30
0.0
  9
$UCSORGBOTTOM
 10
0.0
 20
0.0
 30
0.0
  9
$UCSORGLEFT
 10
0.0
 20
0.0
 30
0.0
  9
$UCSORGRIGHT
 10
0.0
 20
0.0
 30
0.0
  9
$UCSORGFRONT
 10
0.0
 20
0.0
 30
0.0
  9
$UCSORGBACK
 10
0.0
 20
0.0
 30
0.0
  9
$PUCSBASE
  2

  9
$PUCSNAME
  2

  9
$PUCSORG
 10
0.0
 20
0.0
 30
0.0
  9
$PUCSXDIR
 10
1.0
 20
0.0
 30
0.0
  9
$PUCSYDIR
 10
0.0
 20
1.0
 30
0.0
  9
$PUCSORTHOREF
  2

  9
$PUCSORTHOVIEW
 70
     0
  9
$PUCSORGTOP
 10
0.0
 20
0.0
 30
0.0
  9
$PUCSORGBOTTOM
 10
0.0
 20
0.0
 30
0.0
  9
$PUCSORGLEFT
 10
0.0
 20
0.0
 30
0.0
  9
$PUCSORGRIGHT
 10
0.0
 20
0.0
 30
0.0
  9
$PUCSORGFRONT
 10
0.0
 20
0.0
 30
0.0
  9
$PUCSORGBACK
 10
0.0
 20
0.0
 30
0.0
  9
$USERI1
 70
     0
  9
$USERI2
 70
     0
  9
$USERI3
 70
     0
  9
$USERI4
 70
     0
  9
$USERI5
 70
     0
  9
$USERR1
 40
0.0
  9
$USERR2
 40
0.0
  9
$USERR3
 40
0.0
  9
$USERR4
 40
0.0
  9
$USERR5
 40
0.0
  9
$WORLDVIEW
 70
     1
  9
$SHADEDGE
 70
     3
  9
$SHADEDIF
 70
    70
  9
$TILEMODE
 70
     1
  9
$MAXACTVP
 70
    64
  9
$PINSBASE
 10
0.0
 20
0.0
 30
0.0
  9
$PLIMCHECK
 70
     0
  9
$PEXTMIN
 10
1.000000000000000E+20
 20
1.000000000000000E+20
 30
1.000000000000000E+20
  9
$PEXTMAX
 10
-1.000000000000000E+20
 20
-1.000000000000000E+20
 30
-1.000000000000000E+20
  9
$PLIMMIN
 10
0.0
 20
0.0
  9
$PLIMMAX
 10
12.0
 20
9.0
  9
$UNITMODE
 70
     0
  9
$VISRETAIN
 70
     1
  9
$PLINEGEN
 70
     0
  9
$PSLTSCALE
 70
     1
  9
$TREEDEPTH
 70
  3020
  9
$CMLSTYLE
  2
Standard
  9
$CMLJUST
 70
     0
  9
$CMLSCALE
 40
1.0
  9
$PROXYGRAPHICS
 70
     1
  9
$MEASUREMENT
 70
     0
  9
$CELWEIGHT
370
    -1
  9
$ENDCAPS
280
     0
  9
$JOINSTYLE
280
     0
  9
$LWDISPLAY
290
     0
  9
$INSUNITS
 70
     4
  9
$HYPERLINKBASE
  1

  9
$STYLESHEET
  1

  9
$XEDIT
290
     1
  9
$CEPSNTYPE
380
     0
  9
$PSTYLEMODE
290
     1
  9
$FINGERPRINTGUID
  2
{30EDDDA7-E57C-401C-98F2-8E8B7B22CA3B}
  9
$VERSIONGUID
  2
{FAEB1C32-E019-11D5-929B-00C0DF256EC4}
  9
$EXTNAMES
290
     1
  9
$PSVPSCALE
 40
0.0
  9
$OLESTARTUP
290
     0
  9
$SORTENTS
280
   127
  9
$INDEXCTL
280
     0
  9
$HIDETEXT
280
     1
  9
$XCLIPFRAME
290
     0
  9
$HALOGAP
280
     0
  9
$OBSCOLOR
 70
   257
  9
$OBSLTYPE
280
     0
  9
$INTERSECTIONDISPLAY
280
     0
  9
$INTERSECTIONCOLOR
 70
   257
  9
$DIMASSOC
280
     2
  9
$PROJECTNAME
  1

  0
ENDSEC
  0
SECTION
  2
CLASSES
  0
CLASS
  1
ACDBDICTIONARYWDFLT
  2
AcDbDictionaryWithDefault
  3
ObjectDBX Classes
 90
        0
 91
        4
280
     0
281
     0
  0
CLASS
  1
VISUALSTYLE
  2
AcDbVisualStyle
  3
ObjectDBX Classes
 90
     4095
 91
        4
280
     0
281
     0
  0
CLASS
  1
MATERIAL
  2
AcDbMaterial
  3
ObjectDBX Classes
 90
     1153
 91
        4
280
     0
281
     0
  0
CLASS
  1
SCALE
  2
AcDbScale
  3
ObjectDBX Classes
 90
     1153
 91
        4
280
     0
281
     0
  0
CLASS
  1
SUN
  2
AcDbSun
  3
SCENEOE
 90
     1153
 91
        4
280
     0
281
     0
  0
CLASS
  1
DICTIONARYVAR
  2
AcDbDictionaryVar
  3
ObjectDBX Classes
 90
        0
 91
        4
280
     0
281
     0
  0
ENDSEC
  0
SECTION
  2
TABLES
  0
TABLE
  2
VPORT
  5
8
330
0
100
AcDbSymbolTable
 70
     1
  0
VPORT
  5
29
330
8
100
AcDbSymbolTableRecord
100
AcDbViewportTableRecord
  2
*Active
 70
     0
 10
0.0
 20
0.0
 11
1.0
 21
1.0
 12
963.6067984170655
 22
382.1549482383746
 13
0.0
 23
0.0
 14
0.5
 24
0.5
 15
0.5
 25
0.5
 16
0.0
 26
0.0
 36
1.0
 17
0.0
 27
0.0
 37
0.0
 40
119.4382238112074
 41
3.211032345945128
 42
50.0
 43
0.0
 44
0.0
 50
0.0
 51
0.0
 71
     0
 72
   100
 73
     1
 74
     3
 75
     0
 76
     0
 77
     0
 78
     0
281
     0
 65
     1
110
0.0
120
0.0
130
0.0
111
1.0
121
0.0
131
0.0
112
0.0
122
1.0
132
0.0
 79
     0
146
0.0
  0
ENDTAB
  0
TABLE
  2
LTYPE
  5
5
330
0
100
AcDbSymbolTable
 70
     1
  0
LTYPE
  5
14
330
5
100
AcDbSymbolTableRecord
100
AcDbLinetypeTableRecord
  2
ByBlock
 70
     0
  3

 72
    65
 73
     0
 40
0.0
  0
LTYPE
  5
15
330
5
100
AcDbSymbolTableRecord
100
AcDbLinetypeTableRecord
  2
ByLayer
 70
     0
  3

 72
    65
 73
     0
 40
0.0
  0
LTYPE
  5
16
330
5
100
AcDbSymbolTableRecord
100
AcDbLinetypeTableRecord
  2
Continuous
 70
     0
  3
Solid line
 72
    65
 73
     0
 40
0.0
  0
ENDTAB
  0
TABLE
  2
LAYER
  5
2
330
0
100
AcDbSymbolTable
 70
     3
  0
LAYER
  5
10
330
2
100
AcDbSymbolTableRecord
100
AcDbLayerTableRecord
  2
0
 70
     0
 62
     7
  6
Continuous
370
    -3
390
F
  0
LAYER
  5
62
330
2
100
AcDbSymbolTableRecord
100
AcDbLayerTableRecord
  2
Make2D$可见线$普通线
 70
     0
 62
    18
420
        0
  6
Continuous
370
    -3
390
F
  0
LAYER
  5
9A
330
2
100
AcDbSymbolTableRecord
100
AcDbLayerTableRecord
  2
Temp
 70
     0
 62
    18
420
        0
  6
Continuous
370
    -3
390
F
  0
ENDTAB
  0
TABLE
  2
STYLE
  5
3
330
0
100
AcDbSymbolTable
 70
     1
  0
STYLE
  5
11
330
3
100
AcDbSymbolTableRecord
100
AcDbTextStyleTableRecord
  2
Standard
 70
     0
 40
0.0
 41
1.0
 50
0.0
 71
     0
 42
0.2
  3
txt
  4

  0
ENDTAB
  0
TABLE
  2
VIEW
  5
6
330
0
100
AcDbSymbolTable
 70
     0
  0
ENDTAB
  0
TABLE
  2
UCS
  5
7
330
0
100
AcDbSymbolTable
 70
     0
  0
ENDTAB
  0
TABLE
  2
APPID
  5
9
330
0
100
AcDbSymbolTable
 70
     1
  0
APPID
  5
12
330
9
100
AcDbSymbolTableRecord
100
AcDbRegAppTableRecord
  2
ACAD
 70
     0
  0
ENDTAB
  0
TABLE
  2
DIMSTYLE
  5
A
330
0
100
AcDbSymbolTable
 70
     1
100
AcDbDimStyleTable
  0
DIMSTYLE
105
27
330
A
100
AcDbSymbolTableRecord
100
AcDbDimStyleTableRecord
  2
Standard
 70
     0
178
     0
340
11
  0
ENDTAB
  0
TABLE
  2
BLOCK_RECORD
  5
1
330
0
100
AcDbSymbolTable
 70
     1
  0
BLOCK_RECORD
  5
1F
330
1
100
AcDbSymbolTableRecord
100
AcDbBlockTableRecord
  2
*Model_Space
340
22
  0
BLOCK_RECORD
  5
1B
330
1
100
AcDbSymbolTableRecord
100
AcDbBlockTableRecord
  2
*Paper_Space
340
1E
  0
BLOCK_RECORD
  5
23
330
1
100
AcDbSymbolTableRecord
100
AcDbBlockTableRecord
  2
*Paper_Space0
340
26
  0
ENDTAB
  0
ENDSEC
  0
SECTION
  2
BLOCKS
  0
BLOCK
  5
20
330
1F
100
AcDbEntity
  8
0
100
AcDbBlockBegin
  2
*Model_Space
 70
     0
 10
0.0
 20
0.0
 30
0.0
  3
*Model_Space
  1
*Model_Space
  0
ENDBLK
  5
21
330
1F
100
AcDbEntity
  8
0
100
AcDbBlockEnd
  0
BLOCK
  5
1C
330
1B
100
AcDbEntity
 67
     1
  8
0
100
AcDbBlockBegin
  2
*Paper_Space
 70
     0
 10
0.0
 20
0.0
 30
0.0
  3
*Paper_Space
  1
*Paper_Space
  0
ENDBLK
  5
1D
330
1B
100
AcDbEntity
 67
     1
  8
0
100
AcDbBlockEnd
  0
BLOCK
  5
24
330
23
100
AcDbEntity
  8
0
100
AcDbBlockBegin
  2
*Paper_Space0
 70
     0
 10
0.0
 20
0.0
 30
0.0
  3
*Paper_Space0
  1
*Paper_Space0
  0
ENDBLK
  5
25
330
23
100
AcDbEntity
  8
0
100
AcDbBlockEnd
  0
ENDSEC
  0
SECTION
  2
ENTITIES
  0
POLYLINE
  5
63
330
1F
100
AcDbEntity
  8
Make2D$可见线$普通线
100
AcDb2dPolyline
 66
     1
 10
0.0
 20
0.0
 30
0.0
  0
VERTEX
  5
64
330
63
100
AcDbEntity
  8
Make2D$可见线$普通线
100
AcDbVertex
100
AcDb2dVertex
 10
851.363162765266
 20
370.5648515235368
 30
0.0
  0
VERTEX
  5
65
330
63
100
AcDbEntity
  8
Make2D$可见线$普通线
100
AcDbVertex
100
AcDb2dVertex
 10
861.8153765026148
 20
370.5648527795061
 30
0.0
  0
VERTEX
  5
66
330
63
100
AcDbEntity
  8
Make2D$可见线$普通线
100
AcDbVertex
100
AcDb2dVertex
 10
861.8529662082794
 20
370.5643348208978
 30
0.0
  0
VERTEX
  5
67
330
63
100
AcDbEntity
  8
Make2D$可见线$普通线
100
AcDbVertex
100
AcDb2dVertex
 10
861.8988595399517
 20
370.5616266672558
 30
0.0
  0
SEQEND
  5
68
330
63
100
AcDbEntity
  8
Make2D$可见线$普通线
  0
POLYLINE
  5
69
330
1F
100
AcDbEntity
  8
Make2D$可见线$普通线
100
AcDb2dPolyline
 66
     1
 10
0.0
 20
0.0
 30
0.0
  0
VERTEX
  5
6A
330
69
100
AcDbEntity
  8
Make2D$可见线$普通线
100
AcDbVertex
100
AcDb2dVertex
 10
877.7152148636621
 20
331.6008318245167
 30
0.0
  0
VERTEX
  5
6B
330
69
100
AcDbEntity
  8
Make2D$可见线$普通线
100
AcDbVertex
100
AcDb2dVertex
 10
877.7196149366225
 20
331.6003720549887
 30
0.0
  0
VERTEX
  5
6C
330
69
100
AcDbEntity
  8
Make2D$可见线$普通线
100
AcDbVertex
100
AcDb2dVertex
 10
877.6068026153998
 20
331.6067993113109
 30
0.0
  0
VERTEX
  5
6D
330
69
100
AcDbEntity
  8
Make2D$可见线$普通线
100
AcDbVertex
100
AcDb2dVertex
 10
825.606798417052
 20
331.6067993113122
 30
0.0
 42
0.4142154552170564
  0
VERTEX
  5
6E
330
69
100
AcDbEntity
  8
Make2D$可见线$普通线
100
AcDbVertex
100
AcDb2dVertex
 10
824.6067939009074
 20
330.6067993113121
 30
0.0
  0
VERTEX
  5
6F
330
69
100
AcDbEntity
  8
Make2D$可见线$普通线
100
AcDbVertex
100
AcDb2dVertex
 10
824.6067984170556
 20
323.6067993113121
 30
0.0
  0
VERTEX
  5
70
330
69
100
AcDbEntity
  8
Make2D$可见线$普通线
100
AcDbVertex
100
AcDb2dVertex
 10
878.6067984170556
 20
323.6067993113121
 30
0.0
  0
VERTEX
  5
71
330
69
100
AcDbEntity
  8
Make2D$可见线$普通线
100
AcDbVertex
100
AcDb2dVertex
 10
878.6068024486875
 20
330.6067993113121
 30
0.0
 42
0.3758141722705005
  0
VERTEX
  5
72
330
69
100
AcDbEntity
  8
Make2D$可见线$普通线
100
AcDbVertex
100
AcDb2dVertex
 10
877.7393365542961
 20
331.5979480915668
 30
0.0
  0
VERTEX
  5
73
330
69
100
AcDbEntity
  8
Make2D$可见线$普通线
100
AcDbVertex
100
AcDb2dVertex
 10
877.6964350602389
 20
331.6039712598974
 30
0.0
  0
VERTEX
  5
74
330
69
100
AcDbEntity
  8
Make2D$可见线$普通线
100
AcDbVertex
100
AcDb2dVertex
 10
877.6505089833975
 20
331.6095601560496
 30
0.0
  0
SEQEND
  5
75
330
69
100
AcDbEntity
  8
Make2D$可见线$普通线
  0
POLYLINE
  5
76
330
1F
100
AcDbEntity
  8
Make2D$可见线$普通线
100
AcDb2dPolyline
 66
     1
 10
0.0
 20
0.0
 30
0.0
  0
VERTEX
  5
77
330
76
100
AcDbEntity
  8
Make2D$可见线$普通线
100
AcDbVertex
100
AcDb2dVertex
 10
775.6067984170554
 20
365.5648482911157
 30
0.0
 42
-0.4023481107742758
  0
VERTEX
  5
78
330
76
100
AcDbEntity
  8
Make2D$可见线$普通线
100
AcDbVertex
100
AcDb2dVertex
 10
780.4034483189026
 20
370.5607148535809
 30
0.0
  0
VERTEX
  5
79
330
76
100
AcDbEntity
  8
Make2D$可见线$普通线
100
AcDbVertex
100
AcDb2dVertex
 10
780.5051277165459
 20
370.5638181595481
 30
0.0
  0
SEQEND
  5
7A
330
76
100
AcDbEntity
  8
Make2D$可见线$普通线
  0
POLYLINE
  5
7B
330
1F
100
AcDbEntity
  8
Make2D$可见线$普通线
100
AcDb2dPolyline
 66
     1
 10
0.0
 20
0.0
 30
0.0
  0
VERTEX
  5
7C
330
7B
100
AcDbEntity
  8
Make2D$可见线$普通线
100
AcDbVertex
100
AcDb2dVertex
 10
851.3604316975093
 20
370.5648694033641
 30
0.0
 42
-0.0005324659944584
  0
VERTEX
  5
7D
330
7B
100
AcDbEntity
  8
Make2D$可见线$普通线
100
AcDbVertex
100
AcDb2dVertex
 10
849.1113224978023
 20
370.5662167645449
 30
0.0
 42
-0.0009440810205842
  0
VERTEX
  5
7E
330
7B
100
AcDbEntity
  8
Make2D$可见线$普通线
100
AcDbVertex
100
AcDb2dVertex
 10
847.9915575744524
 20
370.570517788342
 30
0.0
 42
0.0037111565887152
  0
VERTEX
  5
7F
330
7B
100
AcDbEntity
  8
Make2D$可见线$普通线
100
AcDbVertex
100
AcDb2dVertex
 10
841.8372708553386
 20
370.6057961886254
 30
0.0
  0
VERTEX
  5
80
330
7B
100
AcDbEntity
  8
Make2D$可见线$普通线
100
AcDbVertex
100
AcDb2dVertex
 10
833.3938476710857
 20
370.5812601269589
 30
0.0
 42
-0.0004565387809531
  0
VERTEX
  5
81
330
7B
100
AcDbEntity
  8
Make2D$可见线$普通线
100
AcDbVertex
100
AcDb2dVertex
 10
828.8902841938598
 20
370.5703435472789
 30
0.0
 42
-0.0002699014835746
  0
VERTEX
  5
82
330
7B
100
AcDbEntity
  8
Make2D$可见线$普通线
100
AcDbVertex
100
AcDb2dVertex
 10
824.3834740615389
 20
370.5659749737615
 30
0.0
  0
VERTEX
  5
83
330
7B
100
AcDbEntity
  8
Make2D$可见线$普通线
100
AcDbVertex
100
AcDb2dVertex
 10
815.3640238505011
 20
370.5648471977712
 30
0.0
  0
VERTEX
  5
84
330
7B
100
AcDbEntity
  8
Make2D$可见线$普通线
100
AcDbVertex
100
AcDb2dVertex
 10
780.6067984170552
 20
370.5648510332496
 30
0.0
  0
SEQEND
  5
85
330
7B
100
AcDbEntity
  8
Make2D$可见线$普通线
  0
POLYLINE
  5
86
330
1F
100
AcDbEntity
  8
Make2D$可见线$普通线
100
AcDb2dPolyline
 66
     1
 10
0.0
 20
0.0
 30
0.0
  0
VERTEX
  5
87
330
86
100
AcDbEntity
  8
Make2D$可见线$普通线
100
AcDbVertex
100
AcDb2dVertex
 10
840.5635636876456
 20
331.6234939428955
 30
0.0
  0
VERTEX
  5
88
330
86
100
AcDbEntity
  8
Make2D$可见线$普通线
100
AcDbVertex
100
AcDb2dVertex
 10
840.5942924628783
 20
331.6183013088345
 30
0.0
  0
VERTEX
  5
89
330
86
100
AcDbEntity
  8
Make2D$可见线$普通线
100
AcDbVertex
100
AcDb2dVertex
 10
840.6256102829554
 20
331.6140156772426
 30
0.0
  0
VERTEX
  5
8A
330
86
100
AcDbEntity
  8
Make2D$可见线$普通线
100
AcDbVertex
100
AcDb2dVertex
 10
840.6556192601552
 20
331.6104054642713
 30
0.0
  0
VERTEX
  5
8B
330
86
100
AcDbEntity
  8
Make2D$可见线$普通线
100
AcDbVertex
100
AcDb2dVertex
 10
840.6598425332985
 20
331.6101879577153
 30
0.0
  0
VERTEX
  5
8C
330
86
100
AcDbEntity
  8
Make2D$可见线$普通线
100
AcDbVertex
100
AcDb2dVertex
 10
840.6850779194879
 20
331.6086286793198
 30
0.0
  0
VERTEX
  5
8D
330
86
100
AcDbEntity
  8
Make2D$可见线$普通线
100
AcDbVertex
100
AcDb2dVertex
 10
840.700936171031
 20
331.6076305664198
 30
0.0
  0
SEQEND
  5
8E
330
86
100
AcDbEntity
  8
Make2D$可见线$普通线
  0
POLYLINE
  5
8F
330
1F
100
AcDbEntity
  8
Make2D$可见线$普通线
100
AcDb2dPolyline
 66
     1
 10
0.0
 20
0.0
 30
0.0
  0
VERTEX
  5
90
330
8F
100
AcDbEntity
  8
Make2D$可见线$普通线
100
AcDbVertex
100
AcDb2dVertex
 10
861.982864569002
 20
370.5504258518875
 30
0.0
  0
VERTEX
  5
91
330
8F
100
AcDbEntity
  8
Make2D$可见线$普通线
100
AcDbVertex
100
AcDb2dVertex
 10
861.9392806162542
 20
370.5570160009137
 30
0.0
  0
VERTEX
  5
92
330
8F
100
AcDbEntity
  8
Make2D$可见线$普通线
100
AcDbVertex
100
AcDb2dVertex
 10
861.9366366975617
 20
370.5573497431982
 30
0.0
  0
VERTEX
  5
93
330
8F
100
AcDbEntity
  8
Make2D$可见线$普通线
100
AcDbVertex
100
AcDb2dVertex
 10
861.9366357859883
 20
370.5573498975325
 30
0.0
  0
VERTEX
  5
94
330
8F
100
AcDbEntity
  8
Make2D$可见线$普通线
100
AcDbVertex
100
AcDb2dVertex
 10
861.9366354752888
 20
370.5573500272882
 30
0.0
  0
VERTEX
  5
95
330
8F
100
AcDbEntity
  8
Make2D$可见线$普通线
100
AcDbVertex
100
AcDb2dVertex
 10
861.936636060097
 20
370.5573499981932
 30
0.0
  0
VERTEX
  5
96
330
8F
100
AcDbEntity
  8
Make2D$可见线$普通线
100
AcDbVertex
100
AcDb2dVertex
 10
861.9366371331321
 20
370.5573499070985
 30
0.0
  0
VERTEX
  5
97
330
8F
100
AcDbEntity
  8
Make2D$可见线$普通线
100
AcDbVertex
100
AcDb2dVertex
 10
861.9374471376098
 20
370.5572493830566
 30
0.0
  0
VERTEX
  5
98
330
8F
100
AcDbEntity
  8
Make2D$可见线$普通线
100
AcDbVertex
100
AcDb2dVertex
 10
861.870604476461
 20
370.5656318020046
 30
0.0
  0
SEQEND
  5
99
330
8F
100
AcDbEntity
  8
Make2D$可见线$普通线
  0
POLYLINE
  5
9B
330
1F
100
AcDbEntity
  8
Temp
100
AcDb2dPolyline
 66
     1
 10
0.0
 20
0.0
 30
0.0
  0
VERTEX
  5
9C
330
9B
100
AcDbEntity
  8
Temp
100
AcDbVertex
100
AcDb2dVertex
 10
840.6326018111928
 20
331.6103448775958
 30
0.0
  0
VERTEX
  5
9D
330
9B
100
AcDbEntity
  8
Temp
100
AcDbVertex
100
AcDb2dVertex
 10
840.5621598139433
 20
331.6237554750962
 30
0.0
  0
VERTEX
  5
9E
330
9B
100
AcDbEntity
  8
Temp
100
AcDbVertex
100
AcDb2dVertex
 10
840.5033445235251
 20
331.6365687584038
 30
0.0
  0
VERTEX
  5
9F
330
9B
100
AcDbEntity
  8
Temp
100
AcDbVertex
100
AcDb2dVertex
 10
840.5016691075465
 20
331.6369899818843
 30
0.0
 42
-0.3437715620871793
  0
VERTEX
  5
A0
330
9B
100
AcDbEntity
  8
Temp
100
AcDbVertex
100
AcDb2dVertex
 10
839.7455263573682
 20
332.6067993113121
 30
0.0
  0
VERTEX
  5
A1
330
9B
100
AcDbEntity
  8
Temp
100
AcDbVertex
100
AcDb2dVertex
 10
839.7455267410644
 20
353.0856589337409
 30
0.0
 42
0.0714171660110478
  0
VERTEX
  5
A2
330
9B
100
AcDbEntity
  8
Temp
100
AcDbVertex
100
AcDb2dVertex
 10
839.5652031467288
 20
354.3305066597743
 30
0.0
 42
0.3505847539891167
  0
VERTEX
  5
A3
330
9B
100
AcDbEntity
  8
Temp
100
AcDbVertex
100
AcDb2dVertex
 10
830.1102899393343
 20
360.9381248187065
 30
0.0
 42
-0.0264235132970793
  0
VERTEX
  5
A4
330
9B
100
AcDbEntity
  8
Temp
100
AcDbVertex
100
AcDb2dVertex
 10
815.3640238488404
 20
360.7670728575653
 30
0.0
  0
VERTEX
  5
A5
330
9B
100
AcDbEntity
  8
Temp
100
AcDbVertex
100
AcDb2dVertex
 10
775.7985536111153
 20
362.3995017633146
 30
0.0
 42
-0.4021633827708901
  0
VERTEX
  5
A6
330
9B
100
AcDbEntity
  8
Temp
100
AcDbVertex
100
AcDb2dVertex
 10
775.6067984170556
 20
362.5993421084196
 30
0.0
  0
VERTEX
  5
A7
330
9B
100
AcDbEntity
  8
Temp
100
AcDbVertex
100
AcDb2dVertex
 10
775.6067984170556
 20
365.5570760865638
 30
0.0
  0
SEQEND
  5
A8
330
9B
100
AcDbEntity
  8
Temp
  0
POLYLINE
  5
A9
330
1F
100
AcDbEntity
  8
Make2D$可见线$普通线
100
AcDb2dPolyline
 66
     1
 10
0.0
 20
0.0
 30
0.0
  0
VERTEX
  5
AA
330
A9
100
AcDbEntity
  8
Make2D$可见线$普通线
100
AcDbVertex
100
AcDb2dVertex
 10
862.5126503382185
 20
331.6077935046064
 30
0.0
 42
0.4012113702594358
  0
VERTEX
  5
AB
330
A9
100
AcDbEntity
  8
Make2D$可见线$普通线
100
AcDbVertex
100
AcDb2dVertex
 10
863.4680704773469
 20
332.6067993113121
 30
0.0
  0
VERTEX
  5
AC
330
A9
100
AcDbEntity
  8
Make2D$可见线$普通线
100
AcDbVertex
100
AcDb2dVertex
 10
863.468070093356
 20
367.0504328153087
 30
0.0
 42
0.1514521450087494
  0
VERTEX
  5
AD
330
A9
100
AcDbEntity
  8
Make2D$可见线$普通线
100
AcDbVertex
100
AcDb2dVertex
 10
862.4157825484132
 20
370.3065814408241
 30
0.0
 42
0.175428458334048
  0
VERTEX
  5
AE
330
A9
100
AcDbEntity
  8
Make2D$可见线$普通线
100
AcDbVertex
100
AcDb2dVertex
 10
862.0578215735311
 20
370.5340383213162
 30
0.0
  0
VERTEX
  5
AF
330
A9
100
AcDbEntity
  8
Make2D$可见线$普通线
100
AcDbVertex
100
AcDb2dVertex
 10
862.000379129817
 20
370.5471836307886
 30
0.0
  0
VERTEX
  5
B0
330
A9
100
AcDbEntity
  8
Make2D$可见线$普通线
100
AcDbVertex
100
AcDb2dVertex
 10
861.9978602687381
 20
370.5476719253186
 30
0.0
  0
VERTEX
  5
B1
330
A9
100
AcDbEntity
  8
Make2D$可见线$普通线
100
AcDbVertex
100
AcDb2dVertex
 10
861.9673956948579
 20
370.5532645448703
 30
0.0
  0
VERTEX
  5
B2
330
A9
100
AcDbEntity
  8
Make2D$可见线$普通线
100
AcDbVertex
100
AcDb2dVertex
 10
861.9748383836361
 20
370.5525914540738
 30
0.0
  0
SEQEND
  5
B3
330
A9
100
AcDbEntity
  8
Make2D$可见线$普通线
  0
POLYLINE
  5
B4
330
1F
100
AcDbEntity
  8
Make2D$可见线$普通线
100
AcDb2dPolyline
 66
     1
 10
0.0
 20
0.0
 30
0.0
  0
VERTEX
  5
B5
330
B4
100
AcDbEntity
  8
Make2D$可见线$普通线
100
AcDbVertex
100
AcDb2dVertex
 10
840.6220783593233
 20
331.6122481027594
 30
0.0
  0
VERTEX
  5
B6
330
B4
100
AcDbEntity
  8
Make2D$可见线$普通线
100
AcDbVertex
100
AcDb2dVertex
 10
840.5927762526967
 20
331.6178436920108
 30
0.0
  0
VERTEX
  5
B7
330
B4
100
AcDbEntity
  8
Make2D$可见线$普通线
100
AcDbVertex
100
AcDb2dVertex
 10
840.5747787544128
 20
331.6201898952093
 30
0.0
  0
SEQEND
  5
B8
330
B4
100
AcDbEntity
  8
Make2D$可见线$普通线
  0
POLYLINE
  5
B9
330
1F
100
AcDbEntity
  8
Make2D$可见线$普通线
100
AcDb2dPolyline
 66
     1
 10
0.0
 20
0.0
 30
0.0
  0
VERTEX
  5
BA
330
B9
100
AcDbEntity
  8
Make2D$可见线$普通线
100
AcDbVertex
100
AcDb2dVertex
 10
877.6650168168733
 20
331.6078554465515
 30
0.0
  0
VERTEX
  5
BB
330
B9
100
AcDbEntity
  8
Make2D$可见线$普通线
100
AcDbVertex
100
AcDb2dVertex
 10
877.6891975404167
 20
331.6053502821113
 30
0.0
  0
VERTEX
  5
BC
330
B9
100
AcDbEntity
  8
Make2D$可见线$普通线
100
AcDbVertex
100
AcDb2dVertex
 10
877.7742316692481
 20
331.5942908522191
 30
0.0
  0
SEQEND
  5
BD
330
B9
100
AcDbEntity
  8
Make2D$可见线$普通线
  0
LINE
  5
BE
330
1F
100
AcDbEntity
  8
Make2D$可见线$普通线
100
AcDbLine
 10
840.5785714513426
 20
331.6203357947819
 30
0.0
 11
840.5705379891402
 21
331.6218363208444
 31
0.0
  0
LINE
  5
BF
330
1F
100
AcDbEntity
  8
Make2D$可见线$普通线
100
AcDbLine
 10
840.5322699658216
 20
331.6290043590645
 30
0.0
 11
840.494267785762
 21
331.6362115795339
 31
0.0
  0
LINE
  5
C0
330
1F
100
AcDbEntity
  8
Make2D$可见线$普通线
100
AcDbLine
 10
861.9978602993399
 20
370.5476720845554
 30
0.0
 11
861.8884960036507
 21
370.5687131247259
 31
0.0
  0
LINE
  5
C1
330
1F
100
AcDbEntity
  8
Make2D$可见线$普通线
100
AcDbLine
 10
862.0282353191669
 20
370.5418514119956
 30
0.0
 11
862.0570071160664
 21
370.5363140143869
 31
0.0
  0
LINE
  5
C2
330
1F
100
AcDbEntity
  8
Make2D$可见线$普通线
100
AcDbLine
 10
861.9061068352016
 20
370.5606687929485
 30
0.0
 11
861.8773116244508
 21
370.5629081389976
 31
0.0
  0
LINE
  5
C3
330
1F
100
AcDbEntity
  8
Make2D$可见线$普通线
100
AcDbLine
 10
877.7672836195727
 20
331.594813223998
 30
0.0
 11
877.7543635336676
 21
331.596252194527
 31
0.0
  0
LINE
  5
C4
330
1F
100
AcDbEntity
  8
Make2D$可见线$普通线
100
AcDbLine
 10
877.7006482671313
 20
331.6034169839261
 30
0.0
 11
877.7067125172414
 21
331.6026537063373
 31
0.0
  0
LINE
  5
C5
330
1F
100
AcDbEntity
  8
Make2D$可见线$普通线
100
AcDbLine
 10
1049.512948567
 20
331.6034169839261
 30
0.0
 11
1049.50688431689
 21
331.6026537063373
 31
0.0
  0
LINE
  5
C6
330
1F
100
AcDbEntity
  8
Make2D$可见线$普通线
100
AcDbLine
 10
1049.446313214558
 20
331.594813223998
 30
0.0
 11
1049.459233300463
 21
331.596252194527
 31
0.0
  0
LINE
  5
C7
330
1F
100
AcDbEntity
  8
Make2D$可见线$普通线
100
AcDbLine
 10
1065.307489998929
 20
370.5606687929485
 30
0.0
 11
1065.33628520968
 21
370.5629081389976
 31
0.0
  0
LINE
  5
C8
330
1F
100
AcDbEntity
  8
Make2D$可见线$普通线
100
AcDbLine
 10
1065.185361514964
 20
370.5418514119956
 30
0.0
 11
1065.156589718065
 21
370.5363140143869
 31
0.0
  0
LINE
  5
C9
330
1F
100
AcDbEntity
  8
Make2D$可见线$普通线
100
AcDbLine
 10
1065.215736534791
 20
370.5476720845554
 30
0.0
 11
1065.32510083048
 21
370.5687131247259
 31
0.0
  0
LINE
  5
CA
330
1F
100
AcDbEntity
  8
Make2D$可见线$普通线
100
AcDbLine
 10
1086.681326868309
 20
331.6290043590645
 30
0.0
 11
1086.719329048369
 21
331.6362115795339
 31
0.0
  0
LINE
  5
CB
330
1F
100
AcDbEntity
  8
Make2D$可见线$普通线
100
AcDbLine
 10
1086.635025382789
 20
331.6203357947819
 30
0.0
 11
1086.643058844991
 21
331.6218363208444
 31
0.0
  0
POLYLINE
  5
CC
330
1F
100
AcDbEntity
  8
Make2D$可见线$普通线
100
AcDb2dPolyline
 66
     1
 10
0.0
 20
0.0
 30
0.0
  0
VERTEX
  5
CD
330
CC
100
AcDbEntity
  8
Make2D$可见线$普通线
100
AcDbVertex
100
AcDb2dVertex
 10
1049.548580017258
 20
331.6078554465515
 30
0.0
  0
VERTEX
  5
CE
330
CC
100
AcDbEntity
  8
Make2D$可见线$普通线
100
AcDbVertex
100
AcDb2dVertex
 10
1049.524399293714
 20
331.6053502821113
 30
0.0
  0
VERTEX
  5
CF
330
CC
100
AcDbEntity
  8
Make2D$可见线$普通线
100
AcDbVertex
100
AcDb2dVertex
 10
1049.439365164883
 20
331.5942908522191
 30
0.0
  0
SEQEND
  5
D0
330
CC
100
AcDbEntity
  8
Make2D$可见线$普通线
  0
POLYLINE
  5
D1
330
1F
100
AcDbEntity
  8
Make2D$可见线$普通线
100
AcDb2dPolyline
 66
     1
 10
0.0
 20
0.0
 30
0.0
  0
VERTEX
  5
D2
330
D1
100
AcDbEntity
  8
Make2D$可见线$普通线
100
AcDbVertex
100
AcDb2dVertex
 10
1086.591518474808
 20
331.6122481027594
 30
0.0
  0
VERTEX
  5
D3
330
D1
100
AcDbEntity
  8
Make2D$可见线$普通线
100
AcDbVertex
100
AcDb2dVertex
 10
1086.620820581434
 20
331.6178436920108
 30
0.0
  0
VERTEX
  5
D4
330
D1
100
AcDbEntity
  8
Make2D$可见线$普通线
100
AcDbVertex
100
AcDb2dVertex
 10
1086.638818079718
 20
331.6201898952093
 30
0.0
  0
SEQEND
  5
D5
330
D1
100
AcDbEntity
  8
Make2D$可见线$普通线
  0
POLYLINE
  5
D6
330
1F
100
AcDbEntity
  8
Make2D$可见线$普通线
100
AcDb2dPolyline
 66
     1
 10
0.0
 20
0.0
 30
0.0
  0
VERTEX
  5
D7
330
D6
100
AcDbEntity
  8
Make2D$可见线$普通线
100
AcDbVertex
100
AcDb2dVertex
 10
1064.700946495913
 20
331.6077935046064
 30
0.0
 42
-0.4012113702593798
  0
VERTEX
  5
D8
330
D6
100
AcDbEntity
  8
Make2D$可见线$普通线
100
AcDbVertex
100
AcDb2dVertex
 10
1063.745526356784
 20
332.6067993113121
 30
0.0
  0
VERTEX
  5
D9
330
D6
100
AcDbEntity
  8
Make2D$可见线$普通线
100
AcDbVertex
100
AcDb2dVertex
 10
1063.745526740775
 20
367.0504328153087
 30
0.0
 42
-0.1514521450086364
  0
VERTEX
  5
DA
330
D6
100
AcDbEntity
  8
Make2D$可见线$普通线
100
AcDbVertex
100
AcDb2dVertex
 10
1064.797814285718
 20
370.3065814408241
 30
0.0
 42
-0.1754284583337442
  0
VERTEX
  5
DB
330
D6
100
AcDbEntity
  8
Make2D$可见线$普通线
100
AcDbVertex
100
AcDb2dVertex
 10
1065.1557752606
 20
370.5340383213161
 30
0.0
  0
VERTEX
  5
DC
330
D6
100
AcDbEntity
  8
Make2D$可见线$普通线
100
AcDbVertex
100
AcDb2dVertex
 10
1065.213217704314
 20
370.5471836307886
 30
0.0
  0
VERTEX
  5
DD
330
D6
100
AcDbEntity
  8
Make2D$可见线$普通线
100
AcDbVertex
100
AcDb2dVertex
 10
1065.215736565393
 20
370.5476719253186
 30
0.0
  0
VERTEX
  5
DE
330
D6
100
AcDbEntity
  8
Make2D$可见线$普通线
100
AcDbVertex
100
AcDb2dVertex
 10
1065.246201139273
 20
370.5532645448703
 30
0.0
  0
VERTEX
  5
DF
330
D6
100
AcDbEntity
  8
Make2D$可见线$普通线
100
AcDbVertex
100
AcDb2dVertex
 10
1065.238758450495
 20
370.5525914540738
 30
0.0
  0
SEQEND
  5
E0
330
D6
100
AcDbEntity
  8
Make2D$可见线$普通线
  0
POLYLINE
  5
E1
330
1F
100
AcDbEntity
  8
Temp
100
AcDb2dPolyline
 66
     1
 10
0.0
 20
0.0
 30
0.0
  0
VERTEX
  5
E2
330
E1
100
AcDbEntity
  8
Temp
100
AcDbVertex
100
AcDb2dVertex
 10
1086.580995022938
 20
331.6103448775958
 30
0.0
  0
VERTEX
  5
E3
330
E1
100
AcDbEntity
  8
Temp
100
AcDbVertex
100
AcDb2dVertex
 10
1086.651437020188
 20
331.6237554750962
 30
0.0
  0
VERTEX
  5
E4
330
E1
100
AcDbEntity
  8
Temp
100
AcDbVertex
100
AcDb2dVertex
 10
1086.710252310606
 20
331.6365687584038
 30
0.0
  0
VERTEX
  5
E5
330
E1
100
AcDbEntity
  8
Temp
100
AcDbVertex
100
AcDb2dVertex
 10
1086.711927726585
 20
331.6369899818843
 30
0.0
 42
0.3437715620866327
  0
VERTEX
  5
E6
330
E1
100
AcDbEntity
  8
Temp
100
AcDbVertex
100
AcDb2dVertex
 10
1087.468070476763
 20
332.6067993113121
 30
0.0
  0
VERTEX
  5
E7
330
E1
100
AcDbEntity
  8
Temp
100
AcDbVertex
100
AcDb2dVertex
 10
1087.468070093067
 20
353.0856589337409
 30
0.0
 42
-0.0714171660110684
  0
VERTEX
  5
E8
330
E1
100
AcDbEntity
  8
Temp
100
AcDbVertex
100
AcDb2dVertex
 10
1087.648393687402
 20
354.3305066597743
 30
0.0
 42
-0.3505847539891877
  0
VERTEX
  5
E9
330
E1
100
AcDbEntity
  8
Temp
100
AcDbVertex
100
AcDb2dVertex
 10
1097.103306894797
 20
360.9381248187065
 30
0.0
 42
0.0264235132970737
  0
VERTEX
  5
EA
330
E1
100
AcDbEntity
  8
Temp
100
AcDbVertex
100
AcDb2dVertex
 10
1111.849572985291
 20
360.7670728575653
 30
0.0
  0
VERTEX
  5
EB
330
E1
100
AcDbEntity
  8
Temp
100
AcDbVertex
100
AcDb2dVertex
 10
1151.415043223016
 20
362.3995017633147
 30
0.0
 42
0.4021633827698169
  0
VERTEX
  5
EC
330
E1
100
AcDbEntity
  8
Temp
100
AcDbVertex
100
AcDb2dVertex
 10
1151.606798417075
 20
362.5993421084196
 30
0.0
  0
VERTEX
  5
ED
330
E1
100
AcDbEntity
  8
Temp
100
AcDbVertex
100
AcDb2dVertex
 10
1151.606798417075
 20
365.5570760865638
 30
0.0
  0
SEQEND
  5
EE
330
E1
100
AcDbEntity
  8
Temp
  0
POLYLINE
  5
EF
330
1F
100
AcDbEntity
  8
Make2D$可见线$普通线
100
AcDb2dPolyline
 66
     1
 10
0.0
 20
0.0
 30
0.0
  0
VERTEX
  5
F0
330
EF
100
AcDbEntity
  8
Make2D$可见线$普通线
100
AcDbVertex
100
AcDb2dVertex
 10
1065.230732265129
 20
370.5504258518875
 30
0.0
  0
VERTEX
  5
F1
330
EF
100
AcDbEntity
  8
Make2D$可见线$普通线
100
AcDbVertex
100
AcDb2dVertex
 10
1065.274316217877
 20
370.5570160009137
 30
0.0
  0
VERTEX
  5
F2
330
EF
100
AcDbEntity
  8
Make2D$可见线$普通线
100
AcDbVertex
100
AcDb2dVertex
 10
1065.276960136569
 20
370.5573497431982
 30
0.0
  0
VERTEX
  5
F3
330
EF
100
AcDbEntity
  8
Make2D$可见线$普通线
100
AcDbVertex
100
AcDb2dVertex
 10
1065.276961048143
 20
370.5573498975325
 30
0.0
  0
VERTEX
  5
F4
330
EF
100
AcDbEntity
  8
Make2D$可见线$普通线
100
AcDbVertex
100
AcDb2dVertex
 10
1065.276961358842
 20
370.5573500272882
 30
0.0
  0
VERTEX
  5
F5
330
EF
100
AcDbEntity
  8
Make2D$可见线$普通线
100
AcDbVertex
100
AcDb2dVertex
 10
1065.276960774034
 20
370.5573499981932
 30
0.0
  0
VERTEX
  5
F6
330
EF
100
AcDbEntity
  8
Make2D$可见线$普通线
100
AcDbVertex
100
AcDb2dVertex
 10
1065.276959700999
 20
370.5573499070985
 30
0.0
  0
VERTEX
  5
F7
330
EF
100
AcDbEntity
  8
Make2D$可见线$普通线
100
AcDbVertex
100
AcDb2dVertex
 10
1065.276149696521
 20
370.5572493830566
 30
0.0
  0
VERTEX
  5
F8
330
EF
100
AcDbEntity
  8
Make2D$可见线$普通线
100
AcDbVertex
100
AcDb2dVertex
 10
1065.34299235767
 20
370.5656318020046
 30
0.0
  0
SEQEND
  5
F9
330
EF
100
AcDbEntity
  8
Make2D$可见线$普通线
  0
POLYLINE
  5
FA
330
1F
100
AcDbEntity
  8
Make2D$可见线$普通线
100
AcDb2dPolyline
 66
     1
 10
0.0
 20
0.0
 30
0.0
  0
VERTEX
  5
FB
330
FA
100
AcDbEntity
  8
Make2D$可见线$普通线
100
AcDbVertex
100
AcDb2dVertex
 10
1086.650033146485
 20
331.6234939428955
 30
0.0
  0
VERTEX
  5
FC
330
FA
100
AcDbEntity
  8
Make2D$可见线$普通线
100
AcDbVertex
100
AcDb2dVertex
 10
1086.619304371253
 20
331.6183013088345
 30
0.0
  0
VERTEX
  5
FD
330
FA
100
AcDbEntity
  8
Make2D$可见线$普通线
100
AcDbVertex
100
AcDb2dVertex
 10
1086.587986551176
 20
331.6140156772426
 30
0.0
  0
VERTEX
  5
FE
330
FA
100
AcDbEntity
  8
Make2D$可见线$普通线
100
AcDbVertex
100
AcDb2dVertex
 10
1086.557977573976
 20
331.6104054642713
 30
0.0
  0
VERTEX
  5
FF
330
FA
100
AcDbEntity
  8
Make2D$可见线$普通线
100
AcDbVertex
100
AcDb2dVertex
 10
1086.553754300833
 20
331.6101879577153
 30
0.0
  0
VERTEX
  5
100
330
FA
100
AcDbEntity
  8
Make2D$可见线$普通线
100
AcDbVertex
100
AcDb2dVertex
 10
1086.528518914643
 20
331.6086286793198
 30
0.0
  0
VERTEX
  5
101
330
FA
100
AcDbEntity
  8
Make2D$可见线$普通线
100
AcDbVertex
100
AcDb2dVertex
 10
1086.5126606631
 20
331.6076305664198
 30
0.0
  0
SEQEND
  5
102
330
FA
100
AcDbEntity
  8
Make2D$可见线$普通线
  0
POLYLINE
  5
103
330
1F
100
AcDbEntity
  8
Make2D$可见线$普通线
100
AcDb2dPolyline
 66
     1
 10
0.0
 20
0.0
 30
0.0
  0
VERTEX
  5
104
330
103
100
AcDbEntity
  8
Make2D$可见线$普通线
100
AcDbVertex
100
AcDb2dVertex
 10
1075.853165136622
 20
370.5648694033641
 30
0.0
 42
0.0005324659944585
  0
VERTEX
  5
105
330
103
100
AcDbEntity
  8
Make2D$可见线$普通线
100
AcDbVertex
100
AcDb2dVertex
 10
1078.102274336329
 20
370.5662167645453
 30
0.0
 42
0.0009440810206591
  0
VERTEX
  5
106
330
103
100
AcDbEntity
  8
Make2D$可见线$普通线
100
AcDbVertex
100
AcDb2dVertex
 10
1079.222039259679
 20
370.570517788342
 30
0.0
 42
-0.0037111565887152
  0
VERTEX
  5
107
330
103
100
AcDbEntity
  8
Make2D$可见线$普通线
100
AcDbVertex
100
AcDb2dVertex
 10
1085.376325978792
 20
370.6057961886254
 30
0.0
  0
VERTEX
  5
108
330
103
100
AcDbEntity
  8
Make2D$可见线$普通线
100
AcDbVertex
100
AcDb2dVertex
 10
1093.819749163045
 20
370.5812601269588
 30
0.0
 42
0.0004565387808441
  0
VERTEX
  5
109
330
103
100
AcDbEntity
  8
Make2D$可见线$普通线
100
AcDbVertex
100
AcDb2dVertex
 10
1098.323312640271
 20
370.5703435472792
 30
0.0
 42
0.000269901483562
  0
VERTEX
  5
10A
330
103
100
AcDbEntity
  8
Make2D$可见线$普通线
100
AcDbVertex
100
AcDb2dVertex
 10
1102.830122772592
 20
370.5659749737615
 30
0.0
  0
VERTEX
  5
10B
330
103
100
AcDbEntity
  8
Make2D$可见线$普通线
100
AcDbVertex
100
AcDb2dVertex
 10
1111.84957298363
 20
370.5648471977712
 30
0.0
  0
VERTEX
  5
10C
330
103
100
AcDbEntity
  8
Make2D$可见线$普通线
100
AcDbVertex
100
AcDb2dVertex
 10
1146.606798417076
 20
370.5648510332496
 30
0.0
  0
SEQEND
  5
10D
330
103
100
AcDbEntity
  8
Make2D$可见线$普通线
  0
POLYLINE
  5
10E
330
1F
100
AcDbEntity
  8
Make2D$可见线$普通线
100
AcDb2dPolyline
 66
     1
 10
0.0
 20
0.0
 30
0.0
  0
VERTEX
  5
10F
330
10E
100
AcDbEntity
  8
Make2D$可见线$普通线
100
AcDbVertex
100
AcDb2dVertex
 10
1151.606798417076
 20
365.5648482911157
 30
0.0
 42
0.4023481107742093
  0
VERTEX
  5
110
330
10E
100
AcDbEntity
  8
Make2D$可见线$普通线
100
AcDbVertex
100
AcDb2dVertex
 10
1146.810148515228
 20
370.5607148535809
 30
0.0
  0
VERTEX
  5
111
330
10E
100
AcDbEntity
  8
Make2D$可见线$普通线
100
AcDbVertex
100
AcDb2dVertex
 10
1146.708469117585
 20
370.5638181595481
 30
0.0
  0
SEQEND
  5
112
330
10E
100
AcDbEntity
  8
Make2D$可见线$普通线
  0
POLYLINE
  5
113
330
1F
100
AcDbEntity
  8
Make2D$可见线$普通线
100
AcDb2dPolyline
 66
     1
 10
0.0
 20
0.0
 30
0.0
  0
VERTEX
  5
114
330
113
100
AcDbEntity
  8
Make2D$可见线$普通线
100
AcDbVertex
100
AcDb2dVertex
 10
1049.498381970469
 20
331.6008318245167
 30
0.0
  0
VERTEX
  5
115
330
113
100
AcDbEntity
  8
Make2D$可见线$普通线
100
AcDbVertex
100
AcDb2dVertex
 10
1049.493981897509
 20
331.6003720549887
 30
0.0
  0
VERTEX
  5
116
330
113
100
AcDbEntity
  8
Make2D$可见线$普通线
100
AcDbVertex
100
AcDb2dVertex
 10
1049.606794218731
 20
331.6067993113109
 30
0.0
  0
VERTEX
  5
117
330
113
100
AcDbEntity
  8
Make2D$可见线$普通线
100
AcDbVertex
100
AcDb2dVertex
 10
1101.606798417079
 20
331.6067993113123
 30
0.0
 42
-0.4142154552170267
  0
VERTEX
  5
118
330
113
100
AcDbEntity
  8
Make2D$可见线$普通线
100
AcDbVertex
100
AcDb2dVertex
 10
1102.606802933224
 20
330.6067993113121
 30
0.0
  0
VERTEX
  5
119
330
113
100
AcDbEntity
  8
Make2D$可见线$普通线
100
AcDbVertex
100
AcDb2dVertex
 10
1102.606798417075
 20
323.6067993113121
 30
0.0
  0
VERTEX
  5
11A
330
113
100
AcDbEntity
  8
Make2D$可见线$普通线
100
AcDbVertex
100
AcDb2dVertex
 10
1048.606798417075
 20
323.6067993113121
 30
0.0
  0
VERTEX
  5
11B
330
113
100
AcDbEntity
  8
Make2D$可见线$普通线
100
AcDbVertex
100
AcDb2dVertex
 10
1048.606794385444
 20
330.6067993113121
 30
0.0
 42
-0.3758141722707631
  0
VERTEX
  5
11C
330
113
100
AcDbEntity
  8
Make2D$可见线$普通线
100
AcDbVertex
100
AcDb2dVertex
 10
1049.474260279835
 20
331.5979480915668
 30
0.0
  0
VERTEX
  5
11D
330
113
100
AcDbEntity
  8
Make2D$可见线$普通线
100
AcDbVertex
100
AcDb2dVertex
 10
1049.517161773892
 20
331.6039712598974
 30
0.0
  0
VERTEX
  5
11E
330
113
100
AcDbEntity
  8
Make2D$可见线$普通线
100
AcDbVertex
100
AcDb2dVertex
 10
1049.563087850734
 20
331.6095601560496
 30
0.0
  0
SEQEND
  5
11F
330
113
100
AcDbEntity
  8
Make2D$可见线$普通线
  0
POLYLINE
  5
120
330
1F
100
AcDbEntity
  8
Make2D$可见线$普通线
100
AcDb2dPolyline
 66
     1
 10
0.0
 20
0.0
 30
0.0
  0
VERTEX
  5
121
330
120
100
AcDbEntity
  8
Make2D$可见线$普通线
100
AcDbVertex
100
AcDb2dVertex
 10
1075.850434068865
 20
370.5648515235368
 30
0.0
  0
VERTEX
  5
122
330
120
100
AcDbEntity
  8
Make2D$可见线$普通线
100
AcDbVertex
100
AcDb2dVertex
 10
1065.398220331516
 20
370.5648527795061
 30
0.0
  0
VERTEX
  5
123
330
120
100
AcDbEntity
  8
Make2D$可见线$普通线
100
AcDbVertex
100
AcDb2dVertex
 10
1065.360630625852
 20
370.5643348208978
 30
0.0
  0
VERTEX
  5
124
330
120
100
AcDbEntity
  8
Make2D$可见线$普通线
100
AcDbVertex
100
AcDb2dVertex
 10
1065.314737294179
 20
370.5616266672558
 30
0.0
  0
SEQEND
  5
125
330
120
100
AcDbEntity
  8
Make2D$可见线$普通线
  0
SPLINE
  5
126
330
1F
100
AcDbEntity
  8
Make2D$可见线$普通线
100
AcDbSpline
210
0.0
220
0.0
230
1.0
 70
    12
 71
     3
 72
    32
 73
    28
 74
     0
 42
0.000000001
 43
0.0000000001
 12
1.0
 22
0.0
 32
0.0
 13
1.0
 23
0.0
 33
0.0
 40
0.0
 40
0.0
 40
0.0
 40
0.0
 40
1.722389125534594
 40
1.722389125534594
 40
1.722389125534594
 40
3.444778251069188
 40
3.444778251069188
 40
3.444778251069188
 40
5.167167376603781
 40
5.167167376603781
 40
5.167167376603781
 40
5.987897299982413
 40
5.987897299982413
 40
5.987897299982413
 40
6.808644613248445
 40
6.808644613248445
 40
6.808644613248445
 40
8.531033738783037
 40
8.531033738783037
 40
8.531033738783037
 40
10.25342286431763
 40
10.25342286431763
 40
10.25342286431763
 40
11.97581198985223
 40
11.97581198985223
 40
11.97581198985223
 40
13.69820111538682
 40
13.69820111538682
 40
13.69820111538682
 40
13.69820111538682
 10
973.7645140329598
 20
432.6067352304132
 30
0.0
 41
1.0
 10
973.6171957130884
 20
432.0799024139239
 30
0.0
 41
1.0
 10
973.4428403836632
 20
431.5601084585325
 30
0.0
 41
0.9999999999999999
 10
973.2307903134244
 20
431.0557975133344
 30
0.0
 41
1.0
 10
973.0187402431858
 20
430.5514865681363
 30
0.0
 41
1.0
 10
972.7686173186394
 20
430.0623452299396
 30
0.0
 41
0.9999999999999994
 10
972.4685152483928
 20
429.604833578565
 30
0.0
 41
0.9999999999999997
 10
972.1684131781462
 20
429.1473219271905
 30
0.0
 41
0.9999999999999999
 10
971.8166427807554
 20
428.7226901901708
 30
0.0
 41
1.0
 10
971.4106994020062
 20
428.3555062533051
 30
0.0
 41
1.0
 10
971.2076656339601
 20
428.1717950440392
 30
0.0
 41
0.9982886014138613
 10
970.9919980093414
 20
428.0030941398691
 30
0.0
 41
0.998288601413861
 10
970.7648038079517
 20
427.8502696842611
 30
0.0
 41
1.0
 10
970.5374211716506
 20
427.6977429984628
 30
0.0
 41
0.998400979603034
 10
970.3000261327197
 20
427.5613214141658
 30
0.0
 41
0.9984009796030319
 10
970.053757489685
 20
427.4416593540558
 30
0.0
 41
1.0
 10
969.5617082675568
 20
427.2019314125817
 30
0.0
 41
0.9999999999999996
 10
969.0392712988032
 20
427.0286012453614
 30
0.0
 41
1.0
 10
968.5066944425278
 20
426.9034344577173
 30
0.0
 41
1.0
 10
967.9741175862523
 20
426.7782676700731
 30
0.0
 41
1.0
 10
967.4312424001384
 20
426.7001203314513
 30
0.0
 41
0.9999999999999993
 10
966.8866039972625
 20
426.6487511705544
 30
0.0
 41
0.9999999999999998
 10
966.3419655943865
 20
426.5973820096574
 30
0.0
 41
1.0
 10
965.7949428817731
 20
426.5732664677302
 30
0.0
 41
0.9999999999999996
 10
965.2479888018456
 20
426.5606256032713
 30
0.0
 41
1.0
 10
964.7010347219182
 20
426.5479847388125
 30
0.0
 41
1.0
 10
964.1539337304059
 20
426.5472711549634
 30
0.0
 41
1.0
 10
963.606810187661
 20
426.5467524782662
 30
0.0
 41
0.9999999999999998
  0
POLYLINE
  5
127
330
1F
100
AcDbEntity
  8
Make2D$可见线$普通线
100
AcDb2dPolyline
 66
     1
 10
0.0
 20
0.0
 30
0.0
  0
VERTEX
  5
128
330
127
100
AcDbEntity
  8
Make2D$可见线$普通线
100
AcDbVertex
100
AcDb2dVertex
 10
953.449082801191
 20
432.6067352304132
 30
0.0
  0
VERTEX
  5
129
330
127
100
AcDbEntity
  8
Make2D$可见线$普通线
100
AcDbVertex
100
AcDb2dVertex
 10
953.5647974628653
 20
432.2130935974171
 30
0.0
  0
VERTEX
  5
12A
330
127
100
AcDbEntity
  8
Make2D$可见线$普通线
100
AcDbVertex
100
AcDb2dVertex
 10
953.6916663079385
 20
431.822833684324
 30
0.0
  0
VERTEX
  5
12B
330
127
100
AcDbEntity
  8
Make2D$可见线$普通线
100
AcDbVertex
100
AcDb2dVertex
 10
953.8306761463122
 20
431.4367846934343
 30
0.0
  0
VERTEX
  5
12C
330
127
100
AcDbEntity
  8
Make2D$可见线$普通线
100
AcDbVertex
100
AcDb2dVertex
 10
953.9050423160808
 20
431.2455984195349
 30
0.0
  0
VERTEX
  5
12D
330
127
100
AcDbEntity
  8
Make2D$可见线$普通线
100
AcDbVertex
100
AcDb2dVertex
 10
953.9828137878876
 20
431.0557758270491
 30
0.0
  0
VERTEX
  5
12E
330
127
100
AcDbEntity
  8
Make2D$可见线$普通线
100
AcDbVertex
100
AcDb2dVertex
 10
954.0641386826251
 20
430.8674090225181
 30
0.0
  0
VERTEX
  5
12F
330
127
100
AcDbEntity
  8
Make2D$可见线$普通线
100
AcDbVertex
100
AcDb2dVertex
 10
954.1491753168477
 20
430.6806509122649
 30
0.0
  0
VERTEX
  5
130
330
127
100
AcDbEntity
  8
Make2D$可见线$普通线
100
AcDbVertex
100
AcDb2dVertex
 10
954.2380623352853
 20
430.4956963462502
 30
0.0
  0
VERTEX
  5
131
330
127
100
AcDbEntity
  8
Make2D$可见线$普通线
100
AcDbVertex
100
AcDb2dVertex
 10
954.3309383826678
 20
430.3127401744344
 30
0.0
  0
VERTEX
  5
132
330
127
100
AcDbEntity
  8
Make2D$可见线$普通线
100
AcDbVertex
100
AcDb2dVertex
 10
954.4279421037245
 20
430.1319772467779
 30
0.0
  0
VERTEX
  5
133
330
127
100
AcDbEntity
  8
Make2D$可见线$普通线
100
AcDbVertex
100
AcDb2dVertex
 10
954.5292121431856
 20
429.9536024132414
 30
0.0
  0
VERTEX
  5
134
330
127
100
AcDbEntity
  8
Make2D$可见线$普通线
100
AcDbVertex
100
AcDb2dVertex
 10
954.634887145781
 20
429.7778105237853
 30
0.0
  0
VERTEX
  5
135
330
127
100
AcDbEntity
  8
Make2D$可见线$普通线
100
AcDbVertex
100
AcDb2dVertex
 10
954.74510575624
 20
429.6047964283702
 30
0.0
  0
VERTEX
  5
136
330
127
100
AcDbEntity
  8
Make2D$可见线$普通线
100
AcDbVertex
100
AcDb2dVertex
 10
954.8600680206725
 20
429.4348259975484
 30
0.0
  0
VERTEX
  5
137
330
127
100
AcDbEntity
  8
Make2D$可见线$普通线
100
AcDbVertex
100
AcDb2dVertex
 10
954.9799017912025
 20
429.2682266042833
 30
0.0
  0
VERTEX
  5
138
330
127
100
AcDbEntity
  8
Make2D$可见线$普通线
100
AcDbVertex
100
AcDb2dVertex
 10
955.1046374215794
 20
429.1052853521508
 30
0.0
  0
VERTEX
  5
139
330
127
100
AcDbEntity
  8
Make2D$可见线$普通线
100
AcDbVertex
100
AcDb2dVertex
 10
955.2343052655528
 20
428.9462893447267
 30
0.0
  0
VERTEX
  5
13A
330
127
100
AcDbEntity
  8
Make2D$可见线$普通线
100
AcDbVertex
100
AcDb2dVertex
 10
955.3689356768728
 20
428.7915256855872
 30
0.0
  0
VERTEX
  5
13B
330
127
100
AcDbEntity
  8
Make2D$可见线$普通线
100
AcDbVertex
100
AcDb2dVertex
 10
955.5085590092899
 20
428.6412814783087
 30
0.0
  0
VERTEX
  5
13C
330
127
100
AcDbEntity
  8
Make2D$可见线$普通线
100
AcDbVertex
100
AcDb2dVertex
 10
955.6532056165531
 20
428.4958438264668
 30
0.0
  0
VERTEX
  5
13D
330
127
100
AcDbEntity
  8
Make2D$可见线$普通线
100
AcDbVertex
100
AcDb2dVertex
 10
955.7274221337992
 20
428.4250171787023
 30
0.0
  0
VERTEX
  5
13E
330
127
100
AcDbEntity
  8
Make2D$可见线$普通线
100
AcDbVertex
100
AcDb2dVertex
 10
955.802905852413
 20
428.3554998336379
 30
0.0
  0
VERTEX
  5
13F
330
127
100
AcDbEntity
  8
Make2D$可见线$普通线
100
AcDbVertex
100
AcDb2dVertex
 10
955.8795486399825
 20
428.287388827582
 30
0.0
  0
VERTEX
  5
140
330
127
100
AcDbEntity
  8
Make2D$可见线$普通线
100
AcDbVertex
100
AcDb2dVertex
 10
955.9574366388426
 20
428.2206294251262
 30
0.0
  0
VERTEX
  5
141
330
127
100
AcDbEntity
  8
Make2D$可见线$普通线
100
AcDbVertex
100
AcDb2dVertex
 10
956.0365338080189
 20
428.1552554324588
 30
0.0
  0
VERTEX
  5
142
330
127
100
AcDbEntity
  8
Make2D$可见线$普通线
100
AcDbVertex
100
AcDb2dVertex
 10
956.1168028944929
 20
428.0912993636015
 30
0.0
  0
VERTEX
  5
143
330
127
100
AcDbEntity
  8
Make2D$可见线$普通线
100
AcDbVertex
100
AcDb2dVertex
 10
956.1982054915949
 20
428.0287923866137
 30
0.0
  0
VERTEX
  5
144
330
127
100
AcDbEntity
  8
Make2D$可见线$普通线
100
AcDbVertex
100
AcDb2dVertex
 10
956.2807021002307
 20
427.9677642729893
 30
0.0
  0
VERTEX
  5
145
330
127
100
AcDbEntity
  8
Make2D$可见线$普通线
100
AcDbVertex
100
AcDb2dVertex
 10
956.3642521927414
 20
427.9082433504144
 30
0.0
  0
VERTEX
  5
146
330
127
100
AcDbEntity
  8
Make2D$可见线$普通线
100
AcDbVertex
100
AcDb2dVertex
 10
956.4488142791754
 20
427.8502564590485
 30
0.0
  0
VERTEX
  5
147
330
127
100
AcDbEntity
  8
Make2D$可见线$普通线
100
AcDbVertex
100
AcDb2dVertex
 10
956.621103905711
 20
427.7389617393791
 30
0.0
  0
VERTEX
  5
148
330
127
100
AcDbEntity
  8
Make2D$可见线$普通线
100
AcDbVertex
100
AcDb2dVertex
 10
956.7972501980125
 20
427.633637325457
 30
0.0
  0
VERTEX
  5
149
330
127
100
AcDbEntity
  8
Make2D$可见线$普通线
100
AcDbVertex
100
AcDb2dVertex
 10
956.9769394458292
 20
427.5344782478153
 30
0.0
  0
VERTEX
  5
14A
330
127
100
AcDbEntity
  8
Make2D$可见线$普通线
100
AcDbVertex
100
AcDb2dVertex
 10
957.1598451909508
 20
427.441657353402
 30
0.0
  0
VERTEX
  5
14B
330
127
100
AcDbEntity
  8
Make2D$可见线$普通线
100
AcDbVertex
100
AcDb2dVertex
 10
957.3457585383437
 20
427.3548315085969
 30
0.0
  0
VERTEX
  5
14C
330
127
100
AcDbEntity
  8
Make2D$可见线$普通线
100
AcDbVertex
100
AcDb2dVertex
 10
957.5342813414825
 20
427.2740184934538
 30
0.0
  0
VERTEX
  5
14D
330
127
100
AcDbEntity
  8
Make2D$可见线$普通线
100
AcDbVertex
100
AcDb2dVertex
 10
957.7251762518645
 20
427.1990043617416
 30
0.0
  0
VERTEX
  5
14E
330
127
100
AcDbEntity
  8
Make2D$可见线$普通线
100
AcDbVertex
100
AcDb2dVertex
 10
957.918205920987
 20
427.1295751672295
 30
0.0
  0
VERTEX
  5
14F
330
127
100
AcDbEntity
  8
Make2D$可见线$普通线
100
AcDbVertex
100
AcDb2dVertex
 10
958.1131330003477
 20
427.0655169636861
 30
0.0
  0
VERTEX
  5
150
330
127
100
AcDbEntity
  8
Make2D$可见线$普通线
100
AcDbVertex
100
AcDb2dVertex
 10
958.3097201414438
 20
427.0066158048804
 30
0.0
  0
VERTEX
  5
151
330
127
100
AcDbEntity
  8
Make2D$可见线$普通线
100
AcDbVertex
100
AcDb2dVertex
 10
958.5077299957728
 20
426.9526577445815
 30
0.0
  0
VERTEX
  5
152
330
127
100
AcDbEntity
  8
Make2D$可见线$普通线
100
AcDbVertex
100
AcDb2dVertex
 10
958.7069252148326
 20
426.9034288365581
 30
0.0
  0
VERTEX
  5
153
330
127
100
AcDbEntity
  8
Make2D$可见线$普通线
100
AcDbVertex
100
AcDb2dVertex
 10
958.9071014458742
 20
426.8586574884061
 30
0.0
  0
VERTEX
  5
154
330
127
100
AcDbEntity
  8
Make2D$可见线$普通线
100
AcDbVertex
100
AcDb2dVertex
 10
959.1081456090336
 20
426.8180565896155
 30
0.0
  0
VERTEX
  5
155
330
127
100
AcDbEntity
  8
Make2D$可见线$普通线
100
AcDbVertex
100
AcDb2dVertex
 10
959.3099572651329
 20
426.7813889167963
 30
0.0
  0
VERTEX
  5
156
330
127
100
AcDbEntity
  8
Make2D$可见线$普通线
100
AcDbVertex
100
AcDb2dVertex
 10
959.5124359749944
 20
426.7484172465583
 30
0.0
  0
VERTEX
  5
157
330
127
100
AcDbEntity
  8
Make2D$可见线$普通线
100
AcDbVertex
100
AcDb2dVertex
 10
959.9189927992945
 20
426.6926130202658
 30
0.0
  0
VERTEX
  5
158
330
127
100
AcDbEntity
  8
Make2D$可见线$普通线
100
AcDbVertex
100
AcDb2dVertex
 10
960.3270125685128
 20
426.6487461236179
 30
0.0
  0
VERTEX
  5
159
330
127
100
AcDbEntity
  8
Make2D$可见线$普通线
100
AcDbVertex
100
AcDb2dVertex
 10
960.7359003198178
 20
426.61508471187
 30
0.0
  0
VERTEX
  5
15A
330
127
100
AcDbEntity
  8
Make2D$可见线$普通线
100
AcDbVertex
100
AcDb2dVertex
 10
961.1454447290655
 20
426.5901669737527
 30
0.0
  0
VERTEX
  5
15B
330
127
100
AcDbEntity
  8
Make2D$可见线$普通线
100
AcDbVertex
100
AcDb2dVertex
 10
961.9655912998312
 20
426.5605915707771
 30
0.0
  0
VERTEX
  5
15C
330
127
100
AcDbEntity
  8
Make2D$可见线$普通线
100
AcDbVertex
100
AcDb2dVertex
 10
963.1964950176346
 20
426.5473539716405
 30
0.0
  0
VERTEX
  5
15D
330
127
100
AcDbEntity
  8
Make2D$可见线$普通线
100
AcDbVertex
100
AcDb2dVertex
 10
963.6067984170754
 20
426.5467524671087
 30
0.0
  0
SEQEND
  5
15E
330
127
100
AcDbEntity
  8
Make2D$可见线$普通线
  0
POLYLINE
  5
15F
330
1F
100
AcDbEntity
  8
Make2D$可见线$普通线
100
AcDb2dPolyline
 66
     1
 10
0.0
 20
0.0
 30
0.0
  0
VERTEX
  5
160
330
15F
100
AcDbEntity
  8
Make2D$可见线$普通线
100
AcDbVertex
100
AcDb2dVertex
 10
952.4679132438074
 20
440.6067263034458
 30
0.0
  0
VERTEX
  5
161
330
15F
100
AcDbEntity
  8
Make2D$可见线$普通线
100
AcDbVertex
100
AcDb2dVertex
 10
952.4680304506724
 20
440.6067237808056
 30
0.0
  0
VERTEX
  5
162
330
15F
100
AcDbEntity
  8
Make2D$可见线$普通线
100
AcDbVertex
100
AcDb2dVertex
 10
952.4681477009468
 20
440.6067145604669
 30
0.0
  0
VERTEX
  5
163
330
15F
100
AcDbEntity
  8
Make2D$可见线$普通线
100
AcDbVertex
100
AcDb2dVertex
 10
952.4682649949043
 20
440.6066986431415
 30
0.0
  0
VERTEX
  5
164
330
15F
100
AcDbEntity
  8
Make2D$可见线$普通线
100
AcDbVertex
100
AcDb2dVertex
 10
952.4683823328185
 20
440.6066760295415
 30
0.0
  0
VERTEX
  5
165
330
15F
100
AcDbEntity
  8
Make2D$可见线$普通线
100
AcDbVertex
100
AcDb2dVertex
 10
952.4684997149628
 20
440.6066467203789
 30
0.0
  0
VERTEX
  5
166
330
15F
100
AcDbEntity
  8
Make2D$可见线$普通线
100
AcDbVertex
100
AcDb2dVertex
 10
952.4686171416109
 20
440.6066107163656
 30
0.0
  0
VERTEX
  5
167
330
15F
100
AcDbEntity
  8
Make2D$可见线$普通线
100
AcDbVertex
100
AcDb2dVertex
 10
952.4687346130364
 20
440.6065680182136
 30
0.0
  0
VERTEX
  5
168
330
15F
100
AcDbEntity
  8
Make2D$可见线$普通线
100
AcDbVertex
100
AcDb2dVertex
 10
952.4688521295127
 20
440.6065186266347
 30
0.0
  0
VERTEX
  5
169
330
15F
100
AcDbEntity
  8
Make2D$可见线$普通线
100
AcDbVertex
100
AcDb2dVertex
 10
952.4689696913134
 20
440.606462542341
 30
0.0
  0
VERTEX
  5
16A
330
15F
100
AcDbEntity
  8
Make2D$可见线$普通线
100
AcDbVertex
100
AcDb2dVertex
 10
952.4690872987123
 20
440.6063997660444
 30
0.0
  0
VERTEX
  5
16B
330
15F
100
AcDbEntity
  8
Make2D$可见线$普通线
100
AcDbVertex
100
AcDb2dVertex
 10
952.4692049519829
 20
440.6063302984569
 30
0.0
  0
VERTEX
  5
16C
330
15F
100
AcDbEntity
  8
Make2D$可见线$普通线
100
AcDbVertex
100
AcDb2dVertex
 10
952.4693226513986
 20
440.6062541402903
 30
0.0
  0
VERTEX
  5
16D
330
15F
100
AcDbEntity
  8
Make2D$可见线$普通线
100
AcDbVertex
100
AcDb2dVertex
 10
952.469440397233
 20
440.6061712922568
 30
0.0
  0
VERTEX
  5
16E
330
15F
100
AcDbEntity
  8
Make2D$可见线$普通线
100
AcDbVertex
100
AcDb2dVertex
 10
952.4695581897597
 20
440.6060817550682
 30
0.0
  0
VERTEX
  5
16F
330
15F
100
AcDbEntity
  8
Make2D$可见线$普通线
100
AcDbVertex
100
AcDb2dVertex
 10
952.4696760292522
 20
440.6059855294364
 30
0.0
  0
VERTEX
  5
170
330
15F
100
AcDbEntity
  8
Make2D$可见线$普通线
100
AcDbVertex
100
AcDb2dVertex
 10
952.4697939159844
 20
440.6058826160735
 30
0.0
  0
VERTEX
  5
171
330
15F
100
AcDbEntity
  8
Make2D$可见线$普通线
100
AcDbVertex
100
AcDb2dVertex
 10
952.4699118502294
 20
440.6057730156913
 30
0.0
  0
VERTEX
  5
172
330
15F
100
AcDbEntity
  8
Make2D$可见线$普通线
100
AcDbVertex
100
AcDb2dVertex
 10
952.4700298322612
 20
440.6056567290019
 30
0.0
  0
VERTEX
  5
173
330
15F
100
AcDbEntity
  8
Make2D$可见线$普通线
100
AcDbVertex
100
AcDb2dVertex
 10
952.4701478623529
 20
440.6055337567172
 30
0.0
  0
VERTEX
  5
174
330
15F
100
AcDbEntity
  8
Make2D$可见线$普通线
100
AcDbVertex
100
AcDb2dVertex
 10
952.4702659407784
 20
440.605404099549
 30
0.0
  0
VERTEX
  5
175
330
15F
100
AcDbEntity
  8
Make2D$可见线$普通线
100
AcDbVertex
100
AcDb2dVertex
 10
952.4703840678112
 20
440.6052677582096
 30
0.0
  0
VERTEX
  5
176
330
15F
100
AcDbEntity
  8
Make2D$可见线$普通线
100
AcDbVertex
100
AcDb2dVertex
 10
952.4705022437245
 20
440.6051247334104
 30
0.0
  0
VERTEX
  5
177
330
15F
100
AcDbEntity
  8
Make2D$可见线$普通线
100
AcDbVertex
100
AcDb2dVertex
 10
952.4706204687925
 20
440.604975025864
 30
0.0
  0
VERTEX
  5
178
330
15F
100
AcDbEntity
  8
Make2D$可见线$普通线
100
AcDbVertex
100
AcDb2dVertex
 10
952.4707387432886
 20
440.6048186362821
 30
0.0
  0
VERTEX
  5
179
330
15F
100
AcDbEntity
  8
Make2D$可见线$普通线
100
AcDbVertex
100
AcDb2dVertex
 10
952.4708570674862
 20
440.6046555653766
 30
0.0
  0
VERTEX
  5
17A
330
15F
100
AcDbEntity
  8
Make2D$可见线$普通线
100
AcDbVertex
100
AcDb2dVertex
 10
952.470975441659
 20
440.6044858138594
 30
0.0
  0
VERTEX
  5
17B
330
15F
100
AcDbEntity
  8
Make2D$可见线$普通线
100
AcDbVertex
100
AcDb2dVertex
 10
952.4712123410243
 20
440.6041262718379
 30
0.0
  0
VERTEX
  5
17C
330
15F
100
AcDbEntity
  8
Make2D$可见线$普通线
100
AcDbVertex
100
AcDb2dVertex
 10
952.4714494435729
 20
440.6037400159133
 30
0.0
  0
VERTEX
  5
17D
330
15F
100
AcDbEntity
  8
Make2D$可见线$普通线
100
AcDbVertex
100
AcDb2dVertex
 10
952.4716867514933
 20
440.6033270517813
 30
0.0
  0
VERTEX
  5
17E
330
15F
100
AcDbEntity
  8
Make2D$可见线$普通线
100
AcDbVertex
100
AcDb2dVertex
 10
952.4719242669742
 20
440.6028873851374
 30
0.0
  0
VERTEX
  5
17F
330
15F
100
AcDbEntity
  8
Make2D$可见线$普通线
100
AcDbVertex
100
AcDb2dVertex
 10
952.4721619922041
 20
440.6024210216773
 30
0.0
  0
VERTEX
  5
180
330
15F
100
AcDbEntity
  8
Make2D$可见线$普通线
100
AcDbVertex
100
AcDb2dVertex
 10
952.4723999293714
 20
440.6019279670966
 30
0.0
  0
VERTEX
  5
181
330
15F
100
AcDbEntity
  8
Make2D$可见线$普通线
100
AcDbVertex
100
AcDb2dVertex
 10
952.4726380806648
 20
440.601408227091
 30
0.0
  0
VERTEX
  5
182
330
15F
100
AcDbEntity
  8
Make2D$可见线$普通线
100
AcDbVertex
100
AcDb2dVertex
 10
952.4731150343839
 20
440.6002887135875
 30
0.0
  0
VERTEX
  5
183
330
15F
100
AcDbEntity
  8
Make2D$可见线$普通线
100
AcDbVertex
100
AcDb2dVertex
 10
952.4735928708697
 20
440.5990625267318
 30
0.0
  0
VERTEX
  5
184
330
15F
100
AcDbEntity
  8
Make2D$可见线$普通线
100
AcDbVertex
100
AcDb2dVertex
 10
952.4740716076305
 20
440.5977297120889
 30
0.0
  0
VERTEX
  5
185
330
15F
100
AcDbEntity
  8
Make2D$可见线$普通线
100
AcDbVertex
100
AcDb2dVertex
 10
952.474551262175
 20
440.5962903152238
 30
0.0
  0
VERTEX
  5
186
330
15F
100
AcDbEntity
  8
Make2D$可见线$普通线
100
AcDbVertex
100
AcDb2dVertex
 10
952.4750318520113
 20
440.5947443817017
 30
0.0
  0
VERTEX
  5
187
330
15F
100
AcDbEntity
  8
Make2D$可见线$普通线
100
AcDbVertex
100
AcDb2dVertex
 10
952.4755133946476
 20
440.5930919570874
 30
0.0
  0
VERTEX
  5
188
330
15F
100
AcDbEntity
  8
Make2D$可见线$普通线
100
AcDbVertex
100
AcDb2dVertex
 10
952.4764794083542
 20
440.5894678168428
 30
0.0
  0
VERTEX
  5
189
330
15F
100
AcDbEntity
  8
Make2D$可见线$普通线
100
AcDbVertex
100
AcDb2dVertex
 10
952.4774494433616
 20
440.5854182590103
 30
0.0
  0
VERTEX
  5
18A
330
15F
100
AcDbEntity
  8
Make2D$可见线$普通线
100
AcDbVertex
100
AcDb2dVertex
 10
952.4794021375463
 20
440.5760443486629
 30
0.0
  0
VERTEX
  5
18B
330
15F
100
AcDbEntity
  8
Make2D$可见线$普通线
100
AcDbVertex
100
AcDb2dVertex
 10
952.4813725977358
 20
440.5649731422074
 30
0.0
  0
VERTEX
  5
18C
330
15F
100
AcDbEntity
  8
Make2D$可见线$普通线
100
AcDbVertex
100
AcDb2dVertex
 10
952.4833619444646
 20
440.5522075558062
 30
0.0
  0
VERTEX
  5
18D
330
15F
100
AcDbEntity
  8
Make2D$可见线$普通线
100
AcDbVertex
100
AcDb2dVertex
 10
952.4874017796785
 20
440.521604907816
 30
0.0
  0
VERTEX
  5
18E
330
15F
100
AcDbEntity
  8
Make2D$可见线$普通线
100
AcDbVertex
100
AcDb2dVertex
 10
952.4915306074645
 20
440.484259733991
 30
0.0
  0
VERTEX
  5
18F
330
15F
100
AcDbEntity
  8
Make2D$可见线$普通线
100
AcDbVertex
100
AcDb2dVertex
 10
952.5000910978542
 20
440.3894351260307
 30
0.0
  0
VERTEX
  5
190
330
15F
100
AcDbEntity
  8
Make2D$可见线$普通线
100
AcDbVertex
100
AcDb2dVertex
 10
952.6636515285118
 20
437.9051754316272
 30
0.0
 42
0.0058301451423681
  0
VERTEX
  5
191
330
15F
100
AcDbEntity
  8
Make2D$可见线$普通线
100
AcDbVertex
100
AcDb2dVertex
 10
952.7689110813989
 20
436.7453057538886
 30
0.0
 42
0.0070237275079361
  0
VERTEX
  5
192
330
15F
100
AcDbEntity
  8
Make2D$可见线$普通线
100
AcDbVertex
100
AcDb2dVertex
 10
952.901306678074
 20
435.6113747038002
 30
0.0
 42
0.0078645093916121
  0
VERTEX
  5
193
330
15F
100
AcDbEntity
  8
Make2D$可见线$普通线
100
AcDbVertex
100
AcDb2dVertex
 10
953.0560109070934
 20
434.5594500181865
 30
0.0
 42
0.0192925613450596
  0
VERTEX
  5
194
330
15F
100
AcDbEntity
  8
Make2D$可见线$普通线
100
AcDbVertex
100
AcDb2dVertex
 10
953.4490754006688
 20
432.6067654590942
 30
0.0
  0
SEQEND
  5
195
330
15F
100
AcDbEntity
  8
Make2D$可见线$普通线
  0
POLYLINE
  5
196
330
1F
100
AcDbEntity
  8
Make2D$可见线$普通线
100
AcDb2dPolyline
 66
     1
 10
0.0
 20
0.0
 30
0.0
  0
VERTEX
  5
197
330
196
100
AcDbEntity
  8
Make2D$可见线$普通线
100
AcDbVertex
100
AcDb2dVertex
 10
974.7456835903434
 20
440.6067263034458
 30
0.0
  0
VERTEX
  5
198
330
196
100
AcDbEntity
  8
Make2D$可见线$普通线
100
AcDbVertex
100
AcDb2dVertex
 10
974.7455663834785
 20
440.6067237808056
 30
0.0
  0
VERTEX
  5
199
330
196
100
AcDbEntity
  8
Make2D$可见线$普通线
100
AcDbVertex
100
AcDb2dVertex
 10
974.7454491332041
 20
440.6067145604669
 30
0.0
  0
VERTEX
  5
19A
330
196
100
AcDbEntity
  8
Make2D$可见线$普通线
100
AcDbVertex
100
AcDb2dVertex
 10
974.7453318392465
 20
440.6066986431415
 30
0.0
  0
VERTEX
  5
19B
330
196
100
AcDbEntity
  8
Make2D$可见线$普通线
100
AcDbVertex
100
AcDb2dVertex
 10
974.7452145013325
 20
440.6066760295415
 30
0.0
  0
VERTEX
  5
19C
330
196
100
AcDbEntity
  8
Make2D$可见线$普通线
100
AcDbVertex
100
AcDb2dVertex
 10
974.7450971191881
 20
440.6066467203789
 30
0.0
  0
VERTEX
  5
19D
330
196
100
AcDbEntity
  8
Make2D$可见线$普通线
100
AcDbVertex
100
AcDb2dVertex
 10
974.74497969254
 20
440.6066107163656
 30
0.0
  0
VERTEX
  5
19E
330
196
100
AcDbEntity
  8
Make2D$可见线$普通线
100
AcDbVertex
100
AcDb2dVertex
 10
974.7448622211147
 20
440.6065680182136
 30
0.0
  0
VERTEX
  5
19F
330
196
100
AcDbEntity
  8
Make2D$可见线$普通线
100
AcDbVertex
100
AcDb2dVertex
 10
974.7447447046384
 20
440.6065186266347
 30
0.0
  0
VERTEX
  5
1A0
330
196
100
AcDbEntity
  8
Make2D$可见线$普通线
100
AcDbVertex
100
AcDb2dVertex
 10
974.7446271428377
 20
440.606462542341
 30
0.0
  0
VERTEX
  5
1A1
330
196
100
AcDbEntity
  8
Make2D$可见线$普通线
100
AcDbVertex
100
AcDb2dVertex
 10
974.7445095354387
 20
440.6063997660444
 30
0.0
  0
VERTEX
  5
1A2
330
196
100
AcDbEntity
  8
Make2D$可见线$普通线
100
AcDbVertex
100
AcDb2dVertex
 10
974.7443918821683
 20
440.6063302984569
 30
0.0
  0
VERTEX
  5
1A3
330
196
100
AcDbEntity
  8
Make2D$可见线$普通线
100
AcDbVertex
100
AcDb2dVertex
 10
974.7442741827526
 20
440.6062541402903
 30
0.0
  0
VERTEX
  5
1A4
330
196
100
AcDbEntity
  8
Make2D$可见线$普通线
100
AcDbVertex
100
AcDb2dVertex
 10
974.7441564369183
 20
440.6061712922568
 30
0.0
  0
VERTEX
  5
1A5
330
196
100
AcDbEntity
  8
Make2D$可见线$普通线
100
AcDbVertex
100
AcDb2dVertex
 10
974.7440386443916
 20
440.6060817550682
 30
0.0
  0
VERTEX
  5
1A6
330
196
100
AcDbEntity
  8
Make2D$可见线$普通线
100
AcDbVertex
100
AcDb2dVertex
 10
974.7439208048991
 20
440.6059855294364
 30
0.0
  0
VERTEX
  5
1A7
330
196
100
AcDbEntity
  8
Make2D$可见线$普通线
100
AcDbVertex
100
AcDb2dVertex
 10
974.7438029181669
 20
440.6058826160735
 30
0.0
  0
VERTEX
  5
1A8
330
196
100
AcDbEntity
  8
Make2D$可见线$普通线
100
AcDbVertex
100
AcDb2dVertex
 10
974.7436849839219
 20
440.6057730156913
 30
0.0
  0
VERTEX
  5
1A9
330
196
100
AcDbEntity
  8
Make2D$可见线$普通线
100
AcDbVertex
100
AcDb2dVertex
 10
974.7435670018901
 20
440.6056567290019
 30
0.0
  0
VERTEX
  5
1AA
330
196
100
AcDbEntity
  8
Make2D$可见线$普通线
100
AcDbVertex
100
AcDb2dVertex
 10
974.7434489717984
 20
440.6055337567172
 30
0.0
  0
VERTEX
  5
1AB
330
196
100
AcDbEntity
  8
Make2D$可见线$普通线
100
AcDbVertex
100
AcDb2dVertex
 10
974.7433308933729
 20
440.605404099549
 30
0.0
  0
VERTEX
  5
1AC
330
196
100
AcDbEntity
  8
Make2D$可见线$普通线
100
AcDbVertex
100
AcDb2dVertex
 10
974.7432127663401
 20
440.6052677582096
 30
0.0
  0
VERTEX
  5
1AD
330
196
100
AcDbEntity
  8
Make2D$可见线$普通线
100
AcDbVertex
100
AcDb2dVertex
 10
974.7430945904259
 20
440.6051247334104
 30
0.0
  0
VERTEX
  5
1AE
330
196
100
AcDbEntity
  8
Make2D$可见线$普通线
100
AcDbVertex
100
AcDb2dVertex
 10
974.7429763653579
 20
440.604975025864
 30
0.0
  0
VERTEX
  5
1AF
330
196
100
AcDbEntity
  8
Make2D$可见线$普通线
100
AcDbVertex
100
AcDb2dVertex
 10
974.7428580908618
 20
440.6048186362821
 30
0.0
  0
VERTEX
  5
1B0
330
196
100
AcDbEntity
  8
Make2D$可见线$普通线
100
AcDbVertex
100
AcDb2dVertex
 10
974.7427397666642
 20
440.6046555653766
 30
0.0
  0
VERTEX
  5
1B1
330
196
100
AcDbEntity
  8
Make2D$可见线$普通线
100
AcDbVertex
100
AcDb2dVertex
 10
974.7426213924914
 20
440.6044858138594
 30
0.0
  0
VERTEX
  5
1B2
330
196
100
AcDbEntity
  8
Make2D$可见线$普通线
100
AcDbVertex
100
AcDb2dVertex
 10
974.7423844931261
 20
440.6041262718379
 30
0.0
  0
VERTEX
  5
1B3
330
196
100
AcDbEntity
  8
Make2D$可见线$普通线
100
AcDbVertex
100
AcDb2dVertex
 10
974.7421473905775
 20
440.6037400159133
 30
0.0
  0
VERTEX
  5
1B4
330
196
100
AcDbEntity
  8
Make2D$可见线$普通线
100
AcDbVertex
100
AcDb2dVertex
 10
974.7419100826571
 20
440.6033270517813
 30
0.0
  0
VERTEX
  5
1B5
330
196
100
AcDbEntity
  8
Make2D$可见线$普通线
100
AcDbVertex
100
AcDb2dVertex
 10
974.7416725671762
 20
440.6028873851374
 30
0.0
  0
VERTEX
  5
1B6
330
196
100
AcDbEntity
  8
Make2D$可见线$普通线
100
AcDbVertex
100
AcDb2dVertex
 10
974.7414348419463
 20
440.6024210216773
 30
0.0
  0
VERTEX
  5
1B7
330
196
100
AcDbEntity
  8
Make2D$可见线$普通线
100
AcDbVertex
100
AcDb2dVertex
 10
974.741196904779
 20
440.6019279670966
 30
0.0
  0
VERTEX
  5
1B8
330
196
100
AcDbEntity
  8
Make2D$可见线$普通线
100
AcDbVertex
100
AcDb2dVertex
 10
974.7409587534856
 20
440.601408227091
 30
0.0
  0
VERTEX
  5
1B9
330
196
100
AcDbEntity
  8
Make2D$可见线$普通线
100
AcDbVertex
100
AcDb2dVertex
 10
974.7404817997665
 20
440.6002887135875
 30
0.0
  0
VERTEX
  5
1BA
330
196
100
AcDbEntity
  8
Make2D$可见线$普通线
100
AcDbVertex
100
AcDb2dVertex
 10
974.7400039632807
 20
440.5990625267318
 30
0.0
  0
VERTEX
  5
1BB
330
196
100
AcDbEntity
  8
Make2D$可见线$普通线
100
AcDbVertex
100
AcDb2dVertex
 10
974.7395252265198
 20
440.5977297120889
 30
0.0
  0
VERTEX
  5
1BC
330
196
100
AcDbEntity
  8
Make2D$可见线$普通线
100
AcDbVertex
100
AcDb2dVertex
 10
974.7390455719753
 20
440.5962903152238
 30
0.0
  0
VERTEX
  5
1BD
330
196
100
AcDbEntity
  8
Make2D$可见线$普通线
100
AcDbVertex
100
AcDb2dVertex
 10
974.7385649821391
 20
440.5947443817017
 30
0.0
  0
VERTEX
  5
1BE
330
196
100
AcDbEntity
  8
Make2D$可见线$普通线
100
AcDbVertex
100
AcDb2dVertex
 10
974.7380834395028
 20
440.5930919570874
 30
0.0
  0
VERTEX
  5
1BF
330
196
100
AcDbEntity
  8
Make2D$可见线$普通线
100
AcDbVertex
100
AcDb2dVertex
 10
974.7371174257962
 20
440.5894678168428
 30
0.0
  0
VERTEX
  5
1C0
330
196
100
AcDbEntity
  8
Make2D$可见线$普通线
100
AcDbVertex
100
AcDb2dVertex
 10
974.7361473907888
 20
440.5854182590103
 30
0.0
  0
VERTEX
  5
1C1
330
196
100
AcDbEntity
  8
Make2D$可见线$普通线
100
AcDbVertex
100
AcDb2dVertex
 10
974.7341946966048
 20
440.5760443486629
 30
0.0
  0
VERTEX
  5
1C2
330
196
100
AcDbEntity
  8
Make2D$可见线$普通线
100
AcDbVertex
100
AcDb2dVertex
 10
974.7322242364153
 20
440.5649731422074
 30
0.0
  0
VERTEX
  5
1C3
330
196
100
AcDbEntity
  8
Make2D$可见线$普通线
100
AcDbVertex
100
AcDb2dVertex
 10
974.7302348896865
 20
440.5522075558062
 30
0.0
  0
VERTEX
  5
1C4
330
196
100
AcDbEntity
  8
Make2D$可见线$普通线
100
AcDbVertex
100
AcDb2dVertex
 10
974.7261950544723
 20
440.521604907816
 30
0.0
  0
VERTEX
  5
1C5
330
196
100
AcDbEntity
  8
Make2D$可见线$普通线
100
AcDbVertex
100
AcDb2dVertex
 10
974.7220662266868
 20
440.484259733991
 30
0.0
  0
VERTEX
  5
1C6
330
196
100
AcDbEntity
  8
Make2D$可见线$普通线
100
AcDbVertex
100
AcDb2dVertex
 10
974.7135057362966
 20
440.3894351260307
 30
0.0
  0
VERTEX
  5
1C7
330
196
100
AcDbEntity
  8
Make2D$可见线$普通线
100
AcDbVertex
100
AcDb2dVertex
 10
974.5499453056391
 20
437.9051754316272
 30
0.0
 42
-0.0058301451429648
  0
VERTEX
  5
1C8
330
196
100
AcDbEntity
  8
Make2D$可见线$普通线
100
AcDbVertex
100
AcDb2dVertex
 10
974.444685752752
 20
436.7453057538886
 30
0.0
 42
-0.0070237275079556
  0
VERTEX
  5
1C9
330
196
100
AcDbEntity
  8
Make2D$可见线$普通线
100
AcDbVertex
100
AcDb2dVertex
 10
974.3122901560768
 20
435.6113747038002
 30
0.0
 42
-0.0078645093920153
  0
VERTEX
  5
1CA
330
196
100
AcDbEntity
  8
Make2D$可见线$普通线
100
AcDbVertex
100
AcDb2dVertex
 10
974.1575859270574
 20
434.5594500181865
 30
0.0
 42
-0.0192925613452251
  0
VERTEX
  5
1CB
330
196
100
AcDbEntity
  8
Make2D$可见线$普通线
100
AcDbVertex
100
AcDb2dVertex
 10
973.764521433482
 20
432.6067654590939
 30
0.0
  0
SEQEND
  5
1CC
330
196
100
AcDbEntity
  8
Make2D$可见线$普通线
  0
ARC
  5
1CD
330
1F
100
AcDbEntity
  8
Make2D$可见线$普通线
100
AcDbCircle
 10
980.6067984170604
 20
332.6067993113988
 30
0.0
 40
1.000000000088077
100
AcDbArc
 50
278.699018703924
 51
280.4841229809646
  0
SPLINE
  5
1CE
330
1F
100
AcDbEntity
  8
Make2D$可见线$普通线
100
AcDbSpline
210
0.0
220
0.0
230
1.0
 70
    12
 71
     3
 72
    50
 73
    46
 74
     0
 42
0.000000001
 43
0.0000000001
 12
1.0
 22
0.0
 32
0.0
 13
1.0
 23
0.0
 33
0.0
 40
-246.154495719197
 40
-246.154495719197
 40
-246.154495719197
 40
-246.154495719197
 40
-244.4088340600895
 40
-244.4088340600895
 40
-244.4088340600895
 40
-241.1005224412528
 40
-241.1005224412528
 40
-241.1005224412528
 40
-230.5308241570668
 40
-230.5308241570668
 40
-223.6339408640004
 40
-223.6339408640004
 40
-223.6339408640004
 40
-217.4278188570649
 40
-217.4278188570649
 40
-205.503159669188
 40
-205.503159669188
 40
-205.503159669188
 40
-204.2968096405604
 40
-204.2968096405604
 40
-196.5373033930818
 40
-196.5373033930818
 40
-191.1531209236124
 40
-191.1531209236124
 40
-191.1531209236124
 40
-189.91666469279
 40
-189.91666469279
 40
-189.91666469279
 40
-189.1657273474339
 40
-188.4297659586143
 40
-186.908591977849
 40
-185.5081010524776
 40
-184.0340707506405
 40
-184.0340707506405
 40
-184.0340707506405
 40
-178.7927482051132
 40
-178.7927482051132
 40
-167.2945208137474
 40
-167.2945208137474
 40
-167.2945208137474
 40
-165.5771988254452
 40
-165.5771988254452
 40
-158.9967471953364
 40
-158.9967471953364
 40
-152.4175765412365
 40
-152.4175765412365
 40
-152.4175765412365
 40
-152.4175765412365
 10
945.657891996979
 20
432.6067993113121
 30
0.0
 41
1.0
 10
945.6607855579548
 20
432.3739804617182
 30
0.0
 41
1.0
 10
945.6638835295987
 20
432.1413104966311
 30
0.0
 41
1.0
 10
945.6672061162753
 20
431.9088246446404
 30
0.0
 41
1.0
 10
945.6825509291627
 20
430.8061548120584
 30
0.0
 41
0.9999890142821408
 10
945.7042257055177
 20
429.7035912415388
 30
0.0
 41
0.9999890142821406
 10
945.7322297310017
 20
428.6011702704366
 30
0.0
 41
1.0
 10
945.7683027484334
 20
427.2057382620933
 30
0.0
 41
1.0
 10
945.817000795529
 20
425.8168093336211
 30
0.0
 41
1.0
 10
945.9313025421263
 20
423.549862071632
 30
0.0
 41
1.0
 10
945.9852760142377
 20
422.6584402377945
 30
0.0
 41
1.0
 10
946.0516048254095
 20
421.7747134801092
 30
0.0
 41
1.0
 10
946.1112904366075
 20
420.9794968806776
 30
0.0
 41
1.0
 10
946.1809804128994
 20
420.190511138277
 30
0.0
 41
1.0
 10
946.4212848645002
 20
417.9122291890645
 30
0.0
 41
1.0
 10
946.626674866399
 20
416.4366552936183
 30
0.0
 41
1.0
 10
946.9074754425834
 20
415.0106424320084
 30
0.0
 41
1.0
 10
946.9358824417086
 20
414.86638081167
 30
0.0
 41
1.0
 10
946.9650612092023
 20
414.7226264098296
 30
0.0
 41
1.0
 10
947.1878761079386
 20
413.6581876078646
 30
0.0
 41
1.0
 10
947.4143739644555
 20
412.7564128633616
 30
0.0
 41
1.0
 10
947.8735946159964
 20
411.2762540610956
 30
0.0
 41
1.0
 10
948.0831871461854
 20
410.6833779859202
 30
0.0
 41
1.0
 10
948.3179135656547
 20
410.1067993113121
 30
0.0
 41
1.0
 10
948.4730472989785
 20
409.7248732168646
 30
0.0
 41
0.9996193898271437
 10
948.6409962800341
 20
409.3484065429115
 30
0.0
 41
0.9996193898271437
 10
948.8215687395491
 20
408.9778291505903
 30
0.0
 41
1.0
 10
948.9313774110132
 20
408.7528995315575
 30
0.0
 41
1.0
 10
949.1586508131833
 20
408.3122692788559
 30
0.0
 41
1.0
 10
949.6595000406247
 20
407.4433631599633
 30
0.0
 41
1.0
 10
950.3478870078256
 20
406.4348833091369
 30
0.0
 41
1.0
 10
951.3024509617746
 20
405.3204116134077
 30
0.0
 41
1.0
 10
952.0050137104986
 20
404.666465347916
 30
0.0
 41
1.0
 10
952.3834705603182
 20
404.3531204182993
 30
0.0
 41
1.0
 10
952.8453739448722
 20
403.9706473517663
 30
0.0
 41
1.0
 10
953.3401632033128
 20
403.6158094554185
 30
0.0
 41
1.0
 10
955.0319733553935
 20
402.5739614584589
 30
0.0
 41
1.0
 10
956.3309203569972
 20
402.0149915658778
 30
0.0
 41
1.0
 10
957.7464791299515
 20
401.6085517714164
 30
0.0
 41
1.0
 10
957.957900432017
 20
401.547847806171
 30
0.0
 41
1.0
 10
958.1719229959072
 20
401.4905463338021
 30
0.0
 41
1.0
 10
959.2182822190197
 20
401.230050140845
 30
0.0
 41
1.0
 10
960.0755462456964
 20
401.0758534553464
 30
0.0
 41
1.0
 10
961.8267450399238
 20
400.8698297285509
 30
0.0
 41
1.0
 10
962.7154309682678
 20
400.8185710658777
 30
0.0
 41
1.0
 10
963.6066148672903
 20
400.8185640286321
 30
0.0
 41
1.0
  0
LINE
  5
1CF
330
1F
100
AcDbEntity
  8
Make2D$可见线$普通线
100
AcDbLine
 10
945.606798761513
 20
432.606799311312
 30
0.0
 11
945.657891996979
 21
432.6067993113121
 31
0.0
  0
LINE
  5
1D0
330
1F
100
AcDbEntity
  8
Make2D$可见线$普通线
100
AcDbLine
 10
981.6067984170754
 20
432.6067993113121
 30
0.0
 11
981.6067984170754
 21
332.6067993113121
 31
0.0
  0
LINE
  5
1D1
330
1F
100
AcDbEntity
  8
Make2D$可见线$普通线
100
AcDbLine
 10
981.5557048371719
 20
432.6067993113121
 30
0.0
 11
981.6067984170754
 21
432.6067993113121
 31
0.0
  0
SPLINE
  5
1D2
330
1F
100
AcDbEntity
  8
Make2D$可见线$普通线
100
AcDbSpline
210
0.0
220
0.0
230
1.0
 70
    12
 71
     3
 72
    49
 73
    45
 74
     0
 42
0.000000001
 43
0.0000000001
 12
1.0
 22
0.0
 32
0.0
 13
1.0
 23
0.0
 33
0.0
 40
133.6088212550461
 40
133.6088212550461
 40
133.6088212550461
 40
133.6088212550461
 40
140.187991909146
 40
140.187991909146
 40
146.7684435392548
 40
146.7684435392548
 40
148.485765527557
 40
148.485765527557
 40
148.485765527557
 40
159.9839929189228
 40
159.9839929189228
 40
165.2253154644501
 40
165.2253154644501
 40
165.2253154644501
 40
165.8978599012798
 40
166.6993457662872
 40
168.0998366916587
 40
171.1079094065996
 40
171.1079094065996
 40
171.1079094065996
 40
172.3443656374221
 40
172.3443656374221
 40
172.3443656374221
 40
177.7285481068914
 40
177.7285481068914
 40
185.48805435437
 40
185.48805435437
 40
186.6944043829976
 40
186.6944043829976
 40
186.6944043829976
 40
198.6190635708746
 40
198.6190635708746
 40
204.8251855778101
 40
204.8251855778101
 40
204.8251855778101
 40
211.7220688708764
 40
211.7220688708764
 40
222.2917671550624
 40
222.2917671550624
 40
222.2917671550624
 40
225.6000787738992
 40
225.6000787738992
 40
225.6000787738992
 40
227.3457404330067
 40
227.3457404330067
 40
227.3457404330067
 40
227.3457404330067
 10
963.6069819668605
 20
400.8185640286321
 30
0.0
 41
1.0
 10
964.4981658658832
 20
400.8185710658777
 30
0.0
 41
1.0
 10
965.3868517942271
 20
400.8698297285509
 30
0.0
 41
1.0
 10
967.1380505884546
 20
401.0758534553464
 30
0.0
 41
1.0
 10
967.9953146151313
 20
401.230050140845
 30
0.0
 41
1.0
 10
969.0416738382438
 20
401.4905463338021
 30
0.0
 41
1.0
 10
969.2556964021338
 20
401.547847806171
 30
0.0
 41
1.0
 10
969.4671177041994
 20
401.6085517714164
 30
0.0
 41
1.0
 10
970.8826764771536
 20
402.0149915658778
 30
0.0
 41
1.0
 10
972.1816234787574
 20
402.5739614584589
 30
0.0
 41
1.0
 10
973.873433630838
 20
403.6158094554185
 30
0.0
 41
1.0
 10
974.3682228892786
 20
403.9706473517663
 30
0.0
 41
1.0
 10
974.8301262738327
 20
404.3531204182993
 30
0.0
 41
1.0
 10
975.0027241350158
 20
404.4960597936179
 30
0.0
 41
1.0
 10
975.3731075892192
 20
404.8195125595226
 30
0.0
 41
1.0
 10
976.0569869513085
 20
405.4908680695954
 30
0.0
 41
1.0
 10
977.188992758915
 20
406.8119736357022
 30
0.0
 41
1.0
 10
977.9526154611674
 20
408.0769671665237
 30
0.0
 41
1.0
 10
978.3920280946018
 20
408.9778291505903
 30
0.0
 41
1.0
 10
978.5726005541172
 20
409.3484065429117
 30
0.0
 41
0.9996193898271435
 10
978.7405495351725
 20
409.7248732168643
 30
0.0
 41
0.9996193898271442
 10
978.8956832684961
 20
410.1067993113121
 30
0.0
 41
1.0
 10
979.1304096879655
 20
410.6833779859202
 30
0.0
 41
1.0
 10
979.3400022181545
 20
411.2762540610956
 30
0.0
 41
1.0
 10
979.7992228696953
 20
412.7564128633616
 30
0.0
 41
1.0
 10
980.0257207262123
 20
413.6581876078646
 30
0.0
 41
1.0
 10
980.2485356249485
 20
414.7226264098296
 30
0.0
 41
1.0
 10
980.2777143924422
 20
414.86638081167
 30
0.0
 41
1.0
 10
980.3061213915676
 20
415.0106424320084
 30
0.0
 41
1.0
 10
980.5869219677519
 20
416.4366552936183
 30
0.0
 41
1.0
 10
980.7923119696507
 20
417.9122291890645
 30
0.0
 41
1.0
 10
981.0326164212514
 20
420.190511138277
 30
0.0
 41
1.0
 10
981.1023063975433
 20
420.9794968806776
 30
0.0
 41
1.0
 10
981.1619920087413
 20
421.7747134801092
 30
0.0
 41
1.0
 10
981.2283208199133
 20
422.6584402377945
 30
0.0
 41
1.0
 10
981.2822942920245
 20
423.549862071632
 30
0.0
 41
1.0
 10
981.3965960386219
 20
425.8168093336211
 30
0.0
 41
1.0
 10
981.4452940857175
 20
427.2057382620933
 30
0.0
 41
1.0
 10
981.4813671031493
 20
428.6011702704366
 30
0.0
 41
1.0
 10
981.5093711286335
 20
429.7035912415384
 30
0.0
 41
0.9999890142821402
 10
981.5310459049882
 20
430.8061548120585
 30
0.0
 41
0.99998901428214
 10
981.5463907178755
 20
431.9088246446404
 30
0.0
 41
1.0
 10
981.5497133045521
 20
432.1413104966311
 30
0.0
 41
1.0
 10
981.552811276196
 20
432.3739804617182
 30
0.0
 41
1.0
 10
981.5557048371719
 20
432.6067993113121
 30
0.0
 41
1.0
  0
SPLINE
  5
1D3
330
1F
100
AcDbEntity
  8
Make2D$可见线$普通线
100
AcDbSpline
210
0.0
220
0.0
230
1.0
 70
    12
 71
     2
 72
     6
 73
     3
 74
     0
 42
0.000000001
 43
0.0000000001
 12
1.0
 22
0.0
 32
0.0
 13
1.0
 23
0.0
 33
0.0
 40
-94.45067491072436
 40
-94.45067491072436
 40
-94.45067491072436
 40
-80.95772135204945
 40
-80.95772135204945
 40
-80.95772135204945
 10
963.6067984170754
 20
421.9451053161399
 30
0.0
 41
1.0
 10
954.5264100305844
 20
421.94510531614
 30
0.0
 41
0.7071067811865472
 10
954.5264100305794
 20
421.5122728375143
 30
0.0
 41
1.0
  0
SPLINE
  5
1D4
330
1F
100
AcDbEntity
  8
Make2D$可见线$普通线
100
AcDbSpline
210
0.0
220
0.0
230
1.0
 70
    12
 71
     2
 72
     6
 73
     3
 74
     0
 42
0.000000001
 43
0.0000000001
 12
1.0
 22
0.0
 32
0.0
 13
1.0
 23
0.0
 33
0.0
 40
0.0
 40
0.0
 40
0.0
 40
0.6867003837639328
 40
0.6867003837639328
 40
0.6867003837639328
 10
954.5264100305794
 20
421.5122728375143
 30
0.0
 41
1.0
 10
954.6067984170655
 20
420.6136009211348
 30
0.0
 41
0.7733421413378635
 10
955.0167003684248
 20
420.6136009211348
 30
0.0
 41
1.0
  0
SPLINE
  5
1D5
330
1F
100
AcDbEntity
  8
Make2D$可见线$普通线
100
AcDbSpline
210
0.0
220
0.0
230
1.0
 70
     8
 71
     3
 72
    11
 73
     7
 74
     0
 42
0.000000001
 43
0.0000000001
 12
1.0
 22
0.0
 32
0.0
 13
1.0
 23
0.0
 33
0.0
 40
40.47886067601465
 40
40.47886067601465
 40
40.47886067601465
 40
40.47886067601465
 40
43.71690048757185
 40
47.22533745536174
 40
50.73377442315239
 40
53.97181423469962
 40
53.97181423469962
 40
53.97181423469962
 40
53.97181423469962
 10
963.6067984170754
 20
421.023062859521
 30
0.0
 10
962.5274990970051
 20
421.0230814806001
 30
0.0
 10
960.2787922565466
 20
421.0026377828406
 30
0.0
 10
957.3609820398375
 20
420.9113186032785
 30
0.0
 10
955.445197854979
 20
420.7722361131702
 30
0.0
 10
955.0163097168866
 20
420.6650475971973
 30
0.0
 10
955.0167003684248
 20
420.6136009211348
 30
0.0
  0
SPLINE
  5
1D6
330
1F
100
AcDbEntity
  8
Make2D$可见线$普通线
100
AcDbSpline
210
0.0
220
0.0
230
1.0
 70
     8
 71
     3
 72
     9
 73
     5
 74
     0
 42
0.000000001
 43
0.0000000001
 12
1.0
 22
0.0
 32
0.0
 13
1.0
 23
0.0
 33
0.0
 40
0.0
 40
0.0
 40
0.0
 40
0.0
 40
3.238039811547117
 40
5.34970537201374
 40
5.34970537201374
 40
5.34970537201374
 40
5.34970537201374
 10
955.0167003684248
 20
420.6136009211348
 30
0.0
 10
955.0163097168863
 20
420.5621542450721
 30
0.0
 10
955.3564020719621
 20
420.4771577352681
 30
0.0
 10
956.2193101784775
 20
420.4020264877615
 30
0.0
 10
956.6297259847333
 20
420.3747636832774
 30
0.0
  0
ARC
  5
1D7
330
1F
100
AcDbEntity
  8
Make2D$可见线$普通线
100
AcDbCircle
 10
956.0989440658204
 20
420.8845808859643
 30
0.0
 40
0.2710937699285261
100
AcDbArc
 50
271.660251616113
 51
311.9165131889691
  0
SPLINE
  5
1D8
330
1F
100
AcDbEntity
  8
Make2D$可见线$普通线
100
AcDbSpline
210
0.0
220
0.0
230
1.0
 70
     8
 71
     3
 72
    11
 73
     7
 74
     0
 42
0.000000001
 43
0.0000000001
 12
1.0
 22
0.0
 32
0.0
 13
1.0
 23
0.0
 33
0.0
 40
35.34202442765641
 40
35.34202442765641
 40
35.34202442765641
 40
35.34202442765641
 40
38.1691514813373
 40
41.232361832305
 40
44.29557218327574
 40
47.12269923694544
 40
47.12269923694544
 40
47.12269923694544
 40
47.12269923694544
 10
963.6067984170754
 20
420.9711014435175
 30
0.0
 10
962.6644640163288
 20
420.9711177012182
 30
0.0
 10
960.7011218963835
 20
420.9532683436507
 30
0.0
 10
958.1535867593396
 20
420.873537723164
 30
0.0
 10
956.4809188422976
 20
420.752105037583
 30
0.0
 10
956.1064573425598
 20
420.6585189265152
 30
0.0
 10
956.106798411987
 20
420.6136009211323
 30
0.0
  0
SPLINE
  5
1D9
330
1F
100
AcDbEntity
  8
Make2D$可见线$普通线
100
AcDbSpline
210
0.0
220
0.0
230
1.0
 70
     8
 71
     3
 72
     8
 73
     4
 74
     0
 42
0.000000001
 43
0.0000000001
 12
1.0
 22
0.0
 32
0.0
 13
1.0
 23
0.0
 33
0.0
 40
0.0
 40
0.0
 40
0.0
 40
0.0
 40
2.769753018057205
 40
2.769753018057205
 40
2.769753018057205
 40
2.769753018057205
 10
956.106798411987
 20
420.6136009211323
 30
0.0
 10
956.1064642650349
 20
420.5695944868264
 30
0.0
 10
956.2789633072838
 20
420.5255884404637
 30
0.0
 10
956.6122245344715
 20
420.4845497164384
 30
0.0
  0
SPLINE
  5
1DA
330
1F
100
AcDbEntity
  8
Make2D$可见线$普通线
100
AcDbSpline
210
0.0
220
0.0
230
1.0
 70
    12
 71
     2
 72
     6
 73
     3
 74
     0
 42
0.000000001
 43
0.0000000001
 12
1.0
 22
0.0
 32
0.0
 13
1.0
 23
0.0
 33
0.0
 40
40.47886067602471
 40
40.47886067602471
 40
40.47886067602471
 40
53.97181423469962
 40
53.97181423469962
 40
53.97181423469962
 10
963.6067984170754
 20
421.9451053161399
 30
0.0
 41
1.0
 10
972.6871868035665
 20
421.94510531614
 30
0.0
 41
0.7071067811865472
 10
972.6871868035714
 20
421.5122728375143
 30
0.0
 41
1.0
  0
SPLINE
  5
1DB
330
1F
100
AcDbEntity
  8
Make2D$可见线$普通线
100
AcDbSpline
210
0.0
220
0.0
230
1.0
 70
    12
 71
     2
 72
     6
 73
     3
 74
     0
 42
0.000000001
 43
0.0000000001
 12
1.0
 22
0.0
 32
0.0
 13
1.0
 23
0.0
 33
0.0
 40
0.0
 40
0.0
 40
0.0
 40
0.6867003837639328
 40
0.6867003837639328
 40
0.6867003837639328
 10
972.6871868035714
 20
421.5122728375143
 30
0.0
 41
1.0
 10
972.6067984170852
 20
420.6136009211348
 30
0.0
 41
0.7733421413378635
 10
972.196896465726
 20
420.6136009211348
 30
0.0
 41
1.0
  0
SPLINE
  5
1DC
330
1F
100
AcDbEntity
  8
Make2D$可见线$普通线
100
AcDbSpline
210
0.0
220
0.0
230
1.0
 70
     8
 71
     3
 72
    11
 73
     7
 74
     0
 42
0.000000001
 43
0.0000000001
 12
1.0
 22
0.0
 32
0.0
 13
1.0
 23
0.0
 33
0.0
 40
40.47886067601465
 40
40.47886067601465
 40
40.47886067601465
 40
40.47886067601465
 40
43.71690048757185
 40
47.22533745536174
 40
50.73377442315239
 40
53.97181423469962
 40
53.97181423469962
 40
53.97181423469962
 40
53.97181423469962
 10
963.6067984170754
 20
421.023062859521
 30
0.0
 10
964.6860977371455
 20
421.0230814806001
 30
0.0
 10
966.9348045776043
 20
421.0026377828406
 30
0.0
 10
969.8526147943134
 20
420.9113186032785
 30
0.0
 10
971.7683989791716
 20
420.7722361131702
 30
0.0
 10
972.1972871172643
 20
420.6650475971973
 30
0.0
 10
972.196896465726
 20
420.6136009211348
 30
0.0
  0
SPLINE
  5
1DD
330
1F
100
AcDbEntity
  8
Make2D$可见线$普通线
100
AcDbSpline
210
0.0
220
0.0
230
1.0
 70
     8
 71
     3
 72
     9
 73
     5
 74
     0
 42
0.000000001
 43
0.0000000001
 12
1.0
 22
0.0
 32
0.0
 13
1.0
 23
0.0
 33
0.0
 40
0.0
 40
0.0
 40
0.0
 40
0.0
 40
3.238039811547117
 40
5.349705372053656
 40
5.349705372053656
 40
5.349705372053656
 40
5.349705372053656
 10
972.196896465726
 20
420.6136009211348
 30
0.0
 10
972.1972871172643
 20
420.5621542450721
 30
0.0
 10
971.857194762186
 20
420.4771577352675
 30
0.0
 10
970.9942866556604
 20
420.4020264877603
 30
0.0
 10
970.583870849394
 20
420.374763683276
 30
0.0
  0
ARC
  5
1DE
330
1F
100
AcDbEntity
  8
Make2D$可见线$普通线
100
AcDbCircle
 10
971.1146527683318
 20
420.8845808859683
 30
0.0
 40
0.2710937699326098
100
AcDbArc
 50
228.0834868114183
 51
268.3397483836235
  0
SPLINE
  5
1DF
330
1F
100
AcDbEntity
  8
Make2D$可见线$普通线
100
AcDbSpline
210
0.0
220
0.0
230
1.0
 70
     8
 71
     3
 72
    11
 73
     7
 74
     0
 42
0.000000001
 43
0.0000000001
 12
1.0
 22
0.0
 32
0.0
 13
1.0
 23
0.0
 33
0.0
 40
35.34202442765641
 40
35.34202442765641
 40
35.34202442765641
 40
35.34202442765641
 40
38.1691514813373
 40
41.232361832305
 40
44.29557218327574
 40
47.12269923694544
 40
47.12269923694544
 40
47.12269923694544
 40
47.12269923694544
 10
963.6067984170754
 20
420.9711014435175
 30
0.0
 10
964.549132817822
 20
420.9711177012182
 30
0.0
 10
966.5124749377671
 20
420.9532683436507
 30
0.0
 10
969.060010074811
 20
420.873537723164
 30
0.0
 10
970.7326779918533
 20
420.752105037583
 30
0.0
 10
971.1071394915906
 20
420.6585189265152
 30
0.0
 10
971.1067984221638
 20
420.6136009211323
 30
0.0
  0
SPLINE
  5
1E0
330
1F
100
AcDbEntity
  8
Make2D$可见线$普通线
100
AcDbSpline
210
0.0
220
0.0
230
1.0
 70
     8
 71
     3
 72
     8
 73
     4
 74
     0
 42
0.000000001
 43
0.0000000001
 12
1.0
 22
0.0
 32
0.0
 13
1.0
 23
0.0
 33
0.0
 40
0.0
 40
0.0
 40
0.0
 40
0.0
 40
2.769753018118306
 40
2.769753018118306
 40
2.769753018118306
 40
2.769753018118306
 10
971.1067984221638
 20
420.6136009211323
 30
0.0
 10
971.1071325691164
 20
420.5695944868254
 30
0.0
 10
970.9346335268596
 20
420.5255884404617
 30
0.0
 10
970.6013722996572
 20
420.4845497164358
 30
0.0
  0
POLYLINE
  5
1E1
330
1F
100
AcDbEntity
  8
Make2D$可见线$普通线
100
AcDb2dPolyline
 66
     1
 10
0.0
 20
0.0
 30
0.0
  0
VERTEX
  5
1E2
330
1E1
100
AcDbEntity
  8
Make2D$可见线$普通线
100
AcDbVertex
100
AcDb2dVertex
 10
963.6067985218039
 20
425.16899041114
 30
0.0
  0
VERTEX
  5
1E3
330
1E1
100
AcDbEntity
  8
Make2D$可见线$普通线
100
AcDbVertex
100
AcDb2dVertex
 10
963.6067321995706
 20
425.1689926424252
 30
0.0
  0
VERTEX
  5
1E4
330
1E1
100
AcDbEntity
  8
Make2D$可见线$普通线
100
AcDbVertex
100
AcDb2dVertex
 10
961.5679494339105
 20
425.1954044092266
 30
0.0
  0
VERTEX
  5
1E5
330
1E1
100
AcDbEntity
  8
Make2D$可见线$普通线
100
AcDbVertex
100
AcDb2dVertex
 10
960.9889175428682
 20
425.2161727366002
 30
0.0
  0
VERTEX
  5
1E6
330
1E1
100
AcDbEntity
  8
Make2D$可见线$普通线
100
AcDbVertex
100
AcDb2dVertex
 10
960.4221352053783
 20
425.247830103644
 30
0.0
  0
VERTEX
  5
1E7
330
1E1
100
AcDbEntity
  8
Make2D$可见线$普通线
100
AcDbVertex
100
AcDb2dVertex
 10
959.8687143368377
 20
425.292642737979
 30
0.0
  0
VERTEX
  5
1E8
330
1E1
100
AcDbEntity
  8
Make2D$可见线$普通线
100
AcDbVertex
100
AcDb2dVertex
 10
959.3297668526438
 20
425.3528768672268
 30
0.0
  0
VERTEX
  5
1E9
330
1E1
100
AcDbEntity
  8
Make2D$可见线$普通线
100
AcDbVertex
100
AcDb2dVertex
 10
959.0494582058593
 20
425.3916527504432
 30
0.0
  0
VERTEX
  5
1EA
330
1E1
100
AcDbEntity
  8
Make2D$可见线$普通线
100
AcDbVertex
100
AcDb2dVertex
 10
958.770016778836
 20
425.436697715823
 30
0.0
  0
VERTEX
  5
1EB
330
1E1
100
AcDbEntity
  8
Make2D$可见线$普通线
100
AcDbVertex
100
AcDb2dVertex
 10
958.4916525313273
 20
425.4879803225402
 30
0.0
  0
VERTEX
  5
1EC
330
1E1
100
AcDbEntity
  8
Make2D$可见线$普通线
100
AcDbVertex
100
AcDb2dVertex
 10
958.2145738075109
 20
425.5454597744324
 30
0.0
 42
-0.0290361254674991
  0
VERTEX
  5
1ED
330
1E1
100
AcDbEntity
  8
Make2D$可见线$普通线
100
AcDbVertex
100
AcDb2dVertex
 10
957.1421476764347
 20
425.8468189514111
 30
0.0
  0
VERTEX
  5
1EE
330
1E1
100
AcDbEntity
  8
Make2D$可见线$普通线
100
AcDbVertex
100
AcDb2dVertex
 10
956.9325391997941
 20
425.9227269279935
 30
0.0
  0
VERTEX
  5
1EF
330
1E1
100
AcDbEntity
  8
Make2D$可见线$普通线
100
AcDbVertex
100
AcDb2dVertex
 10
956.7165052306332
 20
426.0076557382792
 30
0.0
  0
VERTEX
  5
1F0
330
1E1
100
AcDbEntity
  8
Make2D$可见线$普通线
100
AcDbVertex
100
AcDb2dVertex
 10
956.5030024830016
 20
426.0990232332928
 30
0.0
  0
VERTEX
  5
1F1
330
1E1
100
AcDbEntity
  8
Make2D$可见线$普通线
100
AcDbVertex
100
AcDb2dVertex
 10
956.2923170552496
 20
426.1967119886555
 30
0.0
  0
VERTEX
  5
1F2
330
1E1
100
AcDbEntity
  8
Make2D$可见线$普通线
100
AcDbVertex
100
AcDb2dVertex
 10
956.0847275446779
 20
426.3005877497774
 30
0.0
  0
VERTEX
  5
1F3
330
1E1
100
AcDbEntity
  8
Make2D$可见线$普通线
100
AcDbVertex
100
AcDb2dVertex
 10
955.9554858912282
 20
426.3694817525837
 30
0.0
  0
VERTEX
  5
1F4
330
1E1
100
AcDbEntity
  8
Make2D$可见线$普通线
100
AcDbVertex
100
AcDb2dVertex
 10
955.827572453181
 20
426.4409924097208
 30
0.0
  0
VERTEX
  5
1F5
330
1E1
100
AcDbEntity
  8
Make2D$可见线$普通线
100
AcDbVertex
100
AcDb2dVertex
 10
955.7010662803261
 20
426.5150805866014
 30
0.0
  0
VERTEX
  5
1F6
330
1E1
100
AcDbEntity
  8
Make2D$可见线$普通线
100
AcDbVertex
100
AcDb2dVertex
 10
955.5760448539187
 20
426.5917039802817
 30
0.0
  0
VERTEX
  5
1F7
330
1E1
100
AcDbEntity
  8
Make2D$可见线$普通线
100
AcDbVertex
100
AcDb2dVertex
 10
955.4525839287445
 20
426.670817199628
 30
0.0
  0
VERTEX
  5
1F8
330
1E1
100
AcDbEntity
  8
Make2D$可见线$普通线
100
AcDbVertex
100
AcDb2dVertex
 10
955.3307573801978
 20
426.7523718548786
 30
0.0
  0
VERTEX
  5
1F9
330
1E1
100
AcDbEntity
  8
Make2D$可见线$普通线
100
AcDbVertex
100
AcDb2dVertex
 10
955.2106370570077
 20
426.8363166562297
 30
0.0
  0
VERTEX
  5
1FA
330
1E1
100
AcDbEntity
  8
Make2D$可见线$普通线
100
AcDbVertex
100
AcDb2dVertex
 10
955.0922926402425
 20
426.9225975210236
 30
0.0
  0
VERTEX
  5
1FB
330
1E1
100
AcDbEntity
  8
Make2D$可见线$普通线
100
AcDbVertex
100
AcDb2dVertex
 10
954.8937877506169
 20
427.0754961482019
 30
0.0
  0
VERTEX
  5
1FC
330
1E1
100
AcDbEntity
  8
Make2D$可见线$普通线
100
AcDbVertex
100
AcDb2dVertex
 10
954.6687393296443
 20
427.2615557491675
 30
0.0
  0
VERTEX
  5
1FD
330
1E1
100
AcDbEntity
  8
Make2D$可见线$普通线
100
AcDbVertex
100
AcDb2dVertex
 10
954.0884583112424
 20
427.7840124469971
 30
0.0
  0
VERTEX
  5
1FE
330
1E1
100
AcDbEntity
  8
Make2D$可见线$普通线
100
AcDbVertex
100
AcDb2dVertex
 10
954.0653778440294
 20
427.8032385820904
 30
0.0
  0
VERTEX
  5
1FF
330
1E1
100
AcDbEntity
  8
Make2D$可见线$普通线
100
AcDbVertex
100
AcDb2dVertex
 10
954.0452766889287
 20
427.8191046857424
 30
0.0
  0
VERTEX
  5
200
330
1E1
100
AcDbEntity
  8
Make2D$可见线$普通线
100
AcDbVertex
100
AcDb2dVertex
 10
954.034995917058
 20
427.8267436469185
 30
0.0
  0
VERTEX
  5
201
330
1E1
100
AcDbEntity
  8
Make2D$可见线$普通线
100
AcDbVertex
100
AcDb2dVertex
 10
954.0245119793092
 20
427.8341158524298
 30
0.0
  0
VERTEX
  5
202
330
1E1
100
AcDbEntity
  8
Make2D$可见线$普通线
100
AcDbVertex
100
AcDb2dVertex
 10
954.0175147111349
 20
427.8387476901771
 30
0.0
  0
VERTEX
  5
203
330
1E1
100
AcDbEntity
  8
Make2D$可见线$普通线
100
AcDbVertex
100
AcDb2dVertex
 10
954.0139581030062
 20
427.8409647763785
 30
0.0
  0
VERTEX
  5
204
330
1E1
100
AcDbEntity
  8
Make2D$可见线$普通线
100
AcDbVertex
100
AcDb2dVertex
 10
954.0103525204256
 20
427.8430906528715
 30
0.0
  0
VERTEX
  5
205
330
1E1
100
AcDbEntity
  8
Make2D$可见线$普通线
100
AcDbVertex
100
AcDb2dVertex
 10
954.006690219575
 20
427.845106328711
 30
0.0
  0
VERTEX
  5
206
330
1E1
100
AcDbEntity
  8
Make2D$可见线$普通线
100
AcDbVertex
100
AcDb2dVertex
 10
954.0048353798554
 20
427.8460669067154
 30
0.0
  0
VERTEX
  5
207
330
1E1
100
AcDbEntity
  8
Make2D$可见线$普通线
100
AcDbVertex
100
AcDb2dVertex
 10
954.0029634566363
 20
427.8469928129518
 30
0.0
  0
VERTEX
  5
208
330
1E1
100
AcDbEntity
  8
Make2D$可见线$普通线
100
AcDbVertex
100
AcDb2dVertex
 10
954.0010734819407
 20
427.8478816735524
 30
0.0
  0
VERTEX
  5
209
330
1E1
100
AcDbEntity
  8
Make2D$可见线$普通线
100
AcDbVertex
100
AcDb2dVertex
 10
953.9991644877911
 20
427.8487311146488
 30
0.0
  0
VERTEX
  5
20A
330
1E1
100
AcDbEntity
  8
Make2D$可见线$普通线
100
AcDbVertex
100
AcDb2dVertex
 10
953.9972355062105
 20
427.849538762373
 30
0.0
  0
VERTEX
  5
20B
330
1E1
100
AcDbEntity
  8
Make2D$可见线$普通线
100
AcDbVertex
100
AcDb2dVertex
 10
953.9952855692214
 20
427.8503022428567
 30
0.0
  0
VERTEX
  5
20C
330
1E1
100
AcDbEntity
  8
Make2D$可见线$普通线
100
AcDbVertex
100
AcDb2dVertex
 10
953.9940518908659
 20
427.8507559915399
 30
0.0
  0
VERTEX
  5
20D
330
1E1
100
AcDbEntity
  8
Make2D$可见线$普通线
100
AcDbVertex
100
AcDb2dVertex
 10
953.9928086219344
 20
427.851183052519
 30
0.0
  0
VERTEX
  5
20E
330
1E1
100
AcDbEntity
  8
Make2D$可见线$普通线
100
AcDbVertex
100
AcDb2dVertex
 10
953.9915547881236
 20
427.8515750295564
 30
0.0
  0
VERTEX
  5
20F
330
1E1
100
AcDbEntity
  8
Make2D$可见线$普通线
100
AcDbVertex
100
AcDb2dVertex
 10
953.9909236049186
 20
427.8517552377727
 30
0.0
  0
VERTEX
  5
210
330
1E1
100
AcDbEntity
  8
Make2D$可见线$普通线
100
AcDbVertex
100
AcDb2dVertex
 10
953.9902894151303
 20
427.8519235264144
 30
0.0
  0
VERTEX
  5
211
330
1E1
100
AcDbEntity
  8
Make2D$可见线$普通线
100
AcDbVertex
100
AcDb2dVertex
 10
953.9896520969703
 20
427.8520788459518
 30
0.0
  0
VERTEX
  5
212
330
1E1
100
AcDbEntity
  8
Make2D$可见线$普通线
100
AcDbVertex
100
AcDb2dVertex
 10
953.989011528651
 20
427.8522201468552
 30
0.0
  0
VERTEX
  5
213
330
1E1
100
AcDbEntity
  8
Make2D$可见线$普通线
100
AcDbVertex
100
AcDb2dVertex
 10
953.9883675883841
 20
427.8523463795948
 30
0.0
  0
VERTEX
  5
214
330
1E1
100
AcDbEntity
  8
Make2D$可见线$普通线
100
AcDbVertex
100
AcDb2dVertex
 10
953.987720154382
 20
427.852456494641
 30
0.0
  0
VERTEX
  5
215
330
1E1
100
AcDbEntity
  8
Make2D$可见线$普通线
100
AcDbVertex
100
AcDb2dVertex
 10
953.9870691048568
 20
427.8525494424641
 30
0.0
  0
VERTEX
  5
216
330
1E1
100
AcDbEntity
  8
Make2D$可见线$普通线
100
AcDbVertex
100
AcDb2dVertex
 10
953.9864143180203
 20
427.8526241735341
 30
0.0
  0
VERTEX
  5
217
330
1E1
100
AcDbEntity
  8
Make2D$可见线$普通线
100
AcDbVertex
100
AcDb2dVertex
 10
953.9857556720847
 20
427.8526796383216
 30
0.0
  0
VERTEX
  5
218
330
1E1
100
AcDbEntity
  8
Make2D$可见线$普通线
100
AcDbVertex
100
AcDb2dVertex
 10
953.9850930452621
 20
427.8527147872968
 30
0.0
  0
VERTEX
  5
219
330
1E1
100
AcDbEntity
  8
Make2D$可见线$普通线
100
AcDbVertex
100
AcDb2dVertex
 10
953.9846185465377
 20
427.8527268038877
 30
0.0
  0
VERTEX
  5
21A
330
1E1
100
AcDbEntity
  8
Make2D$可见线$普通线
100
AcDbVertex
100
AcDb2dVertex
 10
953.9841429122596
 20
427.8527272652184
 30
0.0
  0
VERTEX
  5
21B
330
1E1
100
AcDbEntity
  8
Make2D$可见线$普通线
100
AcDbVertex
100
AcDb2dVertex
 10
953.9836670900302
 20
427.8527154644015
 30
0.0
  0
VERTEX
  5
21C
330
1E1
100
AcDbEntity
  8
Make2D$可见线$普通线
100
AcDbVertex
100
AcDb2dVertex
 10
953.9831920274522
 20
427.8526906945498
 30
0.0
  0
VERTEX
  5
21D
330
1E1
100
AcDbEntity
  8
Make2D$可见线$普通线
100
AcDbVertex
100
AcDb2dVertex
 10
953.9827186721279
 20
427.8526522487757
 30
0.0
  0
VERTEX
  5
21E
330
1E1
100
AcDbEntity
  8
Make2D$可见线$普通线
100
AcDbVertex
100
AcDb2dVertex
 10
953.98224797166
 20
427.8525994201921
 30
0.0
  0
VERTEX
  5
21F
330
1E1
100
AcDbEntity
  8
Make2D$可见线$普通线
100
AcDbVertex
100
AcDb2dVertex
 10
953.9817808736509
 20
427.8525315019114
 30
0.0
  0
VERTEX
  5
220
330
1E1
100
AcDbEntity
  8
Make2D$可见线$普通线
100
AcDbVertex
100
AcDb2dVertex
 10
953.9815489716943
 20
427.8524916632324
 30
0.0
  0
VERTEX
  5
221
330
1E1
100
AcDbEntity
  8
Make2D$可见线$普通线
100
AcDbVertex
100
AcDb2dVertex
 10
953.9813183257033
 20
427.8524477870463
 30
0.0
  0
VERTEX
  5
222
330
1E1
100
AcDbEntity
  8
Make2D$可见线$普通线
100
AcDbVertex
100
AcDb2dVertex
 10
953.9810890541283
 20
427.8523997849924
 30
0.0
  0
VERTEX
  5
223
330
1E1
100
AcDbEntity
  8
Make2D$可见线$普通线
100
AcDbVertex
100
AcDb2dVertex
 10
953.9808612754196
 20
427.8523475687095
 30
0.0
  0
VERTEX
  5
224
330
1E1
100
AcDbEntity
  8
Make2D$可见线$普通线
100
AcDbVertex
100
AcDb2dVertex
 10
953.9806351080276
 20
427.8522910498369
 30
0.0
  0
VERTEX
  5
225
330
1E1
100
AcDbEntity
  8
Make2D$可见线$普通线
100
AcDbVertex
100
AcDb2dVertex
 10
953.9804106704024
 20
427.8522301400137
 30
0.0
  0
VERTEX
  5
226
330
1E1
100
AcDbEntity
  8
Make2D$可见线$普通线
100
AcDbVertex
100
AcDb2dVertex
 10
953.9801880809945
 20
427.8521647508788
 30
0.0
  0
VERTEX
  5
227
330
1E1
100
AcDbEntity
  8
Make2D$可见线$普通线
100
AcDbVertex
100
AcDb2dVertex
 10
953.9799674582542
 20
427.8520947940714
 30
0.0
  0
VERTEX
  5
228
330
1E1
100
AcDbEntity
  8
Make2D$可见线$普通线
100
AcDbVertex
100
AcDb2dVertex
 10
953.9797489206319
 20
427.8520201812305
 30
0.0
  0
VERTEX
  5
229
330
1E1
100
AcDbEntity
  8
Make2D$可见线$普通线
100
AcDbVertex
100
AcDb2dVertex
 10
953.9795325865778
 20
427.8519408239952
 30
0.0
  0
VERTEX
  5
22A
330
1E1
100
AcDbEntity
  8
Make2D$可见线$普通线
100
AcDbVertex
100
AcDb2dVertex
 10
953.979318574542
 20
427.8518566340047
 30
0.0
  0
VERTEX
  5
22B
330
1E1
100
AcDbEntity
  8
Make2D$可见线$普通线
100
AcDbVertex
100
AcDb2dVertex
 10
953.9791070029752
 20
427.8517675228978
 30
0.0
  0
VERTEX
  5
22C
330
1E1
100
AcDbEntity
  8
Make2D$可见线$普通线
100
AcDbVertex
100
AcDb2dVertex
 10
953.9788979903275
 20
427.8516734023139
 30
0.0
  0
VERTEX
  5
22D
330
1E1
100
AcDbEntity
  8
Make2D$可见线$普通线
100
AcDbVertex
100
AcDb2dVertex
 10
953.9786916550493
 20
427.8515741838919
 30
0.0
  0
VERTEX
  5
22E
330
1E1
100
AcDbEntity
  8
Make2D$可见线$普通线
100
AcDbVertex
100
AcDb2dVertex
 10
953.9784881155908
 20
427.8514697792709
 30
0.0
  0
VERTEX
  5
22F
330
1E1
100
AcDbEntity
  8
Make2D$可见线$普通线
100
AcDbVertex
100
AcDb2dVertex
 10
953.9782874904024
 20
427.8513601000901
 30
0.0
  0
VERTEX
  5
230
330
1E1
100
AcDbEntity
  8
Make2D$可见线$普通线
100
AcDbVertex
100
AcDb2dVertex
 10
953.9780898979346
 20
427.8512450579884
 30
0.0
  0
VERTEX
  5
231
330
1E1
100
AcDbEntity
  8
Make2D$可见线$普通线
100
AcDbVertex
100
AcDb2dVertex
 10
953.9778954566375
 20
427.8511245646049
 30
0.0
  0
VERTEX
  5
232
330
1E1
100
AcDbEntity
  8
Make2D$可见线$普通线
100
AcDbVertex
100
AcDb2dVertex
 10
953.9777140080355
 20
427.8510051748716
 30
0.0
  0
VERTEX
  5
233
330
1E1
100
AcDbEntity
  8
Make2D$可见线$普通线
100
AcDbVertex
100
AcDb2dVertex
 10
953.9775355238095
 20
427.8508809309442
 30
0.0
  0
VERTEX
  5
234
330
1E1
100
AcDbEntity
  8
Make2D$可见线$普通线
100
AcDbVertex
100
AcDb2dVertex
 10
953.9773600259196
 20
427.8507519638955
 30
0.0
  0
VERTEX
  5
235
330
1E1
100
AcDbEntity
  8
Make2D$可见线$普通线
100
AcDbVertex
100
AcDb2dVertex
 10
953.9771875363258
 20
427.850618404798
 30
0.0
  0
VERTEX
  5
236
330
1E1
100
AcDbEntity
  8
Make2D$可见线$普通线
100
AcDbVertex
100
AcDb2dVertex
 10
953.9770180769882
 20
427.8504803847245
 30
0.0
  0
VERTEX
  5
237
330
1E1
100
AcDbEntity
  8
Make2D$可见线$普通线
100
AcDbVertex
100
AcDb2dVertex
 10
953.9768516698671
 20
427.8503380347478
 30
0.0
  0
VERTEX
  5
238
330
1E1
100
AcDbEntity
  8
Make2D$可见线$普通线
100
AcDbVertex
100
AcDb2dVertex
 10
953.9766883369222
 20
427.8501914859404
 30
0.0
  0
VERTEX
  5
239
330
1E1
100
AcDbEntity
  8
Make2D$可见线$普通线
100
AcDbVertex
100
AcDb2dVertex
 10
953.9765281001137
 20
427.8500408693749
 30
0.0
  0
VERTEX
  5
23A
330
1E1
100
AcDbEntity
  8
Make2D$可见线$普通线
100
AcDbVertex
100
AcDb2dVertex
 10
953.9763709814017
 20
427.8498863161242
 30
0.0
  0
VERTEX
  5
23B
330
1E1
100
AcDbEntity
  8
Make2D$可见线$普通线
100
AcDbVertex
100
AcDb2dVertex
 10
953.9762170027461
 20
427.8497279572609
 30
0.0
  0
VERTEX
  5
23C
330
1E1
100
AcDbEntity
  8
Make2D$可见线$普通线
100
AcDbVertex
100
AcDb2dVertex
 10
953.9760661861072
 20
427.8495659238578
 30
0.0
  0
VERTEX
  5
23D
330
1E1
100
AcDbEntity
  8
Make2D$可见线$普通线
100
AcDbVertex
100
AcDb2dVertex
 10
953.975918553445
 20
427.8494003469873
 30
0.0
  0
VERTEX
  5
23E
330
1E1
100
AcDbEntity
  8
Make2D$可见线$普通线
100
AcDbVertex
100
AcDb2dVertex
 10
953.9757741267194
 20
427.8492313577223
 30
0.0
  0
VERTEX
  5
23F
330
1E1
100
AcDbEntity
  8
Make2D$可见线$普通线
100
AcDbVertex
100
AcDb2dVertex
 10
953.9756329278907
 20
427.8490590871353
 30
0.0
  0
VERTEX
  5
240
330
1E1
100
AcDbEntity
  8
Make2D$可见线$普通线
100
AcDbVertex
100
AcDb2dVertex
 10
953.9754949789187
 20
427.8488836662992
 30
0.0
  0
VERTEX
  5
241
330
1E1
100
AcDbEntity
  8
Make2D$可见线$普通线
100
AcDbVertex
100
AcDb2dVertex
 10
953.9753603017635
 20
427.8487052262866
 30
0.0
  0
VERTEX
  5
242
330
1E1
100
AcDbEntity
  8
Make2D$可见线$普通线
100
AcDbVertex
100
AcDb2dVertex
 10
953.9752289183855
 20
427.8485238981701
 30
0.0
  0
VERTEX
  5
243
330
1E1
100
AcDbEntity
  8
Make2D$可见线$普通线
100
AcDbVertex
100
AcDb2dVertex
 10
953.9751008507442
 20
427.8483398130226
 30
0.0
  0
VERTEX
  5
244
330
1E1
100
AcDbEntity
  8
Make2D$可见线$普通线
100
AcDbVertex
100
AcDb2dVertex
 10
953.9749761208002
 20
427.8481531019165
 30
0.0
  0
VERTEX
  5
245
330
1E1
100
AcDbEntity
  8
Make2D$可见线$普通线
100
AcDbVertex
100
AcDb2dVertex
 10
953.974854750513
 20
427.8479638959246
 30
0.0
  0
VERTEX
  5
246
330
1E1
100
AcDbEntity
  8
Make2D$可见线$普通线
100
AcDbVertex
100
AcDb2dVertex
 10
953.9747367618432
 20
427.8477723261197
 30
0.0
  0
VERTEX
  5
247
330
1E1
100
AcDbEntity
  8
Make2D$可见线$普通线
100
AcDbVertex
100
AcDb2dVertex
 10
953.9746221767507
 20
427.8475785235743
 30
0.0
  0
VERTEX
  5
248
330
1E1
100
AcDbEntity
  8
Make2D$可见线$普通线
100
AcDbVertex
100
AcDb2dVertex
 10
953.9745110171953
 20
427.8473826193612
 30
0.0
  0
VERTEX
  5
249
330
1E1
100
AcDbEntity
  8
Make2D$可见线$普通线
100
AcDbVertex
100
AcDb2dVertex
 10
953.9744033051375
 20
427.847184744553
 30
0.0
  0
VERTEX
  5
24A
330
1E1
100
AcDbEntity
  8
Make2D$可见线$普通线
100
AcDbVertex
100
AcDb2dVertex
 10
953.974198311354
 20
427.8467836074423
 30
0.0
  0
VERTEX
  5
24B
330
1E1
100
AcDbEntity
  8
Make2D$可见线$普通线
100
AcDbVertex
100
AcDb2dVertex
 10
953.9740073710805
 20
427.8463761608234
 30
0.0
  0
VERTEX
  5
24C
330
1E1
100
AcDbEntity
  8
Make2D$可见线$普通线
100
AcDbVertex
100
AcDb2dVertex
 10
953.9738306599977
 20
427.8459634532779
 30
0.0
  0
VERTEX
  5
24D
330
1E1
100
AcDbEntity
  8
Make2D$可见线$普通线
100
AcDbVertex
100
AcDb2dVertex
 10
953.9736683537863
 20
427.8455465333873
 30
0.0
  0
VERTEX
  5
24E
330
1E1
100
AcDbEntity
  8
Make2D$可见线$普通线
100
AcDbVertex
100
AcDb2dVertex
 10
953.973566043836
 20
427.8452604946577
 30
0.0
  0
VERTEX
  5
24F
330
1E1
100
AcDbEntity
  8
Make2D$可见线$普通线
100
AcDbVertex
100
AcDb2dVertex
 10
953.9734702811547
 20
427.8449730478299
 30
0.0
  0
VERTEX
  5
250
330
1E1
100
AcDbEntity
  8
Make2D$可见线$普通线
100
AcDbVertex
100
AcDb2dVertex
 10
953.9733808418403
 20
427.8446842540493
 30
0.0
  0
VERTEX
  5
251
330
1E1
100
AcDbEntity
  8
Make2D$可见线$普通线
100
AcDbVertex
100
AcDb2dVertex
 10
953.9732975019906
 20
427.8443941744613
 30
0.0
  0
VERTEX
  5
252
330
1E1
100
AcDbEntity
  8
Make2D$可见线$普通线
100
AcDbVertex
100
AcDb2dVertex
 10
953.9732200377035
 20
427.8441028702116
 30
0.0
  0
VERTEX
  5
253
330
1E1
100
AcDbEntity
  8
Make2D$可见线$普通线
100
AcDbVertex
100
AcDb2dVertex
 10
953.973148225077
 20
427.8438104024457
 30
0.0
  0
VERTEX
  5
254
330
1E1
100
AcDbEntity
  8
Make2D$可见线$普通线
100
AcDbVertex
100
AcDb2dVertex
 10
953.973081840209
 20
427.843516832309
 30
0.0
  0
VERTEX
  5
255
330
1E1
100
AcDbEntity
  8
Make2D$可见线$普通线
100
AcDbVertex
100
AcDb2dVertex
 10
953.9730206591973
 20
427.8432222209469
 30
0.0
  0
VERTEX
  5
256
330
1E1
100
AcDbEntity
  8
Make2D$可见线$普通线
100
AcDbVertex
100
AcDb2dVertex
 10
953.972913013135
 20
427.8426301191292
 30
0.0
  0
VERTEX
  5
257
330
1E1
100
AcDbEntity
  8
Make2D$可见线$普通线
100
AcDbVertex
100
AcDb2dVertex
 10
953.9728234956729
 20
427.8420345861564
 30
0.0
  0
VERTEX
  5
258
330
1E1
100
AcDbEntity
  8
Make2D$可见线$普通线
100
AcDbVertex
100
AcDb2dVertex
 10
953.9727503155943
 20
427.8414361111928
 30
0.0
  0
VERTEX
  5
259
330
1E1
100
AcDbEntity
  8
Make2D$可见线$普通线
100
AcDbVertex
100
AcDb2dVertex
 10
953.9726916816828
 20
427.8408351834022
 30
0.0
  0
VERTEX
  5
25A
330
1E1
100
AcDbEntity
  8
Make2D$可见线$普通线
100
AcDbVertex
100
AcDb2dVertex
 10
953.9726458027214
 20
427.8402322919488
 30
0.0
  0
VERTEX
  5
25B
330
1E1
100
AcDbEntity
  8
Make2D$可见线$普通线
100
AcDbVertex
100
AcDb2dVertex
 10
953.9726108874936
 20
427.8396279259965
 30
0.0
  0
VERTEX
  5
25C
330
1E1
100
AcDbEntity
  8
Make2D$可见线$普通线
100
AcDbVertex
100
AcDb2dVertex
 10
953.972566783371
 20
427.8384167272517
 30
0.0
  0
VERTEX
  5
25D
330
1E1
100
AcDbEntity
  8
Make2D$可见线$普通线
100
AcDbVertex
100
AcDb2dVertex
 10
953.9725313263903
 20
427.8359981589941
 30
0.0
  0
VERTEX
  5
25E
330
1E1
100
AcDbEntity
  8
Make2D$可见线$普通线
100
AcDbVertex
100
AcDb2dVertex
 10
953.9727250017431
 20
427.8328303391531
 30
0.0
  0
SEQEND
  5
25F
330
1E1
100
AcDbEntity
  8
Make2D$可见线$普通线
  0
POLYLINE
  5
260
330
1F
100
AcDbEntity
  8
Make2D$可见线$普通线
100
AcDb2dPolyline
 66
     1
 10
0.0
 20
0.0
 30
0.0
  0
VERTEX
  5
261
330
260
100
AcDbEntity
  8
Make2D$可见线$普通线
100
AcDbVertex
100
AcDb2dVertex
 10
949.5638608259507
 20
439.596848248799
 30
0.0
 42
0.0068777650602128
  0
VERTEX
  5
262
330
260
100
AcDbEntity
  8
Make2D$可见线$普通线
100
AcDbVertex
100
AcDb2dVertex
 10
949.620310783113
 20
437.1573773230168
 30
0.0
 42
0.0114344962272142
  0
VERTEX
  5
263
330
260
100
AcDbEntity
  8
Make2D$可见线$普通线
100
AcDbVertex
100
AcDb2dVertex
 10
949.8081616881929
 20
433.9832560170337
 30
0.0
 42
0.0112399937585369
  0
VERTEX
  5
264
330
260
100
AcDbEntity
  8
Make2D$可见线$普通线
100
AcDbVertex
100
AcDb2dVertex
 10
950.0550916902164
 20
431.6343613361626
 30
0.0
  0
VERTEX
  5
265
330
260
100
AcDbEntity
  8
Make2D$可见线$普通线
100
AcDbVertex
100
AcDb2dVertex
 10
950.1380673956659
 20
431.023639453498
 30
0.0
  0
VERTEX
  5
266
330
260
100
AcDbEntity
  8
Make2D$可见线$普通线
100
AcDbVertex
100
AcDb2dVertex
 10
950.2885286469784
 20
430.0539305698837
 30
0.0
  0
VERTEX
  5
267
330
260
100
AcDbEntity
  8
Make2D$可见线$普通线
100
AcDbVertex
100
AcDb2dVertex
 10
950.4549197044718
 20
429.1348030321625
 30
0.0
  0
VERTEX
  5
268
330
260
100
AcDbEntity
  8
Make2D$可见线$普通线
100
AcDbVertex
100
AcDb2dVertex
 10
950.6136789505593
 20
428.3690189696457
 30
0.0
  0
VERTEX
  5
269
330
260
100
AcDbEntity
  8
Make2D$可见线$普通线
100
AcDbVertex
100
AcDb2dVertex
 10
950.7914971035166
 20
427.6103664064138
 30
0.0
  0
VERTEX
  5
26A
330
260
100
AcDbEntity
  8
Make2D$可见线$普通线
100
AcDbVertex
100
AcDb2dVertex
 10
950.9816333152468
 20
426.8908269564905
 30
0.0
  0
VERTEX
  5
26B
330
260
100
AcDbEntity
  8
Make2D$可见线$普通线
100
AcDbVertex
100
AcDb2dVertex
 10
951.1837615702098
 20
426.2093654409819
 30
0.0
  0
VERTEX
  5
26C
330
260
100
AcDbEntity
  8
Make2D$可见线$普通线
100
AcDbVertex
100
AcDb2dVertex
 10
951.3975558528657
 20
425.5649466809937
 30
0.0
  0
VERTEX
  5
26D
330
260
100
AcDbEntity
  8
Make2D$可见线$普通线
100
AcDbVertex
100
AcDb2dVertex
 10
951.5431940312621
 20
425.1639319317347
 30
0.0
  0
VERTEX
  5
26E
330
260
100
AcDbEntity
  8
Make2D$可见线$普通线
100
AcDbVertex
100
AcDb2dVertex
 10
951.6935699327835
 20
424.7779607248191
 30
0.0
  0
VERTEX
  5
26F
330
260
100
AcDbEntity
  8
Make2D$可见线$普通线
100
AcDbVertex
100
AcDb2dVertex
 10
951.8485929822593
 20
424.4067454619773
 30
0.0
  0
VERTEX
  5
270
330
260
100
AcDbEntity
  8
Make2D$可见线$普通线
100
AcDbVertex
100
AcDb2dVertex
 10
952.0081726045186
 20
424.0499985449395
 30
0.0
  0
VERTEX
  5
271
330
260
100
AcDbEntity
  8
Make2D$可见线$普通线
100
AcDbVertex
100
AcDb2dVertex
 10
952.1555894786183
 20
423.7411114771341
 30
0.0
  0
VERTEX
  5
272
330
260
100
AcDbEntity
  8
Make2D$可见线$普通线
100
AcDbVertex
100
AcDb2dVertex
 10
952.3065565652223
 20
423.4434972937304
 30
0.0
  0
VERTEX
  5
273
330
260
100
AcDbEntity
  8
Make2D$可见线$普通线
100
AcDbVertex
100
AcDb2dVertex
 10
952.4610078692658
 20
423.1569464442943
 30
0.0
  0
VERTEX
  5
274
330
260
100
AcDbEntity
  8
Make2D$可见线$普通线
100
AcDbVertex
100
AcDb2dVertex
 10
952.6188773956843
 20
422.8812493783914
 30
0.0
  0
VERTEX
  5
275
330
260
100
AcDbEntity
  8
Make2D$可见线$普通线
100
AcDbVertex
100
AcDb2dVertex
 10
952.7737035031199
 20
422.6264102322413
 30
0.0
  0
VERTEX
  5
276
330
260
100
AcDbEntity
  8
Make2D$可见线$普通线
100
AcDbVertex
100
AcDb2dVertex
 10
952.9315651233452
 20
422.3812096661105
 30
0.0
  0
VERTEX
  5
277
330
260
100
AcDbEntity
  8
Make2D$可见线$普通线
100
AcDbVertex
100
AcDb2dVertex
 10
953.0924037371482
 20
422.1454618672209
 30
0.0
  0
VERTEX
  5
278
330
260
100
AcDbEntity
  8
Make2D$可见线$普通线
100
AcDbVertex
100
AcDb2dVertex
 10
953.2561608253169
 20
421.918981022794
 30
0.0
  0
VERTEX
  5
279
330
260
100
AcDbEntity
  8
Make2D$可见线$普通线
100
AcDbVertex
100
AcDb2dVertex
 10
953.4227778686391
 20
421.7015813200514
 30
0.0
  0
VERTEX
  5
27A
330
260
100
AcDbEntity
  8
Make2D$可见线$普通线
100
AcDbVertex
100
AcDb2dVertex
 10
953.5921963479027
 20
421.4930769462147
 30
0.0
  0
VERTEX
  5
27B
330
260
100
AcDbEntity
  8
Make2D$可见线$普通线
100
AcDbVertex
100
AcDb2dVertex
 10
953.7643577438955
 20
421.2932820885055
 30
0.0
  0
VERTEX
  5
27C
330
260
100
AcDbEntity
  8
Make2D$可见线$普通线
100
AcDbVertex
100
AcDb2dVertex
 10
953.9392035374053
 20
421.1020109341455
 30
0.0
  0
VERTEX
  5
27D
330
260
100
AcDbEntity
  8
Make2D$可见线$普通线
100
AcDbVertex
100
AcDb2dVertex
 10
954.0826340488971
 20
420.9533256581303
 30
0.0
  0
VERTEX
  5
27E
330
260
100
AcDbEntity
  8
Make2D$可见线$普通线
100
AcDbVertex
100
AcDb2dVertex
 10
954.1991824227912
 20
420.8376726033028
 30
0.0
  0
VERTEX
  5
27F
330
260
100
AcDbEntity
  8
Make2D$可见线$普通线
100
AcDbVertex
100
AcDb2dVertex
 10
954.3168064812924
 20
420.7254351460841
 30
0.0
  0
VERTEX
  5
280
330
260
100
AcDbEntity
  8
Make2D$可见线$普通线
100
AcDbVertex
100
AcDb2dVertex
 10
954.4354901007712
 20
420.6165620900165
 30
0.0
  0
VERTEX
  5
281
330
260
100
AcDbEntity
  8
Make2D$可见线$普通线
100
AcDbVertex
100
AcDb2dVertex
 10
954.5552171575981
 20
420.5110022386425
 30
0.0
  0
VERTEX
  5
282
330
260
100
AcDbEntity
  8
Make2D$可见线$普通线
100
AcDbVertex
100
AcDb2dVertex
 10
954.6759715281441
 20
420.4087043955046
 30
0.0
  0
VERTEX
  5
283
330
260
100
AcDbEntity
  8
Make2D$可见线$普通线
100
AcDbVertex
100
AcDb2dVertex
 10
954.79773708878
 20
420.3096173641451
 30
0.0
  0
VERTEX
  5
284
330
260
100
AcDbEntity
  8
Make2D$可见线$普通线
100
AcDbVertex
100
AcDb2dVertex
 10
954.9204977158763
 20
420.2136899481065
 30
0.0
  0
VERTEX
  5
285
330
260
100
AcDbEntity
  8
Make2D$可见线$普通线
100
AcDbVertex
100
AcDb2dVertex
 10
955.0442372858035
 20
420.1208709509312
 30
0.0
  0
VERTEX
  5
286
330
260
100
AcDbEntity
  8
Make2D$可见线$普通线
100
AcDbVertex
100
AcDb2dVertex
 10
955.2175504021831
 20
419.9971143943011
 30
0.0
  0
VERTEX
  5
287
330
260
100
AcDbEntity
  8
Make2D$可见线$普通线
100
AcDbVertex
100
AcDb2dVertex
 10
955.3926747086065
 20
419.8791088783088
 30
0.0
  0
VERTEX
  5
288
330
260
100
AcDbEntity
  8
Make2D$可见线$普通线
100
AcDbVertex
100
AcDb2dVertex
 10
955.5695671117655
 20
419.7667175711841
 30
0.0
  0
VERTEX
  5
289
330
260
100
AcDbEntity
  8
Make2D$可见线$普通线
100
AcDbVertex
100
AcDb2dVertex
 10
955.7481845183512
 20
419.6598036411561
 30
0.0
  0
VERTEX
  5
28A
330
260
100
AcDbEntity
  8
Make2D$可见线$普通线
100
AcDbVertex
100
AcDb2dVertex
 10
955.9882637894623
 20
419.5259029202768
 30
0.0
  0
VERTEX
  5
28B
330
260
100
AcDbEntity
  8
Make2D$可见线$普通线
100
AcDbVertex
100
AcDb2dVertex
 10
956.2328059130894
 20
419.4003377609318
 30
0.0
  0
VERTEX
  5
28C
330
260
100
AcDbEntity
  8
Make2D$可见线$普通线
100
AcDbVertex
100
AcDb2dVertex
 10
956.3732058116701
 20
419.3328913931083
 30
0.0
  0
VERTEX
  5
28D
330
260
100
AcDbEntity
  8
Make2D$可见线$普通线
100
AcDbVertex
100
AcDb2dVertex
 10
956.5148577080548
 20
419.2681076041772
 30
0.0
  0
VERTEX
  5
28E
330
260
100
AcDbEntity
  8
Make2D$可见线$普通线
100
AcDbVertex
100
AcDb2dVertex
 10
956.6551928950759
 20
419.2070310257773
 30
0.0
  0
VERTEX
  5
28F
330
260
100
AcDbEntity
  8
Make2D$可见线$普通线
100
AcDbVertex
100
AcDb2dVertex
 10
956.7966034111787
 20
419.1484908338225
 30
0.0
  0
VERTEX
  5
290
330
260
100
AcDbEntity
  8
Make2D$可见线$普通线
100
AcDbVertex
100
AcDb2dVertex
 10
956.9471594182623
 20
419.0893495786843
 30
0.0
  0
VERTEX
  5
291
330
260
100
AcDbEntity
  8
Make2D$可见线$普通线
100
AcDbVertex
100
AcDb2dVertex
 10
957.0987769889502
 20
419.0329724052365
 30
0.0
  0
VERTEX
  5
292
330
260
100
AcDbEntity
  8
Make2D$可见线$普通线
100
AcDbVertex
100
AcDb2dVertex
 10
957.2513813169412
 20
418.979316928986
 30
0.0
  0
VERTEX
  5
293
330
260
100
AcDbEntity
  8
Make2D$可见线$普通线
100
AcDbVertex
100
AcDb2dVertex
 10
957.4048975959342
 20
418.9283407654401
 30
0.0
  0
VERTEX
  5
294
330
260
100
AcDbEntity
  8
Make2D$可见线$普通线
100
AcDbVertex
100
AcDb2dVertex
 10
957.7278827839
 20
418.830374490267
 30
0.0
  0
VERTEX
  5
295
330
260
100
AcDbEntity
  8
Make2D$可见线$普通线
100
AcDbVertex
100
AcDb2dVertex
 10
958.0539916434973
 20
418.7432959974524
 30
0.0
  0
VERTEX
  5
296
330
260
100
AcDbEntity
  8
Make2D$可见线$普通线
100
AcDbVertex
100
AcDb2dVertex
 10
958.3827024809422
 20
418.666510506187
 30
0.0
  0
VERTEX
  5
297
330
260
100
AcDbEntity
  8
Make2D$可见线$普通线
100
AcDbVertex
100
AcDb2dVertex
 10
958.7134936024511
 20
418.5994232356618
 30
0.0
  0
VERTEX
  5
298
330
260
100
AcDbEntity
  8
Make2D$可见线$普通线
100
AcDbVertex
100
AcDb2dVertex
 10
959.1055254496213
 20
418.5318572120123
 30
0.0
  0
VERTEX
  5
299
330
260
100
AcDbEntity
  8
Make2D$可见线$普通线
100
AcDbVertex
100
AcDb2dVertex
 10
959.5010759853892
 20
418.4754641496943
 30
0.0
  0
VERTEX
  5
29A
330
260
100
AcDbEntity
  8
Make2D$可见线$普通线
100
AcDbVertex
100
AcDb2dVertex
 10
959.9386173523762
 20
418.4252578869471
 30
0.0
  0
VERTEX
  5
29B
330
260
100
AcDbEntity
  8
Make2D$可见线$普通线
100
AcDbVertex
100
AcDb2dVertex
 10
960.379589894169
 20
418.3859467620059
 30
0.0
  0
VERTEX
  5
29C
330
260
100
AcDbEntity
  8
Make2D$可见线$普通线
100
AcDbVertex
100
AcDb2dVertex
 10
960.8235739066693
 20
418.3561981119421
 30
0.0
  0
VERTEX
  5
29D
330
260
100
AcDbEntity
  8
Make2D$可见线$普通线
100
AcDbVertex
100
AcDb2dVertex
 10
961.5380069569474
 20
418.3251998829697
 30
0.0
  0
VERTEX
  5
29E
330
260
100
AcDbEntity
  8
Make2D$可见线$普通线
100
AcDbVertex
100
AcDb2dVertex
 10
962.5699512551076
 20
418.3065515006035
 30
0.0
  0
VERTEX
  5
29F
330
260
100
AcDbEntity
  8
Make2D$可见线$普通线
100
AcDbVertex
100
AcDb2dVertex
 10
963.6067271664452
 20
418.3038878285823
 30
0.0
  0
SEQEND
  5
2A0
330
260
100
AcDbEntity
  8
Make2D$可见线$普通线
  0
POLYLINE
  5
2A1
330
1F
100
AcDbEntity
  8
Make2D$可见线$普通线
100
AcDb2dPolyline
 66
     1
 10
0.0
 20
0.0
 30
0.0
  0
VERTEX
  5
2A2
330
2A1
100
AcDbEntity
  8
Make2D$可见线$普通线
100
AcDbVertex
100
AcDb2dVertex
 10
952.486452358819
 20
432.3377786504161
 30
0.0
 42
-0.0218787059005214
  0
VERTEX
  5
2A3
330
2A1
100
AcDbEntity
  8
Make2D$可见线$普通线
100
AcDbVertex
100
AcDb2dVertex
 10
952.0722019365888
 20
434.1382814003729
 30
0.0
 42
-0.0089547693384078
  0
VERTEX
  5
2A4
330
2A1
100
AcDbEntity
  8
Make2D$可见线$普通线
100
AcDbVertex
100
AcDb2dVertex
 10
951.9112598629002
 20
435.0974229187942
 30
0.0
 42
-0.0080154267030952
  0
VERTEX
  5
2A5
330
2A1
100
AcDbEntity
  8
Make2D$可见线$普通线
100
AcDbVertex
100
AcDb2dVertex
 10
951.7744794215935
 20
436.1253207904017
 30
0.0
 42
-0.0066694990989321
  0
VERTEX
  5
2A6
330
2A1
100
AcDbEntity
  8
Make2D$可见线$普通线
100
AcDbVertex
100
AcDb2dVertex
 10
951.6664268385573
 20
437.1717378259607
 30
0.0
  0
VERTEX
  5
2A7
330
2A1
100
AcDbEntity
  8
Make2D$可见线$普通线
100
AcDbVertex
100
AcDb2dVertex
 10
951.5801585670126
 20
438.2593574489888
 30
0.0
  0
VERTEX
  5
2A8
330
2A1
100
AcDbEntity
  8
Make2D$可见线$普通线
100
AcDbVertex
100
AcDb2dVertex
 10
951.5003736078063
 20
439.4018101758724
 30
0.0
  0
VERTEX
  5
2A9
330
2A1
100
AcDbEntity
  8
Make2D$可见线$普通线
100
AcDbVertex
100
AcDb2dVertex
 10
951.4917818518416
 20
439.4868989520767
 30
0.0
  0
VERTEX
  5
2AA
330
2A1
100
AcDbEntity
  8
Make2D$可见线$普通线
100
AcDbVertex
100
AcDb2dVertex
 10
951.4876413626062
 20
439.5204483268399
 30
0.0
  0
VERTEX
  5
2AB
330
2A1
100
AcDbEntity
  8
Make2D$可见线$普通线
100
AcDbVertex
100
AcDb2dVertex
 10
951.4835921590313
 20
439.5479747779996
 30
0.0
  0
VERTEX
  5
2AC
330
2A1
100
AcDbEntity
  8
Make2D$可见线$普通线
100
AcDbVertex
100
AcDb2dVertex
 10
951.4815989049516
 20
439.5594732553427
 30
0.0
  0
VERTEX
  5
2AD
330
2A1
100
AcDbEntity
  8
Make2D$可见线$普通线
100
AcDbVertex
100
AcDb2dVertex
 10
951.4796250109889
 20
439.5694586195223
 30
0.0
  0
VERTEX
  5
2AE
330
2A1
100
AcDbEntity
  8
Make2D$可见线$普通线
100
AcDbVertex
100
AcDb2dVertex
 10
951.4786449634996
 20
439.5738831151901
 30
0.0
  0
VERTEX
  5
2AF
330
2A1
100
AcDbEntity
  8
Make2D$可见线$普通线
100
AcDbVertex
100
AcDb2dVertex
 10
951.4776693233769
 20
439.5779284097842
 30
0.0
  0
VERTEX
  5
2B0
330
2A1
100
AcDbEntity
  8
Make2D$可见线$普通线
100
AcDbVertex
100
AcDb2dVertex
 10
951.4766979464008
 20
439.5815941957105
 30
0.0
  0
VERTEX
  5
2B1
330
2A1
100
AcDbEntity
  8
Make2D$可见线$普通线
100
AcDbVertex
100
AcDb2dVertex
 10
951.4757306883504
 20
439.5848801653745
 30
0.0
  0
VERTEX
  5
2B2
330
2A1
100
AcDbEntity
  8
Make2D$可见线$普通线
100
AcDbVertex
100
AcDb2dVertex
 10
951.4752485588532
 20
439.586380622985
 30
0.0
  0
VERTEX
  5
2B3
330
2A1
100
AcDbEntity
  8
Make2D$可见线$普通线
100
AcDbVertex
100
AcDb2dVertex
 10
951.4747674050046
 20
439.587786011182
 30
0.0
  0
VERTEX
  5
2B4
330
2A1
100
AcDbEntity
  8
Make2D$可见线$普通线
100
AcDbVertex
100
AcDb2dVertex
 10
951.474287208777
 20
439.5890962915164
 30
0.0
  0
VERTEX
  5
2B5
330
2A1
100
AcDbEntity
  8
Make2D$可见线$普通线
100
AcDbVertex
100
AcDb2dVertex
 10
951.4738079521428
 20
439.5903114255389
 30
0.0
  0
VERTEX
  5
2B6
330
2A1
100
AcDbEntity
  8
Make2D$可见线$普通线
100
AcDbVertex
100
AcDb2dVertex
 10
951.4733296170745
 20
439.5914313748
 30
0.0
  0
VERTEX
  5
2B7
330
2A1
100
AcDbEntity
  8
Make2D$可见线$普通线
100
AcDbVertex
100
AcDb2dVertex
 10
951.4730907894938
 20
439.5919556431297
 30
0.0
  0
VERTEX
  5
2B8
330
2A1
100
AcDbEntity
  8
Make2D$可见线$普通线
100
AcDbVertex
100
AcDb2dVertex
 10
951.4728521855443
 20
439.5924561008506
 30
0.0
  0
VERTEX
  5
2B9
330
2A1
100
AcDbEntity
  8
Make2D$可见线$普通线
100
AcDbVertex
100
AcDb2dVertex
 10
951.4726138029725
 20
439.5929327431566
 30
0.0
  0
VERTEX
  5
2BA
330
2A1
100
AcDbEntity
  8
Make2D$可见线$普通线
100
AcDbVertex
100
AcDb2dVertex
 10
951.4723756395249
 20
439.5933855652414
 30
0.0
  0
VERTEX
  5
2BB
330
2A1
100
AcDbEntity
  8
Make2D$可见线$普通线
100
AcDbVertex
100
AcDb2dVertex
 10
951.4721376929479
 20
439.593814562299
 30
0.0
  0
VERTEX
  5
2BC
330
2A1
100
AcDbEntity
  8
Make2D$可见线$普通线
100
AcDbVertex
100
AcDb2dVertex
 10
951.4718999609884
 20
439.5942197295231
 30
0.0
  0
VERTEX
  5
2BD
330
2A1
100
AcDbEntity
  8
Make2D$可见线$普通线
100
AcDbVertex
100
AcDb2dVertex
 10
951.4716624413926
 20
439.5946010621076
 30
0.0
  0
VERTEX
  5
2BE
330
2A1
100
AcDbEntity
  8
Make2D$可见线$普通线
100
AcDbVertex
100
AcDb2dVertex
 10
951.4714251319074
 20
439.5949585552464
 30
0.0
  0
VERTEX
  5
2BF
330
2A1
100
AcDbEntity
  8
Make2D$可见线$普通线
100
AcDbVertex
100
AcDb2dVertex
 10
951.4711880302791
 20
439.5952922041332
 30
0.0
  0
VERTEX
  5
2C0
330
2A1
100
AcDbEntity
  8
Make2D$可见线$普通线
100
AcDbVertex
100
AcDb2dVertex
 10
951.4710695567071
 20
439.5954500854803
 30
0.0
  0
VERTEX
  5
2C1
330
2A1
100
AcDbEntity
  8
Make2D$可见线$普通线
100
AcDbVertex
100
AcDb2dVertex
 10
951.4709511342542
 20
439.595602003962
 30
0.0
  0
VERTEX
  5
2C2
330
2A1
100
AcDbEntity
  8
Make2D$可见线$普通线
100
AcDbVertex
100
AcDb2dVertex
 10
951.4708327626388
 20
439.5957479589776
 30
0.0
  0
VERTEX
  5
2C3
330
2A1
100
AcDbEntity
  8
Make2D$可见线$普通线
100
AcDbVertex
100
AcDb2dVertex
 10
951.4707144415793
 20
439.5958879499265
 30
0.0
  0
VERTEX
  5
2C4
330
2A1
100
AcDbEntity
  8
Make2D$可见线$普通线
100
AcDbVertex
100
AcDb2dVertex
 10
951.4705961707946
 20
439.5960219762079
 30
0.0
  0
VERTEX
  5
2C5
330
2A1
100
AcDbEntity
  8
Make2D$可见线$普通线
100
AcDbVertex
100
AcDb2dVertex
 10
951.4704779500016
 20
439.5961500372208
 30
0.0
  0
VERTEX
  5
2C6
330
2A1
100
AcDbEntity
  8
Make2D$可见线$普通线
100
AcDbVertex
100
AcDb2dVertex
 10
951.4703597789196
 20
439.5962721323645
 30
0.0
  0
VERTEX
  5
2C7
330
2A1
100
AcDbEntity
  8
Make2D$可见线$普通线
100
AcDbVertex
100
AcDb2dVertex
 10
951.4702416572666
 20
439.5963882610384
 30
0.0
  0
VERTEX
  5
2C8
330
2A1
100
AcDbEntity
  8
Make2D$可见线$普通线
100
AcDbVertex
100
AcDb2dVertex
 10
951.470123584761
 20
439.5964984226415
 30
0.0
  0
VERTEX
  5
2C9
330
2A1
100
AcDbEntity
  8
Make2D$可见线$普通线
100
AcDbVertex
100
AcDb2dVertex
 10
951.4700055611212
 20
439.5966026165733
 30
0.0
  0
VERTEX
  5
2CA
330
2A1
100
AcDbEntity
  8
Make2D$可见线$普通线
100
AcDbVertex
100
AcDb2dVertex
 10
951.4698875860654
 20
439.5967008422327
 30
0.0
  0
VERTEX
  5
2CB
330
2A1
100
AcDbEntity
  8
Make2D$可见线$普通线
100
AcDbVertex
100
AcDb2dVertex
 10
951.4697696593121
 20
439.5967930990192
 30
0.0
  0
VERTEX
  5
2CC
330
2A1
100
AcDbEntity
  8
Make2D$可见线$普通线
100
AcDbVertex
100
AcDb2dVertex
 10
951.4696517805794
 20
439.5968793863319
 30
0.0
  0
VERTEX
  5
2CD
330
2A1
100
AcDbEntity
  8
Make2D$可见线$普通线
100
AcDbVertex
100
AcDb2dVertex
 10
951.4695339495859
 20
439.5969597035701
 30
0.0
  0
VERTEX
  5
2CE
330
2A1
100
AcDbEntity
  8
Make2D$可见线$普通线
100
AcDbVertex
100
AcDb2dVertex
 10
951.4694161660495
 20
439.597034050133
 30
0.0
  0
VERTEX
  5
2CF
330
2A1
100
AcDbEntity
  8
Make2D$可见线$普通线
100
AcDbVertex
100
AcDb2dVertex
 10
951.469298429689
 20
439.5971024254198
 30
0.0
  0
VERTEX
  5
2D0
330
2A1
100
AcDbEntity
  8
Make2D$可见线$普通线
100
AcDbVertex
100
AcDb2dVertex
 10
951.4691807402223
 20
439.5971648288298
 30
0.0
  0
VERTEX
  5
2D1
330
2A1
100
AcDbEntity
  8
Make2D$可见线$普通线
100
AcDbVertex
100
AcDb2dVertex
 10
951.4690630973681
 20
439.5972212597622
 30
0.0
  0
VERTEX
  5
2D2
330
2A1
100
AcDbEntity
  8
Make2D$可见线$普通线
100
AcDbVertex
100
AcDb2dVertex
 10
951.4689455008445
 20
439.5972717176162
 30
0.0
  0
VERTEX
  5
2D3
330
2A1
100
AcDbEntity
  8
Make2D$可见线$普通线
100
AcDbVertex
100
AcDb2dVertex
 10
951.4688279503696
 20
439.597316201791
 30
0.0
  0
VERTEX
  5
2D4
330
2A1
100
AcDbEntity
  8
Make2D$可见线$普通线
100
AcDbVertex
100
AcDb2dVertex
 10
951.468710445662
 20
439.597354711686
 30
0.0
  0
VERTEX
  5
2D5
330
2A1
100
AcDbEntity
  8
Make2D$可见线$普通线
100
AcDbVertex
100
AcDb2dVertex
 10
951.4685929864402
 20
439.5973872467002
 30
0.0
  0
VERTEX
  5
2D6
330
2A1
100
AcDbEntity
  8
Make2D$可见线$普通线
100
AcDbVertex
100
AcDb2dVertex
 10
951.4684755724221
 20
439.597413806233
 30
0.0
  0
VERTEX
  5
2D7
330
2A1
100
AcDbEntity
  8
Make2D$可见线$普通线
100
AcDbVertex
100
AcDb2dVertex
 10
951.4683582033263
 20
439.5974343896835
 30
0.0
  0
VERTEX
  5
2D8
330
2A1
100
AcDbEntity
  8
Make2D$可见线$普通线
100
AcDbVertex
100
AcDb2dVertex
 10
951.468240878871
 20
439.597448996451
 30
0.0
  0
VERTEX
  5
2D9
330
2A1
100
AcDbEntity
  8
Make2D$可见线$普通线
100
AcDbVertex
100
AcDb2dVertex
 10
951.4681235987746
 20
439.5974576259348
 30
0.0
  0
SEQEND
  5
2DA
330
2A1
100
AcDbEntity
  8
Make2D$可见线$普通线
  0
POLYLINE
  5
2DB
330
1F
100
AcDbEntity
  8
Make2D$可见线$普通线
100
AcDb2dPolyline
 66
     1
 10
0.0
 20
0.0
 30
0.0
  0
VERTEX
  5
2DC
330
2DB
100
AcDbEntity
  8
Make2D$可见线$普通线
100
AcDbVertex
100
AcDb2dVertex
 10
963.606798625389
 20
425.1689904034417
 30
0.0
  0
VERTEX
  5
2DD
330
2DB
100
AcDbEntity
  8
Make2D$可见线$普通线
100
AcDbVertex
100
AcDb2dVertex
 10
963.60686451974
 20
425.1689926424253
 30
0.0
  0
VERTEX
  5
2DE
330
2DB
100
AcDbEntity
  8
Make2D$可见线$普通线
100
AcDbVertex
100
AcDb2dVertex
 10
965.6456472852628
 20
425.1954044107609
 30
0.0
  0
VERTEX
  5
2DF
330
2DB
100
AcDbEntity
  8
Make2D$可见线$普通线
100
AcDbVertex
100
AcDb2dVertex
 10
966.2246791753267
 20
425.216172738534
 30
0.0
  0
VERTEX
  5
2E0
330
2DB
100
AcDbEntity
  8
Make2D$可见线$普通线
100
AcDbVertex
100
AcDb2dVertex
 10
966.7914615124075
 20
425.2478301059838
 30
0.0
  0
VERTEX
  5
2E1
330
2DB
100
AcDbEntity
  8
Make2D$可见线$普通线
100
AcDbVertex
100
AcDb2dVertex
 10
967.3448823811068
 20
425.2926427407816
 30
0.0
  0
VERTEX
  5
2E2
330
2DB
100
AcDbEntity
  8
Make2D$可见线$普通线
100
AcDbVertex
100
AcDb2dVertex
 10
967.8838298660261
 20
425.3528768705987
 30
0.0
  0
VERTEX
  5
2E3
330
2DB
100
AcDbEntity
  8
Make2D$可见线$普通线
100
AcDbVertex
100
AcDb2dVertex
 10
968.1641385127148
 20
425.3916527540752
 30
0.0
  0
VERTEX
  5
2E4
330
2DB
100
AcDbEntity
  8
Make2D$可见线$普通线
100
AcDbVertex
100
AcDb2dVertex
 10
968.4435799396343
 20
425.4366977197283
 30
0.0
  0
VERTEX
  5
2E5
330
2DB
100
AcDbEntity
  8
Make2D$可见线$普通线
100
AcDbVertex
100
AcDb2dVertex
 10
968.7219441870302
 20
425.4879803267319
 30
0.0
  0
VERTEX
  5
2E6
330
2DB
100
AcDbEntity
  8
Make2D$可见线$普通线
100
AcDbVertex
100
AcDb2dVertex
 10
968.9990229107239
 20
425.5454597789235
 30
0.0
 42
0.0290361255671709
  0
VERTEX
  5
2E7
330
2DB
100
AcDbEntity
  8
Make2D$可见线$普通线
100
AcDbVertex
100
AcDb2dVertex
 10
970.0714490411967
 20
425.8468189572739
 30
0.0
  0
VERTEX
  5
2E8
330
2DB
100
AcDbEntity
  8
Make2D$可见线$普通线
100
AcDbVertex
100
AcDb2dVertex
 10
970.2810576375307
 20
425.9227269793921
 30
0.0
  0
VERTEX
  5
2E9
330
2DB
100
AcDbEntity
  8
Make2D$可见线$普通线
100
AcDbVertex
100
AcDb2dVertex
 10
970.4970915755842
 20
426.0076557813311
 30
0.0
  0
VERTEX
  5
2EA
330
2DB
100
AcDbEntity
  8
Make2D$可见线$普通线
100
AcDbVertex
100
AcDb2dVertex
 10
970.7105942926702
 20
426.0990232662754
 30
0.0
  0
VERTEX
  5
2EB
330
2DB
100
AcDbEntity
  8
Make2D$可见线$普通线
100
AcDbVertex
100
AcDb2dVertex
 10
970.9212796905498
 20
426.1967120098872
 30
0.0
  0
VERTEX
  5
2EC
330
2DB
100
AcDbEntity
  8
Make2D$可见线$普通线
100
AcDbVertex
100
AcDb2dVertex
 10
971.1288691720301
 20
426.3005877576267
 30
0.0
  0
VERTEX
  5
2ED
330
2DB
100
AcDbEntity
  8
Make2D$可见线$普通线
100
AcDbVertex
100
AcDb2dVertex
 10
971.2581108253792
 20
426.3694817607608
 30
0.0
  0
VERTEX
  5
2EE
330
2DB
100
AcDbEntity
  8
Make2D$可见线$普通线
100
AcDbVertex
100
AcDb2dVertex
 10
971.3860242632993
 20
426.4409924182645
 30
0.0
  0
VERTEX
  5
2EF
330
2DB
100
AcDbEntity
  8
Make2D$可见线$普通线
100
AcDbVertex
100
AcDb2dVertex
 10
971.5125304359988
 20
426.5150805955495
 30
0.0
  0
VERTEX
  5
2F0
330
2DB
100
AcDbEntity
  8
Make2D$可见线$普通线
100
AcDbVertex
100
AcDb2dVertex
 10
971.6375518622199
 20
426.5917039896703
 30
0.0
  0
VERTEX
  5
2F1
330
2DB
100
AcDbEntity
  8
Make2D$可见线$普通线
100
AcDbVertex
100
AcDb2dVertex
 10
971.7610127871737
 20
426.6708172094915
 30
0.0
  0
VERTEX
  5
2F2
330
2DB
100
AcDbEntity
  8
Make2D$可见线$普通线
100
AcDbVertex
100
AcDb2dVertex
 10
971.8828393354654
 20
426.7523718652498
 30
0.0
  0
VERTEX
  5
2F3
330
2DB
100
AcDbEntity
  8
Make2D$可见线$普通线
100
AcDbVertex
100
AcDb2dVertex
 10
972.0029596583627
 20
426.8363166671392
 30
0.0
  0
VERTEX
  5
2F4
330
2DB
100
AcDbEntity
  8
Make2D$可见线$普通线
100
AcDbVertex
100
AcDb2dVertex
 10
972.1213040747953
 20
426.9225975325005
 30
0.0
  0
VERTEX
  5
2F5
330
2DB
100
AcDbEntity
  8
Make2D$可见线$普通线
100
AcDbVertex
100
AcDb2dVertex
 10
972.319808986569
 20
427.0754961791904
 30
0.0
  0
VERTEX
  5
2F6
330
2DB
100
AcDbEntity
  8
Make2D$可见线$普通线
100
AcDbVertex
100
AcDb2dVertex
 10
972.5448574332538
 20
427.261555806532
 30
0.0
  0
VERTEX
  5
2F7
330
2DB
100
AcDbEntity
  8
Make2D$可见线$普通线
100
AcDbVertex
100
AcDb2dVertex
 10
973.1251385221926
 20
427.7840125979852
 30
0.0
  0
VERTEX
  5
2F8
330
2DB
100
AcDbEntity
  8
Make2D$可见线$普通线
100
AcDbVertex
100
AcDb2dVertex
 10
973.1482189923686
 20
427.8032387376099
 30
0.0
  0
VERTEX
  5
2F9
330
2DB
100
AcDbEntity
  8
Make2D$可见线$普通线
100
AcDbVertex
100
AcDb2dVertex
 10
973.1683201502145
 20
427.8191048453319
 30
0.0
  0
VERTEX
  5
2FA
330
2DB
100
AcDbEntity
  8
Make2D$可见线$普通线
100
AcDbVertex
100
AcDb2dVertex
 10
973.1786009234738
 20
427.8267438085628
 30
0.0
  0
VERTEX
  5
2FB
330
2DB
100
AcDbEntity
  8
Make2D$可见线$普通线
100
AcDbVertex
100
AcDb2dVertex
 10
973.1890848626283
 20
427.8341160161468
 30
0.0
  0
VERTEX
  5
2FC
330
2DB
100
AcDbEntity
  8
Make2D$可见线$普通线
100
AcDbVertex
100
AcDb2dVertex
 10
973.1960821317615
 20
427.8387478552788
 30
0.0
  0
VERTEX
  5
2FD
330
2DB
100
AcDbEntity
  8
Make2D$可见线$普通线
100
AcDbVertex
100
AcDb2dVertex
 10
973.199638740378
 20
427.8409649421762
 30
0.0
  0
VERTEX
  5
2FE
330
2DB
100
AcDbEntity
  8
Make2D$可见线$普通线
100
AcDbVertex
100
AcDb2dVertex
 10
973.203244323454
 20
427.8430908193681
 30
0.0
  0
VERTEX
  5
2FF
330
2DB
100
AcDbEntity
  8
Make2D$可见线$普通线
100
AcDbVertex
100
AcDb2dVertex
 10
973.2069066248099
 20
427.8451064959095
 30
0.0
  0
VERTEX
  5
300
330
2DB
100
AcDbEntity
  8
Make2D$可见线$普通线
100
AcDbVertex
100
AcDb2dVertex
 10
973.2087614647866
 20
427.8460670742661
 30
0.0
  0
VERTEX
  5
301
330
2DB
100
AcDbEntity
  8
Make2D$可见线$普通线
100
AcDbVertex
100
AcDb2dVertex
 10
973.2106333882654
 20
427.8469929808556
 30
0.0
  0
VERTEX
  5
302
330
2DB
100
AcDbEntity
  8
Make2D$可见线$普通线
100
AcDbVertex
100
AcDb2dVertex
 10
973.2125233632242
 20
427.8478818418101
 30
0.0
  0
VERTEX
  5
303
330
2DB
100
AcDbEntity
  8
Make2D$可见线$普通线
100
AcDbVertex
100
AcDb2dVertex
 10
973.2144323576405
 20
427.8487312832614
 30
0.0
  0
VERTEX
  5
304
330
2DB
100
AcDbEntity
  8
Make2D$可见线$普通线
100
AcDbVertex
100
AcDb2dVertex
 10
973.2163613394916
 20
427.8495389313413
 30
0.0
  0
VERTEX
  5
305
330
2DB
100
AcDbEntity
  8
Make2D$可见线$普通线
100
AcDbVertex
100
AcDb2dVertex
 10
973.2183112767551
 20
427.8503024121819
 30
0.0
  0
VERTEX
  5
306
330
2DB
100
AcDbEntity
  8
Make2D$可见线$普通线
100
AcDbVertex
100
AcDb2dVertex
 10
973.2195449552642
 20
427.8507561610816
 30
0.0
  0
VERTEX
  5
307
330
2DB
100
AcDbEntity
  8
Make2D$可见线$普通线
100
AcDbVertex
100
AcDb2dVertex
 10
973.2207882243524
 20
427.851183222278
 30
0.0
  0
VERTEX
  5
308
330
2DB
100
AcDbEntity
  8
Make2D$可见线$普通线
100
AcDbVertex
100
AcDb2dVertex
 10
973.2220420583253
 20
427.851575199533
 30
0.0
  0
VERTEX
  5
309
330
2DB
100
AcDbEntity
  8
Make2D$可见线$普通线
100
AcDbVertex
100
AcDb2dVertex
 10
973.2226732416138
 20
427.8517554078581
 30
0.0
  0
VERTEX
  5
30A
330
2DB
100
AcDbEntity
  8
Make2D$可见线$普通线
100
AcDbVertex
100
AcDb2dVertex
 10
973.2233074314883
 20
427.8519236966086
 30
0.0
  0
VERTEX
  5
30B
330
2DB
100
AcDbEntity
  8
Make2D$可见线$普通线
100
AcDbVertex
100
AcDb2dVertex
 10
973.2239447497365
 20
427.8520790162547
 30
0.0
  0
VERTEX
  5
30C
330
2DB
100
AcDbEntity
  8
Make2D$可见线$普通线
100
AcDbVertex
100
AcDb2dVertex
 10
973.2245853181466
 20
427.8522203172667
 30
0.0
  0
VERTEX
  5
30D
330
2DB
100
AcDbEntity
  8
Make2D$可见线$普通线
100
AcDbVertex
100
AcDb2dVertex
 10
973.225229258507
 20
427.8523465501148
 30
0.0
  0
VERTEX
  5
30E
330
2DB
100
AcDbEntity
  8
Make2D$可见线$普通线
100
AcDbVertex
100
AcDb2dVertex
 10
973.2258766926059
 20
427.8524566652692
 30
0.0
  0
VERTEX
  5
30F
330
2DB
100
AcDbEntity
  8
Make2D$可见线$普通线
100
AcDbVertex
100
AcDb2dVertex
 10
973.2265277422313
 20
427.8525496132002
 30
0.0
  0
VERTEX
  5
310
330
2DB
100
AcDbEntity
  8
Make2D$可见线$普通线
100
AcDbVertex
100
AcDb2dVertex
 10
973.2271825291714
 20
427.8526243443779
 30
0.0
  0
VERTEX
  5
311
330
2DB
100
AcDbEntity
  8
Make2D$可见线$普通线
100
AcDbVertex
100
AcDb2dVertex
 10
973.2278411752145
 20
427.8526798092728
 30
0.0
  0
VERTEX
  5
312
330
2DB
100
AcDbEntity
  8
Make2D$可见线$普通线
100
AcDbVertex
100
AcDb2dVertex
 10
973.2285038021487
 20
427.8527149583549
 30
0.0
  0
VERTEX
  5
313
330
2DB
100
AcDbEntity
  8
Make2D$可见线$普通线
100
AcDbVertex
100
AcDb2dVertex
 10
973.2289783009251
 20
427.8527269750213
 30
0.0
  0
VERTEX
  5
314
330
2DB
100
AcDbEntity
  8
Make2D$可见线$普通线
100
AcDbVertex
100
AcDb2dVertex
 10
973.2294539352572
 20
427.852727436428
 30
0.0
  0
VERTEX
  5
315
330
2DB
100
AcDbEntity
  8
Make2D$可见线$普通线
100
AcDbVertex
100
AcDb2dVertex
 10
973.2299297575423
 20
427.8527156356873
 30
0.0
  0
VERTEX
  5
316
330
2DB
100
AcDbEntity
  8
Make2D$可见线$普通线
100
AcDbVertex
100
AcDb2dVertex
 10
973.2304048201777
 20
427.8526908659112
 30
0.0
  0
VERTEX
  5
317
330
2DB
100
AcDbEntity
  8
Make2D$可见线$普通线
100
AcDbVertex
100
AcDb2dVertex
 10
973.2308781755609
 20
427.8526524202118
 30
0.0
  0
VERTEX
  5
318
330
2DB
100
AcDbEntity
  8
Make2D$可见线$普通线
100
AcDbVertex
100
AcDb2dVertex
 10
973.231348876089
 20
427.8525995917013
 30
0.0
  0
VERTEX
  5
319
330
2DB
100
AcDbEntity
  8
Make2D$可见线$普通线
100
AcDbVertex
100
AcDb2dVertex
 10
973.2318159741596
 20
427.8525316734916
 30
0.0
  0
VERTEX
  5
31A
330
2DB
100
AcDbEntity
  8
Make2D$可见线$普通线
100
AcDbVertex
100
AcDb2dVertex
 10
973.2320478761476
 20
427.8524918348471
 30
0.0
  0
VERTEX
  5
31B
330
2DB
100
AcDbEntity
  8
Make2D$可见线$普通线
100
AcDbVertex
100
AcDb2dVertex
 10
973.2322785221701
 20
427.8524479586949
 30
0.0
  0
VERTEX
  5
31C
330
2DB
100
AcDbEntity
  8
Make2D$可见线$普通线
100
AcDbVertex
100
AcDb2dVertex
 10
973.2325077937769
 20
427.852399956674
 30
0.0
  0
VERTEX
  5
31D
330
2DB
100
AcDbEntity
  8
Make2D$可见线$普通线
100
AcDbVertex
100
AcDb2dVertex
 10
973.2327355725176
 20
427.8523477404233
 30
0.0
  0
VERTEX
  5
31E
330
2DB
100
AcDbEntity
  8
Make2D$可见线$普通线
100
AcDbVertex
100
AcDb2dVertex
 10
973.2329617399421
 20
427.8522912215819
 30
0.0
  0
VERTEX
  5
31F
330
2DB
100
AcDbEntity
  8
Make2D$可见线$普通线
100
AcDbVertex
100
AcDb2dVertex
 10
973.2331861775997
 20
427.852230311789
 30
0.0
  0
VERTEX
  5
320
330
2DB
100
AcDbEntity
  8
Make2D$可见线$普通线
100
AcDbVertex
100
AcDb2dVertex
 10
973.2334087670404
 20
427.8521649226832
 30
0.0
  0
VERTEX
  5
321
330
2DB
100
AcDbEntity
  8
Make2D$可见线$普通线
100
AcDbVertex
100
AcDb2dVertex
 10
973.2336293898136
 20
427.8520949659038
 30
0.0
  0
VERTEX
  5
322
330
2DB
100
AcDbEntity
  8
Make2D$可见线$普通线
100
AcDbVertex
100
AcDb2dVertex
 10
973.2338479274692
 20
427.8520203530897
 30
0.0
  0
VERTEX
  5
323
330
2DB
100
AcDbEntity
  8
Make2D$可见线$普通线
100
AcDbVertex
100
AcDb2dVertex
 10
973.2340642615568
 20
427.85194099588
 30
0.0
  0
VERTEX
  5
324
330
2DB
100
AcDbEntity
  8
Make2D$可见线$普通线
100
AcDbVertex
100
AcDb2dVertex
 10
973.2342782736259
 20
427.8518568059136
 30
0.0
  0
VERTEX
  5
325
330
2DB
100
AcDbEntity
  8
Make2D$可见线$普通线
100
AcDbVertex
100
AcDb2dVertex
 10
973.2344898452264
 20
427.8517676948296
 30
0.0
  0
VERTEX
  5
326
330
2DB
100
AcDbEntity
  8
Make2D$可见线$普通线
100
AcDbVertex
100
AcDb2dVertex
 10
973.2346988579079
 20
427.851673574267
 30
0.0
  0
VERTEX
  5
327
330
2DB
100
AcDbEntity
  8
Make2D$可见线$普通线
100
AcDbVertex
100
AcDb2dVertex
 10
973.2349051932201
 20
427.8515743558648
 30
0.0
  0
VERTEX
  5
328
330
2DB
100
AcDbEntity
  8
Make2D$可见线$普通线
100
AcDbVertex
100
AcDb2dVertex
 10
973.2351087327127
 20
427.8514699512619
 30
0.0
  0
VERTEX
  5
329
330
2DB
100
AcDbEntity
  8
Make2D$可见线$普通线
100
AcDbVertex
100
AcDb2dVertex
 10
973.2353093579352
 20
427.8513602720976
 30
0.0
  0
VERTEX
  5
32A
330
2DB
100
AcDbEntity
  8
Make2D$可见线$普通线
100
AcDbVertex
100
AcDb2dVertex
 10
973.2355069504373
 20
427.8512452300107
 30
0.0
  0
VERTEX
  5
32B
330
2DB
100
AcDbEntity
  8
Make2D$可见线$普通线
100
AcDbVertex
100
AcDb2dVertex
 10
973.2357013917688
 20
427.8511247366401
 30
0.0
  0
VERTEX
  5
32C
330
2DB
100
AcDbEntity
  8
Make2D$可见线$普通线
100
AcDbVertex
100
AcDb2dVertex
 10
973.2358828403906
 20
427.8510053469262
 30
0.0
  0
VERTEX
  5
32D
330
2DB
100
AcDbEntity
  8
Make2D$可见线$普通线
100
AcDbVertex
100
AcDb2dVertex
 10
973.2360613246365
 20
427.8508811030171
 30
0.0
  0
VERTEX
  5
32E
330
2DB
100
AcDbEntity
  8
Make2D$可见线$普通线
100
AcDbVertex
100
AcDb2dVertex
 10
973.236236822547
 20
427.8507521359858
 30
0.0
  0
VERTEX
  5
32F
330
2DB
100
AcDbEntity
  8
Make2D$可见线$普通线
100
AcDbVertex
100
AcDb2dVertex
 10
973.2364093121614
 20
427.8506185769048
 30
0.0
  0
VERTEX
  5
330
330
2DB
100
AcDbEntity
  8
Make2D$可见线$普通线
100
AcDbVertex
100
AcDb2dVertex
 10
973.2365787715199
 20
427.8504805568468
 30
0.0
  0
VERTEX
  5
331
330
2DB
100
AcDbEntity
  8
Make2D$可见线$普通线
100
AcDbVertex
100
AcDb2dVertex
 10
973.2367451786625
 20
427.8503382068847
 30
0.0
  0
VERTEX
  5
332
330
2DB
100
AcDbEntity
  8
Make2D$可见线$普通线
100
AcDbVertex
100
AcDb2dVertex
 10
973.236908511629
 20
427.850191658091
 30
0.0
  0
VERTEX
  5
333
330
2DB
100
AcDbEntity
  8
Make2D$可见线$普通线
100
AcDbVertex
100
AcDb2dVertex
 10
973.2370687484594
 20
427.8500410415386
 30
0.0
  0
VERTEX
  5
334
330
2DB
100
AcDbEntity
  8
Make2D$可见线$普通线
100
AcDbVertex
100
AcDb2dVertex
 10
973.2372258671933
 20
427.8498864882999
 30
0.0
  0
VERTEX
  5
335
330
2DB
100
AcDbEntity
  8
Make2D$可见线$普通线
100
AcDbVertex
100
AcDb2dVertex
 10
973.2373798458708
 20
427.8497281294479
 30
0.0
  0
VERTEX
  5
336
330
2DB
100
AcDbEntity
  8
Make2D$可见线$普通线
100
AcDbVertex
100
AcDb2dVertex
 10
973.2375306625318
 20
427.8495660960551
 30
0.0
  0
VERTEX
  5
337
330
2DB
100
AcDbEntity
  8
Make2D$可见线$普通线
100
AcDbVertex
100
AcDb2dVertex
 10
973.237678295216
 20
427.8494005191942
 30
0.0
  0
VERTEX
  5
338
330
2DB
100
AcDbEntity
  8
Make2D$可见线$普通线
100
AcDbVertex
100
AcDb2dVertex
 10
973.2378227219637
 20
427.849231529938
 30
0.0
  0
VERTEX
  5
339
330
2DB
100
AcDbEntity
  8
Make2D$可见线$普通线
100
AcDbVertex
100
AcDb2dVertex
 10
973.2379639208143
 20
427.8490592593591
 30
0.0
  0
VERTEX
  5
33A
330
2DB
100
AcDbEntity
  8
Make2D$可见线$普通线
100
AcDbVertex
100
AcDb2dVertex
 10
973.2381018698081
 20
427.8488838385304
 30
0.0
  0
VERTEX
  5
33B
330
2DB
100
AcDbEntity
  8
Make2D$可见线$普通线
100
AcDbVertex
100
AcDb2dVertex
 10
973.2382365469849
 20
427.8487053985243
 30
0.0
  0
VERTEX
  5
33C
330
2DB
100
AcDbEntity
  8
Make2D$可见线$普通线
100
AcDbVertex
100
AcDb2dVertex
 10
973.2383679303846
 20
427.8485240704138
 30
0.0
  0
VERTEX
  5
33D
330
2DB
100
AcDbEntity
  8
Make2D$可见线$普通线
100
AcDbVertex
100
AcDb2dVertex
 10
973.2384959980468
 20
427.8483399852713
 30
0.0
  0
VERTEX
  5
33E
330
2DB
100
AcDbEntity
  8
Make2D$可见线$普通线
100
AcDbVertex
100
AcDb2dVertex
 10
973.2386207280118
 20
427.8481532741697
 30
0.0
  0
VERTEX
  5
33F
330
2DB
100
AcDbEntity
  8
Make2D$可见线$普通线
100
AcDbVertex
100
AcDb2dVertex
 10
973.2387420983193
 20
427.8479640681816
 30
0.0
  0
VERTEX
  5
340
330
2DB
100
AcDbEntity
  8
Make2D$可见线$普通线
100
AcDbVertex
100
AcDb2dVertex
 10
973.2388600870091
 20
427.8477724983798
 30
0.0
  0
VERTEX
  5
341
330
2DB
100
AcDbEntity
  8
Make2D$可见线$普通线
100
AcDbVertex
100
AcDb2dVertex
 10
973.2389746721215
 20
427.8475786958368
 30
0.0
  0
VERTEX
  5
342
330
2DB
100
AcDbEntity
  8
Make2D$可见线$普通线
100
AcDbVertex
100
AcDb2dVertex
 10
973.2390858316959
 20
427.8473827916255
 30
0.0
  0
VERTEX
  5
343
330
2DB
100
AcDbEntity
  8
Make2D$可见线$普通线
100
AcDbVertex
100
AcDb2dVertex
 10
973.2391935437726
 20
427.8471849168185
 30
0.0
  0
VERTEX
  5
344
330
2DB
100
AcDbEntity
  8
Make2D$可见线$普通线
100
AcDbVertex
100
AcDb2dVertex
 10
973.2393985375918
 20
427.8467837797084
 30
0.0
  0
VERTEX
  5
345
330
2DB
100
AcDbEntity
  8
Make2D$可见线$普通线
100
AcDbVertex
100
AcDb2dVertex
 10
973.2395894778981
 20
427.846376333088
 30
0.0
  0
VERTEX
  5
346
330
2DB
100
AcDbEntity
  8
Make2D$可见线$普通线
100
AcDbVertex
100
AcDb2dVertex
 10
973.239766189011
 20
427.8459636255388
 30
0.0
  0
VERTEX
  5
347
330
2DB
100
AcDbEntity
  8
Make2D$可见线$普通线
100
AcDbVertex
100
AcDb2dVertex
 10
973.2399284952494
 20
427.8455467056425
 30
0.0
  0
VERTEX
  5
348
330
2DB
100
AcDbEntity
  8
Make2D$可见线$普通线
100
AcDbVertex
100
AcDb2dVertex
 10
973.2400308052187
 20
427.8452606668999
 30
0.0
  0
VERTEX
  5
349
330
2DB
100
AcDbEntity
  8
Make2D$可见线$普通线
100
AcDbVertex
100
AcDb2dVertex
 10
973.2401265679171
 20
427.844973220058
 30
0.0
  0
VERTEX
  5
34A
330
2DB
100
AcDbEntity
  8
Make2D$可见线$普通线
100
AcDbVertex
100
AcDb2dVertex
 10
973.2402160072468
 20
427.8446844262625
 30
0.0
  0
VERTEX
  5
34B
330
2DB
100
AcDbEntity
  8
Make2D$可见线$普通线
100
AcDbVertex
100
AcDb2dVertex
 10
973.2402993471098
 20
427.8443943466589
 30
0.0
  0
VERTEX
  5
34C
330
2DB
100
AcDbEntity
  8
Make2D$可见线$普通线
100
AcDbVertex
100
AcDb2dVertex
 10
973.2403768114087
 20
427.8441030423927
 30
0.0
  0
VERTEX
  5
34D
330
2DB
100
AcDbEntity
  8
Make2D$可见线$普通线
100
AcDbVertex
100
AcDb2dVertex
 10
973.2404486240455
 20
427.8438105746097
 30
0.0
  0
VERTEX
  5
34E
330
2DB
100
AcDbEntity
  8
Make2D$可见线$普通线
100
AcDbVertex
100
AcDb2dVertex
 10
973.2405150089223
 20
427.8435170044553
 30
0.0
  0
VERTEX
  5
34F
330
2DB
100
AcDbEntity
  8
Make2D$可见线$普通线
100
AcDbVertex
100
AcDb2dVertex
 10
973.2405761899414
 20
427.8432223930751
 30
0.0
  0
VERTEX
  5
350
330
2DB
100
AcDbEntity
  8
Make2D$可见线$普通线
100
AcDbVertex
100
AcDb2dVertex
 10
973.2406838360153
 20
427.8426302912193
 30
0.0
  0
VERTEX
  5
351
330
2DB
100
AcDbEntity
  8
Make2D$可见线$普通线
100
AcDbVertex
100
AcDb2dVertex
 10
973.2407733534845
 20
427.8420347582071
 30
0.0
  0
VERTEX
  5
352
330
2DB
100
AcDbEntity
  8
Make2D$可见线$普通线
100
AcDbVertex
100
AcDb2dVertex
 10
973.2408465335668
 20
427.8414362832028
 30
0.0
  0
VERTEX
  5
353
330
2DB
100
AcDbEntity
  8
Make2D$可见线$普通线
100
AcDbVertex
100
AcDb2dVertex
 10
973.2409051674798
 20
427.8408353553709
 30
0.0
  0
VERTEX
  5
354
330
2DB
100
AcDbEntity
  8
Make2D$可见线$普通线
100
AcDbVertex
100
AcDb2dVertex
 10
973.2409510464411
 20
427.840232463876
 30
0.0
  0
VERTEX
  5
355
330
2DB
100
AcDbEntity
  8
Make2D$可见线$普通线
100
AcDbVertex
100
AcDb2dVertex
 10
973.240985961668
 20
427.8396280978824
 30
0.0
  0
VERTEX
  5
356
330
2DB
100
AcDbEntity
  8
Make2D$可见线$普通线
100
AcDbVertex
100
AcDb2dVertex
 10
973.2410300657898
 20
427.8384168990575
 30
0.0
  0
VERTEX
  5
357
330
2DB
100
AcDbEntity
  8
Make2D$可见线$普通线
100
AcDbVertex
100
AcDb2dVertex
 10
973.2410655227964
 20
427.8359983306623
 30
0.0
  0
VERTEX
  5
358
330
2DB
100
AcDbEntity
  8
Make2D$可见线$普通线
100
AcDbVertex
100
AcDb2dVertex
 10
973.2408852406838
 20
427.8329813588372
 30
0.0
  0
SEQEND
  5
359
330
2DB
100
AcDbEntity
  8
Make2D$可见线$普通线
  0
POLYLINE
  5
35A
330
1F
100
AcDbEntity
  8
Make2D$可见线$普通线
100
AcDb2dPolyline
 66
     1
 10
0.0
 20
0.0
 30
0.0
  0
VERTEX
  5
35B
330
35A
100
AcDbEntity
  8
Make2D$可见线$普通线
100
AcDbVertex
100
AcDb2dVertex
 10
977.6497359938452
 20
439.596848248799
 30
0.0
 42
-0.0068777650625894
  0
VERTEX
  5
35C
330
35A
100
AcDbEntity
  8
Make2D$可见线$普通线
100
AcDbVertex
100
AcDb2dVertex
 10
977.5932860355193
 20
437.1573773230168
 30
0.0
 42
-0.0114344962302256
  0
VERTEX
  5
35D
330
35A
100
AcDbEntity
  8
Make2D$可见线$普通线
100
AcDbVertex
100
AcDb2dVertex
 10
977.4054351288897
 20
433.9832560170337
 30
0.0
 42
-0.0112399937609728
  0
VERTEX
  5
35E
330
35A
100
AcDbEntity
  8
Make2D$可见线$普通线
100
AcDbVertex
100
AcDb2dVertex
 10
977.1585051256864
 20
431.6343613361626
 30
0.0
  0
VERTEX
  5
35F
330
35A
100
AcDbEntity
  8
Make2D$可见线$普通线
100
AcDbVertex
100
AcDb2dVertex
 10
977.0755294199241
 20
431.023639453498
 30
0.0
  0
VERTEX
  5
360
330
35A
100
AcDbEntity
  8
Make2D$可见线$普通线
100
AcDbVertex
100
AcDb2dVertex
 10
976.9250681681094
 20
430.0539305698837
 30
0.0
  0
VERTEX
  5
361
330
35A
100
AcDbEntity
  8
Make2D$可见线$普通线
100
AcDbVertex
100
AcDb2dVertex
 10
976.7586771101327
 20
429.1348030321625
 30
0.0
  0
VERTEX
  5
362
330
35A
100
AcDbEntity
  8
Make2D$可见线$普通线
100
AcDbVertex
100
AcDb2dVertex
 10
976.5999178636362
 20
428.3690189696457
 30
0.0
  0
VERTEX
  5
363
330
35A
100
AcDbEntity
  8
Make2D$可见线$普通线
100
AcDbVertex
100
AcDb2dVertex
 10
976.4220997102675
 20
427.6103664064138
 30
0.0
  0
VERTEX
  5
364
330
35A
100
AcDbEntity
  8
Make2D$可见线$普通线
100
AcDbVertex
100
AcDb2dVertex
 10
976.2319634981403
 20
426.8908269564905
 30
0.0
  0
VERTEX
  5
365
330
35A
100
AcDbEntity
  8
Make2D$可见线$普通线
100
AcDbVertex
100
AcDb2dVertex
 10
976.0298352427944
 20
426.2093654409819
 30
0.0
  0
VERTEX
  5
366
330
35A
100
AcDbEntity
  8
Make2D$可见线$普通线
100
AcDbVertex
100
AcDb2dVertex
 10
975.8160409597695
 20
425.5649466809937
 30
0.0
  0
VERTEX
  5
367
330
35A
100
AcDbEntity
  8
Make2D$可见线$普通线
100
AcDbVertex
100
AcDb2dVertex
 10
975.6704027811396
 20
425.1639319317347
 30
0.0
  0
VERTEX
  5
368
330
35A
100
AcDbEntity
  8
Make2D$可见线$普通线
100
AcDbVertex
100
AcDb2dVertex
 10
975.5200268793902
 20
424.7779607248191
 30
0.0
  0
VERTEX
  5
369
330
35A
100
AcDbEntity
  8
Make2D$可见线$普通线
100
AcDbVertex
100
AcDb2dVertex
 10
975.365003829692
 20
424.4067454619773
 30
0.0
  0
VERTEX
  5
36A
330
35A
100
AcDbEntity
  8
Make2D$可见线$普通线
100
AcDbVertex
100
AcDb2dVertex
 10
975.2054242072157
 20
424.0499985449395
 30
0.0
  0
VERTEX
  5
36B
330
35A
100
AcDbEntity
  8
Make2D$可见线$普通线
100
AcDbVertex
100
AcDb2dVertex
 10
975.0580073329252
 20
423.7411114771341
 30
0.0
  0
VERTEX
  5
36C
330
35A
100
AcDbEntity
  8
Make2D$可见线$普通线
100
AcDbVertex
100
AcDb2dVertex
 10
974.9070402461346
 20
423.4434972937304
 30
0.0
  0
VERTEX
  5
36D
330
35A
100
AcDbEntity
  8
Make2D$可见线$普通线
100
AcDbVertex
100
AcDb2dVertex
 10
974.7525889419087
 20
423.1569464442943
 30
0.0
  0
VERTEX
  5
36E
330
35A
100
AcDbEntity
  8
Make2D$可见线$普通线
100
AcDbVertex
100
AcDb2dVertex
 10
974.5947194153117
 20
422.8812493783914
 30
0.0
  0
VERTEX
  5
36F
330
35A
100
AcDbEntity
  8
Make2D$可见线$普通线
100
AcDbVertex
100
AcDb2dVertex
 10
974.4398933077085
 20
422.6264102322413
 30
0.0
  0
VERTEX
  5
370
330
35A
100
AcDbEntity
  8
Make2D$可见线$普通线
100
AcDbVertex
100
AcDb2dVertex
 10
974.2820316873191
 20
422.3812096661105
 30
0.0
  0
VERTEX
  5
371
330
35A
100
AcDbEntity
  8
Make2D$可见线$普通线
100
AcDbVertex
100
AcDb2dVertex
 10
974.1211930733555
 20
422.1454618672209
 30
0.0
  0
VERTEX
  5
372
330
35A
100
AcDbEntity
  8
Make2D$可见线$普通线
100
AcDbVertex
100
AcDb2dVertex
 10
973.9574359850296
 20
421.918981022794
 30
0.0
  0
VERTEX
  5
373
330
35A
100
AcDbEntity
  8
Make2D$可见线$普通线
100
AcDbVertex
100
AcDb2dVertex
 10
973.7908189415537
 20
421.7015813200514
 30
0.0
  0
VERTEX
  5
374
330
35A
100
AcDbEntity
  8
Make2D$可见线$普通线
100
AcDbVertex
100
AcDb2dVertex
 10
973.6214004621396
 20
421.4930769462147
 30
0.0
  0
VERTEX
  5
375
330
35A
100
AcDbEntity
  8
Make2D$可见线$普通线
100
AcDbVertex
100
AcDb2dVertex
 10
973.4492390659996
 20
421.2932820885055
 30
0.0
  0
VERTEX
  5
376
330
35A
100
AcDbEntity
  8
Make2D$可见线$普通线
100
AcDbVertex
100
AcDb2dVertex
 10
973.2743932723456
 20
421.1020109341455
 30
0.0
  0
VERTEX
  5
377
330
35A
100
AcDbEntity
  8
Make2D$可见线$普通线
100
AcDbVertex
100
AcDb2dVertex
 10
973.1309627607396
 20
420.9533256581303
 30
0.0
  0
VERTEX
  5
378
330
35A
100
AcDbEntity
  8
Make2D$可见线$普通线
100
AcDbVertex
100
AcDb2dVertex
 10
973.0144143867549
 20
420.8376726033028
 30
0.0
  0
VERTEX
  5
379
330
35A
100
AcDbEntity
  8
Make2D$可见线$普通线
100
AcDbVertex
100
AcDb2dVertex
 10
972.8967903281647
 20
420.7254351460841
 30
0.0
  0
VERTEX
  5
37A
330
35A
100
AcDbEntity
  8
Make2D$可见线$普通线
100
AcDbVertex
100
AcDb2dVertex
 10
972.778106708598
 20
420.6165620900165
 30
0.0
  0
VERTEX
  5
37B
330
35A
100
AcDbEntity
  8
Make2D$可见线$普通线
100
AcDbVertex
100
AcDb2dVertex
 10
972.6583796516842
 20
420.5110022386425
 30
0.0
  0
VERTEX
  5
37C
330
35A
100
AcDbEntity
  8
Make2D$可见线$普通线
100
AcDbVertex
100
AcDb2dVertex
 10
972.5376252810527
 20
420.4087043955046
 30
0.0
  0
VERTEX
  5
37D
330
35A
100
AcDbEntity
  8
Make2D$可见线$普通线
100
AcDbVertex
100
AcDb2dVertex
 10
972.4158597203325
 20
420.3096173641451
 30
0.0
  0
VERTEX
  5
37E
330
35A
100
AcDbEntity
  8
Make2D$可见线$普通线
100
AcDbVertex
100
AcDb2dVertex
 10
972.2930990931532
 20
420.2136899481065
 30
0.0
  0
VERTEX
  5
37F
330
35A
100
AcDbEntity
  8
Make2D$可见线$普通线
100
AcDbVertex
100
AcDb2dVertex
 10
972.169359523144
 20
420.1208709509312
 30
0.0
  0
VERTEX
  5
380
330
35A
100
AcDbEntity
  8
Make2D$可见线$普通线
100
AcDbVertex
100
AcDb2dVertex
 10
971.9960464066528
 20
419.9971143943011
 30
0.0
  0
VERTEX
  5
381
330
35A
100
AcDbEntity
  8
Make2D$可见线$普通线
100
AcDbVertex
100
AcDb2dVertex
 10
971.8209221001196
 20
419.8791088783088
 30
0.0
  0
VERTEX
  5
382
330
35A
100
AcDbEntity
  8
Make2D$可见线$普通线
100
AcDbVertex
100
AcDb2dVertex
 10
971.6440296968528
 20
419.7667175711841
 30
0.0
  0
VERTEX
  5
383
330
35A
100
AcDbEntity
  8
Make2D$可见线$普通线
100
AcDbVertex
100
AcDb2dVertex
 10
971.4654122901616
 20
419.6598036411561
 30
0.0
  0
VERTEX
  5
384
330
35A
100
AcDbEntity
  8
Make2D$可见线$普通线
100
AcDbVertex
100
AcDb2dVertex
 10
971.225333018913
 20
419.5259029202768
 30
0.0
  0
VERTEX
  5
385
330
35A
100
AcDbEntity
  8
Make2D$可见线$普通线
100
AcDbVertex
100
AcDb2dVertex
 10
970.9807908951514
 20
419.4003377609317
 30
0.0
  0
VERTEX
  5
386
330
35A
100
AcDbEntity
  8
Make2D$可见线$普通线
100
AcDbVertex
100
AcDb2dVertex
 10
970.8403909964957
 20
419.3328913931081
 30
0.0
  0
VERTEX
  5
387
330
35A
100
AcDbEntity
  8
Make2D$可见线$普通线
100
AcDbVertex
100
AcDb2dVertex
 10
970.6987391000363
 20
419.2681076041769
 30
0.0
  0
VERTEX
  5
388
330
35A
100
AcDbEntity
  8
Make2D$可见线$普通线
100
AcDbVertex
100
AcDb2dVertex
 10
970.5584039129429
 20
419.207031025777
 30
0.0
  0
VERTEX
  5
389
330
35A
100
AcDbEntity
  8
Make2D$可见线$普通线
100
AcDbVertex
100
AcDb2dVertex
 10
970.4169933967685
 20
419.1484908338221
 30
0.0
  0
VERTEX
  5
38A
330
35A
100
AcDbEntity
  8
Make2D$可见线$普通线
100
AcDbVertex
100
AcDb2dVertex
 10
970.2664373896113
 20
419.0893495786841
 30
0.0
  0
VERTEX
  5
38B
330
35A
100
AcDbEntity
  8
Make2D$可见线$普通线
100
AcDbVertex
100
AcDb2dVertex
 10
970.11481981885
 20
419.0329724052363
 30
0.0
  0
VERTEX
  5
38C
330
35A
100
AcDbEntity
  8
Make2D$可见线$普通线
100
AcDbVertex
100
AcDb2dVertex
 10
969.9622154907862
 20
418.9793169289858
 30
0.0
  0
VERTEX
  5
38D
330
35A
100
AcDbEntity
  8
Make2D$可见线$普通线
100
AcDbVertex
100
AcDb2dVertex
 10
969.8086992117211
 20
418.9283407654398
 30
0.0
  0
VERTEX
  5
38E
330
35A
100
AcDbEntity
  8
Make2D$可见线$普通线
100
AcDbVertex
100
AcDb2dVertex
 10
969.4857140236132
 20
418.830374490268
 30
0.0
  0
VERTEX
  5
38F
330
35A
100
AcDbEntity
  8
Make2D$可见线$普通线
100
AcDbVertex
100
AcDb2dVertex
 10
969.1596051638759
 20
418.7432959974536
 30
0.0
  0
VERTEX
  5
390
330
35A
100
AcDbEntity
  8
Make2D$可见线$普通线
100
AcDbVertex
100
AcDb2dVertex
 10
968.8308943262921
 20
418.6665105061879
 30
0.0
  0
VERTEX
  5
391
330
35A
100
AcDbEntity
  8
Make2D$可见线$普通线
100
AcDbVertex
100
AcDb2dVertex
 10
968.5001032046448
 20
418.5994232356618
 30
0.0
  0
VERTEX
  5
392
330
35A
100
AcDbEntity
  8
Make2D$可见线$普通线
100
AcDbVertex
100
AcDb2dVertex
 10
968.1080713573214
 20
418.5318572120123
 30
0.0
  0
VERTEX
  5
393
330
35A
100
AcDbEntity
  8
Make2D$可见线$普通线
100
AcDbVertex
100
AcDb2dVertex
 10
967.7125208214044
 20
418.4754641496943
 30
0.0
  0
VERTEX
  5
394
330
35A
100
AcDbEntity
  8
Make2D$可见线$普通线
100
AcDbVertex
100
AcDb2dVertex
 10
967.2749794542581
 20
418.4252578869471
 30
0.0
  0
VERTEX
  5
395
330
35A
100
AcDbEntity
  8
Make2D$可见线$普通线
100
AcDbVertex
100
AcDb2dVertex
 10
966.8340069123102
 20
418.3859467620059
 30
0.0
  0
VERTEX
  5
396
330
35A
100
AcDbEntity
  8
Make2D$可见线$普通线
100
AcDbVertex
100
AcDb2dVertex
 10
966.3900228996586
 20
418.3561981119421
 30
0.0
  0
VERTEX
  5
397
330
35A
100
AcDbEntity
  8
Make2D$可见线$普通线
100
AcDbVertex
100
AcDb2dVertex
 10
965.6755898491447
 20
418.3251998829697
 30
0.0
  0
VERTEX
  5
398
330
35A
100
AcDbEntity
  8
Make2D$可见线$普通线
100
AcDbVertex
100
AcDb2dVertex
 10
964.6436455506557
 20
418.3065515006035
 30
0.0
  0
VERTEX
  5
399
330
35A
100
AcDbEntity
  8
Make2D$可见线$普通线
100
AcDbVertex
100
AcDb2dVertex
 10
963.6068696389956
 20
418.3038878285823
 30
0.0
  0
SEQEND
  5
39A
330
35A
100
AcDbEntity
  8
Make2D$可见线$普通线
  0
POLYLINE
  5
39B
330
1F
100
AcDbEntity
  8
Make2D$可见线$普通线
100
AcDb2dPolyline
 66
     1
 10
0.0
 20
0.0
 30
0.0
  0
VERTEX
  5
39C
330
39B
100
AcDbEntity
  8
Make2D$可见线$普通线
100
AcDbVertex
100
AcDb2dVertex
 10
974.7271444370518
 20
432.3377786504161
 30
0.0
 42
0.0218787059006329
  0
VERTEX
  5
39D
330
39B
100
AcDbEntity
  8
Make2D$可见线$普通线
100
AcDbVertex
100
AcDb2dVertex
 10
975.141394859282
 20
434.1382814003729
 30
0.0
 42
0.0089547693376537
  0
VERTEX
  5
39E
330
39B
100
AcDbEntity
  8
Make2D$可见线$普通线
100
AcDbVertex
100
AcDb2dVertex
 10
975.3023369329705
 20
435.0974229187942
 30
0.0
 42
0.0080154267031253
  0
VERTEX
  5
39F
330
39B
100
AcDbEntity
  8
Make2D$可见线$普通线
100
AcDbVertex
100
AcDb2dVertex
 10
975.4391173742773
 20
436.1253207904017
 30
0.0
 42
0.00666949909979
  0
VERTEX
  5
3A0
330
39B
100
AcDbEntity
  8
Make2D$可见线$普通线
100
AcDbVertex
100
AcDb2dVertex
 10
975.5471699573135
 20
437.1717378259607
 30
0.0
  0
VERTEX
  5
3A1
330
39B
100
AcDbEntity
  8
Make2D$可见线$普通线
100
AcDbVertex
100
AcDb2dVertex
 10
975.6334382288582
 20
438.2593574489888
 30
0.0
  0
VERTEX
  5
3A2
330
39B
100
AcDbEntity
  8
Make2D$可见线$普通线
100
AcDbVertex
100
AcDb2dVertex
 10
975.7132231880645
 20
439.4018101758724
 30
0.0
  0
VERTEX
  5
3A3
330
39B
100
AcDbEntity
  8
Make2D$可见线$普通线
100
AcDbVertex
100
AcDb2dVertex
 10
975.7218149440293
 20
439.4868989520767
 30
0.0
  0
VERTEX
  5
3A4
330
39B
100
AcDbEntity
  8
Make2D$可见线$普通线
100
AcDbVertex
100
AcDb2dVertex
 10
975.7259554332646
 20
439.5204483268399
 30
0.0
  0
VERTEX
  5
3A5
330
39B
100
AcDbEntity
  8
Make2D$可见线$普通线
100
AcDbVertex
100
AcDb2dVertex
 10
975.7300046368396
 20
439.5479747779996
 30
0.0
  0
VERTEX
  5
3A6
330
39B
100
AcDbEntity
  8
Make2D$可见线$普通线
100
AcDbVertex
100
AcDb2dVertex
 10
975.7319978909193
 20
439.5594732553427
 30
0.0
  0
VERTEX
  5
3A7
330
39B
100
AcDbEntity
  8
Make2D$可见线$普通线
100
AcDbVertex
100
AcDb2dVertex
 10
975.733971784882
 20
439.5694586195223
 30
0.0
  0
VERTEX
  5
3A8
330
39B
100
AcDbEntity
  8
Make2D$可见线$普通线
100
AcDbVertex
100
AcDb2dVertex
 10
975.7349518323714
 20
439.5738831151901
 30
0.0
  0
VERTEX
  5
3A9
330
39B
100
AcDbEntity
  8
Make2D$可见线$普通线
100
AcDbVertex
100
AcDb2dVertex
 10
975.7359274724934
 20
439.5779284097842
 30
0.0
  0
VERTEX
  5
3AA
330
39B
100
AcDbEntity
  8
Make2D$可见线$普通线
100
AcDbVertex
100
AcDb2dVertex
 10
975.7368988494694
 20
439.5815941957105
 30
0.0
  0
VERTEX
  5
3AB
330
39B
100
AcDbEntity
  8
Make2D$可见线$普通线
100
AcDbVertex
100
AcDb2dVertex
 10
975.7378661075198
 20
439.5848801653745
 30
0.0
  0
VERTEX
  5
3AC
330
39B
100
AcDbEntity
  8
Make2D$可见线$普通线
100
AcDbVertex
100
AcDb2dVertex
 10
975.738348237017
 20
439.586380622985
 30
0.0
  0
VERTEX
  5
3AD
330
39B
100
AcDbEntity
  8
Make2D$可见线$普通线
100
AcDbVertex
100
AcDb2dVertex
 10
975.7388293908656
 20
439.587786011182
 30
0.0
  0
VERTEX
  5
3AE
330
39B
100
AcDbEntity
  8
Make2D$可见线$普通线
100
AcDbVertex
100
AcDb2dVertex
 10
975.7393095870932
 20
439.5890962915164
 30
0.0
  0
VERTEX
  5
3AF
330
39B
100
AcDbEntity
  8
Make2D$可见线$普通线
100
AcDbVertex
100
AcDb2dVertex
 10
975.7397888437274
 20
439.5903114255389
 30
0.0
  0
VERTEX
  5
3B0
330
39B
100
AcDbEntity
  8
Make2D$可见线$普通线
100
AcDbVertex
100
AcDb2dVertex
 10
975.7402671787958
 20
439.5914313748
 30
0.0
  0
VERTEX
  5
3B1
330
39B
100
AcDbEntity
  8
Make2D$可见线$普通线
100
AcDbVertex
100
AcDb2dVertex
 10
975.7405060063764
 20
439.5919556431297
 30
0.0
  0
VERTEX
  5
3B2
330
39B
100
AcDbEntity
  8
Make2D$可见线$普通线
100
AcDbVertex
100
AcDb2dVertex
 10
975.7407446103259
 20
439.5924561008506
 30
0.0
  0
VERTEX
  5
3B3
330
39B
100
AcDbEntity
  8
Make2D$可见线$普通线
100
AcDbVertex
100
AcDb2dVertex
 10
975.7409829928977
 20
439.5929327431566
 30
0.0
  0
VERTEX
  5
3B4
330
39B
100
AcDbEntity
  8
Make2D$可见线$普通线
100
AcDbVertex
100
AcDb2dVertex
 10
975.7412211563453
 20
439.5933855652414
 30
0.0
  0
VERTEX
  5
3B5
330
39B
100
AcDbEntity
  8
Make2D$可见线$普通线
100
AcDbVertex
100
AcDb2dVertex
 10
975.7414591029224
 20
439.593814562299
 30
0.0
  0
VERTEX
  5
3B6
330
39B
100
AcDbEntity
  8
Make2D$可见线$普通线
100
AcDbVertex
100
AcDb2dVertex
 10
975.7416968348819
 20
439.5942197295231
 30
0.0
  0
VERTEX
  5
3B7
330
39B
100
AcDbEntity
  8
Make2D$可见线$普通线
100
AcDbVertex
100
AcDb2dVertex
 10
975.7419343544776
 20
439.5946010621076
 30
0.0
  0
VERTEX
  5
3B8
330
39B
100
AcDbEntity
  8
Make2D$可见线$普通线
100
AcDbVertex
100
AcDb2dVertex
 10
975.7421716639628
 20
439.5949585552464
 30
0.0
  0
VERTEX
  5
3B9
330
39B
100
AcDbEntity
  8
Make2D$可见线$普通线
100
AcDbVertex
100
AcDb2dVertex
 10
975.7424087655911
 20
439.5952922041332
 30
0.0
  0
VERTEX
  5
3BA
330
39B
100
AcDbEntity
  8
Make2D$可见线$普通线
100
AcDbVertex
100
AcDb2dVertex
 10
975.7425272391631
 20
439.5954500854803
 30
0.0
  0
VERTEX
  5
3BB
330
39B
100
AcDbEntity
  8
Make2D$可见线$普通线
100
AcDbVertex
100
AcDb2dVertex
 10
975.742645661616
 20
439.595602003962
 30
0.0
  0
VERTEX
  5
3BC
330
39B
100
AcDbEntity
  8
Make2D$可见线$普通线
100
AcDbVertex
100
AcDb2dVertex
 10
975.7427640332314
 20
439.5957479589776
 30
0.0
  0
VERTEX
  5
3BD
330
39B
100
AcDbEntity
  8
Make2D$可见线$普通线
100
AcDbVertex
100
AcDb2dVertex
 10
975.7428823542909
 20
439.5958879499265
 30
0.0
  0
VERTEX
  5
3BE
330
39B
100
AcDbEntity
  8
Make2D$可见线$普通线
100
AcDbVertex
100
AcDb2dVertex
 10
975.7430006250765
 20
439.5960219762079
 30
0.0
  0
VERTEX
  5
3BF
330
39B
100
AcDbEntity
  8
Make2D$可见线$普通线
100
AcDbVertex
100
AcDb2dVertex
 10
975.7431188458695
 20
439.5961500372208
 30
0.0
  0
VERTEX
  5
3C0
330
39B
100
AcDbEntity
  8
Make2D$可见线$普通线
100
AcDbVertex
100
AcDb2dVertex
 10
975.7432370169515
 20
439.5962721323645
 30
0.0
  0
VERTEX
  5
3C1
330
39B
100
AcDbEntity
  8
Make2D$可见线$普通线
100
AcDbVertex
100
AcDb2dVertex
 10
975.7433551386046
 20
439.5963882610384
 30
0.0
  0
VERTEX
  5
3C2
330
39B
100
AcDbEntity
  8
Make2D$可见线$普通线
100
AcDbVertex
100
AcDb2dVertex
 10
975.7434732111101
 20
439.5964984226415
 30
0.0
  0
VERTEX
  5
3C3
330
39B
100
AcDbEntity
  8
Make2D$可见线$普通线
100
AcDbVertex
100
AcDb2dVertex
 10
975.7435912347498
 20
439.5966026165733
 30
0.0
  0
VERTEX
  5
3C4
330
39B
100
AcDbEntity
  8
Make2D$可见线$普通线
100
AcDbVertex
100
AcDb2dVertex
 10
975.7437092098055
 20
439.5967008422327
 30
0.0
  0
VERTEX
  5
3C5
330
39B
100
AcDbEntity
  8
Make2D$可见线$普通线
100
AcDbVertex
100
AcDb2dVertex
 10
975.7438271365588
 20
439.5967930990192
 30
0.0
  0
VERTEX
  5
3C6
330
39B
100
AcDbEntity
  8
Make2D$可见线$普通线
100
AcDbVertex
100
AcDb2dVertex
 10
975.7439450152915
 20
439.5968793863319
 30
0.0
  0
VERTEX
  5
3C7
330
39B
100
AcDbEntity
  8
Make2D$可见线$普通线
100
AcDbVertex
100
AcDb2dVertex
 10
975.744062846285
 20
439.5969597035701
 30
0.0
  0
VERTEX
  5
3C8
330
39B
100
AcDbEntity
  8
Make2D$可见线$普通线
100
AcDbVertex
100
AcDb2dVertex
 10
975.7441806298214
 20
439.597034050133
 30
0.0
  0
VERTEX
  5
3C9
330
39B
100
AcDbEntity
  8
Make2D$可见线$普通线
100
AcDbVertex
100
AcDb2dVertex
 10
975.7442983661819
 20
439.5971024254198
 30
0.0
  0
VERTEX
  5
3CA
330
39B
100
AcDbEntity
  8
Make2D$可见线$普通线
100
AcDbVertex
100
AcDb2dVertex
 10
975.7444160556486
 20
439.5971648288298
 30
0.0
  0
VERTEX
  5
3CB
330
39B
100
AcDbEntity
  8
Make2D$可见线$普通线
100
AcDbVertex
100
AcDb2dVertex
 10
975.7445336985028
 20
439.5972212597622
 30
0.0
  0
VERTEX
  5
3CC
330
39B
100
AcDbEntity
  8
Make2D$可见线$普通线
100
AcDbVertex
100
AcDb2dVertex
 10
975.7446512950264
 20
439.5972717176162
 30
0.0
  0
VERTEX
  5
3CD
330
39B
100
AcDbEntity
  8
Make2D$可见线$普通线
100
AcDbVertex
100
AcDb2dVertex
 10
975.7447688455013
 20
439.597316201791
 30
0.0
  0
VERTEX
  5
3CE
330
39B
100
AcDbEntity
  8
Make2D$可见线$普通线
100
AcDbVertex
100
AcDb2dVertex
 10
975.7448863502088
 20
439.597354711686
 30
0.0
  0
VERTEX
  5
3CF
330
39B
100
AcDbEntity
  8
Make2D$可见线$普通线
100
AcDbVertex
100
AcDb2dVertex
 10
975.7450038094307
 20
439.5973872467002
 30
0.0
  0
VERTEX
  5
3D0
330
39B
100
AcDbEntity
  8
Make2D$可见线$普通线
100
AcDbVertex
100
AcDb2dVertex
 10
975.7451212234488
 20
439.597413806233
 30
0.0
  0
VERTEX
  5
3D1
330
39B
100
AcDbEntity
  8
Make2D$可见线$普通线
100
AcDbVertex
100
AcDb2dVertex
 10
975.7452385925446
 20
439.5974343896835
 30
0.0
  0
VERTEX
  5
3D2
330
39B
100
AcDbEntity
  8
Make2D$可见线$普通线
100
AcDbVertex
100
AcDb2dVertex
 10
975.7453559169999
 20
439.597448996451
 30
0.0
  0
VERTEX
  5
3D3
330
39B
100
AcDbEntity
  8
Make2D$可见线$普通线
100
AcDbVertex
100
AcDb2dVertex
 10
975.7454731970962
 20
439.5974576259348
 30
0.0
  0
SEQEND
  5
3D4
330
39B
100
AcDbEntity
  8
Make2D$可见线$普通线
  0
LINE
  5
3D5
330
1F
100
AcDbEntity
  8
Make2D$可见线$普通线
100
AcDbLine
 10
963.6067984170754
 20
440.6067266696036
 30
0.0
 11
974.7438029181942
 21
440.6067263035077
 31
0.0
  0
ARC
  5
3D6
330
1F
100
AcDbEntity
  8
Make2D$可见线$普通线
100
AcDbCircle
 10
974.7455990223763
 20
439.6068084091827
 30
0.0
 40
0.999917897839228
100
AcDbArc
 50
359.46418778426
 51
89.99515421454345
  0
ARC
  5
3D7
330
1F
100
AcDbEntity
  8
Make2D$可见线$普通线
100
AcDbCircle
 10
976.6495996683047
 20
439.6065330454781
 30
0.0
 40
1.000183215692128
100
AcDbArc
 50
359.4451950021699
 51
89.9985934439049
  0
LINE
  5
3D8
330
1F
100
AcDbEntity
  8
Make2D$可见线$普通线
100
AcDbLine
 10
976.6496242218375
 20
440.6067162608688
 30
0.0
 11
974.7518284626182
 21
440.6067262727659
 31
0.0
  0
LINE
  5
3D9
330
1F
100
AcDbEntity
  8
Make2D$可见线$普通线
100
AcDbLine
 10
963.6067984170754
 20
440.6067266696036
 30
0.0
 11
952.4697939159564
 21
440.6067263035076
 31
0.0
  0
ARC
  5
3DA
330
1F
100
AcDbEntity
  8
Make2D$可见线$普通线
100
AcDbCircle
 10
952.467997806104
 20
439.6068083768762
 30
0.0
 40
0.9999179301451644
100
AcDbArc
 50
90.00484546037269
 51
180.535810347169
  0
ARC
  5
3DB
330
1F
100
AcDbEntity
  8
Make2D$可见线$普通线
100
AcDbCircle
 10
950.5639971637193
 20
439.6065330333676
 30
0.0
 40
1.000183227802445
100
AcDbArc
 50
90.00140643424066
 51
180.5548042973269
  0
LINE
  5
3DC
330
1F
100
AcDbEntity
  8
Make2D$可见线$普通线
100
AcDbLine
 10
950.5639726123134
 20
440.6067162608688
 30
0.0
 11
952.4617683715317
 21
440.6067262727659
 31
0.0
  0
LINE
  5
3DD
330
1F
100
AcDbEntity
  8
Make2D$可见线$普通线
100
AcDbLine
 10
950.5639726123134
 20
440.6067162608688
 30
0.0
 11
950.537641906669
 21
440.6067161271986
 31
0.0
  0
LINE
  5
3DE
330
1F
100
AcDbEntity
  8
Make2D$可见线$普通线
100
AcDbLine
 10
976.6496242218375
 20
440.6067162608688
 30
0.0
 11
976.7316905577657
 21
440.6067158442517
 31
0.0
  0
ARC
  5
3DF
330
1F
100
AcDbEntity
  8
Make2D$可见线$普通线
100
AcDbCircle
 10
963.2106377605845
 20
432.8004433646985
 30
0.0
 40
17.55381388363181
100
AcDbArc
 50
155.7200614534817
 51
180.6320684554917
  0
ARC
  5
3E0
330
1F
100
AcDbEntity
  8
Make2D$可见线$普通线
100
AcDbCircle
 10
947.2076316826106
 20
514.3529900448718
 30
0.0
 40
74.3345024107749
100
AcDbArc
 50
269.9970414678966
 51
270.0014446723189
  0
ARC
  5
3E1
330
1F
100
AcDbEntity
  8
Make2D$可见线$普通线
100
AcDbCircle
 10
964.0029591455183
 20
432.8004433797181
 30
0.0
 40
17.55381381184994
100
AcDbArc
 50
359.3679314928963
 51
24.27993854619174
  0
LINE
  5
3E2
330
1F
100
AcDbEntity
  8
Make2D$可见线$普通线
100
AcDbLine
 10
980.004090866506
 20
440.0184876431384
 30
0.0
 11
980.0097128632337
 21
440.0184876936627
 31
0.0
  0
ARC
  5
3E3
330
1F
100
AcDbEntity
  8
Make2D$可见线$普通线
100
AcDbCircle
 10
989.6067984170752
 20
330.6067993113078
 30
0.0
 40
1.000000000004253
100
AcDbArc
 50
75.87422968378945
 51
89.99999999998697
  0
LINE
  5
3E4
330
1F
100
AcDbEntity
  8
Make2D$可见线$普通线
100
AcDbLine
 10
989.5188531338755
 20
331.6067993113122
 30
0.0
 11
989.5175649060805
 21
331.6067993113122
 31
0.0
  0
LINE
  5
3E5
330
1F
100
AcDbEntity
  8
Make2D$可见线$普通线
100
AcDbLine
 10
989.4917579804952
 20
331.6067993113122
 30
0.0
 11
989.4903456032962
 21
331.6067993113122
 31
0.0
  0
LINE
  5
3E6
330
1F
100
AcDbEntity
  8
Make2D$可见线$普通线
100
AcDbLine
 10
989.4610580845244
 20
331.606799311312
 30
0.0
 11
989.4595366349355
 21
331.606799311312
 31
0.0
  0
LINE
  5
3E7
330
1F
100
AcDbEntity
  8
Make2D$可见线$普通线
100
AcDbLine
 10
989.4267628268904
 20
331.606799311312
 30
0.0
 11
989.4251473249138
 21
331.606799311312
 31
0.0
  0
LINE
  5
3E8
330
1F
100
AcDbEntity
  8
Make2D$可见线$普通线
100
AcDbLine
 10
989.3888815885208
 20
331.6067993113121
 30
0.0
 11
989.3871869971423
 21
331.6067993113121
 31
0.0
  0
LINE
  5
3E9
330
1F
100
AcDbEntity
  8
Make2D$可见线$普通线
100
AcDbLine
 10
989.3474237503434
 20
331.6067993113122
 30
0.0
 11
989.3456649755301
 21
331.6067993113122
 31
0.0
  0
LINE
  5
3EA
330
1F
100
AcDbEntity
  8
Make2D$可见线$普通线
100
AcDbLine
 10
989.3023986932852
 20
331.6067993113122
 30
0.0
 11
989.3005905839859
 21
331.6067993113122
 31
0.0
  0
LINE
  5
3EB
330
1F
100
AcDbEntity
  8
Make2D$可见线$普通线
100
AcDbLine
 10
989.2538157982742
 20
331.6067993113122
 30
0.0
 11
989.2519731464184
 21
331.6067993113122
 31
0.0
  0
LINE
  5
3EC
330
1F
100
AcDbEntity
  8
Make2D$可见线$普通线
100
AcDbLine
 10
989.2016844462381
 20
331.606799311312
 30
0.0
 11
989.1998219867359
 21
331.606799311312
 31
0.0
  0
LINE
  5
3ED
330
1F
100
AcDbEntity
  8
Make2D$可见线$普通线
100
AcDbLine
 10
989.1460140181042
 20
331.606799311312
 30
0.0
 11
989.1441464288464
 21
331.606799311312
 31
0.0
  0
LINE
  5
3EE
330
1F
100
AcDbEntity
  8
Make2D$可见线$普通线
100
AcDbLine
 10
989.0868138948006
 20
331.6067993113122
 30
0.0
 11
989.0849557966591
 21
331.6067993113122
 31
0.0
  0
LINE
  5
3EF
330
1F
100
AcDbEntity
  8
Make2D$可见线$普通线
100
AcDbLine
 10
989.0240934572537
 20
331.606799311312
 30
0.0
 11
989.0222594140805
 21
331.606799311312
 31
0.0
  0
LINE
  5
3F0
330
1F
100
AcDbEntity
  8
Make2D$可见线$普通线
100
AcDbLine
 10
988.9578620863924
 20
331.6067993113119
 30
0.0
 11
988.9560666050203
 21
331.606799311312
 31
0.0
  0
LINE
  5
3F1
330
1F
100
AcDbEntity
  8
Make2D$可见线$普通线
100
AcDbLine
 10
988.888129163144
 20
331.606799311312
 30
0.0
 11
988.886386693386
 21
331.606799311312
 31
0.0
  0
LINE
  5
3F2
330
1F
100
AcDbEntity
  8
Make2D$可见线$普通线
100
AcDbLine
 10
988.8149040684358
 20
331.6067993113122
 30
0.0
 11
988.8132290030861
 21
331.606799311312
 31
0.0
  0
LINE
  5
3F3
330
1F
100
AcDbEntity
  8
Make2D$可见线$普通线
100
AcDbLine
 10
988.7381961831954
 20
331.6067993113122
 30
0.0
 11
988.7366028580288
 21
331.606799311312
 31
0.0
  0
LINE
  5
3F4
330
1F
100
AcDbEntity
  8
Make2D$可见线$普通线
100
AcDbLine
 10
988.6580148883505
 20
331.606799311312
 30
0.0
 11
988.6565175821222
 21
331.606799311312
 31
0.0
  0
LINE
  5
3F5
330
1F
100
AcDbEntity
  8
Make2D$可见线$普通线
100
AcDbLine
 10
988.5743695648288
 20
331.6067993113122
 30
0.0
 11
988.5729824992746
 21
331.6067993113122
 31
0.0
  0
LINE
  5
3F6
330
1F
100
AcDbEntity
  8
Make2D$可见线$普通线
100
AcDbLine
 10
988.4872695935569
 20
331.606799311312
 30
0.0
 11
988.4860069307724
 21
331.606799311312
 31
0.0
  0
LINE
  5
3F7
330
1F
100
AcDbEntity
  8
Make2D$可见线$普通线
100
AcDbLine
 10
988.3967243554639
 20
331.606799311312
 30
0.0
 11
988.3956002011397
 21
331.606799311312
 31
0.0
  0
LINE
  5
3F8
330
1F
100
AcDbEntity
  8
Make2D$可见线$普通线
100
AcDbLine
 10
987.781627655594
 20
331.606799311312
 30
0.0
 11
939.4320105730717
 21
331.6067993113122
 31
0.0
  0
LINE
  5
3F9
330
1F
100
AcDbEntity
  8
Make2D$可见线$普通线
100
AcDbLine
 10
938.9119158261207
 20
331.6067993113122
 30
0.0
 11
938.9108877407857
 21
331.6067993113122
 31
0.0
  0
LINE
  5
3FA
330
1F
100
AcDbEntity
  8
Make2D$可见线$普通线
100
AcDbLine
 10
938.8180919973413
 20
331.6067993113122
 30
0.0
 11
938.8169024680019
 21
331.6067993113122
 31
0.0
  0
LINE
  5
3FB
330
1F
100
AcDbEntity
  8
Make2D$可见线$普通线
100
AcDbLine
 10
938.7276885354682
 20
331.6067993113122
 30
0.0
 11
938.7263524271701
 21
331.6067993113122
 31
0.0
  0
LINE
  5
3FC
330
1F
100
AcDbEntity
  8
Make2D$可见线$普通线
100
AcDbLine
 10
938.6407148692656
 20
331.6067993113122
 30
0.0
 11
938.6392471043165
 21
331.6067993113122
 31
0.0
  0
LINE
  5
3FD
330
1F
100
AcDbEntity
  8
Make2D$可见线$普通线
100
AcDbLine
 10
938.5571804221399
 20
331.6067993113122
 30
0.0
 11
938.5555959854671
 21
331.6067993113122
 31
0.0
  0
LINE
  5
3FE
330
1F
100
AcDbEntity
  8
Make2D$可见线$普通线
100
AcDbLine
 10
938.477094617511
 20
331.6067993113122
 30
0.0
 11
938.4754085566478
 21
331.6067993113122
 31
0.0
  0
LINE
  5
3FF
330
1F
100
AcDbEntity
  8
Make2D$可见线$普通线
100
AcDbLine
 10
938.4004668804047
 20
331.6067993113122
 30
0.0
 11
938.3986943038852
 21
331.6067993113122
 31
0.0
  0
LINE
  5
400
330
1F
100
AcDbEntity
  8
Make2D$可见线$普通线
100
AcDbLine
 10
938.3273066358463
 20
331.6067993113122
 30
0.0
 11
938.3254627132047
 21
331.6067993113122
 31
0.0
  0
LINE
  5
401
330
1F
100
AcDbEntity
  8
Make2D$可见线$普通线
100
AcDbLine
 10
938.257623308862
 20
331.6067993113122
 30
0.0
 11
938.2557232706331
 21
331.6067993113122
 31
0.0
  0
LINE
  5
402
330
1F
100
AcDbEntity
  8
Make2D$可见线$普通线
100
AcDbLine
 10
938.1914263244763
 20
331.606799311312
 30
0.0
 11
938.1894854621956
 21
331.6067993113122
 31
0.0
  0
LINE
  5
403
330
1F
100
AcDbEntity
  8
Make2D$可见线$普通线
100
AcDbLine
 10
938.1287251077161
 20
331.6067993113124
 30
0.0
 11
938.126758773919
 21
331.6067993113123
 31
0.0
  0
LINE
  5
404
330
1F
100
AcDbEntity
  8
Make2D$可见线$普通线
100
AcDbLine
 10
938.0695290836069
 20
331.6067993113122
 30
0.0
 11
938.0675526918294
 21
331.6067993113122
 31
0.0
  0
LINE
  5
405
330
1F
100
AcDbEntity
  8
Make2D$可见线$普通线
100
AcDbLine
 10
938.0138476771746
 20
331.6067993113122
 30
0.0
 11
938.0118767019526
 21
331.6067993113122
 31
0.0
  0
LINE
  5
406
330
1F
100
AcDbEntity
  8
Make2D$可见线$普通线
100
AcDbLine
 10
937.9616903134438
 20
331.6067993113122
 30
0.0
 11
937.9597402903144
 21
331.6067993113122
 31
0.0
  0
LINE
  5
407
330
1F
100
AcDbEntity
  8
Make2D$可见线$普通线
100
AcDbLine
 10
937.9130664174413
 20
331.6067993113123
 30
0.0
 11
937.9111529429414
 21
331.6067993113123
 31
0.0
  0
LINE
  5
408
330
1F
100
AcDbEntity
  8
Make2D$可见线$普通线
100
AcDbLine
 10
937.8679854141924
 20
331.6067993113123
 30
0.0
 11
937.8661241458594
 21
331.6067993113123
 31
0.0
  0
LINE
  5
409
330
1F
100
AcDbEntity
  8
Make2D$可见线$普通线
100
AcDbLine
 10
937.8264567287239
 20
331.6067993113122
 30
0.0
 11
937.8246633850948
 21
331.6067993113122
 31
0.0
  0
LINE
  5
40A
330
1F
100
AcDbEntity
  8
Make2D$可见线$普通线
100
AcDbLine
 10
937.788489786061
 20
331.6067993113123
 30
0.0
 11
937.7867801466733
 21
331.6067993113123
 31
0.0
  0
LINE
  5
40B
330
1F
100
AcDbEntity
  8
Make2D$可见线$普通线
100
AcDbLine
 10
937.7540940112311
 20
331.6067993113123
 30
0.0
 11
937.7524839166209
 21
331.6067993113122
 31
0.0
  0
LINE
  5
40C
330
1F
100
AcDbEntity
  8
Make2D$可见线$普通线
100
AcDbLine
 10
937.7232788292639
 20
331.6067993113123
 30
0.0
 11
937.7217841809646
 21
331.6067993113123
 31
0.0
  0
LINE
  5
40D
330
1F
100
AcDbEntity
  8
Make2D$可见线$普通线
100
AcDbLine
 10
937.6960536651919
 20
331.6067993113122
 30
0.0
 11
937.6946904257293
 21
331.6067993113122
 31
0.0
  0
LINE
  5
40E
330
1F
100
AcDbEntity
  8
Make2D$可见线$普通线
100
AcDbLine
 10
937.6724279440624
 20
331.6067993113123
 30
0.0
 11
937.6712121369418
 21
331.6067993113123
 31
0.0
  0
LINE
  5
40F
330
1F
100
AcDbEntity
  8
Make2D$可见线$普通线
100
AcDbLine
 10
937.6513588006277
 20
331.6067993113123
 30
0.0
 11
937.650161792826
 21
331.6067993113123
 31
0.0
  0
LINE
  5
410
330
1F
100
AcDbEntity
  8
Make2D$可见线$普通线
100
AcDbLine
 10
990.6067984170754
 20
323.6067993113121
 30
0.0
 11
936.6067984170754
 21
323.6067993113121
 31
0.0
  0
LINE
  5
411
330
1F
100
AcDbEntity
  8
Make2D$可见线$普通线
100
AcDbLine
 10
990.6067984170754
 20
330.6067993113121
 30
0.0
 11
990.6067984170754
 21
323.6067993113121
 31
0.0
  0
SPLINE
  5
412
330
1F
100
AcDbEntity
  8
Make2D$可见线$普通线
100
AcDbSpline
210
0.0
220
0.0
230
1.0
 70
    15
 71
     2
 72
    12
 73
     9
 74
     0
 42
0.000000001
 43
0.0000000001
 12
1.0
 22
0.0
 32
0.0
 13
1.0
 23
0.0
 33
0.0
 40
-6.283185307179586
 40
-6.283185307179586
 40
-6.283185307179586
 40
-4.71238898038469
 40
-4.71238898038469
 40
-3.141592653589793
 40
-3.141592653589793
 40
-1.570796326794897
 40
-1.570796326794897
 40
0.0
 40
0.0
 40
0.0
 10
960.0712645111328
 20
419.4058681112251
 30
0.0
 41
1.0
 10
960.7783712923193
 20
419.3688610016659
 30
0.0
 41
0.7071067811865476
 10
961.4854780735059
 20
419.4058681112251
 30
0.0
 41
1.0
 10
962.1925848546924
 20
419.4428752207844
 30
0.0
 41
0.7071067811865476
 10
961.4854780735059
 20
419.4798823303437
 30
0.0
 41
1.0
 10
960.7783712923193
 20
419.516889439903
 30
0.0
 41
0.7071067811865476
 10
960.0712645111328
 20
419.4798823303437
 30
0.0
 41
1.0
 10
959.3641577299462
 20
419.4428752207844
 30
0.0
 41
0.7071067811865476
 10
960.0712645111328
 20
419.4058681112251
 30
0.0
 41
1.0
  0
SPLINE
  5
413
330
1F
100
AcDbEntity
  8
Make2D$可见线$普通线
100
AcDbSpline
210
0.0
220
0.0
230
1.0
 70
    15
 71
     2
 72
    12
 73
     9
 74
     0
 42
0.000000001
 43
0.0000000001
 12
1.0
 22
0.0
 32
0.0
 13
1.0
 23
0.0
 33
0.0
 40
-6.283185307179586
 40
-6.283185307179586
 40
-6.283185307179586
 40
-4.71238898038469
 40
-4.71238898038469
 40
-3.141592653589793
 40
-3.141592653589793
 40
-1.570796326794897
 40
-1.570796326794897
 40
0.0
 40
0.0
 40
0.0
 10
963.6067984170655
 20
419.3292238778067
 30
0.0
 41
1.0
 10
964.6067984170655
 20
419.3292238778067
 30
0.0
 41
0.7071067811865476
 10
964.6067984170655
 20
419.3815598340497
 30
0.0
 41
1.0
 10
964.6067984170655
 20
419.4338957902927
 30
0.0
 41
0.7071067811865476
 10
963.6067984170655
 20
419.4338957902927
 30
0.0
 41
1.0
 10
962.6067984170655
 20
419.4338957902927
 30
0.0
 41
0.7071067811865476
 10
962.6067984170655
 20
419.3815598340497
 30
0.0
 41
1.0
 10
962.6067984170655
 20
419.3292238778067
 30
0.0
 41
0.7071067811865476
 10
963.6067984170655
 20
419.3292238778067
 30
0.0
 41
1.0
  0
SPLINE
  5
414
330
1F
100
AcDbEntity
  8
Make2D$可见线$普通线
100
AcDbSpline
210
0.0
220
0.0
230
1.0
 70
    15
 71
     2
 72
    12
 73
     9
 74
     0
 42
0.000000001
 43
0.0000000001
 12
1.0
 22
0.0
 32
0.0
 13
1.0
 23
0.0
 33
0.0
 40
-6.283185307179586
 40
-6.283185307179586
 40
-6.283185307179586
 40
-4.71238898038469
 40
-4.71238898038469
 40
-3.141592653589793
 40
-3.141592653589793
 40
-1.570796326794897
 40
-1.570796326794897
 40
0.0
 40
0.0
 40
0.0
 10
967.1423323229983
 20
419.4058681112251
 30
0.0
 41
1.0
 10
967.8494391041849
 20
419.4428752207844
 30
0.0
 41
0.7071067811865476
 10
967.1423323229983
 20
419.4798823303437
 30
0.0
 41
1.0
 10
966.4352255418117
 20
419.516889439903
 30
0.0
 41
0.7071067811865476
 10
965.7281187606252
 20
419.4798823303437
 30
0.0
 41
1.0
 10
965.0210119794388
 20
419.4428752207844
 30
0.0
 41
0.7071067811865476
 10
965.7281187606252
 20
419.4058681112251
 30
0.0
 41
1.0
 10
966.4352255418119
 20
419.3688610016659
 30
0.0
 41
0.7071067811865476
 10
967.1423323229983
 20
419.4058681112251
 30
0.0
 41
1.0
  0
SPLINE
  5
415
330
1F
100
AcDbEntity
  8
Make2D$可见线$普通线
100
AcDbSpline
210
0.0
220
0.0
230
1.0
 70
    15
 71
     2
 72
    12
 73
     9
 74
     0
 42
0.000000001
 43
0.0000000001
 12
1.0
 22
0.0
 32
0.0
 13
1.0
 23
0.0
 33
0.0
 40
-6.283185307179586
 40
-6.283185307179586
 40
-6.283185307179586
 40
-4.71238898038469
 40
-4.71238898038469
 40
-3.141592653589793
 40
-3.141592653589793
 40
-1.570796326794897
 40
-1.570796326794897
 40
0.0
 40
0.0
 40
0.0
 10
968.6067984170655
 20
419.5909036590215
 30
0.0
 41
1.0
 10
968.6067984170655
 20
419.6432396152645
 30
0.0
 41
0.7071067811865476
 10
967.6067984170655
 20
419.6432396152644
 30
0.0
 41
1.0
 10
966.6067984170655
 20
419.6432396152645
 30
0.0
 41
0.7071067811865476
 10
966.6067984170655
 20
419.5909036590215
 30
0.0
 41
1.0
 10
966.6067984170655
 20
419.5385677027785
 30
0.0
 41
0.7071067811865476
 10
967.6067984170655
 20
419.5385677027786
 30
0.0
 41
1.0
 10
968.6067984170655
 20
419.5385677027785
 30
0.0
 41
0.7071067811865476
 10
968.6067984170655
 20
419.5909036590215
 30
0.0
 41
1.0
  0
SPLINE
  5
416
330
1F
100
AcDbEntity
  8
Make2D$可见线$普通线
100
AcDbSpline
210
0.0
220
0.0
230
1.0
 70
    15
 71
     2
 72
    12
 73
     9
 74
     0
 42
0.000000001
 43
0.0000000001
 12
1.0
 22
0.0
 32
0.0
 13
1.0
 23
0.0
 33
0.0
 40
-6.283185307179586
 40
-6.283185307179586
 40
-6.283185307179586
 40
-4.71238898038469
 40
-4.71238898038469
 40
-3.141592653589793
 40
-3.141592653589793
 40
-1.570796326794897
 40
-1.570796326794897
 40
0.0
 40
0.0
 40
0.0
 10
967.1423323229983
 20
419.7759392068178
 30
0.0
 41
1.0
 10
966.4352255418117
 20
419.8129463163771
 30
0.0
 41
0.7071067811865476
 10
965.7281187606252
 20
419.7759392068178
 30
0.0
 41
1.0
 10
965.0210119794388
 20
419.7389320972585
 30
0.0
 41
0.7071067811865476
 10
965.7281187606252
 20
419.7019249876993
 30
0.0
 41
1.0
 10
966.4352255418119
 20
419.66491787814
 30
0.0
 41
0.7071067811865476
 10
967.1423323229983
 20
419.7019249876993
 30
0.0
 41
1.0
 10
967.849439104185
 20
419.7389320972585
 30
0.0
 41
0.7071067811865476
 10
967.1423323229983
 20
419.7759392068178
 30
0.0
 41
1.0
  0
SPLINE
  5
417
330
1F
100
AcDbEntity
  8
Make2D$可见线$普通线
100
AcDbSpline
210
0.0
220
0.0
230
1.0
 70
    15
 71
     2
 72
    12
 73
     9
 74
     0
 42
0.000000001
 43
0.0000000001
 12
1.0
 22
0.0
 32
0.0
 13
1.0
 23
0.0
 33
0.0
 40
-6.283185307179586
 40
-6.283185307179586
 40
-6.283185307179586
 40
-4.71238898038469
 40
-4.71238898038469
 40
-3.141592653589793
 40
-3.141592653589793
 40
-1.570796326794897
 40
-1.570796326794897
 40
0.0
 40
0.0
 40
0.0
 10
963.6067984170655
 20
419.8525834402362
 30
0.0
 41
1.0
 10
962.6067984170655
 20
419.8525834402362
 30
0.0
 41
0.7071067811865476
 10
962.6067984170655
 20
419.8002474839933
 30
0.0
 41
1.0
 10
962.6067984170655
 20
419.7479115277503
 30
0.0
 41
0.7071067811865476
 10
963.6067984170655
 20
419.7479115277503
 30
0.0
 41
1.0
 10
964.6067984170655
 20
419.7479115277503
 30
0.0
 41
0.7071067811865476
 10
964.6067984170655
 20
419.8002474839933
 30
0.0
 41
1.0
 10
964.6067984170655
 20
419.8525834402362
 30
0.0
 41
0.7071067811865476
 10
963.6067984170655
 20
419.8525834402362
 30
0.0
 41
1.0
  0
SPLINE
  5
418
330
1F
100
AcDbEntity
  8
Make2D$可见线$普通线
100
AcDbSpline
210
0.0
220
0.0
230
1.0
 70
    15
 71
     2
 72
    12
 73
     9
 74
     0
 42
0.000000001
 43
0.0000000001
 12
1.0
 22
0.0
 32
0.0
 13
1.0
 23
0.0
 33
0.0
 40
-6.283185307179586
 40
-6.283185307179586
 40
-6.283185307179586
 40
-4.71238898038469
 40
-4.71238898038469
 40
-3.141592653589793
 40
-3.141592653589793
 40
-1.570796326794897
 40
-1.570796326794897
 40
0.0
 40
0.0
 40
0.0
 10
960.0712645111328
 20
419.7759392068178
 30
0.0
 41
1.0
 10
959.3641577299462
 20
419.7389320972585
 30
0.0
 41
0.7071067811865476
 10
960.0712645111328
 20
419.7019249876993
 30
0.0
 41
1.0
 10
960.7783712923193
 20
419.66491787814
 30
0.0
 41
0.7071067811865476
 10
961.4854780735059
 20
419.7019249876993
 30
0.0
 41
1.0
 10
962.1925848546924
 20
419.7389320972585
 30
0.0
 41
0.7071067811865476
 10
961.4854780735059
 20
419.7759392068178
 30
0.0
 41
1.0
 10
960.7783712923193
 20
419.8129463163771
 30
0.0
 41
0.7071067811865476
 10
960.0712645111328
 20
419.7759392068178
 30
0.0
 41
1.0
  0
SPLINE
  5
419
330
1F
100
AcDbEntity
  8
Make2D$可见线$普通线
100
AcDbSpline
210
0.0
220
0.0
230
1.0
 70
    15
 71
     2
 72
    12
 73
     9
 74
     0
 42
0.000000001
 43
0.0000000001
 12
1.0
 22
0.0
 32
0.0
 13
1.0
 23
0.0
 33
0.0
 40
-6.283185307179586
 40
-6.283185307179586
 40
-6.283185307179586
 40
-4.71238898038469
 40
-4.71238898038469
 40
-3.141592653589793
 40
-3.141592653589793
 40
-1.570796326794897
 40
-1.570796326794897
 40
0.0
 40
0.0
 40
0.0
 10
958.6067984170655
 20
419.5909036590215
 30
0.0
 41
1.0
 10
958.6067984170656
 20
419.5385677027785
 30
0.0
 41
0.7071067811865476
 10
959.6067984170655
 20
419.5385677027786
 30
0.0
 41
1.0
 10
960.6067984170656
 20
419.5385677027785
 30
0.0
 41
0.7071067811865476
 10
960.6067984170655
 20
419.5909036590215
 30
0.0
 41
1.0
 10
960.6067984170656
 20
419.6432396152645
 30
0.0
 41
0.7071067811865476
 10
959.6067984170655
 20
419.6432396152644
 30
0.0
 41
1.0
 10
958.6067984170656
 20
419.6432396152645
 30
0.0
 41
0.7071067811865476
 10
958.6067984170655
 20
419.5909036590215
 30
0.0
 41
1.0
  0
SPLINE
  5
41A
330
1F
100
AcDbEntity
  8
Make2D$可见线$普通线
100
AcDbSpline
210
0.0
220
0.0
230
1.0
 70
    15
 71
     2
 72
    12
 73
     9
 74
     0
 42
0.000000001
 43
0.0000000001
 12
1.0
 22
0.0
 32
0.0
 13
1.0
 23
0.0
 33
0.0
 40
-6.283185307179586
 40
-6.283185307179586
 40
-6.283185307179586
 40
-4.71238898038469
 40
-4.71238898038469
 40
-3.141592653589793
 40
-3.141592653589793
 40
-1.570796326794897
 40
-1.570796326794897
 40
0.0
 40
0.0
 40
0.0
 10
962.6067984170655
 20
419.5909036590215
 30
0.0
 41
1.0
 10
962.6067984170655
 20
419.5385677027785
 30
0.0
 41
0.7071067811865476
 10
963.6067984170655
 20
419.5385677027786
 30
0.0
 41
1.0
 10
964.6067984170655
 20
419.5385677027785
 30
0.0
 41
0.7071067811865476
 10
964.6067984170655
 20
419.5909036590215
 30
0.0
 41
1.0
 10
964.6067984170655
 20
419.6432396152645
 30
0.0
 41
0.7071067811865476
 10
963.6067984170655
 20
419.6432396152644
 30
0.0
 41
1.0
 10
962.6067984170655
 20
419.6432396152645
 30
0.0
 41
0.7071067811865476
 10
962.6067984170655
 20
419.5909036590215
 30
0.0
 41
1.0
  0
SPLINE
  5
41B
330
1F
100
AcDbEntity
  8
Make2D$可见线$普通线
100
AcDbSpline
210
0.0
220
0.0
230
1.0
 70
    12
 71
     2
 72
     8
 73
     5
 74
     0
 42
0.000000001
 43
0.0000000001
 12
1.0
 22
0.0
 32
0.0
 13
1.0
 23
0.0
 33
0.0
 40
0.0
 40
0.0
 40
0.0
 40
9.42453984735052
 40
9.42453984735052
 40
18.84907969470104
 40
18.84907969470104
 40
18.84907969470104
 10
956.6067984170656
 20
420.5895331937761
 30
0.0
 41
1.0
 10
956.6067984170658
 20
420.9558848874767
 30
0.0
 41
0.7071067811865476
 10
963.6067984170658
 20
420.9558848874766
 30
0.0
 41
1.0
 10
970.6067984170658
 20
420.9558848874766
 30
0.0
 41
0.7071067811865476
 10
970.6067984170656
 20
420.589533193776
 30
0.0
 41
1.0
  0
SPLINE
  5
41C
330
1F
100
AcDbEntity
  8
Make2D$可见线$普通线
100
AcDbSpline
210
0.0
220
0.0
230
1.0
 70
    11
 71
     3
 72
    29
 73
    25
 74
     0
 42
0.000000001
 43
0.0000000001
 12
1.0
 22
0.0
 32
0.0
 13
1.0
 23
0.0
 33
0.0
 40
0.0
 40
0.0
 40
0.0
 40
0.0
 40
2.261701642899839
 40
4.712269923676331
 40
7.162838204450479
 40
9.424539847350493
 40
9.424539847350493
 40
9.424539847350493
 40
11.68624149025047
 40
14.13680977102684
 40
16.58737805180103
 40
18.84907969470101
 40
18.84907969470101
 40
18.84907969470101
 40
21.11078133760098
 40
23.56134961837531
 40
26.01191789915155
 40
28.27361954205154
 40
28.27361954205154
 40
28.27361954205154
 40
30.53532118495153
 40
32.98588946572576
 40
35.436457746502
 40
37.69815938940208
 40
37.69815938940208
 40
37.69815938940208
 40
37.69815938940208
 10
957.6067984170656
 20
419.5909036590215
 30
0.0
 10
957.6065255553419
 20
419.630358036608
 30
0.0
 10
957.9060947585026
 20
419.7125607463873
 30
0.0
 10
959.2442290902289
 20
419.8192228964254
 30
0.0
 10
961.2822572009704
 20
419.8892554362449
 30
0.0
 10
962.8529308962112
 20
419.9049336769606
 30
0.0
 10
963.6067984170658
 20
419.9049193964792
 30
0.0
 10
964.3606659379597
 20
419.9049336769585
 30
0.0
 10
965.931339633072
 20
419.8892554362499
 30
0.0
 10
967.96936774405
 20
419.8192228964177
 30
0.0
 10
969.3075020755325
 20
419.7125607463918
 30
0.0
 10
969.6070712788337
 20
419.6303580366059
 30
0.0
 10
969.6067984170656
 20
419.5909036590215
 30
0.0
 10
969.6070712788335
 20
419.5514492814371
 30
0.0
 10
969.3075020755324
 20
419.4692465716509
 30
0.0
 10
967.9693677440498
 20
419.3625844216253
 30
0.0
 10
965.931339633072
 20
419.292551881793
 30
0.0
 10
964.3606659379597
 20
419.2768736410846
 30
0.0
 10
963.6067984170655
 20
419.2768879215638
 30
0.0
 10
962.8529308962111
 20
419.2768736410823
 30
0.0
 10
961.2822572009702
 20
419.2925518817981
 30
0.0
 10
959.2442290902286
 20
419.3625844216176
 30
0.0
 10
957.9060947585024
 20
419.4692465716554
 30
0.0
 10
957.6065255553419
 20
419.5514492814349
 30
0.0
 10
957.6067984170656
 20
419.5909036590215
 30
0.0
  0
LINE
  5
41D
330
1F
100
AcDbEntity
  8
Make2D$可见线$普通线
100
AcDbLine
 10
956.6067984170656
 20
420.5895331937761
 30
0.0
 11
956.6067984170656
 21
420.741981917522
 31
0.0
  0
ARC
  5
41E
330
1F
100
AcDbEntity
  8
Make2D$可见线$普通线
100
AcDbCircle
 10
946.6067979850076
 20
332.6068000646243
 30
0.0
 40
1.000000730822418
100
AcDbArc
 50
180.0000431615704
 51
267.1408491011543
  0
LINE
  5
41F
330
1F
100
AcDbEntity
  8
Make2D$可见线$普通线
100
AcDbLine
 10
980.851215987777
 20
331.6371291717538
 30
0.0
 11
980.837870558461
 21
331.6353357214269
 31
0.0
  0
LINE
  5
420
330
1F
100
AcDbEntity
  8
Make2D$可见线$普通线
100
AcDbLine
 10
980.6199160028199
 20
331.6075896515307
 30
0.0
 11
980.6638545251543
 21
331.6101485076378
 31
0.0
  0
ARC
  5
421
330
1F
100
AcDbEntity
  8
Make2D$可见线$普通线
100
AcDbCircle
 10
980.6068171883834
 20
332.6067847006101
 30
0.0
 40
0.9999823916895
100
AcDbArc
 50
283.768252769654
 51
0.0008371463016599
  0
ARC
  5
422
330
1F
100
AcDbEntity
  8
Make2D$可见线$普通线
100
AcDbCircle
 10
980.820129525628
 20
331.5970228990113
 30
0.0
 40
0.0321680923364057
100
AcDbArc
 50
99.04185046899768
 51
106.0816779637572
  0
LINE
  5
423
330
1F
100
AcDbEntity
  8
Make2D$可见线$普通线
100
AcDbLine
 10
980.7813221390408
 20
331.6212693563717
 30
0.0
 11
980.7779001138026
 21
331.6206721101896
 31
0.0
  0
LINE
  5
424
330
1F
100
AcDbEntity
  8
Make2D$可见线$普通线
100
AcDbLine
 10
980.8378496059959
 20
331.6355012298048
 30
0.0
 11
980.8757309821361
 21
331.6443925939789
 31
0.0
  0
LINE
  5
425
330
1F
100
AcDbEntity
  8
Make2D$可见线$普通线
100
AcDbLine
 10
980.7940614346252
 20
331.6298651901002
 30
0.0
 11
980.6198664865519
 21
331.6084141268888
 31
0.0
  0
LINE
  5
426
330
1F
100
AcDbEntity
  8
Make2D$可见线$普通线
100
AcDbLine
 10
980.8378844935858
 20
331.6352113489059
 30
0.0
 11
980.8447401454471
 21
331.6360345509042
 31
0.0
  0
LINE
  5
427
330
1F
100
AcDbEntity
  8
Make2D$可见线$普通线
100
AcDbLine
 10
980.8448081098205
 20
331.6355362592597
 30
0.0
 11
980.815086823018
 21
331.6287316229212
 31
0.0
  0
LINE
  5
428
330
1F
100
AcDbEntity
  8
Make2D$可见线$普通线
100
AcDbLine
 10
980.8112241969915
 20
331.627917012494
 30
0.0
 11
980.6073210660696
 21
331.6068304129393
 31
0.0
  0
LINE
  5
429
330
1F
100
AcDbEntity
  8
Make2D$可见线$普通线
100
AcDbLine
 10
980.6670077321518
 20
331.6103221161274
 30
0.0
 11
980.6966265937563
 21
331.6117337323269
 31
0.0
  0
ARC
  5
42A
330
1F
100
AcDbEntity
  8
Make2D$可见线$普通线
100
AcDbCircle
 10
980.60679951542
 20
332.6067994393109
 30
0.0
 40
1.000000127997265
100
AcDbArc
 50
272.5550434572863
 51
276.0934211276242
  0
LINE
  5
42B
330
1F
100
AcDbEntity
  8
Make2D$可见线$普通线
100
AcDbLine
 10
945.6067984170754
 20
432.6067993113121
 30
0.0
 11
945.6067984170754
 21
332.6067993113121
 31
0.0
  0
POLYLINE
  5
42C
330
1F
100
AcDbEntity
  8
Make2D$可见线$普通线
100
AcDb2dPolyline
 66
     1
 10
0.0
 20
0.0
 30
0.0
  0
VERTEX
  5
42D
330
42C
100
AcDbEntity
  8
Make2D$可见线$普通线
100
AcDbVertex
100
AcDb2dVertex
 10
956.3092380059759
 20
420.3966297622213
 30
0.0
 42
-0.0106806721929246
  0
VERTEX
  5
42E
330
42C
100
AcDbEntity
  8
Make2D$可见线$普通线
100
AcDbVertex
100
AcDb2dVertex
 10
955.5926697441856
 20
420.4642383448718
 30
0.0
  0
VERTEX
  5
42F
330
42C
100
AcDbEntity
  8
Make2D$可见线$普通线
100
AcDbVertex
100
AcDb2dVertex
 10
955.3347986516487
 20
420.4990134166271
 30
0.0
  0
VERTEX
  5
430
330
42C
100
AcDbEntity
  8
Make2D$可见线$普通线
100
AcDbVertex
100
AcDb2dVertex
 10
955.2365076413366
 20
420.5161639716744
 30
0.0
  0
VERTEX
  5
431
330
42C
100
AcDbEntity
  8
Make2D$可见线$普通线
100
AcDbVertex
100
AcDb2dVertex
 10
955.1876114135207
 20
420.52605836048
 30
0.0
  0
VERTEX
  5
432
330
42C
100
AcDbEntity
  8
Make2D$可见线$普通线
100
AcDbVertex
100
AcDb2dVertex
 10
955.1389268497265
 20
420.5369950829414
 30
0.0
  0
VERTEX
  5
433
330
42C
100
AcDbEntity
  8
Make2D$可见线$普通线
100
AcDbVertex
100
AcDb2dVertex
 10
955.1030266821367
 20
420.5458829550031
 30
0.0
  0
VERTEX
  5
434
330
42C
100
AcDbEntity
  8
Make2D$可见线$普通线
100
AcDbVertex
100
AcDb2dVertex
 10
955.0673813230534
 20
420.5556975414782
 30
0.0
  0
VERTEX
  5
435
330
42C
100
AcDbEntity
  8
Make2D$可见线$普通线
100
AcDbVertex
100
AcDb2dVertex
 10
955.0496916545167
 20
420.5610421408849
 30
0.0
  0
VERTEX
  5
436
330
42C
100
AcDbEntity
  8
Make2D$可见线$普通线
100
AcDbVertex
100
AcDb2dVertex
 10
955.0321106374845
 20
420.5667261648115
 30
0.0
  0
VERTEX
  5
437
330
42C
100
AcDbEntity
  8
Make2D$可见线$普通线
100
AcDbVertex
100
AcDb2dVertex
 10
955.0146532550827
 20
420.5727855285639
 30
0.0
  0
VERTEX
  5
438
330
42C
100
AcDbEntity
  8
Make2D$可见线$普通线
100
AcDbVertex
100
AcDb2dVertex
 10
954.9973344904377
 20
420.5792561474476
 30
0.0
  0
VERTEX
  5
439
330
42C
100
AcDbEntity
  8
Make2D$可见线$普通线
100
AcDbVertex
100
AcDb2dVertex
 10
954.9844176704821
 20
420.5844132548657
 30
0.0
  0
VERTEX
  5
43A
330
42C
100
AcDbEntity
  8
Make2D$可见线$普通线
100
AcDbVertex
100
AcDb2dVertex
 10
954.9716081267195
 20
420.5898401151878
 30
0.0
  0
VERTEX
  5
43B
330
42C
100
AcDbEntity
  8
Make2D$可见线$普通线
100
AcDbVertex
100
AcDb2dVertex
 10
954.9589263296914
 20
420.5955537684399
 30
0.0
  0
VERTEX
  5
43C
330
42C
100
AcDbEntity
  8
Make2D$可见线$普通线
100
AcDbVertex
100
AcDb2dVertex
 10
954.9463927499389
 20
420.6015712546479
 30
0.0
  0
VERTEX
  5
43D
330
42C
100
AcDbEntity
  8
Make2D$可见线$普通线
100
AcDbVertex
100
AcDb2dVertex
 10
954.9340278580037
 20
420.6079096138378
 30
0.0
  0
VERTEX
  5
43E
330
42C
100
AcDbEntity
  8
Make2D$可见线$普通线
100
AcDbVertex
100
AcDb2dVertex
 10
954.9218521244273
 20
420.6145858860355
 30
0.0
  0
VERTEX
  5
43F
330
42C
100
AcDbEntity
  8
Make2D$可见线$普通线
100
AcDbVertex
100
AcDb2dVertex
 10
954.909886019751
 20
420.6216171112669
 30
0.0
  0
VERTEX
  5
440
330
42C
100
AcDbEntity
  8
Make2D$可见线$普通线
100
AcDbVertex
100
AcDb2dVertex
 10
954.8981500145162
 20
420.6290203295582
 30
0.0
  0
VERTEX
  5
441
330
42C
100
AcDbEntity
  8
Make2D$可见线$普通线
100
AcDbVertex
100
AcDb2dVertex
 10
954.8919747267937
 20
420.6331371298724
 30
0.0
  0
VERTEX
  5
442
330
42C
100
AcDbEntity
  8
Make2D$可见线$普通线
100
AcDbVertex
100
AcDb2dVertex
 10
954.8858711464577
 20
420.6373621419044
 30
0.0
  0
VERTEX
  5
443
330
42C
100
AcDbEntity
  8
Make2D$可见线$普通线
100
AcDbVertex
100
AcDb2dVertex
 10
954.8738792846203
 20
420.6461245928866
 30
0.0
  0
VERTEX
  5
444
330
42C
100
AcDbEntity
  8
Make2D$可见线$普通线
100
AcDbVertex
100
AcDb2dVertex
 10
954.8621747823543
 20
420.6552832660326
 30
0.0
  0
VERTEX
  5
445
330
42C
100
AcDbEntity
  8
Make2D$可见线$普通线
100
AcDbVertex
100
AcDb2dVertex
 10
954.8507579930098
 20
420.6648137448706
 30
0.0
  0
VERTEX
  5
446
330
42C
100
AcDbEntity
  8
Make2D$可见线$普通线
100
AcDbVertex
100
AcDb2dVertex
 10
954.8396292699372
 20
420.6746916129284
 30
0.0
  0
VERTEX
  5
447
330
42C
100
AcDbEntity
  8
Make2D$可见线$普通线
100
AcDbVertex
100
AcDb2dVertex
 10
954.8287889664867
 20
420.6848924537343
 30
0.0
  0
VERTEX
  5
448
330
42C
100
AcDbEntity
  8
Make2D$可见线$普通线
100
AcDbVertex
100
AcDb2dVertex
 10
954.8182374360088
 20
420.6953918508161
 30
0.0
  0
VERTEX
  5
449
330
42C
100
AcDbEntity
  8
Make2D$可见线$普通线
100
AcDbVertex
100
AcDb2dVertex
 10
954.8079750318536
 20
420.7061653877018
 30
0.0
  0
VERTEX
  5
44A
330
42C
100
AcDbEntity
  8
Make2D$可见线$普通线
100
AcDbVertex
100
AcDb2dVertex
 10
954.7961577315773
 20
420.719289734938
 30
0.0
  0
VERTEX
  5
44B
330
42C
100
AcDbEntity
  8
Make2D$可见线$普通线
100
AcDbVertex
100
AcDb2dVertex
 10
954.7847361495175
 20
420.7327452896719
 30
0.0
  0
VERTEX
  5
44C
330
42C
100
AcDbEntity
  8
Make2D$可见线$普通线
100
AcDbVertex
100
AcDb2dVertex
 10
954.7736974774762
 20
420.74651083888
 30
0.0
  0
VERTEX
  5
44D
330
42C
100
AcDbEntity
  8
Make2D$可见线$普通线
100
AcDbVertex
100
AcDb2dVertex
 10
954.7630289072558
 20
420.7605651695385
 30
0.0
  0
VERTEX
  5
44E
330
42C
100
AcDbEntity
  8
Make2D$可见线$普通线
100
AcDbVertex
100
AcDb2dVertex
 10
954.7527176306586
 20
420.7748870686237
 30
0.0
  0
VERTEX
  5
44F
330
42C
100
AcDbEntity
  8
Make2D$可见线$普通线
100
AcDbVertex
100
AcDb2dVertex
 10
954.7427508394868
 20
420.7894553231117
 30
0.0
  0
VERTEX
  5
450
330
42C
100
AcDbEntity
  8
Make2D$可见线$普通线
100
AcDbVertex
100
AcDb2dVertex
 10
954.7331157255428
 20
420.804248719979
 30
0.0
  0
VERTEX
  5
451
330
42C
100
AcDbEntity
  8
Make2D$可见线$普通线
100
AcDbVertex
100
AcDb2dVertex
 10
954.7237994806286
 20
420.8192460462019
 30
0.0
  0
VERTEX
  5
452
330
42C
100
AcDbEntity
  8
Make2D$可见线$普通线
100
AcDbVertex
100
AcDb2dVertex
 10
954.7137886858384
 20
420.8361576539107
 30
0.0
  0
VERTEX
  5
453
330
42C
100
AcDbEntity
  8
Make2D$可见线$普通线
100
AcDbVertex
100
AcDb2dVertex
 10
954.7041439759802
 20
420.8532808772509
 30
0.0
  0
VERTEX
  5
454
330
42C
100
AcDbEntity
  8
Make2D$可见线$普通线
100
AcDbVertex
100
AcDb2dVertex
 10
954.6948521518996
 20
420.8706009017143
 30
0.0
  0
VERTEX
  5
455
330
42C
100
AcDbEntity
  8
Make2D$可见线$普通线
100
AcDbVertex
100
AcDb2dVertex
 10
954.685900014442
 20
420.8881029127926
 30
0.0
  0
VERTEX
  5
456
330
42C
100
AcDbEntity
  8
Make2D$可见线$普通线
100
AcDbVertex
100
AcDb2dVertex
 10
954.6772743644533
 20
420.9057720959776
 30
0.0
  0
VERTEX
  5
457
330
42C
100
AcDbEntity
  8
Make2D$可见线$普通线
100
AcDbVertex
100
AcDb2dVertex
 10
954.6689620027792
 20
420.9235936367611
 30
0.0
  0
VERTEX
  5
458
330
42C
100
AcDbEntity
  8
Make2D$可见线$普通线
100
AcDbVertex
100
AcDb2dVertex
 10
954.6532243477566
 20
420.9596345330906
 30
0.0
  0
VERTEX
  5
459
330
42C
100
AcDbEntity
  8
Make2D$可见线$普通线
100
AcDbVertex
100
AcDb2dVertex
 10
954.6370427118648
 20
421.000171570372
 30
0.0
  0
VERTEX
  5
45A
330
42C
100
AcDbEntity
  8
Make2D$可见线$普通线
100
AcDbVertex
100
AcDb2dVertex
 10
954.6221529876457
 20
421.0411908143719
 30
0.0
  0
VERTEX
  5
45B
330
42C
100
AcDbEntity
  8
Make2D$可见线$普通线
100
AcDbVertex
100
AcDb2dVertex
 10
954.6084973986067
 20
421.082642300757
 30
0.0
  0
VERTEX
  5
45C
330
42C
100
AcDbEntity
  8
Make2D$可见线$普通线
100
AcDbVertex
100
AcDb2dVertex
 10
954.5960181682553
 20
421.1244760651937
 30
0.0
  0
SEQEND
  5
45D
330
42C
100
AcDbEntity
  8
Make2D$可见线$普通线
  0
SPLINE
  5
45E
330
1F
100
AcDbEntity
  8
Make2D$可见线$普通线
100
AcDbSpline
210
0.0
220
0.0
230
1.0
 70
    12
 71
     3
 72
    15
 73
    11
 74
     0
 42
0.000000001
 43
0.0000000001
 12
1.0
 22
0.0
 32
0.0
 13
1.0
 23
0.0
 33
0.0
 40
0.0
 40
0.0
 40
0.0
 40
0.0
 40
0.5779513131271631
 40
0.5779513131271631
 40
0.5779513131271631
 40
1.536179744821336
 40
1.536179744821336
 40
2.458939963861935
 40
2.458939963861935
 40
2.51495350445556
 40
2.51495350445556
 40
2.51495350445556
 40
2.51495350445556
 10
957.2353419328429
 20
420.8011659374829
 30
0.0
 41
1.0
 10
957.043205449186
 20
420.7869175518775
 30
0.0
 41
0.9998584681608582
 10
956.851403338274
 20
420.7687132915578
 30
0.0
 41
0.999858468160858
 10
956.6600170384216
 20
420.7465608859702
 30
0.0
 41
1.0
 10
956.5481302277633
 20
420.7330934664825
 30
0.0
 41
1.0
 10
956.4545057353092
 20
420.7192326699544
 30
0.0
 41
1.0
 10
956.3157624240475
 20
420.6934364861481
 30
0.0
 41
1.0
 10
956.2609445802091
 20
420.6781610054086
 30
0.0
 41
1.0
 10
956.24835869797
 20
420.673418632603
 30
0.0
 41
1.0
 10
956.2477950259384
 20
420.6731401787367
 30
0.0
 41
1.0
 10
956.2474265831625
 20
420.6729109466888
 30
0.0
 41
1.0
  0
POLYLINE
  5
45F
330
1F
100
AcDbEntity
  8
Make2D$可见线$普通线
100
AcDb2dPolyline
 66
     1
 10
0.0
 20
0.0
 30
0.0
  0
VERTEX
  5
460
330
45F
100
AcDbEntity
  8
Make2D$可见线$普通线
100
AcDbVertex
100
AcDb2dVertex
 10
972.6175786658955
 20
421.1244760651938
 30
0.0
  0
VERTEX
  5
461
330
45F
100
AcDbEntity
  8
Make2D$可见线$普通线
100
AcDbVertex
100
AcDb2dVertex
 10
972.6050994355446
 20
421.0826423007571
 30
0.0
  0
VERTEX
  5
462
330
45F
100
AcDbEntity
  8
Make2D$可见线$普通线
100
AcDbVertex
100
AcDb2dVertex
 10
972.5914438465056
 20
421.041190814372
 30
0.0
  0
VERTEX
  5
463
330
45F
100
AcDbEntity
  8
Make2D$可见线$普通线
100
AcDbVertex
100
AcDb2dVertex
 10
972.5765541222866
 20
421.0001715703721
 30
0.0
  0
VERTEX
  5
464
330
45F
100
AcDbEntity
  8
Make2D$可见线$普通线
100
AcDbVertex
100
AcDb2dVertex
 10
972.5603724863946
 20
420.9596345330907
 30
0.0
  0
VERTEX
  5
465
330
45F
100
AcDbEntity
  8
Make2D$可见线$普通线
100
AcDbVertex
100
AcDb2dVertex
 10
972.5446348313718
 20
420.9235936367613
 30
0.0
  0
VERTEX
  5
466
330
45F
100
AcDbEntity
  8
Make2D$可见线$普通线
100
AcDbVertex
100
AcDb2dVertex
 10
972.5363224696976
 20
420.9057720959778
 30
0.0
  0
VERTEX
  5
467
330
45F
100
AcDbEntity
  8
Make2D$可见线$普通线
100
AcDbVertex
100
AcDb2dVertex
 10
972.5276968197088
 20
420.8881029127929
 30
0.0
  0
VERTEX
  5
468
330
45F
100
AcDbEntity
  8
Make2D$可见线$普通线
100
AcDbVertex
100
AcDb2dVertex
 10
972.5187446822513
 20
420.8706009017146
 30
0.0
  0
VERTEX
  5
469
330
45F
100
AcDbEntity
  8
Make2D$可见线$普通线
100
AcDbVertex
100
AcDb2dVertex
 10
972.5094528581707
 20
420.8532808772512
 30
0.0
  0
VERTEX
  5
46A
330
45F
100
AcDbEntity
  8
Make2D$可见线$普通线
100
AcDbVertex
100
AcDb2dVertex
 10
972.4998081483127
 20
420.836157653911
 30
0.0
  0
VERTEX
  5
46B
330
45F
100
AcDbEntity
  8
Make2D$可见线$普通线
100
AcDbVertex
100
AcDb2dVertex
 10
972.4897973535226
 20
420.8192460462021
 30
0.0
  0
VERTEX
  5
46C
330
45F
100
AcDbEntity
  8
Make2D$可见线$普通线
100
AcDbVertex
100
AcDb2dVertex
 10
972.4804811086086
 20
420.8042487199792
 30
0.0
  0
VERTEX
  5
46D
330
45F
100
AcDbEntity
  8
Make2D$可见线$普通线
100
AcDbVertex
100
AcDb2dVertex
 10
972.4708459946648
 20
420.7894553231118
 30
0.0
  0
VERTEX
  5
46E
330
45F
100
AcDbEntity
  8
Make2D$可见线$普通线
100
AcDbVertex
100
AcDb2dVertex
 10
972.4608792034933
 20
420.7748870686236
 30
0.0
  0
VERTEX
  5
46F
330
45F
100
AcDbEntity
  8
Make2D$可见线$普通线
100
AcDbVertex
100
AcDb2dVertex
 10
972.4505679268962
 20
420.7605651695384
 30
0.0
  0
VERTEX
  5
470
330
45F
100
AcDbEntity
  8
Make2D$可见线$普通线
100
AcDbVertex
100
AcDb2dVertex
 10
972.4398993566759
 20
420.7465108388799
 30
0.0
  0
VERTEX
  5
471
330
45F
100
AcDbEntity
  8
Make2D$可见线$普通线
100
AcDbVertex
100
AcDb2dVertex
 10
972.4288606846349
 20
420.7327452896717
 30
0.0
  0
VERTEX
  5
472
330
45F
100
AcDbEntity
  8
Make2D$可见线$普通线
100
AcDbVertex
100
AcDb2dVertex
 10
972.417439102575
 20
420.7192897349376
 30
0.0
  0
VERTEX
  5
473
330
45F
100
AcDbEntity
  8
Make2D$可见线$普通线
100
AcDbVertex
100
AcDb2dVertex
 10
972.4056218022987
 20
420.7061653877014
 30
0.0
  0
VERTEX
  5
474
330
45F
100
AcDbEntity
  8
Make2D$可见线$普通线
100
AcDbVertex
100
AcDb2dVertex
 10
972.3953593981435
 20
420.6953918508154
 30
0.0
  0
VERTEX
  5
475
330
45F
100
AcDbEntity
  8
Make2D$可见线$普通线
100
AcDbVertex
100
AcDb2dVertex
 10
972.3848078676654
 20
420.6848924537336
 30
0.0
  0
VERTEX
  5
476
330
45F
100
AcDbEntity
  8
Make2D$可见线$普通线
100
AcDbVertex
100
AcDb2dVertex
 10
972.3739675642147
 20
420.6746916129277
 30
0.0
  0
VERTEX
  5
477
330
45F
100
AcDbEntity
  8
Make2D$可见线$普通线
100
AcDbVertex
100
AcDb2dVertex
 10
972.3628388411419
 20
420.6648137448698
 30
0.0
  0
VERTEX
  5
478
330
45F
100
AcDbEntity
  8
Make2D$可见线$普通线
100
AcDbVertex
100
AcDb2dVertex
 10
972.3514220517973
 20
420.6552832660318
 30
0.0
  0
VERTEX
  5
479
330
45F
100
AcDbEntity
  8
Make2D$可见线$普通线
100
AcDbVertex
100
AcDb2dVertex
 10
972.3397175495309
 20
420.6461245928857
 30
0.0
  0
VERTEX
  5
47A
330
45F
100
AcDbEntity
  8
Make2D$可见线$普通线
100
AcDbVertex
100
AcDb2dVertex
 10
972.3277256876931
 20
420.6373621419035
 30
0.0
  0
VERTEX
  5
47B
330
45F
100
AcDbEntity
  8
Make2D$可见线$普通线
100
AcDbVertex
100
AcDb2dVertex
 10
972.3216221073571
 20
420.6331371298714
 30
0.0
  0
VERTEX
  5
47C
330
45F
100
AcDbEntity
  8
Make2D$可见线$普通线
100
AcDbVertex
100
AcDb2dVertex
 10
972.3154468196344
 20
420.6290203295573
 30
0.0
  0
VERTEX
  5
47D
330
45F
100
AcDbEntity
  8
Make2D$可见线$普通线
100
AcDbVertex
100
AcDb2dVertex
 10
972.3037108143996
 20
420.6216171112662
 30
0.0
  0
VERTEX
  5
47E
330
45F
100
AcDbEntity
  8
Make2D$可见线$普通线
100
AcDbVertex
100
AcDb2dVertex
 10
972.2917447097233
 20
420.6145858860348
 30
0.0
  0
VERTEX
  5
47F
330
45F
100
AcDbEntity
  8
Make2D$可见线$普通线
100
AcDbVertex
100
AcDb2dVertex
 10
972.279568976147
 20
420.6079096138373
 30
0.0
  0
VERTEX
  5
480
330
45F
100
AcDbEntity
  8
Make2D$可见线$普通线
100
AcDbVertex
100
AcDb2dVertex
 10
972.2672040842117
 20
420.6015712546475
 30
0.0
  0
VERTEX
  5
481
330
45F
100
AcDbEntity
  8
Make2D$可见线$普通线
100
AcDbVertex
100
AcDb2dVertex
 10
972.2546705044595
 20
420.5955537684396
 30
0.0
  0
VERTEX
  5
482
330
45F
100
AcDbEntity
  8
Make2D$可见线$普通线
100
AcDbVertex
100
AcDb2dVertex
 10
972.2419887074313
 20
420.5898401151875
 30
0.0
  0
VERTEX
  5
483
330
45F
100
AcDbEntity
  8
Make2D$可见线$普通线
100
AcDbVertex
100
AcDb2dVertex
 10
972.2291791636687
 20
420.5844132548655
 30
0.0
  0
VERTEX
  5
484
330
45F
100
AcDbEntity
  8
Make2D$可见线$普通线
100
AcDbVertex
100
AcDb2dVertex
 10
972.2162623437134
 20
420.5792561474474
 30
0.0
  0
VERTEX
  5
485
330
45F
100
AcDbEntity
  8
Make2D$可见线$普通线
100
AcDbVertex
100
AcDb2dVertex
 10
972.1989435790681
 20
420.5727855285638
 30
0.0
  0
VERTEX
  5
486
330
45F
100
AcDbEntity
  8
Make2D$可见线$普通线
100
AcDbVertex
100
AcDb2dVertex
 10
972.1814861966664
 20
420.5667261648115
 30
0.0
  0
VERTEX
  5
487
330
45F
100
AcDbEntity
  8
Make2D$可见线$普通线
100
AcDbVertex
100
AcDb2dVertex
 10
972.163905179634
 20
420.5610421408849
 30
0.0
  0
VERTEX
  5
488
330
45F
100
AcDbEntity
  8
Make2D$可见线$普通线
100
AcDbVertex
100
AcDb2dVertex
 10
972.1462155110971
 20
420.5556975414783
 30
0.0
  0
VERTEX
  5
489
330
45F
100
AcDbEntity
  8
Make2D$可见线$普通线
100
AcDbVertex
100
AcDb2dVertex
 10
972.1105701520137
 20
420.5458829550032
 30
0.0
  0
VERTEX
  5
48A
330
45F
100
AcDbEntity
  8
Make2D$可见线$普通线
100
AcDbVertex
100
AcDb2dVertex
 10
972.0746699844236
 20
420.5369950829416
 30
0.0
  0
VERTEX
  5
48B
330
45F
100
AcDbEntity
  8
Make2D$可见线$普通线
100
AcDbVertex
100
AcDb2dVertex
 10
972.0259854206292
 20
420.5260583604803
 30
0.0
  0
VERTEX
  5
48C
330
45F
100
AcDbEntity
  8
Make2D$可见线$普通线
100
AcDbVertex
100
AcDb2dVertex
 10
971.9770891928133
 20
420.5161639716747
 30
0.0
  0
VERTEX
  5
48D
330
45F
100
AcDbEntity
  8
Make2D$可见线$普通线
100
AcDbVertex
100
AcDb2dVertex
 10
971.8787981825017
 20
420.4990134166273
 30
0.0
  0
VERTEX
  5
48E
330
45F
100
AcDbEntity
  8
Make2D$可见线$普通线
100
AcDbVertex
100
AcDb2dVertex
 10
971.6209270899653
 20
420.4642383448718
 30
0.0
  0
VERTEX
  5
48F
330
45F
100
AcDbEntity
  8
Make2D$可见线$普通线
100
AcDbVertex
100
AcDb2dVertex
 10
970.9043588281747
 20
420.3966297622213
 30
0.0
  0
SEQEND
  5
490
330
45F
100
AcDbEntity
  8
Make2D$可见线$普通线
  0
SPLINE
  5
491
330
1F
100
AcDbEntity
  8
Make2D$可见线$普通线
100
AcDbSpline
210
0.0
220
0.0
230
1.0
 70
    12
 71
     3
 72
    15
 73
    11
 74
     0
 42
0.000000001
 43
0.0000000001
 12
1.0
 22
0.0
 32
0.0
 13
1.0
 23
0.0
 33
0.0
 40
1.637342893871259
 40
1.637342893871259
 40
1.637342893871259
 40
1.637342893871259
 40
1.805383515652346
 40
1.805383515652346
 40
2.728143734693318
 40
2.728143734693318
 40
3.686372166389251
 40
3.686372166389251
 40
3.686372166389251
 40
4.264323479516425
 40
4.264323479516425
 40
4.264323479516425
 40
4.264323479516425
 10
970.9657290936074
 20
420.6725764389199
 30
0.0
 41
1.0
 10
970.9674301108009
 20
420.6719981391967
 30
0.0
 41
1.0
 10
970.9666786730132
 20
420.6728758369078
 30
0.0
 41
1.0
 10
970.9526522539419
 20
420.6781610054086
 30
0.0
 41
1.0
 10
970.8978344101032
 20
420.693436486148
 30
0.0
 41
1.0
 10
970.7590910988415
 20
420.7192326699543
 30
0.0
 41
1.0
 10
970.6654666063876
 20
420.7330934664824
 30
0.0
 41
1.0
 10
970.5535797957292
 20
420.7465608859702
 30
0.0
 41
1.0
 10
970.3621934958774
 20
420.7687132915577
 30
0.0
 41
0.999858468160858
 10
970.1703913849648
 20
420.7869175518775
 30
0.0
 41
0.9998584681608582
 10
969.978254901308
 20
420.8011659374831
 30
0.0
 41
1.0
  0
ARC
  5
492
330
1F
100
AcDbEntity
  8
Make2D$可见线$普通线
100
AcDbCircle
 10
974.7456671656214
 20
439.6043837540554
 30
0.0
 40
1.002342966007938
100
AcDbArc
 50
89.64780989220695
 51
89.9990611320917
  0
ARC
  5
493
330
1F
100
AcDbEntity
  8
Make2D$可见线$普通线
100
AcDbCircle
 10
952.4679296685442
 20
439.6043837428805
 30
0.0
 40
1.002342977182787
100
AcDbArc
 50
90.00093886874915
 51
90.35219010478286
  0
LINE
  5
494
330
1F
100
AcDbEntity
  8
Make2D$可见线$普通线
100
AcDbLine
 10
954.525904620572
 20
421.5171395948504
 30
0.0
 11
953.9727248422261
 21
427.8328305721644
 31
0.0
  0
LINE
  5
495
330
1F
100
AcDbEntity
  8
Make2D$可见线$普通线
100
AcDbLine
 10
973.2408849158622
 20
427.8329781256331
 30
0.0
 11
972.687692213579
 21
421.5171395948503
 31
0.0
  0
ARC
  5
496
330
1F
100
AcDbEntity
  8
Make2D$可见线$普通线
100
AcDbCircle
 10
963.6067984170791
 20
432.6067993113114
 30
0.0
 40
18.00000000000364
100
AcDbArc
 50
155.6845209931103
 51
179.9999999999977
  0
ARC
  5
497
330
1F
100
AcDbEntity
  8
Make2D$可见线$普通线
100
AcDbCircle
 10
963.6067984170776
 20
432.6067993113126
 30
0.0
 40
17.99999999999784
100
AcDbArc
 50
359.9999999999984
 51
24.31547900689366
  0
ARC
  5
498
330
1F
100
AcDbEntity
  8
Make2D$可见线$普通线
100
AcDbCircle
 10
948.115081776438
 20
439.6067720157976
 30
0.0
 40
0.9999398910968366
100
AcDbArc
 50
101.700018490775
 51
155.685857387269
  0
ARC
  5
499
330
1F
100
AcDbEntity
  8
Make2D$可见线$普通线
100
AcDbCircle
 10
979.098377743379
 20
439.6066848630886
 30
0.0
 40
1.000100910476253
100
AcDbArc
 50
24.31666992772735
 51
78.29329837218971
  0
POLYLINE
  5
49A
330
1F
100
AcDbEntity
  8
Make2D$可见线$普通线
100
AcDb2dPolyline
 66
     1
 10
0.0
 20
0.0
 30
0.0
  0
VERTEX
  5
49B
330
49A
100
AcDbEntity
  8
Make2D$可见线$普通线
100
AcDbVertex
100
AcDb2dVertex
 10
948.1115687881165
 20
440.6067667713926
 30
0.0
 42
0.0091992151458024
  0
VERTEX
  5
49C
330
49A
100
AcDbEntity
  8
Make2D$可见线$普通线
100
AcDbVertex
100
AcDb2dVertex
 10
948.2549779436686
 20
440.6090027760313
 30
0.0
  0
VERTEX
  5
49D
330
49A
100
AcDbEntity
  8
Make2D$可见线$普通线
100
AcDbVertex
100
AcDb2dVertex
 10
948.7850587456779
 20
440.6751305478367
 30
0.0
 42
-0.0148998609065781
  0
VERTEX
  5
49E
330
49A
100
AcDbEntity
  8
Make2D$可见线$普通线
100
AcDbVertex
100
AcDb2dVertex
 10
949.0152359170756
 20
440.6975096496118
 30
0.0
 42
-0.0216048059210809
  0
VERTEX
  5
49F
330
49A
100
AcDbEntity
  8
Make2D$可见线$普通线
100
AcDbVertex
100
AcDb2dVertex
 10
949.2438289764522
 20
440.703097165437
 30
0.0
  0
VERTEX
  5
4A0
330
49A
100
AcDbEntity
  8
Make2D$可见线$普通线
100
AcDbVertex
100
AcDb2dVertex
 10
949.445599148946
 20
440.6902251650459
 30
0.0
  0
VERTEX
  5
4A1
330
49A
100
AcDbEntity
  8
Make2D$可见线$普通线
100
AcDbVertex
100
AcDb2dVertex
 10
950.1024642616686
 20
440.6165210953414
 30
0.0
 42
0.0103823342206561
  0
VERTEX
  5
4A2
330
49A
100
AcDbEntity
  8
Make2D$可见线$普通线
100
AcDbVertex
100
AcDb2dVertex
 10
950.2710807281758
 20
440.6089350880661
 30
0.0
  0
VERTEX
  5
4A3
330
49A
100
AcDbEntity
  8
Make2D$可见线$普通线
100
AcDbVertex
100
AcDb2dVertex
 10
950.4978882375435
 20
440.6067287394284
 30
0.0
  0
SEQEND
  5
4A4
330
49A
100
AcDbEntity
  8
Make2D$可见线$普通线
  0
LINE
  5
4A5
330
1F
100
AcDbEntity
  8
Make2D$可见线$普通线
100
AcDbLine
 10
950.49876845336
 20
440.6067281635865
 30
0.0
 11
950.5216653351758
 21
440.6067175899549
 31
0.0
  0
LINE
  5
4A6
330
1F
100
AcDbEntity
  8
Make2D$可见线$普通线
100
AcDbLine
 10
950.5214364254041
 20
440.6067188907534
 30
0.0
 11
950.537641906627
 21
440.6067165895568
 31
0.0
  0
POLYLINE
  5
4A7
330
1F
100
AcDbEntity
  8
Make2D$可见线$普通线
100
AcDb2dPolyline
 66
     1
 10
0.0
 20
0.0
 30
0.0
  0
VERTEX
  5
4A8
330
4A7
100
AcDbEntity
  8
Make2D$可见线$普通线
100
AcDbVertex
100
AcDb2dVertex
 10
976.7316905683621
 20
440.6067158442706
 30
0.0
 42
0.0060157436624068
  0
VERTEX
  5
4A9
330
4A7
100
AcDbEntity
  8
Make2D$可见线$普通线
100
AcDbVertex
100
AcDb2dVertex
 10
976.9425161059751
 20
440.6089350880662
 30
0.0
 42
0.0103823338613249
  0
VERTEX
  5
4AA
330
4A7
100
AcDbEntity
  8
Make2D$可见线$普通线
100
AcDbVertex
100
AcDb2dVertex
 10
977.1111325724822
 20
440.6165210953413
 30
0.0
  0
VERTEX
  5
4AB
330
4A7
100
AcDbEntity
  8
Make2D$可见线$普通线
100
AcDbVertex
100
AcDb2dVertex
 10
977.7679976852048
 20
440.6902251650459
 30
0.0
  0
VERTEX
  5
4AC
330
4A7
100
AcDbEntity
  8
Make2D$可见线$普通线
100
AcDbVertex
100
AcDb2dVertex
 10
977.9697678576987
 20
440.7030971654371
 30
0.0
 42
-0.0216048059216035
  0
VERTEX
  5
4AD
330
4A7
100
AcDbEntity
  8
Make2D$可见线$普通线
100
AcDbVertex
100
AcDb2dVertex
 10
978.1983609170752
 20
440.6975096496119
 30
0.0
 42
-0.0148998609077858
  0
VERTEX
  5
4AE
330
4A7
100
AcDbEntity
  8
Make2D$可见线$普通线
100
AcDbVertex
100
AcDb2dVertex
 10
978.4285380884729
 20
440.6751305478367
 30
0.0
  0
VERTEX
  5
4AF
330
4A7
100
AcDbEntity
  8
Make2D$可见线$普通线
100
AcDbVertex
100
AcDb2dVertex
 10
978.9586188904823
 20
440.6090027760313
 30
0.0
  0
VERTEX
  5
4B0
330
4A7
100
AcDbEntity
  8
Make2D$可见线$普通线
100
AcDbVertex
100
AcDb2dVertex
 10
979.1020280572233
 20
440.6067667713972
 30
0.0
  0
SEQEND
  5
4B1
330
4A7
100
AcDbEntity
  8
Make2D$可见线$普通线
  0
ARC
  5
4B2
330
1F
100
AcDbEntity
  8
Make2D$可见线$普通线
100
AcDbCircle
 10
989.6068046204546
 20
330.6067958323058
 30
0.0
 40
1.000001859890595
100
AcDbArc
 50
0.000199332003639
 51
75.87462289235292
  0
LINE
  5
4B3
330
1F
100
AcDbEntity
  8
Make2D$可见线$普通线
100
AcDbLine
 10
989.6068061816965
 20
331.6067993113121
 30
0.0
 11
989.518853136224
 21
331.6067993113122
 31
0.0
  0
LINE
  5
4B4
330
1F
100
AcDbEntity
  8
Make2D$可见线$普通线
100
AcDbLine
 10
989.5175649061257
 20
331.6067993113122
 30
0.0
 11
989.4917579820986
 21
331.6067993113122
 31
0.0
  0
LINE
  5
4B5
330
1F
100
AcDbEntity
  8
Make2D$可见线$普通线
100
AcDbLine
 10
989.4903456033186
 20
331.606799311312
 30
0.0
 11
989.461058085645
 21
331.606799311312
 31
0.0
  0
LINE
  5
4B6
330
1F
100
AcDbEntity
  8
Make2D$可见线$普通线
100
AcDbLine
 10
989.4595366349475
 20
331.6067993113121
 30
0.0
 11
989.4267628276875
 21
331.6067993113121
 31
0.0
  0
LINE
  5
4B7
330
1F
100
AcDbEntity
  8
Make2D$可见线$普通线
100
AcDbLine
 10
989.4251473249205
 20
331.606799311312
 30
0.0
 11
989.3888815890947
 21
331.606799311312
 31
0.0
  0
LINE
  5
4B8
330
1F
100
AcDbEntity
  8
Make2D$可见线$普通线
100
AcDbLine
 10
989.3871869971464
 20
331.6067993113123
 30
0.0
 11
989.3474237507604
 21
331.6067993113122
 31
0.0
  0
LINE
  5
4B9
330
1F
100
AcDbEntity
  8
Make2D$可见线$普通线
100
AcDbLine
 10
989.3456649755325
 20
331.6067993113122
 30
0.0
 11
989.30239869359
 21
331.6067993113122
 31
0.0
  0
LINE
  5
4BA
330
1F
100
AcDbEntity
  8
Make2D$可见线$普通线
100
AcDbLine
 10
989.3005905839873
 20
331.6067993113122
 30
0.0
 11
989.2538157984976
 21
331.6067993113122
 31
0.0
  0
LINE
  5
4BB
330
1F
100
AcDbEntity
  8
Make2D$可见线$普通线
100
AcDbLine
 10
989.2519731464191
 20
331.6067993113121
 30
0.0
 11
989.2016844464017
 21
331.6067993113121
 31
0.0
  0
LINE
  5
4BC
330
1F
100
AcDbEntity
  8
Make2D$可见线$普通线
100
AcDbLine
 10
989.1998219867363
 20
331.6067993113121
 30
0.0
 11
989.1460140182242
 21
331.6067993113122
 31
0.0
  0
LINE
  5
4BD
330
1F
100
AcDbEntity
  8
Make2D$可见线$普通线
100
AcDbLine
 10
989.1441464288472
 20
331.6067993113123
 30
0.0
 11
989.086813894888
 21
331.6067993113122
 31
0.0
  0
LINE
  5
4BE
330
1F
100
AcDbEntity
  8
Make2D$可见线$普通线
100
AcDbLine
 10
989.084955796659
 20
331.6067993113123
 30
0.0
 11
989.0240934573175
 21
331.6067993113123
 31
0.0
  0
LINE
  5
4BF
330
1F
100
AcDbEntity
  8
Make2D$可见线$普通线
100
AcDbLine
 10
989.0222594140805
 20
331.606799311312
 30
0.0
 11
988.957862086438
 21
331.606799311312
 31
0.0
  0
LINE
  5
4C0
330
1F
100
AcDbEntity
  8
Make2D$可见线$普通线
100
AcDbLine
 10
988.9560666050202
 20
331.6067993113121
 30
0.0
 11
988.8881291631761
 21
331.6067993113121
 31
0.0
  0
LINE
  5
4C1
330
1F
100
AcDbEntity
  8
Make2D$可见线$普通线
100
AcDbLine
 10
988.8863866933862
 20
331.6067993113123
 30
0.0
 11
988.8149040684581
 21
331.6067993113122
 31
0.0
  0
LINE
  5
4C2
330
1F
100
AcDbEntity
  8
Make2D$可见线$普通线
100
AcDbLine
 10
988.8132290030862
 20
331.6067993113121
 30
0.0
 11
988.7381961832104
 21
331.6067993113121
 31
0.0
  0
LINE
  5
4C3
330
1F
100
AcDbEntity
  8
Make2D$可见线$普通线
100
AcDbLine
 10
988.7366028580287
 20
331.6067993113122
 30
0.0
 11
988.6580148868201
 21
331.6067993113121
 31
0.0
  0
LINE
  5
4C4
330
1F
100
AcDbEntity
  8
Make2D$可见线$普通线
100
AcDbLine
 10
988.656517582122
 20
331.6067993113121
 30
0.0
 11
988.5743695580871
 21
331.6067993113121
 31
0.0
  0
LINE
  5
4C5
330
1F
100
AcDbEntity
  8
Make2D$可见线$普通线
100
AcDbLine
 10
988.5729824992745
 20
331.6067993113123
 30
0.0
 11
988.4872696035128
 21
331.6067993113123
 31
0.0
  0
LINE
  5
4C6
330
1F
100
AcDbEntity
  8
Make2D$可见线$普通线
100
AcDbLine
 10
988.4860069333937
 20
331.6067993113122
 30
0.0
 11
988.3967243624828
 21
331.6067993113122
 31
0.0
  0
LINE
  5
4C7
330
1F
100
AcDbEntity
  8
Make2D$可见线$普通线
100
AcDbLine
 10
988.3956002083881
 20
331.6067993113121
 30
0.0
 11
987.7816276555942
 21
331.6067993113122
 31
0.0
  0
LINE
  5
4C8
330
1F
100
AcDbEntity
  8
Make2D$可见线$普通线
100
AcDbLine
 10
939.4320105730725
 20
331.6067993113121
 30
0.0
 11
938.9119158153662
 21
331.6067993113121
 31
0.0
  0
LINE
  5
4C9
330
1F
100
AcDbEntity
  8
Make2D$可见线$普通线
100
AcDbLine
 10
938.9108877355483
 20
331.6067993113122
 30
0.0
 11
938.8180919909043
 21
331.6067993113122
 31
0.0
  0
LINE
  5
4CA
330
1F
100
AcDbEntity
  8
Make2D$可见线$普通线
100
AcDbLine
 10
938.816902460154
 20
331.6067993113121
 30
0.0
 11
938.7276885338623
 21
331.6067993113121
 31
0.0
  0
LINE
  5
4CB
330
1F
100
AcDbEntity
  8
Make2D$可见线$普通线
100
AcDbLine
 10
938.7263524371722
 20
331.6067993113119
 30
0.0
 11
938.6407148692655
 21
331.606799311312
 31
0.0
  0
LINE
  5
4CC
330
1F
100
AcDbEntity
  8
Make2D$可见线$普通线
100
AcDbLine
 10
938.6392471094555
 20
331.6067993113121
 30
0.0
 11
938.5571804221399
 21
331.6067993113121
 31
0.0
  0
LINE
  5
4CD
330
1F
100
AcDbEntity
  8
Make2D$可见线$普通线
100
AcDbLine
 10
938.5555959854552
 20
331.6067993113121
 30
0.0
 11
938.4770946175109
 21
331.6067993113121
 31
0.0
  0
LINE
  5
4CE
330
1F
100
AcDbEntity
  8
Make2D$可见线$普通线
100
AcDbLine
 10
938.4754085566296
 20
331.6067993113119
 30
0.0
 11
938.4004668804046
 21
331.606799311312
 31
0.0
  0
LINE
  5
4CF
330
1F
100
AcDbEntity
  8
Make2D$可见线$普通线
100
AcDbLine
 10
938.3986943038585
 20
331.606799311312
 30
0.0
 11
938.3273066358461
 21
331.606799311312
 31
0.0
  0
LINE
  5
4D0
330
1F
100
AcDbEntity
  8
Make2D$可见线$普通线
100
AcDbLine
 10
938.3254627131669
 20
331.6067993113122
 30
0.0
 11
938.2576233088614
 21
331.6067993113121
 31
0.0
  0
LINE
  5
4D1
330
1F
100
AcDbEntity
  8
Make2D$可见线$普通线
100
AcDbLine
 10
938.2557232705792
 20
331.6067993113121
 30
0.0
 11
938.1914263244762
 21
331.6067993113121
 31
0.0
  0
LINE
  5
4D2
330
1F
100
AcDbEntity
  8
Make2D$可见线$普通线
100
AcDbLine
 10
938.1894854621208
 20
331.606799311312
 30
0.0
 11
938.128725107716
 21
331.606799311312
 31
0.0
  0
LINE
  5
4D3
330
1F
100
AcDbEntity
  8
Make2D$可见线$普通线
100
AcDbLine
 10
938.1267587738158
 20
331.606799311312
 30
0.0
 11
938.0695290836065
 21
331.606799311312
 31
0.0
  0
LINE
  5
4D4
330
1F
100
AcDbEntity
  8
Make2D$可见线$普通线
100
AcDbLine
 10
938.0675526916875
 20
331.606799311312
 30
0.0
 11
938.0138476771735
 21
331.606799311312
 31
0.0
  0
LINE
  5
4D5
330
1F
100
AcDbEntity
  8
Make2D$可见线$普通线
100
AcDbLine
 10
938.011876701759
 20
331.606799311312
 30
0.0
 11
937.9616903134427
 21
331.6067993113121
 31
0.0
  0
LINE
  5
4D6
330
1F
100
AcDbEntity
  8
Make2D$可见线$普通线
100
AcDbLine
 10
937.9597402900505
 20
331.6067993113121
 30
0.0
 11
937.9130664174396
 21
331.6067993113121
 31
0.0
  0
LINE
  5
4D7
330
1F
100
AcDbEntity
  8
Make2D$可见线$普通线
100
AcDbLine
 10
937.9111529425811
 20
331.606799311312
 30
0.0
 11
937.8679854141898
 21
331.606799311312
 31
0.0
  0
LINE
  5
4D8
330
1F
100
AcDbEntity
  8
Make2D$可见线$普通线
100
AcDbLine
 10
937.866124145367
 20
331.6067993113122
 30
0.0
 11
937.8264567287194
 21
331.606799311312
 31
0.0
  0
LINE
  5
4D9
330
1F
100
AcDbEntity
  8
Make2D$可见线$普通线
100
AcDbLine
 10
937.8246633844166
 20
331.6067993113121
 30
0.0
 11
937.7884897860536
 21
331.6067993113121
 31
0.0
  0
LINE
  5
4DA
330
1F
100
AcDbEntity
  8
Make2D$可见线$普通线
100
AcDbLine
 10
937.7867801457313
 20
331.606799311312
 30
0.0
 11
937.7540940112182
 21
331.606799311312
 31
0.0
  0
LINE
  5
4DB
330
1F
100
AcDbEntity
  8
Make2D$可见线$普通线
100
AcDbLine
 10
937.7524839152969
 20
331.6067993113122
 30
0.0
 11
937.7232788292391
 21
331.606799311312
 31
0.0
  0
LINE
  5
4DC
330
1F
100
AcDbEntity
  8
Make2D$可见线$普通线
100
AcDbLine
 10
937.7217841790696
 20
331.6067993113122
 30
0.0
 11
937.6960536651417
 21
331.606799311312
 31
0.0
  0
LINE
  5
4DD
330
1F
100
AcDbEntity
  8
Make2D$可见线$普通线
100
AcDbLine
 10
937.6946904229535
 20
331.6067993113121
 30
0.0
 11
937.6724279439518
 21
331.6067993113121
 31
0.0
  0
LINE
  5
4DE
330
1F
100
AcDbEntity
  8
Make2D$可见线$普通线
100
AcDbLine
 10
937.6712121378978
 20
331.606799311312
 30
0.0
 11
937.651358801451
 21
331.606799311312
 31
0.0
  0
LINE
  5
4DF
330
1F
100
AcDbEntity
  8
Make2D$可见线$普通线
100
AcDbLine
 10
937.6501617913812
 20
331.606799311312
 30
0.0
 11
937.6067897193069
 21
331.606799311312
 31
0.0
  0
ARC
  5
4E0
330
1F
100
AcDbEntity
  8
Make2D$可见线$普通线
100
AcDbCircle
 10
937.6067787008961
 20
330.6068084019324
 30
0.0
 40
0.9999893161589688
100
AcDbArc
 50
98.93654786272458
 51
180.0005208597425
  0
LINE
  5
4E1
330
1F
100
AcDbEntity
  8
Make2D$可见线$普通线
100
AcDbLine
 10
937.4569673075182
 20
331.5955122423218
 30
0.0
 11
937.4761676767184
 21
331.5982315547915
 31
0.0
  0
LINE
  5
4E2
330
1F
100
AcDbEntity
  8
Make2D$可见线$普通线
100
AcDbLine
 10
937.4898732709319
 20
331.5998872337389
 30
0.0
 11
937.4884734412026
 21
331.5997450793872
 31
0.0
  0
LINE
  5
4E3
330
1F
100
AcDbEntity
  8
Make2D$可见线$普通线
100
AcDbLine
 10
937.4898669498398
 20
331.5999389028412
 30
0.0
 11
937.4914803903749
 21
331.6001472858055
 31
0.0
  0
LINE
  5
4E4
330
1F
100
AcDbEntity
  8
Make2D$可见线$普通线
100
AcDbLine
 10
937.5012524577468
 20
331.601410408786
 30
0.0
 11
937.5486138399374
 21
331.6075791650246
 31
0.0
  0
ARC
  5
4E5
330
1F
100
AcDbEntity
  8
Make2D$可见线$普通线
100
AcDbCircle
 10
938.3012870605934
 20
325.3447142822836
 30
0.0
 40
6.308187688111181
100
AcDbArc
 50
96.72028842512935
 51
97.37627358551732
  0
LINE
  5
4E6
330
1F
100
AcDbEntity
  8
Make2D$可见线$普通线
100
AcDbLine
 10
937.459673603835
 20
331.596638153318
 30
0.0
 11
937.4444806113157
 21
331.594596405926
 31
0.0
  0
LINE
  5
4E7
330
1F
100
AcDbEntity
  8
Make2D$可见线$普通线
100
AcDbLine
 10
937.4514521411772
 20
331.5946238141174
 30
0.0
 11
937.4569629064251
 21
331.5955393229119
 31
0.0
  0
LINE
  5
4E8
330
1F
100
AcDbEntity
  8
Make2D$可见线$普通线
100
AcDbLine
 10
937.4761663182488
 20
331.5982394667792
 30
0.0
 11
937.4884662884705
 21
331.5997744901622
 31
0.0
  0
ARC
  5
4E9
330
1F
100
AcDbEntity
  8
Make2D$可见线$普通线
100
AcDbCircle
 10
937.6067897188749
 20
330.6067986631825
 30
0.0
 40
1.000000648129638
100
AcDbArc
 50
89.99998837935952
 51
95.09460070901721
  0
LINE
  5
4EA
330
1F
100
AcDbEntity
  8
Make2D$可见线$普通线
100
AcDbLine
 10
937.5201251124045
 20
331.6055083878157
 30
0.0
 11
937.4494758469607
 21
331.5960110656612
 31
0.0
  0
ARC
  5
4EB
330
1F
100
AcDbEntity
  8
Make2D$可见线$普通线
100
AcDbCircle
 10
937.4404747654656
 20
331.6165895007668
 30
0.0
 40
0.0223262385767754
100
AcDbArc
 50
267.1512735068516
 51
280.3286812945368
  0
LINE
  5
4EC
330
1F
100
AcDbEntity
  8
Make2D$可见线$普通线
100
AcDbLine
 10
937.4495967810535
 20
331.5951648642904
 30
0.0
 11
937.4513658464539
 21
331.5953595999787
 31
0.0
  0
LINE
  5
4ED
330
1F
100
AcDbEntity
  8
Make2D$可见线$普通线
100
AcDbLine
 10
936.6067984170754
 20
330.6067993113121
 30
0.0
 11
936.6067984170754
 21
323.6067993113121
 31
0.0
  0
SPLINE
  5
4EE
330
1F
100
AcDbEntity
  8
Make2D$可见线$普通线
100
AcDbSpline
210
0.0
220
0.0
230
1.0
 70
    12
 71
     3
 72
    21
 73
    17
 74
     0
 42
0.000000001
 43
0.0000000001
 12
1.0
 22
0.0
 32
0.0
 13
1.0
 23
0.0
 33
0.0
 40
0.0
 40
0.0
 40
0.0
 40
0.0
 40
0.6156887887621683
 40
0.6156887887621683
 40
1.260707855605043
 40
1.260707855605043
 40
1.260707855605043
 40
1.429744906299921
 40
1.429744906299921
 40
1.429744906299921
 40
1.871748175745935
 40
1.871748175745935
 40
2.32047022296172
 40
2.32047022296172
 40
2.32047022296172
 40
2.884260239370322
 40
2.884260239370322
 40
2.884260239370322
 40
2.884260239370322
 10
994.7661955657676
 20
369.6066540278955
 30
0.0
 41
1.0
 10
994.7690178917268
 20
369.4016804236345
 30
0.0
 41
1.0
 10
994.7468299789442
 20
369.1996887811454
 30
0.0
 41
1.0
 10
994.6549143618718
 20
368.8001672573913
 30
0.0
 41
1.0
 10
994.5835832551898
 20
368.6061956496936
 30
0.0
 41
1.0
 10
994.4888826404859
 20
368.4298035128926
 30
0.0
 41
1.0
 10
994.4622517044313
 20
368.3801288254163
 30
0.0
 41
0.9993877148740774
 10
994.4335167307343
 20
368.3316408617792
 30
0.0
 41
0.9993877148740788
 10
994.4027305013861
 20
368.2844286873587
 30
0.0
 41
1.0
 10
994.3282469797449
 20
368.1703592131258
 30
0.0
 41
1.0
 10
994.2413423245456
 20
368.0642233179854
 30
0.0
 41
1.0
 10
994.0398474629809
 20
367.8761738515824
 30
0.0
 41
1.0
 10
993.9252897137599
 20
367.7950046053126
 30
0.0
 41
1.0
 10
993.7977118666723
 20
367.7329913025327
 30
0.0
 41
1.0
 10
993.6275207746669
 20
367.649512705144
 30
0.0
 41
0.982901316396157
 10
993.4429096096634
 20
367.6064731677853
 30
0.0
 41
0.9829013163961569
 10
993.2533481953625
 20
367.6060804487508
 30
0.0
 41
1.0
  0
SPLINE
  5
4EF
330
1F
100
AcDbEntity
  8
Make2D$可见线$普通线
100
AcDbSpline
210
0.0
220
0.0
230
1.0
 70
    12
 71
     3
 72
    21
 73
    17
 74
     0
 42
0.000000001
 43
0.0000000001
 12
1.0
 22
0.0
 32
0.0
 13
1.0
 23
0.0
 33
0.0
 40
0.0
 40
0.0
 40
0.0
 40
0.0
 40
0.5637900163916335
 40
0.5637900163916335
 40
0.5637900163916335
 40
1.012512063598546
 40
1.012512063598546
 40
1.454515333042554
 40
1.454515333042554
 40
1.454515333042554
 40
1.62355238375021
 40
1.62355238375021
 40
1.62355238375021
 40
2.268571450592802
 40
2.268571450592802
 40
2.884260239349676
 40
2.884260239349676
 40
2.884260239349676
 40
2.884260239349676
 10
993.253348195383
 20
371.6072276070412
 30
0.0
 41
1.0
 10
993.4429096096785
 20
371.6068348880067
 30
0.0
 41
0.9829013163958525
 10
993.6275207746758
 20
371.5637953506485
 30
0.0
 41
0.982901316395852
 10
993.797711866676
 20
371.4803167532615
 30
0.0
 41
1.0
 10
993.9252897137619
 20
371.4183034504817
 30
0.0
 41
1.0
 10
994.0398474629808
 20
371.3371342042122
 30
0.0
 41
1.0
 10
994.241342324543
 20
371.1490847378101
 30
0.0
 41
1.0
 10
994.3282469797413
 20
371.0429488426701
 30
0.0
 41
1.0
 10
994.4027305013823
 20
370.9288793684376
 30
0.0
 41
1.0
 10
994.4335167307328
 20
370.8816671940136
 30
0.0
 41
0.9993877148740578
 10
994.4622517044322
 20
370.8331792303728
 30
0.0
 41
0.9993877148740576
 10
994.4888826404883
 20
370.7835045428926
 30
0.0
 41
1.0
 10
994.5835832551913
 20
370.6071124060916
 30
0.0
 41
1.0
 10
994.6549143618741
 20
370.4131407983921
 30
0.0
 41
1.0
 10
994.7468299789457
 20
370.0136192746407
 30
0.0
 41
1.0
 10
994.7690178917281
 20
369.8116276321546
 30
0.0
 41
1.0
 10
994.7661955657676
 20
369.6066540278955
 30
0.0
 41
1.0
  0
LINE
  5
4F0
330
1F
100
AcDbEntity
  8
Make2D$可见线$普通线
100
AcDbLine
 10
982.1507157347886
 20
365.9762538124485
 30
0.0
 11
981.6067984170755
 21
364.5793813240764
 31
0.0
  0
POLYLINE
  5
4F1
330
1F
100
AcDbEntity
  8
Make2D$可见线$普通线
100
AcDb2dPolyline
 66
     1
 10
0.0
 20
0.0
 30
0.0
  0
VERTEX
  5
4F2
330
4F1
100
AcDbEntity
  8
Make2D$可见线$普通线
100
AcDbVertex
100
AcDb2dVertex
 10
984.1168925106283
 20
367.606654054904
 30
0.0
 42
0.0822491293602205
  0
VERTEX
  5
4F3
330
4F1
100
AcDbEntity
  8
Make2D$可见线$普通线
100
AcDbVertex
100
AcDb2dVertex
 10
983.5990067221322
 20
367.5197085763637
 30
0.0
 42
0.0806692080154616
  0
VERTEX
  5
4F4
330
4F1
100
AcDbEntity
  8
Make2D$可见线$普通线
100
AcDbVertex
100
AcDb2dVertex
 10
983.0521453887333
 20
367.2247784194755
 30
0.0
 42
0.0731976147039171
  0
VERTEX
  5
4F5
330
4F1
100
AcDbEntity
  8
Make2D$可见线$普通线
100
AcDbVertex
100
AcDb2dVertex
 10
982.5389804083472
 20
366.6942229698297
 30
0.0
 42
0.0631691771294194
  0
VERTEX
  5
4F6
330
4F1
100
AcDbEntity
  8
Make2D$可见线$普通线
100
AcDbVertex
100
AcDb2dVertex
 10
982.1555542481372
 20
365.9886178006531
 30
0.0
  0
SEQEND
  5
4F7
330
4F1
100
AcDbEntity
  8
Make2D$可见线$普通线
  0
ARC
  5
4F8
330
1F
100
AcDbEntity
  8
Make2D$可见线$普通线
100
AcDbCircle
 10
984.1253350684173
 20
365.958923246128
 30
0.0
 40
5.647736855132052
100
AcDbArc
 50
90.08385881633399
 51
116.4833239024508
  0
LINE
  5
4F9
330
1F
100
AcDbEntity
  8
Make2D$可见线$普通线
100
AcDbLine
 10
993.2293200735744
 20
367.6066540278955
 30
0.0
 11
984.117068973376
 21
367.6066540278955
 31
0.0
  0
LINE
  5
4FA
330
1F
100
AcDbEntity
  8
Make2D$可见线$普通线
100
AcDbLine
 10
993.2293200735744
 20
371.6066540278955
 30
0.0
 11
984.1170689733759
 21
371.6066540278955
 31
0.0
  0
ARC
  5
4FB
330
1F
100
AcDbEntity
  8
Make2D$可见线$普通线
100
AcDbCircle
 10
957.6229799590045
 20
420.5896640140887
 30
0.0
 40
1.01618199419152
100
AcDbArc
 50
180.0073760951462
 51
180.3962426619426
  0
ARC
  5
4FC
330
1F
100
AcDbEntity
  8
Make2D$可见线$普通线
100
AcDbCircle
 10
969.5906168792019
 20
420.5896640140787
 30
0.0
 40
1.016181990116414
100
AcDbArc
 50
359.6037573965929
 51
359.9926239053787
  0
POLYLINE
  5
4FD
330
1F
100
AcDbEntity
  8
Make2D$可见线$普通线
100
AcDb2dPolyline
 66
     1
 10
0.0
 20
0.0
 30
0.0
  0
VERTEX
  5
4FE
330
4FD
100
AcDbEntity
  8
Make2D$可见线$普通线
100
AcDbVertex
100
AcDb2dVertex
 10
970.6067763291582
 20
420.5826364098778
 30
0.0
  0
VERTEX
  5
4FF
330
4FD
100
AcDbEntity
  8
Make2D$可见线$普通线
100
AcDbVertex
100
AcDb2dVertex
 10
970.6062961756854
 20
420.5582555055298
 30
0.0
  0
VERTEX
  5
500
330
4FD
100
AcDbEntity
  8
Make2D$可见线$普通线
100
AcDbVertex
100
AcDb2dVertex
 10
970.605228673879
 20
420.5337848067094
 30
0.0
  0
VERTEX
  5
501
330
4FD
100
AcDbEntity
  8
Make2D$可见线$普通线
100
AcDbVertex
100
AcDb2dVertex
 10
970.6035671634475
 20
420.5092450288328
 30
0.0
  0
VERTEX
  5
502
330
4FD
100
AcDbEntity
  8
Make2D$可见线$普通线
100
AcDbVertex
100
AcDb2dVertex
 10
970.6013059387167
 20
420.4846573583428
 30
0.0
  0
VERTEX
  5
503
330
4FD
100
AcDbEntity
  8
Make2D$可见线$普通线
100
AcDbVertex
100
AcDb2dVertex
 10
970.5984402850997
 20
420.460043398654
 30
0.0
  0
VERTEX
  5
504
330
4FD
100
AcDbEntity
  8
Make2D$可见线$普通线
100
AcDbVertex
100
AcDb2dVertex
 10
970.5949665119479
 20
420.4354251129457
 30
0.0
  0
VERTEX
  5
505
330
4FD
100
AcDbEntity
  8
Make2D$可见线$普通线
100
AcDbVertex
100
AcDb2dVertex
 10
970.590881981476
 20
420.4108247640804
 30
0.0
  0
VERTEX
  5
506
330
4FD
100
AcDbEntity
  8
Make2D$可见线$普通线
100
AcDbVertex
100
AcDb2dVertex
 10
970.5861851334864
 20
420.3862648519615
 30
0.0
  0
VERTEX
  5
507
330
4FD
100
AcDbEntity
  8
Make2D$可见线$普通线
100
AcDbVertex
100
AcDb2dVertex
 10
970.5808755056349
 20
420.3617680486706
 30
0.0
  0
VERTEX
  5
508
330
4FD
100
AcDbEntity
  8
Make2D$可见线$普通线
100
AcDbVertex
100
AcDb2dVertex
 10
970.5749537490252
 20
420.3373571317552
 30
0.0
  0
VERTEX
  5
509
330
4FD
100
AcDbEntity
  8
Make2D$可见线$普通线
100
AcDbVertex
100
AcDb2dVertex
 10
970.5684216389424
 20
420.3130549160585
 30
0.0
  0
VERTEX
  5
50A
330
4FD
100
AcDbEntity
  8
Make2D$可见线$普通线
100
AcDbVertex
100
AcDb2dVertex
 10
970.5612820805813
 20
420.2888841845065
 30
0.0
  0
VERTEX
  5
50B
330
4FD
100
AcDbEntity
  8
Make2D$可见线$普通线
100
AcDbVertex
100
AcDb2dVertex
 10
970.5535391096644
 20
420.2648676182787
 30
0.0
  0
VERTEX
  5
50C
330
4FD
100
AcDbEntity
  8
Make2D$可见线$普通线
100
AcDbVertex
100
AcDb2dVertex
 10
970.5451978878823
 20
420.2410277268072
 30
0.0
  0
VERTEX
  5
50D
330
4FD
100
AcDbEntity
  8
Make2D$可见线$普通线
100
AcDbVertex
100
AcDb2dVertex
 10
970.536264693138
 20
420.2173867780479
 30
0.0
  0
VERTEX
  5
50E
330
4FD
100
AcDbEntity
  8
Make2D$可见线$普通线
100
AcDbVertex
100
AcDb2dVertex
 10
970.5267469046198
 20
420.1939667294767
 30
0.0
  0
VERTEX
  5
50F
330
4FD
100
AcDbEntity
  8
Make2D$可见线$普通线
100
AcDbVertex
100
AcDb2dVertex
 10
970.5166529827677
 20
420.1707891602556
 30
0.0
  0
VERTEX
  5
510
330
4FD
100
AcDbEntity
  8
Make2D$可见线$普通线
100
AcDbVertex
100
AcDb2dVertex
 10
970.5059924442494
 20
420.1478752050084
 30
0.0
  0
VERTEX
  5
511
330
4FD
100
AcDbEntity
  8
Make2D$可见线$普通线
100
AcDbVertex
100
AcDb2dVertex
 10
970.494775832097
 20
420.1252454896319
 30
0.0
  0
VERTEX
  5
512
330
4FD
100
AcDbEntity
  8
Make2D$可见线$普通线
100
AcDbVertex
100
AcDb2dVertex
 10
970.483014681205
 20
420.1029200695533
 30
0.0
  0
VERTEX
  5
513
330
4FD
100
AcDbEntity
  8
Make2D$可见线$普通线
100
AcDbVertex
100
AcDb2dVertex
 10
970.4707214794207
 20
420.0809183708178
 30
0.0
  0
VERTEX
  5
514
330
4FD
100
AcDbEntity
  8
Make2D$可见线$普通线
100
AcDbVertex
100
AcDb2dVertex
 10
970.4579096245038
 20
420.0592591343702
 30
0.0
  0
VERTEX
  5
515
330
4FD
100
AcDbEntity
  8
Make2D$可见线$普通线
100
AcDbVertex
100
AcDb2dVertex
 10
970.4445933772552
 20
420.0379603638611
 30
0.0
  0
VERTEX
  5
516
330
4FD
100
AcDbEntity
  8
Make2D$可见线$普通线
100
AcDbVertex
100
AcDb2dVertex
 10
970.4307878111522
 20
420.0170392772741
 30
0.0
  0
VERTEX
  5
517
330
4FD
100
AcDbEntity
  8
Make2D$可见线$普通线
100
AcDbVertex
100
AcDb2dVertex
 10
970.4165087588525
 20
419.9965122626409
 30
0.0
  0
VERTEX
  5
518
330
4FD
100
AcDbEntity
  8
Make2D$可见线$普通线
100
AcDbVertex
100
AcDb2dVertex
 10
970.4017727559423
 20
419.9763948380621
 30
0.0
  0
VERTEX
  5
519
330
4FD
100
AcDbEntity
  8
Make2D$可见线$普通线
100
AcDbVertex
100
AcDb2dVertex
 10
970.3865969823305
 20
419.9567016162227
 30
0.0
  0
VERTEX
  5
51A
330
4FD
100
AcDbEntity
  8
Make2D$可见线$普通线
100
AcDbVertex
100
AcDb2dVertex
 10
970.3709992017008
 20
419.9374462735449
 30
0.0
  0
VERTEX
  5
51B
330
4FD
100
AcDbEntity
  8
Make2D$可见线$普通线
100
AcDbVertex
100
AcDb2dVertex
 10
970.3549976994334
 20
419.9186415240758
 30
0.0
  0
VERTEX
  5
51C
330
4FD
100
AcDbEntity
  8
Make2D$可见线$普通线
100
AcDbVertex
100
AcDb2dVertex
 10
970.3386112194222
 20
419.9002990981732
 30
0.0
  0
VERTEX
  5
51D
330
4FD
100
AcDbEntity
  8
Make2D$可见线$普通线
100
AcDbVertex
100
AcDb2dVertex
 10
970.3218589002033
 20
419.8824297260059
 30
0.0
  0
VERTEX
  5
51E
330
4FD
100
AcDbEntity
  8
Make2D$可见线$普通线
100
AcDbVertex
100
AcDb2dVertex
 10
970.3047602108062
 20
419.8650431258468
 30
0.0
  0
VERTEX
  5
51F
330
4FD
100
AcDbEntity
  8
Make2D$可见线$普通线
100
AcDbVertex
100
AcDb2dVertex
 10
970.2851504480424
 20
419.8460313272026
 30
0.0
  0
VERTEX
  5
520
330
4FD
100
AcDbEntity
  8
Make2D$可见线$普通线
100
AcDbVertex
100
AcDb2dVertex
 10
970.2651191024812
 20
419.8274132901275
 30
0.0
  0
VERTEX
  5
521
330
4FD
100
AcDbEntity
  8
Make2D$可见线$普通线
100
AcDbVertex
100
AcDb2dVertex
 10
970.244645082432
 20
419.8092657695067
 30
0.0
  0
VERTEX
  5
522
330
4FD
100
AcDbEntity
  8
Make2D$可见线$普通线
100
AcDbVertex
100
AcDb2dVertex
 10
970.2237072962048
 20
419.7916655202251
 30
0.0
  0
VERTEX
  5
523
330
4FD
100
AcDbEntity
  8
Make2D$可见线$普通线
100
AcDbVertex
100
AcDb2dVertex
 10
970.2008581921436
 20
419.7735712006875
 30
0.0
  0
VERTEX
  5
524
330
4FD
100
AcDbEntity
  8
Make2D$可见线$普通线
100
AcDbVertex
100
AcDb2dVertex
 10
970.1774900732512
 20
419.7561716477989
 30
0.0
  0
VERTEX
  5
525
330
4FD
100
AcDbEntity
  8
Make2D$可见线$普通线
100
AcDbVertex
100
AcDb2dVertex
 10
970.1536351159723
 20
419.7394522289521
 30
0.0
  0
VERTEX
  5
526
330
4FD
100
AcDbEntity
  8
Make2D$可见线$普通线
100
AcDbVertex
100
AcDb2dVertex
 10
970.1293254967521
 20
419.7233983115407
 30
0.0
  0
VERTEX
  5
527
330
4FD
100
AcDbEntity
  8
Make2D$可见线$普通线
100
AcDbVertex
100
AcDb2dVertex
 10
970.1040933950046
 20
419.7076954748838
 30
0.0
  0
VERTEX
  5
528
330
4FD
100
AcDbEntity
  8
Make2D$可见线$普通线
100
AcDbVertex
100
AcDb2dVertex
 10
970.0784478276079
 20
419.6926643988897
 30
0.0
  0
VERTEX
  5
529
330
4FD
100
AcDbEntity
  8
Make2D$可见线$普通线
100
AcDbVertex
100
AcDb2dVertex
 10
970.052414880171
 20
419.6782996843781
 30
0.0
  0
VERTEX
  5
52A
330
4FD
100
AcDbEntity
  8
Make2D$可见线$普通线
100
AcDbVertex
100
AcDb2dVertex
 10
970.026020638303
 20
419.6645959321692
 30
0.0
  0
VERTEX
  5
52B
330
4FD
100
AcDbEntity
  8
Make2D$可见线$普通线
100
AcDbVertex
100
AcDb2dVertex
 10
969.9992911876122
 20
419.6515477430829
 30
0.0
  0
VERTEX
  5
52C
330
4FD
100
AcDbEntity
  8
Make2D$可见线$普通线
100
AcDbVertex
100
AcDb2dVertex
 10
969.972252613708
 20
419.6391497179393
 30
0.0
  0
VERTEX
  5
52D
330
4FD
100
AcDbEntity
  8
Make2D$可见线$普通线
100
AcDbVertex
100
AcDb2dVertex
 10
969.9449310021987
 20
419.6273964575582
 30
0.0
  0
VERTEX
  5
52E
330
4FD
100
AcDbEntity
  8
Make2D$可见线$普通线
100
AcDbVertex
100
AcDb2dVertex
 10
969.9173524386935
 20
419.6162825627597
 30
0.0
  0
VERTEX
  5
52F
330
4FD
100
AcDbEntity
  8
Make2D$可见线$普通线
100
AcDbVertex
100
AcDb2dVertex
 10
969.8865238898128
 20
419.6047017320391
 30
0.0
  0
VERTEX
  5
530
330
4FD
100
AcDbEntity
  8
Make2D$可见线$普通线
100
AcDbVertex
100
AcDb2dVertex
 10
969.8554369719407
 20
419.5938539790077
 30
0.0
  0
VERTEX
  5
531
330
4FD
100
AcDbEntity
  8
Make2D$可见线$普通线
100
AcDbVertex
100
AcDb2dVertex
 10
969.8241167653205
 20
419.5836940207906
 30
0.0
  0
VERTEX
  5
532
330
4FD
100
AcDbEntity
  8
Make2D$可见线$普通线
100
AcDbVertex
100
AcDb2dVertex
 10
969.7925883501953
 20
419.5741765745129
 30
0.0
  0
VERTEX
  5
533
330
4FD
100
AcDbEntity
  8
Make2D$可见线$普通线
100
AcDbVertex
100
AcDb2dVertex
 10
969.7290072154026
 20
419.556888086276
 30
0.0
  0
VERTEX
  5
534
330
4FD
100
AcDbEntity
  8
Make2D$可见线$普通线
100
AcDbVertex
100
AcDb2dVertex
 10
969.6648942095078
 20
419.5416262512972
 30
0.0
  0
VERTEX
  5
535
330
4FD
100
AcDbEntity
  8
Make2D$可见线$普通线
100
AcDbVertex
100
AcDb2dVertex
 10
969.578417059312
 20
419.5237683638674
 30
0.0
  0
VERTEX
  5
536
330
4FD
100
AcDbEntity
  8
Make2D$可见线$普通线
100
AcDbVertex
100
AcDb2dVertex
 10
969.4914789485845
 20
419.5083434703866
 30
0.0
  0
VERTEX
  5
537
330
4FD
100
AcDbEntity
  8
Make2D$可见线$普通线
100
AcDbVertex
100
AcDb2dVertex
 10
969.3167563379689
 20
419.4825637204578
 30
0.0
  0
VERTEX
  5
538
330
4FD
100
AcDbEntity
  8
Make2D$可见线$普通线
100
AcDbVertex
100
AcDb2dVertex
 10
969.0311835736948
 20
419.4494891417511
 30
0.0
  0
VERTEX
  5
539
330
4FD
100
AcDbEntity
  8
Make2D$可见线$普通线
100
AcDbVertex
100
AcDb2dVertex
 10
968.703040261196
 20
419.4200045118857
 30
0.0
  0
VERTEX
  5
53A
330
4FD
100
AcDbEntity
  8
Make2D$可见线$普通线
100
AcDbVertex
100
AcDb2dVertex
 10
967.9019124694594
 20
419.3688465821569
 30
0.0
  0
VERTEX
  5
53B
330
4FD
100
AcDbEntity
  8
Make2D$可见线$普通线
100
AcDbVertex
100
AcDb2dVertex
 10
966.8693016783978
 20
419.3253615563125
 30
0.0
  0
VERTEX
  5
53C
330
4FD
100
AcDbEntity
  8
Make2D$可见线$普通线
100
AcDbVertex
100
AcDb2dVertex
 10
965.8361440618534
 20
419.2977692989728
 30
0.0
  0
VERTEX
  5
53D
330
4FD
100
AcDbEntity
  8
Make2D$可见线$普通线
100
AcDbVertex
100
AcDb2dVertex
 10
963.6067984170655
 20
419.2755174563184
 30
0.0
  0
SEQEND
  5
53E
330
4FD
100
AcDbEntity
  8
Make2D$可见线$普通线
  0
POLYLINE
  5
53F
330
1F
100
AcDbEntity
  8
Make2D$可见线$普通线
100
AcDb2dPolyline
 66
     1
 10
0.0
 20
0.0
 30
0.0
  0
VERTEX
  5
540
330
53F
100
AcDbEntity
  8
Make2D$可见线$普通线
100
AcDbVertex
100
AcDb2dVertex
 10
963.6067984170655
 20
419.2755174563184
 30
0.0
 42
-0.0051208762618617
  0
VERTEX
  5
541
330
53F
100
AcDbEntity
  8
Make2D$可见线$普通线
100
AcDbVertex
100
AcDb2dVertex
 10
961.3774527722605
 20
419.2977692989738
 30
0.0
  0
VERTEX
  5
542
330
53F
100
AcDbEntity
  8
Make2D$可见线$普通线
100
AcDbVertex
100
AcDb2dVertex
 10
960.3442951557529
 20
419.3253615563115
 30
0.0
  0
VERTEX
  5
543
330
53F
100
AcDbEntity
  8
Make2D$可见线$普通线
100
AcDbVertex
100
AcDb2dVertex
 10
959.3116843647279
 20
419.368846582154
 30
0.0
  0
VERTEX
  5
544
330
53F
100
AcDbEntity
  8
Make2D$可见线$普通线
100
AcDbVertex
100
AcDb2dVertex
 10
958.5105565729548
 20
419.4200045118839
 30
0.0
  0
VERTEX
  5
545
330
53F
100
AcDbEntity
  8
Make2D$可见线$普通线
100
AcDbVertex
100
AcDb2dVertex
 10
958.1824132604381
 20
419.4494891417501
 30
0.0
  0
VERTEX
  5
546
330
53F
100
AcDbEntity
  8
Make2D$可见线$普通线
100
AcDbVertex
100
AcDb2dVertex
 10
957.8968404961494
 20
419.4825637204581
 30
0.0
  0
VERTEX
  5
547
330
53F
100
AcDbEntity
  8
Make2D$可见线$普通线
100
AcDbVertex
100
AcDb2dVertex
 10
957.8014983746733
 20
419.4958966968234
 30
0.0
  0
VERTEX
  5
548
330
53F
100
AcDbEntity
  8
Make2D$可见线$普通线
100
AcDbVertex
100
AcDb2dVertex
 10
957.7064179015454
 20
419.5110072922092
 30
0.0
  0
VERTEX
  5
549
330
53F
100
AcDbEntity
  8
Make2D$可见线$普通线
100
AcDbVertex
100
AcDb2dVertex
 10
957.627361440677
 20
419.525288944862
 30
0.0
  0
VERTEX
  5
54A
330
53F
100
AcDbEntity
  8
Make2D$可见线$普通线
100
AcDbVertex
100
AcDb2dVertex
 10
957.5486935557367
 20
419.5415909844268
 30
0.0
  0
VERTEX
  5
54B
330
53F
100
AcDbEntity
  8
Make2D$可见线$普通线
100
AcDbVertex
100
AcDb2dVertex
 10
957.4845828327656
 20
419.556849885426
 30
0.0
  0
VERTEX
  5
54C
330
53F
100
AcDbEntity
  8
Make2D$可见线$普通线
100
AcDbVertex
100
AcDb2dVertex
 10
957.4527168234631
 20
419.5652294068202
 30
0.0
  0
VERTEX
  5
54D
330
53F
100
AcDbEntity
  8
Make2D$可见线$普通线
100
AcDbVertex
100
AcDb2dVertex
 10
957.421009363979
 20
419.574165031237
 30
0.0
  0
VERTEX
  5
54E
330
53F
100
AcDbEntity
  8
Make2D$可见线$普通线
100
AcDbVertex
100
AcDb2dVertex
 10
957.3894846905855
 20
419.5836988004961
 30
0.0
  0
VERTEX
  5
54F
330
53F
100
AcDbEntity
  8
Make2D$可见线$普通线
100
AcDbVertex
100
AcDb2dVertex
 10
957.3581670395549
 20
419.593872756417
 30
0.0
  0
VERTEX
  5
550
330
53F
100
AcDbEntity
  8
Make2D$可见线$普通线
100
AcDbVertex
100
AcDb2dVertex
 10
957.3270806471594
 20
419.6047289408194
 30
0.0
  0
VERTEX
  5
551
330
53F
100
AcDbEntity
  8
Make2D$可见线$普通线
100
AcDbVertex
100
AcDb2dVertex
 10
957.2962497496712
 20
419.6163093955229
 30
0.0
  0
VERTEX
  5
552
330
53F
100
AcDbEntity
  8
Make2D$可见线$普通线
100
AcDbVertex
100
AcDb2dVertex
 10
957.2686662469567
 20
419.6274137259613
 30
0.0
  0
VERTEX
  5
553
330
53F
100
AcDbEntity
  8
Make2D$可见线$普通线
100
AcDbVertex
100
AcDb2dVertex
 10
957.2413381400365
 20
419.6391513943958
 30
0.0
  0
VERTEX
  5
554
330
53F
100
AcDbEntity
  8
Make2D$可见线$普通线
100
AcDbVertex
100
AcDb2dVertex
 10
957.2142929866338
 20
419.6515315857491
 30
0.0
  0
VERTEX
  5
555
330
53F
100
AcDbEntity
  8
Make2D$可见线$普通线
100
AcDbVertex
100
AcDb2dVertex
 10
957.1875583444721
 20
419.6645634849442
 30
0.0
  0
VERTEX
  5
556
330
53F
100
AcDbEntity
  8
Make2D$可见线$普通线
100
AcDbVertex
100
AcDb2dVertex
 10
957.1611617712746
 20
419.6782562769038
 30
0.0
  0
VERTEX
  5
557
330
53F
100
AcDbEntity
  8
Make2D$可见线$普通线
100
AcDbVertex
100
AcDb2dVertex
 10
957.1351308247645
 20
419.6926191465506
 30
0.0
  0
VERTEX
  5
558
330
53F
100
AcDbEntity
  8
Make2D$可见线$普通线
100
AcDbVertex
100
AcDb2dVertex
 10
957.109493062665
 20
419.7076612788073
 30
0.0
  0
VERTEX
  5
559
330
53F
100
AcDbEntity
  8
Make2D$可见线$普通线
100
AcDbVertex
100
AcDb2dVertex
 10
957.0842760426995
 20
419.7233918585969
 30
0.0
  0
VERTEX
  5
55A
330
53F
100
AcDbEntity
  8
Make2D$可见线$普通线
100
AcDbVertex
100
AcDb2dVertex
 10
957.0607349930208
 20
419.7389785276251
 30
0.0
  0
VERTEX
  5
55B
330
53F
100
AcDbEntity
  8
Make2D$可见线$普通线
100
AcDbVertex
100
AcDb2dVertex
 10
957.0376170841422
 20
419.7551867775566
 30
0.0
  0
VERTEX
  5
55C
330
53F
100
AcDbEntity
  8
Make2D$可见线$普通线
100
AcDbVertex
100
AcDb2dVertex
 10
957.014940905986
 20
419.7720086378506
 30
0.0
  0
VERTEX
  5
55D
330
53F
100
AcDbEntity
  8
Make2D$可见线$普通线
100
AcDbVertex
100
AcDb2dVertex
 10
956.9927250484747
 20
419.7894361379668
 30
0.0
  0
VERTEX
  5
55E
330
53F
100
AcDbEntity
  8
Make2D$可见线$普通线
100
AcDbVertex
100
AcDb2dVertex
 10
956.9709881015303
 20
419.8074613073647
 30
0.0
  0
VERTEX
  5
55F
330
53F
100
AcDbEntity
  8
Make2D$可见线$普通线
100
AcDbVertex
100
AcDb2dVertex
 10
956.9497486550755
 20
419.8260761755039
 30
0.0
  0
VERTEX
  5
560
330
53F
100
AcDbEntity
  8
Make2D$可见线$普通线
100
AcDbVertex
100
AcDb2dVertex
 10
956.9290252990324
 20
419.8452727718439
 30
0.0
  0
VERTEX
  5
561
330
53F
100
AcDbEntity
  8
Make2D$可见线$普通线
100
AcDbVertex
100
AcDb2dVertex
 10
956.9088366233234
 20
419.8650431258442
 30
0.0
  0
VERTEX
  5
562
330
53F
100
AcDbEntity
  8
Make2D$可见线$普通线
100
AcDbVertex
100
AcDb2dVertex
 10
956.8917379339473
 20
419.8824297259808
 30
0.0
  0
VERTEX
  5
563
330
53F
100
AcDbEntity
  8
Make2D$可见线$普通线
100
AcDbVertex
100
AcDb2dVertex
 10
956.8749856147489
 20
419.9002990981247
 30
0.0
  0
VERTEX
  5
564
330
53F
100
AcDbEntity
  8
Make2D$可见线$普通线
100
AcDbVertex
100
AcDb2dVertex
 10
956.8585991347571
 20
419.9186415240025
 30
0.0
  0
VERTEX
  5
565
330
53F
100
AcDbEntity
  8
Make2D$可见线$普通线
100
AcDbVertex
100
AcDb2dVertex
 10
956.8425976325085
 20
419.9374462734456
 30
0.0
  0
VERTEX
  5
566
330
53F
100
AcDbEntity
  8
Make2D$可见线$普通线
100
AcDbVertex
100
AcDb2dVertex
 10
956.8269998518963
 20
419.956701616096
 30
0.0
  0
VERTEX
  5
567
330
53F
100
AcDbEntity
  8
Make2D$可见线$普通线
100
AcDbVertex
100
AcDb2dVertex
 10
956.8118240783007
 20
419.976394837907
 30
0.0
  0
VERTEX
  5
568
330
53F
100
AcDbEntity
  8
Make2D$可见线$普通线
100
AcDbVertex
100
AcDb2dVertex
 10
956.7970880754054
 20
419.9965122624564
 30
0.0
  0
VERTEX
  5
569
330
53F
100
AcDbEntity
  8
Make2D$可见线$普通线
100
AcDbVertex
100
AcDb2dVertex
 10
956.7828090231197
 20
420.0170392770591
 30
0.0
  0
VERTEX
  5
56A
330
53F
100
AcDbEntity
  8
Make2D$可见线$普通线
100
AcDbVertex
100
AcDb2dVertex
 10
956.7690034570295
 20
420.0379603636143
 30
0.0
  0
VERTEX
  5
56B
330
53F
100
AcDbEntity
  8
Make2D$可见线$普通线
100
AcDbVertex
100
AcDb2dVertex
 10
956.7556872097921
 20
420.0592591340911
 30
0.0
  0
VERTEX
  5
56C
330
53F
100
AcDbEntity
  8
Make2D$可见线$普通线
100
AcDbVertex
100
AcDb2dVertex
 10
956.7428753548851
 20
420.0809183705053
 30
0.0
  0
VERTEX
  5
56D
330
53F
100
AcDbEntity
  8
Make2D$可见线$普通线
100
AcDbVertex
100
AcDb2dVertex
 10
956.7305821531094
 20
420.1029200692068
 30
0.0
  0
VERTEX
  5
56E
330
53F
100
AcDbEntity
  8
Make2D$可见线$普通线
100
AcDbVertex
100
AcDb2dVertex
 10
956.7188210022242
 20
420.1252454892506
 30
0.0
  0
VERTEX
  5
56F
330
53F
100
AcDbEntity
  8
Make2D$可见线$普通线
100
AcDbVertex
100
AcDb2dVertex
 10
956.7076043900772
 20
420.1478752045916
 30
0.0
  0
VERTEX
  5
570
330
53F
100
AcDbEntity
  8
Make2D$可见线$普通线
100
AcDbVertex
100
AcDb2dVertex
 10
956.6969438515628
 20
420.1707891598031
 30
0.0
  0
VERTEX
  5
571
330
53F
100
AcDbEntity
  8
Make2D$可见线$普通线
100
AcDbVertex
100
AcDb2dVertex
 10
956.6868499297125
 20
420.1939667289877
 30
0.0
  0
VERTEX
  5
572
330
53F
100
AcDbEntity
  8
Make2D$可见线$普通线
100
AcDbVertex
100
AcDb2dVertex
 10
956.6773321411947
 20
420.2173867775221
 30
0.0
  0
VERTEX
  5
573
330
53F
100
AcDbEntity
  8
Make2D$可见线$普通线
100
AcDbVertex
100
AcDb2dVertex
 10
956.6683989464493
 20
420.2410277262443
 30
0.0
  0
VERTEX
  5
574
330
53F
100
AcDbEntity
  8
Make2D$可见线$普通线
100
AcDbVertex
100
AcDb2dVertex
 10
956.6600577246642
 20
420.2648676176788
 30
0.0
  0
VERTEX
  5
575
330
53F
100
AcDbEntity
  8
Make2D$可见线$普通线
100
AcDbVertex
100
AcDb2dVertex
 10
956.6523147537426
 20
420.2888841838694
 30
0.0
  0
VERTEX
  5
576
330
53F
100
AcDbEntity
  8
Make2D$可见线$普通线
100
AcDbVertex
100
AcDb2dVertex
 10
956.6451751953751
 20
420.3130549153843
 30
0.0
  0
VERTEX
  5
577
330
53F
100
AcDbEntity
  8
Make2D$可见线$普通线
100
AcDbVertex
100
AcDb2dVertex
 10
956.638643085284
 20
420.3373571310437
 30
0.0
  0
VERTEX
  5
578
330
53F
100
AcDbEntity
  8
Make2D$可见线$普通线
100
AcDbVertex
100
AcDb2dVertex
 10
956.6327213286644
 20
420.3617680479223
 30
0.0
  0
VERTEX
  5
579
330
53F
100
AcDbEntity
  8
Make2D$可见线$普通线
100
AcDbVertex
100
AcDb2dVertex
 10
956.6274117008014
 20
420.3862648511766
 30
0.0
  0
VERTEX
  5
57A
330
53F
100
AcDbEntity
  8
Make2D$可见线$普通线
100
AcDbVertex
100
AcDb2dVertex
 10
956.6227148527985
 20
420.4108247632594
 30
0.0
  0
VERTEX
  5
57B
330
53F
100
AcDbEntity
  8
Make2D$可见线$普通线
100
AcDbVertex
100
AcDb2dVertex
 10
956.6186303223119
 20
420.4354251120889
 30
0.0
  0
VERTEX
  5
57C
330
53F
100
AcDbEntity
  8
Make2D$可见线$普通线
100
AcDbVertex
100
AcDb2dVertex
 10
956.6151565491436
 20
420.4600433977621
 30
0.0
  0
VERTEX
  5
57D
330
53F
100
AcDbEntity
  8
Make2D$可见线$普通线
100
AcDbVertex
100
AcDb2dVertex
 10
956.6122908955085
 20
420.4846573574164
 30
0.0
  0
VERTEX
  5
57E
330
53F
100
AcDbEntity
  8
Make2D$可见线$普通线
100
AcDbVertex
100
AcDb2dVertex
 10
956.6100296707582
 20
420.5092450278726
 30
0.0
  0
VERTEX
  5
57F
330
53F
100
AcDbEntity
  8
Make2D$可见线$普通线
100
AcDbVertex
100
AcDb2dVertex
 10
956.6083681603056
 20
420.5337848057163
 30
0.0
  0
VERTEX
  5
580
330
53F
100
AcDbEntity
  8
Make2D$可见线$普通线
100
AcDbVertex
100
AcDb2dVertex
 10
956.6073006584764
 20
420.5582555045046
 30
0.0
  0
VERTEX
  5
581
330
53F
100
AcDbEntity
  8
Make2D$可见线$普通线
100
AcDbVertex
100
AcDb2dVertex
 10
956.6068205049799
 20
420.5826364088215
 30
0.0
  0
SEQEND
  5
582
330
53F
100
AcDbEntity
  8
Make2D$可见线$普通线
  0
LINE
  5
583
330
1F
100
AcDbEntity
  8
Make2D$可见线$普通线
100
AcDbLine
 10
970.6067984170656
 20
420.5895331937761
 30
0.0
 11
970.6067984170656
 21
420.7419819175243
 31
0.0
  0
ENDSEC
  0
SECTION
  2
OBJECTS
  0
DICTIONARY
  5
C
330
0
100
AcDbDictionary
281
     1
  3
ACAD_GROUP
350
D
  3
ACAD_LAYOUT
350
1A
  3
ACAD_MATERIAL
350
3B
  3
ACAD_MLEADERSTYLE
350
5AE
  3
ACAD_MLINESTYLE
350
17
  3
ACAD_PLOTSETTINGS
350
19
  3
ACAD_PLOTSTYLENAME
350
E
  3
ACAD_SCALELIST
350
3F
  3
ACAD_TABLESTYLE
350
5AD
  3
ACAD_VISUALSTYLE
350
2A
  3
AcDbVariableDictionary
350
584
  0
DICTIONARY
  5
D
102
{ACAD_REACTORS
330
C
102
}
330
C
100
AcDbDictionary
281
     1
  0
DICTIONARY
  5
1A
102
{ACAD_REACTORS
330
C
102
}
330
C
100
AcDbDictionary
281
     1
  3
Layout1
350
1E
  3
Layout2
350
26
  3
Model
350
22
  0
DICTIONARY
  5
3B
102
{ACAD_REACTORS
330
C
102
}
330
C
100
AcDbDictionary
281
     1
  3
ByBlock
350
3D
  3
ByLayer
350
3C
  3
Global
350
3E
  0
DICTIONARY
  5
5AE
102
{ACAD_REACTORS
330
C
102
}
330
C
100
AcDbDictionary
281
     1
  0
DICTIONARY
  5
17
102
{ACAD_REACTORS
330
C
102
}
330
C
100
AcDbDictionary
281
     1
  3
Standard
350
18
  0
DICTIONARY
  5
19
102
{ACAD_REACTORS
330
C
102
}
330
C
100
AcDbDictionary
281
     1
  0
ACDBDICTIONARYWDFLT
  5
E
102
{ACAD_REACTORS
330
C
102
}
330
C
100
AcDbDictionary
281
     1
  3
Normal
350
F
100
AcDbDictionaryWithDefault
340
F
  0
DICTIONARY
  5
3F
102
{ACAD_REACTORS
330
C
102
}
330
C
100
AcDbDictionary
281
     1
  3
A0
350
40
  3
A1
350
41
  3
A2
350
42
  3
A3
350
43
  3
A4
350
44
  3
A5
350
45
  3
A6
350
46
  3
A7
350
47
  3
A8
350
48
  3
A9
350
49
  3
B0
350
4A
  3
B1
350
4B
  3
B2
350
4C
  3
B3
350
4D
  3
B4
350
4E
  3
B5
350
4F
  3
B6
350
50
  3
B7
350
51
  3
B8
350
52
  3
B9
350
53
  3
C0
350
54
  3
C1
350
55
  3
C2
350
56
  3
C3
350
57
  3
C4
350
58
  3
C5
350
59
  3
C6
350
5A
  3
C7
350
5B
  3
C8
350
5C
  3
C9
350
5D
  3
D0
350
5E
  3
D1
350
5F
  3
D2
350
60
  0
DICTIONARY
  5
5AD
102
{ACAD_REACTORS
330
C
102
}
330
C
100
AcDbDictionary
281
     1
  0
DICTIONARY
  5
2A
102
{ACAD_REACTORS
330
C
102
}
330
C
100
AcDbDictionary
281
     1
  3
2dWireframe
350
2F
  3
3D Hidden
350
31
  3
3dWireframe
350
30
  3
Basic
350
32
  3
Brighten
350
36
  3
ColorChange
350
3A
  3
Conceptual
350
34
  3
Dim
350
35
  3
Facepattern
350
39
  3
Flat
350
2B
  3
FlatWithEdges
350
2C
  3
Gouraud
350
2D
  3
GouraudWithEdges
350
2E
  3
Linepattern
350
38
  3
Realistic
350
33
  3
Thicken
350
37
  0
DICTIONARY
  5
584
102
{ACAD_REACTORS
330
C
102
}
330
C
100
AcDbDictionary
281
     1
  3
CANNOSCALE
350
585
  3
MSLTSCALE
350
586
  0
LAYOUT
  5
1E
102
{ACAD_REACTORS
330
1A
102
}
330
1A
100
AcDbPlotSettings
  1

  2
none_device
  4

  6

 40
0.0
 41
0.0
 42
0.0
 43
0.0
 44
0.0
 45
0.0
 46
0.0
 47
0.0
 48
0.0
 49
0.0
140
0.0
141
0.0
142
1.0
143
1.0
 70
   688
 72
     0
 73
     0
 74
     5
  7

 75
    16
 76
     0
 77
     2
 78
   300
147
1.0
148
0.0
149
0.0
100
AcDbLayout
  1
Layout1
 70
     1
 71
     1
 10
0.0
 20
0.0
 11
12.0
 21
9.0
 12
0.0
 22
0.0
 32
0.0
 14
1.000000000000000E+20
 24
1.000000000000000E+20
 34
1.000000000000000E+20
 15
-1.000000000000000E+20
 25
-1.000000000000000E+20
 35
-1.000000000000000E+20
146
0.0
 13
0.0
 23
0.0
 33
0.0
 16
1.0
 26
0.0
 36
0.0
 17
0.0
 27
1.0
 37
0.0
 76
     0
330
1B
  0
LAYOUT
  5
26
102
{ACAD_REACTORS
330
1A
102
}
330
1A
100
AcDbPlotSettings
  1

  2
none_device
  4

  6

 40
0.0
 41
0.0
 42
0.0
 43
0.0
 44
0.0
 45
0.0
 46
0.0
 47
0.0
 48
0.0
 49
0.0
140
0.0
141
0.0
142
1.0
143
1.0
 70
   688
 72
     0
 73
     0
 74
     5
  7

 75
    16
 76
     0
 77
     2
 78
   300
147
1.0
148
0.0
149
0.0
100
AcDbLayout
  1
Layout2
 70
     1
 71
     2
 10
0.0
 20
0.0
 11
0.0
 21
0.0
 12
0.0
 22
0.0
 32
0.0
 14
0.0
 24
0.0
 34
0.0
 15
0.0
 25
0.0
 35
0.0
146
0.0
 13
0.0
 23
0.0
 33
0.0
 16
1.0
 26
0.0
 36
0.0
 17
0.0
 27
1.0
 37
0.0
 76
     0
330
23
  0
LAYOUT
  5
22
102
{ACAD_REACTORS
330
1A
102
}
330
1A
100
AcDbPlotSettings
  1

  2
none_device
  4
Letter_(8.50_x_11.00_Inches)
  6

 40
6.35
 41
6.35
 42
6.35000508
 43
6.35000508
 44
215.9
 45
279.4
 46
0.0
 47
0.0
 48
0.0
 49
0.0
140
0.0
141
0.0
142
1.0
143
1.0
 70
  1712
 72
     0
 73
     0
 74
     0
  7

 75
     0
 76
     0
 77
     2
 78
   300
147
1.0
148
0.0
149
0.0
100
AcDbLayout
  1
Model
 70
     1
 71
     0
 10
0.0
 20
0.0
 11
12.0
 21
9.0
 12
0.0
 22
0.0
 32
0.0
 14
775.606798417054
 24
323.6067993113121
 34
0.0
 15
1151.606798417077
 25
440.703563207398
 35
0.0
146
0.0
 13
0.0
 23
0.0
 33
0.0
 16
1.0
 26
0.0
 36
0.0
 17
0.0
 27
1.0
 37
0.0
 76
     0
330
1F
331
29
  0
MATERIAL
  5
3D
102
{ACAD_REACTORS
330
3B
102
}
102
{ACAD_XDICTIONARY
360
5A9
102
}
330
3B
100
AcDbMaterial
  1
ByBlock
  0
MATERIAL
  5
3C
102
{ACAD_REACTORS
330
3B
102
}
102
{ACAD_XDICTIONARY
360
5A7
102
}
330
3B
100
AcDbMaterial
  1
ByLayer
  0
MATERIAL
  5
3E
102
{ACAD_REACTORS
330
3B
102
}
102
{ACAD_XDICTIONARY
360
5AB
102
}
330
3B
100
AcDbMaterial
  1
Global
  0
MLINESTYLE
  5
18
102
{ACAD_REACTORS
330
17
102
}
330
17
100
AcDbMlineStyle
  2
Standard
 70
     0
  3

 62
   256
 51
90.0
 52
90.0
 71
     2
 49
0.5
 62
   256
  6
BYLAYER
 49
-0.5
 62
   256
  6
BYLAYER
  0
ACDBPLACEHOLDER
  5
F
102
{ACAD_REACTORS
330
E
102
}
330
E
  0
SCALE
  5
40
102
{ACAD_REACTORS
330
3F
102
}
330
3F
100
AcDbScale
 70
     0
300
1:1
140
1.0
141
1.0
290
     1
  0
SCALE
  5
41
102
{ACAD_REACTORS
330
3F
102
}
330
3F
100
AcDbScale
 70
     0
300
1:2
140
1.0
141
2.0
290
     0
  0
SCALE
  5
42
102
{ACAD_REACTORS
330
3F
102
}
330
3F
100
AcDbScale
 70
     0
300
1:4
140
1.0
141
4.0
290
     0
  0
SCALE
  5
43
102
{ACAD_REACTORS
330
3F
102
}
330
3F
100
AcDbScale
 70
     0
300
1:5
140
1.0
141
5.0
290
     0
  0
SCALE
  5
44
102
{ACAD_REACTORS
330
3F
102
}
330
3F
100
AcDbScale
 70
     0
300
1:8
140
1.0
141
8.0
290
     0
  0
SCALE
  5
45
102
{ACAD_REACTORS
330
3F
102
}
330
3F
100
AcDbScale
 70
     0
300
1:10
140
1.0
141
10.0
290
     0
  0
SCALE
  5
46
102
{ACAD_REACTORS
330
3F
102
}
330
3F
100
AcDbScale
 70
     0
300
1:16
140
1.0
141
16.0
290
     0
  0
SCALE
  5
47
102
{ACAD_REACTORS
330
3F
102
}
330
3F
100
AcDbScale
 70
     0
300
1:20
140
1.0
141
20.0
290
     0
  0
SCALE
  5
48
102
{ACAD_REACTORS
330
3F
102
}
330
3F
100
AcDbScale
 70
     0
300
1:30
140
1.0
141
30.0
290
     0
  0
SCALE
  5
49
102
{ACAD_REACTORS
330
3F
102
}
330
3F
100
AcDbScale
 70
     0
300
1:40
140
1.0
141
40.0
290
     0
  0
SCALE
  5
4A
102
{ACAD_REACTORS
330
3F
102
}
330
3F
100
AcDbScale
 70
     0
300
1:50
140
1.0
141
50.0
290
     0
  0
SCALE
  5
4B
102
{ACAD_REACTORS
330
3F
102
}
330
3F
100
AcDbScale
 70
     0
300
1:100
140
1.0
141
100.0
290
     0
  0
SCALE
  5
4C
102
{ACAD_REACTORS
330
3F
102
}
330
3F
100
AcDbScale
 70
     0
300
2:1
140
2.0
141
1.0
290
     0
  0
SCALE
  5
4D
102
{ACAD_REACTORS
330
3F
102
}
330
3F
100
AcDbScale
 70
     0
300
4:1
140
4.0
141
1.0
290
     0
  0
SCALE
  5
4E
102
{ACAD_REACTORS
330
3F
102
}
330
3F
100
AcDbScale
 70
     0
300
8:1
140
8.0
141
1.0
290
     0
  0
SCALE
  5
4F
102
{ACAD_REACTORS
330
3F
102
}
330
3F
100
AcDbScale
 70
     0
300
10:1
140
10.0
141
1.0
290
     0
  0
SCALE
  5
50
102
{ACAD_REACTORS
330
3F
102
}
330
3F
100
AcDbScale
 70
     0
300
100:1
140
100.0
141
1.0
290
     0
  0
SCALE
  5
51
102
{ACAD_REACTORS
330
3F
102
}
330
3F
100
AcDbScale
 70
     0
300
1/128" = 1'-0"
140
0.0078125
141
12.0
290
     0
  0
SCALE
  5
52
102
{ACAD_REACTORS
330
3F
102
}
330
3F
100
AcDbScale
 70
     0
300
1/64" = 1'-0"
140
0.015625
141
12.0
290
     0
  0
SCALE
  5
53
102
{ACAD_REACTORS
330
3F
102
}
330
3F
100
AcDbScale
 70
     0
300
1/32" = 1'-0"
140
0.03125
141
12.0
290
     0
  0
SCALE
  5
54
102
{ACAD_REACTORS
330
3F
102
}
330
3F
100
AcDbScale
 70
     0
300
1/16" = 1'-0"
140
0.0625
141
12.0
290
     0
  0
SCALE
  5
55
102
{ACAD_REACTORS
330
3F
102
}
330
3F
100
AcDbScale
 70
     0
300
3/32" = 1'-0"
140
0.09375
141
12.0
290
     0
  0
SCALE
  5
56
102
{ACAD_REACTORS
330
3F
102
}
330
3F
100
AcDbScale
 70
     0
300
1/8" = 1'-0"
140
0.125
141
12.0
290
     0
  0
SCALE
  5
57
102
{ACAD_REACTORS
330
3F
102
}
330
3F
100
AcDbScale
 70
     0
300
3/16" = 1'-0"
140
0.1875
141
12.0
290
     0
  0
SCALE
  5
58
102
{ACAD_REACTORS
330
3F
102
}
330
3F
100
AcDbScale
 70
     0
300
1/4" = 1'-0"
140
0.25
141
12.0
290
     0
  0
SCALE
  5
59
102
{ACAD_REACTORS
330
3F
102
}
330
3F
100
AcDbScale
 70
     0
300
3/8" = 1'-0"
140
0.375
141
12.0
290
     0
  0
SCALE
  5
5A
102
{ACAD_REACTORS
330
3F
102
}
330
3F
100
AcDbScale
 70
     0
300
1/2" = 1'-0"
140
0.5
141
12.0
290
     0
  0
SCALE
  5
5B
102
{ACAD_REACTORS
330
3F
102
}
330
3F
100
AcDbScale
 70
     0
300
3/4" = 1'-0"
140
0.75
141
12.0
290
     0
  0
SCALE
  5
5C
102
{ACAD_REACTORS
330
3F
102
}
330
3F
100
AcDbScale
 70
     0
300
1" = 1'-0"
140
1.0
141
12.0
290
     0
  0
SCALE
  5
5D
102
{ACAD_REACTORS
330
3F
102
}
330
3F
100
AcDbScale
 70
     0
300
1-1/2" = 1'-0"
140
1.5
141
12.0
290
     0
  0
SCALE
  5
5E
102
{ACAD_REACTORS
330
3F
102
}
330
3F
100
AcDbScale
 70
     0
300
3" = 1'-0"
140
3.0
141
12.0
290
     0
  0
SCALE
  5
5F
102
{ACAD_REACTORS
330
3F
102
}
330
3F
100
AcDbScale
 70
     0
300
6" = 1'-0"
140
6.0
141
12.0
290
     0
  0
SCALE
  5
60
102
{ACAD_REACTORS
330
3F
102
}
330
3F
100
AcDbScale
 70
     0
300
1'-0" = 1'-0"
140
12.0
141
12.0
290
     0
  0
VISUALSTYLE
  5
2F
102
{ACAD_REACTORS
330
2A
102
}
102
{ACAD_XDICTIONARY
360
58F
102
}
330
2A
100
AcDbVisualStyle
  2
2dWireframe
 70
     4
 71
     0
 72
     2
 73
     0
 90
        0
 40
0.6
 41
30.0
 62
     5
 63
     7
421
 16777215
 74
     1
 91
        4
 64
     7
 65
   257
 75
     1
175
     1
 42
1.0
 92
        0
 66
   257
 43
1.0
 76
     1
 77
     6
 78
     2
 67
     7
 79
     5
170
     0
171
     0
290
     0
174
     0
 93
        1
 44
0.0
173
     0
291
     0
 45
0.0
1001
ACAD
1000
AcDbSavedByObjectVersion
1070
     0
  0
VISUALSTYLE
  5
31
102
{ACAD_REACTORS
330
2A
102
}
102
{ACAD_XDICTIONARY
360
593
102
}
330
2A
100
AcDbVisualStyle
  2
3D Hidden
 70
     6
 71
     1
 72
     2
 73
     2
 90
        0
 40
0.6
 41
30.0
 62
     5
 63
     7
421
 16777215
 74
     2
 91
        2
 64
     7
 65
   257
 75
     2
175
     1
 42
40.0
 92
        0
 66
   257
 43
1.0
 76
     1
 77
     6
 78
     2
 67
     7
 79
     3
170
     0
171
     0
290
     0
174
     0
 93
        1
 44
0.0
173
     0
291
     0
 45
0.0
1001
ACAD
1000
AcDbSavedByObjectVersion
1070
     0
  0
VISUALSTYLE
  5
30
102
{ACAD_REACTORS
330
2A
102
}
102
{ACAD_XDICTIONARY
360
591
102
}
330
2A
100
AcDbVisualStyle
  2
3dWireframe
 70
     5
 71
     0
 72
     2
 73
     0
 90
        0
 40
0.6
 41
30.0
 62
     5
 63
     7
421
 16777215
 74
     1
 91
        4
 64
     7
 65
   257
 75
     1
175
     1
 42
1.0
 92
        0
 66
   257
 43
1.0
 76
     1
 77
     6
 78
     2
 67
     7
 79
     5
170
     0
171
     0
290
     0
174
     0
 93
        1
 44
0.0
173
     0
291
     0
 45
0.0
1001
ACAD
1000
AcDbSavedByObjectVersion
1070
     0
  0
VISUALSTYLE
  5
32
102
{ACAD_REACTORS
330
2A
102
}
102
{ACAD_XDICTIONARY
360
595
102
}
330
2A
100
AcDbVisualStyle
  2
Basic
 70
     7
 71
     1
 72
     0
 73
     1
 90
        0
 40
0.6
 41
30.0
 62
     5
 63
     7
421
 16777215
 74
     0
 91
        4
 64
     7
 65
   257
 75
     1
175
     1
 42
1.0
 92
        8
 66
     7
 43
1.0
 76
     1
 77
     6
 78
     2
 67
     7
 79
     5
170
     0
171
     0
290
     0
174
     0
 93
        1
 44
0.0
173
     0
291
     1
 45
0.0
1001
ACAD
1000
AcDbSavedByObjectVersion
1070
     0
  0
VISUALSTYLE
  5
36
102
{ACAD_REACTORS
330
2A
102
}
102
{ACAD_XDICTIONARY
360
59D
102
}
330
2A
100
AcDbVisualStyle
  2
Brighten
 70
    12
 71
     2
 72
     2
 73
     0
 90
        0
 40
0.6
 41
30.0
 62
     5
 63
     7
421
 16777215
 74
     1
 91
        4
 64
     7
 65
   257
 75
     1
175
     1
 42
1.0
 92
        8
 66
     7
 43
1.0
 76
     1
 77
     6
 78
     2
 67
     7
 79
     5
170
     0
171
     0
290
     0
174
     0
 93
        1
 44
50.0
173
     0
291
     1
 45
0.0
1001
ACAD
1000
AcDbSavedByObjectVersion
1070
     0
  0
VISUALSTYLE
  5
3A
102
{ACAD_REACTORS
330
2A
102
}
102
{ACAD_XDICTIONARY
360
5A5
102
}
330
2A
100
AcDbVisualStyle
  2
ColorChange
 70
    16
 71
     2
 72
     2
 73
     3
 90
        0
 40
0.6
 41
30.0
 62
     5
 63
     8
421
  8421504
 74
     1
 91
        4
 64
     7
 65
   257
 75
     1
175
     1
 42
1.0
 92
        8
 66
     8
424
  8421504
 43
1.0
 76
     1
 77
     6
 78
     2
 67
     7
 79
     5
170
     0
171
     0
290
     0
174
     0
 93
        1
 44
0.0
173
     0
291
     1
 45
0.0
1001
ACAD
1000
AcDbSavedByObjectVersion
1070
     0
  0
VISUALSTYLE
  5
34
102
{ACAD_REACTORS
330
2A
102
}
102
{ACAD_XDICTIONARY
360
599
102
}
330
2A
100
AcDbVisualStyle
  2
Conceptual
 70
     9
 71
     3
 72
     2
 73
     0
 90
        0
 40
0.6
 41
30.0
 62
     5
 63
     7
421
 16777215
 74
     2
 91
        2
 64
     7
 65
   257
 75
     1
175
     1
 42
40.0
 92
        8
 66
     7
 43
1.0
 76
     1
 77
     6
 78
     2
 67
     7
 79
     3
170
     0
171
     0
290
     0
174
     0
 93
        1
 44
0.0
173
     0
291
     0
 45
0.0
1001
ACAD
1000
AcDbSavedByObjectVersion
1070
     0
  0
VISUALSTYLE
  5
35
102
{ACAD_REACTORS
330
2A
102
}
102
{ACAD_XDICTIONARY
360
59B
102
}
330
2A
100
AcDbVisualStyle
  2
Dim
 70
    11
 71
     2
 72
     2
 73
     0
 90
        0
 40
0.6
 41
30.0
 62
     5
 63
     7
421
 16777215
 74
     1
 91
        4
 64
     7
 65
   257
 75
     1
175
     1
 42
1.0
 92
        8
 66
     7
 43
1.0
 76
     1
 77
     6
 78
     2
 67
     7
 79
     5
170
     0
171
     0
290
     0
174
     0
 93
        1
 44
-50.0
173
     0
291
     1
 45
0.0
1001
ACAD
1000
AcDbSavedByObjectVersion
1070
     0
  0
VISUALSTYLE
  5
39
102
{ACAD_REACTORS
330
2A
102
}
102
{ACAD_XDICTIONARY
360
5A3
102
}
330
2A
100
AcDbVisualStyle
  2
Facepattern
 70
    15
 71
     2
 72
     2
 73
     0
 90
        0
 40
0.6
 41
30.0
 62
     5
 63
     7
421
 16777215
 74
     1
 91
        4
 64
     7
 65
   257
 75
     1
175
     1
 42
1.0
 92
        8
 66
     7
 43
1.0
 76
     1
 77
     6
 78
     2
 67
     7
 79
     5
170
     0
171
     0
290
     0
174
     0
 93
        1
 44
0.0
173
     0
291
     1
 45
0.0
1001
ACAD
1000
AcDbSavedByObjectVersion
1070
     0
  0
VISUALSTYLE
  5
2B
102
{ACAD_REACTORS
330
2A
102
}
102
{ACAD_XDICTIONARY
360
587
102
}
330
2A
100
AcDbVisualStyle
  2
Flat
 70
     0
 71
     2
 72
     1
 73
     1
 90
        2
 40
0.6
 41
30.0
 62
     5
 63
     7
421
 16777215
 74
     0
 91
        4
 64
     7
 65
   257
 75
     1
175
     1
 42
1.0
 92
        8
 66
     7
 43
1.0
 76
     1
 77
     6
 78
     2
 67
     7
 79
     5
170
     0
171
     0
290
     0
174
     0
 93
       13
 44
0.0
173
     0
291
     1
 45
0.0
1001
ACAD
1000
AcDbSavedByObjectVersion
1070
     0
  0
VISUALSTYLE
  5
2C
102
{ACAD_REACTORS
330
2A
102
}
102
{ACAD_XDICTIONARY
360
589
102
}
330
2A
100
AcDbVisualStyle
  2
FlatWithEdges
 70
     1
 71
     2
 72
     1
 73
     1
 90
        2
 40
0.6
 41
30.0
 62
     5
 63
     7
421
 16777215
 74
     1
 91
        4
 64
     7
 65
   257
 75
     1
175
     1
 42
1.0
 92
        0
 66
   257
 43
1.0
 76
     1
 77
     6
 78
     2
 67
     7
 79
     5
170
     0
171
     0
290
     0
174
     0
 93
       13
 44
0.0
173
     0
291
     1
 45
0.0
1001
ACAD
1000
AcDbSavedByObjectVersion
1070
     0
  0
VISUALSTYLE
  5
2D
102
{ACAD_REACTORS
330
2A
102
}
102
{ACAD_XDICTIONARY
360
58B
102
}
330
2A
100
AcDbVisualStyle
  2
Gouraud
 70
     2
 71
     2
 72
     2
 73
     1
 90
        2
 40
0.6
 41
30.0
 62
     5
 63
     7
421
 16777215
 74
     0
 91
        4
 64
     7
 65
   257
 75
     1
175
     1
 42
1.0
 92
        0
 66
     7
 43
1.0
 76
     1
 77
     6
 78
     2
 67
     7
 79
     5
170
     0
171
     0
290
     0
174
     0
 93
       13
 44
0.0
173
     0
291
     1
 45
0.0
1001
ACAD
1000
AcDbSavedByObjectVersion
1070
     0
  0
VISUALSTYLE
  5
2E
102
{ACAD_REACTORS
330
2A
102
}
102
{ACAD_XDICTIONARY
360
58D
102
}
330
2A
100
AcDbVisualStyle
  2
GouraudWithEdges
 70
     3
 71
     2
 72
     2
 73
     1
 90
        2
 40
0.6
 41
30.0
 62
     5
 63
     7
421
 16777215
 74
     1
 91
        4
 64
     7
 65
   257
 75
     1
175
     1
 42
1.0
 92
        0
 66
   257
 43
1.0
 76
     1
 77
     6
 78
     2
 67
     7
 79
     5
170
     0
171
     0
290
     0
174
     0
 93
       13
 44
0.0
173
     0
291
     1
 45
0.0
1001
ACAD
1000
AcDbSavedByObjectVersion
1070
     0
  0
VISUALSTYLE
  5
38
102
{ACAD_REACTORS
330
2A
102
}
102
{ACAD_XDICTIONARY
360
5A1
102
}
330
2A
100
AcDbVisualStyle
  2
Linepattern
 70
    14
 71
     2
 72
     2
 73
     0
 90
        0
 40
0.6
 41
30.0
 62
     5
 63
     7
421
 16777215
 74
     1
 91
        4
 64
     7
 65
   257
 75
     7
175
     7
 42
1.0
 92
        8
 66
     7
 43
1.0
 76
     1
 77
     6
 78
     2
 67
     7
 79
     5
170
     0
171
     0
290
     0
174
     0
 93
        1
 44
0.0
173
     0
291
     1
 45
0.0
1001
ACAD
1000
AcDbSavedByObjectVersion
1070
     0
  0
VISUALSTYLE
  5
33
102
{ACAD_REACTORS
330
2A
102
}
102
{ACAD_XDICTIONARY
360
597
102
}
330
2A
100
AcDbVisualStyle
  2
Realistic
 70
     8
 71
     2
 72
     3
 73
     0
 90
        2
 40
0.6
 41
30.0
 62
     5
 63
     7
421
 16777215
 74
     0
 91
        0
 64
     7
 65
   257
 75
     1
175
     1
 42
1.0
 92
        8
 66
   257
 43
1.0
 76
     1
 77
     6
 78
     2
 67
     7
 79
     3
170
     0
171
     0
290
     0
174
     0
 93
       13
 44
0.0
173
     0
291
     0
 45
0.0
1001
ACAD
1000
AcDbSavedByObjectVersion
1070
     0
  0
VISUALSTYLE
  5
37
102
{ACAD_REACTORS
330
2A
102
}
102
{ACAD_XDICTIONARY
360
59F
102
}
330
2A
100
AcDbVisualStyle
  2
Thicken
 70
    13
 71
     2
 72
     2
 73
     0
 90
        0
 40
0.6
 41
30.0
 62
     5
 63
     7
421
 16777215
 74
     1
 91
        4
 64
     7
 65
   257
 75
     1
175
     1
 42
1.0
 92
       12
 66
     7
 43
1.0
 76
     1
 77
     6
 78
     2
 67
     7
 79
     5
170
     0
171
     0
290
     0
174
     0
 93
        1
 44
0.0
173
     0
291
     1
 45
0.0
1001
ACAD
1000
AcDbSavedByObjectVersion
1070
     0
  0
DICTIONARYVAR
  5
585
102
{ACAD_REACTORS
330
584
102
}
330
584
100
DictionaryVariables
280
     0
  1
1:1
  0
DICTIONARYVAR
  5
586
102
{ACAD_REACTORS
330
584
102
}
330
584
100
DictionaryVariables
280
     0
  1
1
  0
DICTIONARY
  5
5A9
330
3D
100
AcDbDictionary
280
     1
281
     1
  3
ACAD_XREC_ROUNDTRIP
360
5AA
  0
DICTIONARY
  5
5A7
330
3C
100
AcDbDictionary
280
     1
281
     1
  3
ACAD_XREC_ROUNDTRIP
360
5A8
  0
DICTIONARY
  5
5AB
330
3E
100
AcDbDictionary
280
     1
281
     1
  3
ACAD_XREC_ROUNDTRIP
360
5AC
  0
DICTIONARY
  5
58F
330
2F
100
AcDbDictionary
280
     1
281
     1
  3
ACAD_XREC_ROUNDTRIP
360
590
  0
DICTIONARY
  5
593
330
31
100
AcDbDictionary
280
     1
281
     1
  3
ACAD_XREC_ROUNDTRIP
360
594
  0
DICTIONARY
  5
591
330
30
100
AcDbDictionary
280
     1
281
     1
  3
ACAD_XREC_ROUNDTRIP
360
592
  0
DICTIONARY
  5
595
330
32
100
AcDbDictionary
280
     1
281
     1
  3
ACAD_XREC_ROUNDTRIP
360
596
  0
DICTIONARY
  5
59D
330
36
100
AcDbDictionary
280
     1
281
     1
  3
ACAD_XREC_ROUNDTRIP
360
59E
  0
DICTIONARY
  5
5A5
330
3A
100
AcDbDictionary
280
     1
281
     1
  3
ACAD_XREC_ROUNDTRIP
360
5A6
  0
DICTIONARY
  5
599
330
34
100
AcDbDictionary
280
     1
281
     1
  3
ACAD_XREC_ROUNDTRIP
360
59A
  0
DICTIONARY
  5
59B
330
35
100
AcDbDictionary
280
     1
281
     1
  3
ACAD_XREC_ROUNDTRIP
360
59C
  0
DICTIONARY
  5
5A3
330
39
100
AcDbDictionary
280
     1
281
     1
  3
ACAD_XREC_ROUNDTRIP
360
5A4
  0
DICTIONARY
  5
587
330
2B
100
AcDbDictionary
280
     1
281
     1
  3
ACAD_XREC_ROUNDTRIP
360
588
  0
DICTIONARY
  5
589
330
2C
100
AcDbDictionary
280
     1
281
     1
  3
ACAD_XREC_ROUNDTRIP
360
58A
  0
DICTIONARY
  5
58B
330
2D
100
AcDbDictionary
280
     1
281
     1
  3
ACAD_XREC_ROUNDTRIP
360
58C
  0
DICTIONARY
  5
58D
330
2E
100
AcDbDictionary
280
     1
281
     1
  3
ACAD_XREC_ROUNDTRIP
360
58E
  0
DICTIONARY
  5
5A1
330
38
100
AcDbDictionary
280
     1
281
     1
  3
ACAD_XREC_ROUNDTRIP
360
5A2
  0
DICTIONARY
  5
597
330
33
100
AcDbDictionary
280
     1
281
     1
  3
ACAD_XREC_ROUNDTRIP
360
598
  0
DICTIONARY
  5
59F
330
37
100
AcDbDictionary
280
     1
281
     1
  3
ACAD_XREC_ROUNDTRIP
360
5A0
  0
XRECORD
  5
5AA
102
{ACAD_REACTORS
330
5A9
102
}
330
5A9
100
AcDbXrecord
280
     1
102
MATERIAL
148
0.0
149
0.0
149
0.0
 93
        0
 94
      127
282
     0
 72
     1
 77
     1
171
     1
175
     1
179
     1
273
     0
  0
XRECORD
  5
5A8
102
{ACAD_REACTORS
330
5A7
102
}
330
5A7
100
AcDbXrecord
280
     1
102
MATERIAL
148
0.0
149
0.0
149
0.0
 93
        0
 94
      127
282
     0
 72
     1
 77
     1
171
     1
175
     1
179
     1
273
     0
  0
XRECORD
  5
5AC
102
{ACAD_REACTORS
330
5AB
102
}
330
5AB
100
AcDbXrecord
280
     1
102
MATERIAL
148
0.0
149
0.0
149
0.0
 93
        0
 94
      127
282
     0
 72
     1
 77
     1
171
     1
175
     1
179
     1
273
     0
  0
XRECORD
  5
590
102
{ACAD_REACTORS
330
58F
102
}
330
58F
100
AcDbXrecord
280
     1
102
RTVSPropertyOp0
 70
     1
102
RTVSPropertyOp1
 70
     1
102
RTVSPropertyOp2
 70
     1
102
RTVSPropertyOp3
 70
     1
102
RTVSPropertyOp4
 70
     1
102
RTVSPropertyOp5
 70
     1
102
RTVSPropertyOp6
 70
     1
102
RTVSPropertyOp7
 70
     1
102
RTVSPropertyOp8
 70
     1
102
RTVSPropertyOp9
 70
     1
102
RTVSPropertyOp10
 70
     1
102
RTVSPropertyOp11
 70
     1
102
RTVSPropertyOp12
 70
     1
102
RTVSPropertyOp13
 70
     1
102
RTVSPropertyOp14
 70
     1
102
RTVSPropertyOp15
 70
     1
102
RTVSPropertyOp16
 70
     1
102
RTVSPropertyOp17
 70
     1
102
RTVSPropertyOp18
 70
     1
102
RTVSPropertyOp19
 70
     1
102
RTVSPropertyOp20
 70
     1
102
RTVSPropertyOp21
 70
     1
102
RTVSPropertyOp22
 70
     1
102
RTVSPropertyOp23
 70
     1
102
RTVSPropertyOp24
 70
     1
102
RTVSPropertyOp25
 70
     1
102
RTVSPropertyOp26
 70
     1
102
RTVSPropertyOp27
 70
     1
102
RTVSPropertyOp28
 70
     1
102
RTVSPropertyOp29
 70
     1
102
RTVSPropertyOp30
 70
     1
102
RTVSPropertyOp31
 70
     1
102
RTVSPropertyOp32
 70
     1
102
RTVSPropertyOp33
 70
     1
102
RTVSPropertyOp34
 70
     1
102
RTVSPropertyOp35
 70
     1
102
RTVSPropertyOp36
 70
     1
102
RTVSPropertyOp37
 70
     1
102
RTVSPropertyOp38
 70
     1
102
RTVSPropertyOp39
 70
     1
102
RTVSPropertyOp40
 70
     1
102
RTVSPropertyOp41
 70
     1
102
RTVSPropertyOp42
 70
     1
102
RTVSPropertyOp43
 70
     1
102
RTVSPropertyOp44
 70
     1
102
RTVSPropertyOp45
 70
     1
102
RTVSPropertyOp46
 70
     1
102
RTVSPropertyOp47
 70
     1
102
RTVSPropertyOp48
 70
     1
102
RTVSPropertyOp49
 70
     1
102
RTVSPropertyOp50
 70
     1
102
RTVSPropertyOp51
 70
     0
102
RTVSPropertyOp52
 70
     0
102
RTVSPropertyOp53
 70
     1
102
RTVSPropertyOp54
 70
     1
102
RTVSPropertyOp55
 70
     1
102
RTVSPropertyOp56
 70
     1
102
RTVSPropertyOp57
 70
     1
102
RTVSPost2010Prop28
280
     1
102
RTVSPost2010PropOp28
 70
     1
102
RTVSPost2010Prop29
280
     1
102
RTVSPost2010PropOp29
 70
     1
102
RTVSPost2010Prop30
280
     0
102
RTVSPost2010PropOp30
 70
     1
102
RTVSPost2010Prop31
280
     0
102
RTVSPost2010PropOp31
 70
     1
102
RTVSPost2010Prop32
280
     0
102
RTVSPost2010PropOp32
 70
     1
102
RTVSPost2010Prop33
280
     0
102
RTVSPost2010PropOp33
 70
     1
102
RTVSPost2010Prop34
280
     0
102
RTVSPost2010PropOp34
 70
     1
102
RTVSPost2010Prop35
280
     0
102
RTVSPost2010PropOp35
 70
     1
102
RTVSPost2010Prop36
280
     0
102
RTVSPost2010PropOp36
 70
     1
102
RTVSPost2010Prop37
 90
       50
102
RTVSPost2010PropOp37
 70
     1
102
RTVSPost2010Prop38
140
0.0
102
RTVSPost2010PropOp38
 70
     1
102
RTVSPost2010Prop39
140
1.0
102
RTVSPost2010PropOp39
 70
     1
102
RTVSPost2010Prop40
 90
        0
102
RTVSPost2010PropOp40
 70
     1
102
RTVSPost2010Prop41ColorIndex
 90
       18
102
RTVSPost2010Prop41ColorRGB
 90
        0
102
RTVSPost2010PropOp41
 70
     1
102
RTVSPost2010Prop42
 90
       50
102
RTVSPost2010PropOp42
 70
     1
102
RTVSPost2010Prop43
 90
        3
102
RTVSPost2010PropOp43
 70
     1
102
RTVSPost2010Prop44ColorIndex
 90
        5
102
RTVSPost2010Prop44ColorRGB
 90
      255
102
RTVSPost2010PropOp44
 70
     1
102
RTVSPost2010Prop45
280
     0
102
RTVSPost2010PropOp45
 70
     1
102
RTVSPost2010Prop46
 90
       50
102
RTVSPost2010PropOp46
 70
     1
102
RTVSPost2010Prop47
 90
       50
102
RTVSPost2010PropOp47
 70
     1
102
RTVSPost2010Prop48
 90
       50
102
RTVSPost2010PropOp48
 70
     1
102
RTVSPost2010Prop49
280
     0
102
RTVSPost2010PropOp49
 70
     1
102
RTVSPost2010Prop50
 90
       50
102
RTVSPost2010PropOp50
 70
     1
102
RTVSPost2010Prop51ColorIndex
 90
      256
102
RTVSPost2010Prop51ColorRGB
 90
-16777216
102
RTVSPost2010PropOp51
 70
     0
102
RTVSPost2010Prop52
140
1.0
102
RTVSPost2010PropOp52
 70
     0
102
RTVSPost2010Prop53
 90
        2
102
RTVSPost2010PropOp53
 70
     1
102
RTVSPost2010Prop54
  1
strokes_ogs.tif
102
RTVSPost2010PropOp54
 70
     1
102
RTVSPost2010Prop55
280
     0
102
RTVSPost2010PropOp55
 70
     1
102
RTVSPost2010Prop56
140
1.0
102
RTVSPost2010PropOp56
 70
     1
102
RTVSPost2010Prop57
140
1.0
102
RTVSPost2010PropOp57
 70
     1
  0
XRECORD
  5
594
102
{ACAD_REACTORS
330
593
102
}
330
593
100
AcDbXrecord
280
     1
102
RTVSPropertyOp0
 70
     1
102
RTVSPropertyOp1
 70
     1
102
RTVSPropertyOp2
 70
     1
102
RTVSPropertyOp3
 70
     1
102
RTVSPropertyOp4
 70
     1
102
RTVSPropertyOp5
 70
     1
102
RTVSPropertyOp6
 70
     1
102
RTVSPropertyOp7
 70
     1
102
RTVSPropertyOp8
 70
     1
102
RTVSPropertyOp9
 70
     1
102
RTVSPropertyOp10
 70
     1
102
RTVSPropertyOp11
 70
     1
102
RTVSPropertyOp12
 70
     1
102
RTVSPropertyOp13
 70
     1
102
RTVSPropertyOp14
 70
     1
102
RTVSPropertyOp15
 70
     1
102
RTVSPropertyOp16
 70
     1
102
RTVSPropertyOp17
 70
     1
102
RTVSPropertyOp18
 70
     1
102
RTVSPropertyOp19
 70
     1
102
RTVSPropertyOp20
 70
     1
102
RTVSPropertyOp21
 70
     1
102
RTVSPropertyOp22
 70
     1
102
RTVSPropertyOp23
 70
     1
102
RTVSPropertyOp24
 70
     1
102
RTVSPropertyOp25
 70
     1
102
RTVSPropertyOp26
 70
     1
102
RTVSPropertyOp27
 70
     1
102
RTVSPropertyOp28
 70
     1
102
RTVSPropertyOp29
 70
     1
102
RTVSPropertyOp30
 70
     1
102
RTVSPropertyOp31
 70
     1
102
RTVSPropertyOp32
 70
     1
102
RTVSPropertyOp33
 70
     1
102
RTVSPropertyOp34
 70
     1
102
RTVSPropertyOp35
 70
     1
102
RTVSPropertyOp36
 70
     1
102
RTVSPropertyOp37
 70
     1
102
RTVSPropertyOp38
 70
     1
102
RTVSPropertyOp39
 70
     1
102
RTVSPropertyOp40
 70
     1
102
RTVSPropertyOp41
 70
     1
102
RTVSPropertyOp42
 70
     1
102
RTVSPropertyOp43
 70
     1
102
RTVSPropertyOp44
 70
     1
102
RTVSPropertyOp45
 70
     1
102
RTVSPropertyOp46
 70
     1
102
RTVSPropertyOp47
 70
     1
102
RTVSPropertyOp48
 70
     1
102
RTVSPropertyOp49
 70
     1
102
RTVSPropertyOp50
 70
     1
102
RTVSPropertyOp51
 70
     0
102
RTVSPropertyOp52
 70
     0
102
RTVSPropertyOp53
 70
     1
102
RTVSPropertyOp54
 70
     1
102
RTVSPropertyOp55
 70
     1
102
RTVSPropertyOp56
 70
     1
102
RTVSPropertyOp57
 70
     1
102
RTVSPost2010Prop28
280
     0
102
RTVSPost2010PropOp28
 70
     1
102
RTVSPost2010Prop29
280
     1
102
RTVSPost2010PropOp29
 70
     1
102
RTVSPost2010Prop30
280
     1
102
RTVSPost2010PropOp30
 70
     1
102
RTVSPost2010Prop31
280
     0
102
RTVSPost2010PropOp31
 70
     1
102
RTVSPost2010Prop32
280
     0
102
RTVSPost2010PropOp32
 70
     1
102
RTVSPost2010Prop33
280
     0
102
RTVSPost2010PropOp33
 70
     1
102
RTVSPost2010Prop34
280
     0
102
RTVSPost2010PropOp34
 70
     1
102
RTVSPost2010Prop35
280
     0
102
RTVSPost2010PropOp35
 70
     1
102
RTVSPost2010Prop36
280
     0
102
RTVSPost2010PropOp36
 70
     1
102
RTVSPost2010Prop37
 90
       50
102
RTVSPost2010PropOp37
 70
     1
102
RTVSPost2010Prop38
140
0.0
102
RTVSPost2010PropOp38
 70
     1
102
RTVSPost2010Prop39
140
1.0
102
RTVSPost2010PropOp39
 70
     1
102
RTVSPost2010Prop40
 90
        0
102
RTVSPost2010PropOp40
 70
     1
102
RTVSPost2010Prop41ColorIndex
 90
       18
102
RTVSPost2010Prop41ColorRGB
 90
        0
102
RTVSPost2010PropOp41
 70
     1
102
RTVSPost2010Prop42
 90
       50
102
RTVSPost2010PropOp42
 70
     1
102
RTVSPost2010Prop43
 90
        3
102
RTVSPost2010PropOp43
 70
     1
102
RTVSPost2010Prop44ColorIndex
 90
        5
102
RTVSPost2010Prop44ColorRGB
 90
      255
102
RTVSPost2010PropOp44
 70
     1
102
RTVSPost2010Prop45
280
     0
102
RTVSPost2010PropOp45
 70
     1
102
RTVSPost2010Prop46
 90
       50
102
RTVSPost2010PropOp46
 70
     1
102
RTVSPost2010Prop47
 90
       50
102
RTVSPost2010PropOp47
 70
     1
102
RTVSPost2010Prop48
 90
       50
102
RTVSPost2010PropOp48
 70
     1
102
RTVSPost2010Prop49
280
     0
102
RTVSPost2010PropOp49
 70
     1
102
RTVSPost2010Prop50
 90
       50
102
RTVSPost2010PropOp50
 70
     1
102
RTVSPost2010Prop51ColorIndex
 90
      256
102
RTVSPost2010Prop51ColorRGB
 90
-16777216
102
RTVSPost2010PropOp51
 70
     0
102
RTVSPost2010Prop52
140
1.0
102
RTVSPost2010PropOp52
 70
     0
102
RTVSPost2010Prop53
 90
        2
102
RTVSPost2010PropOp53
 70
     1
102
RTVSPost2010Prop54
  1
strokes_ogs.tif
102
RTVSPost2010PropOp54
 70
     1
102
RTVSPost2010Prop55
280
     0
102
RTVSPost2010PropOp55
 70
     1
102
RTVSPost2010Prop56
140
1.0
102
RTVSPost2010PropOp56
 70
     1
102
RTVSPost2010Prop57
140
1.0
102
RTVSPost2010PropOp57
 70
     1
  0
XRECORD
  5
592
102
{ACAD_REACTORS
330
591
102
}
330
591
100
AcDbXrecord
280
     1
102
RTVSPropertyOp0
 70
     1
102
RTVSPropertyOp1
 70
     1
102
RTVSPropertyOp2
 70
     1
102
RTVSPropertyOp3
 70
     1
102
RTVSPropertyOp4
 70
     1
102
RTVSPropertyOp5
 70
     1
102
RTVSPropertyOp6
 70
     1
102
RTVSPropertyOp7
 70
     1
102
RTVSPropertyOp8
 70
     1
102
RTVSPropertyOp9
 70
     1
102
RTVSPropertyOp10
 70
     1
102
RTVSPropertyOp11
 70
     1
102
RTVSPropertyOp12
 70
     1
102
RTVSPropertyOp13
 70
     1
102
RTVSPropertyOp14
 70
     1
102
RTVSPropertyOp15
 70
     1
102
RTVSPropertyOp16
 70
     1
102
RTVSPropertyOp17
 70
     1
102
RTVSPropertyOp18
 70
     1
102
RTVSPropertyOp19
 70
     1
102
RTVSPropertyOp20
 70
     1
102
RTVSPropertyOp21
 70
     1
102
RTVSPropertyOp22
 70
     1
102
RTVSPropertyOp23
 70
     1
102
RTVSPropertyOp24
 70
     1
102
RTVSPropertyOp25
 70
     1
102
RTVSPropertyOp26
 70
     1
102
RTVSPropertyOp27
 70
     1
102
RTVSPropertyOp28
 70
     1
102
RTVSPropertyOp29
 70
     1
102
RTVSPropertyOp30
 70
     1
102
RTVSPropertyOp31
 70
     1
102
RTVSPropertyOp32
 70
     1
102
RTVSPropertyOp33
 70
     1
102
RTVSPropertyOp34
 70
     1
102
RTVSPropertyOp35
 70
     1
102
RTVSPropertyOp36
 70
     1
102
RTVSPropertyOp37
 70
     1
102
RTVSPropertyOp38
 70
     1
102
RTVSPropertyOp39
 70
     1
102
RTVSPropertyOp40
 70
     1
102
RTVSPropertyOp41
 70
     1
102
RTVSPropertyOp42
 70
     1
102
RTVSPropertyOp43
 70
     1
102
RTVSPropertyOp44
 70
     1
102
RTVSPropertyOp45
 70
     1
102
RTVSPropertyOp46
 70
     1
102
RTVSPropertyOp47
 70
     1
102
RTVSPropertyOp48
 70
     1
102
RTVSPropertyOp49
 70
     1
102
RTVSPropertyOp50
 70
     1
102
RTVSPropertyOp51
 70
     0
102
RTVSPropertyOp52
 70
     0
102
RTVSPropertyOp53
 70
     1
102
RTVSPropertyOp54
 70
     1
102
RTVSPropertyOp55
 70
     1
102
RTVSPropertyOp56
 70
     1
102
RTVSPropertyOp57
 70
     1
102
RTVSPost2010Prop28
280
     0
102
RTVSPost2010PropOp28
 70
     1
102
RTVSPost2010Prop29
280
     1
102
RTVSPost2010PropOp29
 70
     1
102
RTVSPost2010Prop30
280
     1
102
RTVSPost2010PropOp30
 70
     1
102
RTVSPost2010Prop31
280
     0
102
RTVSPost2010PropOp31
 70
     1
102
RTVSPost2010Prop32
280
     0
102
RTVSPost2010PropOp32
 70
     1
102
RTVSPost2010Prop33
280
     0
102
RTVSPost2010PropOp33
 70
     1
102
RTVSPost2010Prop34
280
     0
102
RTVSPost2010PropOp34
 70
     1
102
RTVSPost2010Prop35
280
     0
102
RTVSPost2010PropOp35
 70
     1
102
RTVSPost2010Prop36
280
     0
102
RTVSPost2010PropOp36
 70
     1
102
RTVSPost2010Prop37
 90
       50
102
RTVSPost2010PropOp37
 70
     1
102
RTVSPost2010Prop38
140
0.0
102
RTVSPost2010PropOp38
 70
     1
102
RTVSPost2010Prop39
140
1.0
102
RTVSPost2010PropOp39
 70
     1
102
RTVSPost2010Prop40
 90
        0
102
RTVSPost2010PropOp40
 70
     1
102
RTVSPost2010Prop41ColorIndex
 90
       18
102
RTVSPost2010Prop41ColorRGB
 90
        0
102
RTVSPost2010PropOp41
 70
     1
102
RTVSPost2010Prop42
 90
       50
102
RTVSPost2010PropOp42
 70
     1
102
RTVSPost2010Prop43
 90
        3
102
RTVSPost2010PropOp43
 70
     1
102
RTVSPost2010Prop44ColorIndex
 90
        5
102
RTVSPost2010Prop44ColorRGB
 90
      255
102
RTVSPost2010PropOp44
 70
     1
102
RTVSPost2010Prop45
280
     0
102
RTVSPost2010PropOp45
 70
     1
102
RTVSPost2010Prop46
 90
       50
102
RTVSPost2010PropOp46
 70
     1
102
RTVSPost2010Prop47
 90
       50
102
RTVSPost2010PropOp47
 70
     1
102
RTVSPost2010Prop48
 90
       50
102
RTVSPost2010PropOp48
 70
     1
102
RTVSPost2010Prop49
280
     0
102
RTVSPost2010PropOp49
 70
     1
102
RTVSPost2010Prop50
 90
       50
102
RTVSPost2010PropOp50
 70
     1
102
RTVSPost2010Prop51ColorIndex
 90
      256
102
RTVSPost2010Prop51ColorRGB
 90
-16777216
102
RTVSPost2010PropOp51
 70
     0
102
RTVSPost2010Prop52
140
1.0
102
RTVSPost2010PropOp52
 70
     0
102
RTVSPost2010Prop53
 90
        2
102
RTVSPost2010PropOp53
 70
     1
102
RTVSPost2010Prop54
  1
strokes_ogs.tif
102
RTVSPost2010PropOp54
 70
     1
102
RTVSPost2010Prop55
280
     0
102
RTVSPost2010PropOp55
 70
     1
102
RTVSPost2010Prop56
140
1.0
102
RTVSPost2010PropOp56
 70
     1
102
RTVSPost2010Prop57
140
1.0
102
RTVSPost2010PropOp57
 70
     1
  0
XRECORD
  5
596
102
{ACAD_REACTORS
330
595
102
}
330
595
100
AcDbXrecord
280
     1
102
RTVSPropertyOp0
 70
     1
102
RTVSPropertyOp1
 70
     1
102
RTVSPropertyOp2
 70
     1
102
RTVSPropertyOp3
 70
     1
102
RTVSPropertyOp4
 70
     1
102
RTVSPropertyOp5
 70
     1
102
RTVSPropertyOp6
 70
     1
102
RTVSPropertyOp7
 70
     1
102
RTVSPropertyOp8
 70
     1
102
RTVSPropertyOp9
 70
     1
102
RTVSPropertyOp10
 70
     1
102
RTVSPropertyOp11
 70
     1
102
RTVSPropertyOp12
 70
     1
102
RTVSPropertyOp13
 70
     1
102
RTVSPropertyOp14
 70
     1
102
RTVSPropertyOp15
 70
     1
102
RTVSPropertyOp16
 70
     1
102
RTVSPropertyOp17
 70
     1
102
RTVSPropertyOp18
 70
     1
102
RTVSPropertyOp19
 70
     1
102
RTVSPropertyOp20
 70
     1
102
RTVSPropertyOp21
 70
     1
102
RTVSPropertyOp22
 70
     1
102
RTVSPropertyOp23
 70
     1
102
RTVSPropertyOp24
 70
     1
102
RTVSPropertyOp25
 70
     1
102
RTVSPropertyOp26
 70
     1
102
RTVSPropertyOp27
 70
     1
102
RTVSPropertyOp28
 70
     1
102
RTVSPropertyOp29
 70
     1
102
RTVSPropertyOp30
 70
     1
102
RTVSPropertyOp31
 70
     1
102
RTVSPropertyOp32
 70
     1
102
RTVSPropertyOp33
 70
     1
102
RTVSPropertyOp34
 70
     1
102
RTVSPropertyOp35
 70
     1
102
RTVSPropertyOp36
 70
     1
102
RTVSPropertyOp37
 70
     1
102
RTVSPropertyOp38
 70
     1
102
RTVSPropertyOp39
 70
     1
102
RTVSPropertyOp40
 70
     1
102
RTVSPropertyOp41
 70
     1
102
RTVSPropertyOp42
 70
     1
102
RTVSPropertyOp43
 70
     1
102
RTVSPropertyOp44
 70
     1
102
RTVSPropertyOp45
 70
     1
102
RTVSPropertyOp46
 70
     1
102
RTVSPropertyOp47
 70
     1
102
RTVSPropertyOp48
 70
     1
102
RTVSPropertyOp49
 70
     1
102
RTVSPropertyOp50
 70
     1
102
RTVSPropertyOp51
 70
     0
102
RTVSPropertyOp52
 70
     0
102
RTVSPropertyOp53
 70
     1
102
RTVSPropertyOp54
 70
     1
102
RTVSPropertyOp55
 70
     1
102
RTVSPropertyOp56
 70
     1
102
RTVSPropertyOp57
 70
     1
102
RTVSPost2010Prop28
280
     0
102
RTVSPost2010PropOp28
 70
     1
102
RTVSPost2010Prop29
280
     1
102
RTVSPost2010PropOp29
 70
     1
102
RTVSPost2010Prop30
280
     1
102
RTVSPost2010PropOp30
 70
     1
102
RTVSPost2010Prop31
280
     0
102
RTVSPost2010PropOp31
 70
     1
102
RTVSPost2010Prop32
280
     0
102
RTVSPost2010PropOp32
 70
     1
102
RTVSPost2010Prop33
280
     0
102
RTVSPost2010PropOp33
 70
     1
102
RTVSPost2010Prop34
280
     0
102
RTVSPost2010PropOp34
 70
     1
102
RTVSPost2010Prop35
280
     0
102
RTVSPost2010PropOp35
 70
     1
102
RTVSPost2010Prop36
280
     0
102
RTVSPost2010PropOp36
 70
     1
102
RTVSPost2010Prop37
 90
       50
102
RTVSPost2010PropOp37
 70
     1
102
RTVSPost2010Prop38
140
0.0
102
RTVSPost2010PropOp38
 70
     1
102
RTVSPost2010Prop39
140
1.0
102
RTVSPost2010PropOp39
 70
     1
102
RTVSPost2010Prop40
 90
        0
102
RTVSPost2010PropOp40
 70
     1
102
RTVSPost2010Prop41ColorIndex
 90
       18
102
RTVSPost2010Prop41ColorRGB
 90
        0
102
RTVSPost2010PropOp41
 70
     1
102
RTVSPost2010Prop42
 90
       50
102
RTVSPost2010PropOp42
 70
     1
102
RTVSPost2010Prop43
 90
        3
102
RTVSPost2010PropOp43
 70
     1
102
RTVSPost2010Prop44ColorIndex
 90
        5
102
RTVSPost2010Prop44ColorRGB
 90
      255
102
RTVSPost2010PropOp44
 70
     1
102
RTVSPost2010Prop45
280
     0
102
RTVSPost2010PropOp45
 70
     1
102
RTVSPost2010Prop46
 90
       50
102
RTVSPost2010PropOp46
 70
     1
102
RTVSPost2010Prop47
 90
       50
102
RTVSPost2010PropOp47
 70
     1
102
RTVSPost2010Prop48
 90
       50
102
RTVSPost2010PropOp48
 70
     1
102
RTVSPost2010Prop49
280
     0
102
RTVSPost2010PropOp49
 70
     1
102
RTVSPost2010Prop50
 90
       50
102
RTVSPost2010PropOp50
 70
     1
102
RTVSPost2010Prop51ColorIndex
 90
      256
102
RTVSPost2010Prop51ColorRGB
 90
-16777216
102
RTVSPost2010PropOp51
 70
     0
102
RTVSPost2010Prop52
140
1.0
102
RTVSPost2010PropOp52
 70
     0
102
RTVSPost2010Prop53
 90
        2
102
RTVSPost2010PropOp53
 70
     1
102
RTVSPost2010Prop54
  1
strokes_ogs.tif
102
RTVSPost2010PropOp54
 70
     1
102
RTVSPost2010Prop55
280
     0
102
RTVSPost2010PropOp55
 70
     1
102
RTVSPost2010Prop56
140
1.0
102
RTVSPost2010PropOp56
 70
     1
102
RTVSPost2010Prop57
140
1.0
102
RTVSPost2010PropOp57
 70
     1
  0
XRECORD
  5
59E
102
{ACAD_REACTORS
330
59D
102
}
330
59D
100
AcDbXrecord
280
     1
102
RTVSPropertyOp0
 70
     1
102
RTVSPropertyOp1
 70
     1
102
RTVSPropertyOp2
 70
     1
102
RTVSPropertyOp3
 70
     1
102
RTVSPropertyOp4
 70
     1
102
RTVSPropertyOp5
 70
     1
102
RTVSPropertyOp6
 70
     1
102
RTVSPropertyOp7
 70
     1
102
RTVSPropertyOp8
 70
     1
102
RTVSPropertyOp9
 70
     1
102
RTVSPropertyOp10
 70
     1
102
RTVSPropertyOp11
 70
     1
102
RTVSPropertyOp12
 70
     1
102
RTVSPropertyOp13
 70
     1
102
RTVSPropertyOp14
 70
     1
102
RTVSPropertyOp15
 70
     1
102
RTVSPropertyOp16
 70
     1
102
RTVSPropertyOp17
 70
     1
102
RTVSPropertyOp18
 70
     1
102
RTVSPropertyOp19
 70
     1
102
RTVSPropertyOp20
 70
     1
102
RTVSPropertyOp21
 70
     1
102
RTVSPropertyOp22
 70
     1
102
RTVSPropertyOp23
 70
     1
102
RTVSPropertyOp24
 70
     1
102
RTVSPropertyOp25
 70
     1
102
RTVSPropertyOp26
 70
     1
102
RTVSPropertyOp27
 70
     1
102
RTVSPropertyOp28
 70
     1
102
RTVSPropertyOp29
 70
     1
102
RTVSPropertyOp30
 70
     1
102
RTVSPropertyOp31
 70
     1
102
RTVSPropertyOp32
 70
     1
102
RTVSPropertyOp33
 70
     1
102
RTVSPropertyOp34
 70
     1
102
RTVSPropertyOp35
 70
     1
102
RTVSPropertyOp36
 70
     1
102
RTVSPropertyOp37
 70
     1
102
RTVSPropertyOp38
 70
     1
102
RTVSPropertyOp39
 70
     1
102
RTVSPropertyOp40
 70
     1
102
RTVSPropertyOp41
 70
     1
102
RTVSPropertyOp42
 70
     1
102
RTVSPropertyOp43
 70
     1
102
RTVSPropertyOp44
 70
     1
102
RTVSPropertyOp45
 70
     1
102
RTVSPropertyOp46
 70
     1
102
RTVSPropertyOp47
 70
     1
102
RTVSPropertyOp48
 70
     1
102
RTVSPropertyOp49
 70
     1
102
RTVSPropertyOp50
 70
     1
102
RTVSPropertyOp51
 70
     0
102
RTVSPropertyOp52
 70
     0
102
RTVSPropertyOp53
 70
     1
102
RTVSPropertyOp54
 70
     1
102
RTVSPropertyOp55
 70
     1
102
RTVSPropertyOp56
 70
     1
102
RTVSPropertyOp57
 70
     1
102
RTVSPost2010Prop28
280
     0
102
RTVSPost2010PropOp28
 70
     1
102
RTVSPost2010Prop29
280
     1
102
RTVSPost2010PropOp29
 70
     1
102
RTVSPost2010Prop30
280
     1
102
RTVSPost2010PropOp30
 70
     1
102
RTVSPost2010Prop31
280
     0
102
RTVSPost2010PropOp31
 70
     1
102
RTVSPost2010Prop32
280
     0
102
RTVSPost2010PropOp32
 70
     1
102
RTVSPost2010Prop33
280
     0
102
RTVSPost2010PropOp33
 70
     1
102
RTVSPost2010Prop34
280
     0
102
RTVSPost2010PropOp34
 70
     1
102
RTVSPost2010Prop35
280
     0
102
RTVSPost2010PropOp35
 70
     1
102
RTVSPost2010Prop36
280
     0
102
RTVSPost2010PropOp36
 70
     1
102
RTVSPost2010Prop37
 90
       50
102
RTVSPost2010PropOp37
 70
     1
102
RTVSPost2010Prop38
140
0.0
102
RTVSPost2010PropOp38
 70
     1
102
RTVSPost2010Prop39
140
1.0
102
RTVSPost2010PropOp39
 70
     1
102
RTVSPost2010Prop40
 90
        0
102
RTVSPost2010PropOp40
 70
     1
102
RTVSPost2010Prop41ColorIndex
 90
       18
102
RTVSPost2010Prop41ColorRGB
 90
        0
102
RTVSPost2010PropOp41
 70
     1
102
RTVSPost2010Prop42
 90
       50
102
RTVSPost2010PropOp42
 70
     1
102
RTVSPost2010Prop43
 90
        3
102
RTVSPost2010PropOp43
 70
     1
102
RTVSPost2010Prop44ColorIndex
 90
        5
102
RTVSPost2010Prop44ColorRGB
 90
      255
102
RTVSPost2010PropOp44
 70
     1
102
RTVSPost2010Prop45
280
     0
102
RTVSPost2010PropOp45
 70
     1
102
RTVSPost2010Prop46
 90
       50
102
RTVSPost2010PropOp46
 70
     1
102
RTVSPost2010Prop47
 90
       50
102
RTVSPost2010PropOp47
 70
     1
102
RTVSPost2010Prop48
 90
       50
102
RTVSPost2010PropOp48
 70
     1
102
RTVSPost2010Prop49
280
     0
102
RTVSPost2010PropOp49
 70
     1
102
RTVSPost2010Prop50
 90
       50
102
RTVSPost2010PropOp50
 70
     1
102
RTVSPost2010Prop51ColorIndex
 90
      256
102
RTVSPost2010Prop51ColorRGB
 90
-16777216
102
RTVSPost2010PropOp51
 70
     0
102
RTVSPost2010Prop52
140
1.0
102
RTVSPost2010PropOp52
 70
     0
102
RTVSPost2010Prop53
 90
        2
102
RTVSPost2010PropOp53
 70
     1
102
RTVSPost2010Prop54
  1
strokes_ogs.tif
102
RTVSPost2010PropOp54
 70
     1
102
RTVSPost2010Prop55
280
     0
102
RTVSPost2010PropOp55
 70
     1
102
RTVSPost2010Prop56
140
1.0
102
RTVSPost2010PropOp56
 70
     1
102
RTVSPost2010Prop57
140
1.0
102
RTVSPost2010PropOp57
 70
     1
  0
XRECORD
  5
5A6
102
{ACAD_REACTORS
330
5A5
102
}
330
5A5
100
AcDbXrecord
280
     1
102
RTVSPropertyOp0
 70
     1
102
RTVSPropertyOp1
 70
     1
102
RTVSPropertyOp2
 70
     1
102
RTVSPropertyOp3
 70
     1
102
RTVSPropertyOp4
 70
     1
102
RTVSPropertyOp5
 70
     1
102
RTVSPropertyOp6
 70
     1
102
RTVSPropertyOp7
 70
     1
102
RTVSPropertyOp8
 70
     1
102
RTVSPropertyOp9
 70
     1
102
RTVSPropertyOp10
 70
     1
102
RTVSPropertyOp11
 70
     1
102
RTVSPropertyOp12
 70
     1
102
RTVSPropertyOp13
 70
     1
102
RTVSPropertyOp14
 70
     1
102
RTVSPropertyOp15
 70
     1
102
RTVSPropertyOp16
 70
     1
102
RTVSPropertyOp17
 70
     1
102
RTVSPropertyOp18
 70
     1
102
RTVSPropertyOp19
 70
     1
102
RTVSPropertyOp20
 70
     1
102
RTVSPropertyOp21
 70
     1
102
RTVSPropertyOp22
 70
     1
102
RTVSPropertyOp23
 70
     1
102
RTVSPropertyOp24
 70
     1
102
RTVSPropertyOp25
 70
     1
102
RTVSPropertyOp26
 70
     1
102
RTVSPropertyOp27
 70
     1
102
RTVSPropertyOp28
 70
     1
102
RTVSPropertyOp29
 70
     1
102
RTVSPropertyOp30
 70
     1
102
RTVSPropertyOp31
 70
     1
102
RTVSPropertyOp32
 70
     1
102
RTVSPropertyOp33
 70
     1
102
RTVSPropertyOp34
 70
     1
102
RTVSPropertyOp35
 70
     1
102
RTVSPropertyOp36
 70
     1
102
RTVSPropertyOp37
 70
     1
102
RTVSPropertyOp38
 70
     1
102
RTVSPropertyOp39
 70
     1
102
RTVSPropertyOp40
 70
     1
102
RTVSPropertyOp41
 70
     1
102
RTVSPropertyOp42
 70
     1
102
RTVSPropertyOp43
 70
     1
102
RTVSPropertyOp44
 70
     1
102
RTVSPropertyOp45
 70
     1
102
RTVSPropertyOp46
 70
     1
102
RTVSPropertyOp47
 70
     1
102
RTVSPropertyOp48
 70
     1
102
RTVSPropertyOp49
 70
     1
102
RTVSPropertyOp50
 70
     1
102
RTVSPropertyOp51
 70
     0
102
RTVSPropertyOp52
 70
     0
102
RTVSPropertyOp53
 70
     1
102
RTVSPropertyOp54
 70
     1
102
RTVSPropertyOp55
 70
     1
102
RTVSPropertyOp56
 70
     1
102
RTVSPropertyOp57
 70
     1
102
RTVSPost2010Prop28
280
     0
102
RTVSPost2010PropOp28
 70
     1
102
RTVSPost2010Prop29
280
     1
102
RTVSPost2010PropOp29
 70
     1
102
RTVSPost2010Prop30
280
     1
102
RTVSPost2010PropOp30
 70
     1
102
RTVSPost2010Prop31
280
     0
102
RTVSPost2010PropOp31
 70
     1
102
RTVSPost2010Prop32
280
     0
102
RTVSPost2010PropOp32
 70
     1
102
RTVSPost2010Prop33
280
     0
102
RTVSPost2010PropOp33
 70
     1
102
RTVSPost2010Prop34
280
     0
102
RTVSPost2010PropOp34
 70
     1
102
RTVSPost2010Prop35
280
     0
102
RTVSPost2010PropOp35
 70
     1
102
RTVSPost2010Prop36
280
     0
102
RTVSPost2010PropOp36
 70
     1
102
RTVSPost2010Prop37
 90
       50
102
RTVSPost2010PropOp37
 70
     1
102
RTVSPost2010Prop38
140
0.0
102
RTVSPost2010PropOp38
 70
     1
102
RTVSPost2010Prop39
140
1.0
102
RTVSPost2010PropOp39
 70
     1
102
RTVSPost2010Prop40
 90
        0
102
RTVSPost2010PropOp40
 70
     1
102
RTVSPost2010Prop41ColorIndex
 90
       18
102
RTVSPost2010Prop41ColorRGB
 90
        0
102
RTVSPost2010PropOp41
 70
     1
102
RTVSPost2010Prop42
 90
       50
102
RTVSPost2010PropOp42
 70
     1
102
RTVSPost2010Prop43
 90
        3
102
RTVSPost2010PropOp43
 70
     1
102
RTVSPost2010Prop44ColorIndex
 90
        5
102
RTVSPost2010Prop44ColorRGB
 90
      255
102
RTVSPost2010PropOp44
 70
     1
102
RTVSPost2010Prop45
280
     0
102
RTVSPost2010PropOp45
 70
     1
102
RTVSPost2010Prop46
 90
       50
102
RTVSPost2010PropOp46
 70
     1
102
RTVSPost2010Prop47
 90
       50
102
RTVSPost2010PropOp47
 70
     1
102
RTVSPost2010Prop48
 90
       50
102
RTVSPost2010PropOp48
 70
     1
102
RTVSPost2010Prop49
280
     0
102
RTVSPost2010PropOp49
 70
     1
102
RTVSPost2010Prop50
 90
       50
102
RTVSPost2010PropOp50
 70
     1
102
RTVSPost2010Prop51ColorIndex
 90
      256
102
RTVSPost2010Prop51ColorRGB
 90
-16777216
102
RTVSPost2010PropOp51
 70
     0
102
RTVSPost2010Prop52
140
1.0
102
RTVSPost2010PropOp52
 70
     0
102
RTVSPost2010Prop53
 90
        2
102
RTVSPost2010PropOp53
 70
     1
102
RTVSPost2010Prop54
  1
strokes_ogs.tif
102
RTVSPost2010PropOp54
 70
     1
102
RTVSPost2010Prop55
280
     0
102
RTVSPost2010PropOp55
 70
     1
102
RTVSPost2010Prop56
140
1.0
102
RTVSPost2010PropOp56
 70
     1
102
RTVSPost2010Prop57
140
1.0
102
RTVSPost2010PropOp57
 70
     1
  0
XRECORD
  5
59A
102
{ACAD_REACTORS
330
599
102
}
330
599
100
AcDbXrecord
280
     1
102
RTVSPropertyOp0
 70
     1
102
RTVSPropertyOp1
 70
     1
102
RTVSPropertyOp2
 70
     1
102
RTVSPropertyOp3
 70
     1
102
RTVSPropertyOp4
 70
     1
102
RTVSPropertyOp5
 70
     1
102
RTVSPropertyOp6
 70
     1
102
RTVSPropertyOp7
 70
     1
102
RTVSPropertyOp8
 70
     1
102
RTVSPropertyOp9
 70
     1
102
RTVSPropertyOp10
 70
     1
102
RTVSPropertyOp11
 70
     1
102
RTVSPropertyOp12
 70
     1
102
RTVSPropertyOp13
 70
     1
102
RTVSPropertyOp14
 70
     1
102
RTVSPropertyOp15
 70
     1
102
RTVSPropertyOp16
 70
     1
102
RTVSPropertyOp17
 70
     1
102
RTVSPropertyOp18
 70
     1
102
RTVSPropertyOp19
 70
     1
102
RTVSPropertyOp20
 70
     1
102
RTVSPropertyOp21
 70
     1
102
RTVSPropertyOp22
 70
     1
102
RTVSPropertyOp23
 70
     1
102
RTVSPropertyOp24
 70
     1
102
RTVSPropertyOp25
 70
     1
102
RTVSPropertyOp26
 70
     1
102
RTVSPropertyOp27
 70
     1
102
RTVSPropertyOp28
 70
     1
102
RTVSPropertyOp29
 70
     1
102
RTVSPropertyOp30
 70
     1
102
RTVSPropertyOp31
 70
     1
102
RTVSPropertyOp32
 70
     1
102
RTVSPropertyOp33
 70
     1
102
RTVSPropertyOp34
 70
     1
102
RTVSPropertyOp35
 70
     1
102
RTVSPropertyOp36
 70
     1
102
RTVSPropertyOp37
 70
     1
102
RTVSPropertyOp38
 70
     1
102
RTVSPropertyOp39
 70
     1
102
RTVSPropertyOp40
 70
     1
102
RTVSPropertyOp41
 70
     1
102
RTVSPropertyOp42
 70
     1
102
RTVSPropertyOp43
 70
     1
102
RTVSPropertyOp44
 70
     1
102
RTVSPropertyOp45
 70
     1
102
RTVSPropertyOp46
 70
     1
102
RTVSPropertyOp47
 70
     1
102
RTVSPropertyOp48
 70
     1
102
RTVSPropertyOp49
 70
     1
102
RTVSPropertyOp50
 70
     1
102
RTVSPropertyOp51
 70
     0
102
RTVSPropertyOp52
 70
     0
102
RTVSPropertyOp53
 70
     1
102
RTVSPropertyOp54
 70
     1
102
RTVSPropertyOp55
 70
     1
102
RTVSPropertyOp56
 70
     1
102
RTVSPropertyOp57
 70
     1
102
RTVSPost2010Prop28
280
     0
102
RTVSPost2010PropOp28
 70
     1
102
RTVSPost2010Prop29
280
     1
102
RTVSPost2010PropOp29
 70
     1
102
RTVSPost2010Prop30
280
     1
102
RTVSPost2010PropOp30
 70
     1
102
RTVSPost2010Prop31
280
     0
102
RTVSPost2010PropOp31
 70
     1
102
RTVSPost2010Prop32
280
     0
102
RTVSPost2010PropOp32
 70
     1
102
RTVSPost2010Prop33
280
     0
102
RTVSPost2010PropOp33
 70
     1
102
RTVSPost2010Prop34
280
     0
102
RTVSPost2010PropOp34
 70
     1
102
RTVSPost2010Prop35
280
     0
102
RTVSPost2010PropOp35
 70
     1
102
RTVSPost2010Prop36
280
     0
102
RTVSPost2010PropOp36
 70
     1
102
RTVSPost2010Prop37
 90
       50
102
RTVSPost2010PropOp37
 70
     1
102
RTVSPost2010Prop38
140
0.0
102
RTVSPost2010PropOp38
 70
     1
102
RTVSPost2010Prop39
140
1.0
102
RTVSPost2010PropOp39
 70
     1
102
RTVSPost2010Prop40
 90
        0
102
RTVSPost2010PropOp40
 70
     1
102
RTVSPost2010Prop41ColorIndex
 90
       18
102
RTVSPost2010Prop41ColorRGB
 90
        0
102
RTVSPost2010PropOp41
 70
     1
102
RTVSPost2010Prop42
 90
       50
102
RTVSPost2010PropOp42
 70
     1
102
RTVSPost2010Prop43
 90
        3
102
RTVSPost2010PropOp43
 70
     1
102
RTVSPost2010Prop44ColorIndex
 90
        5
102
RTVSPost2010Prop44ColorRGB
 90
      255
102
RTVSPost2010PropOp44
 70
     1
102
RTVSPost2010Prop45
280
     0
102
RTVSPost2010PropOp45
 70
     1
102
RTVSPost2010Prop46
 90
       50
102
RTVSPost2010PropOp46
 70
     1
102
RTVSPost2010Prop47
 90
       50
102
RTVSPost2010PropOp47
 70
     1
102
RTVSPost2010Prop48
 90
       50
102
RTVSPost2010PropOp48
 70
     1
102
RTVSPost2010Prop49
280
     0
102
RTVSPost2010PropOp49
 70
     1
102
RTVSPost2010Prop50
 90
       50
102
RTVSPost2010PropOp50
 70
     1
102
RTVSPost2010Prop51ColorIndex
 90
      256
102
RTVSPost2010Prop51ColorRGB
 90
-16777216
102
RTVSPost2010PropOp51
 70
     0
102
RTVSPost2010Prop52
140
1.0
102
RTVSPost2010PropOp52
 70
     0
102
RTVSPost2010Prop53
 90
        2
102
RTVSPost2010PropOp53
 70
     1
102
RTVSPost2010Prop54
  1
strokes_ogs.tif
102
RTVSPost2010PropOp54
 70
     1
102
RTVSPost2010Prop55
280
     0
102
RTVSPost2010PropOp55
 70
     1
102
RTVSPost2010Prop56
140
1.0
102
RTVSPost2010PropOp56
 70
     1
102
RTVSPost2010Prop57
140
1.0
102
RTVSPost2010PropOp57
 70
     1
  0
XRECORD
  5
59C
102
{ACAD_REACTORS
330
59B
102
}
330
59B
100
AcDbXrecord
280
     1
102
RTVSPropertyOp0
 70
     1
102
RTVSPropertyOp1
 70
     1
102
RTVSPropertyOp2
 70
     1
102
RTVSPropertyOp3
 70
     1
102
RTVSPropertyOp4
 70
     1
102
RTVSPropertyOp5
 70
     1
102
RTVSPropertyOp6
 70
     1
102
RTVSPropertyOp7
 70
     1
102
RTVSPropertyOp8
 70
     1
102
RTVSPropertyOp9
 70
     1
102
RTVSPropertyOp10
 70
     1
102
RTVSPropertyOp11
 70
     1
102
RTVSPropertyOp12
 70
     1
102
RTVSPropertyOp13
 70
     1
102
RTVSPropertyOp14
 70
     1
102
RTVSPropertyOp15
 70
     1
102
RTVSPropertyOp16
 70
     1
102
RTVSPropertyOp17
 70
     1
102
RTVSPropertyOp18
 70
     1
102
RTVSPropertyOp19
 70
     1
102
RTVSPropertyOp20
 70
     1
102
RTVSPropertyOp21
 70
     1
102
RTVSPropertyOp22
 70
     1
102
RTVSPropertyOp23
 70
     1
102
RTVSPropertyOp24
 70
     1
102
RTVSPropertyOp25
 70
     1
102
RTVSPropertyOp26
 70
     1
102
RTVSPropertyOp27
 70
     1
102
RTVSPropertyOp28
 70
     1
102
RTVSPropertyOp29
 70
     1
102
RTVSPropertyOp30
 70
     1
102
RTVSPropertyOp31
 70
     1
102
RTVSPropertyOp32
 70
     1
102
RTVSPropertyOp33
 70
     1
102
RTVSPropertyOp34
 70
     1
102
RTVSPropertyOp35
 70
     1
102
RTVSPropertyOp36
 70
     1
102
RTVSPropertyOp37
 70
     1
102
RTVSPropertyOp38
 70
     1
102
RTVSPropertyOp39
 70
     1
102
RTVSPropertyOp40
 70
     1
102
RTVSPropertyOp41
 70
     1
102
RTVSPropertyOp42
 70
     1
102
RTVSPropertyOp43
 70
     1
102
RTVSPropertyOp44
 70
     1
102
RTVSPropertyOp45
 70
     1
102
RTVSPropertyOp46
 70
     1
102
RTVSPropertyOp47
 70
     1
102
RTVSPropertyOp48
 70
     1
102
RTVSPropertyOp49
 70
     1
102
RTVSPropertyOp50
 70
     1
102
RTVSPropertyOp51
 70
     0
102
RTVSPropertyOp52
 70
     0
102
RTVSPropertyOp53
 70
     1
102
RTVSPropertyOp54
 70
     1
102
RTVSPropertyOp55
 70
     1
102
RTVSPropertyOp56
 70
     1
102
RTVSPropertyOp57
 70
     1
102
RTVSPost2010Prop28
280
     0
102
RTVSPost2010PropOp28
 70
     1
102
RTVSPost2010Prop29
280
     1
102
RTVSPost2010PropOp29
 70
     1
102
RTVSPost2010Prop30
280
     1
102
RTVSPost2010PropOp30
 70
     1
102
RTVSPost2010Prop31
280
     0
102
RTVSPost2010PropOp31
 70
     1
102
RTVSPost2010Prop32
280
     0
102
RTVSPost2010PropOp32
 70
     1
102
RTVSPost2010Prop33
280
     0
102
RTVSPost2010PropOp33
 70
     1
102
RTVSPost2010Prop34
280
     0
102
RTVSPost2010PropOp34
 70
     1
102
RTVSPost2010Prop35
280
     0
102
RTVSPost2010PropOp35
 70
     1
102
RTVSPost2010Prop36
280
     0
102
RTVSPost2010PropOp36
 70
     1
102
RTVSPost2010Prop37
 90
       50
102
RTVSPost2010PropOp37
 70
     1
102
RTVSPost2010Prop38
140
0.0
102
RTVSPost2010PropOp38
 70
     1
102
RTVSPost2010Prop39
140
1.0
102
RTVSPost2010PropOp39
 70
     1
102
RTVSPost2010Prop40
 90
        0
102
RTVSPost2010PropOp40
 70
     1
102
RTVSPost2010Prop41ColorIndex
 90
       18
102
RTVSPost2010Prop41ColorRGB
 90
        0
102
RTVSPost2010PropOp41
 70
     1
102
RTVSPost2010Prop42
 90
       50
102
RTVSPost2010PropOp42
 70
     1
102
RTVSPost2010Prop43
 90
        3
102
RTVSPost2010PropOp43
 70
     1
102
RTVSPost2010Prop44ColorIndex
 90
        5
102
RTVSPost2010Prop44ColorRGB
 90
      255
102
RTVSPost2010PropOp44
 70
     1
102
RTVSPost2010Prop45
280
     0
102
RTVSPost2010PropOp45
 70
     1
102
RTVSPost2010Prop46
 90
       50
102
RTVSPost2010PropOp46
 70
     1
102
RTVSPost2010Prop47
 90
       50
102
RTVSPost2010PropOp47
 70
     1
102
RTVSPost2010Prop48
 90
       50
102
RTVSPost2010PropOp48
 70
     1
102
RTVSPost2010Prop49
280
     0
102
RTVSPost2010PropOp49
 70
     1
102
RTVSPost2010Prop50
 90
       50
102
RTVSPost2010PropOp50
 70
     1
102
RTVSPost2010Prop51ColorIndex
 90
      256
102
RTVSPost2010Prop51ColorRGB
 90
-16777216
102
RTVSPost2010PropOp51
 70
     0
102
RTVSPost2010Prop52
140
1.0
102
RTVSPost2010PropOp52
 70
     0
102
RTVSPost2010Prop53
 90
        2
102
RTVSPost2010PropOp53
 70
     1
102
RTVSPost2010Prop54
  1
strokes_ogs.tif
102
RTVSPost2010PropOp54
 70
     1
102
RTVSPost2010Prop55
280
     0
102
RTVSPost2010PropOp55
 70
     1
102
RTVSPost2010Prop56
140
1.0
102
RTVSPost2010PropOp56
 70
     1
102
RTVSPost2010Prop57
140
1.0
102
RTVSPost2010PropOp57
 70
     1
  0
XRECORD
  5
5A4
102
{ACAD_REACTORS
330
5A3
102
}
330
5A3
100
AcDbXrecord
280
     1
102
RTVSPropertyOp0
 70
     1
102
RTVSPropertyOp1
 70
     1
102
RTVSPropertyOp2
 70
     1
102
RTVSPropertyOp3
 70
     1
102
RTVSPropertyOp4
 70
     1
102
RTVSPropertyOp5
 70
     1
102
RTVSPropertyOp6
 70
     1
102
RTVSPropertyOp7
 70
     1
102
RTVSPropertyOp8
 70
     1
102
RTVSPropertyOp9
 70
     1
102
RTVSPropertyOp10
 70
     1
102
RTVSPropertyOp11
 70
     1
102
RTVSPropertyOp12
 70
     1
102
RTVSPropertyOp13
 70
     1
102
RTVSPropertyOp14
 70
     1
102
RTVSPropertyOp15
 70
     1
102
RTVSPropertyOp16
 70
     1
102
RTVSPropertyOp17
 70
     1
102
RTVSPropertyOp18
 70
     1
102
RTVSPropertyOp19
 70
     1
102
RTVSPropertyOp20
 70
     1
102
RTVSPropertyOp21
 70
     1
102
RTVSPropertyOp22
 70
     1
102
RTVSPropertyOp23
 70
     1
102
RTVSPropertyOp24
 70
     1
102
RTVSPropertyOp25
 70
     1
102
RTVSPropertyOp26
 70
     1
102
RTVSPropertyOp27
 70
     1
102
RTVSPropertyOp28
 70
     1
102
RTVSPropertyOp29
 70
     1
102
RTVSPropertyOp30
 70
     1
102
RTVSPropertyOp31
 70
     1
102
RTVSPropertyOp32
 70
     1
102
RTVSPropertyOp33
 70
     1
102
RTVSPropertyOp34
 70
     1
102
RTVSPropertyOp35
 70
     1
102
RTVSPropertyOp36
 70
     1
102
RTVSPropertyOp37
 70
     1
102
RTVSPropertyOp38
 70
     1
102
RTVSPropertyOp39
 70
     1
102
RTVSPropertyOp40
 70
     1
102
RTVSPropertyOp41
 70
     1
102
RTVSPropertyOp42
 70
     1
102
RTVSPropertyOp43
 70
     1
102
RTVSPropertyOp44
 70
     1
102
RTVSPropertyOp45
 70
     1
102
RTVSPropertyOp46
 70
     1
102
RTVSPropertyOp47
 70
     1
102
RTVSPropertyOp48
 70
     1
102
RTVSPropertyOp49
 70
     1
102
RTVSPropertyOp50
 70
     1
102
RTVSPropertyOp51
 70
     0
102
RTVSPropertyOp52
 70
     0
102
RTVSPropertyOp53
 70
     1
102
RTVSPropertyOp54
 70
     1
102
RTVSPropertyOp55
 70
     1
102
RTVSPropertyOp56
 70
     1
102
RTVSPropertyOp57
 70
     1
102
RTVSPost2010Prop28
280
     0
102
RTVSPost2010PropOp28
 70
     1
102
RTVSPost2010Prop29
280
     1
102
RTVSPost2010PropOp29
 70
     1
102
RTVSPost2010Prop30
280
     1
102
RTVSPost2010PropOp30
 70
     1
102
RTVSPost2010Prop31
280
     0
102
RTVSPost2010PropOp31
 70
     1
102
RTVSPost2010Prop32
280
     0
102
RTVSPost2010PropOp32
 70
     1
102
RTVSPost2010Prop33
280
     0
102
RTVSPost2010PropOp33
 70
     1
102
RTVSPost2010Prop34
280
     0
102
RTVSPost2010PropOp34
 70
     1
102
RTVSPost2010Prop35
280
     0
102
RTVSPost2010PropOp35
 70
     1
102
RTVSPost2010Prop36
280
     0
102
RTVSPost2010PropOp36
 70
     1
102
RTVSPost2010Prop37
 90
       50
102
RTVSPost2010PropOp37
 70
     1
102
RTVSPost2010Prop38
140
0.0
102
RTVSPost2010PropOp38
 70
     1
102
RTVSPost2010Prop39
140
1.0
102
RTVSPost2010PropOp39
 70
     1
102
RTVSPost2010Prop40
 90
        0
102
RTVSPost2010PropOp40
 70
     1
102
RTVSPost2010Prop41ColorIndex
 90
       18
102
RTVSPost2010Prop41ColorRGB
 90
        0
102
RTVSPost2010PropOp41
 70
     1
102
RTVSPost2010Prop42
 90
       50
102
RTVSPost2010PropOp42
 70
     1
102
RTVSPost2010Prop43
 90
        3
102
RTVSPost2010PropOp43
 70
     1
102
RTVSPost2010Prop44ColorIndex
 90
        5
102
RTVSPost2010Prop44ColorRGB
 90
      255
102
RTVSPost2010PropOp44
 70
     1
102
RTVSPost2010Prop45
280
     0
102
RTVSPost2010PropOp45
 70
     1
102
RTVSPost2010Prop46
 90
       50
102
RTVSPost2010PropOp46
 70
     1
102
RTVSPost2010Prop47
 90
       50
102
RTVSPost2010PropOp47
 70
     1
102
RTVSPost2010Prop48
 90
       50
102
RTVSPost2010PropOp48
 70
     1
102
RTVSPost2010Prop49
280
     0
102
RTVSPost2010PropOp49
 70
     1
102
RTVSPost2010Prop50
 90
       50
102
RTVSPost2010PropOp50
 70
     1
102
RTVSPost2010Prop51ColorIndex
 90
      256
102
RTVSPost2010Prop51ColorRGB
 90
-16777216
102
RTVSPost2010PropOp51
 70
     0
102
RTVSPost2010Prop52
140
1.0
102
RTVSPost2010PropOp52
 70
     0
102
RTVSPost2010Prop53
 90
        2
102
RTVSPost2010PropOp53
 70
     1
102
RTVSPost2010Prop54
  1
strokes_ogs.tif
102
RTVSPost2010PropOp54
 70
     1
102
RTVSPost2010Prop55
280
     0
102
RTVSPost2010PropOp55
 70
     1
102
RTVSPost2010Prop56
140
1.0
102
RTVSPost2010PropOp56
 70
     1
102
RTVSPost2010Prop57
140
1.0
102
RTVSPost2010PropOp57
 70
     1
  0
XRECORD
  5
588
102
{ACAD_REACTORS
330
587
102
}
330
587
100
AcDbXrecord
280
     1
102
RTVSPropertyOp0
 70
     1
102
RTVSPropertyOp1
 70
     1
102
RTVSPropertyOp2
 70
     1
102
RTVSPropertyOp3
 70
     1
102
RTVSPropertyOp4
 70
     1
102
RTVSPropertyOp5
 70
     1
102
RTVSPropertyOp6
 70
     1
102
RTVSPropertyOp7
 70
     1
102
RTVSPropertyOp8
 70
     1
102
RTVSPropertyOp9
 70
     1
102
RTVSPropertyOp10
 70
     1
102
RTVSPropertyOp11
 70
     1
102
RTVSPropertyOp12
 70
     1
102
RTVSPropertyOp13
 70
     1
102
RTVSPropertyOp14
 70
     1
102
RTVSPropertyOp15
 70
     1
102
RTVSPropertyOp16
 70
     1
102
RTVSPropertyOp17
 70
     1
102
RTVSPropertyOp18
 70
     1
102
RTVSPropertyOp19
 70
     1
102
RTVSPropertyOp20
 70
     1
102
RTVSPropertyOp21
 70
     1
102
RTVSPropertyOp22
 70
     1
102
RTVSPropertyOp23
 70
     1
102
RTVSPropertyOp24
 70
     1
102
RTVSPropertyOp25
 70
     1
102
RTVSPropertyOp26
 70
     1
102
RTVSPropertyOp27
 70
     1
102
RTVSPropertyOp28
 70
     1
102
RTVSPropertyOp29
 70
     1
102
RTVSPropertyOp30
 70
     1
102
RTVSPropertyOp31
 70
     1
102
RTVSPropertyOp32
 70
     1
102
RTVSPropertyOp33
 70
     1
102
RTVSPropertyOp34
 70
     1
102
RTVSPropertyOp35
 70
     1
102
RTVSPropertyOp36
 70
     1
102
RTVSPropertyOp37
 70
     1
102
RTVSPropertyOp38
 70
     1
102
RTVSPropertyOp39
 70
     1
102
RTVSPropertyOp40
 70
     1
102
RTVSPropertyOp41
 70
     1
102
RTVSPropertyOp42
 70
     1
102
RTVSPropertyOp43
 70
     1
102
RTVSPropertyOp44
 70
     1
102
RTVSPropertyOp45
 70
     1
102
RTVSPropertyOp46
 70
     1
102
RTVSPropertyOp47
 70
     1
102
RTVSPropertyOp48
 70
     1
102
RTVSPropertyOp49
 70
     1
102
RTVSPropertyOp50
 70
     1
102
RTVSPropertyOp51
 70
     0
102
RTVSPropertyOp52
 70
     0
102
RTVSPropertyOp53
 70
     1
102
RTVSPropertyOp54
 70
     1
102
RTVSPropertyOp55
 70
     1
102
RTVSPropertyOp56
 70
     1
102
RTVSPropertyOp57
 70
     1
102
RTVSPost2010Prop28
280
     0
102
RTVSPost2010PropOp28
 70
     1
102
RTVSPost2010Prop29
280
     1
102
RTVSPost2010PropOp29
 70
     1
102
RTVSPost2010Prop30
280
     1
102
RTVSPost2010PropOp30
 70
     1
102
RTVSPost2010Prop31
280
     0
102
RTVSPost2010PropOp31
 70
     1
102
RTVSPost2010Prop32
280
     0
102
RTVSPost2010PropOp32
 70
     1
102
RTVSPost2010Prop33
280
     0
102
RTVSPost2010PropOp33
 70
     1
102
RTVSPost2010Prop34
280
     0
102
RTVSPost2010PropOp34
 70
     1
102
RTVSPost2010Prop35
280
     0
102
RTVSPost2010PropOp35
 70
     1
102
RTVSPost2010Prop36
280
     0
102
RTVSPost2010PropOp36
 70
     1
102
RTVSPost2010Prop37
 90
       50
102
RTVSPost2010PropOp37
 70
     1
102
RTVSPost2010Prop38
140
0.0
102
RTVSPost2010PropOp38
 70
     1
102
RTVSPost2010Prop39
140
1.0
102
RTVSPost2010PropOp39
 70
     1
102
RTVSPost2010Prop40
 90
        0
102
RTVSPost2010PropOp40
 70
     1
102
RTVSPost2010Prop41ColorIndex
 90
       18
102
RTVSPost2010Prop41ColorRGB
 90
        0
102
RTVSPost2010PropOp41
 70
     1
102
RTVSPost2010Prop42
 90
       50
102
RTVSPost2010PropOp42
 70
     1
102
RTVSPost2010Prop43
 90
        3
102
RTVSPost2010PropOp43
 70
     1
102
RTVSPost2010Prop44ColorIndex
 90
        5
102
RTVSPost2010Prop44ColorRGB
 90
      255
102
RTVSPost2010PropOp44
 70
     1
102
RTVSPost2010Prop45
280
     0
102
RTVSPost2010PropOp45
 70
     1
102
RTVSPost2010Prop46
 90
       50
102
RTVSPost2010PropOp46
 70
     1
102
RTVSPost2010Prop47
 90
       50
102
RTVSPost2010PropOp47
 70
     1
102
RTVSPost2010Prop48
 90
       50
102
RTVSPost2010PropOp48
 70
     1
102
RTVSPost2010Prop49
280
     0
102
RTVSPost2010PropOp49
 70
     1
102
RTVSPost2010Prop50
 90
       50
102
RTVSPost2010PropOp50
 70
     1
102
RTVSPost2010Prop51ColorIndex
 90
      256
102
RTVSPost2010Prop51ColorRGB
 90
-16777216
102
RTVSPost2010PropOp51
 70
     0
102
RTVSPost2010Prop52
140
1.0
102
RTVSPost2010PropOp52
 70
     0
102
RTVSPost2010Prop53
 90
        2
102
RTVSPost2010PropOp53
 70
     1
102
RTVSPost2010Prop54
  1
strokes_ogs.tif
102
RTVSPost2010PropOp54
 70
     1
102
RTVSPost2010Prop55
280
     0
102
RTVSPost2010PropOp55
 70
     1
102
RTVSPost2010Prop56
140
1.0
102
RTVSPost2010PropOp56
 70
     1
102
RTVSPost2010Prop57
140
1.0
102
RTVSPost2010PropOp57
 70
     1
  0
XRECORD
  5
58A
102
{ACAD_REACTORS
330
589
102
}
330
589
100
AcDbXrecord
280
     1
102
RTVSPropertyOp0
 70
     1
102
RTVSPropertyOp1
 70
     1
102
RTVSPropertyOp2
 70
     1
102
RTVSPropertyOp3
 70
     1
102
RTVSPropertyOp4
 70
     1
102
RTVSPropertyOp5
 70
     1
102
RTVSPropertyOp6
 70
     1
102
RTVSPropertyOp7
 70
     1
102
RTVSPropertyOp8
 70
     1
102
RTVSPropertyOp9
 70
     1
102
RTVSPropertyOp10
 70
     1
102
RTVSPropertyOp11
 70
     1
102
RTVSPropertyOp12
 70
     1
102
RTVSPropertyOp13
 70
     1
102
RTVSPropertyOp14
 70
     1
102
RTVSPropertyOp15
 70
     1
102
RTVSPropertyOp16
 70
     1
102
RTVSPropertyOp17
 70
     1
102
RTVSPropertyOp18
 70
     1
102
RTVSPropertyOp19
 70
     1
102
RTVSPropertyOp20
 70
     1
102
RTVSPropertyOp21
 70
     1
102
RTVSPropertyOp22
 70
     1
102
RTVSPropertyOp23
 70
     1
102
RTVSPropertyOp24
 70
     1
102
RTVSPropertyOp25
 70
     1
102
RTVSPropertyOp26
 70
     1
102
RTVSPropertyOp27
 70
     1
102
RTVSPropertyOp28
 70
     1
102
RTVSPropertyOp29
 70
     1
102
RTVSPropertyOp30
 70
     1
102
RTVSPropertyOp31
 70
     1
102
RTVSPropertyOp32
 70
     1
102
RTVSPropertyOp33
 70
     1
102
RTVSPropertyOp34
 70
     1
102
RTVSPropertyOp35
 70
     1
102
RTVSPropertyOp36
 70
     1
102
RTVSPropertyOp37
 70
     1
102
RTVSPropertyOp38
 70
     1
102
RTVSPropertyOp39
 70
     1
102
RTVSPropertyOp40
 70
     1
102
RTVSPropertyOp41
 70
     1
102
RTVSPropertyOp42
 70
     1
102
RTVSPropertyOp43
 70
     1
102
RTVSPropertyOp44
 70
     1
102
RTVSPropertyOp45
 70
     1
102
RTVSPropertyOp46
 70
     1
102
RTVSPropertyOp47
 70
     1
102
RTVSPropertyOp48
 70
     1
102
RTVSPropertyOp49
 70
     1
102
RTVSPropertyOp50
 70
     1
102
RTVSPropertyOp51
 70
     0
102
RTVSPropertyOp52
 70
     0
102
RTVSPropertyOp53
 70
     1
102
RTVSPropertyOp54
 70
     1
102
RTVSPropertyOp55
 70
     1
102
RTVSPropertyOp56
 70
     1
102
RTVSPropertyOp57
 70
     1
102
RTVSPost2010Prop28
280
     0
102
RTVSPost2010PropOp28
 70
     1
102
RTVSPost2010Prop29
280
     1
102
RTVSPost2010PropOp29
 70
     1
102
RTVSPost2010Prop30
280
     1
102
RTVSPost2010PropOp30
 70
     1
102
RTVSPost2010Prop31
280
     0
102
RTVSPost2010PropOp31
 70
     1
102
RTVSPost2010Prop32
280
     0
102
RTVSPost2010PropOp32
 70
     1
102
RTVSPost2010Prop33
280
     0
102
RTVSPost2010PropOp33
 70
     1
102
RTVSPost2010Prop34
280
     0
102
RTVSPost2010PropOp34
 70
     1
102
RTVSPost2010Prop35
280
     0
102
RTVSPost2010PropOp35
 70
     1
102
RTVSPost2010Prop36
280
     0
102
RTVSPost2010PropOp36
 70
     1
102
RTVSPost2010Prop37
 90
       50
102
RTVSPost2010PropOp37
 70
     1
102
RTVSPost2010Prop38
140
0.0
102
RTVSPost2010PropOp38
 70
     1
102
RTVSPost2010Prop39
140
1.0
102
RTVSPost2010PropOp39
 70
     1
102
RTVSPost2010Prop40
 90
        0
102
RTVSPost2010PropOp40
 70
     1
102
RTVSPost2010Prop41ColorIndex
 90
       18
102
RTVSPost2010Prop41ColorRGB
 90
        0
102
RTVSPost2010PropOp41
 70
     1
102
RTVSPost2010Prop42
 90
       50
102
RTVSPost2010PropOp42
 70
     1
102
RTVSPost2010Prop43
 90
        3
102
RTVSPost2010PropOp43
 70
     1
102
RTVSPost2010Prop44ColorIndex
 90
        5
102
RTVSPost2010Prop44ColorRGB
 90
      255
102
RTVSPost2010PropOp44
 70
     1
102
RTVSPost2010Prop45
280
     0
102
RTVSPost2010PropOp45
 70
     1
102
RTVSPost2010Prop46
 90
       50
102
RTVSPost2010PropOp46
 70
     1
102
RTVSPost2010Prop47
 90
       50
102
RTVSPost2010PropOp47
 70
     1
102
RTVSPost2010Prop48
 90
       50
102
RTVSPost2010PropOp48
 70
     1
102
RTVSPost2010Prop49
280
     0
102
RTVSPost2010PropOp49
 70
     1
102
RTVSPost2010Prop50
 90
       50
102
RTVSPost2010PropOp50
 70
     1
102
RTVSPost2010Prop51ColorIndex
 90
      256
102
RTVSPost2010Prop51ColorRGB
 90
-16777216
102
RTVSPost2010PropOp51
 70
     0
102
RTVSPost2010Prop52
140
1.0
102
RTVSPost2010PropOp52
 70
     0
102
RTVSPost2010Prop53
 90
        2
102
RTVSPost2010PropOp53
 70
     1
102
RTVSPost2010Prop54
  1
strokes_ogs.tif
102
RTVSPost2010PropOp54
 70
     1
102
RTVSPost2010Prop55
280
     0
102
RTVSPost2010PropOp55
 70
     1
102
RTVSPost2010Prop56
140
1.0
102
RTVSPost2010PropOp56
 70
     1
102
RTVSPost2010Prop57
140
1.0
102
RTVSPost2010PropOp57
 70
     1
  0
XRECORD
  5
58C
102
{ACAD_REACTORS
330
58B
102
}
330
58B
100
AcDbXrecord
280
     1
102
RTVSPropertyOp0
 70
     1
102
RTVSPropertyOp1
 70
     1
102
RTVSPropertyOp2
 70
     1
102
RTVSPropertyOp3
 70
     1
102
RTVSPropertyOp4
 70
     1
102
RTVSPropertyOp5
 70
     1
102
RTVSPropertyOp6
 70
     1
102
RTVSPropertyOp7
 70
     1
102
RTVSPropertyOp8
 70
     1
102
RTVSPropertyOp9
 70
     1
102
RTVSPropertyOp10
 70
     1
102
RTVSPropertyOp11
 70
     1
102
RTVSPropertyOp12
 70
     1
102
RTVSPropertyOp13
 70
     1
102
RTVSPropertyOp14
 70
     1
102
RTVSPropertyOp15
 70
     1
102
RTVSPropertyOp16
 70
     1
102
RTVSPropertyOp17
 70
     1
102
RTVSPropertyOp18
 70
     1
102
RTVSPropertyOp19
 70
     1
102
RTVSPropertyOp20
 70
     1
102
RTVSPropertyOp21
 70
     1
102
RTVSPropertyOp22
 70
     1
102
RTVSPropertyOp23
 70
     1
102
RTVSPropertyOp24
 70
     1
102
RTVSPropertyOp25
 70
     1
102
RTVSPropertyOp26
 70
     1
102
RTVSPropertyOp27
 70
     1
102
RTVSPropertyOp28
 70
     1
102
RTVSPropertyOp29
 70
     1
102
RTVSPropertyOp30
 70
     1
102
RTVSPropertyOp31
 70
     1
102
RTVSPropertyOp32
 70
     1
102
RTVSPropertyOp33
 70
     1
102
RTVSPropertyOp34
 70
     1
102
RTVSPropertyOp35
 70
     1
102
RTVSPropertyOp36
 70
     1
102
RTVSPropertyOp37
 70
     1
102
RTVSPropertyOp38
 70
     1
102
RTVSPropertyOp39
 70
     1
102
RTVSPropertyOp40
 70
     1
102
RTVSPropertyOp41
 70
     1
102
RTVSPropertyOp42
 70
     1
102
RTVSPropertyOp43
 70
     1
102
RTVSPropertyOp44
 70
     1
102
RTVSPropertyOp45
 70
     1
102
RTVSPropertyOp46
 70
     1
102
RTVSPropertyOp47
 70
     1
102
RTVSPropertyOp48
 70
     1
102
RTVSPropertyOp49
 70
     1
102
RTVSPropertyOp50
 70
     1
102
RTVSPropertyOp51
 70
     0
102
RTVSPropertyOp52
 70
     0
102
RTVSPropertyOp53
 70
     1
102
RTVSPropertyOp54
 70
     1
102
RTVSPropertyOp55
 70
     1
102
RTVSPropertyOp56
 70
     1
102
RTVSPropertyOp57
 70
     1
102
RTVSPost2010Prop28
280
     0
102
RTVSPost2010PropOp28
 70
     1
102
RTVSPost2010Prop29
280
     1
102
RTVSPost2010PropOp29
 70
     1
102
RTVSPost2010Prop30
280
     1
102
RTVSPost2010PropOp30
 70
     1
102
RTVSPost2010Prop31
280
     0
102
RTVSPost2010PropOp31
 70
     1
102
RTVSPost2010Prop32
280
     0
102
RTVSPost2010PropOp32
 70
     1
102
RTVSPost2010Prop33
280
     0
102
RTVSPost2010PropOp33
 70
     1
102
RTVSPost2010Prop34
280
     0
102
RTVSPost2010PropOp34
 70
     1
102
RTVSPost2010Prop35
280
     0
102
RTVSPost2010PropOp35
 70
     1
102
RTVSPost2010Prop36
280
     0
102
RTVSPost2010PropOp36
 70
     1
102
RTVSPost2010Prop37
 90
       50
102
RTVSPost2010PropOp37
 70
     1
102
RTVSPost2010Prop38
140
0.0
102
RTVSPost2010PropOp38
 70
     1
102
RTVSPost2010Prop39
140
1.0
102
RTVSPost2010PropOp39
 70
     1
102
RTVSPost2010Prop40
 90
        0
102
RTVSPost2010PropOp40
 70
     1
102
RTVSPost2010Prop41ColorIndex
 90
       18
102
RTVSPost2010Prop41ColorRGB
 90
        0
102
RTVSPost2010PropOp41
 70
     1
102
RTVSPost2010Prop42
 90
       50
102
RTVSPost2010PropOp42
 70
     1
102
RTVSPost2010Prop43
 90
        3
102
RTVSPost2010PropOp43
 70
     1
102
RTVSPost2010Prop44ColorIndex
 90
        5
102
RTVSPost2010Prop44ColorRGB
 90
      255
102
RTVSPost2010PropOp44
 70
     1
102
RTVSPost2010Prop45
280
     0
102
RTVSPost2010PropOp45
 70
     1
102
RTVSPost2010Prop46
 90
       50
102
RTVSPost2010PropOp46
 70
     1
102
RTVSPost2010Prop47
 90
       50
102
RTVSPost2010PropOp47
 70
     1
102
RTVSPost2010Prop48
 90
       50
102
RTVSPost2010PropOp48
 70
     1
102
RTVSPost2010Prop49
280
     0
102
RTVSPost2010PropOp49
 70
     1
102
RTVSPost2010Prop50
 90
       50
102
RTVSPost2010PropOp50
 70
     1
102
RTVSPost2010Prop51ColorIndex
 90
      256
102
RTVSPost2010Prop51ColorRGB
 90
-16777216
102
RTVSPost2010PropOp51
 70
     0
102
RTVSPost2010Prop52
140
1.0
102
RTVSPost2010PropOp52
 70
     0
102
RTVSPost2010Prop53
 90
        2
102
RTVSPost2010PropOp53
 70
     1
102
RTVSPost2010Prop54
  1
strokes_ogs.tif
102
RTVSPost2010PropOp54
 70
     1
102
RTVSPost2010Prop55
280
     0
102
RTVSPost2010PropOp55
 70
     1
102
RTVSPost2010Prop56
140
1.0
102
RTVSPost2010PropOp56
 70
     1
102
RTVSPost2010Prop57
140
1.0
102
RTVSPost2010PropOp57
 70
     1
  0
XRECORD
  5
58E
102
{ACAD_REACTORS
330
58D
102
}
330
58D
100
AcDbXrecord
280
     1
102
RTVSPropertyOp0
 70
     1
102
RTVSPropertyOp1
 70
     1
102
RTVSPropertyOp2
 70
     1
102
RTVSPropertyOp3
 70
     1
102
RTVSPropertyOp4
 70
     1
102
RTVSPropertyOp5
 70
     1
102
RTVSPropertyOp6
 70
     1
102
RTVSPropertyOp7
 70
     1
102
RTVSPropertyOp8
 70
     1
102
RTVSPropertyOp9
 70
     1
102
RTVSPropertyOp10
 70
     1
102
RTVSPropertyOp11
 70
     1
102
RTVSPropertyOp12
 70
     1
102
RTVSPropertyOp13
 70
     1
102
RTVSPropertyOp14
 70
     1
102
RTVSPropertyOp15
 70
     1
102
RTVSPropertyOp16
 70
     1
102
RTVSPropertyOp17
 70
     1
102
RTVSPropertyOp18
 70
     1
102
RTVSPropertyOp19
 70
     1
102
RTVSPropertyOp20
 70
     1
102
RTVSPropertyOp21
 70
     1
102
RTVSPropertyOp22
 70
     1
102
RTVSPropertyOp23
 70
     1
102
RTVSPropertyOp24
 70
     1
102
RTVSPropertyOp25
 70
     1
102
RTVSPropertyOp26
 70
     1
102
RTVSPropertyOp27
 70
     1
102
RTVSPropertyOp28
 70
     1
102
RTVSPropertyOp29
 70
     1
102
RTVSPropertyOp30
 70
     1
102
RTVSPropertyOp31
 70
     1
102
RTVSPropertyOp32
 70
     1
102
RTVSPropertyOp33
 70
     1
102
RTVSPropertyOp34
 70
     1
102
RTVSPropertyOp35
 70
     1
102
RTVSPropertyOp36
 70
     1
102
RTVSPropertyOp37
 70
     1
102
RTVSPropertyOp38
 70
     1
102
RTVSPropertyOp39
 70
     1
102
RTVSPropertyOp40
 70
     1
102
RTVSPropertyOp41
 70
     1
102
RTVSPropertyOp42
 70
     1
102
RTVSPropertyOp43
 70
     1
102
RTVSPropertyOp44
 70
     1
102
RTVSPropertyOp45
 70
     1
102
RTVSPropertyOp46
 70
     1
102
RTVSPropertyOp47
 70
     1
102
RTVSPropertyOp48
 70
     1
102
RTVSPropertyOp49
 70
     1
102
RTVSPropertyOp50
 70
     1
102
RTVSPropertyOp51
 70
     0
102
RTVSPropertyOp52
 70
     0
102
RTVSPropertyOp53
 70
     1
102
RTVSPropertyOp54
 70
     1
102
RTVSPropertyOp55
 70
     1
102
RTVSPropertyOp56
 70
     1
102
RTVSPropertyOp57
 70
     1
102
RTVSPost2010Prop28
280
     0
102
RTVSPost2010PropOp28
 70
     1
102
RTVSPost2010Prop29
280
     1
102
RTVSPost2010PropOp29
 70
     1
102
RTVSPost2010Prop30
280
     1
102
RTVSPost2010PropOp30
 70
     1
102
RTVSPost2010Prop31
280
     0
102
RTVSPost2010PropOp31
 70
     1
102
RTVSPost2010Prop32
280
     0
102
RTVSPost2010PropOp32
 70
     1
102
RTVSPost2010Prop33
280
     0
102
RTVSPost2010PropOp33
 70
     1
102
RTVSPost2010Prop34
280
     0
102
RTVSPost2010PropOp34
 70
     1
102
RTVSPost2010Prop35
280
     0
102
RTVSPost2010PropOp35
 70
     1
102
RTVSPost2010Prop36
280
     0
102
RTVSPost2010PropOp36
 70
     1
102
RTVSPost2010Prop37
 90
       50
102
RTVSPost2010PropOp37
 70
     1
102
RTVSPost2010Prop38
140
0.0
102
RTVSPost2010PropOp38
 70
     1
102
RTVSPost2010Prop39
140
1.0
102
RTVSPost2010PropOp39
 70
     1
102
RTVSPost2010Prop40
 90
        0
102
RTVSPost2010PropOp40
 70
     1
102
RTVSPost2010Prop41ColorIndex
 90
       18
102
RTVSPost2010Prop41ColorRGB
 90
        0
102
RTVSPost2010PropOp41
 70
     1
102
RTVSPost2010Prop42
 90
       50
102
RTVSPost2010PropOp42
 70
     1
102
RTVSPost2010Prop43
 90
        3
102
RTVSPost2010PropOp43
 70
     1
102
RTVSPost2010Prop44ColorIndex
 90
        5
102
RTVSPost2010Prop44ColorRGB
 90
      255
102
RTVSPost2010PropOp44
 70
     1
102
RTVSPost2010Prop45
280
     0
102
RTVSPost2010PropOp45
 70
     1
102
RTVSPost2010Prop46
 90
       50
102
RTVSPost2010PropOp46
 70
     1
102
RTVSPost2010Prop47
 90
       50
102
RTVSPost2010PropOp47
 70
     1
102
RTVSPost2010Prop48
 90
       50
102
RTVSPost2010PropOp48
 70
     1
102
RTVSPost2010Prop49
280
     0
102
RTVSPost2010PropOp49
 70
     1
102
RTVSPost2010Prop50
 90
       50
102
RTVSPost2010PropOp50
 70
     1
102
RTVSPost2010Prop51ColorIndex
 90
      256
102
RTVSPost2010Prop51ColorRGB
 90
-16777216
102
RTVSPost2010PropOp51
 70
     0
102
RTVSPost2010Prop52
140
1.0
102
RTVSPost2010PropOp52
 70
     0
102
RTVSPost2010Prop53
 90
        2
102
RTVSPost2010PropOp53
 70
     1
102
RTVSPost2010Prop54
  1
strokes_ogs.tif
102
RTVSPost2010PropOp54
 70
     1
102
RTVSPost2010Prop55
280
     0
102
RTVSPost2010PropOp55
 70
     1
102
RTVSPost2010Prop56
140
1.0
102
RTVSPost2010PropOp56
 70
     1
102
RTVSPost2010Prop57
140
1.0
102
RTVSPost2010PropOp57
 70
     1
  0
XRECORD
  5
5A2
102
{ACAD_REACTORS
330
5A1
102
}
330
5A1
100
AcDbXrecord
280
     1
102
RTVSPropertyOp0
 70
     1
102
RTVSPropertyOp1
 70
     1
102
RTVSPropertyOp2
 70
     1
102
RTVSPropertyOp3
 70
     1
102
RTVSPropertyOp4
 70
     1
102
RTVSPropertyOp5
 70
     1
102
RTVSPropertyOp6
 70
     1
102
RTVSPropertyOp7
 70
     1
102
RTVSPropertyOp8
 70
     1
102
RTVSPropertyOp9
 70
     1
102
RTVSPropertyOp10
 70
     1
102
RTVSPropertyOp11
 70
     1
102
RTVSPropertyOp12
 70
     1
102
RTVSPropertyOp13
 70
     1
102
RTVSPropertyOp14
 70
     1
102
RTVSPropertyOp15
 70
     1
102
RTVSPropertyOp16
 70
     1
102
RTVSPropertyOp17
 70
     1
102
RTVSPropertyOp18
 70
     1
102
RTVSPropertyOp19
 70
     1
102
RTVSPropertyOp20
 70
     1
102
RTVSPropertyOp21
 70
     1
102
RTVSPropertyOp22
 70
     1
102
RTVSPropertyOp23
 70
     1
102
RTVSPropertyOp24
 70
     1
102
RTVSPropertyOp25
 70
     1
102
RTVSPropertyOp26
 70
     1
102
RTVSPropertyOp27
 70
     1
102
RTVSPropertyOp28
 70
     1
102
RTVSPropertyOp29
 70
     1
102
RTVSPropertyOp30
 70
     1
102
RTVSPropertyOp31
 70
     1
102
RTVSPropertyOp32
 70
     1
102
RTVSPropertyOp33
 70
     1
102
RTVSPropertyOp34
 70
     1
102
RTVSPropertyOp35
 70
     1
102
RTVSPropertyOp36
 70
     1
102
RTVSPropertyOp37
 70
     1
102
RTVSPropertyOp38
 70
     1
102
RTVSPropertyOp39
 70
     1
102
RTVSPropertyOp40
 70
     1
102
RTVSPropertyOp41
 70
     1
102
RTVSPropertyOp42
 70
     1
102
RTVSPropertyOp43
 70
     1
102
RTVSPropertyOp44
 70
     1
102
RTVSPropertyOp45
 70
     1
102
RTVSPropertyOp46
 70
     1
102
RTVSPropertyOp47
 70
     1
102
RTVSPropertyOp48
 70
     1
102
RTVSPropertyOp49
 70
     1
102
RTVSPropertyOp50
 70
     1
102
RTVSPropertyOp51
 70
     0
102
RTVSPropertyOp52
 70
     0
102
RTVSPropertyOp53
 70
     1
102
RTVSPropertyOp54
 70
     1
102
RTVSPropertyOp55
 70
     1
102
RTVSPropertyOp56
 70
     1
102
RTVSPropertyOp57
 70
     1
102
RTVSPost2010Prop28
280
     0
102
RTVSPost2010PropOp28
 70
     1
102
RTVSPost2010Prop29
280
     1
102
RTVSPost2010PropOp29
 70
     1
102
RTVSPost2010Prop30
280
     1
102
RTVSPost2010PropOp30
 70
     1
102
RTVSPost2010Prop31
280
     0
102
RTVSPost2010PropOp31
 70
     1
102
RTVSPost2010Prop32
280
     0
102
RTVSPost2010PropOp32
 70
     1
102
RTVSPost2010Prop33
280
     0
102
RTVSPost2010PropOp33
 70
     1
102
RTVSPost2010Prop34
280
     0
102
RTVSPost2010PropOp34
 70
     1
102
RTVSPost2010Prop35
280
     0
102
RTVSPost2010PropOp35
 70
     1
102
RTVSPost2010Prop36
280
     0
102
RTVSPost2010PropOp36
 70
     1
102
RTVSPost2010Prop37
 90
       50
102
RTVSPost2010PropOp37
 70
     1
102
RTVSPost2010Prop38
140
0.0
102
RTVSPost2010PropOp38
 70
     1
102
RTVSPost2010Prop39
140
1.0
102
RTVSPost2010PropOp39
 70
     1
102
RTVSPost2010Prop40
 90
        0
102
RTVSPost2010PropOp40
 70
     1
102
RTVSPost2010Prop41ColorIndex
 90
       18
102
RTVSPost2010Prop41ColorRGB
 90
        0
102
RTVSPost2010PropOp41
 70
     1
102
RTVSPost2010Prop42
 90
       50
102
RTVSPost2010PropOp42
 70
     1
102
RTVSPost2010Prop43
 90
        3
102
RTVSPost2010PropOp43
 70
     1
102
RTVSPost2010Prop44ColorIndex
 90
        5
102
RTVSPost2010Prop44ColorRGB
 90
      255
102
RTVSPost2010PropOp44
 70
     1
102
RTVSPost2010Prop45
280
     0
102
RTVSPost2010PropOp45
 70
     1
102
RTVSPost2010Prop46
 90
       50
102
RTVSPost2010PropOp46
 70
     1
102
RTVSPost2010Prop47
 90
       50
102
RTVSPost2010PropOp47
 70
     1
102
RTVSPost2010Prop48
 90
       50
102
RTVSPost2010PropOp48
 70
     1
102
RTVSPost2010Prop49
280
     0
102
RTVSPost2010PropOp49
 70
     1
102
RTVSPost2010Prop50
 90
       50
102
RTVSPost2010PropOp50
 70
     1
102
RTVSPost2010Prop51ColorIndex
 90
      256
102
RTVSPost2010Prop51ColorRGB
 90
-16777216
102
RTVSPost2010PropOp51
 70
     0
102
RTVSPost2010Prop52
140
1.0
102
RTVSPost2010PropOp52
 70
     0
102
RTVSPost2010Prop53
 90
        2
102
RTVSPost2010PropOp53
 70
     1
102
RTVSPost2010Prop54
  1
strokes_ogs.tif
102
RTVSPost2010PropOp54
 70
     1
102
RTVSPost2010Prop55
280
     0
102
RTVSPost2010PropOp55
 70
     1
102
RTVSPost2010Prop56
140
1.0
102
RTVSPost2010PropOp56
 70
     1
102
RTVSPost2010Prop57
140
1.0
102
RTVSPost2010PropOp57
 70
     1
  0
XRECORD
  5
598
102
{ACAD_REACTORS
330
597
102
}
330
597
100
AcDbXrecord
280
     1
102
RTVSPropertyOp0
 70
     1
102
RTVSPropertyOp1
 70
     1
102
RTVSPropertyOp2
 70
     1
102
RTVSPropertyOp3
 70
     1
102
RTVSPropertyOp4
 70
     1
102
RTVSPropertyOp5
 70
     1
102
RTVSPropertyOp6
 70
     1
102
RTVSPropertyOp7
 70
     1
102
RTVSPropertyOp8
 70
     1
102
RTVSPropertyOp9
 70
     1
102
RTVSPropertyOp10
 70
     1
102
RTVSPropertyOp11
 70
     1
102
RTVSPropertyOp12
 70
     1
102
RTVSPropertyOp13
 70
     1
102
RTVSPropertyOp14
 70
     1
102
RTVSPropertyOp15
 70
     1
102
RTVSPropertyOp16
 70
     1
102
RTVSPropertyOp17
 70
     1
102
RTVSPropertyOp18
 70
     1
102
RTVSPropertyOp19
 70
     1
102
RTVSPropertyOp20
 70
     1
102
RTVSPropertyOp21
 70
     1
102
RTVSPropertyOp22
 70
     1
102
RTVSPropertyOp23
 70
     1
102
RTVSPropertyOp24
 70
     1
102
RTVSPropertyOp25
 70
     1
102
RTVSPropertyOp26
 70
     1
102
RTVSPropertyOp27
 70
     1
102
RTVSPropertyOp28
 70
     1
102
RTVSPropertyOp29
 70
     1
102
RTVSPropertyOp30
 70
     1
102
RTVSPropertyOp31
 70
     1
102
RTVSPropertyOp32
 70
     1
102
RTVSPropertyOp33
 70
     1
102
RTVSPropertyOp34
 70
     1
102
RTVSPropertyOp35
 70
     1
102
RTVSPropertyOp36
 70
     1
102
RTVSPropertyOp37
 70
     1
102
RTVSPropertyOp38
 70
     1
102
RTVSPropertyOp39
 70
     1
102
RTVSPropertyOp40
 70
     1
102
RTVSPropertyOp41
 70
     1
102
RTVSPropertyOp42
 70
     1
102
RTVSPropertyOp43
 70
     1
102
RTVSPropertyOp44
 70
     1
102
RTVSPropertyOp45
 70
     1
102
RTVSPropertyOp46
 70
     1
102
RTVSPropertyOp47
 70
     1
102
RTVSPropertyOp48
 70
     1
102
RTVSPropertyOp49
 70
     1
102
RTVSPropertyOp50
 70
     1
102
RTVSPropertyOp51
 70
     0
102
RTVSPropertyOp52
 70
     0
102
RTVSPropertyOp53
 70
     1
102
RTVSPropertyOp54
 70
     1
102
RTVSPropertyOp55
 70
     1
102
RTVSPropertyOp56
 70
     1
102
RTVSPropertyOp57
 70
     1
102
RTVSPost2010Prop28
280
     0
102
RTVSPost2010PropOp28
 70
     1
102
RTVSPost2010Prop29
280
     1
102
RTVSPost2010PropOp29
 70
     1
102
RTVSPost2010Prop30
280
     1
102
RTVSPost2010PropOp30
 70
     1
102
RTVSPost2010Prop31
280
     0
102
RTVSPost2010PropOp31
 70
     1
102
RTVSPost2010Prop32
280
     0
102
RTVSPost2010PropOp32
 70
     1
102
RTVSPost2010Prop33
280
     0
102
RTVSPost2010PropOp33
 70
     1
102
RTVSPost2010Prop34
280
     0
102
RTVSPost2010PropOp34
 70
     1
102
RTVSPost2010Prop35
280
     0
102
RTVSPost2010PropOp35
 70
     1
102
RTVSPost2010Prop36
280
     0
102
RTVSPost2010PropOp36
 70
     1
102
RTVSPost2010Prop37
 90
       50
102
RTVSPost2010PropOp37
 70
     1
102
RTVSPost2010Prop38
140
0.0
102
RTVSPost2010PropOp38
 70
     1
102
RTVSPost2010Prop39
140
1.0
102
RTVSPost2010PropOp39
 70
     1
102
RTVSPost2010Prop40
 90
        0
102
RTVSPost2010PropOp40
 70
     1
102
RTVSPost2010Prop41ColorIndex
 90
       18
102
RTVSPost2010Prop41ColorRGB
 90
        0
102
RTVSPost2010PropOp41
 70
     1
102
RTVSPost2010Prop42
 90
       50
102
RTVSPost2010PropOp42
 70
     1
102
RTVSPost2010Prop43
 90
        3
102
RTVSPost2010PropOp43
 70
     1
102
RTVSPost2010Prop44ColorIndex
 90
        5
102
RTVSPost2010Prop44ColorRGB
 90
      255
102
RTVSPost2010PropOp44
 70
     1
102
RTVSPost2010Prop45
280
     0
102
RTVSPost2010PropOp45
 70
     1
102
RTVSPost2010Prop46
 90
       50
102
RTVSPost2010PropOp46
 70
     1
102
RTVSPost2010Prop47
 90
       50
102
RTVSPost2010PropOp47
 70
     1
102
RTVSPost2010Prop48
 90
       50
102
RTVSPost2010PropOp48
 70
     1
102
RTVSPost2010Prop49
280
     0
102
RTVSPost2010PropOp49
 70
     1
102
RTVSPost2010Prop50
 90
       50
102
RTVSPost2010PropOp50
 70
     1
102
RTVSPost2010Prop51ColorIndex
 90
      256
102
RTVSPost2010Prop51ColorRGB
 90
-16777216
102
RTVSPost2010PropOp51
 70
     0
102
RTVSPost2010Prop52
140
1.0
102
RTVSPost2010PropOp52
 70
     0
102
RTVSPost2010Prop53
 90
        2
102
RTVSPost2010PropOp53
 70
     1
102
RTVSPost2010Prop54
  1
strokes_ogs.tif
102
RTVSPost2010PropOp54
 70
     1
102
RTVSPost2010Prop55
280
     0
102
RTVSPost2010PropOp55
 70
     1
102
RTVSPost2010Prop56
140
1.0
102
RTVSPost2010PropOp56
 70
     1
102
RTVSPost2010Prop57
140
1.0
102
RTVSPost2010PropOp57
 70
     1
  0
XRECORD
  5
5A0
102
{ACAD_REACTORS
330
59F
102
}
330
59F
100
AcDbXrecord
280
     1
102
RTVSPropertyOp0
 70
     1
102
RTVSPropertyOp1
 70
     1
102
RTVSPropertyOp2
 70
     1
102
RTVSPropertyOp3
 70
     1
102
RTVSPropertyOp4
 70
     1
102
RTVSPropertyOp5
 70
     1
102
RTVSPropertyOp6
 70
     1
102
RTVSPropertyOp7
 70
     1
102
RTVSPropertyOp8
 70
     1
102
RTVSPropertyOp9
 70
     1
102
RTVSPropertyOp10
 70
     1
102
RTVSPropertyOp11
 70
     1
102
RTVSPropertyOp12
 70
     1
102
RTVSPropertyOp13
 70
     1
102
RTVSPropertyOp14
 70
     1
102
RTVSPropertyOp15
 70
     1
102
RTVSPropertyOp16
 70
     1
102
RTVSPropertyOp17
 70
     1
102
RTVSPropertyOp18
 70
     1
102
RTVSPropertyOp19
 70
     1
102
RTVSPropertyOp20
 70
     1
102
RTVSPropertyOp21
 70
     1
102
RTVSPropertyOp22
 70
     1
102
RTVSPropertyOp23
 70
     1
102
RTVSPropertyOp24
 70
     1
102
RTVSPropertyOp25
 70
     1
102
RTVSPropertyOp26
 70
     1
102
RTVSPropertyOp27
 70
     1
102
RTVSPropertyOp28
 70
     1
102
RTVSPropertyOp29
 70
     1
102
RTVSPropertyOp30
 70
     1
102
RTVSPropertyOp31
 70
     1
102
RTVSPropertyOp32
 70
     1
102
RTVSPropertyOp33
 70
     1
102
RTVSPropertyOp34
 70
     1
102
RTVSPropertyOp35
 70
     1
102
RTVSPropertyOp36
 70
     1
102
RTVSPropertyOp37
 70
     1
102
RTVSPropertyOp38
 70
     1
102
RTVSPropertyOp39
 70
     1
102
RTVSPropertyOp40
 70
     1
102
RTVSPropertyOp41
 70
     1
102
RTVSPropertyOp42
 70
     1
102
RTVSPropertyOp43
 70
     1
102
RTVSPropertyOp44
 70
     1
102
RTVSPropertyOp45
 70
     1
102
RTVSPropertyOp46
 70
     1
102
RTVSPropertyOp47
 70
     1
102
RTVSPropertyOp48
 70
     1
102
RTVSPropertyOp49
 70
     1
102
RTVSPropertyOp50
 70
     1
102
RTVSPropertyOp51
 70
     0
102
RTVSPropertyOp52
 70
     0
102
RTVSPropertyOp53
 70
     1
102
RTVSPropertyOp54
 70
     1
102
RTVSPropertyOp55
 70
     1
102
RTVSPropertyOp56
 70
     1
102
RTVSPropertyOp57
 70
     1
102
RTVSPost2010Prop28
280
     0
102
RTVSPost2010PropOp28
 70
     1
102
RTVSPost2010Prop29
280
     1
102
RTVSPost2010PropOp29
 70
     1
102
RTVSPost2010Prop30
280
     1
102
RTVSPost2010PropOp30
 70
     1
102
RTVSPost2010Prop31
280
     0
102
RTVSPost2010PropOp31
 70
     1
102
RTVSPost2010Prop32
280
     0
102
RTVSPost2010PropOp32
 70
     1
102
RTVSPost2010Prop33
280
     0
102
RTVSPost2010PropOp33
 70
     1
102
RTVSPost2010Prop34
280
     0
102
RTVSPost2010PropOp34
 70
     1
102
RTVSPost2010Prop35
280
     0
102
RTVSPost2010PropOp35
 70
     1
102
RTVSPost2010Prop36
280
     0
102
RTVSPost2010PropOp36
 70
     1
102
RTVSPost2010Prop37
 90
       50
102
RTVSPost2010PropOp37
 70
     1
102
RTVSPost2010Prop38
140
0.0
102
RTVSPost2010PropOp38
 70
     1
102
RTVSPost2010Prop39
140
1.0
102
RTVSPost2010PropOp39
 70
     1
102
RTVSPost2010Prop40
 90
        0
102
RTVSPost2010PropOp40
 70
     1
102
RTVSPost2010Prop41ColorIndex
 90
       18
102
RTVSPost2010Prop41ColorRGB
 90
        0
102
RTVSPost2010PropOp41
 70
     1
102
RTVSPost2010Prop42
 90
       50
102
RTVSPost2010PropOp42
 70
     1
102
RTVSPost2010Prop43
 90
        3
102
RTVSPost2010PropOp43
 70
     1
102
RTVSPost2010Prop44ColorIndex
 90
        5
102
RTVSPost2010Prop44ColorRGB
 90
      255
102
RTVSPost2010PropOp44
 70
     1
102
RTVSPost2010Prop45
280
     0
102
RTVSPost2010PropOp45
 70
     1
102
RTVSPost2010Prop46
 90
       50
102
RTVSPost2010PropOp46
 70
     1
102
RTVSPost2010Prop47
 90
       50
102
RTVSPost2010PropOp47
 70
     1
102
RTVSPost2010Prop48
 90
       50
102
RTVSPost2010PropOp48
 70
     1
102
RTVSPost2010Prop49
280
     0
102
RTVSPost2010PropOp49
 70
     1
102
RTVSPost2010Prop50
 90
       50
102
RTVSPost2010PropOp50
 70
     1
102
RTVSPost2010Prop51ColorIndex
 90
      256
102
RTVSPost2010Prop51ColorRGB
 90
-16777216
102
RTVSPost2010PropOp51
 70
     0
102
RTVSPost2010Prop52
140
1.0
102
RTVSPost2010PropOp52
 70
     0
102
RTVSPost2010Prop53
 90
        2
102
RTVSPost2010PropOp53
 70
     1
102
RTVSPost2010Prop54
  1
strokes_ogs.tif
102
RTVSPost2010PropOp54
 70
     1
102
RTVSPost2010Prop55
280
     0
102
RTVSPost2010PropOp55
 70
     1
102
RTVSPost2010Prop56
140
1.0
102
RTVSPost2010PropOp56
 70
     1
102
RTVSPost2010Prop57
140
1.0
102
RTVSPost2010PropOp57
 70
     1
  0
ENDSEC
  0
EOF
